  0
SECTION
  2
HEADER
  9
$ACADVER
  1
AC1027
  9
$ACADMAINTVER
 70
   105
  9
$DWGCODEPAGE
  3
ANSI_932
  9
$REQUIREDVERSIONS
160
                 0
  9
$INSBASE
 10
0.0
 20
0.0
 30
0.0
  9
$EXTMIN
 10
-1050.0
 20
-742.5
 30
0.0
  9
$EXTMAX
 10
1050.0
 20
742.5
 30
0.0
  9
$LIMMIN
 10
-1050.0
 20
-742.5
  9
$LIMMAX
 10
1050.0
 20
742.5
  9
$ORTHOMODE
 70
     0
  9
$REGENMODE
 70
     1
  9
$FILLMODE
 70
     1
  9
$QTEXTMODE
 70
     0
  9
$MIRRTEXT
 70
     1
  9
$LTSCALE
 40
5.0
  9
$ATTMODE
 70
     1
  9
$TEXTSIZE
 40
2.5
  9
$TRACEWID
 40
1.0
  9
$TEXTSTYLE
  7
Standard
  9
$CLAYER
  8
0
  9
$CELTYPE
  6
ByLayer
  9
$CECOLOR
 62
   256
  9
$CELTSCALE
 40
1.0
  9
$DISPSILH
 70
     0
  9
$DIMSCALE
 40
1.0
  9
$DIMASZ
 40
2.5
  9
$DIMEXO
 40
0.625
  9
$DIMDLI
 40
3.75
  9
$DIMRND
 40
0.0
  9
$DIMDLE
 40
0.0
  9
$DIMEXE
 40
1.25
  9
$DIMTP
 40
0.0
  9
$DIMTM
 40
0.0
  9
$DIMTXT
 40
2.5
  9
$DIMCEN
 40
2.5
  9
$DIMTSZ
 40
0.0
  9
$DIMTOL
 70
     0
  9
$DIMLIM
 70
     0
  9
$DIMTIH
 70
     0
  9
$DIMTOH
 70
     0
  9
$DIMSE1
 70
     0
  9
$DIMSE2
 70
     0
  9
$DIMTAD
 70
     1
  9
$DIMZIN
 70
     8
  9
$DIMBLK
  1

  9
$DIMASO
 70
     1
  9
$DIMSHO
 70
     1
  9
$DIMPOST
  1

  9
$DIMAPOST
  1

  9
$DIMALT
 70
     0
  9
$DIMALTD
 70
     3
  9
$DIMALTF
 40
0.03937007874016
  9
$DIMLFAC
 40
1.0
  9
$DIMTOFL
 70
     1
  9
$DIMTVP
 40
0.0
  9
$DIMTIX
 70
     0
  9
$DIMSOXD
 70
     0
  9
$DIMSAH
 70
     0
  9
$DIMBLK1
  1

  9
$DIMBLK2
  1

  9
$DIMSTYLE
  2
ISO-25
  9
$DIMCLRD
 70
     0
  9
$DIMCLRE
 70
     0
  9
$DIMCLRT
 70
     0
  9
$DIMTFAC
 40
1.0
  9
$DIMGAP
 40
0.625
  9
$DIMJUST
 70
     0
  9
$DIMSD1
 70
     0
  9
$DIMSD2
 70
     0
  9
$DIMTOLJ
 70
     0
  9
$DIMTZIN
 70
     8
  9
$DIMALTZ
 70
     0
  9
$DIMALTTZ
 70
     0
  9
$DIMUPT
 70
     0
  9
$DIMDEC
 70
     2
  9
$DIMTDEC
 70
     2
  9
$DIMALTU
 70
     2
  9
$DIMALTTD
 70
     3
  9
$DIMTXSTY
  7
Standard
  9
$DIMAUNIT
 70
     0
  9
$DIMADEC
 70
     0
  9
$DIMALTRND
 40
0.0
  9
$DIMAZIN
 70
     0
  9
$DIMDSEP
 70
    44
  9
$DIMATFIT
 70
     3
  9
$DIMFRAC
 70
     0
  9
$DIMLDRBLK
  1

  9
$DIMLUNIT
 70
     2
  9
$DIMLWD
 70
    -2
  9
$DIMLWE
 70
    -2
  9
$DIMTMOVE
 70
     0
  9
$DIMFXL
 40
1.0
  9
$DIMFXLON
 70
     0
  9
$DIMJOGANG
 40
0.7853981633974483
  9
$DIMTFILL
 70
     0
  9
$DIMTFILLCLR
 70
     0
  9
$DIMARCSYM
 70
     0
  9
$DIMLTYPE
  6

  9
$DIMLTEX1
  6

  9
$DIMLTEX2
  6

  9
$DIMTXTDIRECTION
 70
     0
  9
$LUNITS
 70
     2
  9
$LUPREC
 70
     4
  9
$SKETCHINC
 40
1.0
  9
$FILLETRAD
 40
10.0
  9
$AUNITS
 70
     0
  9
$AUPREC
 70
     0
  9
$MENU
  1
.
  9
$ELEVATION
 40
0.0
  9
$PELEVATION
 40
0.0
  9
$THICKNESS
 40
0.0
  9
$LIMCHECK
 70
     0
  9
$CHAMFERA
 40
0.0
  9
$CHAMFERB
 40
0.0
  9
$CHAMFERC
 40
0.0
  9
$CHAMFERD
 40
0.0
  9
$SKPOLY
 70
     0
  9
$TDCREATE
 40
2458933.606726424
  9
$TDUCREATE
 40
2458933.231726424
  9
$TDUPDATE
 40
2458933.606726563
  9
$TDUUPDATE
 40
2458933.231726563
  9
$TDINDWG
 40
0.0000000116
  9
$TDUSRTIMER
 40
0.0000000116
  9
$USRTIMER
 70
     1
  9
$ANGBASE
 50
0.0
  9
$ANGDIR
 70
     0
  9
$PDMODE
 70
     0
  9
$PDSIZE
 40
0.0
  9
$PLINEWID
 40
0.0
  9
$SPLFRAME
 70
     0
  9
$SPLINETYPE
 70
     6
  9
$SPLINESEGS
 70
     8
  9
$HANDSEED
  5
3FB
  9
$SURFTAB1
 70
     6
  9
$SURFTAB2
 70
     6
  9
$SURFTYPE
 70
     6
  9
$SURFU
 70
     6
  9
$SURFV
 70
     6
  9
$UCSBASE
  2

  9
$UCSNAME
  2

  9
$UCSORG
 10
0.0
 20
0.0
 30
0.0
  9
$UCSXDIR
 10
1.0
 20
0.0
 30
0.0
  9
$UCSYDIR
 10
0.0
 20
1.0
 30
0.0
  9
$UCSORTHOREF
  2

  9
$UCSORTHOVIEW
 70
     0
  9
$UCSORGTOP
 10
0.0
 20
0.0
 30
0.0
  9
$UCSORGBOTTOM
 10
0.0
 20
0.0
 30
0.0
  9
$UCSORGLEFT
 10
0.0
 20
0.0
 30
0.0
  9
$UCSORGRIGHT
 10
0.0
 20
0.0
 30
0.0
  9
$UCSORGFRONT
 10
0.0
 20
0.0
 30
0.0
  9
$UCSORGBACK
 10
0.0
 20
0.0
 30
0.0
  9
$PUCSBASE
  2

  9
$PUCSNAME
  2

  9
$PUCSORG
 10
0.0
 20
0.0
 30
0.0
  9
$PUCSXDIR
 10
1.0
 20
0.0
 30
0.0
  9
$PUCSYDIR
 10
0.0
 20
1.0
 30
0.0
  9
$PUCSORTHOREF
  2

  9
$PUCSORTHOVIEW
 70
     0
  9
$PUCSORGTOP
 10
0.0
 20
0.0
 30
0.0
  9
$PUCSORGBOTTOM
 10
0.0
 20
0.0
 30
0.0
  9
$PUCSORGLEFT
 10
0.0
 20
0.0
 30
0.0
  9
$PUCSORGRIGHT
 10
0.0
 20
0.0
 30
0.0
  9
$PUCSORGFRONT
 10
0.0
 20
0.0
 30
0.0
  9
$PUCSORGBACK
 10
0.0
 20
0.0
 30
0.0
  9
$USERI1
 70
     0
  9
$USERI2
 70
     0
  9
$USERI3
 70
     0
  9
$USERI4
 70
     0
  9
$USERI5
 70
     0
  9
$USERR1
 40
0.0
  9
$USERR2
 40
0.0
  9
$USERR3
 40
0.0
  9
$USERR4
 40
0.0
  9
$USERR5
 40
0.0
  9
$WORLDVIEW
 70
     1
  9
$SHADEDGE
 70
     3
  9
$SHADEDIF
 70
    70
  9
$TILEMODE
 70
     1
  9
$MAXACTVP
 70
    64
  9
$PINSBASE
 10
0.0
 20
0.0
 30
0.0
  9
$PLIMCHECK
 70
     0
  9
$PEXTMIN
 10
1.000000000000000E+20
 20
1.000000000000000E+20
 30
1.000000000000000E+20
  9
$PEXTMAX
 10
-1.000000000000000E+20
 20
-1.000000000000000E+20
 30
-1.000000000000000E+20
  9
$PLIMMIN
 10
0.0
 20
0.0
  9
$PLIMMAX
 10
420.0
 20
297.0
  9
$UNITMODE
 70
     0
  9
$VISRETAIN
 70
     1
  9
$PLINEGEN
 70
     0
  9
$PSLTSCALE
 70
     1
  9
$TREEDEPTH
 70
  3020
  9
$CMLSTYLE
  2
Standard
  9
$CMLJUST
 70
     0
  9
$CMLSCALE
 40
20.0
  9
$PROXYGRAPHICS
 70
     1
  9
$MEASUREMENT
 70
     1
  9
$CELWEIGHT
370
    -1
  9
$ENDCAPS
280
     0
  9
$JOINSTYLE
280
     0
  9
$LWDISPLAY
290
     0
  9
$INSUNITS
 70
     4
  9
$HYPERLINKBASE
  1

  9
$STYLESHEET
  1

  9
$XEDIT
290
     1
  9
$CEPSNTYPE
380
     0
  9
$PSTYLEMODE
290
     1
  9
$FINGERPRINTGUID
  2
{A15B6DC2-F6AD-4993-A60C-3B80C680E5D8}
  9
$VERSIONGUID
  2
{FAEB1C32-E019-11D5-929B-00C0DF256EC4}
  9
$EXTNAMES
290
     1
  9
$PSVPSCALE
 40
0.0
  9
$OLESTARTUP
290
     0
  9
$SORTENTS
280
   127
  9
$INDEXCTL
280
     0
  9
$HIDETEXT
280
     1
  9
$XCLIPFRAME
280
     2
  9
$HALOGAP
280
     0
  9
$OBSCOLOR
 70
   257
  9
$OBSLTYPE
280
     0
  9
$INTERSECTIONDISPLAY
280
     0
  9
$INTERSECTIONCOLOR
 70
   257
  9
$DIMASSOC
280
     2
  9
$PROJECTNAME
  1

  9
$CAMERADISPLAY
290
     0
  9
$LENSLENGTH
 40
50.0
  9
$CAMERAHEIGHT
 40
0.0
  9
$STEPSPERSEC
 40
2.0
  9
$STEPSIZE
 40
6.0
  9
$3DDWFPREC
 40
2.0
  9
$PSOLWIDTH
 40
5.0
  9
$PSOLHEIGHT
 40
80.0
  9
$LOFTANG1
 40
1.570796326794897
  9
$LOFTANG2
 40
1.570796326794897
  9
$LOFTMAG1
 40
0.0
  9
$LOFTMAG2
 40
0.0
  9
$LOFTPARAM
 70
     7
  9
$LOFTNORMALS
280
     1
  9
$LATITUDE
 40
37.795
  9
$LONGITUDE
 40
-122.394
  9
$NORTHDIRECTION
 40
0.0
  9
$TIMEZONE
 70
 -8000
  9
$LIGHTGLYPHDISPLAY
280
     1
  9
$TILEMODELIGHTSYNCH
280
     1
  9
$CMATERIAL
347
44
  9
$SOLIDHIST
280
     0
  9
$SHOWHIST
280
     1
  9
$DWFFRAME
280
     2
  9
$DGNFRAME
280
     2
  9
$REALWORLDSCALE
290
     1
  9
$INTERFERECOLOR
 62
   256
  9
$CSHADOW
280
     0
  9
$SHADOWPLANELOCATION
 40
0.0
  0
ENDSEC
  0
SECTION
  2
CLASSES
  0
CLASS
  1
ACDBDICTIONARYWDFLT
  2
AcDbDictionaryWithDefault
  3
ObjectDBX Classes
 90
        0
 91
        4
280
     0
281
     0
  0
CLASS
  1
VISUALSTYLE
  2
AcDbVisualStyle
  3
ObjectDBX Classes
 90
     4095
 91
        4
280
     0
281
     0
  0
CLASS
  1
MATERIAL
  2
AcDbMaterial
  3
ObjectDBX Classes
 90
     1153
 91
        4
280
     0
281
     0
  0
CLASS
  1
SCALE
  2
AcDbScale
  3
ObjectDBX Classes
 90
     1153
 91
        4
280
     0
281
     0
  0
CLASS
  1
TABLESTYLE
  2
AcDbTableStyle
  3
ObjectDBX Classes
 90
     4095
 91
        4
280
     0
281
     0
  0
CLASS
  1
MLEADERSTYLE
  2
AcDbMLeaderStyle
  3
ACDB_MLEADERSTYLE_CLASS
 90
     4095
 91
        4
280
     0
281
     0
  0
CLASS
  1
SUN
  2
AcDbSun
  3
SCENEOE
 90
     1153
 91
        4
280
     0
281
     0
  0
CLASS
  1
DICTIONARYVAR
  2
AcDbDictionaryVar
  3
ObjectDBX Classes
 90
        0
 91
        4
280
     0
281
     0
  0
CLASS
  1
CELLSTYLEMAP
  2
AcDbCellStyleMap
  3
ObjectDBX Classes
 90
     1152
 91
        4
280
     0
281
     0
  0
ENDSEC
  0
SECTION
  2
TABLES
  0
TABLE
  2
VPORT
  5
8
330
0
100
AcDbSymbolTable
 70
     1
  0
VPORT
  5
29
330
8
100
AcDbSymbolTableRecord
100
AcDbViewportTableRecord
  2
*Active
 70
     0
 10
0.0
 20
0.0
 11
1.0
 21
1.0
 12
0.0
 22
0.0
 13
0.0
 23
0.0
 14
10.0
 24
10.0
 15
10.0
 25
10.0
 16
0.0
 26
0.0
 36
1.0
 17
0.0
 27
0.0
 37
0.0
 40
1633.5
 41
1.414141414141414
 42
50.0
 43
0.0
 44
0.0
 50
0.0
 51
0.0
 71
     0
 72
 10000
 73
     1
 74
     3
 75
     0
 76
     0
 77
     0
 78
     0
281
     0
 65
     1
110
0.0
120
0.0
130
0.0
111
1.0
121
0.0
131
0.0
112
0.0
122
1.0
132
0.0
 79
     0
146
0.0
348
2F
 60
     3
 61
     5
292
     1
282
     1
141
0.0
142
0.0
 63
   250
361
6D
  0
ENDTAB
  0
TABLE
  2
LTYPE
  5
5
330
0
100
AcDbSymbolTable
 70
     7
  0
LTYPE
  5
14
330
5
100
AcDbSymbolTableRecord
100
AcDbLinetypeTableRecord
  2
ByBlock
 70
     0
  3

 72
    65
 73
     0
 40
0.0
  0
LTYPE
  5
15
330
5
100
AcDbSymbolTableRecord
100
AcDbLinetypeTableRecord
  2
ByLayer
 70
     0
  3

 72
    65
 73
     0
 40
0.0
  0
LTYPE
  5
16
330
5
100
AcDbSymbolTableRecord
100
AcDbLinetypeTableRecord
  2
Continuous
 70
     0
  3
Solid line
 72
    65
 73
     0
 40
0.0
  0
LTYPE
  5
6F
330
5
100
AcDbSymbolTableRecord
100
AcDbLinetypeTableRecord
  2
JWW_DASHED3
 70
     0
  3
---  ------  ------  ------  ---
 72
    65
 73
     2
 40
3.386666666666667
 49
2.54
 74
     0
 49
-0.8466666666666667
 74
     0
  0
LTYPE
  5
70
330
5
100
AcDbSymbolTableRecord
100
AcDbLinetypeTableRecord
  2
JWW_CENTER1
 70
     0
  3
-----  --  ----------  --  -----
 72
    65
 73
     4
 40
6.773333333333333
 49
4.233333333333333
 74
     0
 49
-0.8466666666666667
 74
     0
 49
0.8466666666666667
 74
     0
 49
-0.8466666666666667
 74
     0
  0
LTYPE
  5
71
330
5
100
AcDbSymbolTableRecord
100
AcDbLinetypeTableRecord
  2
JWW_HOJO
 70
     0
  3
  -   -   -   -   -   -   -   - 
 72
    65
 73
     2
 40
1.693333333333333
 49
-1.27
 74
     0
 49
0.4233333333333333
 74
     0
  0
LTYPE
  5
72
330
5
100
AcDbSymbolTableRecord
100
AcDbLinetypeTableRecord
  2
JWW_DASHED2
 70
     0
  3
--    ----    ----    ----    --
 72
    65
 73
     2
 40
3.386666666666667
 49
1.693333333333333
 74
     0
 49
-1.693333333333333
 74
     0
  0
LTYPE
  5
73
330
5
100
AcDbSymbolTableRecord
100
AcDbLinetypeTableRecord
  2
JWW_PHANTOM1
 70
     0
  3
----  -  -  --------  -  -  ----
 72
    65
 73
     6
 40
6.773333333333333
 49
3.386666666666667
 74
     0
 49
-0.8466666666666667
 74
     0
 49
0.4233333333333333
 74
     0
 49
-0.8466666666666667
 74
     0
 49
0.4233333333333333
 74
     0
 49
-0.8466666666666667
 74
     0
  0
LTYPE
  5
74
330
5
100
AcDbSymbolTableRecord
100
AcDbLinetypeTableRecord
  2
JWW_CENTER2
 70
     0
  3
-------------  --  -------------
 72
    65
 73
     4
 40
13.54666666666667
 49
11.00666666666667
 74
     0
 49
-0.8466666666666667
 74
     0
 49
0.8466666666666667
 74
     0
 49
-0.8466666666666667
 74
     0
  0
ENDTAB
  0
TABLE
  2
LAYER
  5
2
330
0
100
AcDbSymbolTable
 70
    19
  0
LAYER
  5
10
330
2
100
AcDbSymbolTableRecord
100
AcDbLayerTableRecord
  2
0
 70
     0
 62
     7
  6
Continuous
370
    -3
390
F
347
46
348
0
  0
LAYER
  5
75
330
2
100
AcDbSymbolTableRecord
100
AcDbLayerTableRecord
  2
D-5
 70
     0
 62
     7
  6
Continuous
370
    -3
390
F
347
46
348
0
  0
LAYER
  5
76
330
2
100
AcDbSymbolTableRecord
100
AcDbLayerTableRecord
  2
D-6
 70
     0
 62
     7
  6
Continuous
370
    -3
390
F
347
46
348
0
  0
LAYER
  5
77
330
2
100
AcDbSymbolTableRecord
100
AcDbLayerTableRecord
  2
D-4
 70
     0
 62
     7
  6
Continuous
370
    -3
390
F
347
46
348
0
  0
LAYER
  5
78
330
2
100
AcDbSymbolTableRecord
100
AcDbLayerTableRecord
  2
D-2
 70
     0
 62
     7
  6
Continuous
370
    -3
390
F
347
46
348
0
  0
LAYER
  5
79
330
2
100
AcDbSymbolTableRecord
100
AcDbLayerTableRecord
  2
D-1
 70
     0
 62
     7
  6
Continuous
370
    -3
390
F
347
46
348
0
  0
LAYER
  5
7A
330
2
100
AcDbSymbolTableRecord
100
AcDbLayerTableRecord
  2
その他
 70
     0
 62
     7
  6
Continuous
370
    -3
390
F
347
46
348
0
  0
LAYER
  5
7B
330
2
100
AcDbSymbolTableRecord
100
AcDbLayerTableRecord
  2
0-F
 70
     0
 62
     7
  6
Continuous
370
    -3
390
F
347
46
348
0
  0
LAYER
  5
7C
330
2
100
AcDbSymbolTableRecord
100
AcDbLayerTableRecord
  2
寸法
 70
     0
 62
     7
  6
Continuous
370
    -3
390
F
347
46
348
0
  0
LAYER
  5
7D
330
2
100
AcDbSymbolTableRecord
100
AcDbLayerTableRecord
  2
躯体
 70
     0
 62
     7
  6
Continuous
370
    -3
390
F
347
46
348
0
  0
LAYER
  5
7E
330
2
100
AcDbSymbolTableRecord
100
AcDbLayerTableRecord
  2
仕上
 70
     0
 62
     7
  6
Continuous
370
    -3
390
F
347
46
348
0
  0
LAYER
  5
7F
330
2
100
AcDbSymbolTableRecord
100
AcDbLayerTableRecord
  2
通り芯
 70
     0
 62
     7
  6
Continuous
370
    -3
390
F
347
46
348
0
  0
LAYER
  5
80
330
2
100
AcDbSymbolTableRecord
100
AcDbLayerTableRecord
  2
F-4ﾚｲﾔ
 70
     0
 62
     7
  6
Continuous
370
    -3
390
F
347
46
348
0
  0
LAYER
  5
81
330
2
100
AcDbSymbolTableRecord
100
AcDbLayerTableRecord
  2
建具
 70
     0
 62
     7
  6
Continuous
370
    -3
390
F
347
46
348
0
  0
LAYER
  5
82
330
2
100
AcDbSymbolTableRecord
100
AcDbLayerTableRecord
  2
D-3
 70
     0
 62
     7
  6
Continuous
370
    -3
390
F
347
46
348
0
  0
LAYER
  5
83
330
2
100
AcDbSymbolTableRecord
100
AcDbLayerTableRecord
  2
D-F
 70
     0
 62
     7
  6
Continuous
370
    -3
390
F
347
46
348
0
  0
LAYER
  5
84
330
2
100
AcDbSymbolTableRecord
100
AcDbLayerTableRecord
  2
D-7
 70
     0
 62
     7
  6
Continuous
370
    -3
390
F
347
46
348
0
  0
LAYER
  5
85
330
2
100
AcDbSymbolTableRecord
100
AcDbLayerTableRecord
  2
D-D
 70
     0
 62
     7
  6
Continuous
370
    -3
390
F
347
46
348
0
  0
LAYER
  5
86
330
2
100
AcDbSymbolTableRecord
100
AcDbLayerTableRecord
  2
F-5ﾚｲﾔ
 70
     0
 62
     7
  6
Continuous
370
    -3
390
F
347
46
348
0
  0
ENDTAB
  0
TABLE
  2
STYLE
  5
3
330
0
100
AcDbSymbolTable
 70
     2
  0
STYLE
  5
11
330
3
100
AcDbSymbolTableRecord
100
AcDbTextStyleTableRecord
  2
Standard
 70
     0
 40
0.0
 41
1.0
 50
0.0
 71
     0
 42
2.5
  3
txt
  4

  0
STYLE
  5
6E
330
3
100
AcDbSymbolTableRecord
100
AcDbTextStyleTableRecord
  2
ＭＳ ゴシック
 70
     0
 40
1.0
 41
1.0
 50
0.0
 71
     0
 42
2.5
  3

  4

1001
ACAD
1000
MS Gothic
1071
    32817
  0
ENDTAB
  0
TABLE
  2
VIEW
  5
6
330
0
100
AcDbSymbolTable
 70
     0
  0
ENDTAB
  0
TABLE
  2
UCS
  5
7
330
0
100
AcDbSymbolTable
 70
     0
  0
ENDTAB
  0
TABLE
  2
APPID
  5
9
330
0
100
AcDbSymbolTable
 70
     1
  0
APPID
  5
12
330
9
100
AcDbSymbolTableRecord
100
AcDbRegAppTableRecord
  2
ACAD
 70
     0
  0
ENDTAB
  0
TABLE
  2
DIMSTYLE
  5
A
330
0
100
AcDbSymbolTable
 70
     1
100
AcDbDimStyleTable
  0
DIMSTYLE
105
27
330
A
100
AcDbSymbolTableRecord
100
AcDbDimStyleTableRecord
  2
ISO-25
 70
     0
 41
2.5
 42
0.625
 43
3.75
 44
1.25
 73
     0
 74
     0
 77
     1
 78
     8
140
2.5
141
2.5
143
0.03937007874016
147
0.625
171
     3
172
     1
178
     0
271
     2
272
     2
274
     3
278
    44
283
     0
284
     8
340
11
  0
ENDTAB
  0
TABLE
  2
BLOCK_RECORD
  5
1
330
0
100
AcDbSymbolTable
 70
     1
  0
BLOCK_RECORD
  5
1F
330
1
100
AcDbSymbolTableRecord
100
AcDbBlockTableRecord
  2
*Model_Space
340
22
 70
     0
280
     1
281
     0
  0
BLOCK_RECORD
  5
1B
330
1
100
AcDbSymbolTableRecord
100
AcDbBlockTableRecord
  2
*Paper_Space
340
1E
 70
     0
280
     1
281
     0
  0
BLOCK_RECORD
  5
23
330
1
100
AcDbSymbolTableRecord
100
AcDbBlockTableRecord
  2
*Paper_Space0
340
26
 70
     0
280
     1
281
     0
  0
ENDTAB
  0
ENDSEC
  0
SECTION
  2
BLOCKS
  0
BLOCK
  5
20
330
1F
100
AcDbEntity
  8
0
100
AcDbBlockBegin
  2
*Model_Space
 70
     0
 10
0.0
 20
0.0
 30
0.0
  3
*Model_Space
  1

  0
ENDBLK
  5
21
330
1F
100
AcDbEntity
  8
0
100
AcDbBlockEnd
  0
BLOCK
  5
1C
330
1B
100
AcDbEntity
 67
     1
  8
0
100
AcDbBlockBegin
  2
*Paper_Space
 70
     0
 10
0.0
 20
0.0
 30
0.0
  3
*Paper_Space
  1

  0
ENDBLK
  5
1D
330
1B
100
AcDbEntity
 67
     1
  8
0
100
AcDbBlockEnd
  0
BLOCK
  5
24
330
23
100
AcDbEntity
  8
0
100
AcDbBlockBegin
  2
*Paper_Space0
 70
     0
 10
0.0
 20
0.0
 30
0.0
  3
*Paper_Space0
  1

  0
ENDBLK
  5
25
330
23
100
AcDbEntity
  8
0
100
AcDbBlockEnd
  0
ENDSEC
  0
SECTION
  2
ENTITIES
  0
TEXT
  5
87
330
1F
100
AcDbEntity
  8
D-5
  6
Continuous
 62
     2
370
     9
100
AcDbText
 10
308.6907306819435
 20
87.94910356770421
 30
0.0
 40
15.24
  1
断面詳細図　Ｓ＝１：２
 41
1.113636363636364
  7
ＭＳ ゴシック
100
AcDbText
  0
LINE
  5
88
330
1F
100
AcDbEntity
  8
D-5
  6
Continuous
 62
     7
370
     9
100
AcDbLine
 10
302.2662105934418
 20
81.91102495442297
 30
0.0
 11
560.1152507704454
 21
81.91102495442297
 31
0.0
  0
LWPOLYLINE
  5
89
330
1F
100
AcDbEntity
  8
D-6
  6
Continuous
 62
     6
370
     9
100
AcDbPolyline
 90
        4
 70
     1
 43
1.0
 10
866.7988552023236
 20
321.1761366292579
 42
0.4142135623731
 10
866.2988552023237
 20
321.6761366292579
 42
0.4142135623731
 10
865.7988552023237
 20
321.1761366292579
 42
0.4142135623731
 10
866.2988552023237
 20
320.6761366292579
 42
0.4142135623731
  0
LWPOLYLINE
  5
8A
330
1F
100
AcDbEntity
  8
D-6
  6
Continuous
 62
     6
370
     9
100
AcDbPolyline
 90
        4
 70
     1
 43
1.0
 10
900.9408331759461
 20
321.8203248929112
 42
0.4142135623731
 10
900.4408331759462
 20
322.3203248929111
 42
0.4142135623731
 10
899.9408331759462
 20
321.8203248929112
 42
0.4142135623731
 10
900.4408331759462
 20
321.3203248929112
 42
0.4142135623731
  0
LWPOLYLINE
  5
8B
330
1F
100
AcDbEntity
  8
D-6
  6
Continuous
 62
     6
370
     9
100
AcDbPolyline
 90
        4
 70
     1
 43
1.0
 10
900.9408331759461
 20
383.0182099399706
 42
0.4142135623731
 10
900.4408331759462
 20
383.5182099399705
 42
0.4142135623731
 10
899.9408331759462
 20
383.0182099399706
 42
0.4142135623731
 10
900.4408331759462
 20
382.5182099399706
 42
0.4142135623731
  0
LWPOLYLINE
  5
8C
330
1F
100
AcDbEntity
  8
D-6
  6
Continuous
 62
     6
370
     9
100
AcDbPolyline
 90
        4
 70
     1
 43
1.0
 10
706.3959775526628
 20
328.9063957930971
 42
0.4142135623731
 10
705.8959775526628
 20
329.406395793097
 42
0.4142135623731
 10
705.3959775526629
 20
328.9063957930971
 42
0.4142135623731
 10
705.8959775526628
 20
328.4063957930971
 42
0.4142135623731
  0
LWPOLYLINE
  5
8D
330
1F
100
AcDbEntity
  8
D-6
  6
Continuous
 62
     6
370
     9
100
AcDbPolyline
 90
        4
 70
     1
 43
1.0
 10
706.3959775526628
 20
394.6135986857291
 42
0.4142135623731
 10
705.8959775526628
 20
395.1135986857291
 42
0.4142135623731
 10
705.3959775526629
 20
394.6135986857291
 42
0.4142135623731
 10
705.8959775526628
 20
394.1135986857291
 42
0.4142135623731
  0
LWPOLYLINE
  5
8E
330
1F
100
AcDbEntity
  8
D-6
  6
Continuous
 62
     6
370
     9
100
AcDbPolyline
 90
        4
 70
     1
 43
1.0
 10
663.4500933091125
 20
267.2790519036022
 42
0.4142135623731
 10
662.9500933091126
 20
267.7790519036022
 42
0.4142135623731
 10
662.4500933091126
 20
267.2790519036022
 42
0.4142135623731
 10
662.9500933091126
 20
266.7790519036022
 42
0.4142135623731
  0
LWPOLYLINE
  5
8F
330
1F
100
AcDbEntity
  8
D-6
  6
Continuous
 62
     6
370
     9
100
AcDbPolyline
 90
        4
 70
     1
 43
1.0
 10
650.3432222014329
 20
358.1472669543589
 42
0.4142135623731
 10
649.843222201433
 20
358.6472669543589
 42
0.4142135623731
 10
649.343222201433
 20
358.1472669543589
 42
0.4142135623731
 10
649.843222201433
 20
357.647266954359
 42
0.4142135623731
  0
LWPOLYLINE
  5
90
330
1F
100
AcDbEntity
  8
D-6
  6
Continuous
 62
     6
370
     9
100
AcDbPolyline
 90
        4
 70
     1
 43
1.0
 10
664.4466229082753
 20
391.6428436331087
 42
0.4142135623731
 10
663.9466229082755
 20
392.1428436331087
 42
0.4142135623731
 10
663.4466229082755
 20
391.6428436331087
 42
0.4142135623731
 10
663.9466229082755
 20
391.1428436331087
 42
0.4142135623731
  0
LWPOLYLINE
  5
91
330
1F
100
AcDbEntity
  8
D-6
  6
Continuous
 62
     6
370
     9
100
AcDbPolyline
 90
        4
 70
     1
 43
1.0
 10
487.2726515285723
 20
383.7096807355101
 42
0.4142135623731
 10
486.7726515285724
 20
384.2096807355101
 42
0.4142135623731
 10
486.2726515285724
 20
383.7096807355101
 42
0.4142135623731
 10
486.7726515285724
 20
383.2096807355101
 42
0.4142135623731
  0
LINE
  5
92
330
1F
100
AcDbEntity
  8
D-6
  6
JWW_DASHED3
 62
     6
370
     9
100
AcDbLine
 10
895.628530377405
 20
399.4455571123297
 30
0.0
 11
906.6359301016123
 21
410.4529568365368
 31
0.0
  0
LINE
  5
93
330
1F
100
AcDbEntity
  8
D-6
  6
Continuous
 62
     6
370
     9
100
AcDbLine
 10
708.1295696050736
 20
399.4456437003021
 30
0.0
 11
906.6359301016123
 21
399.4456437003021
 31
0.0
  0
LINE
  5
94
330
1F
100
AcDbEntity
  8
D-6
  6
JWW_DASHED3
 62
     6
370
     9
100
AcDbLine
 10
870.6286953372867
 20
399.4455571123297
 30
0.0
 11
890.6287613212398
 21
419.4456230962824
 31
0.0
  0
LINE
  5
95
330
1F
100
AcDbEntity
  8
D-6
  6
Continuous
 62
     6
370
     9
100
AcDbLine
 10
883.1286128573461
 20
399.4455571123297
 30
0.0
 11
903.1289262811217
 21
419.4456230962824
 31
0.0
  0
LINE
  5
96
330
1F
100
AcDbEntity
  8
D-6
  6
Continuous
 62
     6
370
     9
100
AcDbLine
 10
858.128579845783
 20
399.4456437003021
 30
0.0
 11
878.1290912410029
 21
419.4456230962824
 31
0.0
  0
LINE
  5
97
330
1F
100
AcDbEntity
  8
D-6
  6
JWW_DASHED3
 62
     6
370
     9
100
AcDbLine
 10
845.6286623257242
 20
399.4456437003021
 30
0.0
 11
865.6287283096767
 21
419.4457096842548
 31
0.0
  0
LINE
  5
98
330
1F
100
AcDbEntity
  8
D-6
  6
JWW_DASHED3
 62
     6
370
     9
100
AcDbLine
 10
820.6288272856059
 20
399.4456437003021
 30
0.0
 11
840.6288932695586
 21
419.4457096842548
 31
0.0
  0
LINE
  5
99
330
1F
100
AcDbEntity
  8
D-6
  6
Continuous
 62
     6
370
     9
100
AcDbLine
 10
833.1287448056648
 20
399.4456437003021
 30
0.0
 11
853.1290582294403
 21
419.4457096842548
 31
0.0
  0
LINE
  5
9A
330
1F
100
AcDbEntity
  8
D-6
  6
JWW_DASHED3
 62
     6
370
     9
100
AcDbLine
 10
795.6289922454878
 20
399.4456437003021
 30
0.0
 11
815.6290582294403
 21
419.4457096842548
 31
0.0
  0
LINE
  5
9B
330
1F
100
AcDbEntity
  8
D-6
  6
Continuous
 62
     6
370
     9
100
AcDbLine
 10
808.1289097655465
 20
399.4456437003021
 30
0.0
 11
828.1292231893221
 21
419.4457096842548
 31
0.0
  0
LINE
  5
9C
330
1F
100
AcDbEntity
  8
D-6
  6
JWW_DASHED3
 62
     6
370
     9
100
AcDbLine
 10
770.6291572053694
 20
399.4456437003021
 30
0.0
 11
790.6292231893221
 21
419.4457096842548
 31
0.0
  0
LINE
  5
9D
330
1F
100
AcDbEntity
  8
D-6
  6
Continuous
 62
     6
370
     9
100
AcDbLine
 10
783.1290747254284
 20
399.4456437003021
 30
0.0
 11
803.1293881492038
 21
419.4457096842548
 31
0.0
  0
LINE
  5
9E
330
1F
100
AcDbEntity
  8
D-6
  6
JWW_DASHED3
 62
     6
370
     9
100
AcDbLine
 10
745.6293221652513
 20
399.4456437003021
 30
0.0
 11
765.6293881492038
 21
419.4457096842548
 31
0.0
  0
LINE
  5
9F
330
1F
100
AcDbEntity
  8
D-6
  6
Continuous
 62
     6
370
     9
100
AcDbLine
 10
758.12923968531
 20
399.4456437003021
 30
0.0
 11
778.1295531090857
 21
419.4457096842548
 31
0.0
  0
LINE
  5
A0
330
1F
100
AcDbEntity
  8
D-6
  6
Continuous
 62
     6
370
     9
100
AcDbLine
 10
708.1295696050736
 20
411.9455612203612
 30
0.0
 11
715.6297180689673
 21
419.4457096842548
 31
0.0
  0
LINE
  5
A1
330
1F
100
AcDbEntity
  8
D-6
  6
Continuous
 62
     6
370
     9
100
AcDbLine
 10
708.1295696050736
 20
399.4456437003021
 30
0.0
 11
728.1296355890263
 21
419.4457096842548
 31
0.0
  0
LINE
  5
A2
330
1F
100
AcDbEntity
  8
D-6
  6
JWW_DASHED3
 62
     6
370
     9
100
AcDbLine
 10
720.629487125133
 20
399.4456437003021
 30
0.0
 11
740.6295531090857
 21
419.4457096842548
 31
0.0
  0
LINE
  5
A3
330
1F
100
AcDbEntity
  8
D-6
  6
Continuous
 62
     6
370
     9
100
AcDbLine
 10
733.1294046451919
 20
399.4456437003021
 30
0.0
 11
753.1297180689673
 21
419.4457096842548
 31
0.0
  0
LINE
  5
A4
330
1F
100
AcDbEntity
  8
D-6
  6
Continuous
 62
     6
370
     9
100
AcDbLine
 10
708.1295696050736
 20
419.4457096842548
 30
0.0
 11
708.1295696050736
 21
399.4456437003021
 31
0.0
  0
LWPOLYLINE
  5
A5
330
1F
100
AcDbEntity
  8
D-6
  6
Continuous
 62
     6
370
     9
100
AcDbPolyline
 90
        4
 70
     1
 43
1.0
 10
163.6808473843179
 20
383.9179458020558
 42
0.4142135623731
 10
163.1808473843179
 20
384.4179458020558
 42
0.4142135623731
 10
162.6808473843178
 20
383.9179458020558
 42
0.4142135623731
 10
163.1808473843179
 20
383.4179458020559
 42
0.4142135623731
  0
LWPOLYLINE
  5
A6
330
1F
100
AcDbEntity
  8
D-6
  6
Continuous
 62
     6
370
     9
100
AcDbPolyline
 90
        4
 70
     1
 43
1.0
 10
214.9975159205298
 20
367.8813708970728
 42
0.4142135623731
 10
214.4975159205298
 20
368.3813708970728
 42
0.4142135623731
 10
213.9975159205298
 20
367.8813708970728
 42
0.4142135623731
 10
214.4975159205298
 20
367.3813708970728
 42
0.4142135623731
  0
LWPOLYLINE
  5
A7
330
1F
100
AcDbEntity
  8
D-6
  6
Continuous
 62
     6
370
     9
100
AcDbPolyline
 90
        4
 70
     1
 43
1.0
 10
236.3795333139002
 20
383.9179458020558
 42
0.4142135623731
 10
235.8795333139002
 20
384.4179458020558
 42
0.4142135623731
 10
235.3795333139002
 20
383.9179458020558
 42
0.4142135623731
 10
235.8795333139002
 20
383.4179458020559
 42
0.4142135623731
  0
LWPOLYLINE
  5
A8
330
1F
100
AcDbEntity
  8
D-6
  6
Continuous
 62
     6
370
     9
100
AcDbPolyline
 90
        4
 70
     1
 43
1.0
 10
287.6963255700236
 20
387.1252607830525
 42
0.4142135623731
 10
287.1963255700236
 20
387.6252607830525
 42
0.4142135623731
 10
286.6963255700236
 20
387.1252607830525
 42
0.4142135623731
 10
287.1963255700236
 20
386.6252607830525
 42
0.4142135623731
  0
LWPOLYLINE
  5
A9
330
1F
100
AcDbEntity
  8
D-6
  6
Continuous
 62
     6
370
     9
100
AcDbPolyline
 90
        4
 70
     1
 43
1.0
 10
377.5006501582835
 20
371.0886858780694
 42
0.4142135623731
 10
377.0006501582835
 20
371.5886858780693
 42
0.4142135623731
 10
376.5006501582835
 20
371.0886858780694
 42
0.4142135623731
 10
377.0006501582835
 20
370.5886858780694
 42
0.4142135623731
  0
LWPOLYLINE
  5
AA
330
1F
100
AcDbEntity
  8
D-6
  6
Continuous
 62
     6
370
     9
100
AcDbPolyline
 90
        4
 70
     1
 43
1.0
 10
546.4181669182075
 20
376.4343758062788
 42
0.4142135623731
 10
545.9181669182075
 20
376.9343758062787
 42
0.4142135623731
 10
545.4181669182075
 20
376.4343758062788
 42
0.4142135623731
 10
545.9181669182075
 20
375.9343758062788
 42
0.4142135623731
  0
LWPOLYLINE
  5
AB
330
1F
100
AcDbEntity
  8
D-6
  6
Continuous
 62
     6
370
     9
100
AcDbPolyline
 90
        4
 70
     1
 43
1.0
 10
415.9881824904205
 20
383.9179458020558
 42
0.4142135623731
 10
415.4881824904205
 20
384.4179458020558
 42
0.4142135623731
 10
414.9881824904205
 20
383.9179458020558
 42
0.4142135623731
 10
415.4881824904205
 20
383.4179458020559
 42
0.4142135623731
  0
LWPOLYLINE
  5
AC
330
1F
100
AcDbEntity
  8
D-6
  6
Continuous
 62
     6
370
     9
100
AcDbPolyline
 90
        4
 70
     1
 43
1.0
 10
331.529300390547
 20
373.2270608252821
 42
0.4142135623731
 10
331.0293003905471
 20
373.7270608252821
 42
0.4142135623731
 10
330.5293003905471
 20
373.2270608252821
 42
0.4142135623731
 10
331.0293003905471
 20
372.7270608252821
 42
0.4142135623731
  0
LWPOLYLINE
  5
AD
330
1F
100
AcDbEntity
  8
D-6
  6
Continuous
 62
     6
370
     9
100
AcDbPolyline
 90
        4
 70
     1
 43
1.0
 10
346.4966878219236
 20
358.2596733939055
 42
0.4142135623731
 10
345.9966878219236
 20
358.7596733939054
 42
0.4142135623731
 10
345.4966878219236
 20
358.2596733939055
 42
0.4142135623731
 10
345.9966878219236
 20
357.7596733939055
 42
0.4142135623731
  0
LINE
  5
AE
330
1F
100
AcDbEntity
  8
D-6
  6
Continuous
 62
     6
370
     9
100
AcDbLine
 10
745.8792226001797
 20
351.225278198103
 30
0.0
 11
745.8792226001797
 21
363.725278198103
 31
0.0
  0
LINE
  5
AF
330
1F
100
AcDbEntity
  8
D-6
  6
Continuous
 62
     6
370
     9
100
AcDbLine
 10
723.3792720881443
 20
363.725278198103
 30
0.0
 11
745.8792226001797
 21
363.725278198103
 31
0.0
  0
LINE
  5
B0
330
1F
100
AcDbEntity
  8
D-6
  6
Continuous
 62
     6
370
     9
100
AcDbLine
 10
723.3792720881443
 20
351.225370972071
 30
0.0
 11
723.3792720881443
 21
363.725278198103
 31
0.0
  0
LWPOLYLINE
  5
B1
330
1F
100
AcDbEntity
  8
D-6
  6
Continuous
 62
     6
370
     9
100
AcDbPolyline
 90
        4
 70
     1
 43
1.0
 10
466.6675327946246
 20
364.1233497976506
 42
0.4142135623731
 10
466.1675327946247
 20
364.6233497976506
 42
0.4142135623731
 10
465.6675327946247
 20
364.1233497976506
 42
0.4142135623731
 10
466.1675327946247
 20
363.6233497976507
 42
0.4142135623731
  0
LWPOLYLINE
  5
B2
330
1F
100
AcDbEntity
  8
D-6
  6
Continuous
 62
     6
370
     9
100
AcDbPolyline
 90
        4
 70
     1
 43
1.0
 10
519.9668348722103
 20
363.8897677639702
 42
0.4142135623731
 10
519.4668348722103
 20
364.3897677639701
 42
0.4142135623731
 10
518.9668348722104
 20
363.8897677639702
 42
0.4142135623731
 10
519.4668348722103
 20
363.3897677639702
 42
0.4142135623731
  0
LWPOLYLINE
  5
B3
330
1F
100
AcDbEntity
  8
D-6
  6
Continuous
 62
     6
370
     9
100
AcDbPolyline
 90
        4
 70
     1
 43
1.0
 10
535.5306690629739
 20
387.0699463459582
 42
0.4142135623731
 10
535.0306690629739
 20
387.5699463459581
 42
0.4142135623731
 10
534.5306690629739
 20
387.0699463459582
 42
0.4142135623731
 10
535.0306690629739
 20
386.5699463459582
 42
0.4142135623731
  0
LWPOLYLINE
  5
B4
330
1F
100
AcDbEntity
  8
D-6
  6
Continuous
 62
     6
370
     9
100
AcDbPolyline
 90
        4
 70
     1
 43
1.0
 10
570.6320823442699
 20
361.5717499057713
 42
0.4142135623731
 10
570.1320823442699
 20
362.0717499057713
 42
0.4142135623731
 10
569.63208234427
 20
361.5717499057713
 42
0.4142135623731
 10
570.1320823442699
 20
361.0717499057714
 42
0.4142135623731
  0
LWPOLYLINE
  5
B5
330
1F
100
AcDbEntity
  8
D-6
  6
Continuous
 62
     6
370
     9
100
AcDbPolyline
 90
        4
 70
     1
 43
1.0
 10
268.544683609718
 20
371.4509212538092
 42
0.4142135623731
 10
268.044683609718
 20
371.9509212538091
 42
0.4142135623731
 10
267.544683609718
 20
371.4509212538092
 42
0.4142135623731
 10
268.044683609718
 20
370.9509212538092
 42
0.4142135623731
  0
LWPOLYLINE
  5
B6
330
1F
100
AcDbEntity
  8
D-6
  6
Continuous
 62
     6
370
     9
100
AcDbPolyline
 90
        4
 70
     1
 43
1.0
 10
646.2911427410746
 20
389.9061454449451
 42
0.4142135623731
 10
645.7911427410747
 20
390.406145444945
 42
0.4142135623731
 10
645.2911427410747
 20
389.9061454449451
 42
0.4142135623731
 10
645.7911427410747
 20
389.4061454449451
 42
0.4142135623731
  0
LWPOLYLINE
  5
B7
330
1F
100
AcDbEntity
  8
D-6
  6
Continuous
 62
     6
370
     9
100
AcDbPolyline
 90
        4
 70
     1
 43
1.0
 10
664.8352856066653
 20
365.7325306380146
 42
0.4142135623731
 10
664.3352856066654
 20
366.2325306380146
 42
0.4142135623731
 10
663.8352856066654
 20
365.7325306380146
 42
0.4142135623731
 10
664.3352856066654
 20
365.2325306380146
 42
0.4142135623731
  0
LWPOLYLINE
  5
B8
330
1F
100
AcDbEntity
  8
D-6
  6
Continuous
 62
     6
370
     9
100
AcDbPolyline
 90
        4
 70
     1
 43
1.0
 10
680.3163334453506
 20
306.788647958102
 42
0.4142135623731
 10
679.8163334453506
 20
307.288647958102
 42
0.4142135623731
 10
679.3163334453506
 20
306.788647958102
 42
0.4142135623731
 10
679.8163334453506
 20
306.288647958102
 42
0.4142135623731
  0
LINE
  5
B9
330
1F
100
AcDbEntity
  8
D-5
  6
Continuous
 62
     7
370
     9
100
AcDbLine
 10
686.8789948966285
 20
419.4456029758312
 30
0.0
 11
728.9294855773189
 21
486.2180765981215
 31
0.0
  0
LINE
  5
BA
330
1F
100
AcDbEntity
  8
D-5
  6
Continuous
 62
     7
370
     9
100
AcDbLine
 10
763.2276025516771
 20
448.0587054997258
 30
0.0
 11
932.5937825602082
 21
448.0587054997258
 31
0.0
  0
LINE
  5
BB
330
1F
100
AcDbEntity
  8
D-5
  6
Continuous
 62
     7
370
     9
100
AcDbLine
 10
702.2459897487793
 20
351.225278198103
 30
0.0
 11
763.2276025516771
 21
448.0587054997258
 31
0.0
  0
TEXT
  5
BC
330
1F
100
AcDbEntity
  8
D-5
  6
Continuous
 62
     7
370
     9
100
AcDbText
 10
765.1104022682953
 20
452.8190846435182
 30
0.0
 40
11.43
  1
アンカー（ＳＧＨＣ）
 41
1.15
  7
ＭＳ ゴシック
100
AcDbText
  0
LINE
  5
BD
330
1F
100
AcDbEntity
  8
D-5
  6
Continuous
 62
     7
370
     9
100
AcDbLine
 10
702.2459897487793
 20
351.225278198103
 30
0.0
 11
707.4695254432456
 21
362.5815396801506
 31
0.0
  0
LINE
  5
BE
330
1F
100
AcDbEntity
  8
D-5
  6
Continuous
 62
     7
370
     9
100
AcDbLine
 10
702.2459897487793
 20
351.225278198103
 30
0.0
 11
710.2307545333249
 21
360.842633933204
 31
0.0
  0
LINE
  5
BF
330
1F
100
AcDbEntity
  8
D-5
  6
Continuous
 62
     7
370
     9
100
AcDbLine
 10
583.5203155228455
 20
356.5576126650167
 30
0.0
 11
574.0075775807989
 21
364.6667320281747
 31
0.0
  0
LINE
  5
C0
330
1F
100
AcDbEntity
  8
D-5
  6
Continuous
 62
     7
370
     9
100
AcDbLine
 10
494.7993602225218
 20
454.905253249666
 30
0.0
 11
583.5203155228455
 21
356.5576126650167
 31
0.0
  0
TEXT
  5
C1
330
1F
100
AcDbEntity
  8
D-5
  6
Continuous
 62
     7
370
     9
100
AcDbText
 10
381.306120278476
 20
462.1107090008272
 30
0.0
 40
11.43
  1
ロックボディ
 41
1.138888888888889
  7
ＭＳ ゴシック
100
AcDbText
  0
TEXT
  5
C2
330
1F
100
AcDbEntity
  8
D-5
  6
Continuous
 62
     7
370
     9
100
AcDbText
 10
385.8538167786869
 20
437.5531726436692
 30
0.0
 40
11.43
  1
ＳＵＳ３０４
 41
1.138888888888889
  7
ＭＳ ゴシック
100
AcDbText
  0
LINE
  5
C3
330
1F
100
AcDbEntity
  8
D-5
  6
Continuous
 62
     7
370
     9
100
AcDbLine
 10
494.7993602225218
 20
454.905253249666
 30
0.0
 11
372.2107437740422
 21
454.905253249666
 31
0.0
  0
LINE
  5
C4
330
1F
100
AcDbEntity
  8
D-4
  6
Continuous
 62
     7
370
     9
100
AcDbLine
 10
695.6292473441622
 20
481.9456029758312
 30
0.0
 11
718.6239949685946
 21
481.9456029758312
 31
0.0
  0
TEXT
  5
C5
330
1F
100
AcDbEntity
  8
D-4
  6
Continuous
 62
     2
370
   211
100
AcDbText
 10
703.1168182626366
 20
487.2656029758312
 30
0.0
 40
15.24
  1
7
 41
0.9999999999999998
  7
ＭＳ ゴシック
100
AcDbText
  0
LINE
  5
C6
330
1F
100
AcDbEntity
  8
D-4
  6
Continuous
 62
     7
370
     9
100
AcDbLine
 10
658.1290652991502
 20
481.9456029758312
 30
0.0
 11
634.0540361157636
 21
481.9456029758312
 31
0.0
  0
TEXT
  5
C7
330
1F
100
AcDbEntity
  8
D-4
  6
Continuous
 62
     2
370
   211
100
AcDbText
 10
641.2412221053294
 20
487.2656029758312
 30
0.0
 40
15.24
  1
7
 41
0.9999999999999998
  7
ＭＳ ゴシック
100
AcDbText
  0
LWPOLYLINE
  5
C8
330
1F
100
AcDbEntity
  8
D-4
  6
Continuous
 62
     7
370
     9
100
AcDbPolyline
 90
        4
 70
     1
 43
1.0
 10
452.3789305328177
 20
419.4456029758312
 42
0.4142135623731
 10
451.8789305328178
 20
419.9456029758312
 42
0.4142135623731
 10
451.3789305328178
 20
419.4456029758312
 42
0.4142135623731
 10
451.8789305328178
 20
418.9456029758313
 42
0.4142135623731
  0
LINE
  5
C9
330
1F
100
AcDbEntity
  8
D-4
  6
Continuous
 62
     7
370
     9
100
AcDbLine
 10
658.1290652991502
 20
482.9456029758312
 30
0.0
 11
658.1290652991502
 21
428.2150745522605
 31
0.0
  0
LWPOLYLINE
  5
CA
330
1F
100
AcDbEntity
  8
D-4
  6
Continuous
 62
     7
370
     9
100
AcDbPolyline
 90
        4
 70
     1
 43
1.0
 10
658.62906529915
 20
481.9456029758312
 42
0.4142135623731
 10
658.1290652991502
 20
482.4456029758312
 42
0.4142135623731
 10
657.6290652991502
 20
481.9456029758312
 42
0.4142135623731
 10
658.1290652991502
 20
481.4456029758313
 42
0.4142135623731
  0
LINE
  5
CB
330
1F
100
AcDbEntity
  8
D-4
  6
Continuous
 62
     7
370
     9
100
AcDbLine
 10
675.6291966202352
 20
481.9456029758312
 30
0.0
 11
658.1290652991502
 21
481.9456029758312
 31
0.0
  0
TEXT
  5
CC
330
1F
100
AcDbEntity
  8
D-4
  6
Continuous
 62
     2
370
   211
100
AcDbText
 10
671.8792319976203
 20
487.2656029758312
 30
0.0
 40
15.24
  1
1
 41
0.9999999999999998
  7
ＭＳ ゴシック
100
AcDbText
  0
LINE
  5
CD
330
1F
100
AcDbEntity
  8
D-4
  6
Continuous
 62
     7
370
     9
100
AcDbLine
 10
675.6291966202352
 20
482.9456029758312
 30
0.0
 11
675.6291966202352
 21
428.1956231539597
 31
0.0
  0
LWPOLYLINE
  5
CE
330
1F
100
AcDbEntity
  8
D-4
  6
Continuous
 62
     7
370
     9
100
AcDbPolyline
 90
        4
 70
     1
 43
1.0
 10
676.1291966202351
 20
481.9456029758312
 42
0.4142135623731
 10
675.6291966202352
 20
482.4456029758312
 42
0.4142135623731
 10
675.1291966202352
 20
481.9456029758312
 42
0.4142135623731
 10
675.6291966202352
 20
481.4456029758313
 42
0.4142135623731
  0
LINE
  5
CF
330
1F
100
AcDbEntity
  8
D-4
  6
Continuous
 62
     7
370
     9
100
AcDbLine
 10
678.1292673750047
 20
481.9456029758312
 30
0.0
 11
675.6291966202352
 21
481.9456029758312
 31
0.0
  0
LINE
  5
D0
330
1F
100
AcDbEntity
  8
D-4
  6
Continuous
 62
     7
370
     9
100
AcDbLine
 10
678.1292673750047
 20
482.9456029758312
 30
0.0
 11
678.1292673750047
 21
428.1956231539597
 31
0.0
  0
LWPOLYLINE
  5
D1
330
1F
100
AcDbEntity
  8
D-4
  6
Continuous
 62
     7
370
     9
100
AcDbPolyline
 90
        4
 70
     1
 43
1.0
 10
678.6292673750047
 20
481.9456029758312
 42
0.4142135623731
 10
678.1292673750047
 20
482.4456029758312
 42
0.4142135623731
 10
677.6292673750048
 20
481.9456029758312
 42
0.4142135623731
 10
678.1292673750047
 20
481.4456029758313
 42
0.4142135623731
  0
LWPOLYLINE
  5
D2
330
1F
100
AcDbEntity
  8
D-4
  6
Continuous
 62
     7
370
     9
100
AcDbPolyline
 90
        4
 70
     1
 43
1.0
 10
696.1292473441621
 20
481.9456029758312
 42
0.4142135623731
 10
695.6292473441622
 20
482.4456029758312
 42
0.4142135623731
 10
695.1292473441622
 20
481.9456029758312
 42
0.4142135623731
 10
695.6292473441622
 20
481.4456029758313
 42
0.4142135623731
  0
LINE
  5
D3
330
1F
100
AcDbEntity
  8
D-4
  6
Continuous
 62
     7
370
     9
100
AcDbLine
 10
695.6292473441622
 20
481.9456029758312
 30
0.0
 11
678.1292673750047
 21
481.9456029758312
 31
0.0
  0
LINE
  5
D4
330
1F
100
AcDbEntity
  8
D-4
  6
Continuous
 62
     7
370
     9
100
AcDbLine
 10
695.6292473441622
 20
545.4456029758312
 30
0.0
 11
695.6292473441622
 21
428.1956231539597
 31
0.0
  0
LWPOLYLINE
  5
D5
330
1F
100
AcDbEntity
  8
D-4
  6
Continuous
 62
     7
370
     9
100
AcDbPolyline
 90
        4
 70
     1
 43
1.0
 10
696.1292473441621
 20
544.4456029758312
 42
0.4142135623731
 10
695.6292473441622
 20
544.9456029758312
 42
0.4142135623731
 10
695.1292473441622
 20
544.4456029758312
 42
0.4142135623731
 10
695.6292473441622
 20
543.9456029758312
 42
0.4142135623731
  0
LINE
  5
D6
330
1F
100
AcDbEntity
  8
D-5
  6
Continuous
 62
     7
370
     9
100
AcDbLine
 10
686.8789948966285
 20
419.4456029758312
 30
0.0
 11
692.1025305910948
 21
430.8018644578789
 31
0.0
  0
LINE
  5
D7
330
1F
100
AcDbEntity
  8
D-5
  6
Continuous
 62
     7
370
     9
100
AcDbLine
 10
686.8789948966285
 20
419.4456029758312
 30
0.0
 11
694.8637596811741
 21
429.0629587109322
 31
0.0
  0
LINE
  5
D8
330
1F
100
AcDbEntity
  8
D-4
  6
Continuous
 62
     7
370
     9
100
AcDbLine
 10
695.6292473441622
 20
544.4456029758312
 30
0.0
 11
70.89066585167949
 21
544.4456029758312
 31
0.0
  0
LINE
  5
D9
330
1F
100
AcDbEntity
  8
D-5
  6
Continuous
 62
     7
370
     9
100
AcDbLine
 10
583.5203155228455
 20
356.5576126650167
 30
0.0
 11
576.4305107960981
 21
366.8524982368228
 31
0.0
  0
TEXT
  5
DA
330
1F
100
AcDbEntity
  8
D-5
  6
Continuous
 62
     7
370
     9
100
AcDbText
 10
522.102837487649
 20
269.4665835214798
 30
0.0
 40
11.43
  1
パッキン
 41
1.125
  7
ＭＳ ゴシック
100
AcDbText
  0
TEXT
  5
DB
330
1F
100
AcDbEntity
  8
D-5
  6
Continuous
 62
     7
370
     9
100
AcDbText
 10
504.602837487649
 20
246.3484176905943
 30
0.0
 40
11.43
  1
クロロプレン
 41
1.138888888888889
  7
ＭＳ ゴシック
100
AcDbText
  0
TEXT
  5
DC
330
1F
100
AcDbEntity
  8
D-5
  6
Continuous
 62
     7
370
     9
100
AcDbText
 10
259.3159214130972
 20
268.9853308245727
 30
0.0
 40
11.43
  1
ＳＵＳ３０４
 41
1.138888888888889
  7
ＭＳ ゴシック
100
AcDbText
  0
LINE
  5
DD
330
1F
100
AcDbEntity
  8
D-5
  6
Continuous
 62
     7
370
     9
100
AcDbLine
 10
377.885779847526
 20
286.1591928983162
 30
0.0
 11
243.2460629786683
 21
286.1591928983162
 31
0.0
  0
TEXT
  5
DE
330
1F
100
AcDbEntity
  8
D-5
  6
Continuous
 62
     7
370
     9
100
AcDbText
 10
252.4824971144917
 20
292.0785183113758
 30
0.0
 40
11.43
  1
蓋　ｔ＝１．０
 41
1.142857142857143
  7
ＭＳ ゴシック
100
AcDbText
  0
LINE
  5
DF
330
1F
100
AcDbEntity
  8
D-5
  6
Continuous
 62
     7
370
     9
100
AcDbLine
 10
415.86760968172
 20
351.9454863994155
 30
0.0
 11
411.0841030305377
 21
340.3969749973884
 31
0.0
  0
LINE
  5
E0
330
1F
100
AcDbEntity
  8
D-5
  6
Continuous
 62
     7
370
     9
100
AcDbLine
 10
415.86760968172
 20
351.9454863994155
 30
0.0
 11
408.2580928162221
 21
342.0285931878445
 31
0.0
  0
LINE
  5
E1
330
1F
100
AcDbEntity
  8
D-5
  6
Continuous
 62
     7
370
     9
100
AcDbLine
 10
415.86760968172
 20
351.9454863994155
 30
0.0
 11
377.885779847526
 21
286.1591928983162
 31
0.0
  0
LINE
  5
E2
330
1F
100
AcDbEntity
  8
D-5
  6
Continuous
 62
     7
370
     9
100
AcDbLine
 10
612.1727392375439
 20
262.8722738818624
 30
0.0
 11
499.5329357377548
 21
262.8722738818624
 31
0.0
  0
LINE
  5
E3
330
1F
100
AcDbEntity
  8
D-5
  6
Continuous
 62
     7
370
     9
100
AcDbLine
 10
652.2965111375433
 20
338.3438129487416
 30
0.0
 11
647.9195426333215
 21
326.6351773871978
 31
0.0
  0
LINE
  5
E4
330
1F
100
AcDbEntity
  8
D-5
  6
Continuous
 62
     7
370
     9
100
AcDbLine
 10
652.2965111375433
 20
338.3438129487416
 30
0.0
 11
645.0382663429693
 21
328.1669822779462
 31
0.0
  0
LINE
  5
E5
330
1F
100
AcDbEntity
  8
D-5
  6
Continuous
 62
     7
370
     9
100
AcDbLine
 10
612.1727392375439
 20
262.8722738818624
 30
0.0
 11
652.2965111375433
 21
338.3438129487416
 31
0.0
  0
LINE
  5
E6
330
1F
100
AcDbEntity
  8
D-4
  6
Continuous
 62
     7
370
     9
100
AcDbLine
 10
450.8789305328175
 20
314.4454230506379
 30
0.0
 11
598.1293474983763
 21
314.4454230506379
 31
0.0
  0
LWPOLYLINE
  5
E7
330
1F
100
AcDbEntity
  8
D-4
  6
Continuous
 62
     7
370
     9
100
AcDbPolyline
 90
        4
 70
     1
 43
1.0
 10
452.3789305328177
 20
314.4454230506379
 42
0.4142135623731
 10
451.8789305328178
 20
314.9454230506379
 42
0.4142135623731
 10
451.3789305328178
 20
314.4454230506379
 42
0.4142135623731
 10
451.8789305328178
 20
313.9454230506379
 42
0.4142135623731
  0
LINE
  5
E8
330
1F
100
AcDbEntity
  8
D-4
  6
Continuous
 62
     7
370
     9
100
AcDbLine
 10
451.8789305328178
 20
419.4456029758312
 30
0.0
 11
451.8789305328178
 21
314.4454230506379
 31
0.0
  0
TEXT
  5
E9
330
1F
100
AcDbEntity
  8
D-4
  6
Continuous
 62
     2
370
   211
100
AcDbText
 10
446.5964540111901
 20
360.6339836698996
 30
0.0
 40
15.24
  1
42
 50
90.0
 41
1.0625
  7
ＭＳ ゴシック
100
AcDbText
  0
LINE
  5
EA
330
1F
100
AcDbEntity
  8
D-6
  6
Continuous
 62
     6
370
     9
100
AcDbLine
 10
745.8792226001797
 20
273.1196110393304
 30
0.0
 11
745.8792226001797
 21
347.2252781981031
 31
0.0
  0
LINE
  5
EB
330
1F
100
AcDbEntity
  8
D-6
  6
Continuous
 62
     6
370
     9
100
AcDbLine
 10
723.3792720881443
 20
273.1196110393304
 30
0.0
 11
723.3792720881443
 21
347.2252781981031
 31
0.0
  0
LINE
  5
EC
330
1F
100
AcDbEntity
  8
D-6
  6
Continuous
 62
     6
370
     9
100
AcDbLine
 10
695.6290046174788
 20
273.1196110393304
 30
0.0
 11
906.6359301016123
 21
273.1196110393304
 31
0.0
  0
LINE
  5
ED
330
1F
100
AcDbEntity
  8
D-6
  6
Continuous
 62
     6
370
     9
100
AcDbLine
 10
738.7819931355862
 20
149.5247106745485
 30
0.0
 11
862.3768935003679
 21
273.1196110393304
 31
0.0
  0
LINE
  5
EE
330
1F
100
AcDbEntity
  8
D-6
  6
Continuous
 62
     6
370
     9
100
AcDbLine
 10
745.8530609474521
 20
149.5247106745479
 30
0.0
 11
869.4479613122339
 21
273.11961103933
 31
0.0
  0
LINE
  5
EF
330
1F
100
AcDbEntity
  8
D-6
  6
Continuous
 62
     6
370
     9
100
AcDbLine
 10
752.9241287593206
 20
149.5247106745501
 30
0.0
 11
876.5190291241029
 21
273.119611039332
 31
0.0
  0
LINE
  5
F0
330
1F
100
AcDbEntity
  8
D-6
  6
Continuous
 62
     6
370
     9
100
AcDbLine
 10
695.6290046174788
 20
273.1196110393304
 30
0.0
 11
695.6290046174788
 21
149.5247106745485
 31
0.0
  0
LINE
  5
F1
330
1F
100
AcDbEntity
  8
D-6
  6
Continuous
 62
     6
370
     9
100
AcDbLine
 10
645.6290046174788
 20
334.4453853614887
 30
0.0
 11
645.6290046174788
 21
149.5247106745485
 31
0.0
  0
LINE
  5
F2
330
1F
100
AcDbEntity
  8
D-6
  6
JWW_CENTER1
 62
     6
370
     9
100
AcDbLine
 10
734.629247344162
 20
233.3821620416364
 30
0.0
 11
734.629247344162
 21
369.7164580055535
 31
0.0
  0
LINE
  5
F3
330
1F
100
AcDbEntity
  8
D-6
  6
JWW_DASHED3
 62
     6
370
     9
100
AcDbLine
 10
723.3792720881443
 20
248.3777452796943
 30
0.0
 11
723.3792720881443
 21
273.1196110393304
 31
0.0
  0
LINE
  5
F4
330
1F
100
AcDbEntity
  8
D-6
  6
JWW_DASHED3
 62
     6
370
     9
100
AcDbLine
 10
745.8792226001797
 20
248.3777452796943
 30
0.0
 11
745.8792226001797
 21
273.1196110393304
 31
0.0
  0
TEXT
  5
F5
330
1F
100
AcDbEntity
  8
D-4
  6
Continuous
 62
     2
370
   211
100
AcDbText
 10
709.504040231757
 20
214.1146154743133
 30
0.0
 40
15.24
  1
31
 41
1.0625
  7
ＭＳ ゴシック
100
AcDbText
  0
LINE
  5
F6
330
1F
100
AcDbEntity
  8
D-4
  6
Continuous
 62
     7
370
     9
100
AcDbLine
 10
759.6289645557929
 20
207.7946154743134
 30
0.0
 11
759.6289645557929
 21
337.2252781981031
 31
0.0
  0
LWPOLYLINE
  5
F7
330
1F
100
AcDbEntity
  8
D-4
  6
Continuous
 62
     7
370
     9
100
AcDbPolyline
 90
        4
 70
     1
 43
1.0
 10
760.1289645557928
 20
208.7946154743133
 42
0.4142135623731
 10
759.6289645557929
 20
209.2946154743133
 42
0.4142135623731
 10
759.1289645557929
 20
208.7946154743133
 42
0.4142135623731
 10
759.6289645557929
 20
208.2946154743133
 42
0.4142135623731
  0
LINE
  5
F8
330
1F
100
AcDbEntity
  8
D-4
  6
Continuous
 62
     7
370
     9
100
AcDbLine
 10
680.6291159077218
 20
208.7946154743133
 30
0.0
 11
759.6289645557929
 21
208.7946154743133
 31
0.0
  0
TEXT
  5
F9
330
1F
100
AcDbEntity
  8
D-4
  6
Continuous
 62
     2
370
   211
100
AcDbText
 10
652.5040602626004
 20
214.1146154743133
 30
0.0
 40
15.24
  1
14
 41
1.0625
  7
ＭＳ ゴシック
100
AcDbText
  0
LWPOLYLINE
  5
FA
330
1F
100
AcDbEntity
  8
D-4
  6
Continuous
 62
     7
370
     9
100
AcDbPolyline
 90
        4
 70
     1
 43
1.0
 10
681.1291159077218
 20
208.7946154743133
 42
0.4142135623731
 10
680.6291159077218
 20
209.2946154743133
 42
0.4142135623731
 10
680.1291159077219
 20
208.7946154743133
 42
0.4142135623731
 10
680.6291159077218
 20
208.2946154743133
 42
0.4142135623731
  0
LWPOLYLINE
  5
FB
330
1F
100
AcDbEntity
  8
D-4
  6
Continuous
 62
     7
370
     9
100
AcDbPolyline
 90
        4
 70
     1
 43
1.0
 10
646.1290046174788
 20
208.7946154743133
 42
0.4142135623731
 10
645.6290046174788
 20
209.2946154743133
 42
0.4142135623731
 10
645.1290046174789
 20
208.7946154743133
 42
0.4142135623731
 10
645.6290046174788
 20
208.2946154743133
 42
0.4142135623731
  0
LINE
  5
FC
330
1F
100
AcDbEntity
  8
D-4
  6
Continuous
 62
     7
370
     9
100
AcDbLine
 10
645.6290046174788
 20
208.7946154743133
 30
0.0
 11
680.6291159077218
 21
208.7946154743133
 31
0.0
  0
LINE
  5
FD
330
1F
100
AcDbEntity
  8
D-4
  6
Continuous
 62
     7
370
     9
100
AcDbLine
 10
645.6290046174788
 20
208.7946154743133
 30
0.0
 11
70.89066585167949
 21
208.7946154743133
 31
0.0
  0
LWPOLYLINE
  5
FE
330
1F
100
AcDbEntity
  8
D-6
  6
Continuous
 62
     6
370
     9
100
AcDbPolyline
 90
        4
 70
     1
 43
1.0
 10
659.1555048847574
 20
178.1015940053113
 42
0.4142135623731
 10
658.6555048847574
 20
178.6015940053113
 42
0.4142135623731
 10
658.1555048847575
 20
178.1015940053113
 42
0.4142135623731
 10
658.6555048847574
 20
177.6015940053113
 42
0.4142135623731
  0
LWPOLYLINE
  5
FF
330
1F
100
AcDbEntity
  8
D-6
  6
Continuous
 62
     6
370
     9
100
AcDbPolyline
 90
        4
 70
     1
 43
1.0
 10
685.3524942733231
 20
174.6659232658273
 42
0.4142135623731
 10
684.8524942733231
 20
175.1659232658273
 42
0.4142135623731
 10
684.3524942733233
 20
174.6659232658273
 42
0.4142135623731
 10
684.8524942733231
 20
174.1659232658273
 42
0.4142135623731
  0
TEXT
  5
100
330
1F
100
AcDbEntity
  8
D-5
  6
Continuous
 62
     7
370
     9
100
AcDbText
 10
452.9469248134975
 20
514.7665269207475
 30
0.0
 40
11.43
  1
ロックボルト
 41
1.138888888888889
  7
ＭＳ ゴシック
100
AcDbText
  0
LINE
  5
101
330
1F
100
AcDbEntity
  8
D-5
  6
Continuous
 62
     7
370
     9
100
AcDbLine
 10
444.1674052426569
 20
506.6514823815795
 30
0.0
 11
565.8876316335985
 21
506.6514823815795
 31
0.0
  0
LINE
  5
102
330
1F
100
AcDbEntity
  8
D-5
  6
Continuous
 62
     7
370
     9
100
AcDbLine
 10
565.8876316335985
 20
506.6514823815795
 30
0.0
 11
596.5674062367494
 21
418.1954520082259
 31
0.0
  0
LINE
  5
103
330
1F
100
AcDbEntity
  8
D-5
  6
Continuous
 62
     7
370
     9
100
AcDbLine
 10
596.5674062367494
 20
418.1954520082259
 30
0.0
 11
594.04786112386
 21
430.4388948420091
 31
0.0
  0
LINE
  5
104
330
1F
100
AcDbEntity
  8
D-5
  6
Continuous
 62
     7
370
     9
100
AcDbLine
 10
596.5674062367494
 20
418.1954520082259
 30
0.0
 11
590.964876358702
 21
429.36960338386
 31
0.0
  0
LWPOLYLINE
  5
105
330
1F
100
AcDbEntity
  8
D-6
  6
Continuous
 62
     6
370
     9
100
AcDbPolyline
 90
        4
 70
     1
 43
1.0
 10
761.589278868933
 20
384.4871901512936
 42
0.4142135623731
 10
761.089278868933
 20
384.9871901512935
 42
0.4142135623731
 10
760.589278868933
 20
384.4871901512936
 42
0.4142135623731
 10
761.089278868933
 20
383.9871901512936
 42
0.4142135623731
  0
LWPOLYLINE
  5
106
330
1F
100
AcDbEntity
  8
D-6
  6
Continuous
 62
     6
370
     9
100
AcDbPolyline
 90
        4
 70
     1
 43
1.0
 10
766.691371085921
 20
365.2562271795701
 42
0.4142135623731
 10
766.191371085921
 20
365.7562271795701
 42
0.4142135623731
 10
765.691371085921
 20
365.2562271795701
 42
0.4142135623731
 10
766.191371085921
 20
364.7562271795701
 42
0.4142135623731
  0
LWPOLYLINE
  5
107
330
1F
100
AcDbEntity
  8
D-6
  6
Continuous
 62
     6
370
     9
100
AcDbPolyline
 90
        4
 70
     1
 43
1.0
 10
735.6863491519176
 20
380.3662695144957
 42
0.4142135623731
 10
735.1863491519177
 20
380.8662695144957
 42
0.4142135623731
 10
734.6863491519177
 20
380.3662695144957
 42
0.4142135623731
 10
735.1863491519177
 20
379.8662695144957
 42
0.4142135623731
  0
LWPOLYLINE
  5
108
330
1F
100
AcDbEntity
  8
D-6
  6
Continuous
 62
     6
370
     9
100
AcDbPolyline
 90
        4
 70
     1
 43
1.0
 10
696.0470173122429
 20
382.5248469909136
 42
0.4142135623731
 10
695.547017312243
 20
383.0248469909136
 42
0.4142135623731
 10
695.047017312243
 20
382.5248469909136
 42
0.4142135623731
 10
695.547017312243
 20
382.0248469909137
 42
0.4142135623731
  0
LWPOLYLINE
  5
109
330
1F
100
AcDbEntity
  8
D-6
  6
Continuous
 62
     6
370
     9
100
AcDbPolyline
 90
        4
 70
     1
 43
1.0
 10
694.084674151863
 20
371.339490976748
 42
0.4142135623731
 10
693.584674151863
 20
371.839490976748
 42
0.4142135623731
 10
693.0846741518632
 20
371.339490976748
 42
0.4142135623731
 10
693.584674151863
 20
370.839490976748
 42
0.4142135623731
  0
LWPOLYLINE
  5
10A
330
1F
100
AcDbEntity
  8
D-6
  6
Continuous
 62
     6
370
     9
100
AcDbPolyline
 90
        4
 70
     1
 43
1.0
 10
810.598799299422
 20
304.227354891754
 42
0.4142135623731
 10
810.098799299422
 20
304.727354891754
 42
0.4142135623731
 10
809.598799299422
 20
304.227354891754
 42
0.4142135623731
 10
810.098799299422
 20
303.727354891754
 42
0.4142135623731
  0
LWPOLYLINE
  5
10B
330
1F
100
AcDbEntity
  8
D-6
  6
Continuous
 62
     6
370
     9
100
AcDbPolyline
 90
        4
 70
     1
 43
1.0
 10
821.6369795765592
 20
281.7094671263941
 42
0.4142135623731
 10
821.1369795765592
 20
282.2094671263941
 42
0.4142135623731
 10
820.6369795765592
 20
281.7094671263941
 42
0.4142135623731
 10
821.1369795765592
 20
281.2094671263941
 42
0.4142135623731
  0
LWPOLYLINE
  5
10C
330
1F
100
AcDbEntity
  8
D-6
  6
Continuous
 62
     6
370
     9
100
AcDbPolyline
 90
        4
 70
     1
 43
1.0
 10
778.3673128901814
 20
281.2679399153087
 42
0.4142135623731
 10
777.8673128901814
 20
281.7679399153087
 42
0.4142135623731
 10
777.3673128901816
 20
281.2679399153087
 42
0.4142135623731
 10
777.8673128901814
 20
280.7679399153087
 42
0.4142135623731
  0
LWPOLYLINE
  5
10D
330
1F
100
AcDbEntity
  8
D-6
  6
Continuous
 62
     6
370
     9
100
AcDbPolyline
 90
        4
 70
     1
 43
1.0
 10
886.5414796061258
 20
275.9696133822828
 42
0.4142135623731
 10
886.0414796061258
 20
276.4696133822828
 42
0.4142135623731
 10
885.5414796061258
 20
275.9696133822828
 42
0.4142135623731
 10
886.0414796061258
 20
275.4696133822828
 42
0.4142135623731
  0
LWPOLYLINE
  5
10E
330
1F
100
AcDbEntity
  8
D-6
  6
Continuous
 62
     6
370
     9
100
AcDbPolyline
 90
        4
 70
     1
 43
1.0
 10
904.6440952606308
 20
290.9815385591894
 42
0.4142135623731
 10
904.1440952606308
 20
291.4815385591894
 42
0.4142135623731
 10
903.6440952606308
 20
290.9815385591894
 42
0.4142135623731
 10
904.1440952606308
 20
290.4815385591893
 42
0.4142135623731
  0
LWPOLYLINE
  5
10F
330
1F
100
AcDbEntity
  8
D-6
  6
Continuous
 62
     6
370
     9
100
AcDbPolyline
 90
        4
 70
     1
 43
1.0
 10
847.8219961228787
 20
299.7875534913943
 42
0.4142135623731
 10
847.3219961228788
 20
300.2875534913944
 42
0.4142135623731
 10
846.8219961228788
 20
299.7875534913943
 42
0.4142135623731
 10
847.3219961228788
 20
299.2875534913943
 42
0.4142135623731
  0
LWPOLYLINE
  5
110
330
1F
100
AcDbEntity
  8
D-6
  6
Continuous
 62
     6
370
     9
100
AcDbPolyline
 90
        4
 70
     1
 43
1.0
 10
782.6722031982645
 20
311.5616124536739
 42
0.4142135623731
 10
782.1722031982645
 20
312.061612453674
 42
0.4142135623731
 10
781.6722031982646
 20
311.5616124536739
 42
0.4142135623731
 10
782.1722031982645
 20
311.0616124536739
 42
0.4142135623731
  0
TEXT
  5
111
330
1F
100
AcDbEntity
  8
D-4
  6
Continuous
 62
     2
370
   211
100
AcDbText
 10
78.71476892604242
 20
549.7656029758313
 30
0.0
 40
15.24
  1
□600
 41
1.1
  7
ＭＳ ゴシック
100
AcDbText
  0
TEXT
  5
112
330
1F
100
AcDbEntity
  8
D-4
  6
Continuous
 62
     2
370
   211
100
AcDbText
 10
78.71476892604242
 20
214.1146154743135
 30
0.0
 40
15.24
  1
□560
 41
1.1
  7
ＭＳ ゴシック
100
AcDbText
  0
TEXT
  5
113
330
1F
100
AcDbEntity
  8
D-5
  6
Continuous
 62
     7
370
     9
100
AcDbText
 10
734.9395061086718
 20
493.5270859150556
 30
0.0
 40
11.43
  1
受枠（ＳＵＳ３０４）
 41
1.15
  7
ＭＳ ゴシック
100
AcDbText
  0
LINE
  5
114
330
1F
100
AcDbEntity
  8
D-5
  6
Continuous
 62
     7
370
     9
100
AcDbLine
 10
728.9294855773189
 20
486.2180765981215
 30
0.0
 11
902.4747205960618
 21
486.2180765981215
 31
0.0
  0
ARC
  5
115
330
1F
100
AcDbEntity
  8
D-2
  6
Continuous
 62
     3
370
     9
100
AcDbCircle
 10
674.3793410178089
 20
353.1954662212872
 30
0.0
 40
1.249999942322726
100
AcDbArc
 50
270.0
 51
0.0000000000000127
  0
LINE
  5
116
330
1F
100
AcDbEntity
  8
D-2
  6
Continuous
 62
     3
370
     9
100
AcDbLine
 10
673.1294924274143
 20
354.4454863994155
 30
0.0
 11
633.1293408705235
 21
354.4454863994155
 31
0.0
  0
LINE
  5
117
330
1F
100
AcDbEntity
  8
D-2
  6
Continuous
 62
     3
370
     9
100
AcDbLine
 10
633.1293408705235
 20
351.9454863994155
 30
0.0
 11
674.3793410178089
 21
351.9454863994155
 31
0.0
  0
ARC
  5
118
330
1F
100
AcDbEntity
  8
D-2
  6
Continuous
 62
     3
370
     9
100
AcDbCircle
 10
674.3793410178089
 20
418.1955176239644
 30
0.0
 40
1.249999942322726
100
AcDbArc
 50
0.0
 51
90.0
  0
ARC
  5
119
330
1F
100
AcDbEntity
  8
D-2
  6
Continuous
 62
     3
370
     9
100
AcDbCircle
 10
659.3793206923945
 20
418.1955176239644
 30
0.0
 40
1.249999942322726
100
AcDbArc
 50
90.00000000000001
 51
180.0
  0
LINE
  5
11A
330
1F
100
AcDbEntity
  8
D-2
  6
Continuous
 62
     3
370
     9
100
AcDbLine
 10
658.1293408705235
 20
418.1955176239644
 30
0.0
 11
658.1293408705235
 21
406.9454367641656
 31
0.0
  0
LINE
  5
11B
330
1F
100
AcDbEntity
  8
D-2
  6
Continuous
 62
     3
370
     9
100
AcDbLine
 10
660.6293005142666
 20
416.9454721863542
 30
0.0
 11
660.6293005142666
 21
406.9454367641656
 31
0.0
  0
LINE
  5
11C
330
1F
100
AcDbEntity
  8
D-2
  6
Continuous
 62
     3
370
     9
100
AcDbLine
 10
673.1294924274143
 20
416.9454721863542
 30
0.0
 11
660.6293005142666
 21
416.9454721863542
 31
0.0
  0
LINE
  5
11D
330
1F
100
AcDbEntity
  8
D-2
  6
Continuous
 62
     3
370
     9
100
AcDbLine
 10
673.1294924274143
 20
416.9454721863542
 30
0.0
 11
673.1294924274143
 21
354.4454863994155
 31
0.0
  0
LINE
  5
11E
330
1F
100
AcDbEntity
  8
D-2
  6
Continuous
 62
     3
370
     9
100
AcDbLine
 10
675.6291896082032
 20
353.1954662212872
 30
0.0
 11
675.6291896082032
 21
418.1955176239644
 31
0.0
  0
LINE
  5
11F
330
1F
100
AcDbEntity
  8
D-2
  6
Continuous
 62
     3
370
     9
100
AcDbLine
 10
674.3793410178089
 20
419.4454974458359
 30
0.0
 11
659.3793206923945
 21
419.4454974458359
 31
0.0
  0
LINE
  5
120
330
1F
100
AcDbEntity
  8
D-2
  6
Continuous
 62
     3
370
     9
100
AcDbLine
 10
660.6293005142666
 20
406.9454367641656
 30
0.0
 11
658.1293408705235
 21
406.9454367641656
 31
0.0
  0
LINE
  5
121
330
1F
100
AcDbEntity
  8
D-1
  6
Continuous
 62
     2
370
     9
100
AcDbLine
 10
680.6291978561969
 20
416.9453278463138
 30
0.0
 11
693.1293628160793
 21
416.9453278463138
 31
0.0
  0
LINE
  5
122
330
1F
100
AcDbEntity
  8
D-1
  6
Continuous
 62
     2
370
     9
100
AcDbLine
 10
695.6292473441622
 20
418.1955175501777
 30
0.0
 11
695.6292473441622
 21
406.9455422941605
 31
0.0
  0
ARC
  5
123
330
1F
100
AcDbEntity
  8
D-1
  6
Continuous
 62
     2
370
     9
100
AcDbCircle
 10
694.379305080121
 20
418.1955175501777
 30
0.0
 40
1.250000016109364
100
AcDbArc
 50
0.0
 51
90.0
  0
ARC
  5
124
330
1F
100
AcDbEntity
  8
D-1
  6
Continuous
 62
     2
370
     9
100
AcDbCircle
 10
679.3792555921559
 20
418.1955175501777
 30
0.0
 40
1.250000016109364
100
AcDbArc
 50
90.0
 51
180.0
  0
LINE
  5
125
330
1F
100
AcDbEntity
  8
D-1
  6
Continuous
 62
     2
370
     9
100
AcDbLine
 10
679.3672399008963
 20
419.4454598142195
 30
0.0
 11
694.379305080121
 21
419.4454598142195
 31
0.0
  0
LINE
  5
126
330
1F
100
AcDbEntity
  8
D-1
  6
Continuous
 62
     2
370
     9
100
AcDbLine
 10
693.1293628160793
 20
406.9455422941605
 30
0.0
 11
695.6292473441622
 21
406.9455422941605
 31
0.0
  0
LINE
  5
127
330
1F
100
AcDbEntity
  8
D-1
  6
Continuous
 62
     2
370
     9
100
AcDbLine
 10
693.1293628160793
 20
416.9453278463138
 30
0.0
 11
693.1293628160793
 21
406.9455422941605
 31
0.0
  0
ARC
  5
128
330
1F
100
AcDbEntity
  8
D-1
  6
Continuous
 62
     2
370
     9
100
AcDbCircle
 10
679.3792555921559
 20
333.1953874234863
 30
0.0
 40
1.250000016109364
100
AcDbArc
 50
270.0
 51
0.0
  0
ARC
  5
129
330
1F
100
AcDbEntity
  8
D-1
  6
Continuous
 62
     2
370
     9
100
AcDbCircle
 10
646.8792720881438
 20
333.1953874234863
 30
0.0
 40
1.250000016109364
100
AcDbArc
 50
180.0
 51
270.0
  0
LINE
  5
12A
330
1F
100
AcDbEntity
  8
D-1
  6
Continuous
 62
     2
370
     9
100
AcDbLine
 10
678.1291896082028
 20
418.1955175501777
 30
0.0
 11
678.1291896082028
 21
334.4454534074391
 31
0.0
  0
LINE
  5
12B
330
1F
100
AcDbEntity
  8
D-1
  6
Continuous
 62
     2
370
     9
100
AcDbLine
 10
680.6291978561969
 20
333.1953874234863
 30
0.0
 11
680.6291978561969
 21
416.9453278463138
 31
0.0
  0
LINE
  5
12C
330
1F
100
AcDbEntity
  8
D-1
  6
Continuous
 62
     2
370
     9
100
AcDbLine
 10
645.6292061041918
 20
344.445486399416
 30
0.0
 11
648.129338072097
 21
344.445486399416
 31
0.0
  0
LINE
  5
12D
330
1F
100
AcDbEntity
  8
D-1
  6
Continuous
 62
     2
370
     9
100
AcDbLine
 10
645.6292061041918
 20
333.1953874234863
 30
0.0
 11
645.6292061041918
 21
344.445486399416
 31
0.0
  0
LINE
  5
12E
330
1F
100
AcDbEntity
  8
D-1
  6
Continuous
 62
     2
370
     9
100
AcDbLine
 10
679.3792555921559
 20
331.9455688793563
 30
0.0
 11
646.8792720881438
 21
331.9455688793563
 31
0.0
  0
LINE
  5
12F
330
1F
100
AcDbEntity
  8
D-2
  6
Continuous
 62
     3
370
     9
100
AcDbLine
 10
645.6291022678374
 20
340.6954157023239
 30
0.0
 11
534.2597714676591
 21
340.6954157023239
 31
0.0
  0
LINE
  5
130
330
1F
100
AcDbEntity
  8
D-2
  6
Continuous
 62
     3
370
     9
100
AcDbLine
 10
623.129203011194
 20
344.445486399416
 30
0.0
 11
623.129203011194
 21
340.6954157023239
 31
0.0
  0
LINE
  5
131
330
1F
100
AcDbEntity
  8
D-2
  6
Continuous
 62
     3
370
     9
100
AcDbLine
 10
589.379340870523
 20
326.2495696215439
 30
0.0
 11
589.379340870523
 21
340.6954157023239
 31
0.0
  0
LINE
  5
132
330
1F
100
AcDbEntity
  8
D-2
  6
Continuous
 62
     3
370
     9
100
AcDbLine
 10
626.879340870523
 20
326.2495696215439
 30
0.0
 11
626.879340870523
 21
340.6954157023239
 31
0.0
  0
LINE
  5
133
330
1F
100
AcDbEntity
  8
D-2
  6
Continuous
 62
     3
370
     9
100
AcDbLine
 10
598.7612693144315
 20
326.2495696215439
 30
0.0
 11
598.7612693144315
 21
340.6954157023239
 31
0.0
  0
LINE
  5
134
330
1F
100
AcDbEntity
  8
D-2
  6
Continuous
 62
     3
370
     9
100
AcDbLine
 10
617.4974124266145
 20
326.2495696215439
 30
0.0
 11
617.4974124266145
 21
340.6954157023239
 31
0.0
  0
LINE
  5
135
330
1F
100
AcDbEntity
  8
D-2
  6
Continuous
 62
     3
370
     9
100
AcDbLine
 10
594.0703050924777
 20
324.4453620581435
 30
0.0
 11
622.1883766485686
 21
324.4453620581435
 31
0.0
  0
ARC
  5
136
330
1F
100
AcDbEntity
  8
D-2
  6
Continuous
 62
     3
370
     9
100
AcDbCircle
 10
594.0703050924777
 20
331.4458059935379
 30
0.0
 40
7.000433206558228
100
AcDbArc
 50
227.9253692626954
 51
312.0744323730469
  0
ARC
  5
137
330
1F
100
AcDbEntity
  8
D-2
  6
Continuous
 62
     3
370
     9
100
AcDbCircle
 10
608.129340870523
 20
349.6688824562834
 30
0.0
 40
25.22352457046509
100
AcDbArc
 50
248.1978607177735
 51
291.8021392822266
  0
ARC
  5
138
330
1F
100
AcDbEntity
  8
D-2
  6
Continuous
 62
     3
370
     9
100
AcDbCircle
 10
622.1883766485686
 20
331.4458679823683
 30
0.0
 40
7.000473737716675
100
AcDbArc
 50
227.9257202148438
 51
312.0742797851563
  0
LINE
  5
139
330
1F
100
AcDbEntity
  8
D-2
  6
Continuous
 62
     3
370
     9
100
AcDbLine
 10
645.6291022678374
 20
344.445486399416
 30
0.0
 11
618.129401552194
 21
344.445486399416
 31
0.0
  0
LINE
  5
13A
330
1F
100
AcDbEntity
  8
D-2
  6
Continuous
 62
     3
370
     9
100
AcDbLine
 10
645.6291022678374
 20
334.4453853614887
 30
0.0
 11
626.879340870523
 21
334.4453853614887
 31
0.0
  0
LINE
  5
13B
330
1F
100
AcDbEntity
  8
D-2
  6
Continuous
 62
     3
370
     9
100
AcDbLine
 10
589.379340870523
 20
334.4453853614887
 30
0.0
 11
539.3688753443113
 21
334.4453853614887
 31
0.0
  0
LINE
  5
13C
330
1F
100
AcDbEntity
  8
D-2
  6
Continuous
 62
     3
370
     9
100
AcDbLine
 10
541.1368258073297
 20
340.6954157023239
 30
0.0
 11
541.1368258073297
 21
334.4453853614887
 31
0.0
  0
LINE
  5
13D
330
1F
100
AcDbEntity
  8
D-2
  6
Continuous
 62
     3
370
     9
100
AcDbLine
 10
539.3688753443113
 20
340.6954157023239
 30
0.0
 11
539.3688753443113
 21
334.4453853614887
 31
0.0
  0
LINE
  5
13E
330
1F
100
AcDbEntity
  8
D-2
  6
Continuous
 62
     3
370
     9
100
AcDbLine
 10
534.2597714676591
 20
344.445486399416
 30
0.0
 11
534.2597714676591
 21
340.6954157023239
 31
0.0
  0
LINE
  5
13F
330
1F
100
AcDbEntity
  8
D-2
  6
Continuous
 62
     3
370
     9
100
AcDbLine
 10
598.1292801888522
 20
344.445486399416
 30
0.0
 11
534.2597714676591
 21
344.445486399416
 31
0.0
  0
LINE
  5
140
330
1F
100
AcDbEntity
  8
D-2
  6
Continuous
 62
     3
370
     9
100
AcDbLine
 10
593.1291623603654
 20
344.445486399416
 30
0.0
 11
593.1291623603654
 21
340.6954157023239
 31
0.0
  0
LINE
  5
141
330
1F
100
AcDbEntity
  8
D-2
  6
Continuous
 62
     3
370
     9
100
AcDbLine
 10
614.3793408705234
 20
314.4454230506377
 30
0.0
 11
601.8793408705229
 21
314.4454230506377
 31
0.0
  0
LINE
  5
142
330
1F
100
AcDbEntity
  8
D-2
  6
Continuous
 62
     3
370
     9
100
AcDbLine
 10
614.3793408705234
 20
314.4454230506377
 30
0.0
 11
618.129401552194
 21
320.9407186827585
 31
0.0
  0
LINE
  5
143
330
1F
100
AcDbEntity
  8
D-2
  6
Continuous
 62
     3
370
     9
100
AcDbLine
 10
601.8793408705229
 20
314.4454230506377
 30
0.0
 11
598.1292801888522
 21
320.9407186827581
 31
0.0
  0
LINE
  5
144
330
1F
100
AcDbEntity
  8
D-2
  6
Continuous
 62
     3
370
     9
100
AcDbLine
 10
615.6293408705229
 20
354.4456842614093
 30
0.0
 11
618.1294015521935
 21
351.9456707113889
 31
0.0
  0
LINE
  5
145
330
1F
100
AcDbEntity
  8
D-2
  6
Continuous
 62
     3
370
     9
100
AcDbLine
 10
600.6293408705229
 20
354.4456842614093
 30
0.0
 11
615.6293408705229
 21
354.4456842614093
 31
0.0
  0
LINE
  5
146
330
1F
100
AcDbEntity
  8
D-2
  6
Continuous
 62
     3
370
     9
100
AcDbLine
 10
600.6293408705229
 20
354.4456842614093
 30
0.0
 11
598.1292801888522
 21
351.9456707113889
 31
0.0
  0
LINE
  5
147
330
1F
100
AcDbEntity
  8
D-2
  6
Continuous
 62
     3
370
     9
100
AcDbLine
 10
615.6293408705229
 20
403.195487283129
 30
0.0
 11
615.6293408705229
 21
354.4456842614093
 31
0.0
  0
LINE
  5
148
330
1F
100
AcDbEntity
  8
D-2
  6
Continuous
 62
     3
370
     9
100
AcDbLine
 10
600.6293408705229
 20
403.195487283129
 30
0.0
 11
600.6293408705229
 21
354.4456842614093
 31
0.0
  0
LINE
  5
149
330
1F
100
AcDbEntity
  8
D-2
  6
Continuous
 62
     3
370
     9
100
AcDbLine
 10
655.6294657687201
 20
418.1954520082259
 30
0.0
 11
498.128858657441
 21
418.1954520082259
 31
0.0
  0
LINE
  5
14A
330
1F
100
AcDbEntity
  8
D-2
  6
Continuous
 62
     3
370
     9
100
AcDbLine
 10
616.0995130603608
 20
353.9755209353532
 30
0.0
 11
616.0995130603608
 21
340.6954157023239
 31
0.0
  0
LINE
  5
14B
330
1F
100
AcDbEntity
  8
D-2
  6
Continuous
 62
     3
370
     9
100
AcDbLine
 10
616.0995130603608
 20
324.4453620581435
 30
0.0
 11
616.0995130603608
 21
317.4248486812041
 31
0.0
  0
LINE
  5
14C
330
1F
100
AcDbEntity
  8
D-2
  6
Continuous
 62
     3
370
     9
100
AcDbLine
 10
618.129401552194
 20
351.9456707113891
 30
0.0
 11
618.129401552194
 21
340.6954157023239
 31
0.0
  0
LINE
  5
14D
330
1F
100
AcDbEntity
  8
D-2
  6
Continuous
 62
     3
370
     9
100
AcDbLine
 10
618.129401552194
 20
324.4453620581435
 30
0.0
 11
618.129401552194
 21
320.9407186827585
 31
0.0
  0
LINE
  5
14E
330
1F
100
AcDbEntity
  8
D-2
  6
Continuous
 62
     3
370
     9
100
AcDbLine
 10
600.1594311436404
 20
353.9757833933601
 30
0.0
 11
600.1594311436404
 21
340.6954157023239
 31
0.0
  0
LINE
  5
14F
330
1F
100
AcDbEntity
  8
D-2
  6
Continuous
 62
     3
370
     9
100
AcDbLine
 10
600.1594311436404
 20
324.4453620581435
 30
0.0
 11
600.1594311436404
 21
317.4243940820312
 31
0.0
  0
LINE
  5
150
330
1F
100
AcDbEntity
  8
D-2
  6
Continuous
 62
     3
370
     9
100
AcDbLine
 10
598.1292801888522
 20
351.9456707113889
 30
0.0
 11
598.1292801888522
 21
340.6954157023239
 31
0.0
  0
LINE
  5
151
330
1F
100
AcDbEntity
  8
D-2
  6
Continuous
 62
     3
370
     9
100
AcDbLine
 10
598.1292801888522
 20
324.4453620581435
 30
0.0
 11
598.1292801888522
 21
320.9407186827581
 31
0.0
  0
LINE
  5
152
330
1F
100
AcDbEntity
  8
D-2
  6
Continuous
 62
     3
370
     9
100
AcDbLine
 10
633.1293408705235
 20
399.4454266014583
 30
0.0
 11
633.1293408705235
 21
344.445486399416
 31
0.0
  0
LINE
  5
153
330
1F
100
AcDbEntity
  8
D-2
  6
Continuous
 62
     3
370
     9
100
AcDbLine
 10
628.1293408705235
 20
399.4454266014583
 30
0.0
 11
628.1293408705235
 21
344.445486399416
 31
0.0
  0
LINE
  5
154
330
1F
100
AcDbEntity
  8
D-2
  6
Continuous
 62
     3
370
     9
100
AcDbLine
 10
588.1293408705235
 20
399.4454266014583
 30
0.0
 11
588.1293408705235
 21
344.445486399416
 31
0.0
  0
LINE
  5
155
330
1F
100
AcDbEntity
  8
D-2
  6
Continuous
 62
     3
370
     9
100
AcDbLine
 10
583.1293408705235
 20
399.4454266014583
 30
0.0
 11
583.1293408705235
 21
344.445486399416
 31
0.0
  0
LINE
  5
156
330
1F
100
AcDbEntity
  8
D-2
  6
Continuous
 62
     3
370
     9
100
AcDbLine
 10
495.6286365507426
 20
415.695426748744
 30
0.0
 11
495.6286365507426
 21
409.4453964079087
 31
0.0
  0
LINE
  5
157
330
1F
100
AcDbEntity
  8
D-2
  6
Continuous
 62
     3
370
     9
100
AcDbLine
 10
658.1291629495083
 20
415.695426748744
 30
0.0
 11
658.1291629495083
 21
409.4453964079087
 31
0.0
  0
LINE
  5
158
330
1F
100
AcDbEntity
  8
D-2
  6
Continuous
 62
     3
370
     9
100
AcDbLine
 10
499.3787072478343
 20
414.4454469268725
 30
0.0
 11
499.3787072478343
 21
409.4453964079087
 31
0.0
  0
LINE
  5
159
330
1F
100
AcDbEntity
  8
D-2
  6
Continuous
 62
     3
370
     9
100
AcDbLine
 10
499.3787072478343
 20
414.4454469268725
 30
0.0
 11
571.6764902930694
 21
414.4454469268725
 31
0.0
  0
LINE
  5
15A
330
1F
100
AcDbEntity
  8
D-2
  6
Continuous
 62
     3
370
     9
100
AcDbLine
 10
575.5367954311455
 20
402.8643346654279
 30
0.0
 11
571.6764902930694
 21
414.4454469268725
 31
0.0
  0
LINE
  5
15B
330
1F
100
AcDbEntity
  8
D-2
  6
Continuous
 62
     3
370
     9
100
AcDbLine
 10
654.3790922524161
 20
414.4454469268725
 30
0.0
 11
654.3790922524161
 21
409.4453964079087
 31
0.0
  0
LINE
  5
15C
330
1F
100
AcDbEntity
  8
D-2
  6
Continuous
 62
     3
370
     9
100
AcDbLine
 10
654.3790922524161
 20
414.4454469268725
 30
0.0
 11
644.5818750784897
 21
414.4454469268725
 31
0.0
  0
LINE
  5
15D
330
1F
100
AcDbEntity
  8
D-2
  6
Continuous
 62
     3
370
     9
100
AcDbLine
 10
640.7215699404137
 20
402.8643346654279
 30
0.0
 11
644.5818750784897
 21
414.4454469268725
 31
0.0
  0
LINE
  5
15E
330
1F
100
AcDbEntity
  8
D-2
  6
Continuous
 62
     3
370
     9
100
AcDbLine
 10
579.3792530883004
 20
403.1954316828121
 30
0.0
 11
636.8791122832592
 21
403.1954316828121
 31
0.0
  0
LINE
  5
15F
330
1F
100
AcDbEntity
  8
D-2
  6
Continuous
 62
     3
370
     9
100
AcDbLine
 10
579.3792530883004
 20
403.1954316828121
 30
0.0
 11
575.2341756443493
 21
415.6311889405754
 31
0.0
  0
LINE
  5
160
330
1F
100
AcDbEntity
  8
D-2
  6
JWW_HOJO
 62
     3
370
     9
100
AcDbLine
 10
575.2341756443493
 20
415.6314514035301
 30
0.0
 11
574.3793338008143
 21
418.1954520082259
 31
0.0
  0
LINE
  5
161
330
1F
100
AcDbEntity
  8
D-2
  6
Continuous
 62
     3
370
     9
100
AcDbLine
 10
641.0241897272103
 20
415.631254556314
 30
0.0
 11
636.8791122832592
 21
403.1954316828121
 31
0.0
  0
LINE
  5
162
330
1F
100
AcDbEntity
  8
D-2
  6
JWW_HOJO
 62
     3
370
     9
100
AcDbLine
 10
641.8790315707454
 20
418.1954520082259
 30
0.0
 11
641.0241897272103
 21
415.6315826350075
 31
0.0
  0
ARC
  5
163
330
1F
100
AcDbEntity
  8
D-2
  6
Continuous
 62
     3
370
     9
100
AcDbCircle
 10
571.6764902930694
 20
414.4453813111338
 30
0.0
 40
3.749999955123916
100
AcDbArc
 50
18.4344940185547
 51
90.00000000000001
  0
ARC
  5
164
330
1F
100
AcDbEntity
  8
D-2
  6
Continuous
 62
     3
370
     9
100
AcDbCircle
 10
580.280025948912
 20
404.4454115046836
 30
0.0
 40
1.249999942322725
100
AcDbArc
 50
198.4344940185547
 51
270.0
  0
ARC
  5
165
330
1F
100
AcDbEntity
  8
D-2
  6
Continuous
 62
     3
370
     9
100
AcDbCircle
 10
644.5818750784897
 20
414.4453813111338
 30
0.0
 40
3.749999955123916
100
AcDbArc
 50
90.00000000000001
 51
161.5655059814453
  0
ARC
  5
166
330
1F
100
AcDbEntity
  8
D-2
  6
Continuous
 62
     3
370
     9
100
AcDbCircle
 10
635.9783394226471
 20
404.4454115046836
 30
0.0
 40
1.249999942322725
100
AcDbArc
 50
270.0
 51
341.5655059814453
  0
ARC
  5
167
330
1F
100
AcDbEntity
  8
D-2
  6
Continuous
 62
     3
370
     9
100
AcDbCircle
 10
498.128858657441
 20
415.695426748744
 30
0.0
 40
2.499999884645451
100
AcDbArc
 50
90.0
 51
180.0
  0
ARC
  5
168
330
1F
100
AcDbEntity
  8
D-2
  6
Continuous
 62
     3
370
     9
100
AcDbCircle
 10
655.6294657687201
 20
415.695426748744
 30
0.0
 40
2.499999884645451
100
AcDbArc
 50
0.0000000000000127
 51
90.00000000000001
  0
ARC
  5
169
330
1F
100
AcDbEntity
  8
D-2
  6
Continuous
 62
     3
370
     9
100
AcDbCircle
 10
580.280025948912
 20
404.4454115046836
 30
0.0
 40
4.999999769290902
100
AcDbArc
 50
198.4344940185547
 51
270.0
  0
ARC
  5
16A
330
1F
100
AcDbEntity
  8
D-2
  6
Continuous
 62
     3
370
     9
100
AcDbCircle
 10
635.9783394226471
 20
404.4454115046836
 30
0.0
 40
4.999999769290902
100
AcDbArc
 50
270.0
 51
341.5655059814453
  0
ARC
  5
16B
330
1F
100
AcDbEntity
  8
D-2
  6
Continuous
 62
     3
370
     9
100
AcDbCircle
 10
618.1293408705235
 20
400.6954316828121
 30
0.0
 40
2.5
100
AcDbArc
 50
90.0
 51
180.0
  0
ARC
  5
16C
330
1F
100
AcDbEntity
  8
D-2
  6
Continuous
 62
     3
370
     9
100
AcDbCircle
 10
620.6293408705235
 20
398.1954266014587
 30
0.0
 40
1.25
100
AcDbArc
 50
90.0
 51
180.0
  0
LINE
  5
16D
330
1F
100
AcDbEntity
  8
D-2
  6
Continuous
 62
     3
370
     9
100
AcDbLine
 10
618.1293408705235
 20
403.1954316828121
 30
0.0
 11
618.1293408705235
 21
393.1954316828121
 31
0.0
  0
LINE
  5
16E
330
1F
100
AcDbEntity
  8
D-2
  6
Continuous
 62
     3
370
     9
100
AcDbLine
 10
619.3793408705235
 20
398.1954266014587
 30
0.0
 11
619.3793408705235
 21
393.1954316828121
 31
0.0
  0
ARC
  5
16F
330
1F
100
AcDbEntity
  8
D-2
  6
Continuous
 62
     3
370
     9
100
AcDbCircle
 10
598.1293408705235
 20
400.6954316828121
 30
0.0
 40
2.5
100
AcDbArc
 50
0.0000000000000127
 51
90.00000000000001
  0
ARC
  5
170
330
1F
100
AcDbEntity
  8
D-2
  6
Continuous
 62
     3
370
     9
100
AcDbCircle
 10
595.6293408705235
 20
398.1954266014587
 30
0.0
 40
1.25
100
AcDbArc
 50
0.0000000000000127
 51
90.00000000000001
  0
LINE
  5
171
330
1F
100
AcDbEntity
  8
D-2
  6
Continuous
 62
     3
370
     9
100
AcDbLine
 10
598.1293408705235
 20
403.1954316828121
 30
0.0
 11
598.1293408705235
 21
393.1954316828121
 31
0.0
  0
LINE
  5
172
330
1F
100
AcDbEntity
  8
D-2
  6
Continuous
 62
     3
370
     9
100
AcDbLine
 10
596.8793408705235
 20
398.1954266014587
 30
0.0
 11
596.8793408705235
 21
393.1954316828121
 31
0.0
  0
LINE
  5
173
330
1F
100
AcDbEntity
  8
D-2
  6
Continuous
 62
     3
370
     9
100
AcDbLine
 10
580.280025948912
 20
399.4454266014583
 30
0.0
 11
595.6293408705235
 21
399.4454266014583
 31
0.0
  0
LINE
  5
174
330
1F
100
AcDbEntity
  8
D-2
  6
Continuous
 62
     3
370
     9
100
AcDbLine
 10
620.6293408705235
 20
399.4454266014583
 30
0.0
 11
635.9783394226471
 21
399.4454266014583
 31
0.0
  0
LINE
  5
175
330
1F
100
AcDbEntity
  8
D-2
  6
Continuous
 62
     3
370
     9
100
AcDbLine
 10
658.1291629495083
 20
409.4453964079087
 30
0.0
 11
654.3790922524161
 21
409.4453964079087
 31
0.0
  0
LINE
  5
176
330
1F
100
AcDbEntity
  8
D-2
  6
Continuous
 62
     3
370
     9
100
AcDbLine
 10
495.6285389003843
 20
409.4455019379038
 30
0.0
 11
499.3787072478343
 21
409.4453964079087
 31
0.0
  0
ARC
  5
177
330
1F
100
AcDbEntity
  8
D-1
  6
Continuous
 62
     2
370
     9
100
AcDbCircle
 10
670.6291896082032
 20
344.445486399416
 30
0.0
 40
7.5
100
AcDbArc
 50
0.0
 51
90.0
  0
ARC
  5
178
330
1F
100
AcDbEntity
  8
D-1
  6
Continuous
 62
     2
370
     9
100
AcDbCircle
 10
655.629338072097
 20
344.445486399416
 30
0.0
 40
7.5
100
AcDbArc
 50
90.0
 51
180.0
  0
LINE
  5
179
330
1F
100
AcDbEntity
  8
D-1
  6
Continuous
 62
     2
370
     9
100
AcDbLine
 10
655.629338072097
 20
351.945486399416
 30
0.0
 11
670.6291896082032
 21
351.945486399416
 31
0.0
  0
LINE
  5
17A
330
1F
100
AcDbEntity
  8
D-1
  6
Continuous
 62
     2
370
     9
100
AcDbLine
 10
648.129338072097
 20
336.9454534074397
 30
0.0
 11
678.1291896082032
 21
336.9454534074397
 31
0.0
  0
LINE
  5
17B
330
1F
100
AcDbEntity
  8
D-1
  6
Continuous
 62
     2
370
     9
100
AcDbLine
 10
658.1292638401501
 20
335.251681898868
 30
0.0
 11
659.8230353487227
 21
336.94545340744
 31
0.0
  0
LINE
  5
17C
330
1F
100
AcDbEntity
  8
D-1
  6
Continuous
 62
     2
370
     9
100
AcDbLine
 10
659.0908023016893
 20
334.44545340744
 30
0.0
 11
661.5908023016893
 21
336.9454534074397
 31
0.0
  0
LINE
  5
17D
330
1F
100
AcDbEntity
  8
D-1
  6
Continuous
 62
     2
370
     9
100
AcDbLine
 10
660.858569254656
 20
334.44545340744
 30
0.0
 11
663.358569254656
 21
336.9454534074397
 31
0.0
  0
LINE
  5
17E
330
1F
100
AcDbEntity
  8
D-1
  6
Continuous
 62
     2
370
     9
100
AcDbLine
 10
662.6263362076222
 20
334.4454534074397
 30
0.0
 11
665.1263362076222
 21
336.9454534074397
 31
0.0
  0
LINE
  5
17F
330
1F
100
AcDbEntity
  8
D-1
  6
Continuous
 62
     2
370
     9
100
AcDbLine
 10
664.3941031605889
 20
334.4454534074395
 30
0.0
 11
666.8941031605889
 21
336.9454534074396
 31
0.0
  0
LINE
  5
180
330
1F
100
AcDbEntity
  8
D-1
  6
Continuous
 62
     2
370
     9
100
AcDbLine
 10
666.1618701135526
 20
334.4454534074391
 30
0.0
 11
668.1292638401512
 21
336.4128471340373
 31
0.0
  0
LINE
  5
181
330
1F
100
AcDbEntity
  8
D-1
  6
Continuous
 62
     2
370
     9
100
AcDbLine
 10
667.9296370665193
 20
334.4454534074391
 30
0.0
 11
668.1292638401512
 21
334.6450801810709
 31
0.0
  0
LINE
  5
182
330
1F
100
AcDbEntity
  8
D-1
  6
Continuous
 62
     2
370
     9
100
AcDbLine
 10
668.1292638401501
 20
336.9454534074397
 30
0.0
 11
668.1292638401501
 21
334.4454534074397
 31
0.0
  0
LINE
  5
183
330
1F
100
AcDbEntity
  8
D-1
  6
Continuous
 62
     2
370
     9
100
AcDbLine
 10
658.1292638401501
 20
336.9454534074397
 30
0.0
 11
658.1292638401501
 21
334.4454534074397
 31
0.0
  0
LINE
  5
184
330
1F
100
AcDbEntity
  8
D-1
  6
Continuous
 62
     2
370
     9
100
AcDbLine
 10
648.129338072097
 20
334.4454534074397
 30
0.0
 11
678.1291896082028
 21
334.4454534074397
 31
0.0
  0
LINE
  5
185
330
1F
100
AcDbEntity
  8
D-1
  6
Continuous
 62
     2
370
     9
100
AcDbLine
 10
648.129338072097
 20
344.4454863994166
 30
0.0
 11
648.129338072097
 21
334.4454534074397
 31
0.0
  0
LINE
  5
186
330
1F
100
AcDbEntity
  8
D-1
  6
Continuous
 62
     2
370
     9
100
AcDbLine
 10
648.2247727771496
 20
345.6381358839059
 30
0.0
 11
654.4368937054119
 21
351.8500847296676
 31
0.0
  0
LINE
  5
187
330
1F
100
AcDbEntity
  8
D-1
  6
Continuous
 62
     2
370
     9
100
AcDbLine
 10
649.078004933423
 20
336.9454534074397
 30
0.0
 11
664.0781266048064
 21
351.945486399416
 31
0.0
  0
LINE
  5
188
330
1F
100
AcDbEntity
  8
D-1
  6
Continuous
 62
     2
370
     9
100
AcDbLine
 10
652.2600902231741
 20
336.9454534074397
 30
0.0
 11
667.2601232151508
 21
351.945486399416
 31
0.0
  0
LINE
  5
189
330
1F
100
AcDbEntity
  8
D-1
  6
Continuous
 62
     2
370
     9
100
AcDbLine
 10
655.4420457113226
 20
336.9454534074397
 30
0.0
 11
670.4421713830536
 21
351.945486399416
 31
0.0
  0
LINE
  5
18A
330
1F
100
AcDbEntity
  8
D-1
  6
Continuous
 62
     2
370
     9
100
AcDbLine
 10
658.6239984296005
 20
336.9454534074397
 30
0.0
 11
673.1778173672924
 21
351.4991731337135
 31
0.0
  0
LINE
  5
18B
330
1F
100
AcDbEntity
  8
D-1
  6
Continuous
 62
     2
370
     9
100
AcDbLine
 10
661.8059474207039
 20
336.9454534074397
 30
0.0
 11
675.2294553391575
 21
350.3689613258936
 31
0.0
  0
LINE
  5
18C
330
1F
100
AcDbEntity
  8
D-1
  6
Continuous
 62
     2
370
     9
100
AcDbLine
 10
664.9880235397918
 20
336.9454534074397
 30
0.0
 11
676.7798445209601
 21
348.737274388609
 31
0.0
  0
LINE
  5
18D
330
1F
100
AcDbEntity
  8
D-1
  6
Continuous
 62
     2
370
     9
100
AcDbLine
 10
668.169852219057
 20
336.9454534074397
 30
0.0
 11
677.8156757444626
 21
346.5912769328457
 31
0.0
  0
LINE
  5
18E
330
1F
100
AcDbEntity
  8
D-1
  6
Continuous
 62
     2
370
     9
100
AcDbLine
 10
648.129338072097
 20
342.3606341689647
 30
0.0
 11
657.7144806118602
 21
351.945486399416
 31
0.0
  0
LINE
  5
18F
330
1F
100
AcDbEntity
  8
D-1
  6
Continuous
 62
     2
370
     9
100
AcDbLine
 10
648.129338072097
 20
339.1784823348048
 30
0.0
 11
660.8963421367084
 21
351.945486399416
 31
0.0
  0
LINE
  5
190
330
1F
100
AcDbEntity
  8
D-1
  6
Continuous
 62
     2
370
     9
100
AcDbLine
 10
677.7153382568533
 20
336.9454534074397
 30
0.0
 11
678.1291896082032
 21
337.3593047587893
 31
0.0
  0
LINE
  5
191
330
1F
100
AcDbEntity
  8
D-1
  6
Continuous
 62
     2
370
     9
100
AcDbLine
 10
671.3516808983227
 20
336.9454534074397
 30
0.0
 11
678.1291896082032
 21
343.7229621173207
 31
0.0
  0
LINE
  5
192
330
1F
100
AcDbEntity
  8
D-1
  6
Continuous
 62
     2
370
     9
100
AcDbLine
 10
674.5335095775877
 20
336.9454534074397
 30
0.0
 11
678.1291896082032
 21
340.541133438055
 31
0.0
  0
LINE
  5
193
330
1F
100
AcDbEntity
  8
D-1
  6
Continuous
 62
     2
370
     9
100
AcDbLine
 10
680.6291693723974
 20
361.4750283280675
 30
0.0
 11
684.6291693723972
 21
361.4750283280675
 31
0.0
  0
LINE
  5
194
330
1F
100
AcDbEntity
  8
D-1
  6
Continuous
 62
     2
370
     9
100
AcDbLine
 10
688.6291693723977
 20
351.2250283280674
 30
0.0
 11
688.6291693723977
 21
347.2250283280674
 31
0.0
  0
LINE
  5
195
330
1F
100
AcDbEntity
  8
D-1
  6
Continuous
 62
     2
370
     9
100
AcDbLine
 10
684.6291693723972
 20
355.2250283280674
 30
0.0
 11
684.6291693723972
 21
416.9453278463138
 31
0.0
  0
ARC
  5
196
330
1F
100
AcDbEntity
  8
D-1
  6
Continuous
 62
     2
370
     9
100
AcDbCircle
 10
688.6291693723977
 20
355.2250283280674
 30
0.0
 40
8.0
100
AcDbArc
 50
180.0
 51
270.0
  0
ARC
  5
197
330
1F
100
AcDbEntity
  8
D-1
  6
Continuous
 62
     2
370
     9
100
AcDbCircle
 10
688.6291693723977
 20
355.2250283280674
 30
0.0
 40
4.0
100
AcDbArc
 50
180.0
 51
270.0
  0
LINE
  5
198
330
1F
100
AcDbEntity
  8
D-1
  6
Continuous
 62
     2
370
     9
100
AcDbLine
 10
759.6291693723972
 20
347.2250283280674
 30
0.0
 11
759.6291693723972
 21
351.2250283280674
 31
0.0
  0
LINE
  5
199
330
1F
100
AcDbEntity
  8
D-1
  6
Continuous
 62
     2
370
     9
100
AcDbLine
 10
688.6291693723977
 20
347.2250283280674
 30
0.0
 11
759.6291693723972
 21
347.2250283280674
 31
0.0
  0
LINE
  5
19A
330
1F
100
AcDbEntity
  8
D-1
  6
Continuous
 62
     2
370
     9
100
AcDbLine
 10
688.6291693723977
 20
351.2250283280674
 30
0.0
 11
759.6291693723972
 21
351.2250283280674
 31
0.0
  0
LINE
  5
19B
330
1F
100
AcDbEntity
  8
D-1
  6
Continuous
 62
     2
370
     9
100
AcDbLine
 10
680.6291693723974
 20
363.1806982397881
 30
0.0
 11
680.6291693723974
 21
355.2250283280674
 31
0.0
  0
LWPOLYLINE
  5
19C
330
1F
100
AcDbEntity
  8
その他
  6
Continuous
 62
     7
370
     9
100
AcDbPolyline
 90
        4
 70
     1
 43
1.0
 10
-763.8101460979202
 20
659.8006873827597
 42
0.4142135623731
 10
-764.3101460979201
 20
660.3006873827597
 42
0.4142135623731
 10
-764.8101460979201
 20
659.8006873827597
 42
0.4142135623731
 10
-764.3101460979201
 20
659.3006873827597
 42
0.4142135623731
  0
LWPOLYLINE
  5
19D
330
1F
100
AcDbEntity
  8
その他
  6
Continuous
 62
     7
370
     9
100
AcDbPolyline
 90
        4
 70
     1
 43
1.0
 10
-755.8100652675784
 20
619.8006873827597
 42
0.4142135623731
 10
-756.3100652675782
 20
620.3006873827597
 42
0.4142135623731
 10
-756.8100652675782
 20
619.8006873827597
 42
0.4142135623731
 10
-756.3100652675782
 20
619.3006873827597
 42
0.4142135623731
  0
LWPOLYLINE
  5
19E
330
1F
100
AcDbEntity
  8
その他
  6
Continuous
 62
     7
370
     9
100
AcDbPolyline
 90
        4
 70
     1
 43
1.0
 10
-743.810101499838
 20
579.8006873827597
 42
0.4142135623731
 10
-744.3101014998379
 20
580.3006873827597
 42
0.4142135623731
 10
-744.8101014998379
 20
579.8006873827597
 42
0.4142135623731
 10
-744.3101014998379
 20
579.3006873827597
 42
0.4142135623731
  0
LINE
  5
19F
330
1F
100
AcDbEntity
  8
その他
  6
Continuous
 62
     7
370
     9
100
AcDbLine
 10
-764.3101460979201
 20
660.80068738276
 30
0.0
 11
-764.3101460979201
 21
539.8006873827597
 31
0.0
  0
LINE
  5
1A0
330
1F
100
AcDbEntity
  8
その他
  6
Continuous
 62
     7
370
     9
100
AcDbLine
 10
-756.3100652675782
 20
620.8006873827599
 30
0.0
 11
-756.3100652675782
 21
539.8006873827597
 31
0.0
  0
LINE
  5
1A1
330
1F
100
AcDbEntity
  8
その他
  6
Continuous
 62
     7
370
     9
100
AcDbLine
 10
-744.3101014998379
 20
580.8006873827599
 30
0.0
 11
-744.3101014998379
 21
539.8006873827597
 31
0.0
  0
LWPOLYLINE
  5
1A2
330
1F
100
AcDbEntity
  8
その他
  6
Continuous
 62
     7
370
     9
100
AcDbPolyline
 90
        4
 70
     1
 43
1.0
 10
-897.1731664177377
 20
532.4263129183588
 42
0.4142135623731
 10
-897.6731664177375
 20
532.9263129183587
 42
0.4142135623731
 10
-898.1731664177375
 20
532.4263129183588
 42
0.4142135623731
 10
-897.6731664177375
 20
531.9263129183588
 42
0.4142135623731
  0
LWPOLYLINE
  5
1A3
330
1F
100
AcDbEntity
  8
その他
  6
Continuous
 62
     7
370
     9
100
AcDbPolyline
 90
        4
 70
     1
 43
1.0
 10
-857.1731664177377
 20
524.4262320880165
 42
0.4142135623731
 10
-857.6731664177375
 20
524.9262320880165
 42
0.4142135623731
 10
-858.1731664177375
 20
524.4262320880165
 42
0.4142135623731
 10
-857.6731664177375
 20
523.9262320880165
 42
0.4142135623731
  0
LWPOLYLINE
  5
1A4
330
1F
100
AcDbEntity
  8
その他
  6
Continuous
 62
     7
370
     9
100
AcDbPolyline
 90
        4
 70
     1
 43
1.0
 10
-817.1731664177377
 20
512.4262158276855
 42
0.4142135623731
 10
-817.6731664177375
 20
512.9262158276855
 42
0.4142135623731
 10
-818.1731664177375
 20
512.4262158276855
 42
0.4142135623731
 10
-817.6731664177375
 20
511.9262158276855
 42
0.4142135623731
  0
LINE
  5
1A5
330
1F
100
AcDbEntity
  8
その他
  6
Continuous
 62
     7
370
     9
100
AcDbLine
 10
-898.6731664177373
 20
532.4263129183588
 30
0.0
 11
-777.6731664177382
 21
532.4263129183588
 31
0.0
  0
LINE
  5
1A6
330
1F
100
AcDbEntity
  8
その他
  6
Continuous
 62
     7
370
     9
100
AcDbLine
 10
-858.6731664177373
 20
524.4262320880165
 30
0.0
 11
-777.6731664177382
 21
524.4262320880165
 31
0.0
  0
LINE
  5
1A7
330
1F
100
AcDbEntity
  8
その他
  6
Continuous
 62
     7
370
     9
100
AcDbLine
 10
-818.6731664177373
 20
512.4262158276855
 30
0.0
 11
-777.6731664177382
 21
512.4262158276855
 31
0.0
  0
LWPOLYLINE
  5
1A8
330
1F
100
AcDbEntity
  8
その他
  6
Continuous
 62
     7
370
     9
100
AcDbPolyline
 90
        4
 70
     1
 43
1.0
 10
-897.1731664177377
 20
-67.5736602167461
 42
0.4142135623731
 10
-897.6731664177375
 20
-67.0736602167461
 42
0.4142135623731
 10
-898.1731664177375
 20
-67.5736602167461
 42
0.4142135623731
 10
-897.6731664177375
 20
-68.07366021674609
 42
0.4142135623731
  0
LWPOLYLINE
  5
1A9
330
1F
100
AcDbEntity
  8
その他
  6
Continuous
 62
     7
370
     9
100
AcDbPolyline
 90
        4
 70
     1
 43
1.0
 10
-857.1731664177377
 20
-59.57357938640403
 42
0.4142135623731
 10
-857.6731664177375
 20
-59.07357938640403
 42
0.4142135623731
 10
-858.1731664177375
 20
-59.57357938640403
 42
0.4142135623731
 10
-857.6731664177375
 20
-60.07357938640403
 42
0.4142135623731
  0
LWPOLYLINE
  5
1AA
330
1F
100
AcDbEntity
  8
その他
  6
Continuous
 62
     7
370
     9
100
AcDbPolyline
 90
        4
 70
     1
 43
1.0
 10
-817.1731664177377
 20
-47.57366811125468
 42
0.4142135623731
 10
-817.6731664177375
 20
-47.07366811125468
 42
0.4142135623731
 10
-818.1731664177375
 20
-47.57366811125468
 42
0.4142135623731
 10
-817.6731664177375
 20
-48.07366811125468
 42
0.4142135623731
  0
LINE
  5
1AB
330
1F
100
AcDbEntity
  8
その他
  6
Continuous
 62
     7
370
     9
100
AcDbLine
 10
-898.6731664177373
 20
-67.5736602167461
 30
0.0
 11
-777.6731664177382
 21
-67.5736602167461
 31
0.0
  0
LINE
  5
1AC
330
1F
100
AcDbEntity
  8
その他
  6
Continuous
 62
     7
370
     9
100
AcDbLine
 10
-858.6731664177373
 20
-59.57357938640403
 30
0.0
 11
-777.6731664177382
 21
-59.57357938640403
 31
0.0
  0
LINE
  5
1AD
330
1F
100
AcDbEntity
  8
その他
  6
Continuous
 62
     7
370
     9
100
AcDbLine
 10
-818.6731664177373
 20
-47.57366811125468
 30
0.0
 11
-777.6731664177382
 21
-47.57366811125468
 31
0.0
  0
LWPOLYLINE
  5
1AE
330
1F
100
AcDbEntity
  8
その他
  6
Continuous
 62
     7
370
     9
100
AcDbPolyline
 90
        4
 70
     1
 43
1.0
 10
-763.810117995826
 20
-146.5420284038093
 42
0.4142135623731
 10
-764.310117995826
 20
-146.0420284038093
 42
0.4142135623731
 10
-764.8101179958259
 20
-146.5420284038093
 42
0.4142135623731
 10
-764.310117995826
 20
-147.0420284038093
 42
0.4142135623731
  0
LINE
  5
1AF
330
1F
100
AcDbEntity
  8
その他
  6
Continuous
 62
     7
370
     9
100
AcDbLine
 10
-764.310117995826
 20
-148.0420284038093
 30
0.0
 11
-764.310117995826
 21
-77.5736602167461
 31
0.0
  0
LWPOLYLINE
  5
1B0
330
1F
100
AcDbEntity
  8
その他
  6
Continuous
 62
     7
370
     9
100
AcDbPolyline
 90
        4
 70
     1
 43
1.0
 10
-163.8100679776336
 20
659.8006873827597
 42
0.4142135623731
 10
-164.3100679776336
 20
660.3006873827597
 42
0.4142135623731
 10
-164.8100679776336
 20
659.8006873827597
 42
0.4142135623731
 10
-164.3100679776336
 20
659.3006873827597
 42
0.4142135623731
  0
LWPOLYLINE
  5
1B1
330
1F
100
AcDbEntity
  8
その他
  6
Continuous
 62
     7
370
     9
100
AcDbPolyline
 90
        4
 70
     1
 43
1.0
 10
-171.8101488079755
 20
619.8006873827597
 42
0.4142135623731
 10
-172.3101488079755
 20
620.3006873827597
 42
0.4142135623731
 10
-172.8101488079755
 20
619.8006873827597
 42
0.4142135623731
 10
-172.3101488079755
 20
619.3006873827597
 42
0.4142135623731
  0
LWPOLYLINE
  5
1B2
330
1F
100
AcDbEntity
  8
その他
  6
Continuous
 62
     7
370
     9
100
AcDbPolyline
 90
        4
 70
     1
 43
1.0
 10
-183.810165068307
 20
579.8006873827597
 42
0.4142135623731
 10
-184.310165068307
 20
580.3006873827597
 42
0.4142135623731
 10
-184.810165068307
 20
579.8006873827597
 42
0.4142135623731
 10
-184.310165068307
 20
579.3006873827597
 42
0.4142135623731
  0
LINE
  5
1B3
330
1F
100
AcDbEntity
  8
その他
  6
Continuous
 62
     7
370
     9
100
AcDbLine
 10
-164.3100679776336
 20
660.80068738276
 30
0.0
 11
-164.3100679776336
 21
539.8006873827597
 31
0.0
  0
LINE
  5
1B4
330
1F
100
AcDbEntity
  8
その他
  6
Continuous
 62
     7
370
     9
100
AcDbLine
 10
-172.3101488079755
 20
620.8006873827599
 30
0.0
 11
-172.3101488079755
 21
539.8006873827597
 31
0.0
  0
LINE
  5
1B5
330
1F
100
AcDbEntity
  8
その他
  6
Continuous
 62
     7
370
     9
100
AcDbLine
 10
-184.310165068307
 20
580.8006873827599
 30
0.0
 11
-184.310165068307
 21
539.8006873827597
 31
0.0
  0
TEXT
  5
1B6
330
1F
100
AcDbEntity
  8
0-F
  6
Continuous
 62
     6
370
     9
100
AcDbText
 10
-241.0553102149308
 20
-50.65834776276412
 30
0.0
 40
4.572
  1
ＫＡＮＥＳＯ
 41
1.20833333333334
  7
ＭＳ ゴシック
100
AcDbText
  0
LWPOLYLINE
  5
1B7
330
1F
100
AcDbEntity
  8
その他
  6
Continuous
 62
     7
370
     9
100
AcDbPolyline
 90
        4
 70
     1
 43
1.0
 10
-163.8101179958262
 20
-146.5420284038093
 42
0.4142135623731
 10
-164.3101179958262
 20
-146.0420284038093
 42
0.4142135623731
 10
-164.8101179958262
 20
-146.5420284038093
 42
0.4142135623731
 10
-164.3101179958262
 20
-147.0420284038093
 42
0.4142135623731
  0
LINE
  5
1B8
330
1F
100
AcDbEntity
  8
その他
  6
Continuous
 62
     7
370
     9
100
AcDbLine
 10
-164.3101179958262
 20
-148.0420284038093
 30
0.0
 11
-164.3101179958262
 21
-77.5736602167461
 31
0.0
  0
LWPOLYLINE
  5
1B9
330
1F
100
AcDbEntity
  8
その他
  6
Continuous
 62
     7
370
     9
100
AcDbPolyline
 90
        4
 70
     1
 43
1.0
 10
-638.810117995826
 20
-146.5420284038093
 42
0.4142135623731
 10
-639.310117995826
 20
-146.0420284038093
 42
0.4142135623731
 10
-639.8101179958259
 20
-146.5420284038093
 42
0.4142135623731
 10
-639.310117995826
 20
-147.0420284038093
 42
0.4142135623731
  0
LINE
  5
1BA
330
1F
100
AcDbEntity
  8
その他
  6
Continuous
 62
     7
370
     9
100
AcDbLine
 10
-639.310117995826
 20
-148.0420284038093
 30
0.0
 11
-639.310117995826
 21
-107.5714154308921
 31
0.0
  0
LWPOLYLINE
  5
1BB
330
1F
100
AcDbEntity
  8
その他
  6
Continuous
 62
     7
370
     9
100
AcDbPolyline
 90
        4
 70
     1
 43
1.0
 10
-288.8101179958262
 20
-146.5420284038093
 42
0.4142135623731
 10
-289.3101179958262
 20
-146.0420284038093
 42
0.4142135623731
 10
-289.8101179958262
 20
-146.5420284038093
 42
0.4142135623731
 10
-289.3101179958262
 20
-147.0420284038093
 42
0.4142135623731
  0
LINE
  5
1BC
330
1F
100
AcDbEntity
  8
その他
  6
Continuous
 62
     7
370
     9
100
AcDbLine
 10
-289.3101179958262
 20
-148.0420284038093
 30
0.0
 11
-289.3101179958262
 21
-107.5714154308922
 31
0.0
  0
TEXT
  5
1BD
330
1F
100
AcDbEntity
  8
寸法
  6
Continuous
 62
     2
370
     9
100
AcDbText
 10
-565.6902058721066
 20
-198.0585395131091
 30
0.0
 40
15.24
  1
平面図　Ｓ＝１：５
 41
1.111111111111111
  7
ＭＳ ゴシック
100
AcDbText
  0
LINE
  5
1BE
330
1F
100
AcDbEntity
  8
寸法
  6
Continuous
 62
     7
370
     9
100
AcDbLine
 10
-572.598004020597
 20
-204.0966181263903
 30
0.0
 11
-357.4592232720752
 21
-204.0966181263903
 31
0.0
  0
LINE
  5
1BF
330
1F
100
AcDbEntity
  8
躯体
  6
Continuous
 62
     2
370
     9
100
AcDbLine
 10
-757.3100949014427
 20
525.4263166888707
 30
0.0
 11
-764.3101179958264
 21
532.426339783254
 31
0.0
  0
LINE
  5
1C0
330
1F
100
AcDbEntity
  8
躯体
  6
Continuous
 62
     2
370
     9
100
AcDbLine
 10
-757.3100949014427
 20
-60.57363712236249
 30
0.0
 11
-764.310117995826
 21
-67.5736602167461
 31
0.0
  0
LINE
  5
1C1
330
1F
100
AcDbEntity
  8
躯体
  6
Continuous
 62
     2
370
     9
100
AcDbLine
 10
-764.310117995826
 20
532.4263397832543
 30
0.0
 11
-764.310117995826
 21
-67.5736602167461
 31
0.0
  0
LINE
  5
1C2
330
1F
100
AcDbEntity
  8
躯体
  6
Continuous
 62
     2
370
     9
100
AcDbLine
 10
-757.3100949014427
 20
525.4263166888704
 30
0.0
 11
-757.3100949014427
 21
-60.57363712236249
 31
0.0
  0
LINE
  5
1C3
330
1F
100
AcDbEntity
  8
躯体
  6
JWW_DASHED2
 62
     2
370
     9
100
AcDbLine
 10
-744.3101014998379
 20
-47.57364372075799
 30
0.0
 11
-744.3101014998379
 21
512.4263232872659
 31
0.0
  0
LINE
  5
1C4
330
1F
100
AcDbEntity
  8
躯体
  6
Continuous
 62
     2
370
     9
100
AcDbLine
 10
-171.3101410902098
 20
525.4263166888707
 30
0.0
 11
-164.3101179958262
 21
532.4263397832543
 31
0.0
  0
LINE
  5
1C5
330
1F
100
AcDbEntity
  8
躯体
  6
Continuous
 62
     2
370
     9
100
AcDbLine
 10
-171.3101410902101
 20
-60.57363712236249
 30
0.0
 11
-164.3101179958262
 21
-67.5736602167461
 31
0.0
  0
LINE
  5
1C6
330
1F
100
AcDbEntity
  8
躯体
  6
Continuous
 62
     2
370
     9
100
AcDbLine
 10
-171.3101410902101
 20
-60.57363712236249
 30
0.0
 11
-171.3101410902101
 21
525.4263166888704
 31
0.0
  0
LINE
  5
1C7
330
1F
100
AcDbEntity
  8
躯体
  6
Continuous
 62
     2
370
     9
100
AcDbLine
 10
-164.3101179958262
 20
-67.5736602167461
 30
0.0
 11
-164.3101179958262
 21
532.4263397832543
 31
0.0
  0
LINE
  5
1C8
330
1F
100
AcDbEntity
  8
躯体
  6
JWW_DASHED2
 62
     2
370
     9
100
AcDbLine
 10
-184.3101344918145
 20
512.4263232872659
 30
0.0
 11
-184.3101344918145
 21
-47.57364372075799
 31
0.0
  0
LINE
  5
1C9
330
1F
100
AcDbEntity
  8
躯体
  6
Continuous
 62
     2
370
     9
100
AcDbLine
 10
-171.3101410902101
 20
525.4263166888704
 30
0.0
 11
-757.3100949014427
 21
525.4263166888704
 31
0.0
  0
LINE
  5
1CA
330
1F
100
AcDbEntity
  8
躯体
  6
Continuous
 62
     2
370
     9
100
AcDbLine
 10
-164.3101179958262
 20
532.4263397832543
 30
0.0
 11
-764.310117995826
 21
532.4263397832543
 31
0.0
  0
LINE
  5
1CB
330
1F
100
AcDbEntity
  8
躯体
  6
JWW_DASHED2
 62
     2
370
     9
100
AcDbLine
 10
-744.3101014998379
 20
512.4263232872659
 30
0.0
 11
-184.3101344918145
 21
512.4263232872659
 31
0.0
  0
LINE
  5
1CC
330
1F
100
AcDbEntity
  8
躯体
  6
Continuous
 62
     2
370
     9
100
AcDbLine
 10
-757.3100949014427
 20
-60.57363712236249
 30
0.0
 11
-171.3101410902101
 21
-60.57363712236249
 31
0.0
  0
LINE
  5
1CD
330
1F
100
AcDbEntity
  8
躯体
  6
Continuous
 62
     2
370
     9
100
AcDbLine
 10
-764.310117995826
 20
-67.5736602167461
 30
0.0
 11
-164.3101179958262
 21
-67.5736602167461
 31
0.0
  0
LINE
  5
1CE
330
1F
100
AcDbEntity
  8
躯体
  6
JWW_DASHED2
 62
     2
370
     9
100
AcDbLine
 10
-244.1722131332444
 20
-47.57364372075799
 30
0.0
 11
-744.3101014998379
 21
-47.57364372075799
 31
0.0
  0
LINE
  5
1CF
330
1F
100
AcDbEntity
  8
躯体
  6
JWW_DASHED2
 62
     2
370
     9
100
AcDbLine
 10
-184.3101344918145
 20
-47.57364372075799
 30
0.0
 11
-195.0809284044061
 21
-47.57364372075799
 31
0.0
  0
LINE
  5
1D0
330
1F
100
AcDbEntity
  8
仕上
  6
Continuous
 62
     3
370
     9
100
AcDbLine
 10
-749.3101554063705
 20
517.4263771937988
 30
0.0
 11
-756.3100949014429
 21
524.4263166888704
 31
0.0
  0
LINE
  5
1D1
330
1F
100
AcDbEntity
  8
仕上
  6
Continuous
 62
     3
370
     9
100
AcDbLine
 10
-749.310155406371
 20
-52.57369762729063
 30
0.0
 11
-756.3100949014424
 21
-59.57363712236257
 31
0.0
  0
LINE
  5
1D2
330
1F
100
AcDbEntity
  8
仕上
  6
Continuous
 62
     3
370
     9
100
AcDbLine
 10
-756.3100949014424
 20
-59.57363712236257
 30
0.0
 11
-756.3100949014424
 21
524.4263166888704
 31
0.0
  0
LINE
  5
1D3
330
1F
100
AcDbEntity
  8
仕上
  6
Continuous
 62
     3
370
     9
100
AcDbLine
 10
-749.310155406371
 20
517.4263771937985
 30
0.0
 11
-749.310155406371
 21
-52.57369762729063
 31
0.0
  0
LINE
  5
1D4
330
1F
100
AcDbEntity
  8
仕上
  6
Continuous
 62
     3
370
     9
100
AcDbLine
 10
-179.3100805852816
 20
517.4263771937988
 30
0.0
 11
-172.3101410902098
 21
524.4263166888708
 31
0.0
  0
LINE
  5
1D5
330
1F
100
AcDbEntity
  8
仕上
  6
Continuous
 62
     3
370
     9
100
AcDbLine
 10
-179.3100805852816
 20
-52.57369762729063
 30
0.0
 11
-172.3101410902098
 21
-59.57363712236257
 31
0.0
  0
LINE
  5
1D6
330
1F
100
AcDbEntity
  8
仕上
  6
Continuous
 62
     3
370
     9
100
AcDbLine
 10
-179.3100805852816
 20
-52.57369762729063
 30
0.0
 11
-179.3100805852816
 21
517.4263771937985
 31
0.0
  0
LINE
  5
1D7
330
1F
100
AcDbEntity
  8
仕上
  6
Continuous
 62
     3
370
     9
100
AcDbLine
 10
-172.3101410902098
 20
524.4263166888704
 30
0.0
 11
-172.3101410902098
 21
-59.57363712236257
 31
0.0
  0
LINE
  5
1D8
330
1F
100
AcDbEntity
  8
仕上
  6
Continuous
 62
     3
370
     9
100
AcDbLine
 10
-179.3100805852816
 20
517.4263771937985
 30
0.0
 11
-749.310155406371
 21
517.4263771937985
 31
0.0
  0
LINE
  5
1D9
330
1F
100
AcDbEntity
  8
仕上
  6
Continuous
 62
     3
370
     9
100
AcDbLine
 10
-756.3100949014424
 20
524.4263166888704
 30
0.0
 11
-172.3101410902098
 21
524.4263166888704
 31
0.0
  0
LINE
  5
1DA
330
1F
100
AcDbEntity
  8
仕上
  6
Continuous
 62
     3
370
     9
100
AcDbLine
 10
-749.310155406371
 20
-52.57369762729063
 30
0.0
 11
-179.3100805852816
 21
-52.57369762729063
 31
0.0
  0
LINE
  5
1DB
330
1F
100
AcDbEntity
  8
仕上
  6
Continuous
 62
     3
370
     9
100
AcDbLine
 10
-172.3101410902098
 20
-59.57363712236257
 30
0.0
 11
-756.3100949014424
 21
-59.57363712236257
 31
0.0
  0
LINE
  5
1DC
330
1F
100
AcDbEntity
  8
仕上
  6
JWW_CENTER1
 62
     3
370
     9
100
AcDbLine
 10
-713.4386679324816
 20
497.4263727752304
 30
0.0
 11
-744.3367755127181
 21
497.4263727752304
 31
0.0
  0
LINE
  5
1DD
330
1F
100
AcDbEntity
  8
仕上
  6
JWW_CENTER1
 62
     3
370
     9
100
AcDbLine
 10
-729.3100520118733
 20
512.0722369010751
 30
0.0
 11
-729.3100520118733
 21
482.0506601485413
 31
0.0
  0
LINE
  5
1DE
330
1F
100
AcDbEntity
  8
仕上
  6
Continuous
 62
     3
370
     9
100
AcDbLine
 10
-749.310117995826
 20
454.9263067912777
 30
0.0
 11
-749.310117995826
 21
515.4263331848588
 31
0.0
  0
LINE
  5
1DF
330
1F
100
AcDbEntity
  8
仕上
  6
Continuous
 62
     3
370
     9
100
AcDbLine
 10
-747.3102103733597
 20
517.4262408073251
 30
0.0
 11
-686.8099860279208
 21
517.4262408073251
 31
0.0
  0
LINE
  5
1E0
330
1F
100
AcDbEntity
  8
仕上
  6
Continuous
 62
     3
370
     9
100
AcDbLine
 10
-745.0424738868733
 20
453.1583987465142
 30
0.0
 11
-685.0420779831572
 21
513.1585966983722
 31
0.0
  0
CIRCLE
  5
1E1
330
1F
100
AcDbEntity
  8
仕上
  6
Continuous
 62
     3
370
     9
100
AcDbCircle
 10
-729.3100520118733
 20
497.4263727752304
 30
0.0
 40
11.49997221456992
  0
CIRCLE
  5
1E2
330
1F
100
AcDbEntity
  8
仕上
  6
Continuous
 62
     3
370
     9
100
AcDbCircle
 10
-729.3100520118733
 20
497.4263727752304
 30
0.0
 40
13.49993937724346
  0
ARC
  5
1E3
330
1F
100
AcDbEntity
  8
仕上
  6
Continuous
 62
     3
370
     9
100
AcDbCircle
 10
-747.3102103733597
 20
515.4263331848588
 30
0.0
 40
2.000000025774982
100
AcDbArc
 50
90.0
 51
180.0
  0
ARC
  5
1E4
330
1F
100
AcDbEntity
  8
仕上
  6
Continuous
 62
     3
370
     9
100
AcDbCircle
 10
-746.8101839797791
 20
454.9263067912777
 30
0.0
 40
2.500000128874908
100
AcDbArc
 50
180.0
 51
315.0
  0
ARC
  5
1E5
330
1F
100
AcDbEntity
  8
仕上
  6
Continuous
 62
     3
370
     9
100
AcDbCircle
 10
-686.8099860279208
 20
514.9263067912775
 30
0.0
 40
2.500000128874908
100
AcDbArc
 50
315.0
 51
90.0
  0
LINE
  5
1E6
330
1F
100
AcDbEntity
  8
仕上
  6
JWW_CENTER1
 62
     3
370
     9
100
AcDbLine
 10
-713.4386679324816
 20
-32.57369320872252
 30
0.0
 11
-744.3367755127181
 21
-32.57369320872252
 31
0.0
  0
LINE
  5
1E7
330
1F
100
AcDbEntity
  8
仕上
  6
JWW_CENTER1
 62
     3
370
     9
100
AcDbLine
 10
-729.3100520118733
 20
-47.21955733456704
 30
0.0
 11
-729.3100520118733
 21
-17.19798058203316
 31
0.0
  0
LINE
  5
1E8
330
1F
100
AcDbEntity
  8
仕上
  6
Continuous
 62
     3
370
     9
100
AcDbLine
 10
-749.310117995826
 20
9.926372775230238
 30
0.0
 11
-749.310117995826
 21
-50.5736536183508
 31
0.0
  0
LINE
  5
1E9
330
1F
100
AcDbEntity
  8
仕上
  6
Continuous
 62
     3
370
     9
100
AcDbLine
 10
-747.3102103733597
 20
-52.57356124081704
 30
0.0
 11
-686.8099860279208
 21
-52.57356124081704
 31
0.0
  0
LINE
  5
1EA
330
1F
100
AcDbEntity
  8
仕上
  6
Continuous
 62
     3
370
     9
100
AcDbLine
 10
-745.0424738868733
 20
11.69428081999378
 30
0.0
 11
-685.0420779831572
 21
-48.3059171318644
 31
0.0
  0
CIRCLE
  5
1EB
330
1F
100
AcDbEntity
  8
仕上
  6
Continuous
 62
     3
370
     9
100
AcDbCircle
 10
-729.3100520118733
 20
-32.57369320872252
 30
0.0
 40
11.49997221456992
  0
CIRCLE
  5
1EC
330
1F
100
AcDbEntity
  8
仕上
  6
Continuous
 62
     3
370
     9
100
AcDbCircle
 10
-729.3100520118733
 20
-32.57369320872252
 30
0.0
 40
13.49993937724346
  0
ARC
  5
1ED
330
1F
100
AcDbEntity
  8
仕上
  6
Continuous
 62
     3
370
     9
100
AcDbCircle
 10
-747.3102103733597
 20
-50.5736536183508
 30
0.0
 40
2.000000025774982
100
AcDbArc
 50
180.0
 51
270.0
  0
ARC
  5
1EE
330
1F
100
AcDbEntity
  8
仕上
  6
Continuous
 62
     3
370
     9
100
AcDbCircle
 10
-746.8101839797791
 20
9.926372775230238
 30
0.0
 40
2.500000128874908
100
AcDbArc
 50
45.0
 51
180.0
  0
ARC
  5
1EF
330
1F
100
AcDbEntity
  8
仕上
  6
Continuous
 62
     3
370
     9
100
AcDbCircle
 10
-686.8099860279208
 20
-50.07362722476978
 30
0.0
 40
2.500000128874908
100
AcDbArc
 50
270.0
 51
45.0
  0
LINE
  5
1F0
330
1F
100
AcDbEntity
  8
仕上
  6
JWW_CENTER1
 62
     3
370
     9
100
AcDbLine
 10
-215.1815680591707
 20
497.4263727752306
 30
0.0
 11
-184.2834604789346
 21
497.4263727752306
 31
0.0
  0
LINE
  5
1F1
330
1F
100
AcDbEntity
  8
仕上
  6
JWW_CENTER1
 62
     3
370
     9
100
AcDbLine
 10
-199.3101839797791
 20
512.072236901075
 30
0.0
 11
-199.3101839797791
 21
482.0506601485414
 31
0.0
  0
LINE
  5
1F2
330
1F
100
AcDbEntity
  8
仕上
  6
Continuous
 62
     3
370
     9
100
AcDbLine
 10
-179.3101179958262
 20
454.9263067912779
 30
0.0
 11
-179.3101179958262
 21
515.4263331848587
 31
0.0
  0
LINE
  5
1F3
330
1F
100
AcDbEntity
  8
仕上
  6
Continuous
 62
     3
370
     9
100
AcDbLine
 10
-181.3100256182926
 20
517.426240807325
 30
0.0
 11
-241.8102499637317
 21
517.426240807325
 31
0.0
  0
LINE
  5
1F4
330
1F
100
AcDbEntity
  8
仕上
  6
Continuous
 62
     3
370
     9
100
AcDbLine
 10
-183.5777621047791
 20
453.1583987465144
 30
0.0
 11
-243.5781580084952
 21
513.1585966983722
 31
0.0
  0
CIRCLE
  5
1F5
330
1F
100
AcDbEntity
  8
仕上
  6
Continuous
 62
     3
370
     9
100
AcDbCircle
 10
-199.3101839797791
 20
497.4263727752306
 30
0.0
 40
11.49997221456992
  0
CIRCLE
  5
1F6
330
1F
100
AcDbEntity
  8
仕上
  6
Continuous
 62
     3
370
     9
100
AcDbCircle
 10
-199.3101839797791
 20
497.4263727752306
 30
0.0
 40
13.49993937724346
  0
ARC
  5
1F7
330
1F
100
AcDbEntity
  8
仕上
  6
Continuous
 62
     3
370
     9
100
AcDbCircle
 10
-181.3100256182926
 20
515.4263331848587
 30
0.0
 40
2.000000025774982
100
AcDbArc
 50
0.0
 51
90.0
  0
ARC
  5
1F8
330
1F
100
AcDbEntity
  8
仕上
  6
Continuous
 62
     3
370
     9
100
AcDbCircle
 10
-181.8100520118736
 20
454.9263067912779
 30
0.0
 40
2.500000128874908
100
AcDbArc
 50
225.0
 51
0.0
  0
ARC
  5
1F9
330
1F
100
AcDbEntity
  8
仕上
  6
Continuous
 62
     3
370
     9
100
AcDbCircle
 10
-241.8102499637317
 20
514.9263067912777
 30
0.0
 40
2.500000128874908
100
AcDbArc
 50
90.0
 51
225.0
  0
LINE
  5
1FA
330
1F
100
AcDbEntity
  8
仕上
  6
JWW_CENTER1
 62
     3
370
     9
100
AcDbLine
 10
-215.1815680591707
 20
-32.5736932087226
 30
0.0
 11
-184.2834604789346
 21
-32.5736932087226
 31
0.0
  0
LINE
  5
1FB
330
1F
100
AcDbEntity
  8
仕上
  6
JWW_CENTER1
 62
     3
370
     9
100
AcDbLine
 10
-199.3101839797791
 20
-47.21955733456709
 30
0.0
 11
-199.3101839797791
 21
-17.19798058203331
 31
0.0
  0
LINE
  5
1FC
330
1F
100
AcDbEntity
  8
仕上
  6
Continuous
 62
     3
370
     9
100
AcDbLine
 10
-179.3101179958262
 20
9.926372775230131
 30
0.0
 11
-179.3101179958262
 21
-50.57365361835082
 31
0.0
  0
LINE
  5
1FD
330
1F
100
AcDbEntity
  8
仕上
  6
Continuous
 62
     3
370
     9
100
AcDbLine
 10
-181.3100256182926
 20
-52.57356124081709
 30
0.0
 11
-241.8102499637317
 21
-52.57356124081709
 31
0.0
  0
LINE
  5
1FE
330
1F
100
AcDbEntity
  8
仕上
  6
Continuous
 62
     3
370
     9
100
AcDbLine
 10
-183.5777621047791
 20
11.69428081999364
 30
0.0
 11
-243.5781580084952
 21
-48.30591713186443
 31
0.0
  0
CIRCLE
  5
1FF
330
1F
100
AcDbEntity
  8
仕上
  6
Continuous
 62
     3
370
     9
100
AcDbCircle
 10
-199.3101839797791
 20
-32.5736932087226
 30
0.0
 40
11.49997221456992
  0
CIRCLE
  5
200
330
1F
100
AcDbEntity
  8
仕上
  6
Continuous
 62
     3
370
     9
100
AcDbCircle
 10
-199.3101839797791
 20
-32.5736932087226
 30
0.0
 40
13.49993937724346
  0
ARC
  5
201
330
1F
100
AcDbEntity
  8
仕上
  6
Continuous
 62
     3
370
     9
100
AcDbCircle
 10
-181.3100256182926
 20
-50.57365361835082
 30
0.0
 40
2.000000025774982
100
AcDbArc
 50
270.0
 51
0.0
  0
ARC
  5
202
330
1F
100
AcDbEntity
  8
仕上
  6
Continuous
 62
     3
370
     9
100
AcDbCircle
 10
-181.8100520118739
 20
9.926372775230131
 30
0.0
 40
2.500000128874908
100
AcDbArc
 50
0.0
 51
134.9999999999999
  0
ARC
  5
203
330
1F
100
AcDbEntity
  8
仕上
  6
Continuous
 62
     3
370
     9
100
AcDbCircle
 10
-241.8102499637317
 20
-50.07362722476987
 30
0.0
 40
2.500000128874908
100
AcDbArc
 50
135.0
 51
270.0
  0
CIRCLE
  5
204
330
1F
100
AcDbEntity
  8
仕上
  6
Continuous
 62
     3
370
     9
100
AcDbCircle
 10
-199.3102613047239
 20
497.4263851472217
 30
0.0
 40
10.0
  0
LINE
  5
205
330
1F
100
AcDbEntity
  8
仕上
  6
Continuous
 62
     3
370
     9
100
AcDbLine
 10
-204.2101389044916
 20
500.0244537969262
 30
0.0
 11
-199.1101567201588
 21
502.9688887103552
 31
0.0
  0
LINE
  5
206
330
1F
100
AcDbEntity
  8
仕上
  6
Continuous
 62
     3
370
     9
100
AcDbLine
 10
-199.1101567201588
 20
491.8838320961237
 30
0.0
 11
-204.2101389044916
 21
494.8283164975173
 31
0.0
  0
LINE
  5
207
330
1F
100
AcDbEntity
  8
仕上
  6
Continuous
 62
     3
370
     9
100
AcDbLine
 10
-194.6102903376632
 20
494.4819007458281
 30
0.0
 11
-194.6102903376632
 21
500.3708200606508
 31
0.0
  0
ARC
  5
208
330
1F
100
AcDbEntity
  8
仕上
  6
Continuous
 62
     3
370
     9
100
AcDbCircle
 10
-197.6101270273801
 20
500.3708200606508
 30
0.0
 40
3.000000038662472
100
AcDbArc
 50
0.0
 51
120.0005493164062
  0
ARC
  5
209
330
1F
100
AcDbEntity
  8
仕上
  6
Continuous
 62
     3
370
     9
100
AcDbCircle
 10
-202.710109211713
 20
497.4263851472217
 30
0.0
 40
3.000000038662472
100
AcDbArc
 50
120.0005493164062
 51
239.9994506835938
  0
ARC
  5
20A
330
1F
100
AcDbEntity
  8
仕上
  6
Continuous
 62
     3
370
     9
100
AcDbCircle
 10
-197.6101270273801
 20
494.4819007458281
 30
0.0
 40
3.000000038662472
100
AcDbArc
 50
239.9994506835938
 51
0.0000000000000254
  0
CIRCLE
  5
20B
330
1F
100
AcDbEntity
  8
仕上
  6
Continuous
 62
     3
370
     9
100
AcDbCircle
 10
-729.3101293368184
 20
497.4263851472216
 30
0.0
 40
10.0
  0
LINE
  5
20C
330
1F
100
AcDbEntity
  8
仕上
  6
Continuous
 62
     3
370
     9
100
AcDbLine
 10
-734.2100069365861
 20
500.024453796926
 30
0.0
 11
-729.1100247522534
 21
502.968888710355
 31
0.0
  0
LINE
  5
20D
330
1F
100
AcDbEntity
  8
仕上
  6
Continuous
 62
     3
370
     9
100
AcDbLine
 10
-729.1100247522534
 20
491.8838320961236
 30
0.0
 11
-734.2100069365861
 21
494.8283164975172
 31
0.0
  0
LINE
  5
20E
330
1F
100
AcDbEntity
  8
仕上
  6
Continuous
 62
     3
370
     9
100
AcDbLine
 10
-724.6101583697578
 20
494.4819007458279
 30
0.0
 11
-724.6101583697578
 21
500.3708200606505
 31
0.0
  0
ARC
  5
20F
330
1F
100
AcDbEntity
  8
仕上
  6
Continuous
 62
     3
370
     9
100
AcDbCircle
 10
-727.6099950594746
 20
500.3708200606505
 30
0.0
 40
3.000000038662472
100
AcDbArc
 50
0.0
 51
120.0005493164062
  0
ARC
  5
210
330
1F
100
AcDbEntity
  8
仕上
  6
Continuous
 62
     3
370
     9
100
AcDbCircle
 10
-732.7099772438075
 20
497.4263851472216
 30
0.0
 40
3.000000038662472
100
AcDbArc
 50
120.0005493164062
 51
239.9994506835938
  0
ARC
  5
211
330
1F
100
AcDbEntity
  8
仕上
  6
Continuous
 62
     3
370
     9
100
AcDbCircle
 10
-727.6099950594746
 20
494.4819007458279
 30
0.0
 40
3.000000038662472
100
AcDbArc
 50
239.9994506835938
 51
0.0000000000000254
  0
CIRCLE
  5
212
330
1F
100
AcDbEntity
  8
仕上
  6
Continuous
 62
     3
370
     9
100
AcDbCircle
 10
-729.3101293368184
 20
-32.57368083673128
 30
0.0
 40
10.0
  0
LINE
  5
213
330
1F
100
AcDbEntity
  8
仕上
  6
Continuous
 62
     3
370
     9
100
AcDbLine
 10
-734.2100069365861
 20
-29.97561218702692
 30
0.0
 11
-729.1100247522534
 21
-27.03117727359785
 31
0.0
  0
LINE
  5
214
330
1F
100
AcDbEntity
  8
仕上
  6
Continuous
 62
     3
370
     9
100
AcDbLine
 10
-729.1100247522534
 20
-38.11623388782937
 30
0.0
 11
-734.2100069365861
 21
-35.17174948643578
 31
0.0
  0
LINE
  5
215
330
1F
100
AcDbEntity
  8
仕上
  6
Continuous
 62
     3
370
     9
100
AcDbLine
 10
-724.6101583697578
 20
-35.5181652381249
 30
0.0
 11
-724.6101583697578
 21
-29.62924592330235
 31
0.0
  0
ARC
  5
216
330
1F
100
AcDbEntity
  8
仕上
  6
Continuous
 62
     3
370
     9
100
AcDbCircle
 10
-727.6099950594746
 20
-29.62924592330235
 30
0.0
 40
3.000000038662472
100
AcDbArc
 50
0.0
 51
120.0005493164062
  0
ARC
  5
217
330
1F
100
AcDbEntity
  8
仕上
  6
Continuous
 62
     3
370
     9
100
AcDbCircle
 10
-732.7099772438075
 20
-32.57368083673128
 30
0.0
 40
3.000000038662472
100
AcDbArc
 50
120.0005493164062
 51
239.9994506835938
  0
ARC
  5
218
330
1F
100
AcDbEntity
  8
仕上
  6
Continuous
 62
     3
370
     9
100
AcDbCircle
 10
-727.6099950594746
 20
-35.5181652381249
 30
0.0
 40
3.000000038662472
100
AcDbArc
 50
239.9994506835938
 51
0.0000000000000254
  0
CIRCLE
  5
219
330
1F
100
AcDbEntity
  8
仕上
  6
Continuous
 62
     3
370
     9
100
AcDbCircle
 10
-199.3102613047239
 20
-32.57368083673142
 30
0.0
 40
10.0
  0
LINE
  5
21A
330
1F
100
AcDbEntity
  8
仕上
  6
Continuous
 62
     3
370
     9
100
AcDbLine
 10
-204.2101389044916
 20
-29.97561218702703
 30
0.0
 11
-199.1101567201588
 21
-27.03117727359796
 31
0.0
  0
LINE
  5
21B
330
1F
100
AcDbEntity
  8
仕上
  6
Continuous
 62
     3
370
     9
100
AcDbLine
 10
-199.1101567201588
 20
-38.11623388782944
 30
0.0
 11
-204.2101389044916
 21
-35.17174948643585
 31
0.0
  0
LINE
  5
21C
330
1F
100
AcDbEntity
  8
仕上
  6
Continuous
 62
     3
370
     9
100
AcDbLine
 10
-194.6102903376632
 20
-35.51816523812501
 30
0.0
 11
-194.6102903376632
 21
-29.62924592330239
 31
0.0
  0
ARC
  5
21D
330
1F
100
AcDbEntity
  8
仕上
  6
Continuous
 62
     3
370
     9
100
AcDbCircle
 10
-197.6101270273801
 20
-29.62924592330239
 30
0.0
 40
3.000000038662472
100
AcDbArc
 50
0.0
 51
120.0005493164062
  0
ARC
  5
21E
330
1F
100
AcDbEntity
  8
仕上
  6
Continuous
 62
     3
370
     9
100
AcDbCircle
 10
-202.710109211713
 20
-32.57368083673142
 30
0.0
 40
3.000000038662472
100
AcDbArc
 50
120.0005493164062
 51
239.9994506835938
  0
ARC
  5
21F
330
1F
100
AcDbEntity
  8
仕上
  6
Continuous
 62
     3
370
     9
100
AcDbCircle
 10
-197.6101270273801
 20
-35.51816523812501
 30
0.0
 40
3.000000038662472
100
AcDbArc
 50
239.9994506835938
 51
0.0000000000000254
  0
LINE
  5
220
330
1F
100
AcDbEntity
  8
躯体
  6
JWW_CENTER1
 62
     2
370
     9
100
AcDbLine
 10
-639.3102754735994
 20
-97.57141543089212
 30
0.0
 11
-639.3102754735994
 21
-70.79432970171294
 31
0.0
  0
ARC
  5
221
330
1F
100
AcDbEntity
  8
躯体
  6
Continuous
 62
     2
370
     9
100
AcDbCircle
 10
-647.310275473599
 20
-91.4235861615418
 30
0.0
 40
2.0
100
AcDbArc
 50
180.0
 51
241.04497562814
  0
ARC
  5
222
330
1F
100
AcDbEntity
  8
躯体
  6
Continuous
 62
     2
370
     9
100
AcDbCircle
 10
-631.3102754735994
 20
-91.4235861615418
 30
0.0
 40
2.0
100
AcDbArc
 50
298.95502437186
 51
0.0
  0
LINE
  5
223
330
1F
100
AcDbEntity
  8
躯体
  6
Continuous
 62
     2
370
     9
100
AcDbLine
 10
-629.3102269282624
 20
-91.4235861615418
 30
0.0
 11
-629.3102269282624
 21
-67.57369927688939
 31
0.0
  0
LINE
  5
224
330
1F
100
AcDbEntity
  8
躯体
  6
Continuous
 62
     2
370
     9
100
AcDbLine
 10
-630.3420296370475
 20
-93.17358616154183
 30
0.0
 11
-648.2785213101513
 21
-93.17358616154183
 31
0.0
  0
LINE
  5
225
330
1F
100
AcDbEntity
  8
躯体
  6
Continuous
 62
     2
370
     9
100
AcDbLine
 10
-649.310324018936
 20
-91.4235861615418
 30
0.0
 11
-649.310324018936
 21
-67.57369927688939
 31
0.0
  0
CIRCLE
  5
226
330
1F
100
AcDbEntity
  8
躯体
  6
Continuous
 62
     2
370
     9
100
AcDbCircle
 10
-639.3102754735994
 20
-83.17358616154173
 30
0.0
 40
6.5
  0
LINE
  5
227
330
1F
100
AcDbEntity
  8
躯体
  6
JWW_CENTER1
 62
     2
370
     9
100
AcDbLine
 10
-647.3844843768572
 20
-83.17358616154178
 30
0.0
 11
-631.2512154479841
 21
-83.17358616154178
 31
0.0
  0
LINE
  5
228
330
1F
100
AcDbEntity
  8
躯体
  6
JWW_CENTER1
 62
     2
370
     9
100
AcDbLine
 10
-289.3101179958262
 20
-97.57141543089219
 30
0.0
 11
-289.3101179958262
 21
-70.794329701713
 31
0.0
  0
ARC
  5
229
330
1F
100
AcDbEntity
  8
躯体
  6
Continuous
 62
     2
370
     9
100
AcDbCircle
 10
-297.3101179958263
 20
-91.4235861615419
 30
0.0
 40
2.0
100
AcDbArc
 50
180.0
 51
241.04497562814
  0
ARC
  5
22A
330
1F
100
AcDbEntity
  8
躯体
  6
Continuous
 62
     2
370
     9
100
AcDbCircle
 10
-281.3101179958261
 20
-91.4235861615419
 30
0.0
 40
2.0
100
AcDbArc
 50
298.95502437186
 51
0.0
  0
LINE
  5
22B
330
1F
100
AcDbEntity
  8
躯体
  6
Continuous
 62
     2
370
     9
100
AcDbLine
 10
-279.3100694504898
 20
-91.4235861615419
 30
0.0
 11
-279.3100694504898
 21
-67.57369927688949
 31
0.0
  0
LINE
  5
22C
330
1F
100
AcDbEntity
  8
躯体
  6
Continuous
 62
     2
370
     9
100
AcDbLine
 10
-298.2783638323781
 20
-93.17358616154183
 30
0.0
 11
-280.3418721592743
 21
-93.17358616154183
 31
0.0
  0
LINE
  5
22D
330
1F
100
AcDbEntity
  8
躯体
  6
Continuous
 62
     2
370
     9
100
AcDbLine
 10
-299.3101665411632
 20
-91.4235861615419
 30
0.0
 11
-299.3101665411632
 21
-67.57369927688949
 31
0.0
  0
CIRCLE
  5
22E
330
1F
100
AcDbEntity
  8
躯体
  6
Continuous
 62
     2
370
     9
100
AcDbCircle
 10
-289.3101179958262
 20
-83.17358616154188
 30
0.0
 40
6.5
  0
LINE
  5
22F
330
1F
100
AcDbEntity
  8
躯体
  6
JWW_CENTER1
 62
     2
370
     9
100
AcDbLine
 10
-297.1009463085568
 20
-83.17358616154188
 30
0.0
 11
-281.3778452338067
 21
-83.17358616154188
 31
0.0
  0
LINE
  5
230
330
1F
100
AcDbEntity
  8
躯体
  6
JWW_CENTER1
 62
     2
370
     9
100
AcDbLine
 10
-148.7101920510307
 20
49.66334050808527
 30
0.0
 11
-148.7101920510307
 21
65.86497074597926
 31
0.0
  0
CIRCLE
  5
231
330
1F
100
AcDbEntity
  8
躯体
  6
Continuous
 62
     2
370
     9
100
AcDbCircle
 10
-148.7101920510307
 20
57.4263397832539
 30
0.0
 40
6.5
  0
LINE
  5
232
330
1F
100
AcDbEntity
  8
躯体
  6
Continuous
 62
     2
370
     9
100
AcDbLine
 10
-140.4601920510305
 20
47.42629123791737
 30
0.0
 11
-164.3100789356828
 21
47.42629123791737
 31
0.0
  0
LINE
  5
233
330
1F
100
AcDbEntity
  8
躯体
  6
Continuous
 62
     2
370
     9
100
AcDbLine
 10
-138.7101920510301
 20
66.39458561980578
 30
0.0
 11
-138.7101920510301
 21
48.45809394670212
 31
0.0
  0
LINE
  5
234
330
1F
100
AcDbEntity
  8
躯体
  6
Continuous
 62
     2
370
     9
100
AcDbLine
 10
-140.4601920510305
 20
67.42638832859055
 30
0.0
 11
-164.3100789356828
 21
67.42638832859055
 31
0.0
  0
ARC
  5
235
330
1F
100
AcDbEntity
  8
躯体
  6
Continuous
 62
     2
370
     9
100
AcDbCircle
 10
-140.4601920510305
 20
65.42633978325391
 30
0.0
 40
2.0
100
AcDbArc
 50
28.95502437185994
 51
90.0
  0
ARC
  5
236
330
1F
100
AcDbEntity
  8
躯体
  6
Continuous
 62
     2
370
     9
100
AcDbCircle
 10
-140.4601920510305
 20
49.42633978325397
 30
0.0
 40
2.0
100
AcDbArc
 50
270.0
 51
331.04497562814
  0
LINE
  5
237
330
1F
100
AcDbEntity
  8
躯体
  6
JWW_CENTER1
 62
     2
370
     9
100
AcDbLine
 10
-134.3123627816803
 20
57.4263397832539
 30
0.0
 11
-161.0894485108597
 21
57.4263397832539
 31
0.0
  0
LINE
  5
238
330
1F
100
AcDbEntity
  8
躯体
  6
JWW_CENTER1
 62
     2
370
     9
100
AcDbLine
 10
-148.7101920510307
 20
399.8101559583448
 30
0.0
 11
-148.7101920510307
 21
415.3965344150528
 31
0.0
  0
CIRCLE
  5
239
330
1F
100
AcDbEntity
  8
躯体
  6
Continuous
 62
     2
370
     9
100
AcDbCircle
 10
-148.7101920510307
 20
407.4264972610267
 30
0.0
 40
6.5
  0
LINE
  5
23A
330
1F
100
AcDbEntity
  8
躯体
  6
Continuous
 62
     2
370
     9
100
AcDbLine
 10
-140.4601920510305
 20
397.42644871569
 30
0.0
 11
-164.3100789356828
 21
397.42644871569
 31
0.0
  0
LINE
  5
23B
330
1F
100
AcDbEntity
  8
躯体
  6
Continuous
 62
     2
370
     9
100
AcDbLine
 10
-138.7101920510301
 20
398.4582514244748
 30
0.0
 11
-138.7101920510301
 21
416.3947430975786
 31
0.0
  0
LINE
  5
23C
330
1F
100
AcDbEntity
  8
躯体
  6
Continuous
 62
     2
370
     9
100
AcDbLine
 10
-140.4601920510305
 20
417.4265458063632
 30
0.0
 11
-164.3100789356828
 21
417.4265458063632
 31
0.0
  0
ARC
  5
23D
330
1F
100
AcDbEntity
  8
躯体
  6
Continuous
 62
     2
370
     9
100
AcDbCircle
 10
-140.4601920510305
 20
415.4264972610265
 30
0.0
 40
2.0
100
AcDbArc
 50
28.95502437185994
 51
90.0
  0
ARC
  5
23E
330
1F
100
AcDbEntity
  8
躯体
  6
Continuous
 62
     2
370
     9
100
AcDbCircle
 10
-140.4601920510305
 20
399.4264972610266
 30
0.0
 40
2.0
100
AcDbArc
 50
270.0
 51
331.04497562814
  0
LINE
  5
23F
330
1F
100
AcDbEntity
  8
躯体
  6
JWW_CENTER1
 62
     2
370
     9
100
AcDbLine
 10
-134.3123627816803
 20
407.4264972610267
 30
0.0
 11
-161.0894485108597
 21
407.4264972610267
 31
0.0
  0
LINE
  5
240
330
1F
100
AcDbEntity
  8
躯体
  6
JWW_CENTER1
 62
     2
370
     9
100
AcDbLine
 10
-281.7866924833464
 20
548.0262266679067
 30
0.0
 11
-297.3283589487488
 21
548.0262266679067
 31
0.0
  0
CIRCLE
  5
241
330
1F
100
AcDbEntity
  8
躯体
  6
Continuous
 62
     2
370
     9
100
AcDbCircle
 10
-289.3101179958262
 20
548.0262266679067
 30
0.0
 40
6.5
  0
LINE
  5
242
330
1F
100
AcDbEntity
  8
躯体
  6
Continuous
 62
     2
370
     9
100
AcDbLine
 10
-279.3100694504892
 20
556.2762266679067
 30
0.0
 11
-279.3100694504892
 21
532.4263397832543
 31
0.0
  0
LINE
  5
243
330
1F
100
AcDbEntity
  8
躯体
  6
Continuous
 62
     2
370
     9
100
AcDbLine
 10
-298.2783638323775
 20
558.0262266679064
 30
0.0
 11
-280.3418721592743
 21
558.0262266679064
 31
0.0
  0
LINE
  5
244
330
1F
100
AcDbEntity
  8
躯体
  6
Continuous
 62
     2
370
     9
100
AcDbLine
 10
-299.3101665411626
 20
556.2762266679067
 30
0.0
 11
-299.3101665411626
 21
532.4263397832543
 31
0.0
  0
ARC
  5
245
330
1F
100
AcDbEntity
  8
躯体
  6
Continuous
 62
     2
370
     9
100
AcDbCircle
 10
-297.3101179958257
 20
556.2762266679067
 30
0.0
 40
2.0
100
AcDbArc
 50
118.95502437186
 51
180.0
  0
ARC
  5
246
330
1F
100
AcDbEntity
  8
躯体
  6
Continuous
 62
     2
370
     9
100
AcDbCircle
 10
-281.3101179958255
 20
556.2762266679067
 30
0.0
 40
2.0
100
AcDbArc
 50
0.0
 51
61.04497562814005
  0
LINE
  5
247
330
1F
100
AcDbEntity
  8
躯体
  6
JWW_CENTER1
 62
     2
370
     9
100
AcDbLine
 10
-289.3101179958262
 20
562.4240559372568
 30
0.0
 11
-289.3101179958262
 21
535.6469702080778
 31
0.0
  0
LINE
  5
248
330
1F
100
AcDbEntity
  8
躯体
  6
JWW_CENTER1
 62
     2
370
     9
100
AcDbLine
 10
-639.3102754735994
 20
562.4240559372568
 30
0.0
 11
-639.3102754735994
 21
535.6469702080778
 31
0.0
  0
ARC
  5
249
330
1F
100
AcDbEntity
  8
躯体
  6
Continuous
 62
     2
370
     9
100
AcDbCircle
 10
-631.3102754735999
 20
556.2762266679067
 30
0.0
 40
2.0
100
AcDbArc
 50
0.0
 51
61.04497562814005
  0
ARC
  5
24A
330
1F
100
AcDbEntity
  8
躯体
  6
Continuous
 62
     2
370
     9
100
AcDbCircle
 10
-647.3102754736001
 20
556.2762266679067
 30
0.0
 40
2.0
100
AcDbArc
 50
118.95502437186
 51
180.0
  0
LINE
  5
24B
330
1F
100
AcDbEntity
  8
躯体
  6
Continuous
 62
     2
370
     9
100
AcDbLine
 10
-649.3103240189364
 20
556.2762266679067
 30
0.0
 11
-649.3103240189364
 21
532.4263397832543
 31
0.0
  0
LINE
  5
24C
330
1F
100
AcDbEntity
  8
躯体
  6
Continuous
 62
     2
370
     9
100
AcDbLine
 10
-630.3420296370482
 20
558.0262266679064
 30
0.0
 11
-648.2785213101513
 21
558.0262266679064
 31
0.0
  0
LINE
  5
24D
330
1F
100
AcDbEntity
  8
躯体
  6
Continuous
 62
     2
370
     9
100
AcDbLine
 10
-629.3102269282631
 20
556.2762266679067
 30
0.0
 11
-629.3102269282631
 21
532.4263397832543
 31
0.0
  0
CIRCLE
  5
24E
330
1F
100
AcDbEntity
  8
躯体
  6
Continuous
 62
     2
370
     9
100
AcDbCircle
 10
-639.3102754735994
 20
548.0262266679067
 30
0.0
 40
6.5
  0
LINE
  5
24F
330
1F
100
AcDbEntity
  8
躯体
  6
JWW_CENTER1
 62
     2
370
     9
100
AcDbLine
 10
-631.5511096331923
 20
548.0262266679067
 30
0.0
 11
-646.9719051987247
 21
548.0262266679067
 31
0.0
  0
LINE
  5
250
330
1F
100
AcDbEntity
  8
躯体
  6
JWW_CENTER1
 62
     2
370
     9
100
AcDbLine
 10
-794.3078341498281
 20
407.4264972610267
 30
0.0
 11
-767.5307484206494
 21
407.4264972610267
 31
0.0
  0
ARC
  5
251
330
1F
100
AcDbEntity
  8
躯体
  6
Continuous
 62
     2
370
     9
100
AcDbCircle
 10
-788.1600048804783
 20
415.4264972610267
 30
0.0
 40
2.0
100
AcDbArc
 50
90.0
 51
151.04497562814
  0
ARC
  5
252
330
1F
100
AcDbEntity
  8
躯体
  6
Continuous
 62
     2
370
     9
100
AcDbCircle
 10
-788.1600048804783
 20
399.4264972610267
 30
0.0
 40
2.0
100
AcDbArc
 50
208.95502437186
 51
270.0
  0
LINE
  5
253
330
1F
100
AcDbEntity
  8
躯体
  6
Continuous
 62
     2
370
     9
100
AcDbLine
 10
-788.1600048804783
 20
397.4264487156901
 30
0.0
 11
-764.310117995826
 21
397.4264487156901
 31
0.0
  0
LINE
  5
254
330
1F
100
AcDbEntity
  8
躯体
  6
Continuous
 62
     2
370
     9
100
AcDbLine
 10
-789.9100048804778
 20
398.4582514244748
 30
0.0
 11
-789.9100048804778
 21
416.3947430975784
 31
0.0
  0
LINE
  5
255
330
1F
100
AcDbEntity
  8
躯体
  6
Continuous
 62
     2
370
     9
100
AcDbLine
 10
-788.1600048804783
 20
417.4265458063633
 30
0.0
 11
-764.310117995826
 21
417.4265458063633
 31
0.0
  0
CIRCLE
  5
256
330
1F
100
AcDbEntity
  8
躯体
  6
Continuous
 62
     2
370
     9
100
AcDbCircle
 10
-779.9100048804783
 20
407.4264972610267
 30
0.0
 40
6.5
  0
LINE
  5
257
330
1F
100
AcDbEntity
  8
躯体
  6
JWW_CENTER1
 62
     2
370
     9
100
AcDbLine
 10
-779.9100048804783
 20
416.2167126455279
 30
0.0
 11
-779.9100048804783
 21
399.3314693174274
 31
0.0
  0
LINE
  5
258
330
1F
100
AcDbEntity
  8
躯体
  6
JWW_CENTER1
 62
     2
370
     9
100
AcDbLine
 10
-794.3078341498288
 20
57.4263397832539
 30
0.0
 11
-767.5307484206494
 21
57.4263397832539
 31
0.0
  0
ARC
  5
259
330
1F
100
AcDbEntity
  8
躯体
  6
Continuous
 62
     2
370
     9
100
AcDbCircle
 10
-788.1600048804783
 20
65.42633978325387
 30
0.0
 40
2.0
100
AcDbArc
 50
90.0
 51
151.04497562814
  0
ARC
  5
25A
330
1F
100
AcDbEntity
  8
躯体
  6
Continuous
 62
     2
370
     9
100
AcDbCircle
 10
-788.1600048804783
 20
49.42633978325382
 30
0.0
 40
2.0
100
AcDbArc
 50
208.95502437186
 51
270.0
  0
LINE
  5
25B
330
1F
100
AcDbEntity
  8
躯体
  6
Continuous
 62
     2
370
     9
100
AcDbLine
 10
-788.1600048804783
 20
47.42629123791737
 30
0.0
 11
-764.310117995826
 21
47.42629123791737
 31
0.0
  0
LINE
  5
25C
330
1F
100
AcDbEntity
  8
躯体
  6
Continuous
 62
     2
370
     9
100
AcDbLine
 10
-789.9100048804783
 20
66.39458561980575
 30
0.0
 11
-789.9100048804783
 21
48.45809394670201
 31
0.0
  0
LINE
  5
25D
330
1F
100
AcDbEntity
  8
躯体
  6
Continuous
 62
     2
370
     9
100
AcDbLine
 10
-788.1600048804783
 20
67.42638832859055
 30
0.0
 11
-764.310117995826
 21
67.42638832859055
 31
0.0
  0
CIRCLE
  5
25E
330
1F
100
AcDbEntity
  8
躯体
  6
Continuous
 62
     2
370
     9
100
AcDbCircle
 10
-779.9100048804783
 20
57.42633978325387
 30
0.0
 40
6.5
  0
LINE
  5
25F
330
1F
100
AcDbEntity
  8
躯体
  6
JWW_CENTER1
 62
     2
370
     9
100
AcDbLine
 10
-779.9100048804783
 20
65.45464541408258
 30
0.0
 11
-779.9100048804783
 21
49.11629255814727
 31
0.0
  0
LINE
  5
260
330
1F
100
AcDbEntity
  8
D-4
  6
Continuous
 62
     7
370
     9
100
AcDbLine
 10
-748.9108759687872
 20
-384.32829705568
 30
0.0
 11
-600.2957525049569
 21
-384.32829705568
 31
0.0
  0
LWPOLYLINE
  5
261
330
1F
100
AcDbEntity
  8
D-4
  6
Continuous
 62
     7
370
     9
100
AcDbPolyline
 90
        4
 70
     1
 43
1.0
 10
-747.410875968787
 20
-384.32829705568
 42
0.4142135623731
 10
-747.910875968787
 20
-383.8282970556801
 42
0.4142135623731
 10
-748.410875968787
 20
-384.32829705568
 42
0.4142135623731
 10
-747.910875968787
 20
-384.82829705568
 42
0.4142135623731
  0
LINE
  5
262
330
1F
100
AcDbEntity
  8
D-4
  6
Continuous
 62
     7
370
     9
100
AcDbLine
 10
-711.4108759687872
 20
-364.328206090851
 30
0.0
 11
-682.910875968787
 21
-364.328206090851
 31
0.0
  0
LWPOLYLINE
  5
263
330
1F
100
AcDbEntity
  8
D-4
  6
Continuous
 62
     7
370
     9
100
AcDbPolyline
 90
        4
 70
     1
 43
1.0
 10
-709.910875968787
 20
-364.328206090851
 42
0.4142135623731
 10
-710.410875968787
 20
-363.8282060908511
 42
0.4142135623731
 10
-710.910875968787
 20
-364.328206090851
 42
0.4142135623731
 10
-710.410875968787
 20
-364.828206090851
 42
0.4142135623731
  0
TEXT
  5
264
330
1F
100
AcDbEntity
  8
D-5
  6
Continuous
 62
     2
370
     9
100
AcDbText
 10
-714.5315671336934
 20
-506.1993531633864
 30
0.0
 40
15.24
  1
※アンカーは施工時に現場にて折り曲げて下さい
 41
1.119318181818182
  7
ＭＳ ゴシック
100
AcDbText
  0
TEXT
  5
265
330
1F
100
AcDbEntity
  8
D-4
  6
Continuous
 62
     2
370
   211
100
AcDbText
 10
-445.3656411570372
 20
-343.5633584194895
 30
0.0
 40
15.24
  1
29
 50
90.0
 41
1.0625
  7
ＭＳ ゴシック
100
AcDbText
  0
ARC
  5
266
330
1F
100
AcDbEntity
  8
D-5
  6
Continuous
 62
     7
370
     9
100
AcDbCircle
 10
-557.9655850506941
 20
-356.2065979130595
 30
0.0
 40
75.27291033046588
100
AcDbArc
 50
286.177364524971
 51
339.498438833033
  0
LINE
  5
267
330
1F
100
AcDbEntity
  8
D-5
  6
Continuous
 62
     7
370
     9
100
AcDbLine
 10
-487.460261641487
 20
-382.5696478235204
 30
0.0
 11
-489.6735562282794
 21
-400.0198407975382
 31
0.0
  0
LINE
  5
268
330
1F
100
AcDbEntity
  8
D-5
  6
Continuous
 62
     7
370
     9
100
AcDbLine
 10
-487.460261641487
 20
-382.5696478235205
 30
0.0
 11
-498.5757501472369
 21
-395.4773205578878
 31
0.0
  0
LINE
  5
269
330
1F
100
AcDbEntity
  8
D-5
  6
Continuous
 62
     7
370
     9
100
AcDbLine
 10
-305.7225973437954
 20
-471.3552283055315
 30
0.0
 11
-264.8839845714217
 21
-471.3552283055315
 31
0.0
  0
LWPOLYLINE
  5
26A
330
1F
100
AcDbEntity
  8
D-4
  6
Continuous
 62
     7
370
     9
100
AcDbPolyline
 90
        4
 70
     1
 43
1.0
 10
-709.910875968787
 20
-296.8282060908511
 42
0.4142135623731
 10
-710.410875968787
 20
-296.3282060908511
 42
0.4142135623731
 10
-710.910875968787
 20
-296.8282060908511
 42
0.4142135623731
 10
-710.410875968787
 20
-297.3282060908511
 42
0.4142135623731
  0
LWPOLYLINE
  5
26B
330
1F
100
AcDbEntity
  8
D-4
  6
Continuous
 62
     7
370
     9
100
AcDbPolyline
 90
        4
 70
     1
 43
1.0
 10
-747.410875968787
 20
-296.8282060908511
 42
0.4142135623731
 10
-747.910875968787
 20
-296.3282060908511
 42
0.4142135623731
 10
-748.410875968787
 20
-296.8282060908511
 42
0.4142135623731
 10
-747.910875968787
 20
-297.3282060908511
 42
0.4142135623731
  0
LINE
  5
26C
330
1F
100
AcDbEntity
  8
D-4
  6
Continuous
 62
     7
370
     9
100
AcDbLine
 10
-748.9108759687872
 20
-296.8282060908511
 30
0.0
 11
-682.910875968787
 21
-296.8282060908511
 31
0.0
  0
LINE
  5
26D
330
1F
100
AcDbEntity
  8
D-4
  6
Continuous
 62
     7
370
     9
100
AcDbLine
 10
-440.0456411570372
 20
-296.8281859703999
 30
0.0
 11
-440.0456411570372
 21
-369.0485308685793
 31
0.0
  0
LWPOLYLINE
  5
26E
330
1F
100
AcDbEntity
  8
D-4
  6
Continuous
 62
     7
370
     9
100
AcDbPolyline
 90
        4
 70
     1
 43
1.0
 10
-439.5456411570373
 20
-296.8281859703999
 42
0.4142135623731
 10
-440.0456411570372
 20
-296.3281859703999
 42
0.4142135623731
 10
-440.5456411570372
 20
-296.8281859703999
 42
0.4142135623731
 10
-440.0456411570372
 20
-297.3281859703999
 42
0.4142135623731
  0
LWPOLYLINE
  5
26F
330
1F
100
AcDbEntity
  8
D-4
  6
Continuous
 62
     7
370
     9
100
AcDbPolyline
 90
        4
 70
     1
 43
1.0
 10
-439.5456411570373
 20
-369.0485308685793
 42
0.4142135623731
 10
-440.0456411570372
 20
-368.5485308685793
 42
0.4142135623731
 10
-440.5456411570372
 20
-369.0485308685793
 42
0.4142135623731
 10
-440.0456411570372
 20
-369.5485308685793
 42
0.4142135623731
  0
LINE
  5
270
330
1F
100
AcDbEntity
  8
D-4
  6
Continuous
 62
     7
370
     9
100
AcDbLine
 10
-439.0456411570372
 20
-296.8281859703999
 30
0.0
 11
-532.7957318849722
 21
-296.8281859703999
 31
0.0
  0
LINE
  5
271
330
1F
100
AcDbEntity
  8
D-4
  6
Continuous
 62
     7
370
     9
100
AcDbLine
 10
-439.0456411570372
 20
-369.0485308685793
 30
0.0
 11
-467.5456411570372
 21
-369.0485308685793
 31
0.0
  0
LINE
  5
272
330
1F
100
AcDbEntity
  8
D-5
  6
Continuous
 62
     7
370
     9
100
AcDbLine
 10
-534.9286159640506
 20
-365.0485308685791
 30
0.0
 11
-529.7050802695844
 21
-353.6922693865315
 31
0.0
  0
LINE
  5
273
330
1F
100
AcDbEntity
  8
D-5
  6
Continuous
 62
     7
370
     9
100
AcDbLine
 10
-534.9286159640506
 20
-365.0485308685791
 30
0.0
 11
-526.943851179505
 21
-355.4311751334782
 31
0.0
  0
TEXT
  5
274
330
1F
100
AcDbEntity
  8
D-5
  6
Continuous
 62
     7
370
     9
100
AcDbText
 10
-460.1869508242704
 20
-246.9401513533125
 30
0.0
 40
11.43
  1
アンカー（ＳＧＨＣ）
 41
1.15
  7
ＭＳ ゴシック
100
AcDbText
  0
LINE
  5
275
330
1F
100
AcDbEntity
  8
D-5
  6
Continuous
 62
     7
370
     9
100
AcDbLine
 10
-534.9286159640506
 20
-365.0485308685791
 30
0.0
 11
-463.5468208210823
 21
-251.7005304971047
 31
0.0
  0
LINE
  5
276
330
1F
100
AcDbEntity
  8
D-5
  6
Continuous
 62
     7
370
     9
100
AcDbLine
 10
-463.5468208210823
 20
-251.7005304971047
 30
0.0
 11
-292.7035705323574
 21
-251.7005304971047
 31
0.0
  0
LINE
  5
277
330
1F
100
AcDbEntity
  8
D-5
  6
Continuous
 62
     7
370
     9
100
AcDbLine
 10
-337.8853443002248
 20
-424.4504456817561
 30
0.0
 11
-305.7225973437954
 21
-471.3552283055315
 31
0.0
  0
LINE
  5
278
330
1F
100
AcDbEntity
  8
D-5
  6
Continuous
 62
     7
370
     9
100
AcDbLine
 10
-337.8853443002248
 20
-424.4504456817561
 30
0.0
 11
-333.2735286903062
 21
-433.5256934659644
 31
0.0
  0
LINE
  5
279
330
1F
100
AcDbEntity
  8
D-5
  6
Continuous
 62
     7
370
     9
100
AcDbLine
 10
-337.8853443002248
 20
-424.4504456817561
 30
0.0
 11
-331.161270436387
 21
-431.9344131389788
 31
0.0
  0
TEXT
  5
27A
330
1F
100
AcDbEntity
  8
D-5
  6
Continuous
 62
     7
370
     9
100
AcDbText
 10
-301.5532909576085
 20
-465.2899939968116
 30
0.0
 40
11.43
  1
φ13
 41
1.125
  7
ＭＳ ゴシック
100
AcDbText
  0
LINE
  5
27B
330
1F
100
AcDbEntity
  8
D-1
  6
JWW_CENTER1
 62
     2
370
     9
100
AcDbLine
 10
-347.0750765781725
 20
-293.3547498793233
 30
0.0
 11
-347.0750765781725
 21
-441.1380256723624
 31
0.0
  0
LINE
  5
27C
330
1F
100
AcDbEntity
  8
D-1
  6
Continuous
 62
     2
370
     9
100
AcDbLine
 10
-372.0750765781725
 20
-372.2985308685793
 30
0.0
 11
-372.0750765781725
 21
-431.6735308685793
 31
0.0
  0
LINE
  5
27D
330
1F
100
AcDbEntity
  8
D-1
  6
Continuous
 62
     2
370
     9
100
AcDbLine
 10
-322.0750765781722
 20
-372.2985308685793
 30
0.0
 11
-322.0750765781722
 21
-431.6735308685793
 31
0.0
  0
LINE
  5
27E
330
1F
100
AcDbEntity
  8
D-1
  6
Continuous
 62
     2
370
     9
100
AcDbLine
 10
-556.5454898051084
 20
-383.0782971133573
 30
0.0
 11
-556.5454898051084
 21
-436.8282313503329
 31
0.0
  0
LINE
  5
27F
330
1F
100
AcDbEntity
  8
D-1
  6
Continuous
 62
     2
370
     9
100
AcDbLine
 10
-556.5454898051084
 20
-436.8282313503329
 30
0.0
 11
-552.5456411570372
 21
-436.8282313503329
 31
0.0
  0
LINE
  5
280
330
1F
100
AcDbEntity
  8
D-1
  6
Continuous
 62
     2
370
     9
100
AcDbLine
 10
-552.5456411570372
 20
-436.8282313503329
 30
0.0
 11
-552.5456411570372
 21
-299.328231350333
 31
0.0
  0
LINE
  5
281
330
1F
100
AcDbEntity
  8
D-1
  6
Continuous
 62
     2
370
     9
100
AcDbLine
 10
-556.5456411570372
 20
-367.2985308685793
 30
0.0
 11
-552.5456411570372
 21
-367.2985308685793
 31
0.0
  0
LINE
  5
282
330
1F
100
AcDbEntity
  8
D-1
  6
Continuous
 62
     2
370
     9
100
AcDbLine
 10
-556.5456411570372
 20
-354.7985308685792
 30
0.0
 11
-552.5456411570372
 21
-354.7985308685792
 31
0.0
  0
ARC
  5
283
330
1F
100
AcDbEntity
  8
D-1
  6
JWW_PHANTOM1
 62
     2
370
     9
100
AcDbCircle
 10
-548.5456411570372
 20
-361.0485308685793
 30
0.0
 40
8.0
100
AcDbArc
 50
180.0
 51
270.0
  0
ARC
  5
284
330
1F
100
AcDbEntity
  8
D-1
  6
JWW_PHANTOM1
 62
     2
370
     9
100
AcDbCircle
 10
-548.5456411570372
 20
-361.0485308685793
 30
0.0
 40
4.0
100
AcDbArc
 50
180.0
 51
270.0
  0
LINE
  5
285
330
1F
100
AcDbEntity
  8
D-1
  6
JWW_PHANTOM1
 62
     2
370
     9
100
AcDbLine
 10
-548.5456411570372
 20
-369.0485308685793
 30
0.0
 11
-477.5456411570372
 21
-369.0485308685793
 31
0.0
  0
LINE
  5
286
330
1F
100
AcDbEntity
  8
D-1
  6
JWW_PHANTOM1
 62
     2
370
     9
100
AcDbLine
 10
-548.5456411570372
 20
-365.0485308685793
 30
0.0
 11
-477.5456411570372
 21
-365.0485308685793
 31
0.0
  0
LINE
  5
287
330
1F
100
AcDbEntity
  8
D-1
  6
JWW_PHANTOM1
 62
     2
370
     9
100
AcDbLine
 10
-477.5456411570372
 20
-369.0485308685793
 30
0.0
 11
-477.5456411570372
 21
-365.0485308685793
 31
0.0
  0
ARC
  5
288
330
1F
100
AcDbEntity
  8
D-1
  6
JWW_DASHED2
 62
     2
370
     9
100
AcDbCircle
 10
-327.0750765781725
 20
-303.7032313503331
 30
0.0
 40
5.0
100
AcDbArc
 50
0.0000000000000254
 51
61.04497562814005
  0
CIRCLE
  5
289
330
1F
100
AcDbEntity
  8
D-1
  6
Continuous
 62
     2
370
     9
100
AcDbCircle
 10
-359.575117818143
 20
-341.8282725903037
 30
0.0
 40
2.500000032218727
  0
CIRCLE
  5
28A
330
1F
100
AcDbEntity
  8
D-1
  6
Continuous
 62
     2
370
     9
100
AcDbCircle
 10
-359.575117818143
 20
-341.8282725903037
 30
0.0
 40
3.125000161093634
  0
CIRCLE
  5
28B
330
1F
100
AcDbEntity
  8
D-1
  6
Continuous
 62
     2
370
     9
100
AcDbCircle
 10
-347.0750765781725
 20
-329.3282313503331
 30
0.0
 40
2.500000032218727
  0
CIRCLE
  5
28C
330
1F
100
AcDbEntity
  8
D-1
  6
Continuous
 62
     2
370
     9
100
AcDbCircle
 10
-347.0750765781725
 20
-329.3282313503331
 30
0.0
 40
3.125000161093634
  0
CIRCLE
  5
28D
330
1F
100
AcDbEntity
  8
D-1
  6
Continuous
 62
     2
370
     9
100
AcDbCircle
 10
-334.5750971981577
 20
-341.8282725903037
 30
0.0
 40
2.500000032218727
  0
CIRCLE
  5
28E
330
1F
100
AcDbEntity
  8
D-1
  6
Continuous
 62
     2
370
     9
100
AcDbCircle
 10
-334.5750971981577
 20
-341.8282725903037
 30
0.0
 40
3.125000161093634
  0
LINE
  5
28F
330
1F
100
AcDbEntity
  8
D-1
  6
Continuous
 62
     2
370
     9
100
AcDbLine
 10
-359.5750765781722
 20
-361.0485308685793
 30
0.0
 11
-334.5750765781725
 21
-361.0485308685793
 31
0.0
  0
ARC
  5
290
330
1F
100
AcDbEntity
  8
D-1
  6
Continuous
 62
     2
370
     9
100
AcDbCircle
 10
-367.0750765781725
 20
-431.6735308685793
 30
0.0
 40
5.0
100
AcDbArc
 50
180.0
 51
241.04497562814
  0
LINE
  5
291
330
1F
100
AcDbEntity
  8
D-1
  6
Continuous
 62
     2
370
     9
100
AcDbLine
 10
-369.4956911695522
 20
-436.0485308685793
 30
0.0
 11
-324.654461986793
 21
-436.0485308685793
 31
0.0
  0
ARC
  5
292
330
1F
100
AcDbEntity
  8
D-1
  6
Continuous
 62
     2
370
     9
100
AcDbCircle
 10
-327.0750765781725
 20
-431.6735308685793
 30
0.0
 40
5.0
100
AcDbArc
 50
298.95502437186
 51
0.0
  0
LINE
  5
293
330
1F
100
AcDbEntity
  8
D-1
  6
JWW_DASHED2
 62
     2
370
     9
100
AcDbLine
 10
-372.0750765781725
 20
-303.7032313503331
 30
0.0
 11
-372.0750765781725
 21
-309.3282667725219
 31
0.0
  0
ARC
  5
294
330
1F
100
AcDbEntity
  8
D-1
  6
JWW_DASHED2
 62
     2
370
     9
100
AcDbCircle
 10
-367.0750765781725
 20
-303.7032313503331
 30
0.0
 40
5.0
100
AcDbArc
 50
118.95502437186
 51
180.0
  0
LINE
  5
295
330
1F
100
AcDbEntity
  8
D-1
  6
JWW_DASHED2
 62
     2
370
     9
100
AcDbLine
 10
-369.4956911695522
 20
-299.3282313503331
 30
0.0
 11
-324.654461986793
 21
-299.3282313503331
 31
0.0
  0
LINE
  5
296
330
1F
100
AcDbEntity
  8
D-1
  6
JWW_DASHED2
 62
     2
370
     9
100
AcDbLine
 10
-322.0750765781722
 20
-303.7032313503331
 30
0.0
 11
-322.0750765781722
 21
-309.3282667725219
 31
0.0
  0
LINE
  5
297
330
1F
100
AcDbEntity
  8
D-1
  6
Continuous
 62
     2
370
     9
100
AcDbLine
 10
-372.0750765781725
 20
-349.7985308685793
 30
0.0
 11
-372.0750765781725
 21
-309.3282667725219
 31
0.0
  0
ARC
  5
298
330
1F
100
AcDbEntity
  8
D-1
  6
Continuous
 62
     2
370
     9
100
AcDbCircle
 10
-367.0750765781725
 20
-349.7985308685793
 30
0.0
 40
5.0
100
AcDbArc
 50
180.0
 51
270.0
  0
ARC
  5
299
330
1F
100
AcDbEntity
  8
D-1
  6
Continuous
 62
     2
370
     9
100
AcDbCircle
 10
-367.0750765781725
 20
-372.2985308685793
 30
0.0
 40
5.0
100
AcDbArc
 50
90.0
 51
180.0
  0
LINE
  5
29A
330
1F
100
AcDbEntity
  8
D-1
  6
Continuous
 62
     2
370
     9
100
AcDbLine
 10
-322.0750765781722
 20
-349.7985308685793
 30
0.0
 11
-322.0750765781722
 21
-309.3282667725219
 31
0.0
  0
ARC
  5
29B
330
1F
100
AcDbEntity
  8
D-1
  6
Continuous
 62
     2
370
     9
100
AcDbCircle
 10
-327.0750765781722
 20
-349.7985308685793
 30
0.0
 40
5.0
100
AcDbArc
 50
270.0
 51
0.0
  0
ARC
  5
29C
330
1F
100
AcDbEntity
  8
D-1
  6
Continuous
 62
     2
370
     9
100
AcDbCircle
 10
-327.0750765781722
 20
-372.2985308685793
 30
0.0
 40
5.0
100
AcDbArc
 50
0.0
 51
90.0
  0
LINE
  5
29D
330
1F
100
AcDbEntity
  8
D-1
  6
Continuous
 62
     2
370
     9
100
AcDbLine
 10
-362.0750765781722
 20
-354.7985308685793
 30
0.0
 11
-367.0750765781725
 21
-354.7985308685793
 31
0.0
  0
ARC
  5
29E
330
1F
100
AcDbEntity
  8
D-1
  6
Continuous
 62
     2
370
     9
100
AcDbCircle
 10
-362.0750765781722
 20
-357.2985308685793
 30
0.0
 40
2.5
100
AcDbArc
 50
0.0
 51
90.00000000000001
  0
LINE
  5
29F
330
1F
100
AcDbEntity
  8
D-1
  6
Continuous
 62
     2
370
     9
100
AcDbLine
 10
-359.5750765781722
 20
-364.7985308685793
 30
0.0
 11
-359.5750765781722
 21
-357.2985308685793
 31
0.0
  0
LINE
  5
2A0
330
1F
100
AcDbEntity
  8
D-1
  6
Continuous
 62
     2
370
     9
100
AcDbLine
 10
-362.0750765781722
 20
-367.2985308685793
 30
0.0
 11
-367.0750765781725
 21
-367.2985308685793
 31
0.0
  0
ARC
  5
2A1
330
1F
100
AcDbEntity
  8
D-1
  6
Continuous
 62
     2
370
     9
100
AcDbCircle
 10
-362.0750765781722
 20
-364.7985308685793
 30
0.0
 40
2.5
100
AcDbArc
 50
270.0
 51
0.0
  0
LINE
  5
2A2
330
1F
100
AcDbEntity
  8
D-1
  6
Continuous
 62
     2
370
     9
100
AcDbLine
 10
-332.0750765781725
 20
-367.2985308685793
 30
0.0
 11
-327.0750765781722
 21
-367.2985308685793
 31
0.0
  0
ARC
  5
2A3
330
1F
100
AcDbEntity
  8
D-1
  6
Continuous
 62
     2
370
     9
100
AcDbCircle
 10
-332.0750765781725
 20
-364.7985308685793
 30
0.0
 40
2.5
100
AcDbArc
 50
180.0
 51
270.0
  0
LINE
  5
2A4
330
1F
100
AcDbEntity
  8
D-1
  6
Continuous
 62
     2
370
     9
100
AcDbLine
 10
-334.5750765781725
 20
-357.2985308685793
 30
0.0
 11
-334.5750765781725
 21
-364.7985308685793
 31
0.0
  0
LINE
  5
2A5
330
1F
100
AcDbEntity
  8
D-1
  6
Continuous
 62
     2
370
     9
100
AcDbLine
 10
-332.0750765781725
 20
-354.7985308685793
 30
0.0
 11
-327.0750765781722
 21
-354.7985308685793
 31
0.0
  0
ARC
  5
2A6
330
1F
100
AcDbEntity
  8
D-1
  6
Continuous
 62
     2
370
     9
100
AcDbCircle
 10
-332.0750765781725
 20
-357.2985308685793
 30
0.0
 40
2.5
100
AcDbArc
 50
90.0
 51
180.0
  0
CIRCLE
  5
2A7
330
1F
100
AcDbEntity
  8
D-1
  6
Continuous
 62
     2
370
     9
100
AcDbCircle
 10
-347.0750765781725
 20
-411.0485308685793
 30
0.0
 40
16.25
  0
LINE
  5
2A8
330
1F
100
AcDbEntity
  8
D-1
  6
JWW_CENTER1
 62
     2
370
     9
100
AcDbLine
 10
-368.2494872624989
 20
-411.0485308685793
 30
0.0
 11
-325.8791953267806
 21
-411.0485308685793
 31
0.0
  0
ARC
  5
2A9
330
1F
100
AcDbEntity
  8
D-1
  6
Continuous
 62
     2
370
     9
100
AcDbCircle
 10
-575.2954697165885
 20
-368.578268716692
 30
0.0
 40
13.74997488780371
100
AcDbArc
 50
161.9955596923828
 51
180.0
  0
ARC
  5
2AA
330
1F
100
AcDbEntity
  8
D-1
  6
Continuous
 62
     2
370
     9
100
AcDbCircle
 10
-575.2954697165885
 20
-368.578268716692
 30
0.0
 40
13.74997488780371
100
AcDbArc
 50
0.0
 51
18.00444030761719
  0
LINE
  5
2AB
330
1F
100
AcDbEntity
  8
D-1
  6
Continuous
 62
     2
370
     9
100
AcDbLine
 10
-589.0453789886535
 20
-371.8282162535582
 30
0.0
 11
-589.0453789886535
 21
-368.578268716692
 31
0.0
  0
LINE
  5
2AC
330
1F
100
AcDbEntity
  8
D-1
  6
Continuous
 62
     2
370
     9
100
AcDbLine
 10
-582.170424352621
 20
-379.8282183450137
 30
0.0
 11
-582.170424352621
 21
-381.8281860600084
 31
0.0
  0
LINE
  5
2AD
330
1F
100
AcDbEntity
  8
D-1
  6
Continuous
 62
     2
370
     9
100
AcDbLine
 10
-568.4205150805556
 20
-379.8282183450137
 30
0.0
 11
-568.4205150805556
 21
-381.8281860600084
 31
0.0
  0
LINE
  5
2AE
330
1F
100
AcDbEntity
  8
D-1
  6
Continuous
 62
     2
370
     9
100
AcDbLine
 10
-589.0453789886535
 20
-379.8282183450137
 30
0.0
 11
-561.5455604445233
 21
-379.8282183450137
 31
0.0
  0
LINE
  5
2AF
330
1F
100
AcDbEntity
  8
D-1
  6
Continuous
 62
     2
370
     9
100
AcDbLine
 10
-561.5455604445233
 20
-379.8282183450137
 30
0.0
 11
-561.5455604445233
 21
-368.578268716692
 31
0.0
  0
LINE
  5
2B0
330
1F
100
AcDbEntity
  8
D-1
  6
Continuous
 62
     2
370
     9
100
AcDbLine
 10
-575.1862851274236
 20
-379.8282183450137
 30
0.0
 11
-561.7245601796449
 21
-366.3662309342806
 31
0.0
  0
LINE
  5
2B1
330
1F
100
AcDbEntity
  8
D-1
  6
Continuous
 62
     2
370
     9
100
AcDbLine
 10
-589.0406546554684
 20
-368.2265683573622
 30
0.0
 11
-585.1425548519123
 21
-364.328206090851
 31
0.0
  0
LINE
  5
2B2
330
1F
100
AcDbEntity
  8
D-1
  6
Continuous
 62
     2
370
     9
100
AcDbLine
 10
-589.0453789886535
 20
-371.4132623221399
 30
0.0
 11
-581.9604539888422
 21
-364.328206090851
 31
0.0
  0
LINE
  5
2B3
330
1F
100
AcDbEntity
  8
D-1
  6
Continuous
 62
     2
370
     9
100
AcDbLine
 10
-589.0453789886535
 20
-374.5952319537327
 30
0.0
 11
-578.7783531257719
 21
-364.328206090851
 31
0.0
  0
LINE
  5
2B4
330
1F
100
AcDbEntity
  8
D-1
  6
Continuous
 62
     2
370
     9
100
AcDbLine
 10
-589.0453789886535
 20
-377.7772015853254
 30
0.0
 11
-575.5962522627019
 21
-364.328206090851
 31
0.0
  0
LINE
  5
2B5
330
1F
100
AcDbEntity
  8
D-1
  6
Continuous
 62
     2
370
     9
100
AcDbLine
 10
-587.9141636537943
 20
-379.8282183450137
 30
0.0
 11
-572.4141513996315
 21
-364.328206090851
 31
0.0
  0
LINE
  5
2B6
330
1F
100
AcDbEntity
  8
D-1
  6
Continuous
 62
     2
370
     9
100
AcDbLine
 10
-584.7325877166336
 20
-379.8282183450137
 30
0.0
 11
-569.232575462471
 21
-364.328206090851
 31
0.0
  0
LINE
  5
2B7
330
1F
100
AcDbEntity
  8
D-1
  6
Continuous
 62
     2
370
     9
100
AcDbLine
 10
-581.5504868535638
 20
-379.8282183450137
 30
0.0
 11
-566.050474599401
 21
-364.328206090851
 31
0.0
  0
LINE
  5
2B8
330
1F
100
AcDbEntity
  8
D-1
  6
Continuous
 62
     2
370
     9
100
AcDbLine
 10
-578.3683859904934
 20
-379.8282183450137
 30
0.0
 11
-562.8683737363306
 21
-364.328206090851
 31
0.0
  0
LINE
  5
2B9
330
1F
100
AcDbEntity
  8
D-1
  6
Continuous
 62
     2
370
     9
100
AcDbLine
 10
-572.0047091902629
 20
-379.8282183450137
 30
0.0
 11
-561.5450355186141
 21
-369.3688071363197
 31
0.0
  0
LINE
  5
2BA
330
1F
100
AcDbEntity
  8
D-1
  6
Continuous
 62
     2
370
     9
100
AcDbLine
 10
-568.8226083271925
 20
-379.8282183450137
 30
0.0
 11
-561.5450355186141
 21
-372.5509079993899
 31
0.0
  0
LINE
  5
2BB
330
1F
100
AcDbEntity
  8
D-1
  6
Continuous
 62
     2
370
     9
100
AcDbLine
 10
-565.6405074641227
 20
-379.8282183450137
 30
0.0
 11
-561.5450355186141
 21
-375.7327463995052
 31
0.0
  0
LINE
  5
2BC
330
1F
100
AcDbEntity
  8
D-1
  6
Continuous
 62
     2
370
     9
100
AcDbLine
 10
-562.4584066010525
 20
-379.8282183450137
 30
0.0
 11
-561.5450355186141
 21
-378.9148472625754
 31
0.0
  0
LINE
  5
2BD
330
1F
100
AcDbEntity
  8
D-1
  6
Continuous
 62
     2
370
     9
100
AcDbLine
 10
-590.3152039032761
 20
-384.3281457037515
 30
0.0
 11
-557.795489747431
 21
-384.3281457037515
 31
0.0
  0
ARC
  5
2BE
330
1F
100
AcDbEntity
  8
D-1
  6
Continuous
 62
     2
370
     9
100
AcDbCircle
 10
-590.2957525049569
 20
-383.0782971133573
 30
0.0
 40
1.249999942322725
100
AcDbArc
 50
180.0
 51
270.0
  0
ARC
  5
2BF
330
1F
100
AcDbEntity
  8
D-1
  6
Continuous
 62
     2
370
     9
100
AcDbCircle
 10
-557.795489747431
 20
-383.0782971133573
 30
0.0
 40
1.249999942322725
100
AcDbArc
 50
270.0
 51
0.0
  0
LINE
  5
2C0
330
1F
100
AcDbEntity
  8
D-1
  6
Continuous
 62
     2
370
     9
100
AcDbLine
 10
-591.5456010953515
 20
-383.0782971133573
 30
0.0
 11
-591.5456010953515
 21
-371.8282162535582
 31
0.0
  0
LINE
  5
2C1
330
1F
100
AcDbEntity
  8
D-1
  6
Continuous
 62
     2
370
     9
100
AcDbLine
 10
-556.5456411570372
 20
-383.0782971133573
 30
0.0
 11
-556.5456411570372
 21
-299.328231350333
 31
0.0
  0
LINE
  5
2C2
330
1F
100
AcDbEntity
  8
D-1
  6
Continuous
 62
     2
370
     9
100
AcDbLine
 10
-559.0453383378256
 20
-298.0781859127226
 30
0.0
 11
-559.0453383378256
 21
-381.8281860600084
 31
0.0
  0
LINE
  5
2C3
330
1F
100
AcDbEntity
  8
D-1
  6
Continuous
 62
     2
370
     9
100
AcDbLine
 10
-589.0453789886535
 20
-381.8281860600084
 30
0.0
 11
-559.0453383378256
 21
-381.8281860600084
 31
0.0
  0
LINE
  5
2C4
330
1F
100
AcDbEntity
  8
D-1
  6
Continuous
 62
     2
370
     9
100
AcDbLine
 10
-589.0453789886535
 20
-371.8282162535582
 30
0.0
 11
-589.0453789886535
 21
-381.8281860600084
 31
0.0
  0
LINE
  5
2C5
330
1F
100
AcDbEntity
  8
D-1
  6
Continuous
 62
     2
370
     9
100
AcDbLine
 10
-591.5456010953515
 20
-371.8282162535582
 30
0.0
 11
-589.0453789886535
 21
-371.8282162535582
 31
0.0
  0
LINE
  5
2C6
330
1F
100
AcDbEntity
  8
D-1
  6
Continuous
 62
     2
370
     9
100
AcDbLine
 10
-556.5456411570372
 20
-299.328231350333
 30
0.0
 11
-544.0455804753665
 21
-299.328231350333
 31
0.0
  0
LINE
  5
2C7
330
1F
100
AcDbEntity
  8
D-1
  6
Continuous
 62
     2
370
     9
100
AcDbLine
 10
-544.0455804753665
 20
-299.328231350333
 30
0.0
 11
-544.0455804753665
 21
-309.3282667725219
 31
0.0
  0
LINE
  5
2C8
330
1F
100
AcDbEntity
  8
D-1
  6
Continuous
 62
     2
370
     9
100
AcDbLine
 10
-544.0455804753665
 20
-309.3282667725219
 30
0.0
 11
-541.5453583686681
 21
-309.3282667725219
 31
0.0
  0
LINE
  5
2C9
330
1F
100
AcDbEntity
  8
D-1
  6
Continuous
 62
     2
370
     9
100
AcDbLine
 10
-541.5453583686681
 20
-298.0781859127226
 30
0.0
 11
-541.5453583686681
 21
-309.3282667725219
 31
0.0
  0
LINE
  5
2CA
330
1F
100
AcDbEntity
  8
D-1
  6
Continuous
 62
     2
370
     9
100
AcDbLine
 10
-557.795489747431
 20
-296.8282060908511
 30
0.0
 11
-542.7957318849722
 21
-296.8282060908511
 31
0.0
  0
ARC
  5
2CB
330
1F
100
AcDbEntity
  8
D-1
  6
Continuous
 62
     2
370
     9
100
AcDbCircle
 10
-542.7957318849722
 20
-298.0781859127226
 30
0.0
 40
1.249999942322725
100
AcDbArc
 50
0.0
 51
90.0
  0
ARC
  5
2CC
330
1F
100
AcDbEntity
  8
D-1
  6
Continuous
 62
     2
370
     9
100
AcDbCircle
 10
-557.795489747431
 20
-298.0781859127226
 30
0.0
 40
1.249999942322725
100
AcDbArc
 50
90.0
 51
180.0
  0
LINE
  5
2CD
330
1F
100
AcDbEntity
  8
D-1
  6
Continuous
 62
     2
370
     9
100
AcDbLine
 10
-406.1923175431457
 20
-296.8282060908511
 30
0.0
 11
-287.957835613199
 21
-296.8282060908511
 31
0.0
  0
LINE
  5
2CE
330
1F
100
AcDbEntity
  8
D-1
  6
Continuous
 62
     2
370
     9
100
AcDbLine
 10
-406.1923175431457
 20
-309.3282667725219
 30
0.0
 11
-287.957835613199
 21
-309.3282667725219
 31
0.0
  0
LINE
  5
2CF
330
1F
100
AcDbEntity
  8
D-1
  6
Continuous
 62
     2
370
     9
100
AcDbLine
 10
-322.0750765781722
 20
-384.3282970556801
 30
0.0
 11
-287.957835613199
 21
-384.3282970556801
 31
0.0
  0
LINE
  5
2D0
330
1F
100
AcDbEntity
  8
D-1
  6
Continuous
 62
     2
370
     9
100
AcDbLine
 10
-406.1923175431457
 20
-384.3282970556801
 30
0.0
 11
-372.0750765781725
 21
-384.3282970556801
 31
0.0
  0
LINE
  5
2D1
330
1F
100
AcDbEntity
  8
D-2
  6
Continuous
 62
     3
370
     9
100
AcDbLine
 10
-672.910875968787
 20
-364.328206090851
 30
0.0
 11
-562.7954090349178
 21
-364.328206090851
 31
0.0
  0
LINE
  5
2D2
330
1F
100
AcDbEntity
  8
D-2
  6
Continuous
 62
     3
370
     9
100
AcDbLine
 10
-672.910875968787
 20
-361.8282060908512
 30
0.0
 11
-564.0452576253117
 21
-361.8282060908512
 31
0.0
  0
LINE
  5
2D3
330
1F
100
AcDbEntity
  8
D-2
  6
Continuous
 62
     3
370
     9
100
AcDbLine
 10
-564.0452576253117
 20
-299.328231350333
 30
0.0
 11
-564.0452576253117
 21
-361.8282060908512
 31
0.0
  0
ARC
  5
2D4
330
1F
100
AcDbEntity
  8
D-2
  6
Continuous
 62
     3
370
     9
100
AcDbCircle
 10
-562.7954090349178
 20
-363.0782262689795
 30
0.0
 40
1.249999942322725
100
AcDbArc
 50
270.0
 51
0.0
  0
LINE
  5
2D5
330
1F
100
AcDbEntity
  8
D-2
  6
Continuous
 62
     3
370
     9
100
AcDbLine
 10
-561.5455604445233
 20
-363.0782262689795
 30
0.0
 11
-561.5455604445233
 21
-298.0781859127226
 31
0.0
  0
LINE
  5
2D6
330
1F
100
AcDbEntity
  8
D-2
  6
Continuous
 62
     3
370
     9
100
AcDbLine
 10
-564.0452576253117
 20
-299.328231350333
 30
0.0
 11
-576.5453183069826
 21
-299.328231350333
 31
0.0
  0
LINE
  5
2D7
330
1F
100
AcDbEntity
  8
D-2
  6
Continuous
 62
     3
370
     9
100
AcDbLine
 10
-576.5453183069826
 20
-299.328231350333
 30
0.0
 11
-576.5453183069826
 21
-309.3282667725219
 31
0.0
  0
LINE
  5
2D8
330
1F
100
AcDbEntity
  8
D-2
  6
Continuous
 62
     3
370
     9
100
AcDbLine
 10
-579.0455404136808
 20
-298.0781859127226
 30
0.0
 11
-579.0455404136808
 21
-309.3282667725219
 31
0.0
  0
ARC
  5
2D9
330
1F
100
AcDbEntity
  8
D-2
  6
Continuous
 62
     3
370
     9
100
AcDbCircle
 10
-577.7956918232862
 20
-298.0781859127226
 30
0.0
 40
1.249999942322725
100
AcDbArc
 50
90.0
 51
180.0
  0
ARC
  5
2DA
330
1F
100
AcDbEntity
  8
D-2
  6
Continuous
 62
     3
370
     9
100
AcDbCircle
 10
-562.7954090349178
 20
-298.0781859127226
 30
0.0
 40
1.249999942322725
100
AcDbArc
 50
0.0
 51
90.0
  0
LINE
  5
2DB
330
1F
100
AcDbEntity
  8
D-2
  6
Continuous
 62
     3
370
     9
100
AcDbLine
 10
-672.910875968787
 20
-296.8282060908511
 30
0.0
 11
-562.7954090349178
 21
-296.8282060908511
 31
0.0
  0
LINE
  5
2DC
330
1F
100
AcDbEntity
  8
D-2
  6
Continuous
 62
     3
370
     9
100
AcDbLine
 10
-576.5453183069826
 20
-309.3282667725219
 30
0.0
 11
-672.910875968787
 21
-309.3282667725219
 31
0.0
  0
LWPOLYLINE
  5
2DD
330
1F
100
AcDbEntity
  8
D-4
  6
Continuous
 62
     7
370
     9
100
AcDbPolyline
 90
        4
 70
     1
 43
1.0
 10
853.8030768927522
 20
419.4456230962824
 42
0.4142135623731
 10
853.3030768927522
 20
419.9456230962824
 42
0.4142135623731
 10
852.8030768927522
 20
419.4456230962824
 42
0.4142135623731
 10
853.3030768927522
 20
418.9456230962824
 42
0.4142135623731
  0
LINE
  5
2DE
330
1F
100
AcDbEntity
  8
D-4
  6
Continuous
 62
     7
370
     9
100
AcDbLine
 10
813.2799210998685
 20
347.2252781981031
 30
0.0
 11
769.6289645557929
 21
347.2252781981031
 31
0.0
  0
LWPOLYLINE
  5
2DF
330
1F
100
AcDbEntity
  8
D-4
  6
Continuous
 62
     7
370
     9
100
AcDbPolyline
 90
        4
 70
     1
 43
1.0
 10
812.7799210998688
 20
347.2252781981031
 42
0.4142135623731
 10
812.2799210998688
 20
347.7252781981031
 42
0.4142135623731
 10
811.779921099869
 20
347.2252781981031
 42
0.4142135623731
 10
812.2799210998688
 20
346.7252781981031
 42
0.4142135623731
  0
LWPOLYLINE
  5
2E0
330
1F
100
AcDbEntity
  8
D-4
  6
Continuous
 62
     7
370
     9
100
AcDbPolyline
 90
        4
 70
     1
 43
1.0
 10
812.7799210998688
 20
419.4456230962824
 42
0.4142135623731
 10
812.2799210998688
 20
419.9456230962824
 42
0.4142135623731
 10
811.779921099869
 20
419.4456230962824
 42
0.4142135623731
 10
812.2799210998688
 20
418.9456230962824
 42
0.4142135623731
  0
LINE
  5
2E1
330
1F
100
AcDbEntity
  8
D-4
  6
Continuous
 62
     7
370
     9
100
AcDbLine
 10
812.2799210998688
 20
419.4456230962824
 30
0.0
 11
812.2799210998688
 21
347.2252781981031
 31
0.0
  0
TEXT
  5
2E2
330
1F
100
AcDbEntity
  8
D-4
  6
Continuous
 62
     2
370
   211
100
AcDbText
 10
806.9599210998688
 20
362.7104609492025
 30
0.0
 40
15.24
  1
29
 50
90.0
 41
1.0625
  7
ＭＳ ゴシック
100
AcDbText
  0
LINE
  5
2E3
330
1F
100
AcDbEntity
  8
D-4
  6
Continuous
 62
     7
370
     9
100
AcDbLine
 10
854.3030768927518
 20
331.9453874073769
 30
0.0
 11
689.3791159653993
 21
331.9453874073769
 31
0.0
  0
LWPOLYLINE
  5
2E4
330
1F
100
AcDbEntity
  8
D-4
  6
Continuous
 62
     7
370
     9
100
AcDbPolyline
 90
        4
 70
     1
 43
1.0
 10
853.8030768927522
 20
331.9453874073769
 42
0.4142135623731
 10
853.3030768927522
 20
332.4453874073769
 42
0.4142135623731
 10
852.8030768927522
 20
331.9453874073769
 42
0.4142135623731
 10
853.3030768927522
 20
331.4453874073769
 42
0.4142135623731
  0
LWPOLYLINE
  5
2E5
330
1F
100
AcDbEntity
  8
D-6
  6
Continuous
 62
     6
370
     9
100
AcDbPolyline
 90
        4
 70
     1
 43
1.0
 10
884.2684544576508
 20
364.4496678690401
 42
0.4142135623731
 10
883.7684544576508
 20
364.9496678690401
 42
0.4142135623731
 10
883.2684544576509
 20
364.4496678690401
 42
0.4142135623731
 10
883.7684544576508
 20
363.9496678690401
 42
0.4142135623731
  0
LWPOLYLINE
  5
2E6
330
1F
100
AcDbEntity
  8
D-6
  6
Continuous
 62
     6
370
     9
100
AcDbPolyline
 90
        4
 70
     1
 43
1.0
 10
880.2947095578814
 20
344.5809433701932
 42
0.4142135623731
 10
879.7947095578814
 20
345.0809433701932
 42
0.4142135623731
 10
879.2947095578814
 20
344.5809433701932
 42
0.4142135623731
 10
879.7947095578814
 20
344.0809433701932
 42
0.4142135623731
  0
LWPOLYLINE
  5
2E7
330
1F
100
AcDbEntity
  8
D-6
  6
Continuous
 62
     6
370
     9
100
AcDbPolyline
 90
        4
 70
     1
 43
1.0
 10
868.0423294502591
 20
385.6429740011435
 42
0.4142135623731
 10
867.5423294502592
 20
386.1429740011434
 42
0.4142135623731
 10
867.0423294502592
 20
385.6429740011435
 42
0.4142135623731
 10
867.5423294502592
 20
385.1429740011435
 42
0.4142135623731
  0
LWPOLYLINE
  5
2E8
330
1F
100
AcDbEntity
  8
D-6
  6
Continuous
 62
     6
370
     9
100
AcDbPolyline
 90
        4
 70
     1
 43
1.0
 10
903.8060335481837
 20
343.5875071452509
 42
0.4142135623731
 10
903.3060335481837
 20
344.0875071452508
 42
0.4142135623731
 10
902.8060335481837
 20
343.5875071452509
 42
0.4142135623731
 10
903.3060335481837
 20
343.0875071452509
 42
0.4142135623731
  0
TEXT
  5
2E9
330
1F
100
AcDbEntity
  8
D-4
  6
Continuous
 62
     2
370
     9
100
AcDbText
 10
-594.6732204478268
 20
-537.248299975369
 30
0.0
 40
15.24
  1
アンカー詳細図　Ｓ＝１：２
 41
1.115384615384615
  7
ＭＳ ゴシック
100
AcDbText
  0
LINE
  5
2EA
330
1F
100
AcDbEntity
  8
D-4
  6
Continuous
 62
     7
370
     9
100
AcDbLine
 10
-606.0931951099891
 20
-548.9445850128479
 30
0.0
 11
-287.5990491283678
 21
-548.9445850128479
 31
0.0
  0
CIRCLE
  5
2EB
330
1F
100
AcDbEntity
  8
仕上
  6
Continuous
 62
     3
370
     9
100
AcDbCircle
 10
-729.3100520118736
 20
497.4263727752306
 30
0.0
 40
11.24979215054899
  0
CIRCLE
  5
2EC
330
1F
100
AcDbEntity
  8
仕上
  6
Continuous
 62
     3
370
     9
100
AcDbCircle
 10
-729.3100520118736
 20
-32.57369320872241
 30
0.0
 40
11.24979215054899
  0
CIRCLE
  5
2ED
330
1F
100
AcDbEntity
  8
仕上
  6
Continuous
 62
     3
370
     9
100
AcDbCircle
 10
-199.3101839797794
 20
497.4263727752307
 30
0.0
 40
11.24979215054899
  0
CIRCLE
  5
2EE
330
1F
100
AcDbEntity
  8
仕上
  6
Continuous
 62
     3
370
     9
100
AcDbCircle
 10
-199.3101839797794
 20
-32.5736932087225
 30
0.0
 40
11.24979215054899
  0
LINE
  5
2EF
330
1F
100
AcDbEntity
  8
D-5
  6
Continuous
 62
     7
370
     9
100
AcDbLine
 10
192.5983598957799
 20
354.4454863994155
 30
0.0
 11
151.441199317233
 21
283.1593725573018
 31
0.0
  0
LINE
  5
2F0
330
1F
100
AcDbEntity
  8
D-5
  6
Continuous
 62
     7
370
     9
100
AcDbLine
 10
192.5983598957799
 20
354.4454863994155
 30
0.0
 11
184.988843030282
 21
344.5285931878445
 31
0.0
  0
LINE
  5
2F1
330
1F
100
AcDbEntity
  8
D-5
  6
Continuous
 62
     7
370
     9
100
AcDbLine
 10
192.5983598957799
 20
354.4454863994155
 30
0.0
 11
187.8148532445976
 21
342.8969749973884
 31
0.0
  0
LINE
  5
2F2
330
1F
100
AcDbEntity
  8
D-5
  6
Continuous
 62
     7
370
     9
100
AcDbLine
 10
45.63945717592155
 20
283.1593725573019
 30
0.0
 11
151.441199317233
 21
283.1593725573019
 31
0.0
  0
TEXT
  5
2F3
330
1F
100
AcDbEntity
  8
D-5
  6
Continuous
 62
     7
370
     9
100
AcDbText
 10
47.29032824657729
 20
267.7925016483068
 30
0.0
 40
11.43
  1
ＳＵＳ３０４
 41
1.138888888888889
  7
ＭＳ ゴシック
100
AcDbText
  0
TEXT
  5
2F4
330
1F
100
AcDbEntity
  8
D-5
  6
Continuous
 62
     7
370
     9
100
AcDbText
 10
45.9159419121681
 20
288.6522972960056
 30
0.0
 40
11.43
  1
モルタル止め
 41
1.138888888888889
  7
ＭＳ ゴシック
100
AcDbText
  0
LINE
  5
2F5
330
1F
100
AcDbEntity
  8
D-2
  6
Continuous
 62
     3
370
     9
100
AcDbLine
 10
132.0629864659898
 20
351.9454863994155
 30
0.0
 11
583.1293408705235
 21
351.9454863994155
 31
0.0
  0
LINE
  5
2F6
330
1F
100
AcDbEntity
  8
D-2
  6
Continuous
 62
     3
370
     9
100
AcDbLine
 10
132.0629864659898
 20
354.4454863994155
 30
0.0
 11
583.1293408705235
 21
354.4454863994155
 31
0.0
  0
LINE
  5
2F7
330
1F
100
AcDbEntity
  8
D-4
  6
Continuous
 62
     7
370
     9
100
AcDbLine
 10
45.10973316367233
 20
419.4456029758312
 30
0.0
 11
123.6097331636726
 21
419.4456029758312
 31
0.0
  0
LWPOLYLINE
  5
2F8
330
1F
100
AcDbEntity
  8
D-4
  6
Continuous
 62
     7
370
     9
100
AcDbPolyline
 90
        4
 70
     1
 43
1.0
 10
46.60973316367255
 20
419.4456029758312
 42
0.4142135623731
 10
46.10973316367256
 20
419.9456029758312
 42
0.4142135623731
 10
45.60973316367256
 20
419.4456029758312
 42
0.4142135623731
 10
46.10973316367256
 20
418.9456029758313
 42
0.4142135623731
  0
LWPOLYLINE
  5
2F9
330
1F
100
AcDbEntity
  8
D-4
  6
Continuous
 62
     7
370
     9
100
AcDbPolyline
 90
        4
 70
     1
 43
1.0
 10
84.10973316367256
 20
419.4456029758312
 42
0.4142135623731
 10
83.60973316367256
 20
419.9456029758312
 42
0.4142135623731
 10
83.10973316367254
 20
419.4456029758312
 42
0.4142135623731
 10
83.60973316367256
 20
418.9456029758313
 42
0.4142135623731
  0
TEXT
  5
2FA
330
1F
100
AcDbEntity
  8
D-4
  6
Continuous
 62
     2
370
   211
100
AcDbText
 10
40.78973316367256
 20
348.1954863994155
 30
0.0
 40
15.24
  1
1
 50
90.0
 41
0.9999999999999998
  7
ＭＳ ゴシック
100
AcDbText
  0
LINE
  5
2FB
330
1F
100
AcDbEntity
  8
D-4
  6
Continuous
 62
     7
370
     9
100
AcDbLine
 10
45.10973316367233
 20
351.9454863994155
 30
0.0
 11
123.6097331636726
 21
351.9454863994155
 31
0.0
  0
LWPOLYLINE
  5
2FC
330
1F
100
AcDbEntity
  8
D-4
  6
Continuous
 62
     7
370
     9
100
AcDbPolyline
 90
        4
 70
     1
 43
1.0
 10
46.60973316367255
 20
351.9454863994155
 42
0.4142135623731
 10
46.10973316367256
 20
352.4454863994154
 42
0.4142135623731
 10
45.60973316367256
 20
351.9454863994155
 42
0.4142135623731
 10
46.10973316367256
 20
351.4454863994155
 42
0.4142135623731
  0
LINE
  5
2FD
330
1F
100
AcDbEntity
  8
D-4
  6
Continuous
 62
     7
370
     9
100
AcDbLine
 10
46.10973316367256
 20
354.4454863994155
 30
0.0
 11
46.10973316367256
 21
351.9454863994155
 31
0.0
  0
LINE
  5
2FE
330
1F
100
AcDbEntity
  8
D-4
  6
Continuous
 62
     7
370
     9
100
AcDbLine
 10
45.10973316367233
 20
354.4454863994155
 30
0.0
 11
123.6097331636726
 21
354.4454863994155
 31
0.0
  0
LWPOLYLINE
  5
2FF
330
1F
100
AcDbEntity
  8
D-4
  6
Continuous
 62
     7
370
     9
100
AcDbPolyline
 90
        4
 70
     1
 43
1.0
 10
46.60973316367255
 20
354.4454863994155
 42
0.4142135623731
 10
46.10973316367256
 20
354.9454863994154
 42
0.4142135623731
 10
45.60973316367256
 20
354.4454863994155
 42
0.4142135623731
 10
46.10973316367256
 20
353.9454863994155
 42
0.4142135623731
  0
LWPOLYLINE
  5
300
330
1F
100
AcDbEntity
  8
その他
  6
Continuous
 62
     7
370
     9
100
AcDbPolyline
 90
        4
 70
     1
 43
1.0
 10
-62.17387135069754
 20
532.4263397832543
 42
0.4142135623731
 10
-62.67387135069754
 20
532.9263397832542
 42
0.4142135623731
 10
-63.17387135069754
 20
532.4263397832543
 42
0.4142135623731
 10
-62.67387135069754
 20
531.9263397832543
 42
0.4142135623731
  0
LINE
  5
301
330
1F
100
AcDbEntity
  8
その他
  6
Continuous
 62
     7
370
     9
100
AcDbLine
 10
-61.17387135069777
 20
532.4263397832543
 30
0.0
 11
-154.3101179958262
 21
532.4263397832543
 31
0.0
  0
LWPOLYLINE
  5
302
330
1F
100
AcDbEntity
  8
その他
  6
Continuous
 62
     7
370
     9
100
AcDbPolyline
 90
        4
 70
     1
 43
1.0
 10
-62.17387135069754
 20
-67.5736602167461
 42
0.4142135623731
 10
-62.67387135069754
 20
-67.0736602167461
 42
0.4142135623731
 10
-63.17387135069754
 20
-67.5736602167461
 42
0.4142135623731
 10
-62.67387135069754
 20
-68.07366021674609
 42
0.4142135623731
  0
LINE
  5
303
330
1F
100
AcDbEntity
  8
その他
  6
Continuous
 62
     7
370
     9
100
AcDbLine
 10
-61.17387135069777
 20
-67.5736602167461
 30
0.0
 11
-154.3101179958262
 21
-67.5736602167461
 31
0.0
  0
LINE
  5
304
330
1F
100
AcDbEntity
  8
その他
  6
Continuous
 62
     7
370
     9
100
AcDbLine
 10
-61.17387135069777
 20
57.4263397832539
 30
0.0
 11
-124.3123627816803
 21
57.4263397832539
 31
0.0
  0
LWPOLYLINE
  5
305
330
1F
100
AcDbEntity
  8
その他
  6
Continuous
 62
     7
370
     9
100
AcDbPolyline
 90
        4
 70
     1
 43
1.0
 10
-62.17387135069754
 20
57.4263397832539
 42
0.4142135623731
 10
-62.67387135069754
 20
57.9263397832539
 42
0.4142135623731
 10
-63.17387135069754
 20
57.4263397832539
 42
0.4142135623731
 10
-62.67387135069754
 20
56.9263397832539
 42
0.4142135623731
  0
LWPOLYLINE
  5
306
330
1F
100
AcDbEntity
  8
その他
  6
Continuous
 62
     7
370
     9
100
AcDbPolyline
 90
        4
 70
     1
 43
1.0
 10
-62.17387135069754
 20
407.4263397832543
 42
0.4142135623731
 10
-62.67387135069754
 20
407.9263397832543
 42
0.4142135623731
 10
-63.17387135069754
 20
407.4263397832543
 42
0.4142135623731
 10
-62.67387135069754
 20
406.9263397832543
 42
0.4142135623731
  0
LINE
  5
307
330
1F
100
AcDbEntity
  8
その他
  6
Continuous
 62
     7
370
     9
100
AcDbLine
 10
-61.17387135069777
 20
407.4263397832543
 30
0.0
 11
-124.3123627816803
 21
407.4263397832543
 31
0.0
  0
LINE
  5
308
330
1F
100
AcDbEntity
  8
通り芯
  6
JWW_CENTER1
 62
     7
370
     9
100
AcDbLine
 10
-787.5307075472565
 20
232.4263397832541
 30
0.0
 11
-142.4269289416154
 21
232.4263397832541
 31
0.0
  0
LINE
  5
309
330
1F
100
AcDbEntity
  8
通り芯
  6
JWW_CENTER1
 62
     7
370
     9
100
AcDbLine
 10
-464.3101179958261
 20
-85.87090656953512
 30
0.0
 11
-464.3101179958261
 21
553.2722546864521
 31
0.0
  0
LINE
  5
30A
330
1F
100
AcDbEntity
  8
D-4
  6
Continuous
 62
     7
370
     9
100
AcDbLine
 10
680.6291159077218
 20
207.7946154743134
 30
0.0
 11
680.6291159077218
 21
318.0513669603611
 31
0.0
  0
LINE
  5
30B
330
1F
100
AcDbEntity
  8
D-6
  6
Continuous
 62
     6
370
     9
100
AcDbLine
 10
483.1286365507426
 20
399.4455369918785
 30
0.0
 11
245.6287190306838
 21
399.4455369918785
 31
0.0
  0
LINE
  5
30C
330
1F
100
AcDbEntity
  8
D-6
  6
JWW_DASHED3
 62
     6
370
     9
100
AcDbLine
 10
299.903159486765
 20
399.4455369918785
 30
0.0
 11
319.9032254707176
 21
419.4456029758312
 31
0.0
  0
LINE
  5
30D
330
1F
100
AcDbEntity
  8
D-6
  6
Continuous
 62
     6
370
     9
100
AcDbLine
 10
312.4033244466468
 20
399.4455369918785
 30
0.0
 11
332.4031429907765
 21
419.4456029758312
 31
0.0
  0
LINE
  5
30E
330
1F
100
AcDbEntity
  8
D-6
  6
JWW_DASHED3
 62
     6
370
     9
100
AcDbLine
 10
324.9032419667057
 20
399.4455369918785
 30
0.0
 11
344.9033079506582
 21
419.4456029758312
 31
0.0
  0
LINE
  5
30F
330
1F
100
AcDbEntity
  8
D-6
  6
JWW_DASHED3
 62
     6
370
     9
100
AcDbLine
 10
349.9033244466468
 20
399.4455369918785
 30
0.0
 11
369.9033904305994
 21
419.4456029758312
 31
0.0
  0
LINE
  5
310
330
1F
100
AcDbEntity
  8
D-6
  6
Continuous
 62
     6
370
     9
100
AcDbLine
 10
337.403159486765
 20
399.4455369918785
 30
0.0
 11
357.4032254707176
 21
419.4456029758312
 31
0.0
  0
LINE
  5
311
330
1F
100
AcDbEntity
  8
D-6
  6
Continuous
 62
     6
370
     9
100
AcDbLine
 10
362.4032419667057
 20
399.4455369918785
 30
0.0
 11
382.4033079506582
 21
419.4456029758312
 31
0.0
  0
LINE
  5
312
330
1F
100
AcDbEntity
  8
D-6
  6
JWW_DASHED3
 62
     6
370
     9
100
AcDbLine
 10
374.903159486765
 20
399.4455369918785
 30
0.0
 11
394.9032254707176
 21
419.4456029758312
 31
0.0
  0
LINE
  5
313
330
1F
100
AcDbEntity
  8
D-6
  6
Continuous
 62
     6
370
     9
100
AcDbLine
 10
462.4033244466463
 20
399.4455369918785
 30
0.0
 11
482.4031429907765
 21
419.4456029758312
 31
0.0
  0
LINE
  5
314
330
1F
100
AcDbEntity
  8
D-6
  6
JWW_DASHED3
 62
     6
370
     9
100
AcDbLine
 10
449.9034069265874
 20
399.4455369918785
 30
0.0
 11
469.90347291054
 21
419.4456029758312
 31
0.0
  0
LINE
  5
315
330
1F
100
AcDbEntity
  8
D-6
  6
Continuous
 62
     6
370
     9
100
AcDbLine
 10
437.4032419667057
 20
399.4455369918785
 30
0.0
 11
457.4033079506582
 21
419.4456029758312
 31
0.0
  0
LINE
  5
316
330
1F
100
AcDbEntity
  8
D-6
  6
Continuous
 62
     6
370
     9
100
AcDbLine
 10
412.403159486765
 20
399.4455369918785
 30
0.0
 11
432.40347291054
 21
419.4456029758312
 31
0.0
  0
LINE
  5
317
330
1F
100
AcDbEntity
  8
D-6
  6
JWW_DASHED3
 62
     6
370
     9
100
AcDbLine
 10
424.9033244466468
 20
399.4455369918785
 30
0.0
 11
444.9031429907765
 21
419.4456029758312
 31
0.0
  0
LINE
  5
318
330
1F
100
AcDbEntity
  8
D-6
  6
JWW_DASHED3
 62
     6
370
     9
100
AcDbLine
 10
399.9032419667057
 20
399.4455369918785
 30
0.0
 11
419.9033079506582
 21
419.4456029758312
 31
0.0
  0
LINE
  5
319
330
1F
100
AcDbEntity
  8
D-6
  6
Continuous
 62
     6
370
     9
100
AcDbLine
 10
387.4033244466468
 20
399.4455369918785
 30
0.0
 11
407.4033904305994
 21
419.4456029758312
 31
0.0
  0
LINE
  5
31A
330
1F
100
AcDbEntity
  8
D-6
  6
JWW_DASHED3
 62
     6
370
     9
100
AcDbLine
 10
274.9030770068239
 20
399.4455369918785
 30
0.0
 11
294.9031429907765
 21
419.4456029758312
 31
0.0
  0
LINE
  5
31B
330
1F
100
AcDbEntity
  8
D-6
  6
Continuous
 62
     6
370
     9
100
AcDbLine
 10
287.4032419667057
 20
399.4455369918785
 30
0.0
 11
307.4030605108359
 21
419.4456029758312
 31
0.0
  0
LINE
  5
31C
330
1F
100
AcDbEntity
  8
D-6
  6
JWW_DASHED3
 62
     6
370
     9
100
AcDbLine
 10
249.9029945268833
 20
399.4455369918785
 30
0.0
 11
269.9030605108359
 21
419.4456029758312
 31
0.0
  0
LINE
  5
31D
330
1F
100
AcDbEntity
  8
D-6
  6
Continuous
 62
     6
370
     9
100
AcDbLine
 10
262.403159486765
 20
399.4455369918785
 30
0.0
 11
282.4029780308947
 21
419.4456029758312
 31
0.0
  0
LINE
  5
31E
330
1F
100
AcDbEntity
  8
D-6
  6
Continuous
 62
     6
370
     9
100
AcDbLine
 10
245.6287190306838
 20
407.6711790157383
 30
0.0
 11
257.4028955509541
 21
419.4456029758312
 31
0.0
  0
LINE
  5
31F
330
1F
100
AcDbEntity
  8
D-6
  6
JWW_DASHED3
 62
     6
370
     9
100
AcDbLine
 10
474.9032419667057
 20
399.4455369918785
 30
0.0
 11
483.1286365507426
 21
407.6709315759156
 31
0.0
  0
LINE
  5
320
330
1F
100
AcDbEntity
  8
D-6
  6
Continuous
 62
     6
370
     9
100
AcDbLine
 10
245.6287190306838
 20
399.4455369918785
 30
0.0
 11
245.6287190306838
 21
419.4456029758312
 31
0.0
  0
LINE
  5
321
330
1F
100
AcDbEntity
  8
D-6
  6
Continuous
 62
     6
370
     9
100
AcDbLine
 10
483.1286365507426
 20
399.4455369918785
 30
0.0
 11
483.1286365507426
 21
419.4456029758312
 31
0.0
  0
LINE
  5
322
330
1F
100
AcDbEntity
  8
D-6
  6
Continuous
 62
     6
370
     9
100
AcDbLine
 10
659.3793206923945
 20
419.4456029758312
 30
0.0
 11
245.6287190306838
 21
419.4456029758312
 31
0.0
  0
LINE
  5
323
330
1F
100
AcDbEntity
  8
D-6
  6
Continuous
 62
     6
370
     9
100
AcDbLine
 10
212.4034069265874
 20
399.4455369918785
 30
0.0
 11
232.4032254707176
 21
419.4456029758312
 31
0.0
  0
LINE
  5
324
330
1F
100
AcDbEntity
  8
D-6
  6
JWW_DASHED3
 62
     6
370
     9
100
AcDbLine
 10
199.9034894065286
 20
399.4455369918785
 30
0.0
 11
219.9035553904812
 21
419.4456029758312
 31
0.0
  0
LINE
  5
325
330
1F
100
AcDbEntity
  8
D-6
  6
Continuous
 62
     6
370
     9
100
AcDbLine
 10
187.4033244466468
 20
399.4455369918785
 30
0.0
 11
207.4033904305994
 21
419.4456029758312
 31
0.0
  0
LINE
  5
326
330
1F
100
AcDbEntity
  8
D-6
  6
Continuous
 62
     6
370
     9
100
AcDbLine
 10
162.4032419667062
 20
399.4455369918785
 30
0.0
 11
182.4035553904812
 21
419.4456029758312
 31
0.0
  0
LINE
  5
327
330
1F
100
AcDbEntity
  8
D-6
  6
JWW_DASHED3
 62
     6
370
     9
100
AcDbLine
 10
174.903406926588
 20
399.4455369918785
 30
0.0
 11
194.9032254707176
 21
419.4456029758312
 31
0.0
  0
LINE
  5
328
330
1F
100
AcDbEntity
  8
D-6
  6
JWW_DASHED3
 62
     6
370
     9
100
AcDbLine
 10
149.9033244466468
 20
399.4455369918785
 30
0.0
 11
169.9033904305994
 21
419.4456029758312
 31
0.0
  0
LINE
  5
329
330
1F
100
AcDbEntity
  8
D-6
  6
Continuous
 62
     6
370
     9
100
AcDbLine
 10
137.403406926588
 20
399.4455369918785
 30
0.0
 11
157.4034729105406
 21
419.4456029758312
 31
0.0
  0
LINE
  5
32A
330
1F
100
AcDbEntity
  8
D-6
  6
JWW_DASHED3
 62
     6
370
     9
100
AcDbLine
 10
224.9033244466468
 20
399.4455369918785
 30
0.0
 11
233.1287190306838
 21
407.6709315759156
 31
0.0
  0
LINE
  5
32B
330
1F
100
AcDbEntity
  8
D-6
  6
Continuous
 62
     6
370
     9
100
AcDbLine
 10
233.1287190306838
 20
399.4455369918785
 30
0.0
 11
233.1287190306838
 21
419.4456029758312
 31
0.0
  0
LINE
  5
32C
330
1F
100
AcDbEntity
  8
D-6
  6
Continuous
 62
     6
370
     9
100
AcDbLine
 10
233.1287190306838
 20
399.4455369918785
 30
0.0
 11
132.0629864659898
 21
399.4455369918785
 31
0.0
  0
LINE
  5
32D
330
1F
100
AcDbEntity
  8
D-6
  6
JWW_DASHED3
 62
     6
370
     9
100
AcDbLine
 10
132.0629864659898
 20
406.6052814911621
 30
0.0
 11
144.9033079506588
 21
419.4456029758312
 31
0.0
  0
LINE
  5
32E
330
1F
100
AcDbEntity
  8
D-6
  6
Continuous
 62
     6
370
     9
100
AcDbLine
 10
695.6292473441622
 20
416.9456230962824
 30
0.0
 11
708.1295696050736
 21
416.9456230962824
 31
0.0
  0
LINE
  5
32F
330
1F
100
AcDbEntity
  8
D-6
  6
Continuous
 62
     6
370
     9
100
AcDbLine
 10
708.1295696050736
 20
419.4456230962824
 30
0.0
 11
906.6359301016123
 21
419.4456230962824
 31
0.0
  0
LINE
  5
330
330
1F
100
AcDbEntity
  8
D-6
  6
Continuous
 62
     6
370
     9
100
AcDbLine
 10
495.9638970355056
 20
416.9456029758312
 30
0.0
 11
483.1286365507426
 21
416.9456029758312
 31
0.0
  0
LINE
  5
331
330
1F
100
AcDbEntity
  8
D-6
  6
Continuous
 62
     6
370
     9
100
AcDbLine
 10
245.6287190306838
 20
416.9456029758312
 30
0.0
 11
233.1287190306838
 21
416.9456029758312
 31
0.0
  0
LINE
  5
332
330
1F
100
AcDbEntity
  8
D-6
  6
Continuous
 62
     6
370
     9
100
AcDbLine
 10
233.1287190306838
 20
419.4456029758312
 30
0.0
 11
132.0629864659898
 21
419.4456029758312
 31
0.0
  0
LINE
  5
333
330
1F
100
AcDbEntity
  8
その他
  6
Continuous
 62
     7
370
     9
100
AcDbLine
 10
-897.6731664177375
 20
532.4263129183588
 30
0.0
 11
-897.6731664177375
 21
-67.5736602167461
 31
0.0
  0
TEXT
  5
334
330
1F
100
AcDbEntity
  8
その他
  6
Continuous
 62
     2
370
   211
100
AcDbText
 10
-902.9931664177376
 20
216.1763263508063
 30
0.0
 40
15.24
  1
600
 50
90.0
 41
1.083333333333333
  7
ＭＳ ゴシック
100
AcDbText
  0
LINE
  5
335
330
1F
100
AcDbEntity
  8
その他
  6
Continuous
 62
     7
370
     9
100
AcDbLine
 10
-857.6731664177375
 20
524.4262320880165
 30
0.0
 11
-857.6731664177375
 21
-59.57357938640403
 31
0.0
  0
TEXT
  5
336
330
1F
100
AcDbEntity
  8
その他
  6
Continuous
 62
     2
370
   211
100
AcDbText
 10
-862.9931664177376
 20
216.1763263508062
 30
0.0
 40
15.24
  1
584
 50
90.0
 41
1.083333333333333
  7
ＭＳ ゴシック
100
AcDbText
  0
LINE
  5
337
330
1F
100
AcDbEntity
  8
その他
  6
Continuous
 62
     7
370
     9
100
AcDbLine
 10
-817.6731664177375
 20
512.4262158276855
 30
0.0
 11
-817.6731664177375
 21
-47.57366811125468
 31
0.0
  0
TEXT
  5
338
330
1F
100
AcDbEntity
  8
その他
  6
Continuous
 62
     2
370
   211
100
AcDbText
 10
-822.9931664177376
 20
216.1762738582154
 30
0.0
 40
15.24
  1
560
 50
90.0
 41
1.083333333333333
  7
ＭＳ ゴシック
100
AcDbText
  0
LINE
  5
339
330
1F
100
AcDbEntity
  8
その他
  6
Continuous
 62
     7
370
     9
100
AcDbLine
 10
-764.3101460979201
 20
659.8006873827597
 30
0.0
 11
-164.3100679776336
 21
659.8006873827597
 31
0.0
  0
TEXT
  5
33A
330
1F
100
AcDbEntity
  8
その他
  6
Continuous
 62
     2
370
   211
100
AcDbText
 10
-480.5601070377769
 20
665.1206873827598
 30
0.0
 40
15.24
  1
600
 41
1.083333333333333
  7
ＭＳ ゴシック
100
AcDbText
  0
LINE
  5
33B
330
1F
100
AcDbEntity
  8
その他
  6
Continuous
 62
     7
370
     9
100
AcDbLine
 10
-756.3100652675782
 20
619.8006873827597
 30
0.0
 11
-172.3101488079755
 21
619.8006873827597
 31
0.0
  0
TEXT
  5
33C
330
1F
100
AcDbEntity
  8
その他
  6
Continuous
 62
     2
370
   211
100
AcDbText
 10
-480.5601070377769
 20
625.1206873827599
 30
0.0
 40
15.24
  1
584
 41
1.083333333333333
  7
ＭＳ ゴシック
100
AcDbText
  0
LINE
  5
33D
330
1F
100
AcDbEntity
  8
その他
  6
Continuous
 62
     7
370
     9
100
AcDbLine
 10
-744.3101014998379
 20
579.8006873827597
 30
0.0
 11
-184.310165068307
 21
579.8006873827597
 31
0.0
  0
TEXT
  5
33E
330
1F
100
AcDbEntity
  8
その他
  6
Continuous
 62
     2
370
   211
100
AcDbText
 10
-480.5601332840724
 20
585.1206873827598
 30
0.0
 40
15.24
  1
560
 41
1.083333333333333
  7
ＭＳ ゴシック
100
AcDbText
  0
LINE
  5
33F
330
1F
100
AcDbEntity
  8
その他
  6
Continuous
 62
     7
370
     9
100
AcDbLine
 10
-764.310117995826
 20
-146.5420284038093
 30
0.0
 11
-639.310117995826
 21
-146.5420284038093
 31
0.0
  0
TEXT
  5
340
330
1F
100
AcDbEntity
  8
その他
  6
Continuous
 62
     2
370
   211
100
AcDbText
 10
-718.060117995826
 20
-140.7220284038093
 30
0.0
 40
15.24
  1
125
 41
1.083333333333333
  7
ＭＳ ゴシック
100
AcDbText
  0
LINE
  5
341
330
1F
100
AcDbEntity
  8
その他
  6
Continuous
 62
     7
370
     9
100
AcDbLine
 10
-289.3101179958262
 20
-146.5420284038093
 30
0.0
 11
-164.3101179958262
 21
-146.5420284038093
 31
0.0
  0
TEXT
  5
342
330
1F
100
AcDbEntity
  8
その他
  6
Continuous
 62
     2
370
   211
100
AcDbText
 10
-243.0601179958262
 20
-140.7220284038093
 30
0.0
 40
15.24
  1
125
 41
1.083333333333333
  7
ＭＳ ゴシック
100
AcDbText
  0
LINE
  5
343
330
1F
100
AcDbEntity
  8
その他
  6
Continuous
 62
     7
370
     9
100
AcDbLine
 10
-639.310117995826
 20
-146.5420284038093
 30
0.0
 11
-289.3101179958262
 21
-146.5420284038093
 31
0.0
  0
TEXT
  5
344
330
1F
100
AcDbEntity
  8
その他
  6
Continuous
 62
     2
370
   211
100
AcDbText
 10
-480.5601179958261
 20
-140.7220284038093
 30
0.0
 40
15.24
  1
350
 41
1.083333333333333
  7
ＭＳ ゴシック
100
AcDbText
  0
LINE
  5
345
330
1F
100
AcDbEntity
  8
D-4
  6
Continuous
 62
     7
370
     9
100
AcDbLine
 10
-747.910875968787
 20
-296.8282060908511
 30
0.0
 11
-747.910875968787
 21
-384.32829705568
 31
0.0
  0
TEXT
  5
346
330
1F
100
AcDbEntity
  8
D-4
  6
Continuous
 62
     2
370
   211
100
AcDbText
 10
-753.230875968787
 20
-351.2032515732656
 30
0.0
 40
15.24
  1
35
 50
90.0
 41
1.0625
  7
ＭＳ ゴシック
100
AcDbText
  0
LINE
  5
347
330
1F
100
AcDbEntity
  8
D-4
  6
Continuous
 62
     7
370
     9
100
AcDbLine
 10
-710.410875968787
 20
-296.8282060908511
 30
0.0
 11
-710.410875968787
 21
-364.328206090851
 31
0.0
  0
TEXT
  5
348
330
1F
100
AcDbEntity
  8
D-4
  6
Continuous
 62
     2
370
   211
100
AcDbText
 10
-715.730875968787
 20
-341.203206090851
 30
0.0
 40
15.24
  1
27
 50
90.0
 41
1.062499999999998
  7
ＭＳ ゴシック
100
AcDbText
  0
LINE
  5
349
330
1F
100
AcDbEntity
  8
D-4
  6
Continuous
 62
     7
370
     9
100
AcDbLine
 10
853.3030768927522
 20
419.4456230962824
 30
0.0
 11
853.3030768927522
 21
331.9453874073769
 31
0.0
  0
TEXT
  5
34A
330
1F
100
AcDbEntity
  8
D-4
  6
Continuous
 62
     2
370
   211
100
AcDbText
 10
847.9830768927521
 20
365.0705052518296
 30
0.0
 40
15.24
  1
35
 50
90.0
 41
1.0625
  7
ＭＳ ゴシック
100
AcDbText
  0
LINE
  5
34B
330
1F
100
AcDbEntity
  8
D-4
  6
Continuous
 62
     7
370
     9
100
AcDbLine
 10
46.10973316367256
 20
419.4456029758312
 30
0.0
 11
46.10973316367256
 21
354.4454863994155
 31
0.0
  0
TEXT
  5
34C
330
1F
100
AcDbEntity
  8
D-4
  6
Continuous
 62
     2
370
   211
100
AcDbText
 10
40.78973316367256
 20
376.3205446876233
 30
0.0
 40
15.24
  1
26
 50
90.0
 41
1.0625
  7
ＭＳ ゴシック
100
AcDbText
  0
LINE
  5
34D
330
1F
100
AcDbEntity
  8
その他
  6
Continuous
 62
     7
370
     9
100
AcDbLine
 10
-62.67387135069754
 20
-67.5736602167461
 30
0.0
 11
-62.67387135069754
 21
57.4263397832539
 31
0.0
  0
TEXT
  5
34E
330
1F
100
AcDbEntity
  8
その他
  6
Continuous
 62
     2
370
   211
100
AcDbText
 10
-68.49387135069765
 20
-21.3236602167461
 30
0.0
 40
15.24
  1
125
 50
90.0
 41
1.083333333333333
  7
ＭＳ ゴシック
100
AcDbText
  0
LINE
  5
34F
330
1F
100
AcDbEntity
  8
その他
  6
Continuous
 62
     7
370
     9
100
AcDbLine
 10
-62.67387135069754
 20
407.4263397832543
 30
0.0
 11
-62.67387135069754
 21
532.4263397832543
 31
0.0
  0
TEXT
  5
350
330
1F
100
AcDbEntity
  8
その他
  6
Continuous
 62
     2
370
   211
100
AcDbText
 10
-68.49387135069765
 20
453.6763397832543
 30
0.0
 40
15.24
  1
125
 50
90.0
 41
1.083333333333333
  7
ＭＳ ゴシック
100
AcDbText
  0
LINE
  5
351
330
1F
100
AcDbEntity
  8
その他
  6
Continuous
 62
     7
370
     9
100
AcDbLine
 10
-62.67387135069754
 20
57.4263397832539
 30
0.0
 11
-62.67387135069754
 21
407.4263397832543
 31
0.0
  0
TEXT
  5
352
330
1F
100
AcDbEntity
  8
その他
  6
Continuous
 62
     2
370
   211
100
AcDbText
 10
-68.49387135069765
 20
216.1763397832541
 30
0.0
 40
15.24
  1
350
 50
90.0
 41
1.083333333333333
  7
ＭＳ ゴシック
100
AcDbText
  0
TEXT
  5
353
330
1F
100
AcDbEntity
  8
F-4ﾚｲﾔ
  6
Continuous
 62
     7
370
     9
100
AcDbText
 10
-411.3899231678487
 20
-681.3737706855791
 30
0.0
 40
11.43
  1
ステンレス製　ボルト固定式（施錠タイプ）　MSXL-M-600
  7
ＭＳ ゴシック
100
AcDbText
  0
TEXT
  5
354
330
1F
100
AcDbEntity
  8
D-5
  6
Continuous
 62
     7
370
     9
100
AcDbText
 10
460.9807965229732
 20
490.2089905635896
 30
0.0
 40
11.43
  1
ＳＣＳ１３
 41
1.133333333333333
  7
ＭＳ ゴシック
100
AcDbText
  0
LINE
  5
355
330
1F
100
AcDbEntity
  8
建具
  6
Continuous
 62
     2
370
     9
100
AcDbLine
 10
-389.3101213539381
 20
497.4263397832542
 30
0.0
 11
-339.3100361050276
 21
497.4263397832542
 31
0.0
  0
LINE
  5
356
330
1F
100
AcDbEntity
  8
建具
  6
JWW_DASHED2
 62
     2
370
     9
100
AcDbLine
 10
-348.1099990361859
 20
-32.57366021674589
 30
0.0
 11
-348.1099990361859
 21
497.4263397832542
 31
0.0
  0
LINE
  5
357
330
1F
100
AcDbEntity
  8
建具
  6
Continuous
 62
     2
370
     9
100
AcDbLine
 10
-349.3100321577734
 20
497.4263397832542
 30
0.0
 11
-349.3100321577734
 21
-32.57366021674589
 31
0.0
  0
LINE
  5
358
330
1F
100
AcDbEntity
  8
建具
  6
JWW_DASHED2
 62
     2
370
     9
100
AcDbLine
 10
-380.5101584227804
 20
497.4263397832542
 30
0.0
 11
-380.5101584227804
 21
-32.57366021674589
 31
0.0
  0
LINE
  5
359
330
1F
100
AcDbEntity
  8
建具
  6
Continuous
 62
     2
370
     9
100
AcDbLine
 10
-379.3101253011923
 20
497.4263397832542
 30
0.0
 11
-379.3101253011923
 21
-32.57366021674589
 31
0.0
  0
LINE
  5
35A
330
1F
100
AcDbEntity
  8
建具
  6
Continuous
 62
     2
370
     9
100
AcDbLine
 10
-389.3101213539381
 20
-32.57366021674589
 30
0.0
 11
-389.3101213539381
 21
497.4263397832542
 31
0.0
  0
LINE
  5
35B
330
1F
100
AcDbEntity
  8
建具
  6
Continuous
 62
     2
370
     9
100
AcDbLine
 10
-389.3101213539381
 20
-32.57366021674589
 30
0.0
 11
-339.3100361050276
 21
-32.57366021674589
 31
0.0
  0
LINE
  5
35C
330
1F
100
AcDbEntity
  8
建具
  6
Continuous
 62
     2
370
     9
100
AcDbLine
 10
-339.3100361050276
 20
-32.57366021674589
 30
0.0
 11
-339.3100361050276
 21
497.4263397832542
 31
0.0
  0
LINE
  5
35D
330
1F
100
AcDbEntity
  8
建具
  6
Continuous
 62
     2
370
     9
100
AcDbLine
 10
-539.3101146377139
 20
497.4263397832542
 30
0.0
 11
-589.3101998866243
 21
497.4263397832542
 31
0.0
  0
LINE
  5
35E
330
1F
100
AcDbEntity
  8
建具
  6
JWW_DASHED2
 62
     2
370
     9
100
AcDbLine
 10
-580.5102369554661
 20
-32.57366021674589
 30
0.0
 11
-580.5102369554661
 21
497.4263397832542
 31
0.0
  0
LINE
  5
35F
330
1F
100
AcDbEntity
  8
建具
  6
Continuous
 62
     2
370
     9
100
AcDbLine
 10
-579.3102038338792
 20
497.4263397832542
 30
0.0
 11
-579.3102038338792
 21
-32.57366021674589
 31
0.0
  0
LINE
  5
360
330
1F
100
AcDbEntity
  8
建具
  6
JWW_DASHED2
 62
     2
370
     9
100
AcDbLine
 10
-548.1100775688722
 20
497.4263397832542
 30
0.0
 11
-548.1100775688722
 21
-32.57366021674589
 31
0.0
  0
LINE
  5
361
330
1F
100
AcDbEntity
  8
建具
  6
Continuous
 62
     2
370
     9
100
AcDbLine
 10
-549.3101106904597
 20
497.4263397832542
 30
0.0
 11
-549.3101106904597
 21
-32.57366021674589
 31
0.0
  0
LINE
  5
362
330
1F
100
AcDbEntity
  8
建具
  6
Continuous
 62
     2
370
     9
100
AcDbLine
 10
-539.3101146377139
 20
-32.57366021674589
 30
0.0
 11
-539.3101146377139
 21
497.4263397832542
 31
0.0
  0
LINE
  5
363
330
1F
100
AcDbEntity
  8
建具
  6
Continuous
 62
     2
370
     9
100
AcDbLine
 10
-539.3101146377139
 20
-32.57366021674589
 30
0.0
 11
-589.3101998866243
 21
-32.57366021674589
 31
0.0
  0
LINE
  5
364
330
1F
100
AcDbEntity
  8
建具
  6
Continuous
 62
     2
370
     9
100
AcDbLine
 10
-589.3101998866243
 20
-32.57366021674589
 30
0.0
 11
-589.3101998866243
 21
497.4263397832542
 31
0.0
  0
LINE
  5
365
330
1F
100
AcDbEntity
  8
D-2
  6
Continuous
 62
     3
370
     9
100
AcDbLine
 10
596.8793408705235
 20
393.1954316828121
 30
0.0
 11
600.6293408705229
 21
393.1954316828121
 31
0.0
  0
LINE
  5
366
330
1F
100
AcDbEntity
  8
D-2
  6
Continuous
 62
     3
370
     9
100
AcDbLine
 10
615.6293408705235
 20
393.1954316828121
 30
0.0
 11
619.3793408705235
 21
393.1954316828121
 31
0.0
  0
LINE
  5
367
330
1F
100
AcDbEntity
  8
D-3
  6
Continuous
 62
     2
370
     9
100
AcDbLine
 10
258.1294520711582
 20
376.4455905745267
 30
0.0
 11
258.1294520711582
 21
379.4454765312797
 31
0.0
  0
LINE
  5
368
330
1F
100
AcDbEntity
  8
D-3
  6
Continuous
 62
     2
370
     9
100
AcDbLine
 10
133.1292389488821
 20
376.4455905745267
 30
0.0
 11
133.1292389488821
 21
379.4454765312797
 31
0.0
  0
LINE
  5
369
330
1F
100
AcDbEntity
  8
D-3
  6
Continuous
 62
     2
370
     9
100
AcDbLine
 10
238.6296356184836
 20
376.4455905745267
 30
0.0
 11
258.1294520711582
 21
376.4455905745267
 31
0.0
  0
LINE
  5
36A
330
1F
100
AcDbEntity
  8
D-3
  6
Continuous
 62
     2
370
     9
100
AcDbLine
 10
160.6294511874444
 20
357.4453067404299
 30
0.0
 11
230.629371064073
 21
357.4453067404299
 31
0.0
  0
LINE
  5
36B
330
1F
100
AcDbEntity
  8
D-3
  6
Continuous
 62
     2
370
     9
100
AcDbLine
 10
152.6290554015567
 20
376.4455905745267
 30
0.0
 11
133.1292389488821
 21
376.4455905745267
 31
0.0
  0
LINE
  5
36C
330
1F
100
AcDbEntity
  8
D-3
  6
Continuous
 62
     2
370
     9
100
AcDbLine
 10
233.1294619392936
 20
373.9454340835672
 30
0.0
 11
233.1294619392936
 21
359.9453976156505
 31
0.0
  0
LINE
  5
36D
330
1F
100
AcDbEntity
  8
D-3
  6
Continuous
 62
     2
370
     9
100
AcDbLine
 10
238.629373155529
 20
379.4454765312797
 30
0.0
 11
258.1294520711582
 21
379.4454765312797
 31
0.0
  0
LINE
  5
36E
330
1F
100
AcDbEntity
  8
D-3
  6
Continuous
 62
     2
370
     9
100
AcDbLine
 10
158.1292290807463
 20
373.9454340835672
 30
0.0
 11
158.1292290807463
 21
359.9453976156505
 31
0.0
  0
LINE
  5
36F
330
1F
100
AcDbEntity
  8
D-3
  6
Continuous
 62
     2
370
     9
100
AcDbLine
 10
152.6291866330338
 20
379.4454765312797
 30
0.0
 11
133.1292389488821
 21
379.4454765312797
 31
0.0
  0
LINE
  5
370
330
1F
100
AcDbEntity
  8
D-3
  6
Continuous
 62
     2
370
     9
100
AcDbLine
 10
236.129544743263
 20
359.9453976156505
 30
0.0
 11
236.129544743263
 21
373.9454340835672
 31
0.0
  0
LINE
  5
371
330
1F
100
AcDbEntity
  8
D-3
  6
Continuous
 62
     2
370
     9
100
AcDbLine
 10
155.1291462767773
 20
373.9454340835672
 30
0.0
 11
155.1291462767773
 21
359.9453976156505
 31
0.0
  0
ARC
  5
372
330
1F
100
AcDbEntity
  8
D-3
  6
Continuous
 62
     2
370
     9
100
AcDbCircle
 10
238.6296356184836
 20
373.9454340835672
 30
0.0
 40
2.499999628333971
100
AcDbArc
 50
90.0
 51
180.0
  0
ARC
  5
373
330
1F
100
AcDbEntity
  8
D-3
  6
Continuous
 62
     2
370
     9
100
AcDbCircle
 10
230.629371064073
 20
359.9453976156505
 30
0.0
 40
2.499999628333971
100
AcDbArc
 50
270.0
 51
0.0
  0
ARC
  5
374
330
1F
100
AcDbEntity
  8
D-3
  6
Continuous
 62
     2
370
     9
100
AcDbCircle
 10
160.6294511874444
 20
359.9453976156505
 30
0.0
 40
2.499999628333971
100
AcDbArc
 50
180.0
 51
270.0
  0
ARC
  5
375
330
1F
100
AcDbEntity
  8
D-3
  6
Continuous
 62
     2
370
     9
100
AcDbCircle
 10
152.6290554015567
 20
373.9454340835672
 30
0.0
 40
2.499999628333971
100
AcDbArc
 50
0.0
 51
90.0
  0
ARC
  5
376
330
1F
100
AcDbEntity
  8
D-3
  6
Continuous
 62
     2
370
     9
100
AcDbCircle
 10
238.629373155529
 20
373.9454340835672
 30
0.0
 40
5.499999900006878
100
AcDbArc
 50
90.0
 51
180.0
  0
ARC
  5
377
330
1F
100
AcDbEntity
  8
D-3
  6
Continuous
 62
     2
370
     9
100
AcDbCircle
 10
152.6291866330338
 20
373.9454340835672
 30
0.0
 40
5.499999900006878
100
AcDbArc
 50
0.0
 51
90.0
  0
ARC
  5
378
330
1F
100
AcDbEntity
  8
D-3
  6
Continuous
 62
     2
370
     9
100
AcDbCircle
 10
230.6295022955506
 20
359.9453976156505
 30
0.0
 40
5.499999900006878
100
AcDbArc
 50
270.0
 51
0.0
  0
ARC
  5
379
330
1F
100
AcDbEntity
  8
D-3
  6
Continuous
 62
     2
370
     9
100
AcDbCircle
 10
160.6289262615351
 20
359.9453976156505
 30
0.0
 40
5.499999900006878
100
AcDbArc
 50
180.0
 51
270.0
  0
LWPOLYLINE
  5
37A
330
1F
100
AcDbEntity
  8
D-4
  6
Continuous
 62
     7
370
     9
100
AcDbPolyline
 90
        4
 70
     1
 43
1.0
 10
84.10973316367256
 20
379.4454765312797
 42
0.4142135623731
 10
83.60973316367256
 20
379.9454765312797
 42
0.4142135623731
 10
83.10973316367254
 20
379.4454765312797
 42
0.4142135623731
 10
83.60973316367256
 20
378.9454765312797
 42
0.4142135623731
  0
LINE
  5
37B
330
1F
100
AcDbEntity
  8
D-4
  6
Continuous
 62
     7
370
     9
100
AcDbLine
 10
82.60973316367233
 20
379.4454765312797
 30
0.0
 11
123.6097331636726
 21
379.4454765312797
 31
0.0
  0
LINE
  5
37C
330
1F
100
AcDbEntity
  8
D-4
  6
Continuous
 62
     7
370
     9
100
AcDbLine
 10
83.60973316367256
 20
419.4456029758312
 30
0.0
 11
83.60973316367256
 21
379.4454765312797
 31
0.0
  0
TEXT
  5
37D
330
1F
100
AcDbEntity
  8
D-F
  6
Continuous
 62
     2
370
   211
100
AcDbText
 10
77.78973316367254
 20
388.8205397535555
 30
0.0
 40
15.24
  1
16
 50
90.0
 41
1.0625
  7
ＭＳ ゴシック
100
AcDbText
  0
LINE
  5
37E
330
1F
100
AcDbEntity
  8
D-7
  6
Continuous
 62
     3
370
     9
100
AcDbLine
 10
624.379209786331
 20
408.1954822017758
 30
0.0
 11
624.379209786331
 21
403.1954316828121
 31
0.0
  0
LINE
  5
37F
330
1F
100
AcDbEntity
  8
D-D
  6
Continuous
 62
     7
370
     9
100
AcDbLine
 10
624.8621416230229
 20
403.1954316828121
 30
0.0
 11
624.379209786331
 21
403.6783635195037
 31
0.0
  0
LINE
  5
380
330
1F
100
AcDbEntity
  8
D-D
  6
Continuous
 62
     7
370
     9
100
AcDbLine
 10
628.044242486093
 20
403.1954316828121
 30
0.0
 11
624.379209786331
 21
406.8604643825738
 31
0.0
  0
LINE
  5
381
330
1F
100
AcDbEntity
  8
D-D
  6
Continuous
 62
     7
370
     9
100
AcDbLine
 10
580.3145667807242
 20
403.1954316828121
 30
0.0
 11
580.0045980311957
 21
403.505334816602
 31
0.0
  0
LINE
  5
382
330
1F
100
AcDbEntity
  8
D-D
  6
Continuous
 62
     7
370
     9
100
AcDbLine
 10
583.4964051808399
 20
403.1954316828121
 30
0.0
 11
580.0045980311957
 21
406.6873044481949
 31
0.0
  0
LINE
  5
383
330
1F
100
AcDbEntity
  8
D-7
  6
Continuous
 62
     3
370
     9
100
AcDbLine
 10
591.8794719547147
 20
408.1950894791988
 30
0.0
 11
591.8794719547147
 21
403.1954316828121
 31
0.0
  0
LINE
  5
384
330
1F
100
AcDbEntity
  8
D-D
  6
Continuous
 62
     7
370
     9
100
AcDbLine
 10
591.8794719547147
 20
407.5405715140016
 30
0.0
 11
591.2246268826792
 21
408.1954822017758
 31
0.0
  0
LINE
  5
385
330
1F
100
AcDbEntity
  8
D-7
  6
Continuous
 62
     3
370
     9
100
AcDbLine
 10
636.25408370985
 20
408.1954316828121
 30
0.0
 11
636.25408370985
 21
403.1954316828121
 31
0.0
  0
LINE
  5
386
330
1F
100
AcDbEntity
  8
D-D
  6
Continuous
 62
     7
370
     9
100
AcDbLine
 10
636.25408370985
 20
407.7137314483805
 30
0.0
 11
635.7723777836483
 21
408.1954316828121
 31
0.0
  0
LINE
  5
387
330
1F
100
AcDbEntity
  8
D-D
  6
Continuous
 62
     7
370
     9
100
AcDbLine
 10
634.408444212233
 20
403.1954316828121
 30
0.0
 11
629.4084918326412
 21
408.1954316828121
 31
0.0
  0
LINE
  5
388
330
1F
100
AcDbEntity
  8
D-D
  6
Continuous
 62
     7
370
     9
100
AcDbLine
 10
636.25408370985
 20
404.5316305853103
 30
0.0
 11
632.5902826123486
 21
408.1954316828121
 31
0.0
  0
LINE
  5
389
330
1F
100
AcDbEntity
  8
D-D
  6
Continuous
 62
     7
370
     9
100
AcDbLine
 10
631.2263433491629
 20
403.1954316828121
 30
0.0
 11
626.226343349163
 21
408.1954316828121
 31
0.0
  0
LINE
  5
38A
330
1F
100
AcDbEntity
  8
D-D
  6
Continuous
 62
     7
370
     9
100
AcDbLine
 10
589.8606069069799
 20
403.1954316828121
 30
0.0
 11
584.8606069069803
 21
408.1954316828121
 31
0.0
  0
LINE
  5
38B
330
1F
100
AcDbEntity
  8
D-D
  6
Continuous
 62
     7
370
     9
100
AcDbLine
 10
591.8794719547147
 20
404.3584706509316
 30
0.0
 11
588.0424665079083
 21
408.1954316828121
 31
0.0
  0
LINE
  5
38C
330
1F
100
AcDbEntity
  8
D-D
  6
Continuous
 62
     7
370
     9
100
AcDbLine
 10
586.6785060439098
 20
403.1954316828121
 30
0.0
 11
581.6785552018348
 21
408.1954316828121
 31
0.0
  0
LINE
  5
38D
330
1F
100
AcDbEntity
  8
D-7
  6
Continuous
 62
     3
370
     9
100
AcDbLine
 10
580.0045980311957
 20
408.1954316828121
 30
0.0
 11
580.0045980311957
 21
403.1954316828121
 31
0.0
  0
LINE
  5
38E
330
1F
100
AcDbEntity
  8
D-5
  6
Continuous
 62
     2
370
     9
100
AcDbLine
 10
619.3793408705229
 20
408.1954822017758
 30
0.0
 11
619.3793408705229
 21
403.1954872831294
 31
0.0
  0
LINE
  5
38F
330
1F
100
AcDbEntity
  8
D-5
  6
Continuous
 62
     2
370
     9
100
AcDbLine
 10
596.8793918890207
 20
408.1954822017758
 30
0.0
 11
596.8793918890207
 21
403.1954872831294
 31
0.0
  0
LINE
  5
390
330
1F
100
AcDbEntity
  8
D-2
  6
JWW_CENTER1
 62
     3
370
     9
100
AcDbLine
 10
608.1293408705229
 20
422.4781065088758
 30
0.0
 11
608.1293408705229
 21
309.5277261200339
 31
0.0
  0
TEXT
  5
391
330
1F
100
AcDbEntity
  8
F-5ﾚｲﾔ
  6
Continuous
 62
     3
370
     9
100
AcDbText
 10
471.9295502927091
 20
-498.5638770622671
 30
0.0
 40
19.05
  1
※適用荷重：歩行用（3,500N/m2）
 41
1.096774193548387
  7
ＭＳ ゴシック
100
AcDbText
  0
LINE
  5
392
330
1F
100
AcDbEntity
  8
D-4
  6
Continuous
 62
     7
370
     9
100
AcDbLine
 10
148.5000429346067
 20
-438.163380767861
 30
0.0
 11
432.9804935390199
 21
-438.163380767861
 31
0.0
  0
TEXT
  5
393
330
1F
100
AcDbEntity
  8
D-4
  6
Continuous
 62
     2
370
     9
100
AcDbText
 10
159.920017596769
 20
-426.4670957303822
 30
0.0
 40
15.24
  1
把手部詳細図　Ｓ＝１：２
 41
1.114583333333334
  7
ＭＳ ゴシック
100
AcDbText
  0
LINE
  5
394
330
1F
100
AcDbEntity
  8
D-1
  6
Continuous
 62
     2
370
     9
100
AcDbLine
 10
148.4630877118851
 20
-338.4507751204429
 30
0.0
 11
130.9631077427283
 21
-355.9510175525548
 31
0.0
  0
LINE
  5
395
330
1F
100
AcDbEntity
  8
D-1
  6
Continuous
 62
     2
370
     9
100
AcDbLine
 10
130.9631077427283
 20
-355.9510175525548
 30
0.0
 11
418.395318935385
 21
-355.9510175525548
 31
0.0
  0
LINE
  5
396
330
1F
100
AcDbEntity
  8
D-1
  6
Continuous
 62
     2
370
     9
100
AcDbLine
 10
418.395318935385
 20
-338.4508234803234
 30
0.0
 11
148.4630877118851
 21
-338.4507751204429
 31
0.0
  0
LINE
  5
397
330
1F
100
AcDbEntity
  8
D-1
  6
JWW_DASHED3
 62
     2
370
     9
100
AcDbLine
 10
418.395318935385
 20
-305.9510372888263
 30
0.0
 11
180.9632192379339
 21
-305.9510372888263
 31
0.0
  0
LINE
  5
398
330
1F
100
AcDbEntity
  8
D-4
  6
Continuous
 62
     7
370
     9
100
AcDbLine
 10
491.3076549458823
 20
-355.9510175525548
 30
0.0
 11
491.3076549458823
 21
-338.4508234803234
 31
0.0
  0
LWPOLYLINE
  5
399
330
1F
100
AcDbEntity
  8
D-4
  6
Continuous
 62
     7
370
     9
100
AcDbPolyline
 90
        4
 70
     1
 43
1.0
 10
491.8076549458823
 20
-355.9510175525548
 42
0.4142135623731
 10
491.3076549458823
 20
-355.4510175525548
 42
0.4142135623731
 10
490.8076549458823
 20
-355.9510175525548
 42
0.4142135623731
 10
491.3076549458823
 20
-356.4510175525547
 42
0.4142135623731
  0
LWPOLYLINE
  5
39A
330
1F
100
AcDbEntity
  8
D-4
  6
Continuous
 62
     7
370
     9
100
AcDbPolyline
 90
        4
 70
     1
 43
1.0
 10
491.8076549458823
 20
-338.4508234803234
 42
0.4142135623731
 10
491.3076549458823
 20
-337.9508234803234
 42
0.4142135623731
 10
490.8076549458823
 20
-338.4508234803234
 42
0.4142135623731
 10
491.3076549458823
 20
-338.9508234803234
 42
0.4142135623731
  0
LINE
  5
39B
330
1F
100
AcDbEntity
  8
D-4
  6
Continuous
 62
     7
370
     9
100
AcDbLine
 10
492.3076549458825
 20
-355.9510175525548
 30
0.0
 11
428.395318935385
 21
-355.9510175525548
 31
0.0
  0
LINE
  5
39C
330
1F
100
AcDbEntity
  8
D-4
  6
Continuous
 62
     7
370
     9
100
AcDbLine
 10
492.3076549458825
 20
-338.4508234803234
 30
0.0
 11
428.395318935385
 21
-338.4508234803234
 31
0.0
  0
TEXT
  5
39D
330
1F
100
AcDbEntity
  8
D-4
  6
Continuous
 62
     2
370
   211
100
AcDbText
 10
485.9876549458823
 20
-352.2009205164391
 30
0.0
 40
15.24
  1
7
 50
90.0
 41
0.9999999999999998
  7
ＭＳ ゴシック
100
AcDbText
  0
LINE
  5
39E
330
1F
100
AcDbEntity
  8
D-4
  6
Continuous
 62
     7
370
     9
100
AcDbLine
 10
491.3076549458823
 20
-338.4508234803234
 30
0.0
 11
491.3076549458823
 21
-335.9508395147151
 31
0.0
  0
LWPOLYLINE
  5
39F
330
1F
100
AcDbEntity
  8
D-4
  6
Continuous
 62
     7
370
     9
100
AcDbPolyline
 90
        4
 70
     1
 43
1.0
 10
491.8076549458823
 20
-335.9508395147151
 42
0.4142135623731
 10
491.3076549458823
 20
-335.4508395147152
 42
0.4142135623731
 10
490.8076549458823
 20
-335.9508395147151
 42
0.4142135623731
 10
491.3076549458823
 20
-336.4508395147151
 42
0.4142135623731
  0
LINE
  5
3A0
330
1F
100
AcDbEntity
  8
D-4
  6
Continuous
 62
     7
370
     9
100
AcDbLine
 10
492.3076549458825
 20
-335.9508395147151
 30
0.0
 11
428.395318935385
 21
-335.9508395147151
 31
0.0
  0
LINE
  5
3A1
330
1F
100
AcDbEntity
  8
D-4
  6
Continuous
 62
     7
370
     9
100
AcDbLine
 10
491.3076549458823
 20
-335.9508395147151
 30
0.0
 11
491.3076549458823
 21
-318.4508585243517
 31
0.0
  0
LWPOLYLINE
  5
3A2
330
1F
100
AcDbEntity
  8
D-4
  6
Continuous
 62
     7
370
     9
100
AcDbPolyline
 90
        4
 70
     1
 43
1.0
 10
491.8076549458823
 20
-318.4508585243517
 42
0.4142135623731
 10
491.3076549458823
 20
-317.9508585243517
 42
0.4142135623731
 10
490.8076549458823
 20
-318.4508585243517
 42
0.4142135623731
 10
491.3076549458823
 20
-318.9508585243517
 42
0.4142135623731
  0
LINE
  5
3A3
330
1F
100
AcDbEntity
  8
D-4
  6
Continuous
 62
     7
370
     9
100
AcDbLine
 10
492.3076549458825
 20
-318.4508585243517
 30
0.0
 11
428.395318935385
 21
-318.4508585243517
 31
0.0
  0
TEXT
  5
3A4
330
1F
100
AcDbEntity
  8
D-4
  6
Continuous
 62
     2
370
   211
100
AcDbText
 10
485.9876549458823
 20
-332.2008490195335
 30
0.0
 40
15.24
  1
7
 50
90.0
 41
0.9999999999999998
  7
ＭＳ ゴシック
100
AcDbText
  0
LINE
  5
3A5
330
1F
100
AcDbEntity
  8
D-4
  6
Continuous
 62
     7
370
     9
100
AcDbLine
 10
491.3076549458823
 20
-318.4508585243517
 30
0.0
 11
491.3076549458823
 21
-155.9508585243524
 31
0.0
  0
LWPOLYLINE
  5
3A6
330
1F
100
AcDbEntity
  8
D-4
  6
Continuous
 62
     7
370
     9
100
AcDbPolyline
 90
        4
 70
     1
 43
1.0
 10
491.8076549458823
 20
-155.9508585243524
 42
0.4142135623731
 10
491.3076549458823
 20
-155.4508585243524
 42
0.4142135623731
 10
490.8076549458823
 20
-155.9508585243524
 42
0.4142135623731
 10
491.3076549458823
 20
-156.4508585243524
 42
0.4142135623731
  0
TEXT
  5
3A7
330
1F
100
AcDbEntity
  8
D-4
  6
Continuous
 62
     2
370
   211
100
AcDbText
 10
485.9876549458823
 20
-247.8258585243521
 30
0.0
 40
15.24
  1
65
 50
90.0
 41
1.0625
  7
ＭＳ ゴシック
100
AcDbText
  0
LINE
  5
3A8
330
1F
100
AcDbEntity
  8
D-4
  6
Continuous
 62
     7
370
     9
100
AcDbLine
 10
492.3076549458825
 20
-155.9508585243524
 30
0.0
 11
196.1471030464371
 21
-155.9508585243524
 31
0.0
  0
LINE
  5
3A9
330
1F
100
AcDbEntity
  8
D-1
  6
Continuous
 62
     2
370
     9
100
AcDbLine
 10
130.9631077427283
 20
-355.9510175525548
 30
0.0
 11
130.9631077427283
 21
-89.60367798568221
 31
0.0
  0
LINE
  5
3AA
330
1F
100
AcDbEntity
  8
D-1
  6
Continuous
 62
     2
370
     9
100
AcDbLine
 10
148.4631768766049
 20
-89.60367798568221
 30
0.0
 11
148.4630877118851
 21
-338.4507751204429
 31
0.0
  0
LINE
  5
3AB
330
1F
100
AcDbEntity
  8
D-1
  6
JWW_DASHED3
 62
     2
370
     9
100
AcDbLine
 10
180.9632192379339
 20
-305.9510372888263
 30
0.0
 11
180.9632192379339
 21
-89.60367798568221
 31
0.0
  0
LINE
  5
3AC
330
1F
100
AcDbEntity
  8
D-4
  6
Continuous
 62
     7
370
     9
100
AcDbLine
 10
130.9631077427283
 20
-44.01936106866962
 30
0.0
 11
148.4631768766049
 21
-44.01936106866962
 31
0.0
  0
LWPOLYLINE
  5
3AD
330
1F
100
AcDbEntity
  8
D-4
  6
Continuous
 62
     7
370
     9
100
AcDbPolyline
 90
        4
 70
     1
 43
1.0
 10
131.4631077427283
 20
-44.01936106866962
 42
0.4142135623731
 10
130.9631077427283
 20
-43.51936106866962
 42
0.4142135623731
 10
130.4631077427283
 20
-44.01936106866962
 42
0.4142135623731
 10
130.9631077427283
 20
-44.51936106866962
 42
0.4142135623731
  0
LWPOLYLINE
  5
3AE
330
1F
100
AcDbEntity
  8
D-4
  6
Continuous
 62
     7
370
     9
100
AcDbPolyline
 90
        4
 70
     1
 43
1.0
 10
148.9631768766049
 20
-44.01936106866962
 42
0.4142135623731
 10
148.4631768766049
 20
-43.51936106866962
 42
0.4142135623731
 10
147.9631768766049
 20
-44.01936106866962
 42
0.4142135623731
 10
148.4631768766049
 20
-44.51936106866962
 42
0.4142135623731
  0
LINE
  5
3AF
330
1F
100
AcDbEntity
  8
D-4
  6
Continuous
 62
     7
370
     9
100
AcDbLine
 10
130.9631077427283
 20
-43.01936106866968
 30
0.0
 11
130.9631077427283
 21
-79.60367798568221
 31
0.0
  0
LINE
  5
3B0
330
1F
100
AcDbEntity
  8
D-4
  6
Continuous
 62
     7
370
     9
100
AcDbLine
 10
148.4631768766049
 20
-43.01936106866968
 30
0.0
 11
148.4631768766049
 21
-79.60367798568221
 31
0.0
  0
LINE
  5
3B1
330
1F
100
AcDbEntity
  8
D-4
  6
Continuous
 62
     7
370
     9
100
AcDbLine
 10
148.4631768766049
 20
-44.01936106866962
 30
0.0
 11
150.9633098185832
 21
-44.01936106866962
 31
0.0
  0
LWPOLYLINE
  5
3B2
330
1F
100
AcDbEntity
  8
D-4
  6
Continuous
 62
     7
370
     9
100
AcDbPolyline
 90
        4
 70
     1
 43
1.0
 10
151.4633098185832
 20
-44.01936106866962
 42
0.4142135623731
 10
150.9633098185832
 20
-43.51936106866962
 42
0.4142135623731
 10
150.4633098185832
 20
-44.01936106866962
 42
0.4142135623731
 10
150.9633098185832
 20
-44.51936106866962
 42
0.4142135623731
  0
LINE
  5
3B3
330
1F
100
AcDbEntity
  8
D-4
  6
Continuous
 62
     7
370
     9
100
AcDbLine
 10
150.9633098185832
 20
-43.01936106866968
 30
0.0
 11
150.9633098185832
 21
-79.60367798568221
 31
0.0
  0
TEXT
  5
3B4
330
1F
100
AcDbEntity
  8
D-4
  6
Continuous
 62
     2
370
   211
100
AcDbText
 10
144.7132433475939
 20
-38.69936106866962
 30
0.0
 40
15.24
  1
1
 41
0.9999999999999998
  7
ＭＳ ゴシック
100
AcDbText
  0
LINE
  5
3B5
330
1F
100
AcDbEntity
  8
D-4
  6
Continuous
 62
     7
370
     9
100
AcDbLine
 10
150.9633098185832
 20
-44.01936106866962
 30
0.0
 11
168.4633108627999
 21
-44.01936106866962
 31
0.0
  0
LWPOLYLINE
  5
3B6
330
1F
100
AcDbEntity
  8
D-4
  6
Continuous
 62
     7
370
     9
100
AcDbPolyline
 90
        4
 70
     1
 43
1.0
 10
168.9633108627999
 20
-44.01936106866962
 42
0.4142135623731
 10
168.4633108627999
 20
-43.51936106866962
 42
0.4142135623731
 10
167.9633108627999
 20
-44.01936106866962
 42
0.4142135623731
 10
168.4633108627999
 20
-44.51936106866962
 42
0.4142135623731
  0
LINE
  5
3B7
330
1F
100
AcDbEntity
  8
D-4
  6
Continuous
 62
     7
370
     9
100
AcDbLine
 10
168.4633108627999
 20
-43.01936106866968
 30
0.0
 11
168.4633108627999
 21
-79.60367798568221
 31
0.0
  0
LINE
  5
3B8
330
1F
100
AcDbEntity
  8
D-4
  6
Continuous
 62
     7
370
     9
100
AcDbLine
 10
168.4633108627999
 20
-44.01936106866962
 30
0.0
 11
330.9633108627993
 21
-44.01936106866962
 31
0.0
  0
LWPOLYLINE
  5
3B9
330
1F
100
AcDbEntity
  8
D-4
  6
Continuous
 62
     7
370
     9
100
AcDbPolyline
 90
        4
 70
     1
 43
1.0
 10
331.4633108627993
 20
-44.01936106866962
 42
0.4142135623731
 10
330.9633108627993
 20
-43.51936106866962
 42
0.4142135623731
 10
330.4633108627993
 20
-44.01936106866962
 42
0.4142135623731
 10
330.9633108627993
 20
-44.51936106866962
 42
0.4142135623731
  0
TEXT
  5
3BA
330
1F
100
AcDbEntity
  8
D-4
  6
Continuous
 62
     2
370
   211
100
AcDbText
 10
239.0883108627996
 20
-38.69936106866962
 30
0.0
 40
15.24
  1
65
 41
1.0625
  7
ＭＳ ゴシック
100
AcDbText
  0
TEXT
  5
3BB
330
1F
100
AcDbEntity
  8
D-4
  6
Continuous
 62
     2
370
   211
100
AcDbText
 10
127.3504489673165
 20
-38.03862511298139
 30
0.0
 40
15.24
  1
7
 41
0.9999999999999998
  7
ＭＳ ゴシック
100
AcDbText
  0
TEXT
  5
3BC
330
1F
100
AcDbEntity
  8
D-4
  6
Continuous
 62
     2
370
   211
100
AcDbText
 10
161.5381395177839
 20
-38.95029686099381
 30
0.0
 40
15.24
  1
7
 41
0.9999999999999998
  7
ＭＳ ゴシック
100
AcDbText
  0
TEXT
  5
3BD
330
1F
100
AcDbEntity
  8
D-4
  6
Continuous
 62
     2
370
   211
100
AcDbText
 10
511.6048783973665
 20
-343.6483696419671
 30
0.0
 40
15.24
  1
1
 50
90.0
 41
0.9999999999999998
  7
ＭＳ ゴシック
100
AcDbText
  0
LINE
  5
3BE
330
1F
100
AcDbEntity
  8
D-4
  6
Continuous
 62
     7
370
     9
100
AcDbLine
 10
374.5971549648796
 20
-335.9508355779354
 30
0.0
 11
374.5971549648796
 21
-268.4507240123366
 31
0.0
  0
LWPOLYLINE
  5
3BF
330
1F
100
AcDbEntity
  8
D-4
  6
Continuous
 62
     7
370
     9
100
AcDbPolyline
 90
        4
 70
     1
 43
1.0
 10
375.0971549648796
 20
-335.9508355779354
 42
0.4142135623731
 10
374.5971549648796
 20
-335.4508355779354
 42
0.4142135623731
 10
374.0971549648796
 20
-335.9508355779354
 42
0.4142135623731
 10
374.5971549648796
 20
-336.4508355779353
 42
0.4142135623731
  0
LWPOLYLINE
  5
3C0
330
1F
100
AcDbEntity
  8
D-4
  6
Continuous
 62
     7
370
     9
100
AcDbPolyline
 90
        4
 70
     1
 43
1.0
 10
375.0971549648796
 20
-268.4507240123366
 42
0.4142135623731
 10
374.5971549648796
 20
-267.9507240123366
 42
0.4142135623731
 10
374.0971549648796
 20
-268.4507240123366
 42
0.4142135623731
 10
374.5971549648796
 20
-268.9507240123366
 42
0.4142135623731
  0
LINE
  5
3C1
330
1F
100
AcDbEntity
  8
D-4
  6
Continuous
 62
     7
370
     9
100
AcDbLine
 10
375.5971549648796
 20
-268.4507240123366
 30
0.0
 11
262.2128544229877
 21
-268.4507240123366
 31
0.0
  0
LINE
  5
3C2
330
1F
100
AcDbEntity
  8
D-4
  6
Continuous
 62
     7
370
     9
100
AcDbLine
 10
150.9633098185832
 20
-121.0307484834053
 30
0.0
 11
218.4628763570369
 21
-121.0307484834053
 31
0.0
  0
LWPOLYLINE
  5
3C3
330
1F
100
AcDbEntity
  8
D-4
  6
Continuous
 62
     7
370
     9
100
AcDbPolyline
 90
        4
 70
     1
 43
1.0
 10
151.4633098185832
 20
-121.0307484834053
 42
0.4142135623731
 10
150.9633098185832
 20
-120.5307484834053
 42
0.4142135623731
 10
150.4633098185832
 20
-121.0307484834053
 42
0.4142135623731
 10
150.9633098185832
 20
-121.5307484834053
 42
0.4142135623731
  0
LWPOLYLINE
  5
3C4
330
1F
100
AcDbEntity
  8
D-4
  6
Continuous
 62
     7
370
     9
100
AcDbPolyline
 90
        4
 70
     1
 43
1.0
 10
218.9628763570369
 20
-121.0307484834053
 42
0.4142135623731
 10
218.4628763570369
 20
-120.5307484834053
 42
0.4142135623731
 10
217.9628763570369
 20
-121.0307484834053
 42
0.4142135623731
 10
218.4628763570369
 20
-121.5307484834053
 42
0.4142135623731
  0
LINE
  5
3C5
330
1F
100
AcDbEntity
  8
D-4
  6
Continuous
 62
     7
370
     9
100
AcDbLine
 10
218.4628763570369
 20
-120.0307484834052
 30
0.0
 11
218.4628763570369
 21
-224.700877178118
 31
0.0
  0
TEXT
  5
3C6
330
1F
100
AcDbEntity
  8
D-4
  6
Continuous
 62
     2
370
   211
100
AcDbText
 10
184.0187985270596
 20
-116.630496771649
 30
0.0
 40
15.24
  1
27
 41
1.0625
  7
ＭＳ ゴシック
100
AcDbText
  0
TEXT
  5
3C7
330
1F
100
AcDbEntity
  8
D-4
  6
Continuous
 62
     2
370
   211
100
AcDbText
 10
370.8290039378258
 20
-304.6559973894974
 30
0.0
 40
15.24
  1
27
 50
90.0
 41
1.0625
  7
ＭＳ ゴシック
100
AcDbText
  0
LINE
  5
3C8
330
1F
100
AcDbEntity
  8
D-4
  6
Continuous
 62
     7
370
     9
100
AcDbLine
 10
330.9633108627993
 20
-43.01936106866968
 30
0.0
 11
330.9633108627993
 21
-289.9663633859377
 31
0.0
  0
LINE
  5
3C9
330
1F
100
AcDbEntity
  8
D-2
  6
JWW_CENTER2
 62
     3
370
     9
100
AcDbLine
 10
218.4628763570369
 20
-228.7720994431175
 30
0.0
 11
218.4628763570369
 21
-306.0175716478488
 31
0.0
  0
LINE
  5
3CA
330
1F
100
AcDbEntity
  8
D-2
  6
Continuous
 62
     3
370
     9
100
AcDbLine
 10
307.8563151896769
 20
-318.4509667390199
 30
0.0
 11
173.4633403067041
 21
-318.4509667390199
 31
0.0
  0
LINE
  5
3CB
330
1F
100
AcDbEntity
  8
D-2
  6
Continuous
 62
     3
370
     9
100
AcDbLine
 10
329.1326121513988
 20
-307.7815851665468
 30
0.0
 11
179.1326713602134
 21
-157.7808569864973
 31
0.0
  0
LINE
  5
3CC
330
1F
100
AcDbEntity
  8
D-2
  6
Continuous
 62
     3
370
     9
100
AcDbLine
 10
168.4632897877406
 20
-313.4510474515334
 30
0.0
 11
168.4632897877406
 21
-162.2004706810896
 31
0.0
  0
CIRCLE
  5
3CD
330
1F
100
AcDbEntity
  8
D-2
  6
Continuous
 62
     3
370
     9
100
AcDbCircle
 10
218.4631388199917
 20
-268.4508552438141
 30
0.0
 40
28.12448037637247
  0
CIRCLE
  5
3CE
330
1F
100
AcDbEntity
  8
D-2
  6
Continuous
 62
     3
370
     9
100
AcDbCircle
 10
218.463007588514
 20
-268.4507240123366
 30
0.0
 40
28.74992959747903
  0
CIRCLE
  5
3CF
330
1F
100
AcDbEntity
  8
D-2
  6
Continuous
 62
     3
370
     9
100
AcDbCircle
 10
218.463007588514
 20
-268.4507240123366
 30
0.0
 40
33.74984683447362
  0
ARC
  5
3D0
330
1F
100
AcDbEntity
  8
D-2
  6
Continuous
 62
     3
370
     9
100
AcDbCircle
 10
173.4633403067041
 20
-313.4510474515334
 30
0.0
 40
4.999999769290903
100
AcDbArc
 50
180.0
 51
270.0
  0
ARC
  5
3D1
330
1F
100
AcDbEntity
  8
D-2
  6
Continuous
 62
     3
370
     9
100
AcDbCircle
 10
174.7133201285759
 20
-162.2004706810896
 30
0.0
 40
6.249999583457888
100
AcDbArc
 50
45.0
 51
180.0
  0
LINE
  5
3D2
330
1F
100
AcDbEntity
  8
D-2
  6
Continuous
 62
     3
370
     9
100
AcDbLine
 10
169.9275706121439
 20
-316.9865546831389
 30
0.0
 11
150.9633098185832
 21
-335.9508154766996
 31
0.0
  0
LINE
  5
3D3
330
1F
100
AcDbEntity
  8
D-2
  6
Continuous
 62
     3
370
     9
100
AcDbLine
 10
324.7132609197611
 20
-318.4509667390199
 30
0.0
 11
307.8563151896769
 21
-318.4509667390199
 31
0.0
  0
ARC
  5
3D4
330
1F
100
AcDbEntity
  8
D-2
  6
Continuous
 62
     3
370
     9
100
AcDbCircle
 10
324.7132609197611
 20
-312.2009363981845
 30
0.0
 40
6.249999583457888
100
AcDbArc
 50
270.0
 51
45.0
  0
LINE
  5
3D5
330
1F
100
AcDbEntity
  8
D-2
  6
Continuous
 62
     3
370
     9
100
AcDbLine
 10
150.9633098185832
 20
-335.9508154766996
 30
0.0
 11
418.395318935385
 21
-335.9508395147151
 31
0.0
  0
LINE
  5
3D6
330
1F
100
AcDbEntity
  8
D-2
  6
Continuous
 62
     3
370
     9
100
AcDbLine
 10
418.395318935385
 20
-318.4508585243517
 30
0.0
 11
168.4632897877406
 21
-318.4508355075425
 31
0.0
  0
LINE
  5
3D7
330
1F
100
AcDbEntity
  8
D-2
  6
JWW_CENTER2
 62
     3
370
     9
100
AcDbLine
 10
181.8482443212624
 20
-268.4507240123366
 30
0.0
 11
256.9021508540506
 21
-268.4507240123366
 31
0.0
  0
LINE
  5
3D8
330
1F
100
AcDbEntity
  8
D-2
  6
Continuous
 62
     3
370
     9
100
AcDbLine
 10
168.4633108627999
 20
-89.60367798568221
 30
0.0
 11
168.4632897877406
 21
-318.4508355075425
 31
0.0
  0
LINE
  5
3D9
330
1F
100
AcDbEntity
  8
D-2
  6
Continuous
 62
     3
370
     9
100
AcDbLine
 10
150.9633098185832
 20
-335.9508154766996
 30
0.0
 11
150.9633098185832
 21
-89.60367798568221
 31
0.0
  0
CIRCLE
  5
3DA
330
1F
100
AcDbEntity
  8
D-2
  6
Continuous
 62
     3
370
     9
100
AcDbCircle
 10
218.4626830446755
 20
-268.4506930823587
 30
0.0
 40
25.0
  0
LINE
  5
3DB
330
1F
100
AcDbEntity
  8
D-2
  6
Continuous
 62
     3
370
     9
100
AcDbLine
 10
206.2129890452563
 20
-261.9555214580977
 30
0.0
 11
218.9629445060883
 21
-254.594434174525
 31
0.0
  0
LINE
  5
3DC
330
1F
100
AcDbEntity
  8
D-2
  6
Continuous
 62
     3
370
     9
100
AcDbLine
 10
218.9629445060883
 20
-282.3070757101038
 30
0.0
 11
206.2129890452563
 21
-274.9458647066198
 31
0.0
  0
LINE
  5
3DD
330
1F
100
AcDbEntity
  8
D-2
  6
Continuous
 62
     3
370
     9
100
AcDbLine
 10
230.2126104623272
 20
-275.8119040858427
 30
0.0
 11
230.2126104623272
 21
-261.0896057987861
 31
0.0
  0
ARC
  5
3DE
330
1F
100
AcDbEntity
  8
D-2
  6
Continuous
 62
     3
370
     9
100
AcDbCircle
 10
222.7130187380349
 20
-261.0896057987861
 30
0.0
 40
7.50000009665618
100
AcDbArc
 50
0.0
 51
120.0005493164062
  0
ARC
  5
3DF
330
1F
100
AcDbEntity
  8
D-2
  6
Continuous
 62
     3
370
     9
100
AcDbCircle
 10
209.9630632772029
 20
-268.4506930823587
 30
0.0
 40
7.50000009665618
100
AcDbArc
 50
120.0005493164062
 51
239.9994506835938
  0
ARC
  5
3E0
330
1F
100
AcDbEntity
  8
D-2
  6
Continuous
 62
     3
370
     9
100
AcDbCircle
 10
222.7130187380349
 20
-275.8119040858427
 30
0.0
 40
7.50000009665618
100
AcDbArc
 50
239.9994506835938
 51
0.0000000000000254
  0
TEXT
  5
3E1
330
1F
100
AcDbEntity
  8
F-5ﾚｲﾔ
  6
Continuous
 62
     3
370
     9
100
AcDbText
 10
471.9295502927092
 20
-535.4451969132517
 30
0.0
 40
19.05
  1
※仕上げ材充填時蓋質量：約23kg
 41
1.096666666666667
  7
ＭＳ ゴシック
100
AcDbText
  0
TEXT
  5
3E2
330
1F
100
AcDbEntity
  8
F-4ﾚｲﾔ
  6
Continuous
 62
     7
370
     9
100
AcDbText
 10
-412.2705227673124
 20
-660.698122543705
 30
0.0
 40
11.43
  1
フロアーハッチ　充填用（充填深さ：16mm）屋内外用　密閉形（防水・防臭形）
  7
ＭＳ ゴシック
100
AcDbText
  0
LINE
  5
3E3
330
1F
100
AcDbEntity
  8
D-5
  6
JWW_DASHED2
 62
     2
370
     9
100
AcDbLine
 10
592.3789919803729
 20
412.445452008226
 30
0.0
 11
592.3789919803729
 21
418.195452008226
 31
0.0
  0
ARC
  5
3E4
330
1F
100
AcDbEntity
  8
D-5
  6
JWW_DASHED2
 62
     2
370
     9
100
AcDbCircle
 10
592.8789919803729
 20
412.445452008226
 30
0.0
 40
0.5
100
AcDbArc
 50
180.0
 51
270.0
  0
LINE
  5
3E5
330
1F
100
AcDbEntity
  8
D-5
  6
JWW_DASHED2
 62
     2
370
     9
100
AcDbLine
 10
619.4418087033459
 20
411.945452008226
 30
0.0
 11
592.8789919803729
 21
411.945452008226
 31
0.0
  0
LINE
  5
3E6
330
1F
100
AcDbEntity
  8
D-5
  6
JWW_DASHED2
 62
     2
370
     9
100
AcDbLine
 10
619.9418087033459
 20
412.445452008226
 30
0.0
 11
619.9418087033459
 21
418.195452008226
 31
0.0
  0
ARC
  5
3E7
330
1F
100
AcDbEntity
  8
D-5
  6
JWW_DASHED2
 62
     2
370
     9
100
AcDbCircle
 10
619.4418087033459
 20
412.445452008226
 30
0.0
 40
0.5
100
AcDbArc
 50
270.0
 51
0.0
  0
LINE
  5
3E8
330
1F
100
AcDbEntity
  8
D-5
  6
Continuous
 62
     2
370
     9
100
AcDbLine
 10
583.1294819701362
 20
415.6954437602319
 30
0.0
 11
633.1294622338645
 21
415.6954437602319
 31
0.0
  0
LINE
  5
3E9
330
1F
100
AcDbEntity
  8
D-5
  6
Continuous
 62
     2
370
     9
100
AcDbLine
 10
583.129258390582
 20
418.195452008226
 30
0.0
 11
583.129258390582
 21
415.6954437602319
 31
0.0
  0
LINE
  5
3EA
330
1F
100
AcDbEntity
  8
D-5
  6
Continuous
 62
     2
370
     9
100
AcDbLine
 10
633.1289903307742
 20
415.6954437602319
 30
0.0
 11
633.1289903307742
 21
418.195452008226
 31
0.0
  0
LINE
  5
3EB
330
1F
100
AcDbEntity
  8
D-5
  6
Continuous
 62
     2
370
     9
100
AcDbLine
 10
583.129258390582
 20
415.6954437602319
 30
0.0
 11
590.6288487893696
 21
408.1954822017759
 31
0.0
  0
LINE
  5
3EC
330
1F
100
AcDbEntity
  8
D-5
  6
Continuous
 62
     2
370
     9
100
AcDbLine
 10
625.6288431924839
 20
408.1954822017759
 30
0.0
 11
590.6288487893696
 21
408.1954822017759
 31
0.0
  0
LINE
  5
3ED
330
1F
100
AcDbEntity
  8
D-5
  6
Continuous
 62
     2
370
     9
100
AcDbLine
 10
633.1289903307742
 20
415.6954437602319
 30
0.0
 11
625.6288431924839
 21
408.1954822017759
 31
0.0
  0
LINE
  5
3EE
330
1F
100
AcDbEntity
  8
D-7
  6
Continuous
 62
     3
370
     9
100
AcDbLine
 10
580.0045980311957
 20
408.1954316828121
 30
0.0
 11
590.6288993058332
 21
408.1954316828121
 31
0.0
  0
LINE
  5
3EF
330
1F
100
AcDbEntity
  8
D-7
  6
Continuous
 62
     3
370
     9
100
AcDbLine
 10
625.6287926722702
 20
408.1954316828121
 30
0.0
 11
636.25408370985
 21
408.1954316828121
 31
0.0
  0
ENDSEC
  0
SECTION
  2
OBJECTS
  0
DICTIONARY
  5
C
330
0
100
AcDbDictionary
281
     1
  3
ACAD_DETAILVIEWSTYLE
350
3F7
  3
ACAD_GROUP
350
D
  3
ACAD_LAYOUT
350
1A
  3
ACAD_MATERIAL
350
43
  3
ACAD_MLEADERSTYLE
350
6B
  3
ACAD_MLINESTYLE
350
17
  3
ACAD_PLOTSETTINGS
350
19
  3
ACAD_PLOTSTYLENAME
350
E
  3
ACAD_SCALELIST
350
47
  3
ACAD_SECTIONVIEWSTYLE
350
3F8
  3
ACAD_TABLESTYLE
350
69
  3
ACAD_VISUALSTYLE
350
2A
  3
ACDB_RECOMPOSE_DATA
350
3F4
  3
AcDbVariableDictionary
350
3F0
  0
SUN
  5
6D
330
29
100
AcDbSun
 90
        1
290
     0
 63
     7
421
 16777215
 40
1.0
291
     1
 91
  2455826
 92
 54000000
292
     0
 70
     2
 71
   256
280
     1
  0
DICTIONARY
  5
3F7
102
{ACAD_REACTORS
330
C
102
}
330
C
100
AcDbDictionary
281
     1
  0
DICTIONARY
  5
D
102
{ACAD_REACTORS
330
C
102
}
330
C
100
AcDbDictionary
281
     1
  0
DICTIONARY
  5
1A
102
{ACAD_REACTORS
330
C
102
}
330
C
100
AcDbDictionary
281
     1
  3
Layout1
350
1E
  3
Layout2
350
26
  3
Model
350
22
  0
DICTIONARY
  5
43
102
{ACAD_REACTORS
330
C
102
}
330
C
100
AcDbDictionary
281
     1
  3
ByBlock
350
45
  3
ByLayer
350
44
  3
Global
350
46
  0
DICTIONARY
  5
6B
102
{ACAD_REACTORS
330
C
102
}
330
C
100
AcDbDictionary
281
     1
  3
Standard
350
6C
  0
DICTIONARY
  5
17
102
{ACAD_REACTORS
330
C
102
}
330
C
100
AcDbDictionary
281
     1
  3
Standard
350
18
  0
DICTIONARY
  5
19
102
{ACAD_REACTORS
330
C
102
}
330
C
100
AcDbDictionary
281
     1
  0
ACDBDICTIONARYWDFLT
  5
E
102
{ACAD_REACTORS
330
C
102
}
330
C
100
AcDbDictionary
281
     1
  3
Normal
350
F
100
AcDbDictionaryWithDefault
340
F
  0
DICTIONARY
  5
47
102
{ACAD_REACTORS
330
C
102
}
330
C
100
AcDbDictionary
281
     1
  3
A0
350
48
  3
A1
350
49
  3
A2
350
4A
  3
A3
350
4B
  3
A4
350
4C
  3
A5
350
4D
  3
A6
350
4E
  3
A7
350
4F
  3
A8
350
50
  3
A9
350
51
  3
B0
350
52
  3
B1
350
53
  3
B2
350
54
  3
B3
350
55
  3
B4
350
56
  3
B5
350
57
  3
B6
350
58
  3
B7
350
59
  3
B8
350
5A
  3
B9
350
5B
  3
C0
350
5C
  3
C1
350
5D
  3
C2
350
5E
  3
C3
350
5F
  3
C4
350
60
  3
C5
350
61
  3
C6
350
62
  3
C7
350
63
  3
C8
350
64
  3
C9
350
65
  3
D0
350
66
  3
D1
350
67
  3
D2
350
68
  0
DICTIONARY
  5
3F8
102
{ACAD_REACTORS
330
C
102
}
330
C
100
AcDbDictionary
281
     1
  0
DICTIONARY
  5
69
102
{ACAD_REACTORS
330
C
102
}
330
C
100
AcDbDictionary
281
     1
  3
Standard
350
6A
  0
DICTIONARY
  5
2A
102
{ACAD_REACTORS
330
C
102
}
330
C
100
AcDbDictionary
281
     1
  3
2dWireframe
350
2F
  3
Basic
350
32
  3
Brighten
350
36
  3
ColorChange
350
3A
  3
Conceptual
350
34
  3
Dim
350
35
  3
EdgeColorOff
350
3D
  3
Facepattern
350
39
  3
Flat
350
2B
  3
FlatWithEdges
350
2C
  3
Gouraud
350
2D
  3
GouraudWithEdges
350
2E
  3
Hidden
350
31
  3
JitterOff
350
3B
  3
Linepattern
350
38
  3
OverhangOff
350
3C
  3
Realistic
350
33
  3
Shaded
350
42
  3
Shaded with edges
350
41
  3
Shades of Gray
350
3E
  3
Sketchy
350
3F
  3
Thicken
350
37
  3
Wireframe
350
30
  3
X-Ray
350
40
  0
XRECORD
  5
3F4
102
{ACAD_REACTORS
330
C
102
}
330
C
100
AcDbXrecord
280
     1
 90
        1
330
6A
  0
DICTIONARY
  5
3F0
102
{ACAD_REACTORS
330
C
102
}
330
C
100
AcDbDictionary
281
     1
  3
CANNOSCALE
350
3F1
  3
CENTEREXE
350
3F9
  3
CENTERLTYPEFILE
350
3FA
  3
CMLEADERSTYLE
350
3F6
  3
CTABLESTYLE
350
3F5
  0
LAYOUT
  5
1E
102
{ACAD_REACTORS
330
1A
102
}
330
1A
100
AcDbPlotSettings
  1

  2
none_device
  4

  6

 40
0.0
 41
0.0
 42
0.0
 43
0.0
 44
0.0
 45
0.0
 46
0.0
 47
0.0
 48
0.0
 49
0.0
140
0.0
141
0.0
142
1.0
143
1.0
 70
   688
 72
     1
 73
     0
 74
     5
  7

 75
    16
 76
     0
 77
     5
 78
   300
147
1.0
148
0.0
149
0.0
100
AcDbLayout
  1
Layout1
 70
     1
 71
     1
 10
0.0
 20
0.0
 11
420.0
 21
297.0
 12
0.0
 22
0.0
 32
0.0
 14
1.000000000000000E+20
 24
1.000000000000000E+20
 34
1.000000000000000E+20
 15
-1.000000000000000E+20
 25
-1.000000000000000E+20
 35
-1.000000000000000E+20
146
0.0
 13
0.0
 23
0.0
 33
0.0
 16
1.0
 26
0.0
 36
0.0
 17
0.0
 27
1.0
 37
0.0
 76
     0
330
1B
  0
LAYOUT
  5
26
102
{ACAD_REACTORS
330
1A
102
}
330
1A
100
AcDbPlotSettings
  1

  2
none_device
  4

  6

 40
0.0
 41
0.0
 42
0.0
 43
0.0
 44
0.0
 45
0.0
 46
0.0
 47
0.0
 48
0.0
 49
0.0
140
0.0
141
0.0
142
1.0
143
1.0
 70
   688
 72
     1
 73
     0
 74
     5
  7

 75
    16
 76
     0
 77
     5
 78
   300
147
1.0
148
0.0
149
0.0
100
AcDbLayout
  1
Layout2
 70
     1
 71
     2
 10
0.0
 20
0.0
 11
0.0
 21
0.0
 12
0.0
 22
0.0
 32
0.0
 14
0.0
 24
0.0
 34
0.0
 15
0.0
 25
0.0
 35
0.0
146
0.0
 13
0.0
 23
0.0
 33
0.0
 16
1.0
 26
0.0
 36
0.0
 17
0.0
 27
1.0
 37
0.0
 76
     0
330
23
  0
LAYOUT
  5
22
102
{ACAD_REACTORS
330
1A
102
}
330
1A
100
AcDbPlotSettings
  1

  2
none_device
  4
Letter_(8.50_x_11.00_Inches)
  6

 40
6.35
 41
6.35
 42
6.35000508
 43
6.35000508
 44
215.9
 45
279.4
 46
0.0
 47
0.0
 48
0.0
 49
0.0
140
0.0
141
0.0
142
1.0
143
1.0
 70
  1712
 72
     1
 73
     0
 74
     0
  7

 75
     0
 76
     0
 77
     5
 78
   300
147
1.0
148
0.0
149
0.0
100
AcDbLayout
  1
Model
 70
     1
 71
     0
 10
-1050.0
 20
-742.5
 11
1050.0
 21
742.5
 12
0.0
 22
0.0
 32
0.0
 14
-1050.0
 24
-742.5
 34
0.0
 15
1050.0
 25
742.5
 35
0.0
146
0.0
 13
0.0
 23
0.0
 33
0.0
 16
1.0
 26
0.0
 36
0.0
 17
0.0
 27
1.0
 37
0.0
 76
     0
330
1F
331
29
  0
MATERIAL
  5
45
102
{ACAD_REACTORS
330
43
102
}
330
43
100
AcDbMaterial
  1
ByBlock
 72
     1
 94
      127
  0
MATERIAL
  5
44
102
{ACAD_REACTORS
330
43
102
}
330
43
100
AcDbMaterial
  1
ByLayer
 72
     1
 94
      127
  0
MATERIAL
  5
46
102
{ACAD_REACTORS
330
43
102
}
330
43
100
AcDbMaterial
  1
Global
 72
     1
 94
      127
  0
MLEADERSTYLE
  5
6C
102
{ACAD_REACTORS
330
6B
102
}
330
6B
100
AcDbMLeaderStyle
179
     2
170
     2
171
     1
172
     0
 90
        2
 40
0.0
 41
0.0
173
     1
 91
-1056964608
340
14
 92
       -2
290
     1
 42
2.0
291
     1
 43
8.0
  3
Standard
341
0
 44
4.0
300

342
11
174
     1
178
     6
175
     1
176
     0
 93
-1056964608
 45
4.0
292
     0
297
     0
 46
4.0
343
0
 94
-1056964608
 47
1.0
 49
1.0
140
1.0
293
     1
141
0.0
294
     1
177
     0
142
1.0
295
     0
296
     0
143
3.75
271
     0
272
     9
273
     9
298
     0
  0
MLINESTYLE
  5
18
102
{ACAD_REACTORS
330
17
102
}
330
17
100
AcDbMlineStyle
  2
Standard
 70
     0
  3

 62
   256
 51
90.0
 52
90.0
 71
     2
 49
0.5
 62
   256
  6
BYLAYER
 49
-0.5
 62
   256
  6
BYLAYER
  0
ACDBPLACEHOLDER
  5
F
102
{ACAD_REACTORS
330
E
102
}
330
E
  0
SCALE
  5
48
102
{ACAD_REACTORS
330
47
102
}
330
47
100
AcDbScale
 70
     0
300
1:1
140
1.0
141
1.0
290
     1
  0
SCALE
  5
49
102
{ACAD_REACTORS
330
47
102
}
330
47
100
AcDbScale
 70
     0
300
1:2
140
1.0
141
2.0
290
     0
  0
SCALE
  5
4A
102
{ACAD_REACTORS
330
47
102
}
330
47
100
AcDbScale
 70
     0
300
1:4
140
1.0
141
4.0
290
     0
  0
SCALE
  5
4B
102
{ACAD_REACTORS
330
47
102
}
330
47
100
AcDbScale
 70
     0
300
1:5
140
1.0
141
5.0
290
     0
  0
SCALE
  5
4C
102
{ACAD_REACTORS
330
47
102
}
330
47
100
AcDbScale
 70
     0
300
1:8
140
1.0
141
8.0
290
     0
  0
SCALE
  5
4D
102
{ACAD_REACTORS
330
47
102
}
330
47
100
AcDbScale
 70
     0
300
1:10
140
1.0
141
10.0
290
     0
  0
SCALE
  5
4E
102
{ACAD_REACTORS
330
47
102
}
330
47
100
AcDbScale
 70
     0
300
1:16
140
1.0
141
16.0
290
     0
  0
SCALE
  5
4F
102
{ACAD_REACTORS
330
47
102
}
330
47
100
AcDbScale
 70
     0
300
1:20
140
1.0
141
20.0
290
     0
  0
SCALE
  5
50
102
{ACAD_REACTORS
330
47
102
}
330
47
100
AcDbScale
 70
     0
300
1:30
140
1.0
141
30.0
290
     0
  0
SCALE
  5
51
102
{ACAD_REACTORS
330
47
102
}
330
47
100
AcDbScale
 70
     0
300
1:40
140
1.0
141
40.0
290
     0
  0
SCALE
  5
52
102
{ACAD_REACTORS
330
47
102
}
330
47
100
AcDbScale
 70
     0
300
1:50
140
1.0
141
50.0
290
     0
  0
SCALE
  5
53
102
{ACAD_REACTORS
330
47
102
}
330
47
100
AcDbScale
 70
     0
300
1:100
140
1.0
141
100.0
290
     0
  0
SCALE
  5
54
102
{ACAD_REACTORS
330
47
102
}
330
47
100
AcDbScale
 70
     0
300
2:1
140
2.0
141
1.0
290
     0
  0
SCALE
  5
55
102
{ACAD_REACTORS
330
47
102
}
330
47
100
AcDbScale
 70
     0
300
4:1
140
4.0
141
1.0
290
     0
  0
SCALE
  5
56
102
{ACAD_REACTORS
330
47
102
}
330
47
100
AcDbScale
 70
     0
300
8:1
140
8.0
141
1.0
290
     0
  0
SCALE
  5
57
102
{ACAD_REACTORS
330
47
102
}
330
47
100
AcDbScale
 70
     0
300
10:1
140
10.0
141
1.0
290
     0
  0
SCALE
  5
58
102
{ACAD_REACTORS
330
47
102
}
330
47
100
AcDbScale
 70
     0
300
100:1
140
100.0
141
1.0
290
     0
  0
SCALE
  5
59
102
{ACAD_REACTORS
330
47
102
}
330
47
100
AcDbScale
 70
     0
300
1/128" = 1'-0"
140
0.0078125
141
12.0
290
     0
  0
SCALE
  5
5A
102
{ACAD_REACTORS
330
47
102
}
330
47
100
AcDbScale
 70
     0
300
1/64" = 1'-0"
140
0.015625
141
12.0
290
     0
  0
SCALE
  5
5B
102
{ACAD_REACTORS
330
47
102
}
330
47
100
AcDbScale
 70
     0
300
1/32" = 1'-0"
140
0.03125
141
12.0
290
     0
  0
SCALE
  5
5C
102
{ACAD_REACTORS
330
47
102
}
330
47
100
AcDbScale
 70
     0
300
1/16" = 1'-0"
140
0.0625
141
12.0
290
     0
  0
SCALE
  5
5D
102
{ACAD_REACTORS
330
47
102
}
330
47
100
AcDbScale
 70
     0
300
3/32" = 1'-0"
140
0.09375
141
12.0
290
     0
  0
SCALE
  5
5E
102
{ACAD_REACTORS
330
47
102
}
330
47
100
AcDbScale
 70
     0
300
1/8" = 1'-0"
140
0.125
141
12.0
290
     0
  0
SCALE
  5
5F
102
{ACAD_REACTORS
330
47
102
}
330
47
100
AcDbScale
 70
     0
300
3/16" = 1'-0"
140
0.1875
141
12.0
290
     0
  0
SCALE
  5
60
102
{ACAD_REACTORS
330
47
102
}
330
47
100
AcDbScale
 70
     0
300
1/4" = 1'-0"
140
0.25
141
12.0
290
     0
  0
SCALE
  5
61
102
{ACAD_REACTORS
330
47
102
}
330
47
100
AcDbScale
 70
     0
300
3/8" = 1'-0"
140
0.375
141
12.0
290
     0
  0
SCALE
  5
62
102
{ACAD_REACTORS
330
47
102
}
330
47
100
AcDbScale
 70
     0
300
1/2" = 1'-0"
140
0.5
141
12.0
290
     0
  0
SCALE
  5
63
102
{ACAD_REACTORS
330
47
102
}
330
47
100
AcDbScale
 70
     0
300
3/4" = 1'-0"
140
0.75
141
12.0
290
     0
  0
SCALE
  5
64
102
{ACAD_REACTORS
330
47
102
}
330
47
100
AcDbScale
 70
     0
300
1" = 1'-0"
140
1.0
141
12.0
290
     0
  0
SCALE
  5
65
102
{ACAD_REACTORS
330
47
102
}
330
47
100
AcDbScale
 70
     0
300
1-1/2" = 1'-0"
140
1.5
141
12.0
290
     0
  0
SCALE
  5
66
102
{ACAD_REACTORS
330
47
102
}
330
47
100
AcDbScale
 70
     0
300
3" = 1'-0"
140
3.0
141
12.0
290
     0
  0
SCALE
  5
67
102
{ACAD_REACTORS
330
47
102
}
330
47
100
AcDbScale
 70
     0
300
6" = 1'-0"
140
6.0
141
12.0
290
     0
  0
SCALE
  5
68
102
{ACAD_REACTORS
330
47
102
}
330
47
100
AcDbScale
 70
     0
300
1'-0" = 1'-0"
140
12.0
141
12.0
290
     0
  0
TABLESTYLE
  5
6A
102
{ACAD_REACTORS
330
69
102
}
102
{ACAD_XDICTIONARY
360
3F2
102
}
330
69
100
AcDbTableStyle
  3
Standard
 70
     0
 71
     0
 40
0.06
 41
0.06
280
     0
281
     0
  7
Standard
140
4.5
170
     2
 62
     0
 63
   257
283
     0
 90
        4
 91
        0
  1

274
    -2
284
     1
 64
     0
275
    -2
285
     1
 65
     0
276
    -2
286
     1
 66
     0
277
    -2
287
     1
 67
     0
278
    -2
288
     1
 68
     0
279
    -2
289
     1
 69
     0
  7
Standard
140
6.0
170
     5
 62
     0
 63
   257
283
     0
 90
        4
 91
        0
  1

274
    -2
284
     1
 64
     0
275
    -2
285
     1
 65
     0
276
    -2
286
     1
 66
     0
277
    -2
287
     1
 67
     0
278
    -2
288
     1
 68
     0
279
    -2
289
     1
 69
     0
  7
Standard
140
4.5
170
     5
 62
     0
 63
   257
283
     0
 90
        4
 91
        0
  1

274
    -2
284
     1
 64
     0
275
    -2
285
     1
 65
     0
276
    -2
286
     1
 66
     0
277
    -2
287
     1
 67
     0
278
    -2
288
     1
 68
     0
279
    -2
289
     1
 69
     0
  0
VISUALSTYLE
  5
2F
102
{ACAD_REACTORS
330
2A
102
}
330
2A
100
AcDbVisualStyle
  2
2dWireframe
 70
     4
177
     3
291
     0
 70
    58
 90
        0
176
     1
 90
        2
176
     1
 90
        0
176
     1
 90
        0
176
     1
 40
0.6
176
     1
 40
30.0
176
     1
 62
     7
420
 16777215
176
     1
 90
        1
176
     1
 90
        4
176
     1
 62
     7
176
     1
 62
   257
176
     1
 90
        1
176
     1
 90
        1
176
     1
 40
1.0
176
     1
 90
        0
176
     1
 62
   257
176
     1
 40
1.0
176
     1
 90
        1
176
     1
 90
        6
176
     1
 90
        2
176
     1
 62
     7
176
     1
 90
        5
176
     1
 90
        0
176
     1
 90
        0
176
     1
290
     0
176
     1
 90
        1
176
     1
 40
0.0
176
     1
 90
        0
176
     1
290
     1
176
     1
290
     1
176
     1
290
     0
176
     1
290
     0
176
     1
290
     0
176
     1
290
     0
176
     1
290
     0
176
     1
290
     0
176
     1
290
     0
176
     1
 90
       50
176
     1
 40
0.0
176
     1
 40
1.0
176
     1
 90
        0
176
     1
 62
    18
420
        0
176
     1
 90
       50
176
     1
 90
        3
176
     1
 62
     5
420
      255
176
     1
290
     0
176
     1
 90
       50
176
     1
 90
       50
176
     1
 90
       50
176
     1
290
     0
176
     1
 90
       50
176
     1
 62
   256
176
     0
 40
1.0
176
     0
 90
        2
176
     1
  1
strokes_ogs.tif
176
     1
290
     0
176
     1
 40
1.0
176
     1
 40
1.0
176
     1
  0
VISUALSTYLE
  5
32
102
{ACAD_REACTORS
330
2A
102
}
330
2A
100
AcDbVisualStyle
  2
Basic
 70
     7
177
     3
291
     1
 70
    58
 90
        1
176
     1
 90
        0
176
     1
 90
        1
176
     1
 90
        0
176
     1
 40
0.6
176
     1
 40
30.0
176
     1
 62
     7
420
 16777215
176
     1
 90
        0
176
     1
 90
        4
176
     1
 62
     7
176
     1
 62
   257
176
     1
 90
        1
176
     1
 90
        1
176
     1
 40
1.0
176
     1
 90
        8
176
     1
 62
     7
176
     1
 40
1.0
176
     1
 90
        1
176
     1
 90
        6
176
     1
 90
        2
176
     1
 62
     7
176
     1
 90
        5
176
     1
 90
        0
176
     1
 90
        0
176
     1
290
     0
176
     1
 90
        1
176
     1
 40
0.0
176
     1
 90
        0
176
     1
290
     0
176
     1
290
     1
176
     1
290
     1
176
     1
290
     0
176
     1
290
     0
176
     1
290
     0
176
     1
290
     0
176
     1
290
     0
176
     1
290
     0
176
     1
 90
       50
176
     1
 40
0.0
176
     1
 40
1.0
176
     1
 90
        0
176
     1
 62
    18
420
        0
176
     1
 90
       50
176
     1
 90
        3
176
     1
 62
     5
420
      255
176
     1
290
     0
176
     1
 90
       50
176
     1
 90
       50
176
     1
 90
       50
176
     1
290
     0
176
     1
 90
       50
176
     1
 62
   256
176
     0
 40
1.0
176
     0
 90
        2
176
     1
  1
strokes_ogs.tif
176
     1
290
     0
176
     1
 40
1.0
176
     1
 40
1.0
176
     1
  0
VISUALSTYLE
  5
36
102
{ACAD_REACTORS
330
2A
102
}
330
2A
100
AcDbVisualStyle
  2
Brighten
 70
    12
177
     3
291
     1
 70
    58
 90
        2
176
     1
 90
        2
176
     1
 90
        0
176
     1
 90
        0
176
     1
 40
0.6
176
     1
 40
30.0
176
     1
 62
     7
420
 16777215
176
     1
 90
        1
176
     1
 90
        4
176
     1
 62
     7
176
     1
 62
   257
176
     1
 90
        1
176
     1
 90
        1
176
     1
 40
1.0
176
     1
 90
        8
176
     1
 62
     7
176
     1
 40
1.0
176
     1
 90
        1
176
     1
 90
        6
176
     1
 90
        2
176
     1
 62
     7
176
     1
 90
        5
176
     1
 90
        0
176
     1
 90
        0
176
     1
290
     0
176
     1
 90
        1
176
     1
 40
50.0
176
     1
 90
        0
176
     1
290
     0
176
     1
290
     1
176
     1
290
     1
176
     1
290
     0
176
     1
290
     0
176
     1
290
     0
176
     1
290
     0
176
     1
290
     0
176
     1
290
     0
176
     1
 90
       50
176
     1
 40
0.0
176
     1
 40
1.0
176
     1
 90
        0
176
     1
 62
    18
420
        0
176
     1
 90
       50
176
     1
 90
        3
176
     1
 62
     5
420
      255
176
     1
290
     0
176
     1
 90
       50
176
     1
 90
       50
176
     1
 90
       50
176
     1
290
     0
176
     1
 90
       50
176
     1
 62
   256
176
     0
 40
1.0
176
     0
 90
        2
176
     1
  1
strokes_ogs.tif
176
     1
290
     0
176
     1
 40
1.0
176
     1
 40
1.0
176
     1
  0
VISUALSTYLE
  5
3A
102
{ACAD_REACTORS
330
2A
102
}
330
2A
100
AcDbVisualStyle
  2
ColorChange
 70
    16
177
     3
291
     1
 70
    58
 90
        2
176
     1
 90
        2
176
     1
 90
        3
176
     1
 90
        0
176
     1
 40
0.6
176
     1
 40
30.0
176
     1
 62
     8
420
  8421504
176
     1
 90
        1
176
     1
 90
        4
176
     1
 62
     7
176
     1
 62
   257
176
     1
 90
        1
176
     1
 90
        1
176
     1
 40
1.0
176
     1
 90
        8
176
     1
 62
     8
420
  8421504
176
     1
 40
1.0
176
     1
 90
        1
176
     1
 90
        6
176
     1
 90
        2
176
     1
 62
     7
176
     1
 90
        5
176
     1
 90
        0
176
     1
 90
        0
176
     1
290
     0
176
     1
 90
        1
176
     1
 40
0.0
176
     1
 90
        0
176
     1
290
     0
176
     1
290
     1
176
     1
290
     1
176
     1
290
     0
176
     1
290
     0
176
     1
290
     0
176
     1
290
     0
176
     1
290
     0
176
     1
290
     0
176
     1
 90
       50
176
     1
 40
0.0
176
     1
 40
1.0
176
     1
 90
        0
176
     1
 62
    18
420
        0
176
     1
 90
       50
176
     1
 90
        3
176
     1
 62
     5
420
      255
176
     1
290
     0
176
     1
 90
       50
176
     1
 90
       50
176
     1
 90
       50
176
     1
290
     0
176
     1
 90
       50
176
     1
 62
   256
176
     0
 40
1.0
176
     0
 90
        2
176
     1
  1
strokes_ogs.tif
176
     1
290
     0
176
     1
 40
1.0
176
     1
 40
1.0
176
     1
  0
VISUALSTYLE
  5
34
102
{ACAD_REACTORS
330
2A
102
}
330
2A
100
AcDbVisualStyle
  2
Conceptual
 70
     9
177
     3
291
     0
 70
    58
 90
        3
176
     1
 90
        2
176
     1
 90
        0
176
     1
 90
        0
176
     1
 40
0.6
176
     1
 40
30.0
176
     1
 62
     7
420
 16777215
176
     1
 90
        2
176
     1
 90
        2
176
     1
 62
     7
176
     1
 62
   257
176
     1
 90
        1
176
     1
 90
        1
176
     1
 40
179.0
176
     1
 90
        8
176
     1
 62
     7
176
     1
 40
1.0
176
     1
 90
        1
176
     1
 90
        6
176
     1
 90
        2
176
     1
 62
     7
176
     1
 90
        3
176
     1
 90
        0
176
     1
 90
        0
176
     1
290
     0
176
     1
 90
        1
176
     1
 40
0.0
176
     1
 90
        0
176
     1
290
     0
176
     1
290
     1
176
     1
290
     1
176
     1
290
     0
176
     1
290
     0
176
     1
290
     0
176
     1
290
     0
176
     1
290
     0
176
     1
290
     0
176
     1
 90
       50
176
     1
 40
0.0
176
     1
 40
1.0
176
     1
 90
        0
176
     1
 62
    18
420
        0
176
     1
 90
       50
176
     1
 90
        3
176
     1
 62
     5
420
      255
176
     1
290
     0
176
     1
 90
       50
176
     1
 90
       50
176
     1
 90
       50
176
     1
290
     0
176
     1
 90
       50
176
     1
 62
   256
176
     0
 40
1.0
176
     0
 90
        2
176
     1
  1
strokes_ogs.tif
176
     1
290
     0
176
     1
 40
1.0
176
     1
 40
1.0
176
     1
  0
VISUALSTYLE
  5
35
102
{ACAD_REACTORS
330
2A
102
}
330
2A
100
AcDbVisualStyle
  2
Dim
 70
    11
177
     3
291
     1
 70
    58
 90
        2
176
     1
 90
        2
176
     1
 90
        0
176
     1
 90
        0
176
     1
 40
0.6
176
     1
 40
30.0
176
     1
 62
     7
420
 16777215
176
     1
 90
        1
176
     1
 90
        4
176
     1
 62
     7
176
     1
 62
   257
176
     1
 90
        1
176
     1
 90
        1
176
     1
 40
1.0
176
     1
 90
        8
176
     1
 62
     7
176
     1
 40
1.0
176
     1
 90
        1
176
     1
 90
        6
176
     1
 90
        2
176
     1
 62
     7
176
     1
 90
        5
176
     1
 90
        0
176
     1
 90
        0
176
     1
290
     0
176
     1
 90
        1
176
     1
 40
-50.0
176
     1
 90
        0
176
     1
290
     0
176
     1
290
     1
176
     1
290
     1
176
     1
290
     0
176
     1
290
     0
176
     1
290
     0
176
     1
290
     0
176
     1
290
     0
176
     1
290
     0
176
     1
 90
       50
176
     1
 40
0.0
176
     1
 40
1.0
176
     1
 90
        0
176
     1
 62
    18
420
        0
176
     1
 90
       50
176
     1
 90
        3
176
     1
 62
     5
420
      255
176
     1
290
     0
176
     1
 90
       50
176
     1
 90
       50
176
     1
 90
       50
176
     1
290
     0
176
     1
 90
       50
176
     1
 62
   256
176
     0
 40
1.0
176
     0
 90
        2
176
     1
  1
strokes_ogs.tif
176
     1
290
     0
176
     1
 40
1.0
176
     1
 40
1.0
176
     1
  0
VISUALSTYLE
  5
3D
102
{ACAD_REACTORS
330
2A
102
}
330
2A
100
AcDbVisualStyle
  2
EdgeColorOff
 70
    22
177
     3
291
     1
 70
    58
 90
        2
176
     0
 90
        2
176
     0
 90
        0
176
     0
 90
        0
176
     0
 40
0.6
176
     0
 40
30.0
176
     0
 62
     7
420
 16777215
176
     0
 90
        1
176
     0
 90
        4
176
     0
 62
     7
176
     0
 62
   257
176
     0
 90
        1
176
     0
 90
        1
176
     0
 40
1.0
176
     0
 90
        8
176
     2
 62
     7
176
     0
 40
1.0
176
     0
 90
        1
176
     0
 90
        6
176
     0
 90
        2
176
     0
 62
     7
176
     0
 90
        5
176
     0
 90
        0
176
     0
 90
        0
176
     0
290
     0
176
     0
 90
        1
176
     0
 40
0.0
176
     0
 90
        0
176
     0
290
     0
176
     0
290
     1
176
     0
290
     1
176
     0
290
     0
176
     0
290
     0
176
     0
290
     0
176
     0
290
     0
176
     0
290
     0
176
     0
290
     0
176
     0
 90
       50
176
     0
 40
0.0
176
     0
 40
1.0
176
     0
 90
        0
176
     0
 62
    18
420
        0
176
     0
 90
       50
176
     0
 90
        3
176
     0
 62
     5
420
      255
176
     0
290
     0
176
     0
 90
       50
176
     0
 90
       50
176
     0
 90
       50
176
     0
290
     0
176
     0
 90
       50
176
     0
 62
   256
176
     0
 40
1.0
176
     0
 90
        2
176
     0
  1
strokes_ogs.tif
176
     0
290
     0
176
     0
 40
1.0
176
     0
 40
1.0
176
     0
  0
VISUALSTYLE
  5
39
102
{ACAD_REACTORS
330
2A
102
}
330
2A
100
AcDbVisualStyle
  2
Facepattern
 70
    15
177
     3
291
     1
 70
    58
 90
        2
176
     1
 90
        2
176
     1
 90
        0
176
     1
 90
        0
176
     1
 40
0.6
176
     1
 40
30.0
176
     1
 62
     7
420
 16777215
176
     1
 90
        1
176
     1
 90
        4
176
     1
 62
     7
176
     1
 62
   257
176
     1
 90
        1
176
     1
 90
        1
176
     1
 40
1.0
176
     1
 90
        8
176
     1
 62
     7
176
     1
 40
1.0
176
     1
 90
        1
176
     1
 90
        6
176
     1
 90
        2
176
     1
 62
     7
176
     1
 90
        5
176
     1
 90
        0
176
     1
 90
        0
176
     1
290
     0
176
     1
 90
        1
176
     1
 40
0.0
176
     1
 90
        0
176
     1
290
     0
176
     1
290
     1
176
     1
290
     1
176
     1
290
     0
176
     1
290
     0
176
     1
290
     0
176
     1
290
     0
176
     1
290
     0
176
     1
290
     0
176
     1
 90
       50
176
     1
 40
0.0
176
     1
 40
1.0
176
     1
 90
        0
176
     1
 62
    18
420
        0
176
     1
 90
       50
176
     1
 90
        3
176
     1
 62
     5
420
      255
176
     1
290
     0
176
     1
 90
       50
176
     1
 90
       50
176
     1
 90
       50
176
     1
290
     0
176
     1
 90
       50
176
     1
 62
   256
176
     0
 40
1.0
176
     0
 90
        2
176
     1
  1
strokes_ogs.tif
176
     1
290
     0
176
     1
 40
1.0
176
     1
 40
1.0
176
     1
  0
VISUALSTYLE
  5
2B
102
{ACAD_REACTORS
330
2A
102
}
330
2A
100
AcDbVisualStyle
  2
Flat
 70
     0
177
     3
291
     1
 70
    58
 90
        2
176
     1
 90
        1
176
     1
 90
        1
176
     1
 90
        2
176
     1
 40
0.6
176
     1
 40
30.0
176
     1
 62
     7
420
 16777215
176
     1
 90
        0
176
     1
 90
        0
176
     1
 62
     7
176
     1
 62
   257
176
     1
 90
        1
176
     1
 90
        1
176
     1
 40
1.0
176
     1
 90
        8
176
     1
 62
     7
176
     1
 40
1.0
176
     1
 90
        1
176
     1
 90
        6
176
     1
 90
        2
176
     1
 62
     7
176
     1
 90
        5
176
     1
 90
        0
176
     1
 90
        0
176
     1
290
     0
176
     1
 90
       13
176
     1
 40
0.0
176
     1
 90
        0
176
     1
290
     0
176
     1
290
     1
176
     1
290
     1
176
     1
290
     0
176
     1
290
     0
176
     1
290
     0
176
     1
290
     0
176
     1
290
     0
176
     1
290
     0
176
     1
 90
       50
176
     1
 40
0.0
176
     1
 40
1.0
176
     1
 90
        0
176
     1
 62
    18
420
        0
176
     1
 90
       50
176
     1
 90
        3
176
     1
 62
     5
420
      255
176
     1
290
     0
176
     1
 90
       50
176
     1
 90
       50
176
     1
 90
       50
176
     1
290
     0
176
     1
 90
       50
176
     1
 62
   256
176
     0
 40
1.0
176
     0
 90
        2
176
     1
  1
strokes_ogs.tif
176
     1
290
     0
176
     1
 40
1.0
176
     1
 40
1.0
176
     1
  0
VISUALSTYLE
  5
2C
102
{ACAD_REACTORS
330
2A
102
}
330
2A
100
AcDbVisualStyle
  2
FlatWithEdges
 70
     1
177
     3
291
     1
 70
    58
 90
        2
176
     1
 90
        1
176
     1
 90
        1
176
     1
 90
        2
176
     1
 40
0.6
176
     1
 40
30.0
176
     1
 62
     7
420
 16777215
176
     1
 90
        1
176
     1
 90
        0
176
     1
 62
     7
176
     1
 62
   257
176
     1
 90
        1
176
     1
 90
        1
176
     1
 40
1.0
176
     1
 90
        0
176
     1
 62
   257
176
     1
 40
1.0
176
     1
 90
        1
176
     1
 90
        6
176
     1
 90
        2
176
     1
 62
     7
176
     1
 90
        5
176
     1
 90
        0
176
     1
 90
        0
176
     1
290
     0
176
     1
 90
       13
176
     1
 40
0.0
176
     1
 90
        0
176
     1
290
     0
176
     1
290
     1
176
     1
290
     1
176
     1
290
     0
176
     1
290
     0
176
     1
290
     0
176
     1
290
     0
176
     1
290
     0
176
     1
290
     0
176
     1
 90
       50
176
     1
 40
0.0
176
     1
 40
1.0
176
     1
 90
        0
176
     1
 62
    18
420
        0
176
     1
 90
       50
176
     1
 90
        3
176
     1
 62
     5
420
      255
176
     1
290
     0
176
     1
 90
       50
176
     1
 90
       50
176
     1
 90
       50
176
     1
290
     0
176
     1
 90
       50
176
     1
 62
   256
176
     0
 40
1.0
176
     0
 90
        2
176
     1
  1
strokes_ogs.tif
176
     1
290
     0
176
     1
 40
1.0
176
     1
 40
1.0
176
     1
  0
VISUALSTYLE
  5
2D
102
{ACAD_REACTORS
330
2A
102
}
330
2A
100
AcDbVisualStyle
  2
Gouraud
 70
     2
177
     3
291
     1
 70
    58
 90
        2
176
     1
 90
        2
176
     1
 90
        1
176
     1
 90
        2
176
     1
 40
0.6
176
     1
 40
30.0
176
     1
 62
     7
420
 16777215
176
     1
 90
        0
176
     1
 90
        0
176
     1
 62
     7
176
     1
 62
   257
176
     1
 90
        1
176
     1
 90
        1
176
     1
 40
1.0
176
     1
 90
        0
176
     1
 62
     7
176
     1
 40
1.0
176
     1
 90
        1
176
     1
 90
        6
176
     1
 90
        2
176
     1
 62
     7
176
     1
 90
        5
176
     1
 90
        0
176
     1
 90
        0
176
     1
290
     0
176
     1
 90
       13
176
     1
 40
0.0
176
     1
 90
        0
176
     1
290
     0
176
     1
290
     1
176
     1
290
     1
176
     1
290
     0
176
     1
290
     0
176
     1
290
     0
176
     1
290
     0
176
     1
290
     0
176
     1
290
     0
176
     1
 90
       50
176
     1
 40
0.0
176
     1
 40
1.0
176
     1
 90
        0
176
     1
 62
    18
420
        0
176
     1
 90
       50
176
     1
 90
        3
176
     1
 62
     5
420
      255
176
     1
290
     0
176
     1
 90
       50
176
     1
 90
       50
176
     1
 90
       50
176
     1
290
     0
176
     1
 90
       50
176
     1
 62
   256
176
     0
 40
1.0
176
     0
 90
        2
176
     1
  1
strokes_ogs.tif
176
     1
290
     0
176
     1
 40
1.0
176
     1
 40
1.0
176
     1
  0
VISUALSTYLE
  5
2E
102
{ACAD_REACTORS
330
2A
102
}
330
2A
100
AcDbVisualStyle
  2
GouraudWithEdges
 70
     3
177
     3
291
     1
 70
    58
 90
        2
176
     1
 90
        2
176
     1
 90
        1
176
     1
 90
        2
176
     1
 40
0.6
176
     1
 40
30.0
176
     1
 62
     7
420
 16777215
176
     1
 90
        1
176
     1
 90
        0
176
     1
 62
     7
176
     1
 62
   257
176
     1
 90
        1
176
     1
 90
        1
176
     1
 40
1.0
176
     1
 90
        0
176
     1
 62
   257
176
     1
 40
1.0
176
     1
 90
        1
176
     1
 90
        6
176
     1
 90
        2
176
     1
 62
     7
176
     1
 90
        5
176
     1
 90
        0
176
     1
 90
        0
176
     1
290
     0
176
     1
 90
       13
176
     1
 40
0.0
176
     1
 90
        0
176
     1
290
     0
176
     1
290
     1
176
     1
290
     1
176
     1
290
     0
176
     1
290
     0
176
     1
290
     0
176
     1
290
     0
176
     1
290
     0
176
     1
290
     0
176
     1
 90
       50
176
     1
 40
0.0
176
     1
 40
1.0
176
     1
 90
        0
176
     1
 62
    18
420
        0
176
     1
 90
       50
176
     1
 90
        3
176
     1
 62
     5
420
      255
176
     1
290
     0
176
     1
 90
       50
176
     1
 90
       50
176
     1
 90
       50
176
     1
290
     0
176
     1
 90
       50
176
     1
 62
   256
176
     0
 40
1.0
176
     0
 90
        2
176
     1
  1
strokes_ogs.tif
176
     1
290
     0
176
     1
 40
1.0
176
     1
 40
1.0
176
     1
  0
VISUALSTYLE
  5
31
102
{ACAD_REACTORS
330
2A
102
}
330
2A
100
AcDbVisualStyle
  2
Hidden
 70
     6
177
     3
291
     0
 70
    58
 90
        1
176
     1
 90
        2
176
     1
 90
        2
176
     1
 90
        0
176
     1
 40
0.6
176
     1
 40
30.0
176
     1
 62
     7
420
 16777215
176
     1
 90
        2
176
     1
 90
        2
176
     1
 62
     7
176
     1
 62
   257
176
     1
 90
        2
176
     1
 90
        1
176
     1
 40
40.0
176
     1
 90
        0
176
     1
 62
   257
176
     1
 40
1.0
176
     1
 90
        1
176
     1
 90
        6
176
     1
 90
        2
176
     1
 62
     7
176
     1
 90
        3
176
     1
 90
        0
176
     1
 90
        0
176
     1
290
     0
176
     1
 90
        1
176
     1
 40
0.0
176
     1
 90
        0
176
     1
290
     0
176
     1
290
     1
176
     1
290
     1
176
     1
290
     0
176
     1
290
     0
176
     1
290
     0
176
     1
290
     0
176
     1
290
     0
176
     1
290
     0
176
     1
 90
       50
176
     1
 40
0.0
176
     1
 40
1.0
176
     1
 90
        0
176
     1
 62
    18
420
        0
176
     1
 90
       50
176
     1
 90
        3
176
     1
 62
     5
420
      255
176
     1
290
     0
176
     1
 90
       50
176
     1
 90
       50
176
     1
 90
       50
176
     1
290
     0
176
     1
 90
       50
176
     1
 62
   256
176
     0
 40
1.0
176
     0
 90
        2
176
     1
  1
strokes_ogs.tif
176
     1
290
     0
176
     1
 40
1.0
176
     1
 40
1.0
176
     1
  0
VISUALSTYLE
  5
3B
102
{ACAD_REACTORS
330
2A
102
}
330
2A
100
AcDbVisualStyle
  2
JitterOff
 70
    20
177
     3
291
     1
 70
    58
 90
        2
176
     0
 90
        2
176
     0
 90
        0
176
     0
 90
        0
176
     0
 40
0.6
176
     0
 40
30.0
176
     0
 62
     7
420
 16777215
176
     0
 90
        1
176
     0
 90
        4
176
     0
 62
     7
176
     0
 62
   257
176
     0
 90
        1
176
     0
 90
        1
176
     0
 40
1.0
176
     0
 90
       10
176
     2
 62
     7
176
     0
 40
1.0
176
     0
 90
        1
176
     0
 90
        6
176
     0
 90
        2
176
     0
 62
     7
176
     0
 90
        5
176
     0
 90
        0
176
     0
 90
        0
176
     0
290
     0
176
     0
 90
        1
176
     0
 40
0.0
176
     0
 90
        0
176
     0
290
     0
176
     0
290
     1
176
     0
290
     1
176
     0
290
     0
176
     0
290
     0
176
     0
290
     0
176
     0
290
     0
176
     0
290
     0
176
     0
290
     0
176
     0
 90
       50
176
     0
 40
0.0
176
     0
 40
1.0
176
     0
 90
        0
176
     0
 62
    18
420
        0
176
     0
 90
       50
176
     0
 90
        3
176
     0
 62
     5
420
      255
176
     0
290
     0
176
     0
 90
       50
176
     0
 90
       50
176
     0
 90
       50
176
     0
290
     0
176
     0
 90
       50
176
     0
 62
   256
176
     0
 40
1.0
176
     0
 90
        2
176
     0
  1
strokes_ogs.tif
176
     0
290
     0
176
     0
 40
1.0
176
     0
 40
1.0
176
     0
  0
VISUALSTYLE
  5
38
102
{ACAD_REACTORS
330
2A
102
}
330
2A
100
AcDbVisualStyle
  2
Linepattern
 70
    14
177
     3
291
     1
 70
    58
 90
        2
176
     1
 90
        2
176
     1
 90
        0
176
     1
 90
        0
176
     1
 40
0.6
176
     1
 40
30.0
176
     1
 62
     7
420
 16777215
176
     1
 90
        1
176
     1
 90
        4
176
     1
 62
     7
176
     1
 62
   257
176
     1
 90
        7
176
     1
 90
        7
176
     1
 40
1.0
176
     1
 90
        8
176
     1
 62
     7
176
     1
 40
1.0
176
     1
 90
        1
176
     1
 90
        6
176
     1
 90
        2
176
     1
 62
     7
176
     1
 90
        5
176
     1
 90
        0
176
     1
 90
        0
176
     1
290
     0
176
     1
 90
        1
176
     1
 40
0.0
176
     1
 90
        0
176
     1
290
     0
176
     1
290
     1
176
     1
290
     1
176
     1
290
     0
176
     1
290
     0
176
     1
290
     0
176
     1
290
     0
176
     1
290
     0
176
     1
290
     0
176
     1
 90
       50
176
     1
 40
0.0
176
     1
 40
1.0
176
     1
 90
        0
176
     1
 62
    18
420
        0
176
     1
 90
       50
176
     1
 90
        3
176
     1
 62
     5
420
      255
176
     1
290
     0
176
     1
 90
       50
176
     1
 90
       50
176
     1
 90
       50
176
     1
290
     0
176
     1
 90
       50
176
     1
 62
   256
176
     0
 40
1.0
176
     0
 90
        2
176
     1
  1
strokes_ogs.tif
176
     1
290
     0
176
     1
 40
1.0
176
     1
 40
1.0
176
     1
  0
VISUALSTYLE
  5
3C
102
{ACAD_REACTORS
330
2A
102
}
330
2A
100
AcDbVisualStyle
  2
OverhangOff
 70
    21
177
     3
291
     1
 70
    58
 90
        2
176
     0
 90
        2
176
     0
 90
        0
176
     0
 90
        0
176
     0
 40
0.6
176
     0
 40
30.0
176
     0
 62
     7
420
 16777215
176
     0
 90
        1
176
     0
 90
        4
176
     0
 62
     7
176
     0
 62
   257
176
     0
 90
        1
176
     0
 90
        1
176
     0
 40
1.0
176
     0
 90
        9
176
     2
 62
     7
176
     0
 40
1.0
176
     0
 90
        1
176
     0
 90
        6
176
     0
 90
        2
176
     0
 62
     7
176
     0
 90
        5
176
     0
 90
        0
176
     0
 90
        0
176
     0
290
     0
176
     0
 90
        1
176
     0
 40
0.0
176
     0
 90
        0
176
     0
290
     0
176
     0
290
     1
176
     0
290
     1
176
     0
290
     0
176
     0
290
     0
176
     0
290
     0
176
     0
290
     0
176
     0
290
     0
176
     0
290
     0
176
     0
 90
       50
176
     0
 40
0.0
176
     0
 40
1.0
176
     0
 90
        0
176
     0
 62
    18
420
        0
176
     0
 90
       50
176
     0
 90
        3
176
     0
 62
     5
420
      255
176
     0
290
     0
176
     0
 90
       50
176
     0
 90
       50
176
     0
 90
       50
176
     0
290
     0
176
     0
 90
       50
176
     0
 62
   256
176
     0
 40
1.0
176
     0
 90
        2
176
     0
  1
strokes_ogs.tif
176
     0
290
     0
176
     0
 40
1.0
176
     0
 40
1.0
176
     0
  0
VISUALSTYLE
  5
33
102
{ACAD_REACTORS
330
2A
102
}
330
2A
100
AcDbVisualStyle
  2
Realistic
 70
     8
177
     3
291
     0
 70
    58
 90
        2
176
     1
 90
        3
176
     1
 90
        0
176
     1
 90
        2
176
     1
 40
0.6
176
     1
 40
30.0
176
     1
 62
     7
420
 16777215
176
     1
 90
        0
176
     1
 90
        0
176
     1
 62
     7
176
     1
 62
   257
176
     1
 90
        1
176
     1
 90
        1
176
     1
 40
1.0
176
     1
 90
        8
176
     1
 62
   257
176
     1
 40
1.0
176
     1
 90
        1
176
     1
 90
        6
176
     1
 90
        2
176
     1
 62
     7
176
     1
 90
        3
176
     1
 90
        0
176
     1
 90
        0
176
     1
290
     0
176
     1
 90
       13
176
     1
 40
0.0
176
     1
 90
        0
176
     1
290
     0
176
     1
290
     1
176
     1
290
     1
176
     1
290
     0
176
     1
290
     0
176
     1
290
     0
176
     1
290
     0
176
     1
290
     0
176
     1
290
     0
176
     1
 90
       50
176
     1
 40
0.0
176
     1
 40
1.0
176
     1
 90
        0
176
     1
 62
    18
420
        0
176
     1
 90
       50
176
     1
 90
        3
176
     1
 62
     5
420
      255
176
     1
290
     0
176
     1
 90
       50
176
     1
 90
       50
176
     1
 90
       50
176
     1
290
     0
176
     1
 90
       50
176
     1
 62
   256
176
     0
 40
1.0
176
     0
 90
        2
176
     1
  1
strokes_ogs.tif
176
     1
290
     0
176
     1
 40
1.0
176
     1
 40
1.0
176
     1
  0
VISUALSTYLE
  5
42
102
{ACAD_REACTORS
330
2A
102
}
330
2A
100
AcDbVisualStyle
  2
Shaded
 70
    27
177
     3
291
     0
 70
    58
 90
        2
176
     1
 90
        2
176
     1
 90
        1
176
     1
 90
        2
176
     1
 40
0.6
176
     1
 40
30.0
176
     1
 62
     7
420
 16777215
176
     1
 90
        0
176
     1
 90
        4
176
     1
 62
     7
176
     1
 62
   257
176
     1
 90
        1
176
     1
 90
        1
176
     1
 40
1.0
176
     1
 90
        8
176
     1
 62
   257
176
     1
 40
1.0
176
     1
 90
        1
176
     1
 90
        6
176
     1
 90
        2
176
     1
 62
     8
420
  7895160
176
     1
 90
        3
176
     1
 90
        0
176
     1
 90
        0
176
     1
290
     0
176
     1
 90
        5
176
     1
 40
0.0
176
     1
 90
        0
176
     1
290
     0
176
     1
290
     1
176
     1
290
     1
176
     1
290
     0
176
     1
290
     0
176
     1
290
     0
176
     1
290
     0
176
     1
290
     0
176
     1
290
     0
176
     1
 90
       50
176
     1
 40
0.0
176
     1
 40
1.0
176
     1
 90
        0
176
     1
 62
    18
420
        0
176
     1
 90
       50
176
     1
 90
        3
176
     1
 62
     5
420
      255
176
     1
290
     0
176
     1
 90
       50
176
     1
 90
       50
176
     1
 90
       50
176
     1
290
     0
176
     1
 90
       50
176
     1
 62
   256
176
     0
 40
1.0
176
     0
 90
        2
176
     1
  1
strokes_ogs.tif
176
     1
290
     0
176
     1
 40
1.0
176
     1
 40
1.0
176
     1
  0
VISUALSTYLE
  5
41
102
{ACAD_REACTORS
330
2A
102
}
330
2A
100
AcDbVisualStyle
  2
Shaded with edges
 70
    26
177
     3
291
     0
 70
    58
 90
        2
176
     1
 90
        2
176
     1
 90
        1
176
     1
 90
        2
176
     1
 40
0.6
176
     1
 40
30.0
176
     1
 62
     7
420
 16777215
176
     1
 90
        1
176
     1
 90
       10
176
     1
 62
     7
176
     1
 62
   257
176
     1
 90
        2
176
     1
 90
        1
176
     1
 40
1.0
176
     1
 90
        8
176
     1
 62
   257
176
     1
 40
1.0
176
     1
 90
        1
176
     1
 90
        6
176
     1
 90
        2
176
     1
 62
     7
176
     1
 90
        3
176
     1
 90
        0
176
     1
 90
        0
176
     1
290
     0
176
     1
 90
        5
176
     1
 40
0.0
176
     1
 90
        0
176
     1
290
     0
176
     1
290
     1
176
     1
290
     1
176
     1
290
     0
176
     1
290
     0
176
     1
290
     0
176
     1
290
     0
176
     1
290
     0
176
     1
290
     0
176
     1
 90
       50
176
     1
 40
0.0
176
     1
 40
1.0
176
     1
 90
        0
176
     1
 62
    18
420
        0
176
     1
 90
       50
176
     1
 90
        3
176
     1
 62
     5
420
      255
176
     1
290
     0
176
     1
 90
       50
176
     1
 90
       50
176
     1
 90
       50
176
     1
290
     0
176
     1
 90
       50
176
     1
 62
   256
176
     0
 40
1.0
176
     0
 90
        2
176
     1
  1
strokes_ogs.tif
176
     1
290
     0
176
     1
 40
1.0
176
     1
 40
1.0
176
     1
  0
VISUALSTYLE
  5
3E
102
{ACAD_REACTORS
330
2A
102
}
330
2A
100
AcDbVisualStyle
  2
Shades of Gray
 70
    23
177
     3
291
     0
 70
    58
 90
        2
176
     1
 90
        2
176
     1
 90
        3
176
     1
 90
        0
176
     1
 40
0.6
176
     1
 40
30.0
176
     1
 62
     7
420
 16777215
176
     1
 90
        2
176
     1
 90
        2
176
     1
 62
     7
176
     1
 62
     7
176
     1
 90
        1
176
     1
 90
        1
176
     1
 40
40.0
176
     1
 90
        8
176
     1
 62
     7
176
     1
 40
1.0
176
     1
 90
        1
176
     1
 90
        6
176
     1
 90
        2
176
     1
 62
     7
176
     1
 90
        3
176
     1
 90
        0
176
     1
 90
        0
176
     1
290
     0
176
     1
 90
        1
176
     1
 40
0.0
176
     1
 90
        0
176
     1
290
     0
176
     1
290
     1
176
     1
290
     1
176
     1
290
     0
176
     1
290
     0
176
     1
290
     0
176
     1
290
     0
176
     1
290
     0
176
     1
290
     0
176
     1
 90
       50
176
     1
 40
0.0
176
     1
 40
1.0
176
     1
 90
        0
176
     1
 62
    18
420
        0
176
     1
 90
       50
176
     1
 90
        3
176
     1
 62
     5
420
      255
176
     1
290
     0
176
     1
 90
       50
176
     1
 90
       50
176
     1
 90
       50
176
     1
290
     0
176
     1
 90
       50
176
     1
 62
   256
176
     0
 40
1.0
176
     0
 90
        2
176
     1
  1
strokes_ogs.tif
176
     1
290
     0
176
     1
 40
1.0
176
     1
 40
1.0
176
     1
  0
VISUALSTYLE
  5
3F
102
{ACAD_REACTORS
330
2A
102
}
330
2A
100
AcDbVisualStyle
  2
Sketchy
 70
    24
177
     3
291
     0
 70
    58
 90
        1
176
     1
 90
        2
176
     1
 90
        2
176
     1
 90
        0
176
     1
 40
0.6
176
     1
 40
30.0
176
     1
 62
     7
420
 16777215
176
     1
 90
        2
176
     1
 90
        2
176
     1
 62
     7
176
     1
 62
     7
176
     1
 90
        1
176
     1
 90
        1
176
     1
 40
40.0
176
     1
 90
       11
176
     1
 62
     7
176
     1
 40
1.0
176
     1
 90
        1
176
     1
 90
        6
176
     1
 90
        2
176
     1
 62
     7
176
     1
 90
        6
176
     1
 90
        0
176
     1
 90
        0
176
     1
290
     0
176
     1
 90
        1
176
     1
 40
0.0
176
     1
 90
        0
176
     1
290
     0
176
     1
290
     1
176
     1
290
     1
176
     1
290
     0
176
     1
290
     0
176
     1
290
     0
176
     1
290
     0
176
     1
290
     0
176
     1
290
     0
176
     1
 90
       50
176
     1
 40
0.0
176
     1
 40
1.0
176
     1
 90
        0
176
     1
 62
    18
420
        0
176
     1
 90
       50
176
     1
 90
        3
176
     1
 62
     5
420
      255
176
     1
290
     0
176
     1
 90
       50
176
     1
 90
       50
176
     1
 90
       50
176
     1
290
     0
176
     1
 90
       50
176
     1
 62
   256
176
     0
 40
1.0
176
     0
 90
        2
176
     1
  1
strokes_ogs.tif
176
     1
290
     0
176
     1
 40
1.0
176
     1
 40
1.0
176
     1
  0
VISUALSTYLE
  5
37
102
{ACAD_REACTORS
330
2A
102
}
330
2A
100
AcDbVisualStyle
  2
Thicken
 70
    13
177
     3
291
     1
 70
    58
 90
        2
176
     1
 90
        2
176
     1
 90
        0
176
     1
 90
        0
176
     1
 40
0.6
176
     1
 40
30.0
176
     1
 62
     7
420
 16777215
176
     1
 90
        1
176
     1
 90
        4
176
     1
 62
     7
176
     1
 62
   257
176
     1
 90
        1
176
     1
 90
        1
176
     1
 40
1.0
176
     1
 90
       12
176
     1
 62
     7
176
     1
 40
1.0
176
     1
 90
        1
176
     1
 90
        6
176
     1
 90
        2
176
     1
 62
     7
176
     1
 90
        5
176
     1
 90
        0
176
     1
 90
        0
176
     1
290
     0
176
     1
 90
        1
176
     1
 40
0.0
176
     1
 90
        0
176
     1
290
     0
176
     1
290
     1
176
     1
290
     1
176
     1
290
     0
176
     1
290
     0
176
     1
290
     0
176
     1
290
     0
176
     1
290
     0
176
     1
290
     0
176
     1
 90
       50
176
     1
 40
0.0
176
     1
 40
1.0
176
     1
 90
        0
176
     1
 62
    18
420
        0
176
     1
 90
       50
176
     1
 90
        3
176
     1
 62
     5
420
      255
176
     1
290
     0
176
     1
 90
       50
176
     1
 90
       50
176
     1
 90
       50
176
     1
290
     0
176
     1
 90
       50
176
     1
 62
   256
176
     0
 40
1.0
176
     0
 90
        2
176
     1
  1
strokes_ogs.tif
176
     1
290
     0
176
     1
 40
1.0
176
     1
 40
1.0
176
     1
  0
VISUALSTYLE
  5
30
102
{ACAD_REACTORS
330
2A
102
}
330
2A
100
AcDbVisualStyle
  2
Wireframe
 70
     5
177
     3
291
     0
 70
    58
 90
        0
176
     1
 90
        2
176
     1
 90
        0
176
     1
 90
        0
176
     1
 40
0.6
176
     1
 40
30.0
176
     1
 62
     7
420
 16777215
176
     1
 90
        1
176
     1
 90
        4
176
     1
 62
     7
176
     1
 62
   257
176
     1
 90
        1
176
     1
 90
        1
176
     1
 40
1.0
176
     1
 90
        0
176
     1
 62
   257
176
     1
 40
1.0
176
     1
 90
        1
176
     1
 90
        6
176
     1
 90
        2
176
     1
 62
     7
176
     1
 90
        3
176
     1
 90
        0
176
     1
 90
        0
176
     1
290
     0
176
     1
 90
        1
176
     1
 40
0.0
176
     1
 90
        0
176
     1
290
     0
176
     1
290
     1
176
     1
290
     1
176
     1
290
     0
176
     1
290
     0
176
     1
290
     0
176
     1
290
     0
176
     1
290
     0
176
     1
290
     0
176
     1
 90
       50
176
     1
 40
0.0
176
     1
 40
1.0
176
     1
 90
        0
176
     1
 62
    18
420
        0
176
     1
 90
       50
176
     1
 90
        3
176
     1
 62
     5
420
      255
176
     1
290
     0
176
     1
 90
       50
176
     1
 90
       50
176
     1
 90
       50
176
     1
290
     0
176
     1
 90
       50
176
     1
 62
   256
176
     0
 40
1.0
176
     0
 90
        2
176
     1
  1
strokes_ogs.tif
176
     1
290
     0
176
     1
 40
1.0
176
     1
 40
1.0
176
     1
  0
VISUALSTYLE
  5
40
102
{ACAD_REACTORS
330
2A
102
}
330
2A
100
AcDbVisualStyle
  2
X-Ray
 70
    25
177
     3
291
     0
 70
    58
 90
        2
176
     1
 90
        2
176
     1
 90
        1
176
     1
 90
        1
176
     1
 40
0.5
176
     1
 40
30.0
176
     1
 62
     7
420
 16777215
176
     1
 90
        1
176
     1
 90
        0
176
     1
 62
     7
176
     1
 62
   257
176
     1
 90
        1
176
     1
 90
        1
176
     1
 40
1.0
176
     1
 90
        8
176
     1
 62
     7
176
     1
 40
1.0
176
     1
 90
        1
176
     1
 90
        6
176
     1
 90
        2
176
     1
 62
     7
176
     1
 90
        3
176
     1
 90
        0
176
     1
 90
        0
176
     1
290
     0
176
     1
 90
       13
176
     1
 40
0.0
176
     1
 90
        0
176
     1
290
     0
176
     1
290
     1
176
     1
290
     1
176
     1
290
     0
176
     1
290
     0
176
     1
290
     0
176
     1
290
     0
176
     1
290
     0
176
     1
290
     0
176
     1
 90
       50
176
     1
 40
0.0
176
     1
 40
1.0
176
     1
 90
        0
176
     1
 62
    18
420
        0
176
     1
 90
       50
176
     1
 90
        3
176
     1
 62
     5
420
      255
176
     1
290
     0
176
     1
 90
       50
176
     1
 90
       50
176
     1
 90
       50
176
     1
290
     0
176
     1
 90
       50
176
     1
 62
   256
176
     0
 40
1.0
176
     0
 90
        2
176
     1
  1
strokes_ogs.tif
176
     1
290
     0
176
     1
 40
1.0
176
     1
 40
1.0
176
     1
  0
DICTIONARYVAR
  5
3F1
102
{ACAD_REACTORS
330
3F0
102
}
330
3F0
100
DictionaryVariables
280
     0
  1
1:1
  0
DICTIONARYVAR
  5
3F9
102
{ACAD_REACTORS
330
3F0
102
}
330
3F0
100
DictionaryVariables
280
     0
  1
3.500000
  0
DICTIONARYVAR
  5
3FA
102
{ACAD_REACTORS
330
3F0
102
}
330
3F0
100
DictionaryVariables
280
     0
  1
acadiso.lin
  0
DICTIONARYVAR
  5
3F6
102
{ACAD_REACTORS
330
3F0
102
}
330
3F0
100
DictionaryVariables
280
     0
  1
Standard
  0
DICTIONARYVAR
  5
3F5
102
{ACAD_REACTORS
330
3F0
102
}
330
3F0
100
DictionaryVariables
280
     0
  1
Standard
  0
DICTIONARY
  5
3F2
330
6A
100
AcDbDictionary
280
     1
281
     1
  3
ACAD_ROUNDTRIP_2008_TABLESTYLE_CELLSTYLEMAP
360
3F3
  0
CELLSTYLEMAP
  5
3F3
102
{ACAD_REACTORS
330
3F2
102
}
330
3F2
100
AcDbCellStyleMap
 90
        3
300
CELLSTYLE
  1
TABLEFORMAT_BEGIN
 90
        5
170
     1
 91
        0
 92
    32768
 62
   257
 93
        1
300
CONTENTFORMAT
  1
CONTENTFORMAT_BEGIN
 90
        0
 91
        0
 92
        4
 93
        0
300

 40
0.0
140
1.0
 94
        5
 62
     0
340
11
144
6.0
309
CONTENTFORMAT_END
171
     1
301
MARGIN
  1
CELLMARGIN_BEGIN
 40
1.5
 40
1.5
 40
1.5
 40
1.5
 40
1.5
 40
1.5
309
CELLMARGIN_END
 94
        6
 95
        1
302
GRIDFORMAT
  1
GRIDFORMAT_BEGIN
 90
        0
 91
        1
 62
     0
 92
       -2
340
14
 93
        0
 40
0.045
309
GRIDFORMAT_END
 95
        2
302
GRIDFORMAT
  1
GRIDFORMAT_BEGIN
 90
        0
 91
        1
 62
     0
 92
       -2
340
14
 93
        0
 40
0.045
309
GRIDFORMAT_END
 95
        4
302
GRIDFORMAT
  1
GRIDFORMAT_BEGIN
 90
        0
 91
        1
 62
     0
 92
       -2
340
14
 93
        0
 40
0.045
309
GRIDFORMAT_END
 95
        8
302
GRIDFORMAT
  1
GRIDFORMAT_BEGIN
 90
        0
 91
        1
 62
     0
 92
       -2
340
14
 93
        0
 40
0.045
309
GRIDFORMAT_END
 95
       16
302
GRIDFORMAT
  1
GRIDFORMAT_BEGIN
 90
        0
 91
        1
 62
     0
 92
       -2
340
14
 93
        0
 40
0.045
309
GRIDFORMAT_END
 95
       32
302
GRIDFORMAT
  1
GRIDFORMAT_BEGIN
 90
        0
 91
        1
 62
     0
 92
       -2
340
14
 93
        0
 40
0.045
309
GRIDFORMAT_END
309
TABLEFORMAT_END
  1
CELLSTYLE_BEGIN
 90
        1
 91
        1
300
_TITLE
309
CELLSTYLE_END
300
CELLSTYLE
  1
TABLEFORMAT_BEGIN
 90
        5
170
     1
 91
        0
 92
        0
 62
   257
 93
        1
300
CONTENTFORMAT
  1
CONTENTFORMAT_BEGIN
 90
        0
 91
        0
 92
        4
 93
        0
300

 40
0.0
140
1.0
 94
        5
 62
     0
340
11
144
4.5
309
CONTENTFORMAT_END
171
     1
301
MARGIN
  1
CELLMARGIN_BEGIN
 40
1.5
 40
1.5
 40
1.5
 40
1.5
 40
1.5
 40
1.5
309
CELLMARGIN_END
 94
        6
 95
        1
302
GRIDFORMAT
  1
GRIDFORMAT_BEGIN
 90
        0
 91
        1
 62
     0
 92
       -2
340
14
 93
        0
 40
0.045
309
GRIDFORMAT_END
 95
        2
302
GRIDFORMAT
  1
GRIDFORMAT_BEGIN
 90
        0
 91
        1
 62
     0
 92
       -2
340
14
 93
        0
 40
0.045
309
GRIDFORMAT_END
 95
        4
302
GRIDFORMAT
  1
GRIDFORMAT_BEGIN
 90
        0
 91
        1
 62
     0
 92
       -2
340
14
 93
        0
 40
0.045
309
GRIDFORMAT_END
 95
        8
302
GRIDFORMAT
  1
GRIDFORMAT_BEGIN
 90
        0
 91
        1
 62
     0
 92
       -2
340
14
 93
        0
 40
0.045
309
GRIDFORMAT_END
 95
       16
302
GRIDFORMAT
  1
GRIDFORMAT_BEGIN
 90
        0
 91
        1
 62
     0
 92
       -2
340
14
 93
        0
 40
0.045
309
GRIDFORMAT_END
 95
       32
302
GRIDFORMAT
  1
GRIDFORMAT_BEGIN
 90
        0
 91
        1
 62
     0
 92
       -2
340
14
 93
        0
 40
0.045
309
GRIDFORMAT_END
309
TABLEFORMAT_END
  1
CELLSTYLE_BEGIN
 90
        2
 91
        1
300
_HEADER
309
CELLSTYLE_END
300
CELLSTYLE
  1
TABLEFORMAT_BEGIN
 90
        5
170
     1
 91
        0
 92
        0
 62
   257
 93
        1
300
CONTENTFORMAT
  1
CONTENTFORMAT_BEGIN
 90
        0
 91
        0
 92
        4
 93
        0
300

 40
0.0
140
1.0
 94
        2
 62
     0
340
11
144
4.5
309
CONTENTFORMAT_END
171
     1
301
MARGIN
  1
CELLMARGIN_BEGIN
 40
1.5
 40
1.5
 40
1.5
 40
1.5
 40
1.5
 40
1.5
309
CELLMARGIN_END
 94
        6
 95
        1
302
GRIDFORMAT
  1
GRIDFORMAT_BEGIN
 90
        0
 91
        1
 62
     0
 92
       -2
340
14
 93
        0
 40
0.045
309
GRIDFORMAT_END
 95
        2
302
GRIDFORMAT
  1
GRIDFORMAT_BEGIN
 90
        0
 91
        1
 62
     0
 92
       -2
340
14
 93
        0
 40
0.045
309
GRIDFORMAT_END
 95
        4
302
GRIDFORMAT
  1
GRIDFORMAT_BEGIN
 90
        0
 91
        1
 62
     0
 92
       -2
340
14
 93
        0
 40
0.045
309
GRIDFORMAT_END
 95
        8
302
GRIDFORMAT
  1
GRIDFORMAT_BEGIN
 90
        0
 91
        1
 62
     0
 92
       -2
340
14
 93
        0
 40
0.045
309
GRIDFORMAT_END
 95
       16
302
GRIDFORMAT
  1
GRIDFORMAT_BEGIN
 90
        0
 91
        1
 62
     0
 92
       -2
340
14
 93
        0
 40
0.045
309
GRIDFORMAT_END
 95
       32
302
GRIDFORMAT
  1
GRIDFORMAT_BEGIN
 90
        0
 91
        1
 62
     0
 92
       -2
340
14
 93
        0
 40
0.045
309
GRIDFORMAT_END
309
TABLEFORMAT_END
  1
CELLSTYLE_BEGIN
 90
        3
 91
        2
300
_DATA
309
CELLSTYLE_END
  0
ENDSEC
  0
EOF
