  0
SECTION
  2
HEADER
  9
$ACADVER
  1
AC1027
  9
$ACADMAINTVER
 70
   105
  9
$DWGCODEPAGE
  3
ANSI_932
  9
$REQUIREDVERSIONS
160
                 0
  9
$INSBASE
 10
0.0
 20
0.0
 30
0.0
  9
$EXTMIN
 10
-1050.0
 20
-742.5
 30
0.0
  9
$EXTMAX
 10
1050.0
 20
742.5
 30
0.0
  9
$LIMMIN
 10
-1050.0
 20
-742.5
  9
$LIMMAX
 10
1050.0
 20
742.5
  9
$ORTHOMODE
 70
     0
  9
$REGENMODE
 70
     1
  9
$FILLMODE
 70
     1
  9
$QTEXTMODE
 70
     0
  9
$MIRRTEXT
 70
     1
  9
$LTSCALE
 40
5.0
  9
$ATTMODE
 70
     1
  9
$TEXTSIZE
 40
2.5
  9
$TRACEWID
 40
1.0
  9
$TEXTSTYLE
  7
Standard
  9
$CLAYER
  8
0
  9
$CELTYPE
  6
ByLayer
  9
$CECOLOR
 62
   256
  9
$CELTSCALE
 40
1.0
  9
$DISPSILH
 70
     0
  9
$DIMSCALE
 40
1.0
  9
$DIMASZ
 40
2.5
  9
$DIMEXO
 40
0.625
  9
$DIMDLI
 40
3.75
  9
$DIMRND
 40
0.0
  9
$DIMDLE
 40
0.0
  9
$DIMEXE
 40
1.25
  9
$DIMTP
 40
0.0
  9
$DIMTM
 40
0.0
  9
$DIMTXT
 40
2.5
  9
$DIMCEN
 40
2.5
  9
$DIMTSZ
 40
0.0
  9
$DIMTOL
 70
     0
  9
$DIMLIM
 70
     0
  9
$DIMTIH
 70
     0
  9
$DIMTOH
 70
     0
  9
$DIMSE1
 70
     0
  9
$DIMSE2
 70
     0
  9
$DIMTAD
 70
     1
  9
$DIMZIN
 70
     8
  9
$DIMBLK
  1

  9
$DIMASO
 70
     1
  9
$DIMSHO
 70
     1
  9
$DIMPOST
  1

  9
$DIMAPOST
  1

  9
$DIMALT
 70
     0
  9
$DIMALTD
 70
     3
  9
$DIMALTF
 40
0.03937007874016
  9
$DIMLFAC
 40
1.0
  9
$DIMTOFL
 70
     1
  9
$DIMTVP
 40
0.0
  9
$DIMTIX
 70
     0
  9
$DIMSOXD
 70
     0
  9
$DIMSAH
 70
     0
  9
$DIMBLK1
  1

  9
$DIMBLK2
  1

  9
$DIMSTYLE
  2
ISO-25
  9
$DIMCLRD
 70
     0
  9
$DIMCLRE
 70
     0
  9
$DIMCLRT
 70
     0
  9
$DIMTFAC
 40
1.0
  9
$DIMGAP
 40
0.625
  9
$DIMJUST
 70
     0
  9
$DIMSD1
 70
     0
  9
$DIMSD2
 70
     0
  9
$DIMTOLJ
 70
     0
  9
$DIMTZIN
 70
     8
  9
$DIMALTZ
 70
     0
  9
$DIMALTTZ
 70
     0
  9
$DIMUPT
 70
     0
  9
$DIMDEC
 70
     2
  9
$DIMTDEC
 70
     2
  9
$DIMALTU
 70
     2
  9
$DIMALTTD
 70
     3
  9
$DIMTXSTY
  7
Standard
  9
$DIMAUNIT
 70
     0
  9
$DIMADEC
 70
     0
  9
$DIMALTRND
 40
0.0
  9
$DIMAZIN
 70
     0
  9
$DIMDSEP
 70
    44
  9
$DIMATFIT
 70
     3
  9
$DIMFRAC
 70
     0
  9
$DIMLDRBLK
  1

  9
$DIMLUNIT
 70
     2
  9
$DIMLWD
 70
    -2
  9
$DIMLWE
 70
    -2
  9
$DIMTMOVE
 70
     0
  9
$DIMFXL
 40
1.0
  9
$DIMFXLON
 70
     0
  9
$DIMJOGANG
 40
0.7853981633974483
  9
$DIMTFILL
 70
     0
  9
$DIMTFILLCLR
 70
     0
  9
$DIMARCSYM
 70
     0
  9
$DIMLTYPE
  6

  9
$DIMLTEX1
  6

  9
$DIMLTEX2
  6

  9
$DIMTXTDIRECTION
 70
     0
  9
$LUNITS
 70
     2
  9
$LUPREC
 70
     4
  9
$SKETCHINC
 40
1.0
  9
$FILLETRAD
 40
10.0
  9
$AUNITS
 70
     0
  9
$AUPREC
 70
     0
  9
$MENU
  1
.
  9
$ELEVATION
 40
0.0
  9
$PELEVATION
 40
0.0
  9
$THICKNESS
 40
0.0
  9
$LIMCHECK
 70
     0
  9
$CHAMFERA
 40
0.0
  9
$CHAMFERB
 40
0.0
  9
$CHAMFERC
 40
0.0
  9
$CHAMFERD
 40
0.0
  9
$SKPOLY
 70
     0
  9
$TDCREATE
 40
2458934.361373044
  9
$TDUCREATE
 40
2458933.986373044
  9
$TDUPDATE
 40
2458934.361373276
  9
$TDUUPDATE
 40
2458933.986373276
  9
$TDINDWG
 40
0.0000000116
  9
$TDUSRTIMER
 40
0.0000000116
  9
$USRTIMER
 70
     1
  9
$ANGBASE
 50
0.0
  9
$ANGDIR
 70
     0
  9
$PDMODE
 70
     0
  9
$PDSIZE
 40
0.0
  9
$PLINEWID
 40
0.0
  9
$SPLFRAME
 70
     0
  9
$SPLINETYPE
 70
     6
  9
$SPLINESEGS
 70
     8
  9
$HANDSEED
  5
586
  9
$SURFTAB1
 70
     6
  9
$SURFTAB2
 70
     6
  9
$SURFTYPE
 70
     6
  9
$SURFU
 70
     6
  9
$SURFV
 70
     6
  9
$UCSBASE
  2

  9
$UCSNAME
  2

  9
$UCSORG
 10
0.0
 20
0.0
 30
0.0
  9
$UCSXDIR
 10
1.0
 20
0.0
 30
0.0
  9
$UCSYDIR
 10
0.0
 20
1.0
 30
0.0
  9
$UCSORTHOREF
  2

  9
$UCSORTHOVIEW
 70
     0
  9
$UCSORGTOP
 10
0.0
 20
0.0
 30
0.0
  9
$UCSORGBOTTOM
 10
0.0
 20
0.0
 30
0.0
  9
$UCSORGLEFT
 10
0.0
 20
0.0
 30
0.0
  9
$UCSORGRIGHT
 10
0.0
 20
0.0
 30
0.0
  9
$UCSORGFRONT
 10
0.0
 20
0.0
 30
0.0
  9
$UCSORGBACK
 10
0.0
 20
0.0
 30
0.0
  9
$PUCSBASE
  2

  9
$PUCSNAME
  2

  9
$PUCSORG
 10
0.0
 20
0.0
 30
0.0
  9
$PUCSXDIR
 10
1.0
 20
0.0
 30
0.0
  9
$PUCSYDIR
 10
0.0
 20
1.0
 30
0.0
  9
$PUCSORTHOREF
  2

  9
$PUCSORTHOVIEW
 70
     0
  9
$PUCSORGTOP
 10
0.0
 20
0.0
 30
0.0
  9
$PUCSORGBOTTOM
 10
0.0
 20
0.0
 30
0.0
  9
$PUCSORGLEFT
 10
0.0
 20
0.0
 30
0.0
  9
$PUCSORGRIGHT
 10
0.0
 20
0.0
 30
0.0
  9
$PUCSORGFRONT
 10
0.0
 20
0.0
 30
0.0
  9
$PUCSORGBACK
 10
0.0
 20
0.0
 30
0.0
  9
$USERI1
 70
     0
  9
$USERI2
 70
     0
  9
$USERI3
 70
     0
  9
$USERI4
 70
     0
  9
$USERI5
 70
     0
  9
$USERR1
 40
0.0
  9
$USERR2
 40
0.0
  9
$USERR3
 40
0.0
  9
$USERR4
 40
0.0
  9
$USERR5
 40
0.0
  9
$WORLDVIEW
 70
     1
  9
$SHADEDGE
 70
     3
  9
$SHADEDIF
 70
    70
  9
$TILEMODE
 70
     1
  9
$MAXACTVP
 70
    64
  9
$PINSBASE
 10
0.0
 20
0.0
 30
0.0
  9
$PLIMCHECK
 70
     0
  9
$PEXTMIN
 10
1.000000000000000E+20
 20
1.000000000000000E+20
 30
1.000000000000000E+20
  9
$PEXTMAX
 10
-1.000000000000000E+20
 20
-1.000000000000000E+20
 30
-1.000000000000000E+20
  9
$PLIMMIN
 10
0.0
 20
0.0
  9
$PLIMMAX
 10
420.0
 20
297.0
  9
$UNITMODE
 70
     0
  9
$VISRETAIN
 70
     1
  9
$PLINEGEN
 70
     0
  9
$PSLTSCALE
 70
     1
  9
$TREEDEPTH
 70
  3020
  9
$CMLSTYLE
  2
Standard
  9
$CMLJUST
 70
     0
  9
$CMLSCALE
 40
20.0
  9
$PROXYGRAPHICS
 70
     1
  9
$MEASUREMENT
 70
     1
  9
$CELWEIGHT
370
    -1
  9
$ENDCAPS
280
     0
  9
$JOINSTYLE
280
     0
  9
$LWDISPLAY
290
     0
  9
$INSUNITS
 70
     4
  9
$HYPERLINKBASE
  1

  9
$STYLESHEET
  1

  9
$XEDIT
290
     1
  9
$CEPSNTYPE
380
     0
  9
$PSTYLEMODE
290
     1
  9
$FINGERPRINTGUID
  2
{744FA6DC-EAB4-4E00-9432-12BA09996E58}
  9
$VERSIONGUID
  2
{FAEB1C32-E019-11D5-929B-00C0DF256EC4}
  9
$EXTNAMES
290
     1
  9
$PSVPSCALE
 40
0.0
  9
$OLESTARTUP
290
     0
  9
$SORTENTS
280
   127
  9
$INDEXCTL
280
     0
  9
$HIDETEXT
280
     1
  9
$XCLIPFRAME
280
     2
  9
$HALOGAP
280
     0
  9
$OBSCOLOR
 70
   257
  9
$OBSLTYPE
280
     0
  9
$INTERSECTIONDISPLAY
280
     0
  9
$INTERSECTIONCOLOR
 70
   257
  9
$DIMASSOC
280
     2
  9
$PROJECTNAME
  1

  9
$CAMERADISPLAY
290
     0
  9
$LENSLENGTH
 40
50.0
  9
$CAMERAHEIGHT
 40
0.0
  9
$STEPSPERSEC
 40
2.0
  9
$STEPSIZE
 40
6.0
  9
$3DDWFPREC
 40
2.0
  9
$PSOLWIDTH
 40
5.0
  9
$PSOLHEIGHT
 40
80.0
  9
$LOFTANG1
 40
1.570796326794897
  9
$LOFTANG2
 40
1.570796326794897
  9
$LOFTMAG1
 40
0.0
  9
$LOFTMAG2
 40
0.0
  9
$LOFTPARAM
 70
     7
  9
$LOFTNORMALS
280
     1
  9
$LATITUDE
 40
37.795
  9
$LONGITUDE
 40
-122.394
  9
$NORTHDIRECTION
 40
0.0
  9
$TIMEZONE
 70
 -8000
  9
$LIGHTGLYPHDISPLAY
280
     1
  9
$TILEMODELIGHTSYNCH
280
     1
  9
$CMATERIAL
347
44
  9
$SOLIDHIST
280
     0
  9
$SHOWHIST
280
     1
  9
$DWFFRAME
280
     2
  9
$DGNFRAME
280
     2
  9
$REALWORLDSCALE
290
     1
  9
$INTERFERECOLOR
 62
   256
  9
$CSHADOW
280
     0
  9
$SHADOWPLANELOCATION
 40
0.0
  0
ENDSEC
  0
SECTION
  2
CLASSES
  0
CLASS
  1
ACDBDICTIONARYWDFLT
  2
AcDbDictionaryWithDefault
  3
ObjectDBX Classes
 90
        0
 91
        4
280
     0
281
     0
  0
CLASS
  1
VISUALSTYLE
  2
AcDbVisualStyle
  3
ObjectDBX Classes
 90
     4095
 91
        4
280
     0
281
     0
  0
CLASS
  1
MATERIAL
  2
AcDbMaterial
  3
ObjectDBX Classes
 90
     1153
 91
        4
280
     0
281
     0
  0
CLASS
  1
SCALE
  2
AcDbScale
  3
ObjectDBX Classes
 90
     1153
 91
        4
280
     0
281
     0
  0
CLASS
  1
TABLESTYLE
  2
AcDbTableStyle
  3
ObjectDBX Classes
 90
     4095
 91
        4
280
     0
281
     0
  0
CLASS
  1
MLEADERSTYLE
  2
AcDbMLeaderStyle
  3
ACDB_MLEADERSTYLE_CLASS
 90
     4095
 91
        4
280
     0
281
     0
  0
CLASS
  1
SUN
  2
AcDbSun
  3
SCENEOE
 90
     1153
 91
        4
280
     0
281
     0
  0
CLASS
  1
DICTIONARYVAR
  2
AcDbDictionaryVar
  3
ObjectDBX Classes
 90
        0
 91
        4
280
     0
281
     0
  0
CLASS
  1
CELLSTYLEMAP
  2
AcDbCellStyleMap
  3
ObjectDBX Classes
 90
     1152
 91
        4
280
     0
281
     0
  0
ENDSEC
  0
SECTION
  2
TABLES
  0
TABLE
  2
VPORT
  5
8
330
0
100
AcDbSymbolTable
 70
     1
  0
VPORT
  5
29
330
8
100
AcDbSymbolTableRecord
100
AcDbViewportTableRecord
  2
*Active
 70
     0
 10
0.0
 20
0.0
 11
1.0
 21
1.0
 12
0.0
 22
0.0
 13
0.0
 23
0.0
 14
10.0
 24
10.0
 15
10.0
 25
10.0
 16
0.0
 26
0.0
 36
1.0
 17
0.0
 27
0.0
 37
0.0
 40
1633.5
 41
1.414141414141414
 42
50.0
 43
0.0
 44
0.0
 50
0.0
 51
0.0
 71
     0
 72
 10000
 73
     1
 74
     3
 75
     0
 76
     0
 77
     0
 78
     0
281
     0
 65
     1
110
0.0
120
0.0
130
0.0
111
1.0
121
0.0
131
0.0
112
0.0
122
1.0
132
0.0
 79
     0
146
0.0
348
2F
 60
     3
 61
     5
292
     1
282
     1
141
0.0
142
0.0
 63
   250
361
6D
  0
ENDTAB
  0
TABLE
  2
LTYPE
  5
5
330
0
100
AcDbSymbolTable
 70
     6
  0
LTYPE
  5
14
330
5
100
AcDbSymbolTableRecord
100
AcDbLinetypeTableRecord
  2
ByBlock
 70
     0
  3

 72
    65
 73
     0
 40
0.0
  0
LTYPE
  5
15
330
5
100
AcDbSymbolTableRecord
100
AcDbLinetypeTableRecord
  2
ByLayer
 70
     0
  3

 72
    65
 73
     0
 40
0.0
  0
LTYPE
  5
16
330
5
100
AcDbSymbolTableRecord
100
AcDbLinetypeTableRecord
  2
Continuous
 70
     0
  3
Solid line
 72
    65
 73
     0
 40
0.0
  0
LTYPE
  5
6F
330
5
100
AcDbSymbolTableRecord
100
AcDbLinetypeTableRecord
  2
JWW_CENTER2
 70
     0
  3
-------------  --  -------------
 72
    65
 73
     4
 40
13.54666666666667
 49
11.00666666666667
 74
     0
 49
-0.8466666666666667
 74
     0
 49
0.8466666666666667
 74
     0
 49
-0.8466666666666667
 74
     0
  0
LTYPE
  5
70
330
5
100
AcDbSymbolTableRecord
100
AcDbLinetypeTableRecord
  2
JWW_CENTER1
 70
     0
  3
-----  --  ----------  --  -----
 72
    65
 73
     4
 40
6.773333333333333
 49
4.233333333333333
 74
     0
 49
-0.8466666666666667
 74
     0
 49
0.8466666666666667
 74
     0
 49
-0.8466666666666667
 74
     0
  0
LTYPE
  5
71
330
5
100
AcDbSymbolTableRecord
100
AcDbLinetypeTableRecord
  2
JWW_DASHED1
 70
     0
  3
-  --  --  --  --  --  --  --  -
 72
    65
 73
     2
 40
1.693333333333333
 49
0.8466666666666667
 74
     0
 49
-0.8466666666666667
 74
     0
  0
LTYPE
  5
72
330
5
100
AcDbSymbolTableRecord
100
AcDbLinetypeTableRecord
  2
JWW_PHANTOM1
 70
     0
  3
----  -  -  --------  -  -  ----
 72
    65
 73
     6
 40
6.773333333333333
 49
3.386666666666667
 74
     0
 49
-0.8466666666666667
 74
     0
 49
0.4233333333333333
 74
     0
 49
-0.8466666666666667
 74
     0
 49
0.4233333333333333
 74
     0
 49
-0.8466666666666667
 74
     0
  0
LTYPE
  5
73
330
5
100
AcDbSymbolTableRecord
100
AcDbLinetypeTableRecord
  2
JWW_DASHED2
 70
     0
  3
--    ----    ----    ----    --
 72
    65
 73
     2
 40
3.386666666666667
 49
1.693333333333333
 74
     0
 49
-1.693333333333333
 74
     0
  0
ENDTAB
  0
TABLE
  2
LAYER
  5
2
330
0
100
AcDbSymbolTable
 70
    15
  0
LAYER
  5
10
330
2
100
AcDbSymbolTableRecord
100
AcDbLayerTableRecord
  2
0
 70
     0
 62
     7
  6
Continuous
370
    -3
390
F
347
46
348
0
  0
LAYER
  5
74
330
2
100
AcDbSymbolTableRecord
100
AcDbLayerTableRecord
  2
寸法
 70
     0
 62
     7
  6
Continuous
370
    -3
390
F
347
46
348
0
  0
LAYER
  5
75
330
2
100
AcDbSymbolTableRecord
100
AcDbLayerTableRecord
  2
その他
 70
     0
 62
     7
  6
Continuous
370
    -3
390
F
347
46
348
0
  0
LAYER
  5
76
330
2
100
AcDbSymbolTableRecord
100
AcDbLayerTableRecord
  2
仕上
 70
     0
 62
     7
  6
Continuous
370
    -3
390
F
347
46
348
0
  0
LAYER
  5
77
330
2
100
AcDbSymbolTableRecord
100
AcDbLayerTableRecord
  2
通り芯
 70
     0
 62
     7
  6
Continuous
370
    -3
390
F
347
46
348
0
  0
LAYER
  5
78
330
2
100
AcDbSymbolTableRecord
100
AcDbLayerTableRecord
  2
躯体
 70
     0
 62
     7
  6
Continuous
370
    -3
390
F
347
46
348
0
  0
LAYER
  5
79
330
2
100
AcDbSymbolTableRecord
100
AcDbLayerTableRecord
  2
D-2
 70
     0
 62
     7
  6
Continuous
370
    -3
390
F
347
46
348
0
  0
LAYER
  5
7A
330
2
100
AcDbSymbolTableRecord
100
AcDbLayerTableRecord
  2
D-1
 70
     0
 62
     7
  6
Continuous
370
    -3
390
F
347
46
348
0
  0
LAYER
  5
7B
330
2
100
AcDbSymbolTableRecord
100
AcDbLayerTableRecord
  2
D-5
 70
     0
 62
     7
  6
Continuous
370
    -3
390
F
347
46
348
0
  0
LAYER
  5
7C
330
2
100
AcDbSymbolTableRecord
100
AcDbLayerTableRecord
  2
D-6
 70
     0
 62
     7
  6
Continuous
370
    -3
390
F
347
46
348
0
  0
LAYER
  5
7D
330
2
100
AcDbSymbolTableRecord
100
AcDbLayerTableRecord
  2
D-4
 70
     0
 62
     7
  6
Continuous
370
    -3
390
F
347
46
348
0
  0
LAYER
  5
7E
330
2
100
AcDbSymbolTableRecord
100
AcDbLayerTableRecord
  2
F-5ﾚｲﾔ
 70
     0
 62
     7
  6
Continuous
370
    -3
390
F
347
46
348
0
  0
LAYER
  5
7F
330
2
100
AcDbSymbolTableRecord
100
AcDbLayerTableRecord
  2
建具
 70
     0
 62
     7
  6
Continuous
370
    -3
390
F
347
46
348
0
  0
LAYER
  5
80
330
2
100
AcDbSymbolTableRecord
100
AcDbLayerTableRecord
  2
D-3
 70
     0
 62
     7
  6
Continuous
370
    -3
390
F
347
46
348
0
  0
LAYER
  5
81
330
2
100
AcDbSymbolTableRecord
100
AcDbLayerTableRecord
  2
D-F
 70
     0
 62
     7
  6
Continuous
370
    -3
390
F
347
46
348
0
  0
ENDTAB
  0
TABLE
  2
STYLE
  5
3
330
0
100
AcDbSymbolTable
 70
     2
  0
STYLE
  5
11
330
3
100
AcDbSymbolTableRecord
100
AcDbTextStyleTableRecord
  2
Standard
 70
     0
 40
0.0
 41
1.0
 50
0.0
 71
     0
 42
2.5
  3
txt
  4

  0
STYLE
  5
6E
330
3
100
AcDbSymbolTableRecord
100
AcDbTextStyleTableRecord
  2
ＭＳ ゴシック
 70
     0
 40
1.0
 41
1.0
 50
0.0
 71
     0
 42
2.5
  3

  4

1001
ACAD
1000
MS Gothic
1071
    32817
  0
ENDTAB
  0
TABLE
  2
VIEW
  5
6
330
0
100
AcDbSymbolTable
 70
     0
  0
ENDTAB
  0
TABLE
  2
UCS
  5
7
330
0
100
AcDbSymbolTable
 70
     0
  0
ENDTAB
  0
TABLE
  2
APPID
  5
9
330
0
100
AcDbSymbolTable
 70
     1
  0
APPID
  5
12
330
9
100
AcDbSymbolTableRecord
100
AcDbRegAppTableRecord
  2
ACAD
 70
     0
  0
ENDTAB
  0
TABLE
  2
DIMSTYLE
  5
A
330
0
100
AcDbSymbolTable
 70
     1
100
AcDbDimStyleTable
  0
DIMSTYLE
105
27
330
A
100
AcDbSymbolTableRecord
100
AcDbDimStyleTableRecord
  2
ISO-25
 70
     0
 41
2.5
 42
0.625
 43
3.75
 44
1.25
 73
     0
 74
     0
 77
     1
 78
     8
140
2.5
141
2.5
143
0.03937007874016
147
0.625
171
     3
172
     1
178
     0
271
     2
272
     2
274
     3
278
    44
283
     0
284
     8
340
11
  0
ENDTAB
  0
TABLE
  2
BLOCK_RECORD
  5
1
330
0
100
AcDbSymbolTable
 70
     1
  0
BLOCK_RECORD
  5
1F
330
1
100
AcDbSymbolTableRecord
100
AcDbBlockTableRecord
  2
*Model_Space
340
22
 70
     0
280
     1
281
     0
  0
BLOCK_RECORD
  5
1B
330
1
100
AcDbSymbolTableRecord
100
AcDbBlockTableRecord
  2
*Paper_Space
340
1E
 70
     0
280
     1
281
     0
  0
BLOCK_RECORD
  5
23
330
1
100
AcDbSymbolTableRecord
100
AcDbBlockTableRecord
  2
*Paper_Space0
340
26
 70
     0
280
     1
281
     0
  0
ENDTAB
  0
ENDSEC
  0
SECTION
  2
BLOCKS
  0
BLOCK
  5
20
330
1F
100
AcDbEntity
  8
0
100
AcDbBlockBegin
  2
*Model_Space
 70
     0
 10
0.0
 20
0.0
 30
0.0
  3
*Model_Space
  1

  0
ENDBLK
  5
21
330
1F
100
AcDbEntity
  8
0
100
AcDbBlockEnd
  0
BLOCK
  5
1C
330
1B
100
AcDbEntity
 67
     1
  8
0
100
AcDbBlockBegin
  2
*Paper_Space
 70
     0
 10
0.0
 20
0.0
 30
0.0
  3
*Paper_Space
  1

  0
ENDBLK
  5
1D
330
1B
100
AcDbEntity
 67
     1
  8
0
100
AcDbBlockEnd
  0
BLOCK
  5
24
330
23
100
AcDbEntity
  8
0
100
AcDbBlockBegin
  2
*Paper_Space0
 70
     0
 10
0.0
 20
0.0
 30
0.0
  3
*Paper_Space0
  1

  0
ENDBLK
  5
25
330
23
100
AcDbEntity
  8
0
100
AcDbBlockEnd
  0
ENDSEC
  0
SECTION
  2
ENTITIES
  0
SOLID
  5
82
330
1F
100
AcDbEntity
  8
寸法
  6
Continuous
 62
     4
370
     9
100
AcDbTrace
 10
-236.8332446336704
 20
241.2739973287024
 30
0.0
 11
-236.8332446336704
 21
242.2739973287024
 31
0.0
 12
-226.8332446336704
 22
241.2739973287024
 32
0.0
 13
-226.8332446336704
 23
242.2739973287024
 33
0.0
  0
LWPOLYLINE
  5
83
330
1F
100
AcDbEntity
  8
その他
  6
Continuous
 62
     7
370
     9
100
AcDbPolyline
 90
        4
 70
     1
 43
1.0
 10
-629.7168684343121
 20
505.1259008177333
 42
0.4142135623731
 10
-630.2168684343121
 20
505.6259008177333
 42
0.4142135623731
 10
-630.7168684343121
 20
505.1259008177333
 42
0.4142135623731
 10
-630.2168684343121
 20
504.6259008177333
 42
0.4142135623731
  0
LWPOLYLINE
  5
84
330
1F
100
AcDbEntity
  8
その他
  6
Continuous
 62
     7
370
     9
100
AcDbPolyline
 90
        4
 70
     1
 43
1.0
 10
-617.7168750327074
 20
471.2551442399831
 42
0.4142135623731
 10
-618.2168750327073
 20
471.7551442399831
 42
0.4142135623731
 10
-618.7168750327073
 20
471.2551442399831
 42
0.4142135623731
 10
-618.2168750327073
 20
470.7551442399831
 42
0.4142135623731
  0
LWPOLYLINE
  5
85
330
1F
100
AcDbEntity
  8
その他
  6
Continuous
 62
     7
370
     9
100
AcDbPolyline
 90
        4
 70
     1
 43
1.0
 10
-637.7168915286957
 20
536.3634257693111
 42
0.4142135623731
 10
-638.2168915286957
 20
536.863425769311
 42
0.4142135623731
 10
-638.7168915286957
 20
536.3634257693111
 42
0.4142135623731
 10
-638.2168915286957
 20
535.8634257693111
 42
0.4142135623731
  0
LINE
  5
86
330
1F
100
AcDbEntity
  8
その他
  6
Continuous
 62
     7
370
     9
100
AcDbLine
 10
-638.2168915286957
 20
537.8634257693111
 30
0.0
 11
-638.2168915286957
 21
426.7739973287024
 31
0.0
  0
LINE
  5
87
330
1F
100
AcDbEntity
  8
その他
  6
Continuous
 62
     7
370
     9
100
AcDbLine
 10
-630.2168684343121
 20
506.6259008177333
 30
0.0
 11
-630.2168684343121
 21
426.7739973287024
 31
0.0
  0
LINE
  5
88
330
1F
100
AcDbEntity
  8
その他
  6
Continuous
 62
     7
370
     9
100
AcDbLine
 10
-618.2168750327073
 20
472.7551442399831
 30
0.0
 11
-618.2168750327073
 21
426.7739973287024
 31
0.0
  0
LWPOLYLINE
  5
89
330
1F
100
AcDbEntity
  8
その他
  6
Continuous
 62
     7
370
     9
100
AcDbPolyline
 90
        4
 70
     1
 43
1.0
 10
-760.2652609834497
 20
408.7739742343189
 42
0.4142135623731
 10
-760.7652609834497
 20
409.2739742343189
 42
0.4142135623731
 10
-761.2652609834497
 20
408.7739742343189
 42
0.4142135623731
 10
-760.7652609834497
 20
408.2739742343189
 42
0.4142135623731
  0
LWPOLYLINE
  5
8A
330
1F
100
AcDbEntity
  8
その他
  6
Continuous
 62
     7
370
     9
100
AcDbPolyline
 90
        4
 70
     1
 43
1.0
 10
-711.7974640729617
 20
396.7739808327141
 42
0.4142135623731
 10
-712.2974640729616
 20
397.2739808327141
 42
0.4142135623731
 10
-712.7974640729616
 20
396.7739808327141
 42
0.4142135623731
 10
-712.2974640729616
 20
396.2739808327142
 42
0.4142135623731
  0
LINE
  5
8B
330
1F
100
AcDbEntity
  8
その他
  6
Continuous
 62
     7
370
     9
100
AcDbLine
 10
-762.2652609834497
 20
408.7739742343189
 30
0.0
 11
-648.2168915286957
 21
408.7739742343189
 31
0.0
  0
LINE
  5
8C
330
1F
100
AcDbEntity
  8
その他
  6
Continuous
 62
     7
370
     9
100
AcDbLine
 10
-713.7974640729615
 20
396.7739808327141
 30
0.0
 11
-648.2168915286957
 21
396.7739808327141
 31
0.0
  0
LWPOLYLINE
  5
8D
330
1F
100
AcDbEntity
  8
その他
  6
Continuous
 62
     7
370
     9
100
AcDbPolyline
 90
        4
 70
     1
 43
1.0
 10
-802.9663356061401
 20
416.7739973287024
 42
0.4142135623731
 10
-803.4663356061401
 20
417.2739973287024
 42
0.4142135623731
 10
-803.9663356061401
 20
416.7739973287024
 42
0.4142135623731
 10
-803.4663356061401
 20
416.2739973287024
 42
0.4142135623731
  0
LINE
  5
8E
330
1F
100
AcDbEntity
  8
その他
  6
Continuous
 62
     7
370
     9
100
AcDbLine
 10
-804.9663356061401
 20
416.7739973287024
 30
0.0
 11
-648.2168915286957
 21
416.7739973287024
 31
0.0
  0
LWPOLYLINE
  5
8F
330
1F
100
AcDbEntity
  8
その他
  6
Continuous
 62
     7
370
     9
100
AcDbPolyline
 90
        4
 70
     1
 43
1.0
 10
-295.7169146230792
 20
505.1259008177333
 42
0.4142135623731
 10
-296.2169146230792
 20
505.6259008177333
 42
0.4142135623731
 10
-296.7169146230792
 20
505.1259008177333
 42
0.4142135623731
 10
-296.2169146230792
 20
504.6259008177333
 42
0.4142135623731
  0
LWPOLYLINE
  5
90
330
1F
100
AcDbEntity
  8
その他
  6
Continuous
 62
     7
370
     9
100
AcDbPolyline
 90
        4
 70
     1
 43
1.0
 10
-307.7169080246837
 20
471.2551442399831
 42
0.4142135623731
 10
-308.2169080246837
 20
471.7551442399831
 42
0.4142135623731
 10
-308.7169080246837
 20
471.2551442399831
 42
0.4142135623731
 10
-308.2169080246837
 20
470.7551442399831
 42
0.4142135623731
  0
LWPOLYLINE
  5
91
330
1F
100
AcDbEntity
  8
その他
  6
Continuous
 62
     7
370
     9
100
AcDbPolyline
 90
        4
 70
     1
 43
1.0
 10
-287.7168915286957
 20
536.3634257693111
 42
0.4142135623731
 10
-288.2168915286957
 20
536.863425769311
 42
0.4142135623731
 10
-288.7168915286957
 20
536.3634257693111
 42
0.4142135623731
 10
-288.2168915286957
 20
535.8634257693111
 42
0.4142135623731
  0
LINE
  5
92
330
1F
100
AcDbEntity
  8
その他
  6
Continuous
 62
     7
370
     9
100
AcDbLine
 10
-288.2168915286957
 20
537.8634257693111
 30
0.0
 11
-288.2168915286957
 21
426.7739973287024
 31
0.0
  0
LINE
  5
93
330
1F
100
AcDbEntity
  8
その他
  6
Continuous
 62
     7
370
     9
100
AcDbLine
 10
-296.2169146230792
 20
506.6259008177333
 30
0.0
 11
-296.2169146230792
 21
426.7739973287024
 31
0.0
  0
LINE
  5
94
330
1F
100
AcDbEntity
  8
その他
  6
Continuous
 62
     7
370
     9
100
AcDbLine
 10
-308.2169080246837
 20
472.7551442399831
 30
0.0
 11
-308.2169080246837
 21
426.7739973287024
 31
0.0
  0
TEXT
  5
95
330
1F
100
AcDbEntity
  8
寸法
  6
Continuous
 62
     2
370
     9
100
AcDbText
 10
-585.7169379236626
 20
-82.40573674568245
 30
0.0
 40
15.24
  1
平面詳細図　Ｓ＝１：５
 41
1.113636363636364
  7
ＭＳ ゴシック
100
AcDbText
  0
LINE
  5
96
330
1F
100
AcDbEntity
  8
寸法
  6
Continuous
 62
     7
370
     9
100
AcDbLine
 10
-592.1212238700701
 20
-91.68119427841057
 30
0.0
 11
-334.3125591873212
 21
-91.68119427841057
 31
0.0
  0
LWPOLYLINE
  5
97
330
1F
100
AcDbEntity
  8
その他
  6
Continuous
 62
     7
370
     9
100
AcDbPolyline
 90
        4
 70
     1
 43
1.0
 10
-760.2652609834497
 20
74.7740204230858
 42
0.4142135623731
 10
-760.7652609834497
 20
75.27402042308579
 42
0.4142135623731
 10
-761.2652609834497
 20
74.7740204230858
 42
0.4142135623731
 10
-760.7652609834497
 20
74.2740204230858
 42
0.4142135623731
  0
LWPOLYLINE
  5
98
330
1F
100
AcDbEntity
  8
その他
  6
Continuous
 62
     7
370
     9
100
AcDbPolyline
 90
        4
 70
     1
 43
1.0
 10
-711.7974640729617
 20
86.7740138246904
 42
0.4142135623731
 10
-712.2974640729616
 20
87.2740138246904
 42
0.4142135623731
 10
-712.7974640729616
 20
86.7740138246904
 42
0.4142135623731
 10
-712.2974640729616
 20
86.27401382469039
 42
0.4142135623731
  0
LINE
  5
99
330
1F
100
AcDbEntity
  8
その他
  6
Continuous
 62
     7
370
     9
100
AcDbLine
 10
-762.2652609834497
 20
74.7740204230858
 30
0.0
 11
-648.2168915286957
 21
74.7740204230858
 31
0.0
  0
LINE
  5
9A
330
1F
100
AcDbEntity
  8
その他
  6
Continuous
 62
     7
370
     9
100
AcDbLine
 10
-713.7974640729615
 20
86.7740138246904
 30
0.0
 11
-648.2168915286957
 21
86.7740138246904
 31
0.0
  0
LWPOLYLINE
  5
9B
330
1F
100
AcDbEntity
  8
その他
  6
Continuous
 62
     7
370
     9
100
AcDbPolyline
 90
        4
 70
     1
 43
1.0
 10
-802.9663356061401
 20
66.77399732870227
 42
0.4142135623731
 10
-803.4663356061401
 20
67.27399732870227
 42
0.4142135623731
 10
-803.9663356061401
 20
66.77399732870227
 42
0.4142135623731
 10
-803.4663356061401
 20
66.27399732870227
 42
0.4142135623731
  0
LINE
  5
9C
330
1F
100
AcDbEntity
  8
その他
  6
Continuous
 62
     7
370
     9
100
AcDbLine
 10
-804.9663356061401
 20
66.77399732870227
 30
0.0
 11
-648.2168915286957
 21
66.77399732870225
 31
0.0
  0
LINE
  5
9D
330
1F
100
AcDbEntity
  8
その他
  6
Continuous
 62
     7
370
     9
100
AcDbLine
 10
-618.2168750327073
 20
471.2551442399831
 30
0.0
 11
-308.2169080246837
 21
471.2551442399831
 31
0.0
  0
TEXT
  5
9E
330
1F
100
AcDbEntity
  8
その他
  6
Continuous
 62
     2
370
   211
100
AcDbText
 10
-479.4668915286956
 20
477.0751442399831
 30
0.0
 40
15.24
  1
310
 41
1.083333333333333
  7
ＭＳ ゴシック
100
AcDbText
  0
LINE
  5
9F
330
1F
100
AcDbEntity
  8
その他
  6
Continuous
 62
     7
370
     9
100
AcDbLine
 10
-638.2168915286957
 20
536.3634257693111
 30
0.0
 11
-288.2168915286957
 21
536.3634257693111
 31
0.0
  0
TEXT
  5
A0
330
1F
100
AcDbEntity
  8
その他
  6
Continuous
 62
     2
370
   211
100
AcDbText
 10
-479.4668915286957
 20
542.183425769311
 30
0.0
 40
15.24
  1
350
 41
1.083333333333333
  7
ＭＳ ゴシック
100
AcDbText
  0
LINE
  5
A1
330
1F
100
AcDbEntity
  8
その他
  6
Continuous
 62
     7
370
     9
100
AcDbLine
 10
-630.2168684343121
 20
505.1259008177333
 30
0.0
 11
-296.2169146230792
 21
505.1259008177333
 31
0.0
  0
TEXT
  5
A2
330
1F
100
AcDbEntity
  8
その他
  6
Continuous
 62
     2
370
   211
100
AcDbText
 10
-479.4668915286957
 20
510.9459008177333
 30
0.0
 40
15.24
  1
334
 41
1.083333333333333
  7
ＭＳ ゴシック
100
AcDbText
  0
LINE
  5
A3
330
1F
100
AcDbEntity
  8
その他
  6
Continuous
 62
     7
370
     9
100
AcDbLine
 10
-712.2974640729616
 20
86.7740138246904
 30
0.0
 11
-712.2974640729616
 21
396.7739808327141
 31
0.0
  0
TEXT
  5
A4
330
1F
100
AcDbEntity
  8
その他
  6
Continuous
 62
     2
370
   211
100
AcDbText
 10
-718.1174640729616
 20
225.5239973287023
 30
0.0
 40
15.24
  1
310
 50
90.0
 41
1.083333333333333
  7
ＭＳ ゴシック
100
AcDbText
  0
LINE
  5
A5
330
1F
100
AcDbEntity
  8
その他
  6
Continuous
 62
     7
370
     9
100
AcDbLine
 10
-760.7652609834497
 20
74.7740204230858
 30
0.0
 11
-760.7652609834497
 21
408.7739742343189
 31
0.0
  0
TEXT
  5
A6
330
1F
100
AcDbEntity
  8
その他
  6
Continuous
 62
     2
370
   211
100
AcDbText
 10
-766.5852609834498
 20
225.5239973287023
 30
0.0
 40
15.24
  1
334
 50
90.0
 41
1.083333333333333
  7
ＭＳ ゴシック
100
AcDbText
  0
LINE
  5
A7
330
1F
100
AcDbEntity
  8
その他
  6
Continuous
 62
     7
370
     9
100
AcDbLine
 10
-803.4663356061401
 20
416.7739973287024
 30
0.0
 11
-803.4663356061401
 21
66.77399732870227
 31
0.0
  0
TEXT
  5
A8
330
1F
100
AcDbEntity
  8
その他
  6
Continuous
 62
     2
370
   211
100
AcDbText
 10
-809.2863356061401
 20
225.5239973287024
 30
0.0
 40
15.24
  1
350
 50
90.0
 41
1.083333333333333
  7
ＭＳ ゴシック
100
AcDbText
  0
LINE
  5
A9
330
1F
100
AcDbEntity
  8
その他
  6
Continuous
 62
     7
370
     9
100
AcDbLine
 10
-638.2168915286957
 20
-11.61084529505583
 30
0.0
 11
-550.7114931364688
 21
-11.61084529505583
 31
0.0
  0
LWPOLYLINE
  5
AA
330
1F
100
AcDbEntity
  8
その他
  6
Continuous
 62
     7
370
     9
100
AcDbPolyline
 90
        4
 70
     1
 43
1.0
 10
-637.7168915286957
 20
-11.61084529505583
 42
0.4142135623731
 10
-638.2168915286957
 20
-11.11084529505583
 42
0.4142135623731
 10
-638.7168915286957
 20
-11.61084529505583
 42
0.4142135623731
 10
-638.2168915286957
 20
-12.11084529505583
 42
0.4142135623731
  0
LWPOLYLINE
  5
AB
330
1F
100
AcDbEntity
  8
その他
  6
Continuous
 62
     7
370
     9
100
AcDbPolyline
 90
        4
 70
     1
 43
1.0
 10
-550.2114931364689
 20
-11.61084529505583
 42
0.4142135623731
 10
-550.7114931364688
 20
-11.11084529505583
 42
0.4142135623731
 10
-551.2114931364688
 20
-11.61084529505583
 42
0.4142135623731
 10
-550.7114931364688
 20
-12.11084529505583
 42
0.4142135623731
  0
LINE
  5
AC
330
1F
100
AcDbEntity
  8
その他
  6
Continuous
 62
     7
370
     9
100
AcDbLine
 10
-638.2168915286957
 20
-13.11084529505583
 30
0.0
 11
-638.2168915286957
 21
56.77399732870224
 31
0.0
  0
LINE
  5
AD
330
1F
100
AcDbEntity
  8
その他
  6
Continuous
 62
     7
370
     9
100
AcDbLine
 10
-550.7114931364688
 20
-13.11084529505583
 30
0.0
 11
-550.7114931364688
 21
28.50959516816786
 31
0.0
  0
TEXT
  5
AE
330
1F
100
AcDbEntity
  8
その他
  6
Continuous
 62
     2
370
   211
100
AcDbText
 10
-616.3391923325822
 20
-5.790845295055831
 30
0.0
 40
15.24
  1
87.5
 41
1.09375
  7
ＭＳ ゴシック
100
AcDbText
  0
LINE
  5
AF
330
1F
100
AcDbEntity
  8
その他
  6
Continuous
 62
     7
370
     9
100
AcDbLine
 10
-550.7114931364688
 20
-11.61084529505583
 30
0.0
 11
-375.7114931364691
 21
-11.61084529505583
 31
0.0
  0
LWPOLYLINE
  5
B0
330
1F
100
AcDbEntity
  8
その他
  6
Continuous
 62
     7
370
     9
100
AcDbPolyline
 90
        4
 70
     1
 43
1.0
 10
-375.2114931364691
 20
-11.61084529505583
 42
0.4142135623731
 10
-375.7114931364691
 20
-11.11084529505583
 42
0.4142135623731
 10
-376.2114931364691
 20
-11.61084529505583
 42
0.4142135623731
 10
-375.7114931364691
 20
-12.11084529505583
 42
0.4142135623731
  0
LINE
  5
B1
330
1F
100
AcDbEntity
  8
その他
  6
Continuous
 62
     7
370
     9
100
AcDbLine
 10
-375.7114931364691
 20
-13.11084529505583
 30
0.0
 11
-375.7114931364691
 21
28.50959516816786
 31
0.0
  0
TEXT
  5
B2
330
1F
100
AcDbEntity
  8
その他
  6
Continuous
 62
     2
370
   211
100
AcDbText
 10
-479.461493136469
 20
-5.790845295055831
 30
0.0
 40
15.24
  1
175
 41
1.083333333333333
  7
ＭＳ ゴシック
100
AcDbText
  0
LINE
  5
B3
330
1F
100
AcDbEntity
  8
その他
  6
Continuous
 62
     7
370
     9
100
AcDbLine
 10
-375.7114931364691
 20
-11.61084529505583
 30
0.0
 11
-288.2168915286957
 21
-11.61084529505583
 31
0.0
  0
LWPOLYLINE
  5
B4
330
1F
100
AcDbEntity
  8
その他
  6
Continuous
 62
     7
370
     9
100
AcDbPolyline
 90
        4
 70
     1
 43
1.0
 10
-287.7168915286957
 20
-11.61084529505583
 42
0.4142135623731
 10
-288.2168915286957
 20
-11.11084529505583
 42
0.4142135623731
 10
-288.7168915286957
 20
-11.61084529505583
 42
0.4142135623731
 10
-288.2168915286957
 20
-12.11084529505583
 42
0.4142135623731
  0
LINE
  5
B5
330
1F
100
AcDbEntity
  8
その他
  6
Continuous
 62
     7
370
     9
100
AcDbLine
 10
-288.2168915286957
 20
-13.11084529505583
 30
0.0
 11
-288.2168915286957
 21
56.77399732870224
 31
0.0
  0
TEXT
  5
B6
330
1F
100
AcDbEntity
  8
その他
  6
Continuous
 62
     2
370
   211
100
AcDbText
 10
-353.8391923325824
 20
-5.790845295055831
 30
0.0
 40
15.24
  1
87.5
 41
1.09375
  7
ＭＳ ゴシック
100
AcDbText
  0
LINE
  5
B7
330
1F
100
AcDbEntity
  8
仕上
  6
Continuous
 62
     3
370
     9
100
AcDbLine
 10
-457.2169358911209
 20
281.7739815396851
 30
0.0
 11
-469.2168471662703
 21
281.7739815396851
 31
0.0
  0
LINE
  5
B8
330
1F
100
AcDbEntity
  8
仕上
  6
Continuous
 62
     3
370
     9
100
AcDbLine
 10
-470.7168754451071
 20
203.2739889039658
 30
0.0
 11
-470.7168754451071
 21
280.2740057534393
 31
0.0
  0
LINE
  5
B9
330
1F
100
AcDbEntity
  8
仕上
  6
Continuous
 62
     3
370
     9
100
AcDbLine
 10
-457.2169358911209
 20
201.7740131177197
 30
0.0
 11
-469.2168471662703
 21
201.7740131177197
 31
0.0
  0
LINE
  5
BA
330
1F
100
AcDbEntity
  8
仕上
  6
Continuous
 62
     3
370
     9
100
AcDbLine
 10
-455.7169076122841
 20
203.2739889039658
 30
0.0
 11
-455.7169076122841
 21
280.2740057534393
 31
0.0
  0
LINE
  5
BB
330
1F
100
AcDbEntity
  8
仕上
  6
Continuous
 62
     3
370
     9
100
AcDbLine
 10
-487.7168634855157
 20
293.2739533786769
 30
0.0
 11
-487.7168634855157
 21
190.2739887861372
 31
0.0
  0
LINE
  5
BC
330
1F
100
AcDbEntity
  8
仕上
  6
Continuous
 62
     3
370
     9
100
AcDbLine
 10
-440.2169478507124
 20
294.7739816575136
 30
0.0
 11
-486.2168876992698
 21
294.7739816575136
 31
0.0
  0
LINE
  5
BD
330
1F
100
AcDbEntity
  8
仕上
  6
Continuous
 62
     3
370
     9
100
AcDbLine
 10
-440.2169478507124
 20
188.7739605073002
 30
0.0
 11
-486.2168876992698
 21
188.7739605073002
 31
0.0
  0
LINE
  5
BE
330
1F
100
AcDbEntity
  8
仕上
  6
Continuous
 62
     3
370
     9
100
AcDbLine
 10
-438.7169195718755
 20
190.2739887861372
 30
0.0
 11
-438.7169195718755
 21
293.2739533786769
 31
0.0
  0
LINE
  5
BF
330
1F
100
AcDbEntity
  8
仕上
  6
Continuous
 62
     3
370
     9
100
AcDbLine
 10
-470.966897655777
 20
203.2739889039658
 30
0.0
 11
-470.966897655777
 21
280.2740057534393
 31
0.0
  0
LINE
  5
C0
330
1F
100
AcDbEntity
  8
仕上
  6
Continuous
 62
     3
370
     9
100
AcDbLine
 10
-457.2169358911209
 20
201.5240433996408
 30
0.0
 11
-469.2168471662703
 21
201.5240433996408
 31
0.0
  0
LINE
  5
C1
330
1F
100
AcDbEntity
  8
仕上
  6
Continuous
 62
     3
370
     9
100
AcDbLine
 10
-455.4668854016143
 20
203.2739889039658
 30
0.0
 11
-455.4668854016143
 21
280.2740057534393
 31
0.0
  0
LINE
  5
C2
330
1F
100
AcDbEntity
  8
仕上
  6
Continuous
 62
     3
370
     9
100
AcDbLine
 10
-457.2169358911209
 20
282.0240037503549
 30
0.0
 11
-469.2168471662703
 21
282.0240037503549
 31
0.0
  0
ARC
  5
C3
330
1F
100
AcDbEntity
  8
仕上
  6
Continuous
 62
     3
370
     9
100
AcDbCircle
 10
-469.2168471662703
 20
280.2740057534393
 30
0.0
 40
1.499999982049567
100
AcDbArc
 50
90.0
 51
180.0
  0
ARC
  5
C4
330
1F
100
AcDbEntity
  8
仕上
  6
Continuous
 62
     3
370
     9
100
AcDbCircle
 10
-457.2169358911209
 20
280.2740057534393
 30
0.0
 40
1.499999982049567
100
AcDbArc
 50
0.0
 51
90.0
  0
ARC
  5
C5
330
1F
100
AcDbEntity
  8
仕上
  6
Continuous
 62
     3
370
     9
100
AcDbCircle
 10
-469.2168471662703
 20
203.2739889039658
 30
0.0
 40
1.499999982049567
100
AcDbArc
 50
180.0
 51
270.0
  0
ARC
  5
C6
330
1F
100
AcDbEntity
  8
仕上
  6
Continuous
 62
     3
370
     9
100
AcDbCircle
 10
-457.2169358911209
 20
203.2739889039658
 30
0.0
 40
1.499999982049567
100
AcDbArc
 50
270.0
 51
0.0
  0
ARC
  5
C7
330
1F
100
AcDbEntity
  8
仕上
  6
Continuous
 62
     3
370
     9
100
AcDbCircle
 10
-486.2168876992698
 20
190.2739887861372
 30
0.0
 40
1.499999982049567
100
AcDbArc
 50
180.0
 51
270.0
  0
ARC
  5
C8
330
1F
100
AcDbEntity
  8
仕上
  6
Continuous
 62
     3
370
     9
100
AcDbCircle
 10
-486.2168876992698
 20
293.2739533786769
 30
0.0
 40
1.499999982049567
100
AcDbArc
 50
90.0
 51
180.0
  0
ARC
  5
C9
330
1F
100
AcDbEntity
  8
仕上
  6
Continuous
 62
     3
370
     9
100
AcDbCircle
 10
-440.2169478507124
 20
293.2739533786769
 30
0.0
 40
1.499999982049567
100
AcDbArc
 50
0.0
 51
90.0
  0
ARC
  5
CA
330
1F
100
AcDbEntity
  8
仕上
  6
Continuous
 62
     3
370
     9
100
AcDbCircle
 10
-440.2169478507124
 20
190.2739887861372
 30
0.0
 40
1.499999982049567
100
AcDbArc
 50
270.0
 51
0.0
  0
ARC
  5
CB
330
1F
100
AcDbEntity
  8
仕上
  6
Continuous
 62
     3
370
     9
100
AcDbCircle
 10
-469.2168471662703
 20
203.2739889039658
 30
0.0
 40
1.749999842358372
100
AcDbArc
 50
180.0
 51
270.0
  0
ARC
  5
CC
330
1F
100
AcDbEntity
  8
仕上
  6
Continuous
 62
     3
370
     9
100
AcDbCircle
 10
-457.2169358911209
 20
203.2739889039658
 30
0.0
 40
1.749999842358372
100
AcDbArc
 50
270.0
 51
0.0
  0
ARC
  5
CD
330
1F
100
AcDbEntity
  8
仕上
  6
Continuous
 62
     3
370
     9
100
AcDbCircle
 10
-469.2168471662703
 20
280.2740057534393
 30
0.0
 40
1.749999842358372
100
AcDbArc
 50
90.0
 51
180.0
  0
ARC
  5
CE
330
1F
100
AcDbEntity
  8
仕上
  6
Continuous
 62
     3
370
     9
100
AcDbCircle
 10
-457.2169358911209
 20
280.2740057534393
 30
0.0
 40
1.749999842358372
100
AcDbArc
 50
0.0
 51
90.0
  0
ARC
  5
CF
330
1F
100
AcDbEntity
  8
仕上
  6
Continuous
 62
     3
370
     9
100
AcDbCircle
 10
-463.2168915286957
 20
241.7739973287024
 30
0.0
 40
12.99999847743502
100
AcDbArc
 50
306.5950012207031
 51
53.40499877929688
  0
ARC
  5
D0
330
1F
100
AcDbEntity
  8
仕上
  6
Continuous
 62
     3
370
     9
100
AcDbCircle
 10
-463.2168915286957
 20
241.7739973287024
 30
0.0
 40
11.99999985639653
100
AcDbArc
 50
310.2282562255859
 51
49.77174377441407
  0
ARC
  5
D1
330
1F
100
AcDbEntity
  8
仕上
  6
Continuous
 62
     3
370
     9
100
AcDbCircle
 10
-463.2168915286957
 20
241.7739973287024
 30
0.0
 40
11.99999985639653
100
AcDbArc
 50
130.2282562255859
 51
229.771743774414
  0
ARC
  5
D2
330
1F
100
AcDbEntity
  8
仕上
  6
Continuous
 62
     3
370
     9
100
AcDbCircle
 10
-463.2168915286957
 20
241.7739973287024
 30
0.0
 40
12.99999847743502
100
AcDbArc
 50
126.5950012207031
 51
233.4049987792968
  0
LINE
  5
D3
330
1F
100
AcDbEntity
  8
通り芯
  6
JWW_CENTER2
 62
     7
370
     9
100
AcDbLine
 10
-463.2168915286957
 20
31.48520433385709
 30
0.0
 11
-463.2168915286957
 21
451.2789490506788
 31
0.0
  0
LINE
  5
D4
330
1F
100
AcDbEntity
  8
躯体
  6
Continuous
 62
     2
370
     9
100
AcDbLine
 10
-631.2168684343121
 20
73.774020423086
 30
0.0
 11
-638.2168915286957
 21
66.7739973287024
 31
0.0
  0
LINE
  5
D5
330
1F
100
AcDbEntity
  8
仕上
  6
Continuous
 62
     3
370
     9
100
AcDbLine
 10
-623.2169289392402
 20
81.77395991815783
 30
0.0
 11
-630.2168684343121
 21
74.77402042308594
 31
0.0
  0
LINE
  5
D6
330
1F
100
AcDbEntity
  8
躯体
  6
Continuous
 62
     2
370
     9
100
AcDbLine
 10
-631.2168684343121
 20
409.7739742343191
 30
0.0
 11
-638.2168915286957
 21
416.7739973287024
 31
0.0
  0
LINE
  5
D7
330
1F
100
AcDbEntity
  8
仕上
  6
Continuous
 62
     3
370
     9
100
AcDbLine
 10
-623.2169289392402
 20
401.774034739247
 30
0.0
 11
-630.2168684343121
 21
408.7739742343189
 31
0.0
  0
LINE
  5
D8
330
1F
100
AcDbEntity
  8
躯体
  6
Continuous
 62
     2
370
     9
100
AcDbLine
 10
-631.2168684343121
 20
409.7739742343188
 30
0.0
 11
-631.2168684343121
 21
73.774020423086
 31
0.0
  0
LINE
  5
D9
330
1F
100
AcDbEntity
  8
躯体
  6
Continuous
 62
     2
370
     9
100
AcDbLine
 10
-638.2168915286957
 20
416.7739973287024
 30
0.0
 11
-638.2168915286957
 21
66.7739973287024
 31
0.0
  0
LINE
  5
DA
330
1F
100
AcDbEntity
  8
仕上
  6
Continuous
 62
     3
370
     9
100
AcDbLine
 10
-623.21692893924
 20
401.7740347392473
 30
0.0
 11
-623.21692893924
 21
81.77395991815783
 31
0.0
  0
LINE
  5
DB
330
1F
100
AcDbEntity
  8
仕上
  6
Continuous
 62
     3
370
     9
100
AcDbLine
 10
-630.2168684343121
 20
74.77402042308594
 30
0.0
 11
-630.2168684343121
 21
408.7739742343189
 31
0.0
  0
LINE
  5
DC
330
1F
100
AcDbEntity
  8
躯体
  6
Continuous
 62
     2
370
     9
100
AcDbLine
 10
-295.2169146230791
 20
73.774020423086
 30
0.0
 11
-288.2168915286956
 21
66.7739973287024
 31
0.0
  0
LINE
  5
DD
330
1F
100
AcDbEntity
  8
仕上
  6
Continuous
 62
     3
370
     9
100
AcDbLine
 10
-303.2168541181511
 20
81.77395991815783
 30
0.0
 11
-296.2169146230791
 21
74.77402042308594
 31
0.0
  0
LINE
  5
DE
330
1F
100
AcDbEntity
  8
躯体
  6
Continuous
 62
     2
370
     9
100
AcDbLine
 10
-295.2169146230791
 20
409.7739742343188
 30
0.0
 11
-288.2168915286956
 21
416.7739973287024
 31
0.0
  0
LINE
  5
DF
330
1F
100
AcDbEntity
  8
仕上
  6
Continuous
 62
     3
370
     9
100
AcDbLine
 10
-303.2168541181511
 20
401.7740347392473
 30
0.0
 11
-296.2169146230791
 21
408.7739742343189
 31
0.0
  0
LINE
  5
E0
330
1F
100
AcDbEntity
  8
躯体
  6
Continuous
 62
     2
370
     9
100
AcDbLine
 10
-295.2169146230791
 20
73.774020423086
 30
0.0
 11
-295.2169146230791
 21
409.7739742343188
 31
0.0
  0
LINE
  5
E1
330
1F
100
AcDbEntity
  8
躯体
  6
Continuous
 62
     2
370
     9
100
AcDbLine
 10
-288.2168915286956
 20
66.7739973287024
 30
0.0
 11
-288.2168915286956
 21
416.7739973287024
 31
0.0
  0
LINE
  5
E2
330
1F
100
AcDbEntity
  8
仕上
  6
Continuous
 62
     3
370
     9
100
AcDbLine
 10
-303.2168541181511
 20
81.77395991815783
 30
0.0
 11
-303.2168541181511
 21
401.7740347392473
 31
0.0
  0
LINE
  5
E3
330
1F
100
AcDbEntity
  8
仕上
  6
Continuous
 62
     3
370
     9
100
AcDbLine
 10
-296.2169146230791
 20
408.7739742343189
 30
0.0
 11
-296.2169146230791
 21
74.77402042308594
 31
0.0
  0
LINE
  5
E4
330
1F
100
AcDbEntity
  8
躯体
  6
Continuous
 62
     2
370
     9
100
AcDbLine
 10
-638.2168915286957
 20
66.7739973287024
 30
0.0
 11
-288.2168915286956
 21
66.7739973287024
 31
0.0
  0
LINE
  5
E5
330
1F
100
AcDbEntity
  8
躯体
  6
Continuous
 62
     2
370
     9
100
AcDbLine
 10
-631.2168684343121
 20
73.774020423086
 30
0.0
 11
-295.2169146230791
 21
73.774020423086
 31
0.0
  0
LINE
  5
E6
330
1F
100
AcDbEntity
  8
仕上
  6
Continuous
 62
     3
370
     9
100
AcDbLine
 10
-296.2169146230791
 20
74.77402042308594
 30
0.0
 11
-630.2168684343121
 21
74.77402042308594
 31
0.0
  0
LINE
  5
E7
330
1F
100
AcDbEntity
  8
仕上
  6
Continuous
 62
     3
370
     9
100
AcDbLine
 10
-623.21692893924
 20
81.77395991815783
 30
0.0
 11
-303.2168541181511
 21
81.77395991815783
 31
0.0
  0
LINE
  5
E8
330
1F
100
AcDbEntity
  8
躯体
  6
Continuous
 62
     2
370
     9
100
AcDbLine
 10
-295.2169146230791
 20
409.7739742343188
 30
0.0
 11
-631.2168684343121
 21
409.7739742343188
 31
0.0
  0
LINE
  5
E9
330
1F
100
AcDbEntity
  8
躯体
  6
Continuous
 62
     2
370
     9
100
AcDbLine
 10
-288.2168915286956
 20
416.7739973287024
 30
0.0
 11
-638.2168915286957
 21
416.7739973287024
 31
0.0
  0
LINE
  5
EA
330
1F
100
AcDbEntity
  8
仕上
  6
Continuous
 62
     3
370
     9
100
AcDbLine
 10
-303.2168541181511
 20
401.7740347392473
 30
0.0
 11
-623.21692893924
 21
401.7740347392473
 31
0.0
  0
LINE
  5
EB
330
1F
100
AcDbEntity
  8
仕上
  6
Continuous
 62
     3
370
     9
100
AcDbLine
 10
-630.2168684343121
 20
408.7739742343189
 30
0.0
 11
-296.2169146230791
 21
408.7739742343189
 31
0.0
  0
ARC
  5
EC
330
1F
100
AcDbEntity
  8
躯体
  6
Continuous
 62
     2
370
     9
100
AcDbCircle
 10
-558.7224473986951
 20
42.92407138390654
 30
0.0
 40
2.0
100
AcDbArc
 50
180.0
 51
241.04497562814
  0
ARC
  5
ED
330
1F
100
AcDbEntity
  8
躯体
  6
Continuous
 62
     2
370
     9
100
AcDbCircle
 10
-542.7224473986952
 20
42.92407138390654
 30
0.0
 40
2.0
100
AcDbArc
 50
298.95502437186
 51
0.0
  0
LINE
  5
EE
330
1F
100
AcDbEntity
  8
躯体
  6
Continuous
 62
     2
370
     9
100
AcDbLine
 10
-540.7223988533586
 20
42.92407138390654
 30
0.0
 11
-540.7223988533586
 21
66.77395826855897
 31
0.0
  0
LINE
  5
EF
330
1F
100
AcDbEntity
  8
躯体
  6
Continuous
 62
     2
370
     9
100
AcDbLine
 10
-559.690693235247
 20
41.17407138390643
 30
0.0
 11
-541.7542015621434
 21
41.17407138390643
 31
0.0
  0
LINE
  5
F0
330
1F
100
AcDbEntity
  8
躯体
  6
Continuous
 62
     2
370
     9
100
AcDbLine
 10
-560.7224959440318
 20
42.92407138390654
 30
0.0
 11
-560.7224959440318
 21
66.77395826855897
 31
0.0
  0
CIRCLE
  5
F1
330
1F
100
AcDbEntity
  8
躯体
  6
Continuous
 62
     2
370
     9
100
AcDbCircle
 10
-550.7224473986951
 20
51.17407138390643
 30
0.0
 40
6.5
  0
ARC
  5
F2
330
1F
100
AcDbEntity
  8
躯体
  6
Continuous
 62
     2
370
     9
100
AcDbCircle
 10
-542.7222899209223
 20
440.6239232734981
 30
0.0
 40
2.0
100
AcDbArc
 50
0.0
 51
61.04497562814005
  0
ARC
  5
F3
330
1F
100
AcDbEntity
  8
躯体
  6
Continuous
 62
     2
370
     9
100
AcDbCircle
 10
-558.7222899209223
 20
440.6239232734981
 30
0.0
 40
2.0
100
AcDbArc
 50
118.95502437186
 51
180.0
  0
LINE
  5
F4
330
1F
100
AcDbEntity
  8
躯体
  6
Continuous
 62
     2
370
     9
100
AcDbLine
 10
-560.7223384662589
 20
440.6239232734981
 30
0.0
 11
-560.7223384662589
 21
416.7740363888461
 31
0.0
  0
LINE
  5
F5
330
1F
100
AcDbEntity
  8
躯体
  6
Continuous
 62
     2
370
     9
100
AcDbLine
 10
-559.6905357574741
 20
442.3739232734985
 30
0.0
 11
-541.7540440843704
 21
442.3739232734985
 31
0.0
  0
LINE
  5
F6
330
1F
100
AcDbEntity
  8
躯体
  6
Continuous
 62
     2
370
     9
100
AcDbLine
 10
-540.7222413755858
 20
440.6239232734981
 30
0.0
 11
-540.7222413755858
 21
416.7740363888461
 31
0.0
  0
CIRCLE
  5
F7
330
1F
100
AcDbEntity
  8
躯体
  6
Continuous
 62
     2
370
     9
100
AcDbCircle
 10
-550.7222899209222
 20
432.3739232734982
 30
0.0
 40
6.5
  0
ARC
  5
F8
330
1F
100
AcDbEntity
  8
躯体
  6
Continuous
 62
     2
370
     9
100
AcDbCircle
 10
-383.7224473986952
 20
42.92407138390654
 30
0.0
 40
2.0
100
AcDbArc
 50
180.0
 51
241.04497562814
  0
ARC
  5
F9
330
1F
100
AcDbEntity
  8
躯体
  6
Continuous
 62
     2
370
     9
100
AcDbCircle
 10
-367.7224473986952
 20
42.92407138390654
 30
0.0
 40
2.0
100
AcDbArc
 50
298.95502437186
 51
0.0
  0
LINE
  5
FA
330
1F
100
AcDbEntity
  8
躯体
  6
Continuous
 62
     2
370
     9
100
AcDbLine
 10
-365.7223988533588
 20
42.92407138390654
 30
0.0
 11
-365.7223988533588
 21
66.77395826855897
 31
0.0
  0
LINE
  5
FB
330
1F
100
AcDbEntity
  8
躯体
  6
Continuous
 62
     2
370
     9
100
AcDbLine
 10
-384.6906932352471
 20
41.17407138390643
 30
0.0
 11
-366.7542015621434
 21
41.17407138390643
 31
0.0
  0
LINE
  5
FC
330
1F
100
AcDbEntity
  8
躯体
  6
Continuous
 62
     2
370
     9
100
AcDbLine
 10
-385.7224959440319
 20
42.92407138390654
 30
0.0
 11
-385.7224959440319
 21
66.77395826855897
 31
0.0
  0
CIRCLE
  5
FD
330
1F
100
AcDbEntity
  8
躯体
  6
Continuous
 62
     2
370
     9
100
AcDbCircle
 10
-375.7224473986952
 20
51.17407138390643
 30
0.0
 40
6.5
  0
ARC
  5
FE
330
1F
100
AcDbEntity
  8
躯体
  6
Continuous
 62
     2
370
     9
100
AcDbCircle
 10
-367.7222899209225
 20
440.6239232734981
 30
0.0
 40
2.0
100
AcDbArc
 50
0.0
 51
61.04497562814005
  0
ARC
  5
FF
330
1F
100
AcDbEntity
  8
躯体
  6
Continuous
 62
     2
370
     9
100
AcDbCircle
 10
-383.7222899209224
 20
440.6239232734981
 30
0.0
 40
2.0
100
AcDbArc
 50
118.95502437186
 51
180.0
  0
LINE
  5
100
330
1F
100
AcDbEntity
  8
躯体
  6
Continuous
 62
     2
370
     9
100
AcDbLine
 10
-385.7223384662591
 20
440.6239232734981
 30
0.0
 11
-385.7223384662591
 21
416.7740363888461
 31
0.0
  0
LINE
  5
101
330
1F
100
AcDbEntity
  8
躯体
  6
Continuous
 62
     2
370
     9
100
AcDbLine
 10
-384.6905357574742
 20
442.3739232734985
 30
0.0
 11
-366.7540440843706
 21
442.3739232734985
 31
0.0
  0
LINE
  5
102
330
1F
100
AcDbEntity
  8
躯体
  6
Continuous
 62
     2
370
     9
100
AcDbLine
 10
-365.7222413755859
 20
440.6239232734981
 30
0.0
 11
-365.7222413755859
 21
416.7740363888461
 31
0.0
  0
CIRCLE
  5
103
330
1F
100
AcDbEntity
  8
躯体
  6
Continuous
 62
     2
370
     9
100
AcDbCircle
 10
-375.7222899209223
 20
432.3739232734982
 30
0.0
 40
6.5
  0
LINE
  5
104
330
1F
100
AcDbEntity
  8
躯体
  6
JWW_CENTER1
 62
     2
370
     9
100
AcDbLine
 10
-558.7507530295239
 20
51.17407138390643
 30
0.0
 11
-542.4124001735886
 21
51.17407138390643
 31
0.0
  0
LINE
  5
105
330
1F
100
AcDbEntity
  8
躯体
  6
JWW_CENTER1
 62
     2
370
     9
100
AcDbLine
 10
-542.9592906457536
 20
432.3739232734982
 30
0.0
 11
-559.1609208836476
 21
432.3739232734982
 31
0.0
  0
LINE
  5
106
330
1F
100
AcDbEntity
  8
躯体
  6
JWW_CENTER1
 62
     2
370
     9
100
AcDbLine
 10
-367.9592906457538
 20
432.3739232734982
 30
0.0
 11
-384.1609208836478
 21
432.3739232734982
 31
0.0
  0
LINE
  5
107
330
1F
100
AcDbEntity
  8
躯体
  6
JWW_CENTER1
 62
     2
370
     9
100
AcDbLine
 10
-383.7507530295239
 20
51.17407138390643
 30
0.0
 11
-367.4124001735886
 21
51.17407138390643
 31
0.0
  0
LINE
  5
108
330
1F
100
AcDbEntity
  8
躯体
  6
JWW_CENTER1
 62
     2
370
     9
100
AcDbLine
 10
-550.7224473986951
 20
414.1076263742916
 30
0.0
 11
-550.7224473986951
 21
447.8844580223313
 31
0.0
  0
LINE
  5
109
330
1F
100
AcDbEntity
  8
躯体
  6
JWW_CENTER1
 62
     2
370
     9
100
AcDbLine
 10
-550.7224473986951
 20
35.60842467125806
 30
0.0
 11
-550.7224473986951
 21
72.11720593788928
 31
0.0
  0
LINE
  5
10A
330
1F
100
AcDbEntity
  8
躯体
  6
JWW_CENTER1
 62
     2
370
     9
100
AcDbLine
 10
-375.7224473986952
 20
35.60842467125806
 30
0.0
 11
-375.7224473986952
 21
72.11720593788928
 31
0.0
  0
LINE
  5
10B
330
1F
100
AcDbEntity
  8
躯体
  6
JWW_CENTER1
 62
     2
370
     9
100
AcDbLine
 10
-375.7224473986952
 20
414.1076263742916
 30
0.0
 11
-375.7224473986952
 21
447.8844580223313
 31
0.0
  0
ARC
  5
10C
330
1F
100
AcDbEntity
  8
躯体
  6
Continuous
 62
     2
370
     9
100
AcDbCircle
 10
-662.0668174734917
 20
162.2795531987023
 30
0.0
 40
2.0
100
AcDbArc
 50
90.0
 51
151.04497562814
  0
ARC
  5
10D
330
1F
100
AcDbEntity
  8
躯体
  6
Continuous
 62
     2
370
     9
100
AcDbCircle
 10
-662.0668174734917
 20
146.2795531987021
 30
0.0
 40
2.0
100
AcDbArc
 50
208.95502437186
 51
270.0
  0
LINE
  5
10E
330
1F
100
AcDbEntity
  8
躯体
  6
Continuous
 62
     2
370
     9
100
AcDbLine
 10
-662.0668174734917
 20
144.2795046533655
 30
0.0
 11
-638.2169305888391
 21
144.2795046533655
 31
0.0
  0
LINE
  5
10F
330
1F
100
AcDbEntity
  8
躯体
  6
Continuous
 62
     2
370
     9
100
AcDbLine
 10
-663.8168174734913
 20
145.3113073621506
 30
0.0
 11
-663.8168174734913
 21
163.2477990352538
 31
0.0
  0
LINE
  5
110
330
1F
100
AcDbEntity
  8
躯体
  6
Continuous
 62
     2
370
     9
100
AcDbLine
 10
-662.0668174734917
 20
164.2796017440386
 30
0.0
 11
-638.2169305888391
 21
164.2796017440386
 31
0.0
  0
CIRCLE
  5
111
330
1F
100
AcDbEntity
  8
躯体
  6
Continuous
 62
     2
370
     9
100
AcDbCircle
 10
-653.8168174734915
 20
154.2795531987019
 30
0.0
 40
6.5
  0
ARC
  5
112
330
1F
100
AcDbEntity
  8
躯体
  6
Continuous
 62
     2
370
     9
100
AcDbCircle
 10
-264.3669655838999
 20
146.2793957209294
 30
0.0
 40
2.0
100
AcDbArc
 50
270.0
 51
331.04497562814
  0
ARC
  5
113
330
1F
100
AcDbEntity
  8
躯体
  6
Continuous
 62
     2
370
     9
100
AcDbCircle
 10
-264.3669655838999
 20
162.2793957209293
 30
0.0
 40
2.0
100
AcDbArc
 50
28.95502437185994
 51
90.0
  0
LINE
  5
114
330
1F
100
AcDbEntity
  8
躯体
  6
Continuous
 62
     2
370
     9
100
AcDbLine
 10
-264.3669655838999
 20
164.2794442662659
 30
0.0
 11
-288.2168524685522
 21
164.2794442662659
 31
0.0
  0
LINE
  5
115
330
1F
100
AcDbEntity
  8
躯体
  6
Continuous
 62
     2
370
     9
100
AcDbLine
 10
-262.6169655838999
 20
145.3111498843776
 30
0.0
 11
-262.6169655838999
 21
163.2476415574811
 31
0.0
  0
LINE
  5
116
330
1F
100
AcDbEntity
  8
躯体
  6
Continuous
 62
     2
370
     9
100
AcDbLine
 10
-264.3669655838999
 20
144.2793471755925
 30
0.0
 11
-288.2168524685522
 21
144.2793471755925
 31
0.0
  0
CIRCLE
  5
117
330
1F
100
AcDbEntity
  8
躯体
  6
Continuous
 62
     2
370
     9
100
AcDbCircle
 10
-272.6169655838999
 20
154.2793957209292
 30
0.0
 40
6.5
  0
LINE
  5
118
330
1F
100
AcDbEntity
  8
躯体
  6
JWW_CENTER1
 62
     2
370
     9
100
AcDbLine
 10
-272.6169655838999
 20
146.4885674081989
 30
0.0
 11
-272.6169655838999
 21
162.2116684829484
 31
0.0
  0
LINE
  5
119
330
1F
100
AcDbEntity
  8
躯体
  6
JWW_CENTER1
 62
     2
370
     9
100
AcDbLine
 10
-653.8168174734915
 20
161.8029787111817
 30
0.0
 11
-653.8168174734915
 21
146.261312245779
 31
0.0
  0
ARC
  5
11A
330
1F
100
AcDbEntity
  8
躯体
  6
Continuous
 62
     2
370
     9
100
AcDbCircle
 10
-662.0668174734917
 20
337.279553198702
 30
0.0
 40
2.0
100
AcDbArc
 50
90.0
 51
151.04497562814
  0
ARC
  5
11B
330
1F
100
AcDbEntity
  8
躯体
  6
Continuous
 62
     2
370
     9
100
AcDbCircle
 10
-662.0668174734917
 20
321.2795531987018
 30
0.0
 40
2.0
100
AcDbArc
 50
208.95502437186
 51
270.0
  0
LINE
  5
11C
330
1F
100
AcDbEntity
  8
躯体
  6
Continuous
 62
     2
370
     9
100
AcDbLine
 10
-662.0668174734917
 20
319.2795046533652
 30
0.0
 11
-638.2169305888391
 21
319.2795046533652
 31
0.0
  0
LINE
  5
11D
330
1F
100
AcDbEntity
  8
躯体
  6
Continuous
 62
     2
370
     9
100
AcDbLine
 10
-663.8168174734913
 20
320.3113073621503
 30
0.0
 11
-663.8168174734913
 21
338.2477990352535
 31
0.0
  0
LINE
  5
11E
330
1F
100
AcDbEntity
  8
躯体
  6
Continuous
 62
     2
370
     9
100
AcDbLine
 10
-662.0668174734917
 20
339.2796017440384
 30
0.0
 11
-638.2169305888391
 21
339.2796017440384
 31
0.0
  0
CIRCLE
  5
11F
330
1F
100
AcDbEntity
  8
躯体
  6
Continuous
 62
     2
370
     9
100
AcDbCircle
 10
-653.8168174734915
 20
329.2795531987016
 30
0.0
 40
6.5
  0
ARC
  5
120
330
1F
100
AcDbEntity
  8
躯体
  6
Continuous
 62
     2
370
     9
100
AcDbCircle
 10
-264.3669655838999
 20
321.2793957209291
 30
0.0
 40
2.0
100
AcDbArc
 50
270.0
 51
331.04497562814
  0
ARC
  5
121
330
1F
100
AcDbEntity
  8
躯体
  6
Continuous
 62
     2
370
     9
100
AcDbCircle
 10
-264.3669655838999
 20
337.279395720929
 30
0.0
 40
2.0
100
AcDbArc
 50
28.95502437185994
 51
90.0
  0
LINE
  5
122
330
1F
100
AcDbEntity
  8
躯体
  6
Continuous
 62
     2
370
     9
100
AcDbLine
 10
-264.3669655838999
 20
339.2794442662656
 30
0.0
 11
-288.2168524685522
 21
339.2794442662656
 31
0.0
  0
LINE
  5
123
330
1F
100
AcDbEntity
  8
躯体
  6
Continuous
 62
     2
370
     9
100
AcDbLine
 10
-262.6169655838999
 20
320.3111498843773
 30
0.0
 11
-262.6169655838999
 21
338.2476415574808
 31
0.0
  0
LINE
  5
124
330
1F
100
AcDbEntity
  8
躯体
  6
Continuous
 62
     2
370
     9
100
AcDbLine
 10
-264.3669655838999
 20
319.2793471755922
 30
0.0
 11
-288.2168524685522
 21
319.2793471755922
 31
0.0
  0
CIRCLE
  5
125
330
1F
100
AcDbEntity
  8
躯体
  6
Continuous
 62
     2
370
     9
100
AcDbCircle
 10
-272.6169655838999
 20
329.2793957209289
 30
0.0
 40
6.5
  0
LINE
  5
126
330
1F
100
AcDbEntity
  8
躯体
  6
JWW_CENTER1
 62
     2
370
     9
100
AcDbLine
 10
-272.6169655838999
 20
321.4885674081986
 30
0.0
 11
-272.6169655838999
 21
337.2116684829481
 31
0.0
  0
LINE
  5
127
330
1F
100
AcDbEntity
  8
躯体
  6
JWW_CENTER1
 62
     2
370
     9
100
AcDbLine
 10
-653.8168174734915
 20
336.8029787111814
 30
0.0
 11
-653.8168174734915
 21
321.2613122457788
 31
0.0
  0
LINE
  5
128
330
1F
100
AcDbEntity
  8
躯体
  6
JWW_CENTER1
 62
     2
370
     9
100
AcDbLine
 10
-259.9524893681611
 20
154.2793957209292
 30
0.0
 11
-292.1839757774017
 21
154.2793957209292
 31
0.0
  0
LINE
  5
129
330
1F
100
AcDbEntity
  8
躯体
  6
JWW_CENTER1
 62
     2
370
     9
100
AcDbLine
 10
-259.9524893681611
 20
329.2793957209289
 30
0.0
 11
-292.1839757774017
 21
329.2793957209289
 31
0.0
  0
LINE
  5
12A
330
1F
100
AcDbEntity
  8
躯体
  6
JWW_CENTER1
 62
     2
370
     9
100
AcDbLine
 10
-636.00642752369
 20
154.2793957209292
 30
0.0
 11
-668.2379139329305
 21
154.2793957209292
 31
0.0
  0
LINE
  5
12B
330
1F
100
AcDbEntity
  8
躯体
  6
JWW_CENTER1
 62
     2
370
     9
100
AcDbLine
 10
-634.9639327197381
 20
329.2795531987016
 30
0.0
 11
-667.4161827345213
 21
329.2795531987016
 31
0.0
  0
LINE
  5
12C
330
1F
100
AcDbEntity
  8
躯体
  6
JWW_DASHED1
 62
     2
370
     9
100
AcDbLine
 10
-618.2168750327073
 20
86.7740138246907
 30
0.0
 11
-618.2168750327073
 21
396.7739808327144
 31
0.0
  0
LINE
  5
12D
330
1F
100
AcDbEntity
  8
躯体
  6
JWW_DASHED1
 62
     2
370
     9
100
AcDbLine
 10
-308.2169080246837
 20
396.7739808327144
 30
0.0
 11
-308.2169080246837
 21
86.77401382469066
 31
0.0
  0
LINE
  5
12E
330
1F
100
AcDbEntity
  8
躯体
  6
JWW_DASHED1
 62
     2
370
     9
100
AcDbLine
 10
-308.2169080246837
 20
86.77401382469068
 30
0.0
 11
-618.2168750327074
 21
86.77401382469068
 31
0.0
  0
LINE
  5
12F
330
1F
100
AcDbEntity
  8
躯体
  6
JWW_DASHED1
 62
     2
370
     9
100
AcDbLine
 10
-618.2168750327073
 20
396.7739808327144
 30
0.0
 11
-308.2169080246837
 21
396.7739808327144
 31
0.0
  0
ARC
  5
130
330
1F
100
AcDbEntity
  8
D-2
  6
Continuous
 62
     3
370
     9
100
AcDbCircle
 10
632.9564913464936
 20
234.1842092343808
 30
0.0
 40
1.249999942322726
100
AcDbArc
 50
270.0
 51
0.0000000000000127
  0
ARC
  5
131
330
1F
100
AcDbEntity
  8
D-2
  6
Continuous
 62
     3
370
     9
100
AcDbCircle
 10
632.9564913464936
 20
299.184260637058
 30
0.0
 40
1.249999942322726
100
AcDbArc
 50
0.0
 51
90.0
  0
ARC
  5
132
330
1F
100
AcDbEntity
  8
D-2
  6
Continuous
 62
     3
370
     9
100
AcDbCircle
 10
617.9564710210788
 20
299.184260637058
 30
0.0
 40
1.249999942322726
100
AcDbArc
 50
90.00000000000001
 51
180.0
  0
LINE
  5
133
330
1F
100
AcDbEntity
  8
D-2
  6
Continuous
 62
     3
370
     9
100
AcDbLine
 10
619.2064508429509
 20
297.9342151994479
 30
0.0
 11
619.2064508429509
 21
287.9341797772591
 31
0.0
  0
LINE
  5
134
330
1F
100
AcDbEntity
  8
D-2
  6
Continuous
 62
     3
370
     9
100
AcDbLine
 10
631.7066427560986
 20
297.9342151994479
 30
0.0
 11
619.2064508429509
 21
297.9342151994479
 31
0.0
  0
LINE
  5
135
330
1F
100
AcDbEntity
  8
D-2
  6
Continuous
 62
     3
370
     9
100
AcDbLine
 10
631.7066427560986
 20
297.9342151994479
 30
0.0
 11
631.7066427560986
 21
235.4342294125093
 31
0.0
  0
LINE
  5
136
330
1F
100
AcDbEntity
  8
D-2
  6
Continuous
 62
     3
370
     9
100
AcDbLine
 10
634.2063399368875
 20
234.1842092343808
 30
0.0
 11
634.2063399368875
 21
299.184260637058
 31
0.0
  0
LINE
  5
137
330
1F
100
AcDbEntity
  8
D-2
  6
Continuous
 62
     3
370
     9
100
AcDbLine
 10
632.9564913464936
 20
300.4342404589295
 30
0.0
 11
617.9564710210788
 21
300.4342404589295
 31
0.0
  0
LINE
  5
138
330
1F
100
AcDbEntity
  8
D-2
  6
Continuous
 62
     3
370
     9
100
AcDbLine
 10
619.2064508429509
 20
287.9341797772591
 30
0.0
 11
616.7064911992078
 21
287.9341797772591
 31
0.0
  0
LINE
  5
139
330
1F
100
AcDbEntity
  8
D-2
  6
Continuous
 62
     3
370
     9
100
AcDbLine
 10
616.7064780907891
 20
299.188447525082
 30
0.0
 11
616.7064780907891
 21
287.9341797772591
 31
0.0
  0
LINE
  5
13A
330
1F
100
AcDbEntity
  8
D-1
  6
Continuous
 62
     2
370
     9
100
AcDbLine
 10
634.2796983327322
 20
215.4342293229006
 30
0.0
 11
634.2796983327322
 21
232.934209292058
 31
0.0
  0
LINE
  5
13B
330
1F
100
AcDbEntity
  8
D-1
  6
Continuous
 62
     2
370
     9
100
AcDbLine
 10
633.0297185108612
 20
232.934209292058
 30
0.0
 11
634.2796983327322
 21
232.934209292058
 31
0.0
  0
LINE
  5
13C
330
1F
100
AcDbEntity
  8
D-1
  6
Continuous
 62
     2
370
     9
100
AcDbLine
 10
606.7794860941707
 20
225.4341991293509
 30
0.0
 11
606.7794860941707
 21
232.9341991293506
 31
0.0
  0
LINE
  5
13D
330
1F
100
AcDbEntity
  8
D-1
  6
Continuous
 62
     2
370
     9
100
AcDbLine
 10
606.7796173256478
 20
219.4852137975837
 30
0.0
 11
620.2286128201218
 21
232.934209292058
 31
0.0
  0
LINE
  5
13E
330
1F
100
AcDbEntity
  8
D-1
  6
Continuous
 62
     2
370
     9
100
AcDbLine
 10
606.7796173256478
 20
222.667249044915
 30
0.0
 11
617.0466431885292
 21
232.934209292058
 31
0.0
  0
LINE
  5
13F
330
1F
100
AcDbEntity
  8
D-1
  6
Continuous
 62
     2
370
     9
100
AcDbLine
 10
606.7796173256478
 20
225.8491530607693
 30
0.0
 11
613.8646735569365
 21
232.934209292058
 31
0.0
  0
LINE
  5
140
330
1F
100
AcDbEntity
  8
D-1
  6
Continuous
 62
     2
370
     9
100
AcDbLine
 10
606.7842104273553
 20
229.0357814098084
 30
0.0
 11
610.6825726938667
 21
232.934209292058
 31
0.0
  0
LINE
  5
141
330
1F
100
AcDbEntity
  8
D-1
  6
Continuous
 62
     2
370
     9
100
AcDbLine
 10
606.7796173256478
 20
232.2137484813416
 30
0.0
 11
607.5007342937512
 21
232.934209292058
 31
0.0
  0
LINE
  5
142
330
1F
100
AcDbEntity
  8
D-1
  6
Continuous
 62
     2
370
     9
100
AcDbLine
 10
609.0925721141504
 20
215.4342293229006
 30
0.0
 11
626.5925520833072
 21
232.934209292058
 31
0.0
  0
LINE
  5
143
330
1F
100
AcDbEntity
  8
D-1
  6
Continuous
 62
     2
370
     9
100
AcDbLine
 10
612.274541745743
 20
215.4342293229006
 30
0.0
 11
629.774521714901
 21
232.934209292058
 31
0.0
  0
LINE
  5
144
330
1F
100
AcDbEntity
  8
D-1
  6
Continuous
 62
     2
370
     9
100
AcDbLine
 10
615.4565113773357
 20
215.4342293229006
 30
0.0
 11
632.9564913464936
 21
232.934209292058
 31
0.0
  0
LINE
  5
145
330
1F
100
AcDbEntity
  8
D-1
  6
Continuous
 62
     2
370
     9
100
AcDbLine
 10
621.820450640521
 20
215.4342293229006
 30
0.0
 11
634.2796983327322
 21
227.8935426308507
 31
0.0
  0
LINE
  5
146
330
1F
100
AcDbEntity
  8
D-1
  6
Continuous
 62
     2
370
     9
100
AcDbLine
 10
625.0024202721137
 20
215.4342293229006
 30
0.0
 11
634.2796983327322
 21
224.7115073835192
 31
0.0
  0
LINE
  5
147
330
1F
100
AcDbEntity
  8
D-1
  6
Continuous
 62
     2
370
     9
100
AcDbLine
 10
628.1843899037075
 20
215.4342293229006
 30
0.0
 11
634.2796983327322
 21
221.5296033676653
 31
0.0
  0
LINE
  5
148
330
1F
100
AcDbEntity
  8
D-1
  6
Continuous
 62
     2
370
     9
100
AcDbLine
 10
631.3663595353001
 20
215.4342293229006
 30
0.0
 11
634.2796983327322
 21
218.3475681203338
 31
0.0
  0
LINE
  5
149
330
1F
100
AcDbEntity
  8
D-1
  6
Continuous
 62
     2
370
     9
100
AcDbLine
 10
606.7796173256478
 20
216.3032441659909
 30
0.0
 11
623.4105824517145
 21
232.934209292058
 31
0.0
  0
LINE
  5
14A
330
1F
100
AcDbEntity
  8
D-1
  6
Continuous
 62
     2
370
     9
100
AcDbLine
 10
618.6384810089284
 20
215.4342293229006
 30
0.0
 11
634.2795671012551
 21
231.0752497994887
 31
0.0
  0
LINE
  5
14B
330
1F
100
AcDbEntity
  8
D-1
  6
Continuous
 62
     2
370
     9
100
AcDbLine
 10
639.2793458782718
 20
297.9340405762488
 30
0.0
 11
651.779510838153
 21
297.9340405762488
 31
0.0
  0
LINE
  5
14C
330
1F
100
AcDbEntity
  8
D-1
  6
Continuous
 62
     2
370
     9
100
AcDbLine
 10
654.2793953662364
 20
299.1842302801127
 30
0.0
 11
654.2793953662364
 21
287.9342550240955
 31
0.0
  0
ARC
  5
14D
330
1F
100
AcDbEntity
  8
D-1
  6
Continuous
 62
     2
370
     9
100
AcDbCircle
 10
653.0294531021947
 20
299.1842302801127
 30
0.0
 40
1.250000016109364
100
AcDbArc
 50
0.0
 51
90.0
  0
ARC
  5
14E
330
1F
100
AcDbEntity
  8
D-1
  6
Continuous
 62
     2
370
     9
100
AcDbCircle
 10
638.0294036142301
 20
299.1842302801127
 30
0.0
 40
1.250000016109364
100
AcDbArc
 50
90.0
 51
180.0
  0
LINE
  5
14F
330
1F
100
AcDbEntity
  8
D-1
  6
Continuous
 62
     2
370
     9
100
AcDbLine
 10
638.01738792297
 20
300.4341725441545
 30
0.0
 11
653.0294531021947
 21
300.4341725441545
 31
0.0
  0
LINE
  5
150
330
1F
100
AcDbEntity
  8
D-1
  6
Continuous
 62
     2
370
     9
100
AcDbLine
 10
651.779510838153
 20
287.9342550240955
 30
0.0
 11
654.2793953662364
 21
287.9342550240955
 31
0.0
  0
LINE
  5
151
330
1F
100
AcDbEntity
  8
D-1
  6
Continuous
 62
     2
370
     9
100
AcDbLine
 10
651.779510838153
 20
297.9340405762488
 30
0.0
 11
651.779510838153
 21
287.9342550240955
 31
0.0
  0
LINE
  5
152
330
1F
100
AcDbEntity
  8
D-1
  6
Continuous
 62
     2
370
     9
100
AcDbLine
 10
606.7794860941707
 20
215.434166137374
 30
0.0
 11
636.7793376302769
 21
215.434166137374
 31
0.0
  0
ARC
  5
153
330
1F
100
AcDbEntity
  8
D-1
  6
Continuous
 62
     2
370
     9
100
AcDbCircle
 10
638.0294036142301
 20
214.1841001534214
 30
0.0
 40
1.250000016109364
100
AcDbArc
 50
270.0
 51
0.0
  0
ARC
  5
154
330
1F
100
AcDbEntity
  8
D-1
  6
Continuous
 62
     2
370
     9
100
AcDbCircle
 10
605.5294201102175
 20
214.1841001534214
 30
0.0
 40
1.250000016109364
100
AcDbArc
 50
180.0
 51
270.0
  0
LINE
  5
155
330
1F
100
AcDbEntity
  8
D-1
  6
Continuous
 62
     2
370
     9
100
AcDbLine
 10
636.7793376302769
 20
299.1842302801127
 30
0.0
 11
636.7793376302769
 21
215.434166137374
 31
0.0
  0
LINE
  5
156
330
1F
100
AcDbEntity
  8
D-1
  6
Continuous
 62
     2
370
     9
100
AcDbLine
 10
638.0294036142301
 20
212.9342816092915
 30
0.0
 11
605.5294201102175
 21
212.9342816092915
 31
0.0
  0
LINE
  5
157
330
1F
100
AcDbEntity
  8
D-1
  6
Continuous
 62
     2
370
     9
100
AcDbLine
 10
606.7794860941707
 20
225.4341991293509
 30
0.0
 11
606.7794860941707
 21
215.434166137374
 31
0.0
  0
LINE
  5
158
330
1F
100
AcDbEntity
  8
D-1
  6
Continuous
 62
     2
370
     9
100
AcDbLine
 10
639.2793173944711
 20
242.4637410580024
 30
0.0
 11
643.2793173944709
 21
242.4637410580024
 31
0.0
  0
LINE
  5
159
330
1F
100
AcDbEntity
  8
D-1
  6
Continuous
 62
     2
370
     9
100
AcDbLine
 10
639.2793458782718
 20
214.1841001534214
 30
0.0
 11
639.2793458782718
 21
297.9340405762488
 31
0.0
  0
LINE
  5
15A
330
1F
100
AcDbEntity
  8
D-1
  6
Continuous
 62
     2
370
     9
100
AcDbLine
 10
604.2793541262655
 20
214.1841001534214
 30
0.0
 11
604.2793541262655
 21
225.4341991293509
 31
0.0
  0
LINE
  5
15B
330
1F
100
AcDbEntity
  8
D-1
  6
Continuous
 62
     2
370
     9
100
AcDbLine
 10
606.7794860941707
 20
225.4341991293509
 30
0.0
 11
604.2793541262655
 21
225.4341991293509
 31
0.0
  0
LINE
  5
15C
330
1F
100
AcDbEntity
  8
D-1
  6
Continuous
 62
     2
370
     9
100
AcDbLine
 10
647.2793173944718
 20
231.9637410580024
 30
0.0
 11
647.2793173944718
 21
227.9637410580023
 31
0.0
  0
LINE
  5
15D
330
1F
100
AcDbEntity
  8
D-1
  6
Continuous
 62
     2
370
     9
100
AcDbLine
 10
647.2793173944718
 20
231.9637410580024
 30
0.0
 11
716.7793173944711
 21
231.9637410580024
 31
0.0
  0
LINE
  5
15E
330
1F
100
AcDbEntity
  8
D-1
  6
Continuous
 62
     2
370
     9
100
AcDbLine
 10
647.2793173944718
 20
227.9637410580023
 30
0.0
 11
716.7793173944711
 21
227.9637410580023
 31
0.0
  0
LINE
  5
15F
330
1F
100
AcDbEntity
  8
D-1
  6
Continuous
 62
     2
370
     9
100
AcDbLine
 10
716.7793173944711
 20
227.9637410580023
 30
0.0
 11
716.7793173944711
 21
231.9637410580024
 31
0.0
  0
LINE
  5
160
330
1F
100
AcDbEntity
  8
D-1
  6
Continuous
 62
     2
370
     9
100
AcDbLine
 10
643.2793173944709
 20
235.9637410580024
 30
0.0
 11
643.2793173944709
 21
297.9340405762488
 31
0.0
  0
ARC
  5
161
330
1F
100
AcDbEntity
  8
D-1
  6
Continuous
 62
     2
370
     9
100
AcDbCircle
 10
647.2793173944718
 20
235.9637410580024
 30
0.0
 40
8.0
100
AcDbArc
 50
180.0
 51
270.0
  0
ARC
  5
162
330
1F
100
AcDbEntity
  8
D-1
  6
Continuous
 62
     2
370
     9
100
AcDbCircle
 10
647.2793173944718
 20
235.9637410580024
 30
0.0
 40
4.0
100
AcDbArc
 50
180.0
 51
270.0
  0
LINE
  5
163
330
1F
100
AcDbEntity
  8
D-5
  6
Continuous
 62
     7
370
     9
100
AcDbLine
 10
651.710126978618
 20
300.4341725441545
 30
0.0
 11
656.4936336298002
 21
311.9826839461816
 31
0.0
  0
LINE
  5
164
330
1F
100
AcDbEntity
  8
D-5
  6
Continuous
 62
     7
370
     9
100
AcDbLine
 10
651.710126978618
 20
300.4341725441545
 30
0.0
 11
659.319643844117
 21
310.3510657557255
 31
0.0
  0
LINE
  5
165
330
1F
100
AcDbEntity
  8
D-5
  6
Continuous
 62
     7
370
     9
100
AcDbLine
 10
669.6752538331397
 20
231.9637410580025
 30
0.0
 11
674.4587604843231
 21
243.5122524600295
 31
0.0
  0
LINE
  5
166
330
1F
100
AcDbEntity
  8
D-5
  6
Continuous
 62
     7
370
     9
100
AcDbLine
 10
669.6752538331397
 20
231.9637410580025
 30
0.0
 11
677.2847706986387
 21
241.8806342695735
 31
0.0
  0
LINE
  5
167
330
1F
100
AcDbEntity
  8
D-5
  6
Continuous
 62
     7
370
     9
100
AcDbLine
 10
729.7870736951326
 20
336.0806008327949
 30
0.0
 11
669.6752538331397
 21
231.9637410580024
 31
0.0
  0
LINE
  5
168
330
1F
100
AcDbEntity
  8
D-5
  6
Continuous
 62
     7
370
     9
100
AcDbLine
 10
624.1874036077014
 20
300.4341725441545
 30
0.0
 11
628.9709102588837
 21
311.9826839461816
 31
0.0
  0
LINE
  5
169
330
1F
100
AcDbEntity
  8
D-5
  6
Continuous
 62
     7
370
     9
100
AcDbLine
 10
624.1874036077014
 20
300.4341725441545
 30
0.0
 11
631.7969204731993
 21
310.3510657557255
 31
0.0
  0
LINE
  5
16A
330
1F
100
AcDbEntity
  8
D-6
  6
Continuous
 62
     6
370
     9
100
AcDbLine
 10
604.2793541262655
 20
214.1841001534214
 30
0.0
 11
604.2793541262655
 21
39.70915890102297
 31
0.0
  0
LINE
  5
16B
330
1F
100
AcDbEntity
  8
D-6
  6
Continuous
 62
     6
370
     9
100
AcDbLine
 10
737.940466993739
 20
280.4341065602018
 30
0.0
 11
757.940780417514
 21
300.4341725441545
 31
0.0
  0
LINE
  5
16C
330
1F
100
AcDbEntity
  8
D-6
  6
Continuous
 62
     6
370
     9
100
AcDbLine
 10
712.9406319536203
 20
280.4341065602018
 30
0.0
 11
732.9409453773964
 21
300.4341725441545
 31
0.0
  0
LINE
  5
16D
330
1F
100
AcDbEntity
  8
D-6
  6
Continuous
 62
     7
370
     9
100
AcDbLine
 10
657.0145970639068
 20
283.8412533412625
 30
0.0
 11
657.0145970639068
 21
284.5913944850613
 31
0.0
  0
LINE
  5
16E
330
1F
100
AcDbEntity
  8
D-6
  6
Continuous
 62
     7
370
     9
100
AcDbLine
 10
657.0145970639068
 20
284.5913944850613
 30
0.0
 11
657.7644902523833
 21
284.5913944850613
 31
0.0
  0
LINE
  5
16F
330
1F
100
AcDbEntity
  8
D-6
  6
Continuous
 62
     7
370
     9
100
AcDbLine
 10
657.7644902523833
 20
284.5913944850613
 30
0.0
 11
657.7644902523833
 21
283.8412533412625
 31
0.0
  0
LINE
  5
170
330
1F
100
AcDbEntity
  8
D-6
  6
Continuous
 62
     7
370
     9
100
AcDbLine
 10
657.7644902523833
 20
283.8412533412625
 30
0.0
 11
657.0145970639068
 21
283.8412533412625
 31
0.0
  0
LINE
  5
171
330
1F
100
AcDbEntity
  8
D-6
  6
Continuous
 62
     7
370
     9
100
AcDbLine
 10
660.6381873763486
 20
257.9584653952465
 30
0.0
 11
660.6381873763486
 21
258.7086065390454
 31
0.0
  0
LINE
  5
172
330
1F
100
AcDbEntity
  8
D-6
  6
Continuous
 62
     7
370
     9
100
AcDbLine
 10
660.6381873763486
 20
258.7086065390454
 30
0.0
 11
661.3880805648251
 21
258.7086065390454
 31
0.0
  0
LINE
  5
173
330
1F
100
AcDbEntity
  8
D-6
  6
Continuous
 62
     7
370
     9
100
AcDbLine
 10
661.3880805648251
 20
258.7086065390454
 30
0.0
 11
661.3880805648251
 21
257.9584653952465
 31
0.0
  0
LINE
  5
174
330
1F
100
AcDbEntity
  8
D-6
  6
Continuous
 62
     7
370
     9
100
AcDbLine
 10
661.3880805648251
 20
257.9584653952465
 30
0.0
 11
660.6381873763486
 21
257.9584653952465
 31
0.0
  0
LINE
  5
175
330
1F
100
AcDbEntity
  8
D-6
  6
Continuous
 62
     7
370
     9
100
AcDbLine
 10
676.6855159028786
 20
257.9584653952465
 30
0.0
 11
676.6855159028786
 21
258.7086065390454
 31
0.0
  0
LINE
  5
176
330
1F
100
AcDbEntity
  8
D-6
  6
Continuous
 62
     7
370
     9
100
AcDbLine
 10
676.6855159028786
 20
258.7086065390454
 30
0.0
 11
677.4354090913552
 21
258.7086065390454
 31
0.0
  0
LINE
  5
177
330
1F
100
AcDbEntity
  8
D-6
  6
Continuous
 62
     7
370
     9
100
AcDbLine
 10
677.4354090913552
 20
258.7086065390454
 30
0.0
 11
677.4354090913552
 21
257.9584653952465
 31
0.0
  0
LINE
  5
178
330
1F
100
AcDbEntity
  8
D-6
  6
Continuous
 62
     7
370
     9
100
AcDbLine
 10
677.4354090913552
 20
257.9584653952465
 30
0.0
 11
676.6855159028786
 21
257.9584653952465
 31
0.0
  0
LINE
  5
179
330
1F
100
AcDbEntity
  8
D-6
  6
Continuous
 62
     7
370
     9
100
AcDbLine
 10
671.6815102333159
 20
276.7666246360181
 30
0.0
 11
671.6815102333159
 21
277.5167657798169
 31
0.0
  0
LINE
  5
17A
330
1F
100
AcDbEntity
  8
D-6
  6
Continuous
 62
     7
370
     9
100
AcDbLine
 10
671.6815102333159
 20
277.5167657798169
 30
0.0
 11
672.4314034217924
 21
277.5167657798169
 31
0.0
  0
LINE
  5
17B
330
1F
100
AcDbEntity
  8
D-6
  6
Continuous
 62
     7
370
     9
100
AcDbLine
 10
672.4314034217924
 20
277.5167657798169
 30
0.0
 11
672.4314034217924
 21
276.7666246360181
 31
0.0
  0
LINE
  5
17C
330
1F
100
AcDbEntity
  8
D-6
  6
Continuous
 62
     7
370
     9
100
AcDbLine
 10
672.4314034217924
 20
276.7666246360181
 30
0.0
 11
671.6815102333159
 21
276.7666246360181
 31
0.0
  0
LINE
  5
17D
330
1F
100
AcDbEntity
  8
D-6
  6
Continuous
 62
     7
370
     9
100
AcDbLine
 10
685.4856638045238
 20
247.08769445792
 30
0.0
 11
685.4856638045238
 21
247.8378356017188
 31
0.0
  0
LINE
  5
17E
330
1F
100
AcDbEntity
  8
D-6
  6
Continuous
 62
     7
370
     9
100
AcDbLine
 10
685.4856638045238
 20
247.8378356017188
 30
0.0
 11
686.2355569930004
 21
247.8378356017188
 31
0.0
  0
LINE
  5
17F
330
1F
100
AcDbEntity
  8
D-6
  6
Continuous
 62
     7
370
     9
100
AcDbLine
 10
686.2355569930004
 20
247.8378356017188
 30
0.0
 11
686.2355569930004
 21
247.08769445792
 31
0.0
  0
LINE
  5
180
330
1F
100
AcDbEntity
  8
D-6
  6
Continuous
 62
     7
370
     9
100
AcDbLine
 10
686.2355569930004
 20
247.08769445792
 30
0.0
 11
685.4856638045238
 21
247.08769445792
 31
0.0
  0
LINE
  5
181
330
1F
100
AcDbEntity
  8
D-6
  6
Continuous
 62
     7
370
     9
100
AcDbLine
 10
682.6119666805586
 20
268.3115805736531
 30
0.0
 11
681.862073492082
 21
268.3115805736531
 31
0.0
  0
LINE
  5
182
330
1F
100
AcDbEntity
  8
D-6
  6
Continuous
 62
     7
370
     9
100
AcDbLine
 10
653.9086625103847
 20
271.4175151271749
 30
0.0
 11
653.9086625103847
 21
272.1676562709737
 31
0.0
  0
LINE
  5
183
330
1F
100
AcDbEntity
  8
D-6
  6
Continuous
 62
     7
370
     9
100
AcDbLine
 10
653.9086625103847
 20
272.1676562709737
 30
0.0
 11
654.6585556988613
 21
272.1676562709737
 31
0.0
  0
LINE
  5
184
330
1F
100
AcDbEntity
  8
D-6
  6
Continuous
 62
     7
370
     9
100
AcDbLine
 10
654.6585556988613
 20
272.1676562709737
 30
0.0
 11
654.6585556988613
 21
271.4175151271749
 31
0.0
  0
LINE
  5
185
330
1F
100
AcDbEntity
  8
D-6
  6
Continuous
 62
     7
370
     9
100
AcDbLine
 10
654.6585556988613
 20
271.4175151271749
 30
0.0
 11
653.9086625103847
 21
271.4175151271749
 31
0.0
  0
LINE
  5
186
330
1F
100
AcDbEntity
  8
D-6
  6
Continuous
 62
     7
370
     9
100
AcDbLine
 10
816.2747900456749
 20
187.4702926619283
 30
0.0
 11
816.2747900456749
 21
188.2204338057272
 31
0.0
  0
LINE
  5
187
330
1F
100
AcDbEntity
  8
D-6
  6
Continuous
 62
     7
370
     9
100
AcDbLine
 10
816.2747900456749
 20
188.2204338057272
 30
0.0
 11
817.0246832341514
 21
188.2204338057272
 31
0.0
  0
LINE
  5
188
330
1F
100
AcDbEntity
  8
D-6
  6
Continuous
 62
     7
370
     9
100
AcDbLine
 10
817.0246832341514
 20
188.2204338057272
 30
0.0
 11
817.0246832341514
 21
187.4702926619283
 31
0.0
  0
LINE
  5
189
330
1F
100
AcDbEntity
  8
D-6
  6
Continuous
 62
     7
370
     9
100
AcDbLine
 10
817.0246832341514
 20
187.4702926619283
 30
0.0
 11
816.2747900456749
 21
187.4702926619283
 31
0.0
  0
LINE
  5
18A
330
1F
100
AcDbEntity
  8
D-6
  6
Continuous
 62
     7
370
     9
100
AcDbLine
 10
627.4454726528519
 20
198.5423741721684
 30
0.0
 11
627.4454726528519
 21
199.2925153159673
 31
0.0
  0
LINE
  5
18B
330
1F
100
AcDbEntity
  8
D-6
  6
Continuous
 62
     7
370
     9
100
AcDbLine
 10
627.4454726528519
 20
199.2925153159673
 30
0.0
 11
628.1953658413285
 21
199.2925153159673
 31
0.0
  0
LINE
  5
18C
330
1F
100
AcDbEntity
  8
D-6
  6
Continuous
 62
     7
370
     9
100
AcDbLine
 10
628.1953658413285
 20
199.2925153159673
 30
0.0
 11
628.1953658413285
 21
198.5423741721684
 31
0.0
  0
LINE
  5
18D
330
1F
100
AcDbEntity
  8
D-6
  6
Continuous
 62
     7
370
     9
100
AcDbLine
 10
628.1953658413285
 20
198.5423741721684
 30
0.0
 11
627.4454726528519
 21
198.5423741721684
 31
0.0
  0
LINE
  5
18E
330
1F
100
AcDbEntity
  8
D-6
  6
Continuous
 62
     7
370
     9
100
AcDbLine
 10
614.1354450333405
 20
199.1619924290578
 30
0.0
 11
614.1354450333405
 21
199.9121335728566
 31
0.0
  0
LINE
  5
18F
330
1F
100
AcDbEntity
  8
D-6
  6
Continuous
 62
     7
370
     9
100
AcDbLine
 10
614.1354450333405
 20
199.9121335728566
 30
0.0
 11
614.885338221817
 21
199.9121335728566
 31
0.0
  0
LINE
  5
190
330
1F
100
AcDbEntity
  8
D-6
  6
Continuous
 62
     7
370
     9
100
AcDbLine
 10
614.885338221817
 20
199.9121335728566
 30
0.0
 11
614.885338221817
 21
199.1619924290578
 31
0.0
  0
LINE
  5
191
330
1F
100
AcDbEntity
  8
D-6
  6
Continuous
 62
     7
370
     9
100
AcDbLine
 10
614.885338221817
 20
199.1619924290578
 30
0.0
 11
614.1354450333405
 21
199.1619924290578
 31
0.0
  0
LINE
  5
192
330
1F
100
AcDbEntity
  8
D-6
  6
Continuous
 62
     6
370
     9
100
AcDbLine
 10
691.7596231911399
 20
258.6035693017734
 30
0.0
 11
714.2595737031753
 21
258.6035693017734
 31
0.0
  0
LINE
  5
193
330
1F
100
AcDbEntity
  8
D-6
  6
Continuous
 62
     6
370
     9
100
AcDbLine
 10
654.2596231911399
 20
176.4594987183793
 30
0.0
 11
654.2596231911399
 21
39.70915890102297
 31
0.0
  0
LINE
  5
194
330
1F
100
AcDbEntity
  8
D-6
  6
Continuous
 62
     6
370
     9
100
AcDbLine
 10
833.068175701169
 20
106.5624501805838
 30
0.0
 11
766.2148844216086
 21
39.70915890102297
 31
0.0
  0
LINE
  5
195
330
1F
100
AcDbEntity
  8
D-6
  6
Continuous
 62
     6
370
     9
100
AcDbLine
 10
833.068175701169
 20
98.91247690408456
 30
0.0
 11
773.8648576981076
 21
39.70915890102297
 31
0.0
  0
LINE
  5
196
330
1F
100
AcDbEntity
  8
D-6
  6
Continuous
 62
     6
370
     9
100
AcDbLine
 10
833.068175701169
 20
114.2122997371715
 30
0.0
 11
758.56503486502
 21
39.70915890102297
 31
0.0
  0
LINE
  5
197
330
1F
100
AcDbEntity
  8
D-6
  6
Continuous
 62
     6
370
     9
100
AcDbLine
 10
766.0331398718826
 20
176.4594987183793
 30
0.0
 11
654.2596231911399
 21
64.68598203763612
 31
0.0
  0
LINE
  5
198
330
1F
100
AcDbEntity
  8
D-6
  6
Continuous
 62
     6
370
     9
100
AcDbLine
 10
833.068175701169
 20
176.4594987183793
 30
0.0
 11
654.2596231911399
 21
176.4594987183793
 31
0.0
  0
LINE
  5
199
330
1F
100
AcDbEntity
  8
D-6
  6
Continuous
 62
     6
370
     9
100
AcDbLine
 10
750.7333170387961
 20
176.4594987183793
 30
0.0
 11
692.7570531161815
 21
118.4832347957653
 31
0.0
  0
LINE
  5
19A
330
1F
100
AcDbEntity
  8
D-6
  6
Continuous
 62
     6
370
     9
100
AcDbLine
 10
758.3831665953836
 20
176.4594987183793
 30
0.0
 11
694.5648484603545
 21
112.6411805833498
 31
0.0
  0
LINE
  5
19B
330
1F
100
AcDbEntity
  8
D-6
  6
Continuous
 62
     6
370
     9
100
AcDbLine
 10
684.3606776147034
 20
102.4368860177882
 30
0.0
 11
654.2596231911399
 21
72.33589345417961
 31
0.0
  0
LINE
  5
19C
330
1F
100
AcDbEntity
  8
D-6
  6
Continuous
 62
     6
370
     9
100
AcDbLine
 10
676.9760835479805
 20
102.7022033676086
 30
0.0
 11
654.2596231911399
 21
79.9858048707231
 31
0.0
  0
LINE
  5
19D
330
1F
100
AcDbEntity
  8
D-6
  6
Continuous
 62
     7
370
     9
100
AcDbLine
 10
616.3158738360654
 20
93.79582000013976
 30
0.0
 11
616.3158738360654
 21
94.54596114393858
 31
0.0
  0
LINE
  5
19E
330
1F
100
AcDbEntity
  8
D-6
  6
Continuous
 62
     7
370
     9
100
AcDbLine
 10
616.3158738360654
 20
94.54596114393858
 30
0.0
 11
617.065767024542
 21
94.54596114393858
 31
0.0
  0
LINE
  5
19F
330
1F
100
AcDbEntity
  8
D-6
  6
Continuous
 62
     7
370
     9
100
AcDbLine
 10
617.065767024542
 20
94.54596114393858
 30
0.0
 11
617.065767024542
 21
93.79582000013976
 31
0.0
  0
LINE
  5
1A0
330
1F
100
AcDbEntity
  8
D-6
  6
Continuous
 62
     7
370
     9
100
AcDbLine
 10
617.065767024542
 20
93.79582000013976
 30
0.0
 11
616.3158738360654
 21
93.79582000013976
 31
0.0
  0
LINE
  5
1A1
330
1F
100
AcDbEntity
  8
D-6
  6
Continuous
 62
     7
370
     9
100
AcDbLine
 10
651.1713616033672
 20
91.72519696445839
 30
0.0
 11
651.1713616033672
 21
92.47533810825722
 31
0.0
  0
LINE
  5
1A2
330
1F
100
AcDbEntity
  8
D-6
  6
Continuous
 62
     7
370
     9
100
AcDbLine
 10
651.1713616033672
 20
92.47533810825722
 30
0.0
 11
651.9212547918438
 21
92.47533810825722
 31
0.0
  0
LINE
  5
1A3
330
1F
100
AcDbEntity
  8
D-6
  6
Continuous
 62
     7
370
     9
100
AcDbLine
 10
651.9212547918438
 20
92.47533810825722
 30
0.0
 11
651.9212547918438
 21
91.72519696445839
 31
0.0
  0
LINE
  5
1A4
330
1F
100
AcDbEntity
  8
D-6
  6
Continuous
 62
     7
370
     9
100
AcDbLine
 10
651.9212547918438
 20
91.72519696445839
 30
0.0
 11
651.1713616033672
 21
91.72519696445839
 31
0.0
  0
LINE
  5
1A5
330
1F
100
AcDbEntity
  8
D-6
  6
Continuous
 62
     7
370
     9
100
AcDbLine
 10
611.4844200861422
 20
39.26941339386623
 30
0.0
 11
611.4844200861422
 21
40.01955453766506
 31
0.0
  0
LINE
  5
1A6
330
1F
100
AcDbEntity
  8
D-6
  6
Continuous
 62
     7
370
     9
100
AcDbLine
 10
611.4844200861422
 20
40.01955453766506
 30
0.0
 11
612.2343132746188
 21
40.01955453766506
 31
0.0
  0
LINE
  5
1A7
330
1F
100
AcDbEntity
  8
D-6
  6
Continuous
 62
     7
370
     9
100
AcDbLine
 10
612.2343132746188
 20
40.01955453766506
 30
0.0
 11
612.2343132746188
 21
39.26941339386623
 31
0.0
  0
LINE
  5
1A8
330
1F
100
AcDbEntity
  8
D-6
  6
Continuous
 62
     7
370
     9
100
AcDbLine
 10
612.2343132746188
 20
39.26941339386623
 30
0.0
 11
611.4844200861422
 21
39.26941339386623
 31
0.0
  0
LINE
  5
1A9
330
1F
100
AcDbEntity
  8
D-6
  6
Continuous
 62
     7
370
     9
100
AcDbLine
 10
614.3027681069306
 20
77.11580110159623
 30
0.0
 11
614.3027681069306
 21
77.86594224539506
 31
0.0
  0
LINE
  5
1AA
330
1F
100
AcDbEntity
  8
D-6
  6
Continuous
 62
     7
370
     9
100
AcDbLine
 10
614.3027681069306
 20
77.86594224539506
 30
0.0
 11
615.0526612954071
 21
77.86594224539506
 31
0.0
  0
LINE
  5
1AB
330
1F
100
AcDbEntity
  8
D-6
  6
Continuous
 62
     7
370
     9
100
AcDbLine
 10
615.0526612954071
 20
77.86594224539506
 30
0.0
 11
615.0526612954071
 21
77.11580110159623
 31
0.0
  0
LINE
  5
1AC
330
1F
100
AcDbEntity
  8
D-6
  6
Continuous
 62
     7
370
     9
100
AcDbLine
 10
615.0526612954071
 20
77.11580110159623
 30
0.0
 11
614.3027681069306
 21
77.11580110159623
 31
0.0
  0
LINE
  5
1AD
330
1F
100
AcDbEntity
  8
D-6
  6
Continuous
 62
     7
370
     9
100
AcDbLine
 10
606.0202759642062
 20
61.06847257506637
 30
0.0
 11
606.0202759642062
 21
61.81861371886519
 31
0.0
  0
LINE
  5
1AE
330
1F
100
AcDbEntity
  8
D-6
  6
Continuous
 62
     7
370
     9
100
AcDbLine
 10
606.0202759642062
 20
61.81861371886519
 30
0.0
 11
606.7701691526828
 21
61.81861371886519
 31
0.0
  0
LINE
  5
1AF
330
1F
100
AcDbEntity
  8
D-6
  6
Continuous
 62
     7
370
     9
100
AcDbLine
 10
606.7701691526828
 20
61.81861371886519
 30
0.0
 11
606.7701691526828
 21
61.06847257506637
 31
0.0
  0
LINE
  5
1B0
330
1F
100
AcDbEntity
  8
D-6
  6
Continuous
 62
     7
370
     9
100
AcDbLine
 10
606.7701691526828
 20
61.06847257506637
 30
0.0
 11
606.0202759642062
 21
61.06847257506637
 31
0.0
  0
LINE
  5
1B1
330
1F
100
AcDbEntity
  8
D-6
  6
Continuous
 62
     7
370
     9
100
AcDbLine
 10
631.903063910221
 20
50.71535739665997
 30
0.0
 11
631.903063910221
 21
51.4654985404588
 31
0.0
  0
LINE
  5
1B2
330
1F
100
AcDbEntity
  8
D-6
  6
Continuous
 62
     7
370
     9
100
AcDbLine
 10
631.903063910221
 20
51.4654985404588
 30
0.0
 11
632.6529570986976
 21
51.4654985404588
 31
0.0
  0
LINE
  5
1B3
330
1F
100
AcDbEntity
  8
D-6
  6
Continuous
 62
     7
370
     9
100
AcDbLine
 10
632.6529570986976
 20
51.4654985404588
 30
0.0
 11
632.6529570986976
 21
50.71535739665997
 31
0.0
  0
LINE
  5
1B4
330
1F
100
AcDbEntity
  8
D-6
  6
Continuous
 62
     7
370
     9
100
AcDbLine
 10
632.6529570986976
 20
50.71535739665997
 30
0.0
 11
631.903063910221
 21
50.71535739665997
 31
0.0
  0
LINE
  5
1B5
330
1F
100
AcDbEntity
  8
D-6
  6
Continuous
 62
     7
370
     9
100
AcDbLine
 10
643.2914906064685
 20
66.76268592318984
 30
0.0
 11
643.2914906064685
 21
67.51282706698866
 31
0.0
  0
LINE
  5
1B6
330
1F
100
AcDbEntity
  8
D-6
  6
Continuous
 62
     7
370
     9
100
AcDbLine
 10
643.2914906064685
 20
67.51282706698866
 30
0.0
 11
644.0413837949451
 21
67.51282706698866
 31
0.0
  0
LINE
  5
1B7
330
1F
100
AcDbEntity
  8
D-6
  6
Continuous
 62
     7
370
     9
100
AcDbLine
 10
644.0413837949451
 20
67.51282706698866
 30
0.0
 11
644.0413837949451
 21
66.76268592318984
 31
0.0
  0
LINE
  5
1B8
330
1F
100
AcDbEntity
  8
D-6
  6
Continuous
 62
     7
370
     9
100
AcDbLine
 10
644.0413837949451
 20
66.76268592318984
 30
0.0
 11
643.2914906064685
 21
66.76268592318984
 31
0.0
  0
LINE
  5
1B9
330
1F
100
AcDbEntity
  8
D-6
  6
Continuous
 62
     7
370
     9
100
AcDbLine
 10
634.4913427048233
 20
80.73939141403848
 30
0.0
 11
634.4913427048233
 21
81.48953255783731
 31
0.0
  0
LINE
  5
1BA
330
1F
100
AcDbEntity
  8
D-6
  6
Continuous
 62
     7
370
     9
100
AcDbLine
 10
634.4913427048233
 20
81.48953255783731
 30
0.0
 11
635.2412358932999
 21
81.48953255783731
 31
0.0
  0
LINE
  5
1BB
330
1F
100
AcDbEntity
  8
D-6
  6
Continuous
 62
     7
370
     9
100
AcDbLine
 10
635.2412358932999
 20
81.48953255783731
 30
0.0
 11
635.2412358932999
 21
80.73939141403848
 31
0.0
  0
LINE
  5
1BC
330
1F
100
AcDbEntity
  8
D-6
  6
Continuous
 62
     7
370
     9
100
AcDbLine
 10
635.2412358932999
 20
80.73939141403848
 30
0.0
 11
634.4913427048233
 21
80.73939141403848
 31
0.0
  0
LINE
  5
1BD
330
1F
100
AcDbEntity
  8
D-6
  6
Continuous
 62
     7
370
     9
100
AcDbLine
 10
621.0322929728944
 20
63.65675136966793
 30
0.0
 11
621.0322929728944
 21
64.40689251346676
 31
0.0
  0
LINE
  5
1BE
330
1F
100
AcDbEntity
  8
D-6
  6
Continuous
 62
     7
370
     9
100
AcDbLine
 10
621.0322929728944
 20
64.40689251346676
 30
0.0
 11
621.782186161371
 21
64.40689251346676
 31
0.0
  0
LINE
  5
1BF
330
1F
100
AcDbEntity
  8
D-6
  6
Continuous
 62
     7
370
     9
100
AcDbLine
 10
621.782186161371
 20
64.40689251346676
 30
0.0
 11
621.782186161371
 21
63.65675136966793
 31
0.0
  0
LINE
  5
1C0
330
1F
100
AcDbEntity
  8
D-6
  6
Continuous
 62
     7
370
     9
100
AcDbLine
 10
621.782186161371
 20
63.65675136966793
 30
0.0
 11
621.0322929728944
 21
63.65675136966793
 31
0.0
  0
LINE
  5
1C1
330
1F
100
AcDbEntity
  8
D-6
  6
Continuous
 62
     7
370
     9
100
AcDbLine
 10
633.4560311869826
 20
98.85734297624957
 30
0.0
 11
633.4560311869826
 21
99.6074841200484
 31
0.0
  0
LINE
  5
1C2
330
1F
100
AcDbEntity
  8
D-6
  6
Continuous
 62
     7
370
     9
100
AcDbLine
 10
633.4560311869826
 20
99.6074841200484
 30
0.0
 11
634.2059243754592
 21
99.6074841200484
 31
0.0
  0
LINE
  5
1C3
330
1F
100
AcDbEntity
  8
D-6
  6
Continuous
 62
     7
370
     9
100
AcDbLine
 10
634.2059243754592
 20
99.6074841200484
 30
0.0
 11
634.2059243754592
 21
98.85734297624957
 31
0.0
  0
LINE
  5
1C4
330
1F
100
AcDbEntity
  8
D-6
  6
Continuous
 62
     7
370
     9
100
AcDbLine
 10
634.2059243754592
 20
98.85734297624957
 30
0.0
 11
633.4560311869826
 21
98.85734297624957
 31
0.0
  0
LINE
  5
1C5
330
1F
100
AcDbEntity
  8
D-6
  6
Continuous
 62
     7
370
     9
100
AcDbLine
 10
650.0262443184819
 20
116.4158080111427
 30
0.0
 11
650.0262443184819
 21
117.1659491549415
 31
0.0
  0
LINE
  5
1C6
330
1F
100
AcDbEntity
  8
D-6
  6
Continuous
 62
     7
370
     9
100
AcDbLine
 10
650.0262443184819
 20
117.1659491549415
 30
0.0
 11
650.7761375069584
 21
117.1659491549415
 31
0.0
  0
LINE
  5
1C7
330
1F
100
AcDbEntity
  8
D-6
  6
Continuous
 62
     7
370
     9
100
AcDbLine
 10
650.7761375069584
 20
117.1659491549415
 30
0.0
 11
650.7761375069584
 21
116.4158080111427
 31
0.0
  0
LINE
  5
1C8
330
1F
100
AcDbEntity
  8
D-6
  6
Continuous
 62
     7
370
     9
100
AcDbLine
 10
650.7761375069584
 20
116.4158080111427
 30
0.0
 11
650.0262443184819
 21
116.4158080111427
 31
0.0
  0
LINE
  5
1C9
330
1F
100
AcDbEntity
  8
D-6
  6
Continuous
 62
     7
370
     9
100
AcDbLine
 10
644.5045828899994
 20
42.04593064625691
 30
0.0
 11
644.5045828899994
 21
42.79607179005573
 31
0.0
  0
LINE
  5
1CA
330
1F
100
AcDbEntity
  8
D-6
  6
Continuous
 62
     7
370
     9
100
AcDbLine
 10
644.5045828899994
 20
42.79607179005573
 30
0.0
 11
645.2544760784759
 21
42.79607179005573
 31
0.0
  0
LINE
  5
1CB
330
1F
100
AcDbEntity
  8
D-6
  6
Continuous
 62
     7
370
     9
100
AcDbLine
 10
645.2544760784759
 20
42.79607179005573
 30
0.0
 11
645.2544760784759
 21
42.04593064625691
 31
0.0
  0
LINE
  5
1CC
330
1F
100
AcDbEntity
  8
D-6
  6
Continuous
 62
     7
370
     9
100
AcDbLine
 10
645.2544760784759
 20
42.04593064625691
 30
0.0
 11
644.5045828899994
 21
42.04593064625691
 31
0.0
  0
LINE
  5
1CD
330
1F
100
AcDbEntity
  8
D-6
  6
Continuous
 62
     7
370
     9
100
AcDbLine
 10
629.3200139616694
 20
139.3652133232768
 30
0.0
 11
629.3200139616694
 21
140.1153544670756
 31
0.0
  0
LINE
  5
1CE
330
1F
100
AcDbEntity
  8
D-6
  6
Continuous
 62
     7
370
     9
100
AcDbLine
 10
629.3200139616694
 20
140.1153544670756
 30
0.0
 11
630.0699071501459
 21
140.1153544670756
 31
0.0
  0
LINE
  5
1CF
330
1F
100
AcDbEntity
  8
D-6
  6
Continuous
 62
     7
370
     9
100
AcDbLine
 10
630.0699071501459
 20
140.1153544670756
 30
0.0
 11
630.0699071501459
 21
139.3652133232768
 31
0.0
  0
LINE
  5
1D0
330
1F
100
AcDbEntity
  8
D-6
  6
Continuous
 62
     7
370
     9
100
AcDbLine
 10
630.0699071501459
 20
139.3652133232768
 30
0.0
 11
629.3200139616694
 21
139.3652133232768
 31
0.0
  0
LINE
  5
1D1
330
1F
100
AcDbEntity
  8
D-6
  6
Continuous
 62
     7
370
     9
100
AcDbLine
 10
609.3039912834173
 20
134.878863412634
 30
0.0
 11
609.3039912834173
 21
135.6290045564328
 31
0.0
  0
LINE
  5
1D2
330
1F
100
AcDbEntity
  8
D-6
  6
Continuous
 62
     7
370
     9
100
AcDbLine
 10
609.3039912834173
 20
135.6290045564328
 30
0.0
 11
610.0538844718939
 21
135.6290045564328
 31
0.0
  0
LINE
  5
1D3
330
1F
100
AcDbEntity
  8
D-6
  6
Continuous
 62
     7
370
     9
100
AcDbLine
 10
610.0538844718939
 20
135.6290045564328
 30
0.0
 11
610.0538844718939
 21
134.878863412634
 31
0.0
  0
LINE
  5
1D4
330
1F
100
AcDbEntity
  8
D-6
  6
Continuous
 62
     7
370
     9
100
AcDbLine
 10
610.0538844718939
 20
134.878863412634
 30
0.0
 11
609.3039912834173
 21
134.878863412634
 31
0.0
  0
LINE
  5
1D5
330
1F
100
AcDbEntity
  8
D-6
  6
Continuous
 62
     7
370
     9
100
AcDbLine
 10
646.2301020864005
 20
135.2239672519142
 30
0.0
 11
646.2301020864005
 21
135.974108395713
 31
0.0
  0
LINE
  5
1D6
330
1F
100
AcDbEntity
  8
D-6
  6
Continuous
 62
     7
370
     9
100
AcDbLine
 10
646.2301020864005
 20
135.974108395713
 30
0.0
 11
646.9799952748771
 21
135.974108395713
 31
0.0
  0
LINE
  5
1D7
330
1F
100
AcDbEntity
  8
D-6
  6
Continuous
 62
     7
370
     9
100
AcDbLine
 10
646.9799952748771
 20
135.974108395713
 30
0.0
 11
646.9799952748771
 21
135.2239672519142
 31
0.0
  0
LINE
  5
1D8
330
1F
100
AcDbEntity
  8
D-6
  6
Continuous
 62
     7
370
     9
100
AcDbLine
 10
646.9799952748771
 20
135.2239672519142
 30
0.0
 11
646.2301020864005
 21
135.2239672519142
 31
0.0
  0
LINE
  5
1D9
330
1F
100
AcDbEntity
  8
D-6
  6
Continuous
 62
     7
370
     9
100
AcDbLine
 10
752.0793908544603
 20
182.1001796167571
 30
0.0
 11
752.0793908544603
 21
182.8503207605559
 31
0.0
  0
LINE
  5
1DA
330
1F
100
AcDbEntity
  8
D-6
  6
Continuous
 62
     7
370
     9
100
AcDbLine
 10
752.0793908544603
 20
182.8503207605559
 30
0.0
 11
752.8292840429368
 21
182.8503207605559
 31
0.0
  0
LINE
  5
1DB
330
1F
100
AcDbEntity
  8
D-6
  6
Continuous
 62
     7
370
     9
100
AcDbLine
 10
752.8292840429368
 20
182.8503207605559
 30
0.0
 11
752.8292840429368
 21
182.1001796167571
 31
0.0
  0
LINE
  5
1DC
330
1F
100
AcDbEntity
  8
D-6
  6
Continuous
 62
     7
370
     9
100
AcDbLine
 10
752.8292840429368
 20
182.1001796167571
 30
0.0
 11
752.0793908544603
 21
182.1001796167571
 31
0.0
  0
LINE
  5
1DD
330
1F
100
AcDbEntity
  8
D-6
  6
Continuous
 62
     7
370
     9
100
AcDbLine
 10
782.291299094477
 20
186.4541285038502
 30
0.0
 11
782.291299094477
 21
187.204269647649
 31
0.0
  0
LINE
  5
1DE
330
1F
100
AcDbEntity
  8
D-6
  6
Continuous
 62
     7
370
     9
100
AcDbLine
 10
782.291299094477
 20
187.204269647649
 30
0.0
 11
783.0411922829536
 21
187.204269647649
 31
0.0
  0
LINE
  5
1DF
330
1F
100
AcDbEntity
  8
D-6
  6
Continuous
 62
     7
370
     9
100
AcDbLine
 10
783.0411922829536
 20
187.204269647649
 30
0.0
 11
783.0411922829536
 21
186.4541285038502
 31
0.0
  0
LINE
  5
1E0
330
1F
100
AcDbEntity
  8
D-6
  6
Continuous
 62
     7
370
     9
100
AcDbLine
 10
783.0411922829536
 20
186.4541285038502
 30
0.0
 11
782.291299094477
 21
186.4541285038502
 31
0.0
  0
LINE
  5
1E1
330
1F
100
AcDbEntity
  8
D-6
  6
Continuous
 62
     7
370
     9
100
AcDbLine
 10
799.7316239323528
 20
202.128344497385
 30
0.0
 11
799.7316239323528
 21
202.8784856411838
 31
0.0
  0
LINE
  5
1E2
330
1F
100
AcDbEntity
  8
D-6
  6
Continuous
 62
     7
370
     9
100
AcDbLine
 10
799.7316239323528
 20
202.8784856411838
 30
0.0
 11
800.4815171208294
 21
202.8784856411838
 31
0.0
  0
LINE
  5
1E3
330
1F
100
AcDbEntity
  8
D-6
  6
Continuous
 62
     7
370
     9
100
AcDbLine
 10
800.4815171208294
 20
202.8784856411838
 30
0.0
 11
800.4815171208294
 21
202.128344497385
 31
0.0
  0
LINE
  5
1E4
330
1F
100
AcDbEntity
  8
D-6
  6
Continuous
 62
     7
370
     9
100
AcDbLine
 10
800.4815171208294
 20
202.128344497385
 30
0.0
 11
799.7316239323528
 21
202.128344497385
 31
0.0
  0
LINE
  5
1E5
330
1F
100
AcDbEntity
  8
D-6
  6
JWW_CENTER2
 62
     6
370
     9
100
AcDbLine
 10
703.0095984471576
 20
124.1025313078536
 30
0.0
 11
703.0095984471576
 21
262.4039400398821
 31
0.0
  0
LINE
  5
1E6
330
1F
100
AcDbEntity
  8
D-6
  6
Continuous
 62
     7
370
     9
100
AcDbLine
 10
623.6358545777581
 20
163.7154771329477
 30
0.0
 11
623.6358545777581
 21
164.4656182767465
 31
0.0
  0
LINE
  5
1E7
330
1F
100
AcDbEntity
  8
D-6
  6
Continuous
 62
     7
370
     9
100
AcDbLine
 10
623.6358545777581
 20
164.4656182767465
 30
0.0
 11
624.3857477662347
 21
164.4656182767465
 31
0.0
  0
LINE
  5
1E8
330
1F
100
AcDbEntity
  8
D-6
  6
Continuous
 62
     7
370
     9
100
AcDbLine
 10
624.3857477662347
 20
164.4656182767465
 30
0.0
 11
624.3857477662347
 21
163.7154771329477
 31
0.0
  0
LINE
  5
1E9
330
1F
100
AcDbEntity
  8
D-6
  6
Continuous
 62
     7
370
     9
100
AcDbLine
 10
624.3857477662347
 20
163.7154771329477
 30
0.0
 11
623.6358545777581
 21
163.7154771329477
 31
0.0
  0
LINE
  5
1EA
330
1F
100
AcDbEntity
  8
D-6
  6
Continuous
 62
     7
370
     9
100
AcDbLine
 10
617.2337100170183
 20
180.9350383652816
 30
0.0
 11
617.2337100170183
 21
181.6851795090805
 31
0.0
  0
LINE
  5
1EB
330
1F
100
AcDbEntity
  8
D-6
  6
Continuous
 62
     7
370
     9
100
AcDbLine
 10
617.2337100170183
 20
181.6851795090805
 30
0.0
 11
617.9836032054949
 21
181.6851795090805
 31
0.0
  0
LINE
  5
1EC
330
1F
100
AcDbEntity
  8
D-6
  6
Continuous
 62
     7
370
     9
100
AcDbLine
 10
617.9836032054949
 20
181.6851795090805
 30
0.0
 11
617.9836032054949
 21
180.9350383652816
 31
0.0
  0
LINE
  5
1ED
330
1F
100
AcDbEntity
  8
D-6
  6
Continuous
 62
     7
370
     9
100
AcDbLine
 10
617.9836032054949
 20
180.9350383652816
 30
0.0
 11
617.2337100170183
 21
180.9350383652816
 31
0.0
  0
LINE
  5
1EE
330
1F
100
AcDbEntity
  8
D-6
  6
Continuous
 62
     7
370
     9
100
AcDbLine
 10
613.9222559338772
 20
157.0925689666652
 30
0.0
 11
613.9222559338772
 21
157.8427101104641
 31
0.0
  0
LINE
  5
1EF
330
1F
100
AcDbEntity
  8
D-6
  6
Continuous
 62
     7
370
     9
100
AcDbLine
 10
613.9222559338772
 20
157.8427101104641
 30
0.0
 11
614.6721491223537
 21
157.8427101104641
 31
0.0
  0
LINE
  5
1F0
330
1F
100
AcDbEntity
  8
D-6
  6
Continuous
 62
     7
370
     9
100
AcDbLine
 10
614.6721491223537
 20
157.8427101104641
 30
0.0
 11
614.6721491223537
 21
157.0925689666652
 31
0.0
  0
LINE
  5
1F1
330
1F
100
AcDbEntity
  8
D-6
  6
Continuous
 62
     7
370
     9
100
AcDbLine
 10
614.6721491223537
 20
157.0925689666652
 30
0.0
 11
613.9222559338772
 21
157.0925689666652
 31
0.0
  0
LINE
  5
1F2
330
1F
100
AcDbEntity
  8
D-6
  6
Continuous
 62
     7
370
     9
100
AcDbLine
 10
630.0379991384979
 20
152.6772968558104
 30
0.0
 11
630.0379991384979
 21
153.4274379996092
 31
0.0
  0
LINE
  5
1F3
330
1F
100
AcDbEntity
  8
D-6
  6
Continuous
 62
     7
370
     9
100
AcDbLine
 10
630.0379991384979
 20
153.4274379996092
 30
0.0
 11
630.7878923269744
 21
153.4274379996092
 31
0.0
  0
LINE
  5
1F4
330
1F
100
AcDbEntity
  8
D-6
  6
Continuous
 62
     7
370
     9
100
AcDbLine
 10
630.7878923269744
 20
153.4274379996092
 30
0.0
 11
630.7878923269744
 21
152.6772968558104
 31
0.0
  0
LINE
  5
1F5
330
1F
100
AcDbEntity
  8
D-6
  6
Continuous
 62
     7
370
     9
100
AcDbLine
 10
630.7878923269744
 20
152.6772968558104
 30
0.0
 11
630.0379991384979
 21
152.6772968558104
 31
0.0
  0
LINE
  5
1F6
330
1F
100
AcDbEntity
  8
D-6
  6
Continuous
 62
     7
370
     9
100
AcDbLine
 10
653.4389413260284
 20
184.4672560539656
 30
0.0
 11
653.4389413260284
 21
185.2173971977644
 31
0.0
  0
LINE
  5
1F7
330
1F
100
AcDbEntity
  8
D-6
  6
Continuous
 62
     7
370
     9
100
AcDbLine
 10
653.4389413260284
 20
185.2173971977644
 30
0.0
 11
654.188834514505
 21
185.2173971977644
 31
0.0
  0
LINE
  5
1F8
330
1F
100
AcDbEntity
  8
D-6
  6
Continuous
 62
     7
370
     9
100
AcDbLine
 10
654.188834514505
 20
185.2173971977644
 30
0.0
 11
654.188834514505
 21
184.4672560539656
 31
0.0
  0
LINE
  5
1F9
330
1F
100
AcDbEntity
  8
D-6
  6
Continuous
 62
     7
370
     9
100
AcDbLine
 10
654.188834514505
 20
184.4672560539656
 30
0.0
 11
653.4389413260284
 21
184.4672560539656
 31
0.0
  0
LINE
  5
1FA
330
1F
100
AcDbEntity
  8
D-6
  6
Continuous
 62
     7
370
     9
100
AcDbLine
 10
645.9329787375749
 20
200.5829992585857
 30
0.0
 11
645.9329787375749
 21
201.3331404023845
 31
0.0
  0
LINE
  5
1FB
330
1F
100
AcDbEntity
  8
D-6
  6
Continuous
 62
     7
370
     9
100
AcDbLine
 10
645.9329787375749
 20
201.3331404023845
 30
0.0
 11
646.6828719260515
 21
201.3331404023845
 31
0.0
  0
LINE
  5
1FC
330
1F
100
AcDbEntity
  8
D-6
  6
Continuous
 62
     7
370
     9
100
AcDbLine
 10
646.6828719260515
 20
201.3331404023845
 30
0.0
 11
646.6828719260515
 21
200.5829992585857
 31
0.0
  0
LINE
  5
1FD
330
1F
100
AcDbEntity
  8
D-6
  6
Continuous
 62
     7
370
     9
100
AcDbLine
 10
646.6828719260515
 20
200.5829992585857
 30
0.0
 11
645.9329787375749
 21
200.5829992585857
 31
0.0
  0
LINE
  5
1FE
330
1F
100
AcDbEntity
  8
D-6
  6
Continuous
 62
     7
370
     9
100
AcDbLine
 10
675.9568290913888
 20
193.0770366701325
 30
0.0
 11
675.9568290913888
 21
193.8271778139313
 31
0.0
  0
LINE
  5
1FF
330
1F
100
AcDbEntity
  8
D-6
  6
Continuous
 62
     7
370
     9
100
AcDbLine
 10
675.9568290913888
 20
193.8271778139313
 30
0.0
 11
676.7067222798654
 21
193.8271778139313
 31
0.0
  0
LINE
  5
200
330
1F
100
AcDbEntity
  8
D-6
  6
Continuous
 62
     7
370
     9
100
AcDbLine
 10
676.7067222798654
 20
193.8271778139313
 30
0.0
 11
676.7067222798654
 21
193.0770366701325
 31
0.0
  0
LINE
  5
201
330
1F
100
AcDbEntity
  8
D-6
  6
Continuous
 62
     7
370
     9
100
AcDbLine
 10
676.7067222798654
 20
193.0770366701325
 30
0.0
 11
675.9568290913888
 21
193.0770366701325
 31
0.0
  0
LINE
  5
202
330
1F
100
AcDbEntity
  8
D-6
  6
Continuous
 62
     7
370
     9
100
AcDbLine
 10
664.0355943920805
 20
200.5829992585857
 30
0.0
 11
664.0355943920805
 21
201.3331404023845
 31
0.0
  0
LINE
  5
203
330
1F
100
AcDbEntity
  8
D-6
  6
Continuous
 62
     7
370
     9
100
AcDbLine
 10
664.0355943920805
 20
201.3331404023845
 30
0.0
 11
664.7854875805571
 21
201.3331404023845
 31
0.0
  0
LINE
  5
204
330
1F
100
AcDbEntity
  8
D-6
  6
Continuous
 62
     7
370
     9
100
AcDbLine
 10
664.7854875805571
 20
201.3331404023845
 30
0.0
 11
664.7854875805571
 21
200.5829992585857
 31
0.0
  0
LINE
  5
205
330
1F
100
AcDbEntity
  8
D-6
  6
Continuous
 62
     7
370
     9
100
AcDbLine
 10
664.7854875805571
 20
200.5829992585857
 30
0.0
 11
664.0355943920805
 21
200.5829992585857
 31
0.0
  0
LINE
  5
206
330
1F
100
AcDbEntity
  8
D-6
  6
Continuous
 62
     7
370
     9
100
AcDbLine
 10
678.1644651468163
 20
185.1295468705937
 30
0.0
 11
678.1644651468163
 21
185.8796880143925
 31
0.0
  0
LINE
  5
207
330
1F
100
AcDbEntity
  8
D-6
  6
Continuous
 62
     7
370
     9
100
AcDbLine
 10
678.1644651468163
 20
185.8796880143925
 30
0.0
 11
678.9143583352928
 21
185.8796880143925
 31
0.0
  0
LINE
  5
208
330
1F
100
AcDbEntity
  8
D-6
  6
Continuous
 62
     7
370
     9
100
AcDbLine
 10
678.9143583352928
 20
185.8796880143925
 30
0.0
 11
678.9143583352928
 21
185.1295468705937
 31
0.0
  0
LINE
  5
209
330
1F
100
AcDbEntity
  8
D-6
  6
Continuous
 62
     7
370
     9
100
AcDbLine
 10
678.9143583352928
 20
185.1295468705937
 30
0.0
 11
678.1644651468163
 21
185.1295468705937
 31
0.0
  0
LINE
  5
20A
330
1F
100
AcDbEntity
  8
D-6
  6
Continuous
 62
     7
370
     9
100
AcDbLine
 10
675.2945382747602
 20
200.5829992585857
 30
0.0
 11
675.2945382747602
 21
201.3331404023845
 31
0.0
  0
LINE
  5
20B
330
1F
100
AcDbEntity
  8
D-6
  6
Continuous
 62
     7
370
     9
100
AcDbLine
 10
675.2945382747602
 20
201.3331404023845
 30
0.0
 11
676.0444314632367
 21
201.3331404023845
 31
0.0
  0
LINE
  5
20C
330
1F
100
AcDbEntity
  8
D-6
  6
Continuous
 62
     7
370
     9
100
AcDbLine
 10
676.0444314632367
 20
201.3331404023845
 30
0.0
 11
676.0444314632367
 21
200.5829992585857
 31
0.0
  0
LINE
  5
20D
330
1F
100
AcDbEntity
  8
D-6
  6
Continuous
 62
     7
370
     9
100
AcDbLine
 10
676.0444314632367
 20
200.5829992585857
 30
0.0
 11
675.2945382747602
 21
200.5829992585857
 31
0.0
  0
LINE
  5
20E
330
1F
100
AcDbEntity
  8
D-6
  6
Continuous
 62
     7
370
     9
100
AcDbLine
 10
731.3684940826171
 20
191.0901642202479
 30
0.0
 11
731.3684940826171
 21
191.8403053640467
 31
0.0
  0
LINE
  5
20F
330
1F
100
AcDbEntity
  8
D-6
  6
Continuous
 62
     7
370
     9
100
AcDbLine
 10
731.3684940826171
 20
191.8403053640467
 30
0.0
 11
732.1183872710936
 21
191.8403053640467
 31
0.0
  0
LINE
  5
210
330
1F
100
AcDbEntity
  8
D-6
  6
Continuous
 62
     7
370
     9
100
AcDbLine
 10
732.1183872710936
 20
191.8403053640467
 30
0.0
 11
732.1183872710936
 21
191.0901642202479
 31
0.0
  0
LINE
  5
211
330
1F
100
AcDbEntity
  8
D-6
  6
Continuous
 62
     7
370
     9
100
AcDbLine
 10
732.1183872710936
 20
191.0901642202479
 30
0.0
 11
731.3684940826171
 21
191.0901642202479
 31
0.0
  0
LINE
  5
212
330
1F
100
AcDbEntity
  8
D-6
  6
Continuous
 62
     7
370
     9
100
AcDbLine
 10
740.8613291209555
 20
184.02572884288
 30
0.0
 11
740.8613291209555
 21
184.7758699866788
 31
0.0
  0
LINE
  5
213
330
1F
100
AcDbEntity
  8
D-6
  6
Continuous
 62
     7
370
     9
100
AcDbLine
 10
740.8613291209555
 20
184.7758699866788
 30
0.0
 11
741.611222309432
 21
184.7758699866788
 31
0.0
  0
LINE
  5
214
330
1F
100
AcDbEntity
  8
D-6
  6
Continuous
 62
     7
370
     9
100
AcDbLine
 10
741.611222309432
 20
184.7758699866788
 30
0.0
 11
741.611222309432
 21
184.02572884288
 31
0.0
  0
LINE
  5
215
330
1F
100
AcDbEntity
  8
D-6
  6
Continuous
 62
     7
370
     9
100
AcDbLine
 10
741.611222309432
 20
184.02572884288
 30
0.0
 11
740.8613291209555
 21
184.02572884288
 31
0.0
  0
LINE
  5
216
330
1F
100
AcDbEntity
  8
D-6
  6
Continuous
 62
     7
370
     9
100
AcDbLine
 10
758.5224175643749
 20
199.0376540197865
 30
0.0
 11
758.5224175643749
 21
199.7877951635854
 31
0.0
  0
LINE
  5
217
330
1F
100
AcDbEntity
  8
D-6
  6
Continuous
 62
     7
370
     9
100
AcDbLine
 10
758.5224175643749
 20
199.7877951635854
 30
0.0
 11
759.2723107528515
 21
199.7877951635854
 31
0.0
  0
LINE
  5
218
330
1F
100
AcDbEntity
  8
D-6
  6
Continuous
 62
     7
370
     9
100
AcDbLine
 10
759.2723107528515
 20
199.7877951635854
 30
0.0
 11
759.2723107528515
 21
199.0376540197865
 31
0.0
  0
LINE
  5
219
330
1F
100
AcDbEntity
  8
D-6
  6
Continuous
 62
     7
370
     9
100
AcDbLine
 10
759.2723107528515
 20
199.0376540197865
 30
0.0
 11
758.5224175643749
 21
199.0376540197865
 31
0.0
  0
LINE
  5
21A
330
1F
100
AcDbEntity
  8
D-6
  6
Continuous
 62
     7
370
     9
100
AcDbLine
 10
733.355366532502
 20
204.7775077638979
 30
0.0
 11
733.355366532502
 21
205.5276489076967
 31
0.0
  0
LINE
  5
21B
330
1F
100
AcDbEntity
  8
D-6
  6
Continuous
 62
     7
370
     9
100
AcDbLine
 10
733.355366532502
 20
205.5276489076967
 30
0.0
 11
734.1052597209786
 21
205.5276489076967
 31
0.0
  0
LINE
  5
21C
330
1F
100
AcDbEntity
  8
D-6
  6
Continuous
 62
     7
370
     9
100
AcDbLine
 10
734.1052597209786
 20
205.5276489076967
 30
0.0
 11
734.1052597209786
 21
204.7775077638979
 31
0.0
  0
LINE
  5
21D
330
1F
100
AcDbEntity
  8
D-6
  6
Continuous
 62
     7
370
     9
100
AcDbLine
 10
734.1052597209786
 20
204.7775077638979
 30
0.0
 11
733.355366532502
 21
204.7775077638979
 31
0.0
  0
LINE
  5
21E
330
1F
100
AcDbEntity
  8
D-6
  6
Continuous
 62
     7
370
     9
100
AcDbLine
 10
777.287324035508
 20
184.6880196595083
 30
0.0
 11
777.287324035508
 21
185.4381608033071
 31
0.0
  0
LINE
  5
21F
330
1F
100
AcDbEntity
  8
D-6
  6
Continuous
 62
     7
370
     9
100
AcDbLine
 10
777.287324035508
 20
185.4381608033071
 30
0.0
 11
778.0372172239846
 21
185.4381608033071
 31
0.0
  0
LINE
  5
220
330
1F
100
AcDbEntity
  8
D-6
  6
Continuous
 62
     7
370
     9
100
AcDbLine
 10
778.0372172239846
 20
185.4381608033071
 30
0.0
 11
778.0372172239846
 21
184.6880196595083
 31
0.0
  0
LINE
  5
221
330
1F
100
AcDbEntity
  8
D-6
  6
Continuous
 62
     7
370
     9
100
AcDbLine
 10
778.0372172239846
 20
184.6880196595083
 30
0.0
 11
777.287324035508
 21
184.6880196595083
 31
0.0
  0
LINE
  5
222
330
1F
100
AcDbEntity
  8
D-6
  6
Continuous
 62
     7
370
     9
100
AcDbLine
 10
779.0534328798493
 20
198.8168904142439
 30
0.0
 11
779.0534328798493
 21
199.5670315580427
 31
0.0
  0
LINE
  5
223
330
1F
100
AcDbEntity
  8
D-6
  6
Continuous
 62
     7
370
     9
100
AcDbLine
 10
779.0534328798493
 20
199.5670315580427
 30
0.0
 11
779.8033260683259
 21
199.5670315580427
 31
0.0
  0
LINE
  5
224
330
1F
100
AcDbEntity
  8
D-6
  6
Continuous
 62
     7
370
     9
100
AcDbLine
 10
779.8033260683259
 20
199.5670315580427
 30
0.0
 11
779.8033260683259
 21
198.8168904142439
 31
0.0
  0
LINE
  5
225
330
1F
100
AcDbEntity
  8
D-6
  6
Continuous
 62
     7
370
     9
100
AcDbLine
 10
779.8033260683259
 20
198.8168904142439
 30
0.0
 11
779.0534328798493
 21
198.8168904142439
 31
0.0
  0
LINE
  5
226
330
1F
100
AcDbEntity
  8
D-6
  6
Continuous
 62
     7
370
     9
100
AcDbLine
 10
815.7829777520238
 20
267.30879903388
 30
0.0
 11
815.7829777520238
 21
268.0589401776788
 31
0.0
  0
LINE
  5
227
330
1F
100
AcDbEntity
  8
D-6
  6
Continuous
 62
     7
370
     9
100
AcDbLine
 10
815.7829777520238
 20
268.0589401776788
 30
0.0
 11
816.5328709405004
 21
268.0589401776788
 31
0.0
  0
LINE
  5
228
330
1F
100
AcDbEntity
  8
D-6
  6
Continuous
 62
     7
370
     9
100
AcDbLine
 10
816.5328709405004
 20
268.0589401776788
 30
0.0
 11
816.5328709405004
 21
267.30879903388
 31
0.0
  0
LINE
  5
229
330
1F
100
AcDbEntity
  8
D-6
  6
Continuous
 62
     7
370
     9
100
AcDbLine
 10
816.5328709405004
 20
267.30879903388
 30
0.0
 11
815.7829777520238
 21
267.30879903388
 31
0.0
  0
LINE
  5
22A
330
1F
100
AcDbEntity
  8
D-6
  6
Continuous
 62
     7
370
     9
100
AcDbLine
 10
830.1878030136869
 20
227.074631923715
 30
0.0
 11
830.1878030136869
 21
227.8247730675138
 31
0.0
  0
LINE
  5
22B
330
1F
100
AcDbEntity
  8
D-6
  6
Continuous
 62
     7
370
     9
100
AcDbLine
 10
830.1878030136869
 20
227.8247730675138
 30
0.0
 11
830.9376962021635
 21
227.8247730675138
 31
0.0
  0
LINE
  5
22C
330
1F
100
AcDbEntity
  8
D-6
  6
Continuous
 62
     7
370
     9
100
AcDbLine
 10
830.9376962021635
 20
227.8247730675138
 30
0.0
 11
830.9376962021635
 21
227.074631923715
 31
0.0
  0
LINE
  5
22D
330
1F
100
AcDbEntity
  8
D-6
  6
Continuous
 62
     7
370
     9
100
AcDbLine
 10
830.9376962021635
 20
227.074631923715
 30
0.0
 11
830.1878030136869
 21
227.074631923715
 31
0.0
  0
LINE
  5
22E
330
1F
100
AcDbEntity
  8
D-6
  6
Continuous
 62
     7
370
     9
100
AcDbLine
 10
824.2271856640333
 20
200.7485719627429
 30
0.0
 11
824.2271856640333
 21
201.4987131065417
 31
0.0
  0
LINE
  5
22F
330
1F
100
AcDbEntity
  8
D-6
  6
Continuous
 62
     7
370
     9
100
AcDbLine
 10
824.2271856640333
 20
201.4987131065417
 30
0.0
 11
824.9770788525099
 21
201.4987131065417
 31
0.0
  0
LINE
  5
230
330
1F
100
AcDbEntity
  8
D-6
  6
Continuous
 62
     7
370
     9
100
AcDbLine
 10
824.9770788525099
 20
201.4987131065417
 30
0.0
 11
824.9770788525099
 21
200.7485719627429
 31
0.0
  0
LINE
  5
231
330
1F
100
AcDbEntity
  8
D-6
  6
Continuous
 62
     7
370
     9
100
AcDbLine
 10
824.9770788525099
 20
200.7485719627429
 30
0.0
 11
824.2271856640333
 21
200.7485719627429
 31
0.0
  0
LINE
  5
232
330
1F
100
AcDbEntity
  8
D-6
  6
Continuous
 62
     7
370
     9
100
AcDbLine
 10
816.2796958644948
 20
240.9827390729078
 30
0.0
 11
816.2796958644948
 21
241.7328802167066
 31
0.0
  0
LINE
  5
233
330
1F
100
AcDbEntity
  8
D-6
  6
Continuous
 62
     7
370
     9
100
AcDbLine
 10
816.2796958644948
 20
241.7328802167066
 30
0.0
 11
817.0295890529713
 21
241.7328802167066
 31
0.0
  0
LINE
  5
234
330
1F
100
AcDbEntity
  8
D-6
  6
Continuous
 62
     7
370
     9
100
AcDbLine
 10
817.0295890529713
 20
241.7328802167066
 30
0.0
 11
817.0295890529713
 21
240.9827390729078
 31
0.0
  0
LINE
  5
235
330
1F
100
AcDbEntity
  8
D-6
  6
Continuous
 62
     7
370
     9
100
AcDbLine
 10
817.0295890529713
 20
240.9827390729078
 30
0.0
 11
816.2796958644948
 21
240.9827390729078
 31
0.0
  0
LINE
  5
236
330
1F
100
AcDbEntity
  8
D-6
  6
Continuous
 62
     7
370
     9
100
AcDbLine
 10
813.7961053021389
 20
223.1008870239456
 30
0.0
 11
813.7961053021389
 21
223.8510281677444
 31
0.0
  0
LINE
  5
237
330
1F
100
AcDbEntity
  8
D-6
  6
Continuous
 62
     7
370
     9
100
AcDbLine
 10
813.7961053021389
 20
223.8510281677444
 30
0.0
 11
814.5459984906155
 21
223.8510281677444
 31
0.0
  0
LINE
  5
238
330
1F
100
AcDbEntity
  8
D-6
  6
Continuous
 62
     7
370
     9
100
AcDbLine
 10
814.5459984906155
 20
223.8510281677444
 30
0.0
 11
814.5459984906155
 21
223.1008870239456
 31
0.0
  0
LINE
  5
239
330
1F
100
AcDbEntity
  8
D-6
  6
Continuous
 62
     7
370
     9
100
AcDbLine
 10
814.5459984906155
 20
223.1008870239456
 30
0.0
 11
813.7961053021389
 21
223.1008870239456
 31
0.0
  0
LINE
  5
23A
330
1F
100
AcDbEntity
  8
D-6
  6
Continuous
 62
     6
370
     9
100
AcDbLine
 10
691.7596231911399
 20
231.9637410580024
 30
0.0
 11
691.7596231911399
 21
258.6035693017734
 31
0.0
  0
LINE
  5
23B
330
1F
100
AcDbEntity
  8
D-6
  6
Continuous
 62
     6
370
     9
100
AcDbLine
 10
714.2595737031753
 20
231.9637410580024
 30
0.0
 11
714.2595737031753
 21
258.6035693017734
 31
0.0
  0
LINE
  5
23C
330
1F
100
AcDbEntity
  8
D-6
  6
Continuous
 62
     6
370
     9
100
AcDbLine
 10
714.2595737031753
 20
176.4594987183793
 30
0.0
 11
714.2595737031753
 21
227.9637410580023
 31
0.0
  0
LINE
  5
23D
330
1F
100
AcDbEntity
  8
D-6
  6
Continuous
 62
     6
370
     9
100
AcDbLine
 10
691.7596231911399
 20
176.4594987183793
 30
0.0
 11
691.7596231911399
 21
227.9637410580023
 31
0.0
  0
LINE
  5
23E
330
1F
100
AcDbEntity
  8
D-6
  6
Continuous
 62
     7
370
     9
100
AcDbLine
 10
717.6934168972685
 20
220.8600290037801
 30
0.0
 11
717.6934168972685
 21
221.610170147579
 31
0.0
  0
LINE
  5
23F
330
1F
100
AcDbEntity
  8
D-6
  6
Continuous
 62
     7
370
     9
100
AcDbLine
 10
717.6934168972685
 20
221.610170147579
 30
0.0
 11
718.4433100857451
 21
221.610170147579
 31
0.0
  0
LINE
  5
240
330
1F
100
AcDbEntity
  8
D-6
  6
Continuous
 62
     7
370
     9
100
AcDbLine
 10
718.4433100857451
 20
221.610170147579
 30
0.0
 11
718.4433100857451
 21
220.8600290037801
 31
0.0
  0
LINE
  5
241
330
1F
100
AcDbEntity
  8
D-6
  6
Continuous
 62
     7
370
     9
100
AcDbLine
 10
718.4433100857451
 20
220.8600290037801
 30
0.0
 11
717.6934168972685
 21
220.8600290037801
 31
0.0
  0
LINE
  5
242
330
1F
100
AcDbEntity
  8
D-6
  6
Continuous
 62
     6
370
     9
100
AcDbLine
 10
787.9401370739755
 20
280.4341065602018
 30
0.0
 11
807.9404504977505
 21
300.4341725441545
 31
0.0
  0
LINE
  5
243
330
1F
100
AcDbEntity
  8
D-6
  6
Continuous
 62
     6
370
     9
100
AcDbLine
 10
762.9403020338567
 20
280.4341065602018
 30
0.0
 11
782.9406154576328
 21
300.4341725441545
 31
0.0
  0
LINE
  5
244
330
1F
100
AcDbEntity
  8
D-6
  6
Continuous
 62
     6
370
     9
100
AcDbLine
 10
662.9409618733838
 20
292.9340240802609
 30
0.0
 11
670.4411103372776
 21
300.4341725441545
 31
0.0
  0
LINE
  5
245
330
1F
100
AcDbEntity
  8
D-6
  6
Continuous
 62
     6
370
     9
100
AcDbLine
 10
662.9409618733838
 20
280.4341065602018
 30
0.0
 11
682.941027857337
 21
300.4341725441545
 31
0.0
  0
LINE
  5
246
330
1F
100
AcDbEntity
  8
D-6
  6
Continuous
 62
     6
370
     9
100
AcDbLine
 10
687.9407969135026
 20
280.4341065602018
 30
0.0
 11
707.9411103372776
 21
300.4341725441545
 31
0.0
  0
LINE
  5
247
330
1F
100
AcDbEntity
  8
D-6
  6
Continuous
 62
     6
370
     9
100
AcDbLine
 10
662.9409618733838
 20
300.4341725441545
 30
0.0
 11
662.9409618733838
 21
280.4341065602018
 31
0.0
  0
LINE
  5
248
330
1F
100
AcDbEntity
  8
D-6
  6
Continuous
 62
     6
370
     9
100
AcDbLine
 10
662.9409618733838
 20
280.4341065602018
 30
0.0
 11
832.7909608878316
 21
280.4341065602018
 31
0.0
  0
LINE
  5
249
330
1F
100
AcDbEntity
  8
D-6
  6
Continuous
 62
     6
370
     9
100
AcDbLine
 10
812.9399721140932
 20
280.4341065602018
 30
0.0
 11
832.7909608878316
 21
300.2845673118954
 31
0.0
  0
LINE
  5
24A
330
1F
100
AcDbEntity
  8
D-6
  6
Continuous
 62
     7
370
     9
100
AcDbLine
 10
681.862073492082
 20
268.3115805736531
 30
0.0
 11
681.862073492082
 21
269.0617217174519
 31
0.0
  0
LINE
  5
24B
330
1F
100
AcDbEntity
  8
D-6
  6
Continuous
 62
     7
370
     9
100
AcDbLine
 10
682.6119666805586
 20
268.3115805736531
 30
0.0
 11
682.6119666805586
 21
269.0617217174519
 31
0.0
  0
LINE
  5
24C
330
1F
100
AcDbEntity
  8
D-6
  6
Continuous
 62
     7
370
     9
100
AcDbLine
 10
681.862073492082
 20
269.0617217174519
 30
0.0
 11
682.6119666805586
 21
269.0617217174519
 31
0.0
  0
LINE
  5
24D
330
1F
100
AcDbEntity
  8
D-6
  6
Continuous
 62
     7
370
     9
100
AcDbLine
 10
715.2720097998691
 20
267.1602747537358
 30
0.0
 11
714.5221166113926
 21
267.1602747537358
 31
0.0
  0
LINE
  5
24E
330
1F
100
AcDbEntity
  8
D-6
  6
Continuous
 62
     7
370
     9
100
AcDbLine
 10
714.5221166113926
 20
267.1602747537358
 30
0.0
 11
714.5221166113926
 21
267.9104158975347
 31
0.0
  0
LINE
  5
24F
330
1F
100
AcDbEntity
  8
D-6
  6
Continuous
 62
     7
370
     9
100
AcDbLine
 10
715.2720097998691
 20
267.1602747537358
 30
0.0
 11
715.2720097998691
 21
267.9104158975347
 31
0.0
  0
LINE
  5
250
330
1F
100
AcDbEntity
  8
D-6
  6
Continuous
 62
     7
370
     9
100
AcDbLine
 10
714.5221166113926
 20
267.9104158975347
 30
0.0
 11
715.2720097998691
 21
267.9104158975347
 31
0.0
  0
LINE
  5
251
330
1F
100
AcDbEntity
  8
D-6
  6
Continuous
 62
     7
370
     9
100
AcDbLine
 10
800.5463349045477
 20
243.2442174866054
 30
0.0
 11
800.5463349045477
 21
243.9943586304042
 31
0.0
  0
LINE
  5
252
330
1F
100
AcDbEntity
  8
D-6
  6
Continuous
 62
     7
370
     9
100
AcDbLine
 10
800.5463349045477
 20
243.9943586304042
 30
0.0
 11
801.2962280930243
 21
243.9943586304042
 31
0.0
  0
LINE
  5
253
330
1F
100
AcDbEntity
  8
D-6
  6
Continuous
 62
     7
370
     9
100
AcDbLine
 10
801.2962280930243
 20
243.9943586304042
 30
0.0
 11
801.2962280930243
 21
243.2442174866054
 31
0.0
  0
LINE
  5
254
330
1F
100
AcDbEntity
  8
D-6
  6
Continuous
 62
     7
370
     9
100
AcDbLine
 10
801.2962280930243
 20
243.2442174866054
 30
0.0
 11
800.5463349045477
 21
243.2442174866054
 31
0.0
  0
LINE
  5
255
330
1F
100
AcDbEntity
  8
D-6
  6
Continuous
 62
     7
370
     9
100
AcDbLine
 10
612.0979854414089
 20
272.85298626958
 30
0.0
 11
611.3480922529324
 21
272.85298626958
 31
0.0
  0
LINE
  5
256
330
1F
100
AcDbEntity
  8
D-6
  6
Continuous
 62
     7
370
     9
100
AcDbLine
 10
611.3480922529324
 20
272.85298626958
 30
0.0
 11
611.3480922529324
 21
273.6031274133788
 31
0.0
  0
LINE
  5
257
330
1F
100
AcDbEntity
  8
D-6
  6
Continuous
 62
     7
370
     9
100
AcDbLine
 10
612.0979854414089
 20
272.85298626958
 30
0.0
 11
612.0979854414089
 21
273.6031274133788
 31
0.0
  0
LINE
  5
258
330
1F
100
AcDbEntity
  8
D-6
  6
Continuous
 62
     7
370
     9
100
AcDbLine
 10
611.3480922529324
 20
273.6031274133788
 30
0.0
 11
612.0979854414089
 21
273.6031274133788
 31
0.0
  0
LINE
  5
259
330
1F
100
AcDbEntity
  8
D-6
  6
Continuous
 62
     7
370
     9
100
AcDbLine
 10
622.694638507461
 20
278.8136036192342
 30
0.0
 11
621.9447453189845
 21
278.8136036192342
 31
0.0
  0
LINE
  5
25A
330
1F
100
AcDbEntity
  8
D-6
  6
Continuous
 62
     7
370
     9
100
AcDbLine
 10
621.9447453189845
 20
278.8136036192342
 30
0.0
 11
621.9447453189845
 21
279.563744763033
 31
0.0
  0
LINE
  5
25B
330
1F
100
AcDbEntity
  8
D-6
  6
Continuous
 62
     7
370
     9
100
AcDbLine
 10
622.694638507461
 20
278.8136036192342
 30
0.0
 11
622.694638507461
 21
279.563744763033
 31
0.0
  0
LINE
  5
25C
330
1F
100
AcDbEntity
  8
D-6
  6
Continuous
 62
     7
370
     9
100
AcDbLine
 10
621.9447453189845
 20
279.563744763033
 30
0.0
 11
622.694638507461
 21
279.563744763033
 31
0.0
  0
LINE
  5
25D
330
1F
100
AcDbEntity
  8
D-6
  6
Continuous
 62
     7
370
     9
100
AcDbLine
 10
624.0192201407173
 20
254.9711342206178
 30
0.0
 11
623.2693269522407
 21
254.9711342206178
 31
0.0
  0
LINE
  5
25E
330
1F
100
AcDbEntity
  8
D-6
  6
Continuous
 62
     7
370
     9
100
AcDbLine
 10
623.2693269522407
 20
254.9711342206178
 30
0.0
 11
623.2693269522407
 21
255.7212753644166
 31
0.0
  0
LINE
  5
25F
330
1F
100
AcDbEntity
  8
D-6
  6
Continuous
 62
     7
370
     9
100
AcDbLine
 10
624.0192201407173
 20
254.9711342206178
 30
0.0
 11
624.0192201407173
 21
255.7212753644166
 31
0.0
  0
LINE
  5
260
330
1F
100
AcDbEntity
  8
D-6
  6
Continuous
 62
     7
370
     9
100
AcDbLine
 10
623.2693269522407
 20
255.7212753644166
 30
0.0
 11
624.0192201407173
 21
255.7212753644166
 31
0.0
  0
LINE
  5
261
330
1F
100
AcDbEntity
  8
D-6
  6
Continuous
 62
     7
370
     9
100
AcDbLine
 10
620.3766206492618
 20
237.0892821716556
 30
0.0
 11
619.6267274607852
 21
237.0892821716556
 31
0.0
  0
LINE
  5
262
330
1F
100
AcDbEntity
  8
D-6
  6
Continuous
 62
     7
370
     9
100
AcDbLine
 10
619.6267274607852
 20
237.0892821716556
 30
0.0
 11
619.6267274607852
 21
237.8394233154544
 31
0.0
  0
LINE
  5
263
330
1F
100
AcDbEntity
  8
D-6
  6
Continuous
 62
     7
370
     9
100
AcDbLine
 10
620.3766206492618
 20
237.0892821716556
 30
0.0
 11
620.3766206492618
 21
237.8394233154544
 31
0.0
  0
LINE
  5
264
330
1F
100
AcDbEntity
  8
D-6
  6
Continuous
 62
     7
370
     9
100
AcDbLine
 10
619.6267274607852
 20
237.8394233154544
 30
0.0
 11
620.3766206492618
 21
237.8394233154544
 31
0.0
  0
LINE
  5
265
330
1F
100
AcDbEntity
  8
D-6
  6
Continuous
 62
     7
370
     9
100
AcDbLine
 10
609.1176767665821
 20
242.3876087046815
 30
0.0
 11
608.3677835781056
 21
242.3876087046815
 31
0.0
  0
LINE
  5
266
330
1F
100
AcDbEntity
  8
D-6
  6
Continuous
 62
     7
370
     9
100
AcDbLine
 10
608.3677835781056
 20
242.3876087046815
 30
0.0
 11
608.3677835781056
 21
243.1377498484803
 31
0.0
  0
LINE
  5
267
330
1F
100
AcDbEntity
  8
D-6
  6
Continuous
 62
     7
370
     9
100
AcDbLine
 10
609.1176767665821
 20
242.3876087046815
 30
0.0
 11
609.1176767665821
 21
243.1377498484803
 31
0.0
  0
LINE
  5
268
330
1F
100
AcDbEntity
  8
D-6
  6
Continuous
 62
     7
370
     9
100
AcDbLine
 10
608.3677835781056
 20
243.1377498484803
 30
0.0
 11
609.1176767665821
 21
243.1377498484803
 31
0.0
  0
LINE
  5
269
330
1F
100
AcDbEntity
  8
D-6
  6
Continuous
 62
     7
370
     9
100
AcDbLine
 10
608.4553859499534
 20
255.6334250372461
 30
0.0
 11
607.7054927614769
 21
255.6334250372461
 31
0.0
  0
LINE
  5
26A
330
1F
100
AcDbEntity
  8
D-6
  6
Continuous
 62
     7
370
     9
100
AcDbLine
 10
607.7054927614769
 20
255.6334250372461
 30
0.0
 11
607.7054927614769
 21
256.3835661810449
 31
0.0
  0
LINE
  5
26B
330
1F
100
AcDbEntity
  8
D-6
  6
Continuous
 62
     7
370
     9
100
AcDbLine
 10
608.4553859499534
 20
255.6334250372461
 30
0.0
 11
608.4553859499534
 21
256.3835661810449
 31
0.0
  0
LINE
  5
26C
330
1F
100
AcDbEntity
  8
D-6
  6
Continuous
 62
     7
370
     9
100
AcDbLine
 10
607.7054927614769
 20
256.3835661810449
 30
0.0
 11
608.4553859499534
 21
256.3835661810449
 31
0.0
  0
LINE
  5
26D
330
1F
100
AcDbEntity
  8
D-6
  6
Continuous
 62
     6
370
     9
100
AcDbLine
 10
662.9409618733838
 20
297.9341725441545
 30
0.0
 11
654.2793953662364
 21
297.9341725441545
 31
0.0
  0
LINE
  5
26E
330
1F
100
AcDbEntity
  8
D-6
  6
Continuous
 62
     6
370
     9
100
AcDbLine
 10
832.7909608878316
 20
300.4341725441545
 30
0.0
 11
662.9409618733838
 21
300.4341725441545
 31
0.0
  0
LINE
  5
26F
330
1F
100
AcDbEntity
  8
D-6
  6
Continuous
 62
     7
370
     9
100
AcDbLine
 10
583.0812695807203
 20
272.6322226640374
 30
0.0
 11
582.3313763922438
 21
272.6322226640374
 31
0.0
  0
LINE
  5
270
330
1F
100
AcDbEntity
  8
D-6
  6
Continuous
 62
     7
370
     9
100
AcDbLine
 10
582.3313763922438
 20
272.6322226640374
 30
0.0
 11
582.3313763922438
 21
273.3823638078362
 31
0.0
  0
LINE
  5
271
330
1F
100
AcDbEntity
  8
D-6
  6
Continuous
 62
     7
370
     9
100
AcDbLine
 10
583.0812695807203
 20
272.6322226640374
 30
0.0
 11
583.0812695807203
 21
273.3823638078362
 31
0.0
  0
LINE
  5
272
330
1F
100
AcDbEntity
  8
D-6
  6
Continuous
 62
     7
370
     9
100
AcDbLine
 10
582.3313763922438
 20
273.3823638078362
 30
0.0
 11
583.0812695807203
 21
273.3823638078362
 31
0.0
  0
LINE
  5
273
330
1F
100
AcDbEntity
  8
D-6
  6
Continuous
 62
     6
370
     9
100
AcDbLine
 10
583.4811589746597
 20
280.4341065602018
 30
0.0
 11
603.4809775187899
 21
300.4341725441545
 31
0.0
  0
LINE
  5
274
330
1F
100
AcDbEntity
  8
D-6
  6
Continuous
 62
     6
370
     9
100
AcDbLine
 10
558.4810764947191
 20
280.4341065602018
 30
0.0
 11
578.4811424786723
 21
300.4341725441545
 31
0.0
  0
LINE
  5
275
330
1F
100
AcDbEntity
  8
D-6
  6
Continuous
 62
     6
370
     9
100
AcDbLine
 10
533.4809940147785
 20
280.4341065602018
 30
0.0
 11
553.4813074385535
 21
300.4341725441545
 31
0.0
  0
LINE
  5
276
330
1F
100
AcDbEntity
  8
D-6
  6
Continuous
 62
     6
370
     9
100
AcDbLine
 10
604.2064710787566
 20
280.4341065602018
 30
0.0
 11
604.2064710787566
 21
300.4341725441545
 31
0.0
  0
LINE
  5
277
330
1F
100
AcDbEntity
  8
D-6
  6
Continuous
 62
     6
370
     9
100
AcDbLine
 10
616.7064710787566
 20
297.9341725441545
 30
0.0
 11
604.2064710787566
 21
297.9341725441545
 31
0.0
  0
LINE
  5
278
330
1F
100
AcDbEntity
  8
D-6
  6
Continuous
 62
     7
370
     9
100
AcDbLine
 10
588.9653840706457
 20
255.8156935313241
 30
0.0
 11
588.2154908821691
 21
255.8156935313241
 31
0.0
  0
LINE
  5
279
330
1F
100
AcDbEntity
  8
D-6
  6
Continuous
 62
     7
370
     9
100
AcDbLine
 10
588.2154908821691
 20
255.8156935313241
 30
0.0
 11
588.2154908821691
 21
256.565834675123
 31
0.0
  0
LINE
  5
27A
330
1F
100
AcDbEntity
  8
D-6
  6
Continuous
 62
     7
370
     9
100
AcDbLine
 10
588.9653840706457
 20
255.8156935313241
 30
0.0
 11
588.9653840706457
 21
256.565834675123
 31
0.0
  0
LINE
  5
27B
330
1F
100
AcDbEntity
  8
D-6
  6
Continuous
 62
     7
370
     9
100
AcDbLine
 10
588.2154908821691
 20
256.565834675123
 30
0.0
 11
588.9653840706457
 21
256.565834675123
 31
0.0
  0
LINE
  5
27C
330
1F
100
AcDbEntity
  8
D-6
  6
Continuous
 62
     7
370
     9
100
AcDbLine
 10
568.8758959662563
 20
263.9839469364057
 30
0.0
 11
568.1260027777797
 21
263.9839469364057
 31
0.0
  0
LINE
  5
27D
330
1F
100
AcDbEntity
  8
D-6
  6
Continuous
 62
     7
370
     9
100
AcDbLine
 10
568.1260027777797
 20
263.9839469364057
 30
0.0
 11
568.1260027777797
 21
264.7340880802046
 31
0.0
  0
LINE
  5
27E
330
1F
100
AcDbEntity
  8
D-6
  6
Continuous
 62
     7
370
     9
100
AcDbLine
 10
568.8758959662563
 20
263.9839469364057
 30
0.0
 11
568.8758959662563
 21
264.7340880802046
 31
0.0
  0
LINE
  5
27F
330
1F
100
AcDbEntity
  8
D-6
  6
Continuous
 62
     7
370
     9
100
AcDbLine
 10
568.1260027777797
 20
264.7340880802046
 30
0.0
 11
568.8758959662563
 21
264.7340880802046
 31
0.0
  0
LINE
  5
280
330
1F
100
AcDbEntity
  8
D-6
  6
Continuous
 62
     7
370
     9
100
AcDbLine
 10
662.4796647163795
 20
247.6474401262427
 30
0.0
 11
661.7297715279029
 21
247.6474401262427
 31
0.0
  0
LINE
  5
281
330
1F
100
AcDbEntity
  8
D-6
  6
Continuous
 62
     7
370
     9
100
AcDbLine
 10
661.7297715279029
 20
247.6474401262427
 30
0.0
 11
661.7297715279029
 21
248.3975812700415
 31
0.0
  0
LINE
  5
282
330
1F
100
AcDbEntity
  8
D-6
  6
Continuous
 62
     7
370
     9
100
AcDbLine
 10
662.4796647163795
 20
247.6474401262427
 30
0.0
 11
662.4796647163795
 21
248.3975812700415
 31
0.0
  0
LINE
  5
283
330
1F
100
AcDbEntity
  8
D-6
  6
Continuous
 62
     7
370
     9
100
AcDbLine
 10
661.7297715279029
 20
248.3975812700415
 30
0.0
 11
662.4796647163795
 21
248.3975812700415
 31
0.0
  0
LINE
  5
284
330
1F
100
AcDbEntity
  8
D-6
  6
Continuous
 62
     7
370
     9
100
AcDbLine
 10
551.4355711283794
 20
270.2205187929882
 30
0.0
 11
550.6856779399028
 21
270.2205187929882
 31
0.0
  0
LINE
  5
285
330
1F
100
AcDbEntity
  8
D-6
  6
Continuous
 62
     7
370
     9
100
AcDbLine
 10
550.6856779399028
 20
270.2205187929882
 30
0.0
 11
550.6856779399028
 21
270.9706599367871
 31
0.0
  0
LINE
  5
286
330
1F
100
AcDbEntity
  8
D-6
  6
Continuous
 62
     7
370
     9
100
AcDbLine
 10
551.4355711283794
 20
270.2205187929882
 30
0.0
 11
551.4355711283794
 21
270.9706599367871
 31
0.0
  0
LINE
  5
287
330
1F
100
AcDbEntity
  8
D-6
  6
Continuous
 62
     7
370
     9
100
AcDbLine
 10
550.6856779399028
 20
270.9706599367871
 30
0.0
 11
551.4355711283794
 21
270.9706599367871
 31
0.0
  0
LINE
  5
288
330
1F
100
AcDbEntity
  8
D-6
  6
Continuous
 62
     7
370
     9
100
AcDbLine
 10
529.5799741796476
 20
262.7697471059207
 30
0.0
 11
528.830080991171
 21
262.7697471059207
 31
0.0
  0
LINE
  5
289
330
1F
100
AcDbEntity
  8
D-6
  6
Continuous
 62
     7
370
     9
100
AcDbLine
 10
528.830080991171
 20
262.7697471059207
 30
0.0
 11
528.830080991171
 21
263.5198882497195
 31
0.0
  0
LINE
  5
28A
330
1F
100
AcDbEntity
  8
D-6
  6
Continuous
 62
     7
370
     9
100
AcDbLine
 10
529.5799741796476
 20
262.7697471059207
 30
0.0
 11
529.5799741796476
 21
263.5198882497195
 31
0.0
  0
LINE
  5
28B
330
1F
100
AcDbEntity
  8
D-6
  6
Continuous
 62
     7
370
     9
100
AcDbLine
 10
528.830080991171
 20
263.5198882497195
 30
0.0
 11
529.5799741796476
 21
263.5198882497195
 31
0.0
  0
LINE
  5
28C
330
1F
100
AcDbEntity
  8
D-6
  6
Continuous
 62
     7
370
     9
100
AcDbLine
 10
584.880902605653
 20
243.5738042561966
 30
0.0
 11
584.1310094171764
 21
243.5738042561966
 31
0.0
  0
LINE
  5
28D
330
1F
100
AcDbEntity
  8
D-6
  6
Continuous
 62
     7
370
     9
100
AcDbLine
 10
584.1310094171764
 20
243.5738042561966
 30
0.0
 11
584.1310094171764
 21
244.3239453999954
 31
0.0
  0
LINE
  5
28E
330
1F
100
AcDbEntity
  8
D-6
  6
Continuous
 62
     7
370
     9
100
AcDbLine
 10
584.880902605653
 20
243.5738042561966
 30
0.0
 11
584.880902605653
 21
244.3239453999954
 31
0.0
  0
LINE
  5
28F
330
1F
100
AcDbEntity
  8
D-6
  6
Continuous
 62
     7
370
     9
100
AcDbLine
 10
584.1310094171764
 20
244.3239453999954
 30
0.0
 11
584.880902605653
 21
244.3239453999954
 31
0.0
  0
LINE
  5
290
330
1F
100
AcDbEntity
  8
D-5
  6
Continuous
 62
     7
370
     9
100
AcDbLine
 10
618.6384810089284
 20
215.4342293229005
 30
0.0
 11
613.8549743577455
 21
203.8857179208737
 31
0.0
  0
LINE
  5
291
330
1F
100
AcDbEntity
  8
D-5
  6
Continuous
 62
     7
370
     9
100
AcDbLine
 10
618.6384810089284
 20
215.4342293229005
 30
0.0
 11
611.0289641434299
 21
205.5173361113297
 31
0.0
  0
LINE
  5
292
330
1F
100
AcDbEntity
  8
D-4
  6
Continuous
 62
     7
370
     9
100
AcDbLine
 10
616.7596231911393
 20
308.2255576792896
 30
0.0
 11
616.7596231911393
 21
377.0772966863632
 31
0.0
  0
LINE
  5
293
330
1F
100
AcDbEntity
  8
D-4
  6
Continuous
 62
     7
370
     9
100
AcDbLine
 10
634.2596809270982
 20
308.2255576792896
 30
0.0
 11
634.2596809270982
 21
377.0772966863632
 31
0.0
  0
LINE
  5
294
330
1F
100
AcDbEntity
  8
D-4
  6
Continuous
 62
     7
370
     9
100
AcDbLine
 10
636.7596891750919
 20
308.2255576792896
 30
0.0
 11
636.7596891750919
 21
377.0772966863632
 31
0.0
  0
TEXT
  5
295
330
1F
100
AcDbEntity
  8
D-4
  6
Continuous
 62
     2
370
     9
100
AcDbText
 10
630.5097469110508
 20
380.8973247295431
 30
0.0
 40
15.24
  1
1
 41
0.9999999999999998
  7
ＭＳ ゴシック
100
AcDbText
  0
LWPOLYLINE
  5
296
330
1F
100
AcDbEntity
  8
D-4
  6
Continuous
 62
     7
370
     9
100
AcDbPolyline
 90
        4
 70
     1
 43
1.0
 10
617.2596231911393
 20
375.577316481549
 42
0.4142135623731
 10
616.7596231911393
 20
376.077316481549
 42
0.4142135623731
 10
616.2596231911393
 20
375.577316481549
 42
0.4142135623731
 10
616.7596231911393
 20
375.077316481549
 42
0.4142135623731
  0
LWPOLYLINE
  5
297
330
1F
100
AcDbEntity
  8
D-4
  6
Continuous
 62
     7
370
     9
100
AcDbPolyline
 90
        4
 70
     1
 43
1.0
 10
634.7596809270982
 20
375.577316481549
 42
0.4142135623731
 10
634.2596809270982
 20
376.077316481549
 42
0.4142135623731
 10
633.7596809270983
 20
375.577316481549
 42
0.4142135623731
 10
634.2596809270982
 20
375.077316481549
 42
0.4142135623731
  0
LWPOLYLINE
  5
298
330
1F
100
AcDbEntity
  8
D-4
  6
Continuous
 62
     7
370
     9
100
AcDbPolyline
 90
        4
 70
     1
 43
1.0
 10
637.2596891750919
 20
375.577316481549
 42
0.4142135623731
 10
636.7596891750919
 20
376.077316481549
 42
0.4142135623731
 10
636.259689175092
 20
375.577316481549
 42
0.4142135623731
 10
636.7596891750919
 20
375.077316481549
 42
0.4142135623731
  0
LWPOLYLINE
  5
299
330
1F
100
AcDbEntity
  8
D-4
  6
Continuous
 62
     7
370
     9
100
AcDbPolyline
 90
        4
 70
     1
 43
1.0
 10
654.7596231911393
 20
375.577316481549
 42
0.4142135623731
 10
654.2596231911393
 20
376.077316481549
 42
0.4142135623731
 10
653.7596231911393
 20
375.577316481549
 42
0.4142135623731
 10
654.2596231911393
 20
375.077316481549
 42
0.4142135623731
  0
LWPOLYLINE
  5
29A
330
1F
100
AcDbEntity
  8
D-4
  6
Continuous
 62
     7
370
     9
100
AcDbPolyline
 90
        4
 70
     1
 43
1.0
 10
617.2594411461267
 20
375.577316481549
 42
0.4142135623731
 10
616.7594411461267
 20
376.077316481549
 42
0.4142135623731
 10
616.2594411461268
 20
375.577316481549
 42
0.4142135623731
 10
616.7594411461267
 20
375.077316481549
 42
0.4142135623731
  0
LINE
  5
29B
330
1F
100
AcDbEntity
  8
D-4
  6
Continuous
 62
     7
370
     9
100
AcDbLine
 10
616.7594411461267
 20
377.077316481549
 30
0.0
 11
616.7594411461267
 21
308.2255576792896
 31
0.0
  0
TEXT
  5
29C
330
1F
100
AcDbEntity
  8
D-4
  6
Continuous
 62
     2
370
     9
100
AcDbText
 10
604.4517721952571
 20
380.5566856254837
 30
0.0
 40
15.24
  1
7
 41
0.9999999999999998
  7
ＭＳ ゴシック
100
AcDbText
  0
TEXT
  5
29D
330
1F
100
AcDbEntity
  8
D-4
  6
Continuous
 62
     2
370
     9
100
AcDbText
 10
659.1461952315764
 20
381.453315511325
 30
0.0
 40
15.24
  1
7
 41
0.9999999999999998
  7
ＭＳ ゴシック
100
AcDbText
  0
LWPOLYLINE
  5
29E
330
1F
100
AcDbEntity
  8
D-4
  6
Continuous
 62
     7
370
     9
100
AcDbPolyline
 90
        4
 70
     1
 43
1.0
 10
639.7793173944711
 20
104.873116651498
 42
0.4142135623731
 10
639.2793173944711
 20
105.373116651498
 42
0.4142135623731
 10
638.7793173944713
 20
104.873116651498
 42
0.4142135623731
 10
639.2793173944711
 20
104.373116651498
 42
0.4142135623731
  0
LWPOLYLINE
  5
29F
330
1F
100
AcDbEntity
  8
D-4
  6
Continuous
 62
     7
370
     9
100
AcDbPolyline
 90
        4
 70
     1
 43
1.0
 10
717.2793173944711
 20
104.873116651498
 42
0.4142135623731
 10
716.7793173944711
 20
105.373116651498
 42
0.4142135623731
 10
716.2793173944713
 20
104.873116651498
 42
0.4142135623731
 10
716.7793173944711
 20
104.373116651498
 42
0.4142135623731
  0
LWPOLYLINE
  5
2A0
330
1F
100
AcDbEntity
  8
D-4
  6
Continuous
 62
     7
370
     9
100
AcDbPolyline
 90
        4
 70
     1
 43
1.0
 10
787.9914954949362
 20
300.4341725441545
 42
0.4142135623731
 10
787.4914954949362
 20
300.9341725441545
 42
0.4142135623731
 10
786.9914954949363
 20
300.4341725441545
 42
0.4142135623731
 10
787.4914954949362
 20
299.9341725441545
 42
0.4142135623731
  0
LINE
  5
2A1
330
1F
100
AcDbEntity
  8
D-4
  6
Continuous
 62
     7
370
     9
100
AcDbLine
 10
647.7879583500284
 20
212.9341001373121
 30
0.0
 11
788.9914756997508
 21
212.9341001373121
 31
0.0
  0
LWPOLYLINE
  5
2A2
330
1F
100
AcDbEntity
  8
D-4
  6
Continuous
 62
     7
370
     9
100
AcDbPolyline
 90
        4
 70
     1
 43
1.0
 10
787.9914954949362
 20
212.9341001373121
 42
0.4142135623731
 10
787.4914954949362
 20
213.4341001373121
 42
0.4142135623731
 10
786.9914954949363
 20
212.9341001373121
 42
0.4142135623731
 10
787.4914954949362
 20
212.4341001373121
 42
0.4142135623731
  0
LWPOLYLINE
  5
2A3
330
1F
100
AcDbEntity
  8
D-4
  6
Continuous
 62
     7
370
     9
100
AcDbPolyline
 90
        4
 70
     1
 43
1.0
 10
755.7365775576039
 20
300.4341725441545
 42
0.4142135623731
 10
755.2365775576039
 20
300.9341725441545
 42
0.4142135623731
 10
754.736577557604
 20
300.4341725441545
 42
0.4142135623731
 10
755.2365775576039
 20
299.9341725441545
 42
0.4142135623731
  0
LWPOLYLINE
  5
2A4
330
1F
100
AcDbEntity
  8
D-4
  6
Continuous
 62
     7
370
     9
100
AcDbPolyline
 90
        4
 70
     1
 43
1.0
 10
755.7365775576039
 20
227.9637410580023
 42
0.4142135623731
 10
755.2365775576039
 20
228.4637410580023
 42
0.4142135623731
 10
754.736577557604
 20
227.9637410580023
 42
0.4142135623731
 10
755.2365775576039
 20
227.4637410580023
 42
0.4142135623731
  0
LINE
  5
2A5
330
1F
100
AcDbEntity
  8
D-4
  6
Continuous
 62
     7
370
     9
100
AcDbLine
 10
756.7365775576037
 20
227.9637410580023
 30
0.0
 11
726.7793173944711
 21
227.9637410580023
 31
0.0
  0
LINE
  5
2A6
330
1F
100
AcDbEntity
  8
D-4
  6
Continuous
 62
     7
370
     9
100
AcDbLine
 10
639.279218418542
 20
202.9341001373121
 30
0.0
 11
639.279218418542
 21
103.3731364466838
 31
0.0
  0
LINE
  5
2A7
330
1F
100
AcDbEntity
  8
D-4
  6
Continuous
 62
     7
370
     9
100
AcDbLine
 10
716.7793173944711
 20
217.9637410580023
 30
0.0
 11
716.7793173944711
 21
103.3731364466838
 31
0.0
  0
LWPOLYLINE
  5
2A8
330
1F
100
AcDbEntity
  8
D-4
  6
Continuous
 62
     7
370
     9
100
AcDbPolyline
 90
        4
 70
     1
 43
1.0
 10
604.7793541262655
 20
104.873116651498
 42
0.4142135623731
 10
604.2793541262655
 20
105.373116651498
 42
0.4142135623731
 10
603.7793541262656
 20
104.873116651498
 42
0.4142135623731
 10
604.2793541262655
 20
104.373116651498
 42
0.4142135623731
  0
LINE
  5
2A9
330
1F
100
AcDbEntity
  8
D-4
  6
Continuous
 62
     7
370
     9
100
AcDbLine
 10
654.2596231911393
 20
375.577316481549
 30
0.0
 11
669.779914906194
 21
375.577316481549
 31
0.0
  0
LINE
  5
2AA
330
1F
100
AcDbEntity
  8
D-4
  6
Continuous
 62
     7
370
     9
100
AcDbLine
 10
636.7596891750919
 20
375.577316481549
 30
0.0
 11
654.2596231911393
 21
375.577316481549
 31
0.0
  0
LINE
  5
2AB
330
1F
100
AcDbEntity
  8
D-4
  6
Continuous
 62
     7
370
     9
100
AcDbLine
 10
616.7596231911393
 20
375.577316481549
 30
0.0
 11
634.2596809270982
 21
375.577316481549
 31
0.0
  0
LINE
  5
2AC
330
1F
100
AcDbEntity
  8
D-4
  6
Continuous
 62
     7
370
     9
100
AcDbLine
 10
634.2596809270982
 20
375.577316481549
 30
0.0
 11
636.7596891750919
 21
375.577316481549
 31
0.0
  0
LINE
  5
2AD
330
1F
100
AcDbEntity
  8
D-4
  6
Continuous
 62
     7
370
     9
100
AcDbLine
 10
639.2793173944711
 20
104.873116651498
 30
0.0
 11
604.2793541262655
 21
104.873116651498
 31
0.0
  0
TEXT
  5
2AE
330
1F
100
AcDbEntity
  8
D-4
  6
Continuous
 62
     2
370
   211
100
AcDbText
 10
611.1543357603683
 20
110.1931248994921
 30
0.0
 40
15.24
  1
14
 41
1.0625
  7
ＭＳ ゴシック
100
AcDbText
  0
LINE
  5
2AF
330
1F
100
AcDbEntity
  8
D-4
  6
Continuous
 62
     7
370
     9
100
AcDbLine
 10
716.7793173944711
 20
104.873116651498
 30
0.0
 11
639.2793173944711
 21
104.873116651498
 31
0.0
  0
TEXT
  5
2B0
330
1F
100
AcDbEntity
  8
D-4
  6
Continuous
 62
     2
370
   211
100
AcDbText
 10
667.4043173944711
 20
110.1931248994921
 30
0.0
 40
15.24
  1
31
 41
1.0625
  7
ＭＳ ゴシック
100
AcDbText
  0
LINE
  5
2B1
330
1F
100
AcDbEntity
  8
D-4
  6
Continuous
 62
     7
370
     9
100
AcDbLine
 10
755.2365775576039
 20
300.4341725441545
 30
0.0
 11
755.2365775576039
 21
227.9637410580023
 31
0.0
  0
TEXT
  5
2B2
330
1F
100
AcDbEntity
  8
D-4
  6
Continuous
 62
     2
370
   211
100
AcDbText
 10
749.4165775576038
 20
253.5739568010783
 30
0.0
 40
15.24
  1
29
 50
90.0
 41
1.0625
  7
ＭＳ ゴシック
100
AcDbText
  0
LINE
  5
2B3
330
1F
100
AcDbEntity
  8
D-4
  6
Continuous
 62
     7
370
     9
100
AcDbLine
 10
787.4914954949362
 20
212.9341001373121
 30
0.0
 11
787.4914954949362
 21
300.4341725441545
 31
0.0
  0
TEXT
  5
2B4
330
1F
100
AcDbEntity
  8
D-4
  6
Continuous
 62
     2
370
   211
100
AcDbText
 10
782.1714872469424
 20
246.0591363407332
 30
0.0
 40
15.24
  1
35
 50
90.0
 41
1.0625
  7
ＭＳ ゴシック
100
AcDbText
  0
LINE
  5
2B5
330
1F
100
AcDbEntity
  8
D-6
  6
JWW_DASHED1
 62
     6
370
     9
100
AcDbLine
 10
725.4405494736797
 20
280.4341065602018
 30
0.0
 11
745.4406154576328
 21
300.4341725441545
 31
0.0
  0
LINE
  5
2B6
330
1F
100
AcDbEntity
  8
D-6
  6
JWW_DASHED1
 62
     6
370
     9
100
AcDbLine
 10
700.440714433562
 20
280.4341065602018
 30
0.0
 11
720.440780417514
 21
300.4341725441545
 31
0.0
  0
LINE
  5
2B7
330
1F
100
AcDbEntity
  8
D-6
  6
JWW_DASHED1
 62
     6
370
     9
100
AcDbLine
 10
714.2595737031753
 20
124.1025313078536
 30
0.0
 11
714.2595737031753
 21
176.4594987183793
 31
0.0
  0
LINE
  5
2B8
330
1F
100
AcDbEntity
  8
D-6
  6
JWW_DASHED1
 62
     6
370
     9
100
AcDbLine
 10
691.7596231911399
 20
124.1025313078536
 30
0.0
 11
691.7596231911399
 21
176.4594987183793
 31
0.0
  0
LINE
  5
2B9
330
1F
100
AcDbEntity
  8
D-6
  6
JWW_DASHED1
 62
     6
370
     9
100
AcDbLine
 10
800.4400545940349
 20
280.4341065602018
 30
0.0
 11
820.4401205779869
 21
300.4341725441545
 31
0.0
  0
LINE
  5
2BA
330
1F
100
AcDbEntity
  8
D-6
  6
JWW_DASHED1
 62
     6
370
     9
100
AcDbLine
 10
775.4402195539161
 20
280.4341065602018
 30
0.0
 11
795.4402855378693
 21
300.4341725441545
 31
0.0
  0
LINE
  5
2BB
330
1F
100
AcDbEntity
  8
D-6
  6
JWW_DASHED1
 62
     6
370
     9
100
AcDbLine
 10
750.4403845137984
 20
280.4341065602018
 30
0.0
 11
770.4404504977505
 21
300.4341725441545
 31
0.0
  0
LINE
  5
2BC
330
1F
100
AcDbEntity
  8
D-6
  6
JWW_DASHED1
 62
     6
370
     9
100
AcDbLine
 10
675.4408793934432
 20
280.4341065602018
 30
0.0
 11
695.4409453773964
 21
300.4341725441545
 31
0.0
  0
LINE
  5
2BD
330
1F
100
AcDbEntity
  8
D-6
  6
JWW_DASHED1
 62
     6
370
     9
100
AcDbLine
 10
825.4400876055969
 20
280.4340199722294
 30
0.0
 11
832.7909608878316
 21
287.7848932544644
 31
0.0
  0
LINE
  5
2BE
330
1F
100
AcDbEntity
  8
D-6
  6
JWW_DASHED1
 62
     6
370
     9
100
AcDbLine
 10
570.9812414546014
 20
280.4341065602018
 30
0.0
 11
590.9813074385535
 21
300.4341725441545
 31
0.0
  0
LINE
  5
2BF
330
1F
100
AcDbEntity
  8
D-6
  6
JWW_DASHED1
 62
     6
370
     9
100
AcDbLine
 10
545.9811589746603
 20
280.4341065602018
 30
0.0
 11
565.9809775187899
 21
300.4341725441545
 31
0.0
  0
LINE
  5
2C0
330
1F
100
AcDbEntity
  8
D-6
  6
JWW_DASHED1
 62
     6
370
     9
100
AcDbLine
 10
595.9810764947191
 20
280.4341065602018
 30
0.0
 11
604.2064710787566
 21
288.6595011442389
 31
0.0
  0
LINE
  5
2C1
330
1F
100
AcDbEntity
  8
D-6
  6
Continuous
 62
     6
370
     9
100
AcDbLine
 10
508.480664095015
 20
280.4341065602018
 30
0.0
 11
528.4809775187899
 21
300.4341725441545
 31
0.0
  0
LINE
  5
2C2
330
1F
100
AcDbEntity
  8
D-6
  6
JWW_DASHED1
 62
     6
370
     9
100
AcDbLine
 10
520.9808290548967
 20
280.4341065602018
 30
0.0
 11
540.9806475990264
 21
300.4341725441545
 31
0.0
  0
LINE
  5
2C3
330
1F
100
AcDbEntity
  8
D-6
  6
Continuous
 62
     6
370
     9
100
AcDbLine
 10
483.4803341752514
 20
280.4341065602018
 30
0.0
 11
503.4806475990264
 21
300.4341725441545
 31
0.0
  0
LINE
  5
2C4
330
1F
100
AcDbEntity
  8
D-6
  6
JWW_DASHED1
 62
     6
370
     9
100
AcDbLine
 10
495.9804991351332
 20
280.4341065602018
 30
0.0
 11
515.9803176792628
 21
300.4341725441545
 31
0.0
  0
LINE
  5
2C5
330
1F
100
AcDbEntity
  8
D-6
  6
Continuous
 62
     7
370
     9
100
AcDbLine
 10
494.7259308929519
 20
264.3737273058529
 30
0.0
 11
493.9760377044753
 21
264.3737273058529
 31
0.0
  0
LINE
  5
2C6
330
1F
100
AcDbEntity
  8
D-6
  6
Continuous
 62
     7
370
     9
100
AcDbLine
 10
493.9760377044753
 20
264.3737273058529
 30
0.0
 11
493.9760377044753
 21
265.1238684496517
 31
0.0
  0
LINE
  5
2C7
330
1F
100
AcDbEntity
  8
D-6
  6
Continuous
 62
     7
370
     9
100
AcDbLine
 10
494.7259308929519
 20
264.3737273058529
 30
0.0
 11
494.7259308929519
 21
265.1238684496517
 31
0.0
  0
LINE
  5
2C8
330
1F
100
AcDbEntity
  8
D-6
  6
Continuous
 62
     7
370
     9
100
AcDbLine
 10
493.9760377044753
 20
265.1238684496517
 30
0.0
 11
494.7259308929519
 21
265.1238684496517
 31
0.0
  0
LINE
  5
2C9
330
1F
100
AcDbEntity
  8
D-6
  6
Continuous
 62
     7
370
     9
100
AcDbLine
 10
508.9224092348753
 20
257.6367883515834
 30
0.0
 11
508.1725160463988
 21
257.6367883515834
 31
0.0
  0
LINE
  5
2CA
330
1F
100
AcDbEntity
  8
D-6
  6
Continuous
 62
     7
370
     9
100
AcDbLine
 10
508.1725160463988
 20
257.6367883515834
 30
0.0
 11
508.1725160463988
 21
258.3869294953822
 31
0.0
  0
LINE
  5
2CB
330
1F
100
AcDbEntity
  8
D-6
  6
Continuous
 62
     7
370
     9
100
AcDbLine
 10
508.9224092348753
 20
257.6367883515834
 30
0.0
 11
508.9224092348753
 21
258.3869294953822
 31
0.0
  0
LINE
  5
2CC
330
1F
100
AcDbEntity
  8
D-6
  6
Continuous
 62
     7
370
     9
100
AcDbLine
 10
508.1725160463988
 20
258.3869294953822
 30
0.0
 11
508.9224092348753
 21
258.3869294953822
 31
0.0
  0
LINE
  5
2CD
330
1F
100
AcDbEntity
  8
D-6
  6
Continuous
 62
     7
370
     9
100
AcDbLine
 10
561.8246432735834
 20
252.4009993435107
 30
0.0
 11
561.0747500851069
 21
252.4009993435107
 31
0.0
  0
LINE
  5
2CE
330
1F
100
AcDbEntity
  8
D-6
  6
Continuous
 62
     7
370
     9
100
AcDbLine
 10
561.0747500851069
 20
252.4009993435107
 30
0.0
 11
561.0747500851069
 21
253.1511404873095
 31
0.0
  0
LINE
  5
2CF
330
1F
100
AcDbEntity
  8
D-6
  6
Continuous
 62
     7
370
     9
100
AcDbLine
 10
561.8246432735834
 20
252.4009993435107
 30
0.0
 11
561.8246432735834
 21
253.1511404873095
 31
0.0
  0
LINE
  5
2D0
330
1F
100
AcDbEntity
  8
D-6
  6
Continuous
 62
     7
370
     9
100
AcDbLine
 10
561.0747500851069
 20
253.1511404873095
 30
0.0
 11
561.8246432735834
 21
253.1511404873095
 31
0.0
  0
LINE
  5
2D1
330
1F
100
AcDbEntity
  8
D-6
  6
Continuous
 62
     7
370
     9
100
AcDbLine
 10
505.6692502245711
 20
274.2458034048602
 30
0.0
 11
504.9193570360945
 21
274.2458034048602
 31
0.0
  0
LINE
  5
2D2
330
1F
100
AcDbEntity
  8
D-6
  6
Continuous
 62
     7
370
     9
100
AcDbLine
 10
504.9193570360945
 20
274.2458034048602
 30
0.0
 11
504.9193570360945
 21
274.9959445486591
 31
0.0
  0
LINE
  5
2D3
330
1F
100
AcDbEntity
  8
D-6
  6
Continuous
 62
     7
370
     9
100
AcDbLine
 10
505.6692502245711
 20
274.2458034048602
 30
0.0
 11
505.6692502245711
 21
274.9959445486591
 31
0.0
  0
LINE
  5
2D4
330
1F
100
AcDbEntity
  8
D-6
  6
Continuous
 62
     7
370
     9
100
AcDbLine
 10
504.9193570360945
 20
274.9959445486591
 30
0.0
 11
505.6692502245711
 21
274.9959445486591
 31
0.0
  0
LINE
  5
2D5
330
1F
100
AcDbEntity
  8
D-6
  6
Continuous
 62
     7
370
     9
100
AcDbLine
 10
482.8746720735974
 20
243.1407019696778
 30
0.0
 11
482.1247788851208
 21
243.1407019696778
 31
0.0
  0
LINE
  5
2D6
330
1F
100
AcDbEntity
  8
D-6
  6
Continuous
 62
     7
370
     9
100
AcDbLine
 10
482.1247788851208
 20
243.1407019696778
 30
0.0
 11
482.1247788851208
 21
243.8908431134766
 31
0.0
  0
LINE
  5
2D7
330
1F
100
AcDbEntity
  8
D-6
  6
Continuous
 62
     7
370
     9
100
AcDbLine
 10
482.8746720735974
 20
243.1407019696778
 30
0.0
 11
482.8746720735974
 21
243.8908431134766
 31
0.0
  0
LINE
  5
2D8
330
1F
100
AcDbEntity
  8
D-6
  6
Continuous
 62
     7
370
     9
100
AcDbLine
 10
482.1247788851208
 20
243.8908431134766
 30
0.0
 11
482.8746720735974
 21
243.8908431134766
 31
0.0
  0
LINE
  5
2D9
330
1F
100
AcDbEntity
  8
D-6
  6
Continuous
 62
     7
370
     9
100
AcDbLine
 10
456.6371628477374
 20
242.1909278800539
 30
0.0
 11
455.8872696592608
 21
242.1909278800539
 31
0.0
  0
LINE
  5
2DA
330
1F
100
AcDbEntity
  8
D-6
  6
Continuous
 62
     7
370
     9
100
AcDbLine
 10
455.8872696592608
 20
242.1909278800539
 30
0.0
 11
455.8872696592608
 21
242.9410690238527
 31
0.0
  0
LINE
  5
2DB
330
1F
100
AcDbEntity
  8
D-6
  6
Continuous
 62
     7
370
     9
100
AcDbLine
 10
456.6371628477374
 20
242.1909278800539
 30
0.0
 11
456.6371628477374
 21
242.9410690238527
 31
0.0
  0
LINE
  5
2DC
330
1F
100
AcDbEntity
  8
D-6
  6
Continuous
 62
     7
370
     9
100
AcDbLine
 10
455.8872696592608
 20
242.9410690238527
 30
0.0
 11
456.6371628477374
 21
242.9410690238527
 31
0.0
  0
LINE
  5
2DD
330
1F
100
AcDbEntity
  8
D-6
  6
Continuous
 62
     7
370
     9
100
AcDbLine
 10
499.6144404032186
 20
239.8164926559942
 30
0.0
 11
498.8645472147421
 21
239.8164926559942
 31
0.0
  0
LINE
  5
2DE
330
1F
100
AcDbEntity
  8
D-6
  6
Continuous
 62
     7
370
     9
100
AcDbLine
 10
498.8645472147421
 20
239.8164926559942
 30
0.0
 11
498.8645472147421
 21
240.5666337997931
 31
0.0
  0
LINE
  5
2DF
330
1F
100
AcDbEntity
  8
D-6
  6
Continuous
 62
     7
370
     9
100
AcDbLine
 10
499.6144404032186
 20
239.8164926559942
 30
0.0
 11
499.6144404032186
 21
240.5666337997931
 31
0.0
  0
LINE
  5
2E0
330
1F
100
AcDbEntity
  8
D-6
  6
Continuous
 62
     7
370
     9
100
AcDbLine
 10
498.8645472147421
 20
240.5666337997931
 30
0.0
 11
499.6144404032186
 21
240.5666337997931
 31
0.0
  0
LINE
  5
2E1
330
1F
100
AcDbEntity
  8
D-6
  6
Continuous
 62
     7
370
     9
100
AcDbLine
 10
491.7788041638216
 20
253.2320516719317
 30
0.0
 11
491.0289109753451
 21
253.2320516719317
 31
0.0
  0
LINE
  5
2E2
330
1F
100
AcDbEntity
  8
D-6
  6
Continuous
 62
     7
370
     9
100
AcDbLine
 10
491.0289109753451
 20
253.2320516719317
 30
0.0
 11
491.0289109753451
 21
253.9821928157306
 31
0.0
  0
LINE
  5
2E3
330
1F
100
AcDbEntity
  8
D-6
  6
Continuous
 62
     7
370
     9
100
AcDbLine
 10
491.7788041638216
 20
253.2320516719317
 30
0.0
 11
491.7788041638216
 21
253.9821928157306
 31
0.0
  0
LINE
  5
2E4
330
1F
100
AcDbEntity
  8
D-6
  6
Continuous
 62
     7
370
     9
100
AcDbLine
 10
491.0289109753451
 20
253.9821928157306
 30
0.0
 11
491.7788041638216
 21
253.9821928157306
 31
0.0
  0
LINE
  5
2E5
330
1F
100
AcDbEntity
  8
D-2
  6
Continuous
 62
     3
370
     9
100
AcDbLine
 10
155.5094964518726
 20
295.4342555557045
 30
0.0
 11
155.5094964518726
 21
292.4342383674741
 31
0.0
  0
LINE
  5
2E6
330
1F
100
AcDbEntity
  8
D-2
  6
JWW_CENTER1
 62
     3
370
     9
100
AcDbLine
 10
216.7596231911394
 20
312.407759252883
 30
0.0
 11
216.7596231911394
 21
196.0751489932
 31
0.0
  0
LINE
  5
2E7
330
1F
100
AcDbEntity
  8
D-2
  6
Continuous
 62
     3
370
     9
100
AcDbLine
 10
177.5096662427224
 20
221.4345665185731
 30
0.0
 11
177.5096662427224
 21
230.0488631555594
 31
0.0
  0
LINE
  5
2E8
330
1F
100
AcDbEntity
  8
D-2
  6
Continuous
 62
     3
370
     9
100
AcDbLine
 10
178.5096501002199
 20
221.4345665185731
 30
0.0
 11
178.5096501002199
 21
229.5346326115171
 31
0.0
  0
LINE
  5
2E9
330
1F
100
AcDbEntity
  8
D-2
  6
Continuous
 62
     3
370
     9
100
AcDbLine
 10
180.5096178152145
 20
221.4345665185731
 30
0.0
 11
180.5096178152145
 21
228.5060402919549
 31
0.0
  0
LINE
  5
2EA
330
1F
100
AcDbEntity
  8
D-2
  6
Continuous
 62
     3
370
     9
100
AcDbLine
 10
181.5096016727115
 20
221.4345665185731
 30
0.0
 11
181.5096016727115
 21
227.9918097479125
 31
0.0
  0
LINE
  5
2EB
330
1F
100
AcDbEntity
  8
D-2
  6
Continuous
 62
     3
370
     9
100
AcDbLine
 10
182.5095855302091
 20
221.4345665185731
 30
0.0
 11
182.5095855302091
 21
227.4774479723927
 31
0.0
  0
LINE
  5
2EC
330
1F
100
AcDbEntity
  8
D-2
  6
Continuous
 62
     3
370
     9
100
AcDbLine
 10
183.5097006191837
 20
221.4345665185731
 30
0.0
 11
183.5097006191837
 21
226.9632174283503
 31
0.0
  0
LINE
  5
2ED
330
1F
100
AcDbEntity
  8
D-2
  6
Continuous
 62
     3
370
     9
100
AcDbLine
 10
184.5096844766807
 20
221.4345665185731
 30
0.0
 11
184.5096844766807
 21
226.4489212685692
 31
0.0
  0
LINE
  5
2EE
330
1F
100
AcDbEntity
  8
D-2
  6
Continuous
 62
     3
370
     9
100
AcDbLine
 10
179.5096339577169
 20
221.4345665185731
 30
0.0
 11
179.5096339577169
 21
229.0202708359973
 31
0.0
  0
LINE
  5
2EF
330
1F
100
AcDbEntity
  8
D-2
  6
Continuous
 62
     3
370
     9
100
AcDbLine
 10
186.5096521916753
 20
221.4345665185731
 30
0.0
 11
186.5096521916753
 21
225.4203289490071
 31
0.0
  0
LINE
  5
2F0
330
1F
100
AcDbEntity
  8
D-2
  6
Continuous
 62
     3
370
     9
100
AcDbLine
 10
187.5096360491729
 20
221.4345665185731
 30
0.0
 11
187.5096360491729
 21
224.9060984049648
 31
0.0
  0
LINE
  5
2F1
330
1F
100
AcDbEntity
  8
D-2
  6
Continuous
 62
     3
370
     9
100
AcDbLine
 10
188.5096199066699
 20
221.4345665185731
 30
0.0
 11
188.5096199066699
 21
224.3917366294449
 31
0.0
  0
LINE
  5
2F2
330
1F
100
AcDbEntity
  8
D-2
  6
Continuous
 62
     3
370
     9
100
AcDbLine
 10
189.5096037641675
 20
221.4345665185731
 30
0.0
 11
189.5096037641675
 21
223.8775060854027
 31
0.0
  0
LINE
  5
2F3
330
1F
100
AcDbEntity
  8
D-2
  6
Continuous
 62
     3
370
     9
100
AcDbLine
 10
190.5097188531421
 20
221.4345665185731
 30
0.0
 11
190.5097188531421
 21
223.36327554136
 31
0.0
  0
LINE
  5
2F4
330
1F
100
AcDbEntity
  8
D-2
  6
Continuous
 62
     3
370
     9
100
AcDbLine
 10
191.5097027106391
 20
221.4345665185731
 30
0.0
 11
191.5097027106391
 21
222.8489137658405
 31
0.0
  0
LINE
  5
2F5
330
1F
100
AcDbEntity
  8
D-2
  6
Continuous
 62
     3
370
     9
100
AcDbLine
 10
192.5096865681367
 20
221.4345665185731
 30
0.0
 11
192.5096865681367
 21
222.3345519903206
 31
0.0
  0
LINE
  5
2F6
330
1F
100
AcDbEntity
  8
D-2
  6
Continuous
 62
     3
370
     9
100
AcDbLine
 10
193.5096704256337
 20
221.4345665185731
 30
0.0
 11
193.5096704256337
 21
221.8203214462783
 31
0.0
  0
LINE
  5
2F7
330
1F
100
AcDbEntity
  8
D-2
  6
Continuous
 62
     3
370
     9
100
AcDbLine
 10
198.0095977843719
 20
210.4342296174715
 30
0.0
 11
235.5095173664292
 21
210.4342296174715
 31
0.0
  0
LINE
  5
2F8
330
1F
100
AcDbEntity
  8
D-2
  6
Continuous
 62
     3
370
     9
100
AcDbLine
 10
235.5095173664292
 20
202.9342194547646
 30
0.0
 11
198.0095977843719
 21
202.9342194547646
 31
0.0
  0
LINE
  5
2F9
330
1F
100
AcDbEntity
  8
D-2
  6
Continuous
 62
     3
370
     9
100
AcDbLine
 10
198.0095977843719
 20
274.9342382778652
 30
0.0
 11
198.0095977843719
 21
202.9342194547646
 31
0.0
  0
LINE
  5
2FA
330
1F
100
AcDbEntity
  8
D-2
  6
Continuous
 62
     3
370
     9
100
AcDbLine
 10
235.5095173664292
 20
274.9342382778652
 30
0.0
 11
235.5095173664292
 21
202.9342194547646
 31
0.0
  0
LINE
  5
2FB
330
1F
100
AcDbEntity
  8
D-2
  6
Continuous
 62
     3
370
     9
100
AcDbLine
 10
174.2595874743792
 20
274.9342382778652
 30
0.0
 11
174.2595874743792
 21
235.4342092920577
 31
0.0
  0
LINE
  5
2FC
330
1F
100
AcDbEntity
  8
D-2
  6
Continuous
 62
     3
370
     9
100
AcDbLine
 10
179.2595067618653
 20
274.9342382778652
 30
0.0
 11
179.2595067618653
 21
235.4342092920577
 31
0.0
  0
LINE
  5
2FD
330
1F
100
AcDbEntity
  8
D-2
  6
Continuous
 62
     3
370
     9
100
AcDbLine
 10
254.2594771574581
 20
235.4342092920577
 30
0.0
 11
254.2594771574581
 21
274.9342382778652
 31
0.0
  0
LINE
  5
2FE
330
1F
100
AcDbEntity
  8
D-2
  6
Continuous
 62
     3
370
     9
100
AcDbLine
 10
259.2595276764218
 20
235.4342092920577
 30
0.0
 11
259.2595276764218
 21
274.9342382778652
 31
0.0
  0
LINE
  5
2FF
330
1F
100
AcDbEntity
  8
D-2
  6
Continuous
 62
     3
370
     9
100
AcDbLine
 10
189.009611835419
 20
274.9341726621267
 30
0.0
 11
189.009611835419
 21
235.4342092920577
 31
0.0
  0
LINE
  5
300
330
1F
100
AcDbEntity
  8
D-2
  6
Continuous
 62
     3
370
     9
100
AcDbLine
 10
190.5098500846192
 20
274.9341726621267
 30
0.0
 11
190.5098500846192
 21
235.4342092920577
 31
0.0
  0
LINE
  5
301
330
1F
100
AcDbEntity
  8
D-2
  6
Continuous
 62
     3
370
     9
100
AcDbLine
 10
180.5097490466916
 20
274.9341726621267
 30
0.0
 11
180.5097490466916
 21
235.4342092920577
 31
0.0
  0
LINE
  5
302
330
1F
100
AcDbEntity
  8
D-2
  6
Continuous
 62
     3
370
     9
100
AcDbLine
 10
182.0101185273695
 20
274.9341726621267
 30
0.0
 11
182.0101185273695
 21
235.4342092920577
 31
0.0
  0
LINE
  5
303
330
1F
100
AcDbEntity
  8
D-2
  6
Continuous
 62
     3
370
     9
100
AcDbLine
 10
244.509372083905
 20
274.9341726621267
 30
0.0
 11
244.509372083905
 21
235.4342092920577
 31
0.0
  0
LINE
  5
304
330
1F
100
AcDbEntity
  8
D-2
  6
Continuous
 62
     3
370
     9
100
AcDbLine
 10
243.0091338347042
 20
274.9341726621267
 30
0.0
 11
243.0091338347042
 21
235.4342092920577
 31
0.0
  0
LINE
  5
305
330
1F
100
AcDbEntity
  8
D-2
  6
Continuous
 62
     3
370
     9
100
AcDbLine
 10
253.0092348726318
 20
274.9341726621267
 30
0.0
 11
253.0092348726318
 21
235.4342092920577
 31
0.0
  0
LINE
  5
306
330
1F
100
AcDbEntity
  8
D-2
  6
Continuous
 62
     3
370
     9
100
AcDbLine
 10
251.5089966234309
 20
274.9341726621267
 30
0.0
 11
251.5089966234309
 21
235.4342092920577
 31
0.0
  0
LINE
  5
307
330
1F
100
AcDbEntity
  8
D-2
  6
Continuous
 62
     3
370
     9
100
AcDbLine
 10
188.0091030520119
 20
232.9346433427465
 30
0.0
 11
188.0091030520119
 21
230.4348805462194
 31
0.0
  0
LINE
  5
308
330
1F
100
AcDbEntity
  8
D-2
  6
Continuous
 62
     3
370
     9
100
AcDbLine
 10
189.2590828738834
 20
232.9346433427465
 30
0.0
 11
189.2590828738834
 21
230.4348805462194
 31
0.0
  0
LINE
  5
309
330
1F
100
AcDbEntity
  8
D-2
  6
Continuous
 62
     3
370
     9
100
AcDbLine
 10
177.7596622070969
 20
220.4345826610757
 30
0.0
 11
176.7596783495999
 21
221.4345665185731
 31
0.0
  0
LINE
  5
30A
330
1F
100
AcDbEntity
  8
D-2
  6
Continuous
 62
     3
370
     9
100
AcDbLine
 10
193.2596744612597
 20
220.4345826610757
 30
0.0
 11
177.7596622070969
 21
220.4345826610757
 31
0.0
  0
LINE
  5
30B
330
1F
100
AcDbEntity
  8
D-2
  6
Continuous
 62
     3
370
     9
100
AcDbLine
 10
193.2596744612597
 20
220.4345826610757
 30
0.0
 11
194.2596583187567
 21
221.4345665185731
 31
0.0
  0
LINE
  5
30C
330
1F
100
AcDbEntity
  8
D-2
  6
Continuous
 62
     3
370
     9
100
AcDbLine
 10
176.7596783495999
 20
221.4345665185731
 30
0.0
 11
194.2596583187567
 21
221.4345665185731
 31
0.0
  0
LINE
  5
30D
330
1F
100
AcDbEntity
  8
D-2
  6
Continuous
 62
     3
370
     9
100
AcDbLine
 10
176.7596783495999
 20
221.4345665185731
 30
0.0
 11
176.7596783495999
 21
230.4346180832646
 31
0.0
  0
LINE
  5
30E
330
1F
100
AcDbEntity
  8
D-2
  6
Continuous
 62
     3
370
     9
100
AcDbLine
 10
194.2596583187567
 20
221.4345665185731
 30
0.0
 11
194.2596583187567
 21
230.4346180832646
 31
0.0
  0
LINE
  5
30F
330
1F
100
AcDbEntity
  8
D-2
  6
Continuous
 62
     3
370
     9
100
AcDbLine
 10
176.0094279935215
 20
232.9341840325756
 30
0.0
 11
176.0094279935215
 21
230.4346180832646
 31
0.0
  0
LINE
  5
310
330
1F
100
AcDbEntity
  8
D-2
  6
Continuous
 62
     3
370
     9
100
AcDbLine
 10
195.0099086748345
 20
230.4346180832646
 30
0.0
 11
176.0094279935215
 21
230.4346180832646
 31
0.0
  0
LINE
  5
311
330
1F
100
AcDbEntity
  8
D-2
  6
Continuous
 62
     3
370
     9
100
AcDbLine
 10
195.0099086748345
 20
232.9341840325756
 30
0.0
 11
195.0099086748345
 21
230.4346180832646
 31
0.0
  0
LINE
  5
312
330
1F
100
AcDbEntity
  8
D-2
  6
Continuous
 62
     3
370
     9
100
AcDbLine
 10
250.5090127659339
 20
232.9346433427465
 30
0.0
 11
250.5090127659339
 21
230.4348805462194
 31
0.0
  0
LINE
  5
313
330
1F
100
AcDbEntity
  8
D-2
  6
Continuous
 62
     3
370
     9
100
AcDbLine
 10
251.7591238192826
 20
232.9346433427465
 30
0.0
 11
251.7591238192826
 21
230.4348805462194
 31
0.0
  0
LINE
  5
314
330
1F
100
AcDbEntity
  8
D-2
  6
Continuous
 62
     3
370
     9
100
AcDbLine
 10
240.259571921019
 20
220.4345826610757
 30
0.0
 11
239.2595880635214
 21
221.4345665185731
 31
0.0
  0
LINE
  5
315
330
1F
100
AcDbEntity
  8
D-2
  6
Continuous
 62
     3
370
     9
100
AcDbLine
 10
255.7595841751812
 20
220.4345826610757
 30
0.0
 11
240.259571921019
 21
220.4345826610757
 31
0.0
  0
LINE
  5
316
330
1F
100
AcDbEntity
  8
D-2
  6
Continuous
 62
     3
370
     9
100
AcDbLine
 10
255.7595841751812
 20
220.4345826610757
 30
0.0
 11
256.7595680326788
 21
221.4345665185731
 31
0.0
  0
LINE
  5
317
330
1F
100
AcDbEntity
  8
D-2
  6
Continuous
 62
     3
370
     9
100
AcDbLine
 10
239.2595880635214
 20
221.4345665185731
 30
0.0
 11
256.7595680326788
 21
221.4345665185731
 31
0.0
  0
LINE
  5
318
330
1F
100
AcDbEntity
  8
D-2
  6
Continuous
 62
     3
370
     9
100
AcDbLine
 10
239.2595880635214
 20
221.4345665185731
 30
0.0
 11
239.2595880635214
 21
230.4346180832646
 31
0.0
  0
LINE
  5
319
330
1F
100
AcDbEntity
  8
D-2
  6
Continuous
 62
     3
370
     9
100
AcDbLine
 10
256.7595680326788
 20
221.4345665185731
 30
0.0
 11
256.7595680326788
 21
230.4346180832646
 31
0.0
  0
LINE
  5
31A
330
1F
100
AcDbEntity
  8
D-2
  6
Continuous
 62
     3
370
     9
100
AcDbLine
 10
240.0097071881221
 20
221.4345665185731
 30
0.0
 11
240.0097071881221
 21
230.0488631555594
 31
0.0
  0
LINE
  5
31B
330
1F
100
AcDbEntity
  8
D-2
  6
Continuous
 62
     3
370
     9
100
AcDbLine
 10
241.0096910456191
 20
221.4345665185731
 30
0.0
 11
241.0096910456191
 21
229.5346326115171
 31
0.0
  0
LINE
  5
31C
330
1F
100
AcDbEntity
  8
D-2
  6
Continuous
 62
     3
370
     9
100
AcDbLine
 10
243.0096587606137
 20
221.4345665185731
 30
0.0
 11
243.0096587606137
 21
228.5060402919549
 31
0.0
  0
LINE
  5
31D
330
1F
100
AcDbEntity
  8
D-2
  6
Continuous
 62
     3
370
     9
100
AcDbLine
 10
244.0095113866336
 20
221.4345665185731
 30
0.0
 11
244.0095113866336
 21
227.9918097479125
 31
0.0
  0
LINE
  5
31E
330
1F
100
AcDbEntity
  8
D-2
  6
Continuous
 62
     3
370
     9
100
AcDbLine
 10
245.0094952441312
 20
221.4345665185731
 30
0.0
 11
245.0094952441312
 21
227.4774479723927
 31
0.0
  0
LINE
  5
31F
330
1F
100
AcDbEntity
  8
D-2
  6
Continuous
 62
     3
370
     9
100
AcDbLine
 10
246.0096103331053
 20
221.4345665185731
 30
0.0
 11
246.0096103331053
 21
226.9632174283503
 31
0.0
  0
LINE
  5
320
330
1F
100
AcDbEntity
  8
D-2
  6
Continuous
 62
     3
370
     9
100
AcDbLine
 10
247.0095941906028
 20
221.4345665185731
 30
0.0
 11
247.0095941906028
 21
226.4489212685692
 31
0.0
  0
LINE
  5
321
330
1F
100
AcDbEntity
  8
D-2
  6
Continuous
 62
     3
370
     9
100
AcDbLine
 10
249.0095619055974
 20
221.4345665185731
 30
0.0
 11
249.0095619055974
 21
225.4203289490071
 31
0.0
  0
LINE
  5
322
330
1F
100
AcDbEntity
  8
D-2
  6
Continuous
 62
     3
370
     9
100
AcDbLine
 10
250.0096769945721
 20
221.4345665185731
 30
0.0
 11
250.0096769945721
 21
224.9060984049648
 31
0.0
  0
LINE
  5
323
330
1F
100
AcDbEntity
  8
D-2
  6
Continuous
 62
     3
370
     9
100
AcDbLine
 10
251.009529620592
 20
221.4345665185731
 30
0.0
 11
251.009529620592
 21
224.3917366294449
 31
0.0
  0
LINE
  5
324
330
1F
100
AcDbEntity
  8
D-2
  6
Continuous
 62
     3
370
     9
100
AcDbLine
 10
252.0095134780895
 20
221.4345665185731
 30
0.0
 11
252.0095134780895
 21
223.8775060854027
 31
0.0
  0
LINE
  5
325
330
1F
100
AcDbEntity
  8
D-2
  6
Continuous
 62
     3
370
     9
100
AcDbLine
 10
253.0096285670636
 20
221.4345665185731
 30
0.0
 11
253.0096285670636
 21
223.36327554136
 31
0.0
  0
LINE
  5
326
330
1F
100
AcDbEntity
  8
D-2
  6
Continuous
 62
     3
370
     9
100
AcDbLine
 10
254.0096124245612
 20
221.4345665185731
 30
0.0
 11
254.0096124245612
 21
222.8489137658405
 31
0.0
  0
LINE
  5
327
330
1F
100
AcDbEntity
  8
D-2
  6
Continuous
 62
     3
370
     9
100
AcDbLine
 10
255.0095962820582
 20
221.4345665185731
 30
0.0
 11
255.0095962820582
 21
222.3345519903206
 31
0.0
  0
LINE
  5
328
330
1F
100
AcDbEntity
  8
D-2
  6
Continuous
 62
     3
370
     9
100
AcDbLine
 10
256.0095801395557
 20
221.4345665185731
 30
0.0
 11
256.0095801395557
 21
221.8203214462783
 31
0.0
  0
LINE
  5
329
330
1F
100
AcDbEntity
  8
D-2
  6
Continuous
 62
     3
370
     9
100
AcDbLine
 10
242.0096749031161
 20
221.4345665185731
 30
0.0
 11
242.0096749031161
 21
229.0202708359973
 31
0.0
  0
LINE
  5
32A
330
1F
100
AcDbEntity
  8
D-2
  6
Continuous
 62
     3
370
     9
100
AcDbLine
 10
238.5094689389213
 20
232.9341840325756
 30
0.0
 11
238.5094689389213
 21
230.4346180832646
 31
0.0
  0
LINE
  5
32B
330
1F
100
AcDbEntity
  8
D-2
  6
Continuous
 62
     3
370
     9
100
AcDbLine
 10
257.509818388756
 20
230.4346180832646
 30
0.0
 11
238.5094689389213
 21
230.4346180832646
 31
0.0
  0
LINE
  5
32C
330
1F
100
AcDbEntity
  8
D-2
  6
Continuous
 62
     3
370
     9
100
AcDbLine
 10
257.509818388756
 20
232.9341840325756
 30
0.0
 11
257.509818388756
 21
230.4346180832646
 31
0.0
  0
LINE
  5
32D
330
1F
100
AcDbEntity
  8
D-2
  6
Continuous
 62
     3
370
     9
100
AcDbLine
 10
195.5095069091512
 20
235.4342092920577
 30
0.0
 11
195.5095069091512
 21
232.9341840325756
 31
0.0
  0
LINE
  5
32E
330
1F
100
AcDbEntity
  8
D-2
  6
Continuous
 62
     3
370
     9
100
AcDbLine
 10
238.0096082416499
 20
235.4342092920577
 30
0.0
 11
238.0096082416499
 21
232.9341840325756
 31
0.0
  0
LINE
  5
32F
330
1F
100
AcDbEntity
  8
D-2
  6
JWW_CENTER1
 62
     3
370
     9
100
AcDbLine
 10
248.0095780480998
 20
288.991975355851
 30
0.0
 11
248.0095780480998
 21
217.8836395883774
 31
0.0
  0
LINE
  5
330
330
1F
100
AcDbEntity
  8
D-2
  6
JWW_CENTER1
 62
     3
370
     9
100
AcDbLine
 10
185.5095371027006
 20
288.991975355851
 30
0.0
 11
185.5095371027006
 21
217.8836395883774
 31
0.0
  0
LINE
  5
331
330
1F
100
AcDbEntity
  8
D-2
  6
Continuous
 62
     3
370
     9
100
AcDbLine
 10
235.5095173664292
 20
300.4342404589295
 30
0.0
 11
198.0095977843713
 21
300.4342404589295
 31
0.0
  0
LINE
  5
332
330
1F
100
AcDbEntity
  8
D-2
  6
Continuous
 62
     3
370
     9
100
AcDbLine
 10
198.0095977843713
 20
300.4342404589295
 30
0.0
 11
198.0095977843713
 21
295.4342555557045
 31
0.0
  0
LINE
  5
333
330
1F
100
AcDbEntity
  8
D-2
  6
Continuous
 62
     3
370
     9
100
AcDbLine
 10
235.5095173664292
 20
300.4342404589295
 30
0.0
 11
235.5095173664292
 21
295.4342555557045
 31
0.0
  0
LINE
  5
334
330
1F
100
AcDbEntity
  8
D-2
  6
Continuous
 62
     3
370
     9
100
AcDbLine
 10
197.3846734891744
 20
300.4342404589295
 30
0.0
 11
155.5094964518726
 21
300.4342404589295
 31
0.0
  0
LINE
  5
335
330
1F
100
AcDbEntity
  8
D-2
  6
Continuous
 62
     3
370
     9
100
AcDbLine
 10
155.5094964518726
 20
300.4342404589295
 30
0.0
 11
155.5094964518726
 21
295.4342555557045
 31
0.0
  0
LINE
  5
336
330
1F
100
AcDbEntity
  8
D-2
  6
Continuous
 62
     3
370
     9
100
AcDbLine
 10
260.9694738264467
 20
281.1539742678816
 30
0.0
 11
262.1816589828377
 21
289.6388766681893
 31
0.0
  0
LINE
  5
337
330
1F
100
AcDbEntity
  8
D-2
  6
Continuous
 62
     3
370
     9
100
AcDbLine
 10
265.151558547014
 20
289.2146053018785
 30
0.0
 11
263.9393733906224
 21
280.7297029015708
 31
0.0
  0
LINE
  5
338
330
1F
100
AcDbEntity
  8
D-2
  6
Continuous
 62
     3
370
     9
100
AcDbLine
 10
172.5496413243538
 20
281.1539742678816
 30
0.0
 11
171.3375873994399
 21
289.6388766681893
 31
0.0
  0
LINE
  5
339
330
1F
100
AcDbEntity
  8
D-2
  6
Continuous
 62
     3
370
     9
100
AcDbLine
 10
168.3676878352641
 20
289.2146053018785
 30
0.0
 11
169.5798729916551
 21
280.7297029015708
 31
0.0
  0
LINE
  5
33A
330
1F
100
AcDbEntity
  8
D-2
  6
Continuous
 62
     3
370
     9
100
AcDbLine
 10
164.6552805721747
 20
292.4342383674741
 30
0.0
 11
155.5094964518726
 21
292.4342383674741
 31
0.0
  0
LINE
  5
33B
330
1F
100
AcDbEntity
  8
D-2
  6
Continuous
 62
     3
370
     9
100
AcDbLine
 10
198.0095977843713
 20
295.4342555557045
 30
0.0
 11
198.0095977843713
 21
277.9342755865472
 31
0.0
  0
LINE
  5
33C
330
1F
100
AcDbEntity
  8
D-2
  6
Continuous
 62
     3
370
     9
100
AcDbLine
 10
235.5095173664292
 20
295.4342555557045
 30
0.0
 11
235.5095173664292
 21
277.9342755865472
 31
0.0
  0
LINE
  5
33D
330
1F
100
AcDbEntity
  8
D-2
  6
Continuous
 62
     3
370
     9
100
AcDbLine
 10
268.8638345786258
 20
292.4342383674741
 30
0.0
 11
278.0096186989279
 21
292.4342383674741
 31
0.0
  0
LINE
  5
33E
330
1F
100
AcDbEntity
  8
D-2
  6
Continuous
 62
     3
370
     9
100
AcDbLine
 10
192.0094321764329
 20
280.4343664617678
 30
0.0
 11
192.0094321764329
 21
277.934341202286
 31
0.0
  0
LINE
  5
33F
330
1F
100
AcDbEntity
  8
D-2
  6
Continuous
 62
     3
370
     9
100
AcDbLine
 10
179.0096420289684
 20
280.4343664617678
 30
0.0
 11
179.0096420289684
 21
277.934341202286
 31
0.0
  0
LINE
  5
340
330
1F
100
AcDbEntity
  8
D-2
  6
Continuous
 62
     3
370
     9
100
AcDbLine
 10
179.0096420289684
 20
280.4343664617678
 30
0.0
 11
192.0094321764329
 21
280.4343664617678
 31
0.0
  0
LINE
  5
341
330
1F
100
AcDbEntity
  8
D-2
  6
Continuous
 62
     3
370
     9
100
AcDbLine
 10
241.5096829743676
 20
280.4343664617678
 30
0.0
 11
241.5096829743676
 21
277.934341202286
 31
0.0
  0
LINE
  5
342
330
1F
100
AcDbEntity
  8
D-2
  6
Continuous
 62
     3
370
     9
100
AcDbLine
 10
254.509473121832
 20
280.4343664617678
 30
0.0
 11
254.509473121832
 21
277.934341202286
 31
0.0
  0
LINE
  5
343
330
1F
100
AcDbEntity
  8
D-2
  6
Continuous
 62
     3
370
     9
100
AcDbLine
 10
254.509473121832
 20
280.4343664617678
 30
0.0
 11
241.5096829743676
 21
280.4343664617678
 31
0.0
  0
LINE
  5
344
330
1F
100
AcDbEntity
  8
D-2
  6
Continuous
 62
     3
370
     9
100
AcDbLine
 10
209.3645325945825
 20
290.4342706524793
 30
0.0
 11
209.3645325945825
 21
282.9342604897723
 31
0.0
  0
LINE
  5
345
330
1F
100
AcDbEntity
  8
D-2
  6
Continuous
 62
     3
370
     9
100
AcDbLine
 10
224.1545825562174
 20
290.4342706524793
 30
0.0
 11
224.1545825562174
 21
282.9342604897723
 31
0.0
  0
LINE
  5
346
330
1F
100
AcDbEntity
  8
D-2
  6
Continuous
 62
     3
370
     9
100
AcDbLine
 10
278.0096186989279
 20
295.4342555557045
 30
0.0
 11
278.0096186989279
 21
300.4342404589295
 31
0.0
  0
LINE
  5
347
330
1F
100
AcDbEntity
  8
D-2
  6
Continuous
 62
     3
370
     9
100
AcDbLine
 10
278.0096186989279
 20
295.4342555557045
 30
0.0
 11
278.0096186989279
 21
292.4342383674741
 31
0.0
  0
LINE
  5
348
330
1F
100
AcDbEntity
  8
D-2
  6
Continuous
 62
     3
370
     9
100
AcDbLine
 10
257.2571977948344
 20
274.9342583983167
 30
0.0
 11
259.2595276764213
 21
274.9342583983167
 31
0.0
  0
LINE
  5
349
330
1F
100
AcDbEntity
  8
D-2
  6
Continuous
 62
     3
370
     9
100
AcDbLine
 10
176.2619173559655
 20
274.9342583983167
 30
0.0
 11
174.2595874743786
 21
274.9342583983167
 31
0.0
  0
ARC
  5
34A
330
1F
100
AcDbEntity
  8
D-2
  6
Continuous
 62
     3
370
     9
100
AcDbCircle
 10
257.2571977948344
 20
281.6842806679008
 30
0.0
 40
3.749999955123916
100
AcDbArc
 50
270.0
 51
351.8694915771484
  0
ARC
  5
34B
330
1F
100
AcDbEntity
  8
D-2
  6
Continuous
 62
     3
370
     9
100
AcDbCircle
 10
257.2571977948344
 20
281.6842806679008
 30
0.0
 40
6.749999201550906
100
AcDbArc
 50
270.0
 51
351.8694915771484
  0
ARC
  5
34C
330
1F
100
AcDbEntity
  8
D-2
  6
Continuous
 62
     3
370
     9
100
AcDbCircle
 10
268.8638345786258
 20
288.6842332861204
 30
0.0
 40
6.749999201550906
100
AcDbArc
 50
90.0
 51
171.8694915771484
  0
ARC
  5
34D
330
1F
100
AcDbEntity
  8
D-2
  6
Continuous
 62
     3
370
     9
100
AcDbCircle
 10
176.2619173559655
 20
281.6842806679008
 30
0.0
 40
3.749999955123916
100
AcDbArc
 50
188.1305084228516
 51
270.0
  0
ARC
  5
34E
330
1F
100
AcDbEntity
  8
D-2
  6
Continuous
 62
     3
370
     9
100
AcDbCircle
 10
164.6552805721747
 20
288.6842332861204
 30
0.0
 40
6.749999201550906
100
AcDbArc
 50
8.130508422851566
 51
90.0
  0
ARC
  5
34F
330
1F
100
AcDbEntity
  8
D-2
  6
Continuous
 62
     3
370
     9
100
AcDbCircle
 10
164.6552805721747
 20
288.6842332861204
 30
0.0
 40
3.749999955123916
100
AcDbArc
 50
8.130508422851566
 51
90.0
  0
ARC
  5
350
330
1F
100
AcDbEntity
  8
D-2
  6
Continuous
 62
     3
370
     9
100
AcDbCircle
 10
176.2619173559655
 20
281.6842806679008
 30
0.0
 40
6.749999201550906
100
AcDbArc
 50
188.1305084228516
 51
270.0
  0
ARC
  5
351
330
1F
100
AcDbEntity
  8
D-2
  6
Continuous
 62
     3
370
     9
100
AcDbCircle
 10
268.8638345786258
 20
288.6842332861204
 30
0.0
 40
3.749999955123916
100
AcDbArc
 50
90.0
 51
171.8694915771484
  0
LINE
  5
352
330
1F
100
AcDbEntity
  8
D-2
  6
Continuous
 62
     3
370
     9
100
AcDbLine
 10
236.1345728931038
 20
300.4342404589295
 30
0.0
 11
278.0096186989279
 21
300.4342404589295
 31
0.0
  0
LINE
  5
353
330
1F
100
AcDbEntity
  8
D-2
  6
Continuous
 62
     3
370
     9
100
AcDbLine
 10
176.2619173559655
 20
277.9342755865472
 30
0.0
 11
257.2571977948344
 21
277.9342755865472
 31
0.0
  0
LINE
  5
354
330
1F
100
AcDbEntity
  8
D-2
  6
Continuous
 62
     3
370
     9
100
AcDbLine
 10
257.2571977948344
 20
274.9342583983167
 30
0.0
 11
176.2619173559655
 21
274.9342583983167
 31
0.0
  0
LINE
  5
355
330
1F
100
AcDbEntity
  8
D-2
  6
Continuous
 62
     3
370
     9
100
AcDbLine
 10
184.6049585292452
 20
299.7431754991421
 30
0.0
 11
185.3775182364747
 21
298.198187316161
 31
0.0
  0
LINE
  5
356
330
1F
100
AcDbEntity
  8
D-2
  6
Continuous
 62
     3
370
     9
100
AcDbLine
 10
182.5511859085323
 20
292.6701925637707
 30
0.0
 11
183.3238768472388
 21
291.1250731493121
 31
0.0
  0
LINE
  5
357
330
1F
100
AcDbEntity
  8
D-2
  6
Continuous
 62
     3
370
     9
100
AcDbLine
 10
248.9141566215552
 20
299.7431754991421
 30
0.0
 11
248.1415969143258
 21
298.198187316161
 31
0.0
  0
LINE
  5
358
330
1F
100
AcDbEntity
  8
D-2
  6
Continuous
 62
     3
370
     9
100
AcDbLine
 10
250.9679292422682
 20
292.6701925637707
 30
0.0
 11
250.1952383035616
 21
291.1250731493121
 31
0.0
  0
ARC
  5
359
330
1F
100
AcDbEntity
  8
D-2
  6
Continuous
 62
     3
370
     9
100
AcDbCircle
 10
178.0790796229952
 20
290.4341394210022
 30
0.0
 40
4.999999769290902
100
AcDbArc
 50
26.56568908691406
 51
90.0
  0
ARC
  5
35A
330
1F
100
AcDbEntity
  8
D-2
  6
Continuous
 62
     3
370
     9
100
AcDbCircle
 10
189.8496245220117
 20
300.4342404589295
 30
0.0
 40
4.999999769290902
100
AcDbArc
 50
206.5656890869141
 51
270.0
  0
ARC
  5
35B
330
1F
100
AcDbEntity
  8
D-2
  6
Continuous
 62
     3
370
     9
100
AcDbCircle
 10
183.4869975735997
 20
299.1841294055804
 30
0.0
 40
1.249999942322725
100
AcDbArc
 50
26.56504821777344
 51
90.0
  0
ARC
  5
35C
330
1F
100
AcDbEntity
  8
D-2
  6
Continuous
 62
     3
370
     9
100
AcDbCircle
 10
184.4418378028844
 20
291.6841192428737
 30
0.0
 40
1.249999942322725
100
AcDbArc
 50
206.5650482177734
 51
270.0
  0
ARC
  5
35D
330
1F
100
AcDbEntity
  8
D-2
  6
Continuous
 62
     3
370
     9
100
AcDbCircle
 10
255.4400355278052
 20
290.4341394210022
 30
0.0
 40
4.999999769290902
100
AcDbArc
 50
90.0
 51
153.4343109130859
  0
ARC
  5
35E
330
1F
100
AcDbEntity
  8
D-2
  6
Continuous
 62
     3
370
     9
100
AcDbCircle
 10
243.6694906287887
 20
300.4342404589295
 30
0.0
 40
4.999999769290902
100
AcDbArc
 50
270.0
 51
333.4343109130859
  0
ARC
  5
35F
330
1F
100
AcDbEntity
  8
D-2
  6
Continuous
 62
     3
370
     9
100
AcDbCircle
 10
250.0321175772008
 20
299.1841294055804
 30
0.0
 40
1.249999942322725
100
AcDbArc
 50
90.0
 51
153.4349517822266
  0
ARC
  5
360
330
1F
100
AcDbEntity
  8
D-2
  6
Continuous
 62
     3
370
     9
100
AcDbCircle
 10
249.0772773479161
 20
291.6841192428737
 30
0.0
 40
1.249999942322725
100
AcDbArc
 50
270.0
 51
333.4349517822266
  0
LINE
  5
361
330
1F
100
AcDbEntity
  8
D-2
  6
Continuous
 62
     3
370
     9
100
AcDbLine
 10
235.5095173664292
 20
295.4342555557045
 30
0.0
 11
198.0095977843713
 21
295.4342555557045
 31
0.0
  0
LINE
  5
362
330
1F
100
AcDbEntity
  8
D-2
  6
Continuous
 62
     3
370
     9
100
AcDbLine
 10
198.0095977843713
 20
290.4342050367408
 30
0.0
 11
235.5095173664292
 21
290.4342050367408
 31
0.0
  0
LINE
  5
363
330
1F
100
AcDbEntity
  8
D-2
  6
Continuous
 62
     3
370
     9
100
AcDbLine
 10
235.5095173664292
 20
282.9342604897723
 30
0.0
 11
198.0095977843713
 21
282.9342604897723
 31
0.0
  0
LINE
  5
364
330
1F
100
AcDbEntity
  8
D-2
  6
Continuous
 62
     3
370
     9
100
AcDbLine
 10
197.3846734891744
 20
295.4342555557045
 30
0.0
 11
189.8374318836575
 21
295.4342555557045
 31
0.0
  0
LINE
  5
365
330
1F
100
AcDbEntity
  8
D-2
  6
Continuous
 62
     3
370
     9
100
AcDbLine
 10
178.0790796229952
 20
295.4342555557045
 30
0.0
 11
155.5094964518726
 21
295.4342555557045
 31
0.0
  0
LINE
  5
366
330
1F
100
AcDbEntity
  8
D-2
  6
Continuous
 62
     3
370
     9
100
AcDbLine
 10
278.0096186989279
 20
295.4342555557045
 30
0.0
 11
255.4400355278052
 21
295.4342555557045
 31
0.0
  0
LINE
  5
367
330
1F
100
AcDbEntity
  8
D-2
  6
Continuous
 62
     3
370
     9
100
AcDbLine
 10
243.681683267143
 20
295.4342555557045
 30
0.0
 11
236.1345728931038
 21
295.4342555557045
 31
0.0
  0
LINE
  5
368
330
1F
100
AcDbEntity
  8
D-2
  6
Continuous
 62
     3
370
     9
100
AcDbLine
 10
197.3846734891744
 20
300.4342404589295
 30
0.0
 11
197.3846734891744
 21
290.4341193005509
 31
0.0
  0
LINE
  5
369
330
1F
100
AcDbEntity
  8
D-2
  6
Continuous
 62
     3
370
     9
100
AcDbLine
 10
184.4418378028844
 20
290.4341193005509
 30
0.0
 11
197.3846734891744
 21
290.4341193005509
 31
0.0
  0
LINE
  5
36A
330
1F
100
AcDbEntity
  8
D-2
  6
Continuous
 62
     3
370
     9
100
AcDbLine
 10
236.1345728931038
 20
300.4342404589295
 30
0.0
 11
236.1345728931038
 21
290.4341193005509
 31
0.0
  0
LINE
  5
36B
330
1F
100
AcDbEntity
  8
D-2
  6
Continuous
 62
     3
370
     9
100
AcDbLine
 10
249.0772773479155
 20
290.4341193005509
 30
0.0
 11
236.1345728931038
 21
290.4341193005509
 31
0.0
  0
LINE
  5
36C
330
1F
100
AcDbEntity
  8
D-2
  6
Continuous
 62
     3
370
     9
100
AcDbLine
 10
251.5097840122952
 20
285.4346382037159
 30
0.0
 11
251.5097840122952
 21
280.4344320775066
 31
0.0
  0
LINE
  5
36D
330
1F
100
AcDbEntity
  8
D-2
  6
Continuous
 62
     3
370
     9
100
AcDbLine
 10
253.0100222614955
 20
285.4346382037159
 30
0.0
 11
253.0100222614955
 21
280.4344320775066
 31
0.0
  0
LINE
  5
36E
330
1F
100
AcDbEntity
  8
D-2
  6
Continuous
 62
     3
370
     9
100
AcDbLine
 10
244.5102907042464
 20
285.4346382037159
 30
0.0
 11
244.5102907042464
 21
280.4344320775066
 31
0.0
  0
LINE
  5
36F
330
1F
100
AcDbEntity
  8
D-2
  6
Continuous
 62
     3
370
     9
100
AcDbLine
 10
243.0100524550456
 20
285.4346382037159
 30
0.0
 11
253.0100222614955
 21
285.4346382037159
 31
0.0
  0
LINE
  5
370
330
1F
100
AcDbEntity
  8
D-2
  6
Continuous
 62
     3
370
     9
100
AcDbLine
 10
243.0100524550456
 20
285.4346382037159
 30
0.0
 11
243.0100524550456
 21
280.4344320775066
 31
0.0
  0
LINE
  5
371
330
1F
100
AcDbEntity
  8
D-2
  6
Continuous
 62
     3
370
     9
100
AcDbLine
 10
189.009743066896
 20
285.4346382037159
 30
0.0
 11
189.009743066896
 21
280.4344320775066
 31
0.0
  0
LINE
  5
372
330
1F
100
AcDbEntity
  8
D-2
  6
Continuous
 62
     3
370
     9
100
AcDbLine
 10
190.5099813160963
 20
285.4346382037159
 30
0.0
 11
190.5099813160963
 21
280.4344320775066
 31
0.0
  0
LINE
  5
373
330
1F
100
AcDbEntity
  8
D-2
  6
Continuous
 62
     3
370
     9
100
AcDbLine
 10
182.0101185273695
 20
285.4346382037159
 30
0.0
 11
182.0101185273695
 21
280.4344320775066
 31
0.0
  0
LINE
  5
374
330
1F
100
AcDbEntity
  8
D-2
  6
Continuous
 62
     3
370
     9
100
AcDbLine
 10
180.5098802781687
 20
285.4346382037159
 30
0.0
 11
190.5099813160963
 21
285.4346382037159
 31
0.0
  0
LINE
  5
375
330
1F
100
AcDbEntity
  8
D-2
  6
Continuous
 62
     3
370
     9
100
AcDbLine
 10
180.5098802781687
 20
285.4346382037159
 30
0.0
 11
180.5098802781687
 21
280.4344320775066
 31
0.0
  0
LINE
  5
376
330
1F
100
AcDbEntity
  8
D-2
  6
JWW_DASHED1
 62
     3
370
     9
100
AcDbLine
 10
198.0095977843713
 20
287.9342453929974
 30
0.0
 11
235.5095173664292
 21
287.9342453929974
 31
0.0
  0
LINE
  5
377
330
1F
100
AcDbEntity
  8
D-4
  6
Continuous
 62
     7
370
     9
100
AcDbLine
 10
604.2793541262655
 20
104.873116651498
 30
0.0
 11
155.5094964518726
 21
104.873116651498
 31
0.0
  0
LINE
  5
378
330
1F
100
AcDbEntity
  8
D-6
  6
Continuous
 62
     6
370
     9
100
AcDbLine
 10
433.4796743357243
 20
280.4341065602018
 30
0.0
 11
453.4799877594993
 21
300.4341725441545
 31
0.0
  0
LINE
  5
379
330
1F
100
AcDbEntity
  8
D-6
  6
JWW_DASHED1
 62
     6
370
     9
100
AcDbLine
 10
445.9798392956061
 20
280.4341065602018
 30
0.0
 11
465.9796578397358
 21
300.4341725441545
 31
0.0
  0
LINE
  5
37A
330
1F
100
AcDbEntity
  8
D-6
  6
Continuous
 62
     6
370
     9
100
AcDbLine
 10
408.4793444159608
 20
280.4341065602018
 30
0.0
 11
428.4796578397358
 21
300.4341725441545
 31
0.0
  0
LINE
  5
37B
330
1F
100
AcDbEntity
  8
D-6
  6
JWW_DASHED1
 62
     6
370
     9
100
AcDbLine
 10
420.9795093758426
 20
280.4341065602018
 30
0.0
 11
440.9793279199722
 21
300.4341725441545
 31
0.0
  0
LINE
  5
37C
330
1F
100
AcDbEntity
  8
D-6
  6
Continuous
 62
     6
370
     9
100
AcDbLine
 10
383.4790144961972
 20
280.4341065602018
 30
0.0
 11
403.4793279199722
 21
300.4341725441545
 31
0.0
  0
LINE
  5
37D
330
1F
100
AcDbEntity
  8
D-6
  6
JWW_DASHED1
 62
     6
370
     9
100
AcDbLine
 10
395.979179456079
 20
280.4341065602018
 30
0.0
 11
415.9789980002087
 21
300.4341725441545
 31
0.0
  0
LINE
  5
37E
330
1F
100
AcDbEntity
  8
D-6
  6
Continuous
 62
     6
370
     9
100
AcDbLine
 10
358.4786845764337
 20
280.4341065602018
 30
0.0
 11
378.4789980002087
 21
300.4341725441545
 31
0.0
  0
LINE
  5
37F
330
1F
100
AcDbEntity
  8
D-6
  6
JWW_DASHED1
 62
     6
370
     9
100
AcDbLine
 10
370.9788495363155
 20
280.4341065602018
 30
0.0
 11
390.9786680804451
 21
300.4341725441545
 31
0.0
  0
LINE
  5
380
330
1F
100
AcDbEntity
  8
D-6
  6
Continuous
 62
     6
370
     9
100
AcDbLine
 10
333.4783546566701
 20
280.4341065602018
 30
0.0
 11
353.4786680804451
 21
300.4341725441545
 31
0.0
  0
LINE
  5
381
330
1F
100
AcDbEntity
  8
D-6
  6
JWW_DASHED1
 62
     6
370
     9
100
AcDbLine
 10
345.9785196165519
 20
280.4341065602018
 30
0.0
 11
365.9783381606816
 21
300.4341725441545
 31
0.0
  0
LINE
  5
382
330
1F
100
AcDbEntity
  8
D-6
  6
Continuous
 62
     6
370
     9
100
AcDbLine
 10
308.4780247369066
 20
280.4341065602018
 30
0.0
 11
328.4783381606816
 21
300.4341725441545
 31
0.0
  0
LINE
  5
383
330
1F
100
AcDbEntity
  8
D-6
  6
JWW_DASHED1
 62
     6
370
     9
100
AcDbLine
 10
320.9781896967884
 20
280.4341065602018
 30
0.0
 11
340.978008240918
 21
300.4341725441545
 31
0.0
  0
LINE
  5
384
330
1F
100
AcDbEntity
  8
D-6
  6
JWW_DASHED1
 62
     6
370
     9
100
AcDbLine
 10
295.9778597770248
 20
280.4341065602018
 30
0.0
 11
315.9776783211545
 21
300.4341725441545
 31
0.0
  0
LINE
  5
385
330
1F
100
AcDbEntity
  8
D-6
  6
Continuous
 62
     7
370
     9
100
AcDbLine
 10
439.8120578031745
 20
261.7891208996463
 30
0.0
 11
439.062164614698
 21
261.7891208996463
 31
0.0
  0
LINE
  5
386
330
1F
100
AcDbEntity
  8
D-6
  6
Continuous
 62
     7
370
     9
100
AcDbLine
 10
439.062164614698
 20
261.7891208996463
 30
0.0
 11
439.062164614698
 21
262.5392620434451
 31
0.0
  0
LINE
  5
387
330
1F
100
AcDbEntity
  8
D-6
  6
Continuous
 62
     7
370
     9
100
AcDbLine
 10
439.8120578031745
 20
261.7891208996463
 30
0.0
 11
439.8120578031745
 21
262.5392620434451
 31
0.0
  0
LINE
  5
388
330
1F
100
AcDbEntity
  8
D-6
  6
Continuous
 62
     7
370
     9
100
AcDbLine
 10
439.062164614698
 20
262.5392620434451
 30
0.0
 11
439.8120578031745
 21
262.5392620434451
 31
0.0
  0
LINE
  5
389
330
1F
100
AcDbEntity
  8
D-6
  6
Continuous
 62
     7
370
     9
100
AcDbLine
 10
419.6121878960134
 20
267.4185928409862
 30
0.0
 11
418.8622947075369
 21
267.4185928409862
 31
0.0
  0
LINE
  5
38A
330
1F
100
AcDbEntity
  8
D-6
  6
Continuous
 62
     7
370
     9
100
AcDbLine
 10
418.8622947075369
 20
267.4185928409862
 30
0.0
 11
418.8622947075369
 21
268.168733984785
 31
0.0
  0
LINE
  5
38B
330
1F
100
AcDbEntity
  8
D-6
  6
Continuous
 62
     7
370
     9
100
AcDbLine
 10
419.6121878960134
 20
267.4185928409862
 30
0.0
 11
419.6121878960134
 21
268.168733984785
 31
0.0
  0
LINE
  5
38C
330
1F
100
AcDbEntity
  8
D-6
  6
Continuous
 62
     7
370
     9
100
AcDbLine
 10
418.8622947075369
 20
268.168733984785
 30
0.0
 11
419.6121878960134
 21
268.168733984785
 31
0.0
  0
LINE
  5
38D
330
1F
100
AcDbEntity
  8
D-6
  6
Continuous
 62
     7
370
     9
100
AcDbLine
 10
375.9009939985503
 20
271.0611923324415
 30
0.0
 11
375.1511008100737
 21
271.0611923324415
 31
0.0
  0
LINE
  5
38E
330
1F
100
AcDbEntity
  8
D-6
  6
Continuous
 62
     7
370
     9
100
AcDbLine
 10
375.1511008100737
 20
271.0611923324415
 30
0.0
 11
375.1511008100737
 21
271.8113334762403
 31
0.0
  0
LINE
  5
38F
330
1F
100
AcDbEntity
  8
D-6
  6
Continuous
 62
     7
370
     9
100
AcDbLine
 10
375.9009939985503
 20
271.0611923324415
 30
0.0
 11
375.9009939985503
 21
271.8113334762403
 31
0.0
  0
LINE
  5
390
330
1F
100
AcDbEntity
  8
D-6
  6
Continuous
 62
     7
370
     9
100
AcDbLine
 10
375.1511008100737
 20
271.8113334762403
 30
0.0
 11
375.9009939985503
 21
271.8113334762403
 31
0.0
  0
LINE
  5
391
330
1F
100
AcDbEntity
  8
D-6
  6
Continuous
 62
     7
370
     9
100
AcDbLine
 10
384.8419200230314
 20
249.536740792024
 30
0.0
 11
384.0920268345548
 21
249.536740792024
 31
0.0
  0
LINE
  5
392
330
1F
100
AcDbEntity
  8
D-6
  6
Continuous
 62
     7
370
     9
100
AcDbLine
 10
384.0920268345548
 20
249.536740792024
 30
0.0
 11
384.0920268345548
 21
250.2868819358229
 31
0.0
  0
LINE
  5
393
330
1F
100
AcDbEntity
  8
D-6
  6
Continuous
 62
     7
370
     9
100
AcDbLine
 10
384.8419200230314
 20
249.536740792024
 30
0.0
 11
384.8419200230314
 21
250.2868819358229
 31
0.0
  0
LINE
  5
394
330
1F
100
AcDbEntity
  8
D-6
  6
Continuous
 62
     7
370
     9
100
AcDbLine
 10
384.0920268345548
 20
250.2868819358229
 30
0.0
 11
384.8419200230314
 21
250.2868819358229
 31
0.0
  0
LINE
  5
395
330
1F
100
AcDbEntity
  8
D-6
  6
Continuous
 62
     7
370
     9
100
AcDbLine
 10
393.7828460475125
 20
269.7366106991851
 30
0.0
 11
393.032952859036
 21
269.7366106991851
 31
0.0
  0
LINE
  5
396
330
1F
100
AcDbEntity
  8
D-6
  6
Continuous
 62
     7
370
     9
100
AcDbLine
 10
393.032952859036
 20
269.7366106991851
 30
0.0
 11
393.032952859036
 21
270.4867518429839
 31
0.0
  0
LINE
  5
397
330
1F
100
AcDbEntity
  8
D-6
  6
Continuous
 62
     7
370
     9
100
AcDbLine
 10
393.7828460475125
 20
269.7366106991851
 30
0.0
 11
393.7828460475125
 21
270.4867518429839
 31
0.0
  0
LINE
  5
398
330
1F
100
AcDbEntity
  8
D-6
  6
Continuous
 62
     7
370
     9
100
AcDbLine
 10
393.032952859036
 20
270.4867518429839
 30
0.0
 11
393.7828460475125
 21
270.4867518429839
 31
0.0
  0
LINE
  5
399
330
1F
100
AcDbEntity
  8
D-6
  6
Continuous
 62
     7
370
     9
100
AcDbLine
 10
439.4809123948604
 20
270.3989015158133
 30
0.0
 11
438.7310192063838
 21
270.3989015158133
 31
0.0
  0
LINE
  5
39A
330
1F
100
AcDbEntity
  8
D-6
  6
Continuous
 62
     7
370
     9
100
AcDbLine
 10
438.7310192063838
 20
270.3989015158133
 30
0.0
 11
438.7310192063838
 21
271.1490426596121
 31
0.0
  0
LINE
  5
39B
330
1F
100
AcDbEntity
  8
D-6
  6
Continuous
 62
     7
370
     9
100
AcDbLine
 10
439.4809123948604
 20
270.3989015158133
 30
0.0
 11
439.4809123948604
 21
271.1490426596121
 31
0.0
  0
LINE
  5
39C
330
1F
100
AcDbEntity
  8
D-6
  6
Continuous
 62
     7
370
     9
100
AcDbLine
 10
438.7310192063838
 20
271.1490426596121
 30
0.0
 11
439.4809123948604
 21
271.1490426596121
 31
0.0
  0
LINE
  5
39D
330
1F
100
AcDbEntity
  8
D-6
  6
Continuous
 62
     7
370
     9
100
AcDbLine
 10
405.0417899301925
 20
255.4973581416781
 30
0.0
 11
404.2918967417159
 21
255.4973581416781
 31
0.0
  0
LINE
  5
39E
330
1F
100
AcDbEntity
  8
D-6
  6
Continuous
 62
     7
370
     9
100
AcDbLine
 10
404.2918967417159
 20
255.4973581416781
 30
0.0
 11
404.2918967417159
 21
256.2474992854769
 31
0.0
  0
LINE
  5
39F
330
1F
100
AcDbEntity
  8
D-6
  6
Continuous
 62
     7
370
     9
100
AcDbLine
 10
405.0417899301925
 20
255.4973581416781
 30
0.0
 11
405.0417899301925
 21
256.2474992854769
 31
0.0
  0
LINE
  5
3A0
330
1F
100
AcDbEntity
  8
D-6
  6
Continuous
 62
     7
370
     9
100
AcDbLine
 10
404.2918967417159
 20
256.2474992854769
 30
0.0
 11
405.0417899301925
 21
256.2474992854769
 31
0.0
  0
LINE
  5
3A1
330
1F
100
AcDbEntity
  8
D-6
  6
Continuous
 62
     7
370
     9
100
AcDbLine
 10
446.7661113777709
 20
239.9335239509147
 30
0.0
 11
446.0162181892944
 21
239.9335239509147
 31
0.0
  0
LINE
  5
3A2
330
1F
100
AcDbEntity
  8
D-6
  6
Continuous
 62
     7
370
     9
100
AcDbLine
 10
446.0162181892944
 20
239.9335239509147
 30
0.0
 11
446.0162181892944
 21
240.6836650947135
 31
0.0
  0
LINE
  5
3A3
330
1F
100
AcDbEntity
  8
D-6
  6
Continuous
 62
     7
370
     9
100
AcDbLine
 10
446.7661113777709
 20
239.9335239509147
 30
0.0
 11
446.7661113777709
 21
240.6836650947135
 31
0.0
  0
LINE
  5
3A4
330
1F
100
AcDbEntity
  8
D-6
  6
Continuous
 62
     7
370
     9
100
AcDbLine
 10
446.0162181892944
 20
240.6836650947135
 30
0.0
 11
446.7661113777709
 21
240.6836650947135
 31
0.0
  0
LINE
  5
3A5
330
1F
100
AcDbEntity
  8
D-6
  6
Continuous
 62
     7
370
     9
100
AcDbLine
 10
345.1044710253376
 20
269.0743198825568
 30
0.0
 11
344.354577836861
 21
269.0743198825568
 31
0.0
  0
LINE
  5
3A6
330
1F
100
AcDbEntity
  8
D-6
  6
Continuous
 62
     7
370
     9
100
AcDbLine
 10
344.354577836861
 20
269.0743198825568
 30
0.0
 11
344.354577836861
 21
269.8244610263556
 31
0.0
  0
LINE
  5
3A7
330
1F
100
AcDbEntity
  8
D-6
  6
Continuous
 62
     7
370
     9
100
AcDbLine
 10
345.1044710253376
 20
269.0743198825568
 30
0.0
 11
345.1044710253376
 21
269.8244610263556
 31
0.0
  0
LINE
  5
3A8
330
1F
100
AcDbEntity
  8
D-6
  6
Continuous
 62
     7
370
     9
100
AcDbLine
 10
344.354577836861
 20
269.8244610263556
 30
0.0
 11
345.1044710253376
 21
269.8244610263556
 31
0.0
  0
LINE
  5
3A9
330
1F
100
AcDbEntity
  8
D-6
  6
Continuous
 62
     7
370
     9
100
AcDbLine
 10
344.4421802087094
 20
242.2515418091135
 30
0.0
 11
343.6922870202328
 21
242.2515418091135
 31
0.0
  0
LINE
  5
3AA
330
1F
100
AcDbEntity
  8
D-6
  6
Continuous
 62
     7
370
     9
100
AcDbLine
 10
343.6922870202328
 20
242.2515418091135
 30
0.0
 11
343.6922870202328
 21
243.0016829529123
 31
0.0
  0
LINE
  5
3AB
330
1F
100
AcDbEntity
  8
D-6
  6
Continuous
 62
     7
370
     9
100
AcDbLine
 10
344.4421802087094
 20
242.2515418091135
 30
0.0
 11
344.4421802087094
 21
243.0016829529123
 31
0.0
  0
LINE
  5
3AC
330
1F
100
AcDbEntity
  8
D-6
  6
Continuous
 62
     7
370
     9
100
AcDbLine
 10
343.6922870202328
 20
243.0016829529123
 30
0.0
 11
344.4421802087094
 21
243.0016829529123
 31
0.0
  0
LINE
  5
3AD
330
1F
100
AcDbEntity
  8
D-6
  6
Continuous
 62
     7
370
     9
100
AcDbLine
 10
318.2816929518942
 20
251.8547586502228
 30
0.0
 11
317.5317997634177
 21
251.8547586502228
 31
0.0
  0
LINE
  5
3AE
330
1F
100
AcDbEntity
  8
D-6
  6
Continuous
 62
     7
370
     9
100
AcDbLine
 10
317.5317997634177
 20
251.8547586502228
 30
0.0
 11
317.5317997634177
 21
252.6048997940217
 31
0.0
  0
LINE
  5
3AF
330
1F
100
AcDbEntity
  8
D-6
  6
Continuous
 62
     7
370
     9
100
AcDbLine
 10
318.2816929518942
 20
251.8547586502228
 30
0.0
 11
318.2816929518942
 21
252.6048997940217
 31
0.0
  0
LINE
  5
3B0
330
1F
100
AcDbEntity
  8
D-6
  6
Continuous
 62
     7
370
     9
100
AcDbLine
 10
317.5317997634177
 20
252.6048997940217
 30
0.0
 11
318.2816929518942
 21
252.6048997940217
 31
0.0
  0
LINE
  5
3B1
330
1F
100
AcDbEntity
  8
D-6
  6
Continuous
 62
     7
370
     9
100
AcDbLine
 10
321.2620016267214
 20
270.0677561074992
 30
0.0
 11
320.5121084382448
 21
270.0677561074992
 31
0.0
  0
LINE
  5
3B2
330
1F
100
AcDbEntity
  8
D-6
  6
Continuous
 62
     7
370
     9
100
AcDbLine
 10
320.5121084382448
 20
270.0677561074992
 30
0.0
 11
320.5121084382448
 21
270.817897251298
 31
0.0
  0
LINE
  5
3B3
330
1F
100
AcDbEntity
  8
D-6
  6
Continuous
 62
     7
370
     9
100
AcDbLine
 10
321.2620016267214
 20
270.0677561074992
 30
0.0
 11
321.2620016267214
 21
270.817897251298
 31
0.0
  0
LINE
  5
3B4
330
1F
100
AcDbEntity
  8
D-6
  6
Continuous
 62
     7
370
     9
100
AcDbLine
 10
320.5121084382448
 20
270.817897251298
 30
0.0
 11
321.2620016267214
 21
270.817897251298
 31
0.0
  0
LINE
  5
3B5
330
1F
100
AcDbEntity
  8
D-6
  6
Continuous
 62
     7
370
     9
100
AcDbLine
 10
296.0949505948486
 20
272.0546285573839
 30
0.0
 11
295.345057406372
 21
272.0546285573839
 31
0.0
  0
LINE
  5
3B6
330
1F
100
AcDbEntity
  8
D-6
  6
Continuous
 62
     7
370
     9
100
AcDbLine
 10
295.345057406372
 20
272.0546285573839
 30
0.0
 11
295.345057406372
 21
272.8047697011827
 31
0.0
  0
LINE
  5
3B7
330
1F
100
AcDbEntity
  8
D-6
  6
Continuous
 62
     7
370
     9
100
AcDbLine
 10
296.0949505948486
 20
272.0546285573839
 30
0.0
 11
296.0949505948486
 21
272.8047697011827
 31
0.0
  0
LINE
  5
3B8
330
1F
100
AcDbEntity
  8
D-6
  6
Continuous
 62
     7
370
     9
100
AcDbLine
 10
295.345057406372
 20
272.8047697011827
 30
0.0
 11
296.0949505948486
 21
272.8047697011827
 31
0.0
  0
LINE
  5
3B9
330
1F
100
AcDbEntity
  8
D-6
  6
Continuous
 62
     7
370
     9
100
AcDbLine
 10
273.9082082378029
 20
271.7234831490698
 30
0.0
 11
273.1583150493263
 21
271.7234831490698
 31
0.0
  0
LINE
  5
3BA
330
1F
100
AcDbEntity
  8
D-6
  6
Continuous
 62
     7
370
     9
100
AcDbLine
 10
273.1583150493263
 20
271.7234831490698
 30
0.0
 11
273.1583150493263
 21
272.4736242928686
 31
0.0
  0
LINE
  5
3BB
330
1F
100
AcDbEntity
  8
D-6
  6
Continuous
 62
     7
370
     9
100
AcDbLine
 10
273.9082082378029
 20
271.7234831490698
 30
0.0
 11
273.9082082378029
 21
272.4736242928686
 31
0.0
  0
LINE
  5
3BC
330
1F
100
AcDbEntity
  8
D-6
  6
Continuous
 62
     7
370
     9
100
AcDbLine
 10
273.1583150493263
 20
272.4736242928686
 30
0.0
 11
273.9082082378029
 21
272.4736242928686
 31
0.0
  0
LINE
  5
3BD
330
1F
100
AcDbEntity
  8
D-6
  6
Continuous
 62
     7
370
     9
100
AcDbLine
 10
264.3049913966935
 20
253.5104856917934
 30
0.0
 11
263.5550982082169
 21
253.5104856917934
 31
0.0
  0
LINE
  5
3BE
330
1F
100
AcDbEntity
  8
D-6
  6
Continuous
 62
     7
370
     9
100
AcDbLine
 10
263.5550982082169
 20
253.5104856917934
 30
0.0
 11
263.5550982082169
 21
254.2606268355922
 31
0.0
  0
LINE
  5
3BF
330
1F
100
AcDbEntity
  8
D-6
  6
Continuous
 62
     7
370
     9
100
AcDbLine
 10
264.3049913966935
 20
253.5104856917934
 30
0.0
 11
264.3049913966935
 21
254.2606268355922
 31
0.0
  0
LINE
  5
3C0
330
1F
100
AcDbEntity
  8
D-6
  6
Continuous
 62
     7
370
     9
100
AcDbLine
 10
263.5550982082169
 20
254.2606268355922
 30
0.0
 11
264.3049913966935
 21
254.2606268355922
 31
0.0
  0
LINE
  5
3C1
330
1F
100
AcDbEntity
  8
D-6
  6
Continuous
 62
     7
370
     9
100
AcDbLine
 10
275.5639352793735
 20
241.2581055841711
 30
0.0
 11
274.8140420908969
 21
241.2581055841711
 31
0.0
  0
LINE
  5
3C2
330
1F
100
AcDbEntity
  8
D-6
  6
Continuous
 62
     7
370
     9
100
AcDbLine
 10
274.8140420908969
 20
241.2581055841711
 30
0.0
 11
274.8140420908969
 21
242.00824672797
 31
0.0
  0
LINE
  5
3C3
330
1F
100
AcDbEntity
  8
D-6
  6
Continuous
 62
     7
370
     9
100
AcDbLine
 10
275.5639352793735
 20
241.2581055841711
 30
0.0
 11
275.5639352793735
 21
242.00824672797
 31
0.0
  0
LINE
  5
3C4
330
1F
100
AcDbEntity
  8
D-6
  6
Continuous
 62
     7
370
     9
100
AcDbLine
 10
274.8140420908969
 20
242.00824672797
 30
0.0
 11
275.5639352793735
 21
242.00824672797
 31
0.0
  0
LINE
  5
3C5
330
1F
100
AcDbEntity
  8
D-6
  6
Continuous
 62
     7
370
     9
100
AcDbLine
 10
304.7047312110155
 20
237.6155060927159
 30
0.0
 11
303.954838022539
 21
237.6155060927159
 31
0.0
  0
LINE
  5
3C6
330
1F
100
AcDbEntity
  8
D-6
  6
Continuous
 62
     7
370
     9
100
AcDbLine
 10
303.954838022539
 20
237.6155060927159
 30
0.0
 11
303.954838022539
 21
238.3656472365147
 31
0.0
  0
LINE
  5
3C7
330
1F
100
AcDbEntity
  8
D-6
  6
Continuous
 62
     7
370
     9
100
AcDbLine
 10
304.7047312110155
 20
237.6155060927159
 30
0.0
 11
304.7047312110155
 21
238.3656472365147
 31
0.0
  0
LINE
  5
3C8
330
1F
100
AcDbEntity
  8
D-6
  6
Continuous
 62
     7
370
     9
100
AcDbLine
 10
303.954838022539
 20
238.3656472365147
 30
0.0
 11
304.7047312110155
 21
238.3656472365147
 31
0.0
  0
LINE
  5
3C9
330
1F
100
AcDbEntity
  8
D-6
  6
Continuous
 62
     7
370
     9
100
AcDbLine
 10
289.1408970202522
 20
255.166212733364
 30
0.0
 11
288.3910038317756
 21
255.166212733364
 31
0.0
  0
LINE
  5
3CA
330
1F
100
AcDbEntity
  8
D-6
  6
Continuous
 62
     7
370
     9
100
AcDbLine
 10
288.3910038317756
 20
255.166212733364
 30
0.0
 11
288.3910038317756
 21
255.9163538771628
 31
0.0
  0
LINE
  5
3CB
330
1F
100
AcDbEntity
  8
D-6
  6
Continuous
 62
     7
370
     9
100
AcDbLine
 10
289.1408970202522
 20
255.166212733364
 30
0.0
 11
289.1408970202522
 21
255.9163538771628
 31
0.0
  0
LINE
  5
3CC
330
1F
100
AcDbEntity
  8
D-6
  6
Continuous
 62
     7
370
     9
100
AcDbLine
 10
288.3910038317756
 20
255.9163538771628
 30
0.0
 11
289.1408970202522
 21
255.9163538771628
 31
0.0
  0
LINE
  5
3CD
330
1F
100
AcDbEntity
  8
D-6
  6
Continuous
 62
     7
370
     9
100
AcDbLine
 10
327.2226189763754
 20
241.9203964007994
 30
0.0
 11
326.4727257878988
 21
241.9203964007994
 31
0.0
  0
LINE
  5
3CE
330
1F
100
AcDbEntity
  8
D-6
  6
Continuous
 62
     7
370
     9
100
AcDbLine
 10
326.4727257878988
 20
241.9203964007994
 30
0.0
 11
326.4727257878988
 21
242.6705375445982
 31
0.0
  0
LINE
  5
3CF
330
1F
100
AcDbEntity
  8
D-6
  6
Continuous
 62
     7
370
     9
100
AcDbLine
 10
327.2226189763754
 20
241.9203964007994
 30
0.0
 11
327.2226189763754
 21
242.6705375445982
 31
0.0
  0
LINE
  5
3D0
330
1F
100
AcDbEntity
  8
D-6
  6
Continuous
 62
     7
370
     9
100
AcDbLine
 10
326.4727257878988
 20
242.6705375445982
 30
0.0
 11
327.2226189763754
 21
242.6705375445982
 31
0.0
  0
LINE
  5
3D1
330
1F
100
AcDbEntity
  8
D-6
  6
Continuous
 62
     7
370
     9
100
AcDbLine
 10
523.8156758733764
 20
244.1096354890983
 30
0.0
 11
523.0657826848999
 21
244.1096354890983
 31
0.0
  0
LINE
  5
3D2
330
1F
100
AcDbEntity
  8
D-6
  6
Continuous
 62
     7
370
     9
100
AcDbLine
 10
523.0657826848999
 20
244.1096354890983
 30
0.0
 11
523.0657826848999
 21
244.8597766328972
 31
0.0
  0
LINE
  5
3D3
330
1F
100
AcDbEntity
  8
D-6
  6
Continuous
 62
     7
370
     9
100
AcDbLine
 10
523.8156758733764
 20
244.1096354890983
 30
0.0
 11
523.8156758733764
 21
244.8597766328972
 31
0.0
  0
LINE
  5
3D4
330
1F
100
AcDbEntity
  8
D-6
  6
Continuous
 62
     7
370
     9
100
AcDbLine
 10
523.0657826848999
 20
244.8597766328972
 30
0.0
 11
523.8156758733764
 21
244.8597766328972
 31
0.0
  0
LINE
  5
3D5
330
1F
100
AcDbEntity
  8
D-6
  6
Continuous
 62
     7
370
     9
100
AcDbLine
 10
553.3979990161041
 20
239.252836167158
 30
0.0
 11
552.6481058276275
 21
239.252836167158
 31
0.0
  0
LINE
  5
3D6
330
1F
100
AcDbEntity
  8
D-6
  6
Continuous
 62
     7
370
     9
100
AcDbLine
 10
552.6481058276275
 20
239.252836167158
 30
0.0
 11
552.6481058276275
 21
240.0029773109568
 31
0.0
  0
LINE
  5
3D7
330
1F
100
AcDbEntity
  8
D-6
  6
Continuous
 62
     7
370
     9
100
AcDbLine
 10
553.3979990161041
 20
239.252836167158
 30
0.0
 11
553.3979990161041
 21
240.0029773109568
 31
0.0
  0
LINE
  5
3D8
330
1F
100
AcDbEntity
  8
D-6
  6
Continuous
 62
     7
370
     9
100
AcDbLine
 10
552.6481058276275
 20
240.0029773109568
 30
0.0
 11
553.3979990161041
 21
240.0029773109568
 31
0.0
  0
TEXT
  5
3D9
330
1F
100
AcDbEntity
  8
F-5ﾚｲﾔ
  6
Continuous
 62
     3
370
     9
100
AcDbText
 10
479.1009180415114
 20
-508.3499137642165
 30
0.0
 40
19.05
  1
※適用荷重：歩行用（3,500N/m2）
 41
1.096774193548387
  7
ＭＳ ゴシック
100
AcDbText
  0
TEXT
  5
3DA
330
1F
100
AcDbEntity
  8
F-5ﾚｲﾔ
  6
Continuous
 62
     3
370
     9
100
AcDbText
 10
479.1009180415114
 20
-545.2312336152012
 30
0.0
 40
19.05
  1
※仕上げ材充填時蓋質量：約8kg
 41
1.096551724137931
  7
ＭＳ ゴシック
100
AcDbText
  0
TEXT
  5
3DB
330
1F
100
AcDbEntity
  8
D-4
  6
Continuous
 62
     2
370
   211
100
AcDbText
 10
-421.8413714009508
 20
-287.1316198273777
 30
0.0
 40
15.24
  1
29
 50
90.0
 41
1.0625
  7
ＭＳ ゴシック
100
AcDbText
  0
ARC
  5
3DC
330
1F
100
AcDbEntity
  8
D-5
  6
Continuous
 62
     7
370
     9
100
AcDbCircle
 10
-534.4413152946078
 20
-299.7748593209477
 30
0.0
 40
75.27291033046588
100
AcDbArc
 50
286.177364524971
 51
339.498438833033
  0
LINE
  5
3DD
330
1F
100
AcDbEntity
  8
D-5
  6
Continuous
 62
     7
370
     9
100
AcDbLine
 10
-463.9359918854007
 20
-326.1379092314086
 30
0.0
 11
-466.149286472193
 21
-343.5881022054264
 31
0.0
  0
LINE
  5
3DE
330
1F
100
AcDbEntity
  8
D-5
  6
Continuous
 62
     7
370
     9
100
AcDbLine
 10
-463.9359918854007
 20
-326.1379092314087
 30
0.0
 11
-475.0514803911506
 21
-339.045581965776
 31
0.0
  0
LINE
  5
3DF
330
1F
100
AcDbEntity
  8
D-5
  6
Continuous
 62
     7
370
     9
100
AcDbLine
 10
-282.1983275877085
 20
-414.9234897134197
 30
0.0
 11
-241.3597148153352
 21
-414.9234897134197
 31
0.0
  0
LINE
  5
3E0
330
1F
100
AcDbEntity
  8
D-4
  6
Continuous
 62
     7
370
     9
100
AcDbLine
 10
-416.5213714009508
 20
-240.3964473782881
 30
0.0
 11
-416.5213714009508
 21
-312.6167922764675
 31
0.0
  0
LWPOLYLINE
  5
3E1
330
1F
100
AcDbEntity
  8
D-4
  6
Continuous
 62
     7
370
     9
100
AcDbPolyline
 90
        4
 70
     1
 43
1.0
 10
-416.0213714009508
 20
-240.3964473782881
 42
0.4142135623731
 10
-416.5213714009508
 20
-239.8964473782881
 42
0.4142135623731
 10
-417.0213714009508
 20
-240.3964473782881
 42
0.4142135623731
 10
-416.5213714009508
 20
-240.8964473782881
 42
0.4142135623731
  0
LWPOLYLINE
  5
3E2
330
1F
100
AcDbEntity
  8
D-4
  6
Continuous
 62
     7
370
     9
100
AcDbPolyline
 90
        4
 70
     1
 43
1.0
 10
-416.0213714009508
 20
-312.6167922764675
 42
0.4142135623731
 10
-416.5213714009508
 20
-312.1167922764675
 42
0.4142135623731
 10
-417.0213714009508
 20
-312.6167922764675
 42
0.4142135623731
 10
-416.5213714009508
 20
-313.1167922764675
 42
0.4142135623731
  0
LINE
  5
3E3
330
1F
100
AcDbEntity
  8
D-4
  6
Continuous
 62
     7
370
     9
100
AcDbLine
 10
-415.5213714009506
 20
-240.3964473782881
 30
0.0
 11
-509.2714621288854
 21
-240.3964473782881
 31
0.0
  0
LINE
  5
3E4
330
1F
100
AcDbEntity
  8
D-4
  6
Continuous
 62
     7
370
     9
100
AcDbLine
 10
-415.5213714009506
 20
-312.6167922764675
 30
0.0
 11
-444.0213714009508
 21
-312.6167922764675
 31
0.0
  0
LINE
  5
3E5
330
1F
100
AcDbEntity
  8
D-5
  6
Continuous
 62
     7
370
     9
100
AcDbLine
 10
-511.4043462079638
 20
-308.6167922764673
 30
0.0
 11
-506.180810513498
 21
-297.2605307944197
 31
0.0
  0
LINE
  5
3E6
330
1F
100
AcDbEntity
  8
D-5
  6
Continuous
 62
     7
370
     9
100
AcDbLine
 10
-511.4043462079638
 20
-308.6167922764673
 30
0.0
 11
-503.4195814234187
 21
-298.9994365413663
 31
0.0
  0
TEXT
  5
3E7
330
1F
100
AcDbEntity
  8
D-5
  6
Continuous
 62
     7
370
     9
100
AcDbText
 10
-436.6626810681842
 20
-190.5084127612007
 30
0.0
 40
11.43
  1
アンカー（ＳＧＨＣ）
 41
1.150000000000004
  7
ＭＳ ゴシック
100
AcDbText
  0
LINE
  5
3E8
330
1F
100
AcDbEntity
  8
D-5
  6
Continuous
 62
     7
370
     9
100
AcDbLine
 10
-511.4043462079638
 20
-308.6167922764673
 30
0.0
 11
-440.0225510649955
 21
-195.2687919049929
 31
0.0
  0
LINE
  5
3E9
330
1F
100
AcDbEntity
  8
D-5
  6
Continuous
 62
     7
370
     9
100
AcDbLine
 10
-440.0225510649955
 20
-195.2687919049929
 30
0.0
 11
-269.1793007762709
 21
-195.2687919049929
 31
0.0
  0
LINE
  5
3EA
330
1F
100
AcDbEntity
  8
D-5
  6
Continuous
 62
     7
370
     9
100
AcDbLine
 10
-314.3610745441384
 20
-368.0187070896443
 30
0.0
 11
-282.1983275877085
 21
-414.9234897134197
 31
0.0
  0
LINE
  5
3EB
330
1F
100
AcDbEntity
  8
D-5
  6
Continuous
 62
     7
370
     9
100
AcDbLine
 10
-314.3610745441384
 20
-368.0187070896443
 30
0.0
 11
-309.7492589342195
 21
-377.0939548738527
 31
0.0
  0
LINE
  5
3EC
330
1F
100
AcDbEntity
  8
D-5
  6
Continuous
 62
     7
370
     9
100
AcDbLine
 10
-314.3610745441384
 20
-368.0187070896443
 30
0.0
 11
-307.6370006803003
 21
-375.5026745468671
 31
0.0
  0
TEXT
  5
3ED
330
1F
100
AcDbEntity
  8
D-5
  6
Continuous
 62
     7
370
     9
100
AcDbText
 10
-278.0290212015217
 20
-408.8582554046998
 30
0.0
 40
11.43
  1
φ13
 41
1.12499999999999
  7
ＭＳ ゴシック
100
AcDbText
  0
LINE
  5
3EE
330
1F
100
AcDbEntity
  8
D-1
  6
Continuous
 62
     2
370
     9
100
AcDbLine
 10
-533.0213714009506
 20
-242.8964927582211
 30
0.0
 11
-520.5213107192799
 21
-242.8964927582211
 31
0.0
  0
LINE
  5
3EF
330
1F
100
AcDbEntity
  8
D-1
  6
Continuous
 62
     2
370
     9
100
AcDbLine
 10
-520.5213107192799
 20
-242.8964927582211
 30
0.0
 11
-520.5213107192799
 21
-252.8965281804101
 31
0.0
  0
LINE
  5
3F0
330
1F
100
AcDbEntity
  8
D-1
  6
Continuous
 62
     2
370
     9
100
AcDbLine
 10
-520.5213107192799
 20
-252.8965281804101
 30
0.0
 11
-518.0210886125815
 21
-252.8965281804101
 31
0.0
  0
LINE
  5
3F1
330
1F
100
AcDbEntity
  8
D-1
  6
Continuous
 62
     2
370
     9
100
AcDbLine
 10
-518.0210886125815
 20
-241.6464473206108
 30
0.0
 11
-518.0210886125815
 21
-252.8965281804101
 31
0.0
  0
LINE
  5
3F2
330
1F
100
AcDbEntity
  8
D-1
  6
Continuous
 62
     2
370
     9
100
AcDbLine
 10
-534.2712199913444
 20
-240.3964674987392
 30
0.0
 11
-519.2714621288854
 21
-240.3964674987392
 31
0.0
  0
ARC
  5
3F3
330
1F
100
AcDbEntity
  8
D-1
  6
Continuous
 62
     2
370
     9
100
AcDbCircle
 10
-519.2714621288854
 20
-241.6464473206108
 30
0.0
 40
1.249999942322725
100
AcDbArc
 50
0.0
 51
90.0
  0
ARC
  5
3F4
330
1F
100
AcDbEntity
  8
D-1
  6
Continuous
 62
     2
370
     9
100
AcDbCircle
 10
-534.2712199913444
 20
-241.6464473206108
 30
0.0
 40
1.249999942322725
100
AcDbArc
 50
90.0
 51
180.0
  0
LINE
  5
3F5
330
1F
100
AcDbEntity
  8
D-1
  6
Continuous
 62
     2
370
     9
100
AcDbLine
 10
-533.0212200490217
 20
-380.3964927582211
 30
0.0
 11
-529.0213714009508
 21
-380.3964927582211
 31
0.0
  0
LINE
  5
3F6
330
1F
100
AcDbEntity
  8
D-1
  6
Continuous
 62
     2
370
     9
100
AcDbLine
 10
-529.0213714009508
 20
-380.3964927582211
 30
0.0
 11
-529.0213714009508
 21
-242.8964927582211
 31
0.0
  0
LINE
  5
3F7
330
1F
100
AcDbEntity
  8
D-1
  6
Continuous
 62
     2
370
     9
100
AcDbLine
 10
-533.0213714009506
 20
-310.8667922764675
 30
0.0
 11
-529.0213714009508
 21
-310.8667922764675
 31
0.0
  0
LINE
  5
3F8
330
1F
100
AcDbEntity
  8
D-1
  6
Continuous
 62
     2
370
     9
100
AcDbLine
 10
-533.0213714009506
 20
-298.3667922764674
 30
0.0
 11
-529.0213714009508
 21
-298.3667922764674
 31
0.0
  0
ARC
  5
3F9
330
1F
100
AcDbEntity
  8
D-1
  6
JWW_PHANTOM1
 62
     2
370
     9
100
AcDbCircle
 10
-525.0213714009504
 20
-304.6167922764675
 30
0.0
 40
8.0
100
AcDbArc
 50
180.0
 51
270.0
  0
ARC
  5
3FA
330
1F
100
AcDbEntity
  8
D-1
  6
JWW_PHANTOM1
 62
     2
370
     9
100
AcDbCircle
 10
-525.0213714009504
 20
-304.6167922764675
 30
0.0
 40
4.0
100
AcDbArc
 50
180.0
 51
270.0
  0
LINE
  5
3FB
330
1F
100
AcDbEntity
  8
D-1
  6
JWW_PHANTOM1
 62
     2
370
     9
100
AcDbLine
 10
-525.0213714009504
 20
-312.6167922764675
 30
0.0
 11
-454.0213714009508
 21
-312.6167922764675
 31
0.0
  0
LINE
  5
3FC
330
1F
100
AcDbEntity
  8
D-1
  6
JWW_PHANTOM1
 62
     2
370
     9
100
AcDbLine
 10
-525.0213714009504
 20
-308.6167922764674
 30
0.0
 11
-454.0213714009508
 21
-308.6167922764674
 31
0.0
  0
LINE
  5
3FD
330
1F
100
AcDbEntity
  8
D-1
  6
JWW_PHANTOM1
 62
     2
370
     9
100
AcDbLine
 10
-454.0213714009508
 20
-312.6167922764675
 30
0.0
 11
-454.0213714009508
 21
-308.6167922764674
 31
0.0
  0
LINE
  5
3FE
330
1F
100
AcDbEntity
  8
D-1
  6
Continuous
 62
     2
370
     9
100
AcDbLine
 10
-382.6680477870593
 20
-240.3964674987392
 30
0.0
 11
-264.4335658571123
 21
-240.3964674987392
 31
0.0
  0
LINE
  5
3FF
330
1F
100
AcDbEntity
  8
D-1
  6
Continuous
 62
     2
370
     9
100
AcDbLine
 10
-382.6680477870593
 20
-252.8965281804101
 30
0.0
 11
-264.4335658571123
 21
-252.8965281804101
 31
0.0
  0
LINE
  5
400
330
1F
100
AcDbEntity
  8
D-1
  6
JWW_CENTER1
 62
     2
370
     9
100
AcDbLine
 10
-323.5508068220861
 20
-236.9230112872114
 30
0.0
 11
-323.5508068220861
 21
-384.7062870802506
 31
0.0
  0
LINE
  5
401
330
1F
100
AcDbEntity
  8
D-1
  6
Continuous
 62
     2
370
     9
100
AcDbLine
 10
-348.5508068220861
 20
-315.8667922764675
 30
0.0
 11
-348.5508068220861
 21
-375.2417922764675
 31
0.0
  0
LINE
  5
402
330
1F
100
AcDbEntity
  8
D-1
  6
Continuous
 62
     2
370
     9
100
AcDbLine
 10
-298.5508068220855
 20
-315.8667922764675
 30
0.0
 11
-298.5508068220855
 21
-375.2417922764675
 31
0.0
  0
CIRCLE
  5
403
330
1F
100
AcDbEntity
  8
D-1
  6
Continuous
 62
     2
370
     9
100
AcDbCircle
 10
-336.0508480620564
 20
-285.3965339981919
 30
0.0
 40
2.500000032218727
  0
CIRCLE
  5
404
330
1F
100
AcDbEntity
  8
D-1
  6
Continuous
 62
     2
370
     9
100
AcDbCircle
 10
-336.0508480620564
 20
-285.3965339981919
 30
0.0
 40
3.125000161093634
  0
CIRCLE
  5
405
330
1F
100
AcDbEntity
  8
D-1
  6
Continuous
 62
     2
370
     9
100
AcDbCircle
 10
-323.5508068220861
 20
-272.8964927582213
 30
0.0
 40
2.500000032218727
  0
CIRCLE
  5
406
330
1F
100
AcDbEntity
  8
D-1
  6
Continuous
 62
     2
370
     9
100
AcDbCircle
 10
-323.5508068220861
 20
-272.8964927582213
 30
0.0
 40
3.125000161093634
  0
CIRCLE
  5
407
330
1F
100
AcDbEntity
  8
D-1
  6
Continuous
 62
     2
370
     9
100
AcDbCircle
 10
-311.050827442071
 20
-285.3965339981919
 30
0.0
 40
2.500000032218727
  0
CIRCLE
  5
408
330
1F
100
AcDbEntity
  8
D-1
  6
Continuous
 62
     2
370
     9
100
AcDbCircle
 10
-311.050827442071
 20
-285.3965339981919
 30
0.0
 40
3.125000161093634
  0
LINE
  5
409
330
1F
100
AcDbEntity
  8
D-1
  6
Continuous
 62
     2
370
     9
100
AcDbLine
 10
-336.0508068220855
 20
-304.6167922764675
 30
0.0
 11
-311.0508068220858
 21
-304.6167922764675
 31
0.0
  0
ARC
  5
40A
330
1F
100
AcDbEntity
  8
D-1
  6
Continuous
 62
     2
370
     9
100
AcDbCircle
 10
-343.5508068220861
 20
-375.2417922764675
 30
0.0
 40
5.0
100
AcDbArc
 50
180.0
 51
241.04497562814
  0
LINE
  5
40B
330
1F
100
AcDbEntity
  8
D-1
  6
Continuous
 62
     2
370
     9
100
AcDbLine
 10
-345.9714214134658
 20
-379.6167922764675
 30
0.0
 11
-301.1301922307064
 21
-379.6167922764675
 31
0.0
  0
ARC
  5
40C
330
1F
100
AcDbEntity
  8
D-1
  6
Continuous
 62
     2
370
     9
100
AcDbCircle
 10
-303.5508068220858
 20
-375.2417922764675
 30
0.0
 40
5.0
100
AcDbArc
 50
298.95502437186
 51
0.0
  0
LINE
  5
40D
330
1F
100
AcDbEntity
  8
D-1
  6
Continuous
 62
     2
370
     9
100
AcDbLine
 10
-348.5508068220861
 20
-293.3667922764675
 30
0.0
 11
-348.5508068220861
 21
-252.8965281804101
 31
0.0
  0
ARC
  5
40E
330
1F
100
AcDbEntity
  8
D-1
  6
Continuous
 62
     2
370
     9
100
AcDbCircle
 10
-343.5508068220861
 20
-293.3667922764675
 30
0.0
 40
5.0
100
AcDbArc
 50
180.0
 51
270.0
  0
ARC
  5
40F
330
1F
100
AcDbEntity
  8
D-1
  6
Continuous
 62
     2
370
     9
100
AcDbCircle
 10
-343.5508068220861
 20
-315.8667922764675
 30
0.0
 40
5.0
100
AcDbArc
 50
90.0
 51
180.0
  0
LINE
  5
410
330
1F
100
AcDbEntity
  8
D-1
  6
Continuous
 62
     2
370
     9
100
AcDbLine
 10
-298.5508068220855
 20
-293.3667922764675
 30
0.0
 11
-298.5508068220855
 21
-252.8965281804101
 31
0.0
  0
ARC
  5
411
330
1F
100
AcDbEntity
  8
D-1
  6
Continuous
 62
     2
370
     9
100
AcDbCircle
 10
-303.5508068220855
 20
-293.3667922764675
 30
0.0
 40
5.0
100
AcDbArc
 50
270.0
 51
0.0
  0
ARC
  5
412
330
1F
100
AcDbEntity
  8
D-1
  6
Continuous
 62
     2
370
     9
100
AcDbCircle
 10
-303.5508068220855
 20
-315.8667922764675
 30
0.0
 40
5.0
100
AcDbArc
 50
0.0
 51
90.0
  0
LINE
  5
413
330
1F
100
AcDbEntity
  8
D-1
  6
Continuous
 62
     2
370
     9
100
AcDbLine
 10
-338.5508068220855
 20
-298.3667922764675
 30
0.0
 11
-343.5508068220861
 21
-298.3667922764675
 31
0.0
  0
ARC
  5
414
330
1F
100
AcDbEntity
  8
D-1
  6
Continuous
 62
     2
370
     9
100
AcDbCircle
 10
-338.5508068220855
 20
-300.8667922764675
 30
0.0
 40
2.5
100
AcDbArc
 50
0.0
 51
90.00000000000001
  0
LINE
  5
415
330
1F
100
AcDbEntity
  8
D-1
  6
Continuous
 62
     2
370
     9
100
AcDbLine
 10
-336.0508068220855
 20
-308.3667922764675
 30
0.0
 11
-336.0508068220855
 21
-300.8667922764675
 31
0.0
  0
LINE
  5
416
330
1F
100
AcDbEntity
  8
D-1
  6
Continuous
 62
     2
370
     9
100
AcDbLine
 10
-338.5508068220855
 20
-310.8667922764675
 30
0.0
 11
-343.5508068220861
 21
-310.8667922764675
 31
0.0
  0
ARC
  5
417
330
1F
100
AcDbEntity
  8
D-1
  6
Continuous
 62
     2
370
     9
100
AcDbCircle
 10
-338.5508068220855
 20
-308.3667922764675
 30
0.0
 40
2.5
100
AcDbArc
 50
270.0
 51
0.0
  0
LINE
  5
418
330
1F
100
AcDbEntity
  8
D-1
  6
Continuous
 62
     2
370
     9
100
AcDbLine
 10
-308.5508068220858
 20
-310.8667922764675
 30
0.0
 11
-303.5508068220855
 21
-310.8667922764675
 31
0.0
  0
ARC
  5
419
330
1F
100
AcDbEntity
  8
D-1
  6
Continuous
 62
     2
370
     9
100
AcDbCircle
 10
-308.5508068220858
 20
-308.3667922764675
 30
0.0
 40
2.5
100
AcDbArc
 50
180.0
 51
270.0
  0
LINE
  5
41A
330
1F
100
AcDbEntity
  8
D-1
  6
Continuous
 62
     2
370
     9
100
AcDbLine
 10
-311.0508068220858
 20
-300.8667922764675
 30
0.0
 11
-311.0508068220858
 21
-308.3667922764675
 31
0.0
  0
LINE
  5
41B
330
1F
100
AcDbEntity
  8
D-1
  6
Continuous
 62
     2
370
     9
100
AcDbLine
 10
-308.5508068220858
 20
-298.3667922764675
 30
0.0
 11
-303.5508068220855
 21
-298.3667922764675
 31
0.0
  0
ARC
  5
41C
330
1F
100
AcDbEntity
  8
D-1
  6
Continuous
 62
     2
370
     9
100
AcDbCircle
 10
-308.5508068220858
 20
-300.8667922764675
 30
0.0
 40
2.5
100
AcDbArc
 50
90.0
 51
180.0
  0
CIRCLE
  5
41D
330
1F
100
AcDbEntity
  8
D-1
  6
Continuous
 62
     2
370
     9
100
AcDbCircle
 10
-323.5508068220861
 20
-354.6167922764675
 30
0.0
 40
16.25
  0
LINE
  5
41E
330
1F
100
AcDbEntity
  8
D-1
  6
JWW_CENTER1
 62
     2
370
     9
100
AcDbLine
 10
-344.7252175064125
 20
-354.6167922764675
 30
0.0
 11
-302.3549255706939
 21
-354.6167922764675
 31
0.0
  0
LINE
  5
41F
330
1F
100
AcDbEntity
  8
D-1
  6
Continuous
 62
     2
370
     9
100
AcDbLine
 10
-568.0213313392647
 20
-315.3964776614464
 30
0.0
 11
-565.5211092325669
 21
-315.3964776614464
 31
0.0
  0
LINE
  5
420
330
1F
100
AcDbEntity
  8
D-1
  6
Continuous
 62
     2
370
     9
100
AcDbLine
 10
-565.5211092325669
 20
-325.3964474678966
 30
0.0
 11
-535.5210685817389
 21
-325.3964474678966
 31
0.0
  0
LINE
  5
421
330
1F
100
AcDbEntity
  8
D-1
  6
Continuous
 62
     2
370
     9
100
AcDbLine
 10
-535.5210685817389
 20
-241.6464473206108
 30
0.0
 11
-535.5210685817389
 21
-325.3964474678966
 31
0.0
  0
LINE
  5
422
330
1F
100
AcDbEntity
  8
D-1
  6
Continuous
 62
     2
370
     9
100
AcDbLine
 10
-533.0213714009506
 20
-326.6465585212455
 30
0.0
 11
-533.0213714009506
 21
-242.8964927582211
 31
0.0
  0
LINE
  5
423
330
1F
100
AcDbEntity
  8
D-1
  6
Continuous
 62
     2
370
     9
100
AcDbLine
 10
-568.0213313392647
 20
-326.6465585212455
 30
0.0
 11
-568.0213313392647
 21
-315.3964776614464
 31
0.0
  0
ARC
  5
424
330
1F
100
AcDbEntity
  8
D-1
  6
Continuous
 62
     2
370
     9
100
AcDbCircle
 10
-534.2712199913444
 20
-326.6465585212455
 30
0.0
 40
1.249999942322725
100
AcDbArc
 50
270.0
 51
0.0
  0
ARC
  5
425
330
1F
100
AcDbEntity
  8
D-1
  6
Continuous
 62
     2
370
     9
100
AcDbCircle
 10
-566.7714827488703
 20
-326.6465585212455
 30
0.0
 40
1.249999942322725
100
AcDbArc
 50
180.0
 51
270.0
  0
LINE
  5
426
330
1F
100
AcDbEntity
  8
D-1
  6
Continuous
 62
     2
370
     9
100
AcDbLine
 10
-533.0212200490217
 20
-326.6465585212455
 30
0.0
 11
-533.0212200490217
 21
-380.3964927582211
 31
0.0
  0
LINE
  5
427
330
1F
100
AcDbEntity
  8
D-1
  6
Continuous
 62
     2
370
     9
100
AcDbLine
 10
-566.7909341471898
 20
-327.8964071116397
 30
0.0
 11
-534.2712199913444
 21
-327.8964071116397
 31
0.0
  0
ARC
  5
428
330
1F
100
AcDbEntity
  8
D-2
  6
Continuous
 62
     3
370
     9
100
AcDbCircle
 10
-539.2710685240615
 20
-306.6465609614744
 30
0.0
 40
1.249999942322726
100
AcDbArc
 50
270.0
 51
0.0000000000000127
  0
ARC
  5
429
330
1F
100
AcDbEntity
  8
D-2
  6
Continuous
 62
     3
370
     9
100
AcDbCircle
 10
-539.2710685240615
 20
-241.6465095587971
 30
0.0
 40
1.249999942322726
100
AcDbArc
 50
0.0
 51
90.0
  0
ARC
  5
42A
330
1F
100
AcDbEntity
  8
D-2
  6
Continuous
 62
     3
370
     9
100
AcDbCircle
 10
-554.2710888494759
 20
-241.6465095587971
 30
0.0
 40
1.249999942322726
100
AcDbArc
 50
90.00000000000001
 51
180.0
  0
LINE
  5
42B
330
1F
100
AcDbEntity
  8
D-2
  6
Continuous
 62
     3
370
     9
100
AcDbLine
 10
-553.0211090276038
 20
-242.8965549964073
 30
0.0
 11
-553.0211090276038
 21
-252.8965904185959
 31
0.0
  0
LINE
  5
42C
330
1F
100
AcDbEntity
  8
D-2
  6
Continuous
 62
     3
370
     9
100
AcDbLine
 10
-540.520917114456
 20
-242.8965549964073
 30
0.0
 11
-553.0211090276038
 21
-242.8965549964073
 31
0.0
  0
LINE
  5
42D
330
1F
100
AcDbEntity
  8
D-2
  6
Continuous
 62
     3
370
     9
100
AcDbLine
 10
-540.520917114456
 20
-242.8965549964073
 30
0.0
 11
-540.520917114456
 21
-305.3965407833459
 31
0.0
  0
LINE
  5
42E
330
1F
100
AcDbEntity
  8
D-2
  6
Continuous
 62
     3
370
     9
100
AcDbLine
 10
-538.0212199336671
 20
-306.6465609614744
 30
0.0
 11
-538.0212199336671
 21
-241.6465095587971
 31
0.0
  0
LINE
  5
42F
330
1F
100
AcDbEntity
  8
D-2
  6
Continuous
 62
     3
370
     9
100
AcDbLine
 10
-539.2710685240615
 20
-240.3965297369255
 30
0.0
 11
-554.2710888494759
 21
-240.3965297369255
 31
0.0
  0
LINE
  5
430
330
1F
100
AcDbEntity
  8
D-2
  6
Continuous
 62
     3
370
     9
100
AcDbLine
 10
-553.0211090276038
 20
-252.8965904185959
 30
0.0
 11
-555.5210686713474
 21
-252.8965904185959
 31
0.0
  0
LINE
  5
431
330
1F
100
AcDbEntity
  8
D-2
  6
Continuous
 62
     3
370
     9
100
AcDbLine
 10
-555.5210817797661
 20
-245.3965146401507
 30
0.0
 11
-555.5210817797661
 21
-248.3965318283811
 31
0.0
  0
LINE
  5
432
330
1F
100
AcDbEntity
  8
D-2
  6
Continuous
 62
     3
370
     9
100
AcDbLine
 10
-555.5210686713474
 20
-241.6465095587971
 30
0.0
 11
-555.5210686713474
 21
-252.8965904185959
 31
0.0
  0
LINE
  5
433
330
1F
100
AcDbEntity
  8
D-2
  6
Continuous
 62
     3
370
     9
100
AcDbLine
 10
-540.520917114456
 20
-305.3965407833459
 30
0.0
 11
-611.5139271973871
 21
-305.3965407833459
 31
0.0
  0
LINE
  5
434
330
1F
100
AcDbEntity
  8
D-2
  6
Continuous
 62
     3
370
     9
100
AcDbLine
 10
-611.5139271973871
 20
-307.8965407833459
 30
0.0
 11
-539.2710685240615
 21
-307.8965407833459
 31
0.0
  0
LINE
  5
435
330
1F
100
AcDbEntity
  8
D-2
  6
Continuous
 62
     3
370
     9
100
AcDbLine
 10
-610.8888716707124
 20
-240.3965297369255
 30
0.0
 11
-554.2710888494759
 21
-240.3965297369255
 31
0.0
  0
LWPOLYLINE
  5
436
330
1F
100
AcDbEntity
  8
D-4
  6
Continuous
 62
     7
370
     9
100
AcDbPolyline
 90
        4
 70
     1
 43
1.0
 10
-641.9697910414293
 20
-240.3964674987392
 42
0.4142135623731
 10
-642.4697910414293
 20
-239.8964674987392
 42
0.4142135623731
 10
-642.9697910414292
 20
-240.3964674987392
 42
0.4142135623731
 10
-642.4697910414293
 20
-240.8964674987392
 42
0.4142135623731
  0
LWPOLYLINE
  5
437
330
1F
100
AcDbEntity
  8
D-4
  6
Continuous
 62
     7
370
     9
100
AcDbPolyline
 90
        4
 70
     1
 43
1.0
 10
-679.4697910414293
 20
-240.3964674987392
 42
0.4142135623731
 10
-679.9697910414293
 20
-239.8964674987392
 42
0.4142135623731
 10
-680.4697910414292
 20
-240.3964674987392
 42
0.4142135623731
 10
-679.9697910414293
 20
-240.8964674987392
 42
0.4142135623731
  0
LINE
  5
438
330
1F
100
AcDbEntity
  8
D-4
  6
Continuous
 62
     7
370
     9
100
AcDbLine
 10
-680.9697910414295
 20
-240.3964674987392
 30
0.0
 11
-614.9697910414293
 21
-240.3964674987392
 31
0.0
  0
LINE
  5
439
330
1F
100
AcDbEntity
  8
D-4
  6
Continuous
 62
     7
370
     9
100
AcDbLine
 10
-680.9697910414295
 20
-327.8964071116397
 30
0.0
 11
-598.8459799973512
 21
-327.8964071116397
 31
0.0
  0
LWPOLYLINE
  5
43A
330
1F
100
AcDbEntity
  8
D-4
  6
Continuous
 62
     7
370
     9
100
AcDbPolyline
 90
        4
 70
     1
 43
1.0
 10
-679.4697910414293
 20
-327.8964071116397
 42
0.4142135623731
 10
-679.9697910414293
 20
-327.3964071116397
 42
0.4142135623731
 10
-680.4697910414292
 20
-327.8964071116397
 42
0.4142135623731
 10
-679.9697910414293
 20
-328.3964071116396
 42
0.4142135623731
  0
LINE
  5
43B
330
1F
100
AcDbEntity
  8
D-4
  6
Continuous
 62
     7
370
     9
100
AcDbLine
 10
-643.4697910414295
 20
-307.8963161468107
 30
0.0
 11
-614.9697910414293
 21
-307.8963161468107
 31
0.0
  0
LWPOLYLINE
  5
43C
330
1F
100
AcDbEntity
  8
D-4
  6
Continuous
 62
     7
370
     9
100
AcDbPolyline
 90
        4
 70
     1
 43
1.0
 10
-641.9697910414293
 20
-307.8963161468107
 42
0.4142135623731
 10
-642.4697910414293
 20
-307.3963161468107
 42
0.4142135623731
 10
-642.9697910414292
 20
-307.8963161468107
 42
0.4142135623731
 10
-642.4697910414293
 20
-308.3963161468107
 42
0.4142135623731
  0
LINE
  5
43D
330
1F
100
AcDbEntity
  8
D-2
  6
Continuous
 62
     3
370
     9
100
AcDbLine
 10
-555.5210817797661
 20
-252.8965904185959
 30
0.0
 11
-610.8888716707124
 21
-252.8965904185959
 31
0.0
  0
LINE
  5
43E
330
1F
100
AcDbEntity
  8
D-1
  6
Continuous
 62
     2
370
     9
100
AcDbLine
 10
-538.0208969940048
 20
-325.3963842823701
 30
0.0
 11
-538.0208969940048
 21
-307.8964043132128
 31
0.0
  0
LINE
  5
43F
330
1F
100
AcDbEntity
  8
D-1
  6
Continuous
 62
     2
370
     9
100
AcDbLine
 10
-539.2708768158764
 20
-307.8964043132128
 30
0.0
 11
-538.0208969940048
 21
-307.8964043132128
 31
0.0
  0
LINE
  5
440
330
1F
100
AcDbEntity
  8
D-1
  6
Continuous
 62
     2
370
     9
100
AcDbLine
 10
-565.5211092325669
 20
-315.3964144759199
 30
0.0
 11
-565.5211092325669
 21
-307.8964144759202
 31
0.0
  0
LINE
  5
441
330
1F
100
AcDbEntity
  8
D-1
  6
Continuous
 62
     2
370
     9
100
AcDbLine
 10
-565.5209780010892
 20
-321.345399807687
 30
0.0
 11
-552.0719825066152
 21
-307.8964043132128
 31
0.0
  0
LINE
  5
442
330
1F
100
AcDbEntity
  8
D-1
  6
Continuous
 62
     2
370
     9
100
AcDbLine
 10
-565.5209780010892
 20
-318.1633645603557
 30
0.0
 11
-555.2539521382079
 21
-307.8964043132128
 31
0.0
  0
LINE
  5
443
330
1F
100
AcDbEntity
  8
D-1
  6
Continuous
 62
     2
370
     9
100
AcDbLine
 10
-565.5209780010892
 20
-314.9814605445015
 30
0.0
 11
-558.4359217698005
 21
-307.8964043132128
 31
0.0
  0
LINE
  5
444
330
1F
100
AcDbEntity
  8
D-1
  6
Continuous
 62
     2
370
     9
100
AcDbLine
 10
-565.5163848993817
 20
-311.7948321954624
 30
0.0
 11
-561.6180226328709
 21
-307.8964043132128
 31
0.0
  0
LINE
  5
445
330
1F
100
AcDbEntity
  8
D-1
  6
Continuous
 62
     2
370
     9
100
AcDbLine
 10
-565.5209780010892
 20
-308.6168651239292
 30
0.0
 11
-564.7998610329864
 21
-307.8964043132128
 31
0.0
  0
LINE
  5
446
330
1F
100
AcDbEntity
  8
D-1
  6
Continuous
 62
     2
370
     9
100
AcDbLine
 10
-563.2080232125867
 20
-325.3963842823701
 30
0.0
 11
-545.7080432434299
 21
-307.8964043132128
 31
0.0
  0
LINE
  5
447
330
1F
100
AcDbEntity
  8
D-1
  6
Continuous
 62
     2
370
     9
100
AcDbLine
 10
-560.026053580994
 20
-325.3963842823701
 30
0.0
 11
-542.5260736118366
 21
-307.8964043132128
 31
0.0
  0
LINE
  5
448
330
1F
100
AcDbEntity
  8
D-1
  6
Continuous
 62
     2
370
     9
100
AcDbLine
 10
-556.8440839494014
 20
-325.3963842823701
 30
0.0
 11
-539.344103980244
 21
-307.8964043132128
 31
0.0
  0
LINE
  5
449
330
1F
100
AcDbEntity
  8
D-1
  6
Continuous
 62
     2
370
     9
100
AcDbLine
 10
-550.480144686216
 20
-325.3963842823701
 30
0.0
 11
-538.0208969940048
 21
-312.9370709744201
 31
0.0
  0
LINE
  5
44A
330
1F
100
AcDbEntity
  8
D-1
  6
Continuous
 62
     2
370
     9
100
AcDbLine
 10
-547.2981750546234
 20
-325.3963842823701
 30
0.0
 11
-538.0208969940048
 21
-316.1191062217516
 31
0.0
  0
LINE
  5
44B
330
1F
100
AcDbEntity
  8
D-1
  6
Continuous
 62
     2
370
     9
100
AcDbLine
 10
-544.1162054230301
 20
-325.3963842823701
 30
0.0
 11
-538.0208969940048
 21
-319.3010102376054
 31
0.0
  0
LINE
  5
44C
330
1F
100
AcDbEntity
  8
D-1
  6
Continuous
 62
     2
370
     9
100
AcDbLine
 10
-540.9342357914375
 20
-325.3963842823701
 30
0.0
 11
-538.0208969940048
 21
-322.483045484937
 31
0.0
  0
LINE
  5
44D
330
1F
100
AcDbEntity
  8
D-1
  6
Continuous
 62
     2
370
     9
100
AcDbLine
 10
-565.5209780010892
 20
-324.5273694392799
 30
0.0
 11
-548.8900128750225
 21
-307.8964043132128
 31
0.0
  0
LINE
  5
44E
330
1F
100
AcDbEntity
  8
D-1
  6
Continuous
 62
     2
370
     9
100
AcDbLine
 10
-553.6621143178087
 20
-325.3963842823701
 30
0.0
 11
-538.0210282254819
 21
-309.7553638057821
 31
0.0
  0
LINE
  5
44F
330
1F
100
AcDbEntity
  8
D-1
  6
Continuous
 62
     2
370
     9
100
AcDbLine
 10
-565.5211092325669
 20
-315.3964144759199
 30
0.0
 11
-565.5211092325669
 21
-325.3964474678968
 31
0.0
  0
LINE
  5
450
330
1F
100
AcDbEntity
  8
D-4
  6
Continuous
 62
     7
370
     9
100
AcDbLine
 10
-679.9697910414293
 20
-240.3964674987392
 30
0.0
 11
-679.9697910414293
 21
-327.8964071116397
 31
0.0
  0
TEXT
  5
451
330
1F
100
AcDbEntity
  8
D-4
  6
Continuous
 62
     2
370
   211
100
AcDbText
 10
-685.2897910414293
 20
-294.7714373051895
 30
0.0
 40
15.24
  1
35
 50
90.0
 41
1.0625
  7
ＭＳ ゴシック
100
AcDbText
  0
LINE
  5
452
330
1F
100
AcDbEntity
  8
D-4
  6
Continuous
 62
     7
370
     9
100
AcDbLine
 10
-642.4697910414293
 20
-240.3964674987392
 30
0.0
 11
-642.4697910414293
 21
-307.8963161468107
 31
0.0
  0
TEXT
  5
453
330
1F
100
AcDbEntity
  8
D-4
  6
Continuous
 62
     2
370
   211
100
AcDbText
 10
-647.7897910414293
 20
-284.7713918227749
 30
0.0
 40
15.24
  1
27
 50
90.0
 41
1.0625
  7
ＭＳ ゴシック
100
AcDbText
  0
ARC
  5
454
330
1F
100
AcDbEntity
  8
D-1
  6
JWW_DASHED1
 62
     2
370
     9
100
AcDbCircle
 10
-303.5508068220858
 20
-247.2714927582213
 30
0.0
 40
5.0
100
AcDbArc
 50
0.0000000000000254
 51
61.04497562814005
  0
LINE
  5
455
330
1F
100
AcDbEntity
  8
D-1
  6
JWW_DASHED1
 62
     2
370
     9
100
AcDbLine
 10
-348.5508068220861
 20
-247.2714927582213
 30
0.0
 11
-348.5508068220861
 21
-252.8965281804101
 31
0.0
  0
ARC
  5
456
330
1F
100
AcDbEntity
  8
D-1
  6
JWW_DASHED1
 62
     2
370
     9
100
AcDbCircle
 10
-343.5508068220861
 20
-247.2714927582213
 30
0.0
 40
5.0
100
AcDbArc
 50
118.95502437186
 51
180.0
  0
LINE
  5
457
330
1F
100
AcDbEntity
  8
D-1
  6
JWW_DASHED1
 62
     2
370
     9
100
AcDbLine
 10
-345.9714214134658
 20
-242.8964927582213
 30
0.0
 11
-301.1301922307064
 21
-242.8964927582213
 31
0.0
  0
LINE
  5
458
330
1F
100
AcDbEntity
  8
D-1
  6
JWW_DASHED1
 62
     2
370
     9
100
AcDbLine
 10
-298.5508068220855
 20
-247.2714927582213
 30
0.0
 11
-298.5508068220855
 21
-252.8965281804101
 31
0.0
  0
TEXT
  5
459
330
1F
100
AcDbEntity
  8
D-5
  6
Continuous
 62
     2
370
     9
100
AcDbText
 10
-572.8840984589156
 20
-525.9178009654106
 30
0.0
 40
15.24
  1
アンカー詳細図　Ｓ＝１：２
 41
1.115384615384615
  7
ＭＳ ゴシック
100
AcDbText
  0
LINE
  5
45A
330
1F
100
AcDbEntity
  8
D-5
  6
Continuous
 62
     7
370
     9
100
AcDbLine
 10
-587.8775000636451
 20
-535.7433736524833
 30
0.0
 11
-280.0725291078257
 21
-535.7433736524833
 31
0.0
  0
LINE
  5
45B
330
1F
100
AcDbEntity
  8
D-1
  6
Continuous
 62
     7
370
     9
100
AcDbLine
 10
-533.0212200490217
 20
-426.3520221343876
 30
0.0
 11
-454.0213714009508
 21
-426.3520221343876
 31
0.0
  0
LWPOLYLINE
  5
45C
330
1F
100
AcDbEntity
  8
D-1
  6
Continuous
 62
     7
370
     9
100
AcDbPolyline
 90
        4
 70
     1
 43
1.0
 10
-532.5212200490217
 20
-426.3520221343876
 42
0.4142135623731
 10
-533.0212200490217
 20
-425.8520221343877
 42
0.4142135623731
 10
-533.5212200490217
 20
-426.3520221343876
 42
0.4142135623731
 10
-533.0212200490217
 20
-426.8520221343875
 42
0.4142135623731
  0
LWPOLYLINE
  5
45D
330
1F
100
AcDbEntity
  8
D-1
  6
Continuous
 62
     7
370
     9
100
AcDbPolyline
 90
        4
 70
     1
 43
1.0
 10
-453.5213714009508
 20
-426.3520221343876
 42
0.4142135623731
 10
-454.0213714009508
 20
-425.8520221343877
 42
0.4142135623731
 10
-454.5213714009508
 20
-426.3520221343876
 42
0.4142135623731
 10
-454.0213714009508
 20
-426.8520221343875
 42
0.4142135623731
  0
LINE
  5
45E
330
1F
100
AcDbEntity
  8
D-1
  6
Continuous
 62
     7
370
     9
100
AcDbLine
 10
-533.0212200490217
 20
-427.8520221343877
 30
0.0
 11
-533.0212200490217
 21
-390.3964927582211
 31
0.0
  0
LINE
  5
45F
330
1F
100
AcDbEntity
  8
D-1
  6
Continuous
 62
     7
370
     9
100
AcDbLine
 10
-454.0213714009508
 20
-427.8520221343877
 30
0.0
 11
-454.0213714009508
 21
-322.6167922764675
 31
0.0
  0
TEXT
  5
460
330
1F
100
AcDbEntity
  8
D-1
  6
Continuous
 62
     2
370
   211
100
AcDbText
 10
-504.1462957249863
 20
-420.5320221343877
 30
0.0
 40
15.24
  1
31
 41
1.0625
  7
ＭＳ ゴシック
100
AcDbText
  0
LINE
  5
461
330
1F
100
AcDbEntity
  8
D-4
  6
Continuous
 62
     7
370
     9
100
AcDbLine
 10
-348.5508068220861
 20
-425.1102268532097
 30
0.0
 11
-298.5508068220855
 21
-425.1102268532097
 31
0.0
  0
LWPOLYLINE
  5
462
330
1F
100
AcDbEntity
  8
D-4
  6
Continuous
 62
     7
370
     9
100
AcDbPolyline
 90
        4
 70
     1
 43
1.0
 10
-348.0508068220861
 20
-425.1102268532097
 42
0.4142135623731
 10
-348.5508068220861
 20
-424.6102268532097
 42
0.4142135623731
 10
-349.0508068220861
 20
-425.1102268532097
 42
0.4142135623731
 10
-348.5508068220861
 20
-425.6102268532096
 42
0.4142135623731
  0
LWPOLYLINE
  5
463
330
1F
100
AcDbEntity
  8
D-4
  6
Continuous
 62
     7
370
     9
100
AcDbPolyline
 90
        4
 70
     1
 43
1.0
 10
-298.0508068220855
 20
-425.1102268532097
 42
0.4142135623731
 10
-298.5508068220855
 20
-424.6102268532097
 42
0.4142135623731
 10
-299.0508068220855
 20
-425.1102268532097
 42
0.4142135623731
 10
-298.5508068220855
 20
-425.6102268532096
 42
0.4142135623731
  0
LINE
  5
464
330
1F
100
AcDbEntity
  8
D-4
  6
Continuous
 62
     7
370
     9
100
AcDbLine
 10
-348.5508068220861
 20
-426.6102268532096
 30
0.0
 11
-348.5508068220861
 21
-385.2417922764675
 31
0.0
  0
LINE
  5
465
330
1F
100
AcDbEntity
  8
D-4
  6
Continuous
 62
     7
370
     9
100
AcDbLine
 10
-298.5508068220855
 20
-426.6102268532096
 30
0.0
 11
-298.5508068220855
 21
-385.2417922764675
 31
0.0
  0
TEXT
  5
466
330
1F
100
AcDbEntity
  8
D-4
  6
Continuous
 62
     2
370
   211
100
AcDbText
 10
-334.1758068220858
 20
-419.2902268532097
 30
0.0
 40
15.24
  1
20
 41
1.0625
  7
ＭＳ ゴシック
100
AcDbText
  0
TEXT
  5
467
330
1F
100
AcDbEntity
  8
D-5
  6
Continuous
 62
     2
370
     9
100
AcDbText
 10
-623.9750145857354
 20
-480.1932617094603
 30
0.0
 40
15.24
  1
※アンカーは施工時に折り曲げて使用
 41
1.117647058823529
  7
ＭＳ ゴシック
100
AcDbText
  0
LINE
  5
468
330
1F
100
AcDbEntity
  8
その他
  6
Continuous
 62
     7
370
     9
100
AcDbLine
 10
-165.7496055199201
 20
416.7739973287024
 30
0.0
 11
-165.7496055199201
 21
329.2795531987018
 31
0.0
  0
LWPOLYLINE
  5
469
330
1F
100
AcDbEntity
  8
その他
  6
Continuous
 62
     7
370
     9
100
AcDbPolyline
 90
        4
 70
     1
 43
1.0
 10
-165.2496055199201
 20
416.7739973287024
 42
0.4142135623731
 10
-165.7496055199201
 20
417.2739973287024
 42
0.4142135623731
 10
-166.2496055199201
 20
416.7739973287024
 42
0.4142135623731
 10
-165.7496055199201
 20
416.2739973287024
 42
0.4142135623731
  0
LWPOLYLINE
  5
46A
330
1F
100
AcDbEntity
  8
その他
  6
Continuous
 62
     7
370
     9
100
AcDbPolyline
 90
        4
 70
     1
 43
1.0
 10
-165.2496055199201
 20
329.2795531987018
 42
0.4142135623731
 10
-165.7496055199201
 20
329.7795531987018
 42
0.4142135623731
 10
-166.2496055199201
 20
329.2795531987018
 42
0.4142135623731
 10
-165.7496055199201
 20
328.7795531987018
 42
0.4142135623731
  0
LINE
  5
46B
330
1F
100
AcDbEntity
  8
その他
  6
Continuous
 62
     7
370
     9
100
AcDbLine
 10
-164.2496055199201
 20
416.7739973287024
 30
0.0
 11
-278.2168915286957
 21
416.7739973287024
 31
0.0
  0
LINE
  5
46C
330
1F
100
AcDbEntity
  8
その他
  6
Continuous
 62
     7
370
     9
100
AcDbLine
 10
-164.2496055199201
 20
329.2795531987018
 30
0.0
 11
-247.1064308350667
 21
329.2795531987018
 31
0.0
  0
TEXT
  5
46D
330
1F
100
AcDbEntity
  8
その他
  6
Continuous
 62
     2
370
   211
100
AcDbText
 10
-171.5696055199201
 20
351.1517752637021
 30
0.0
 40
15.24
  1
87.5
 50
90.0
 41
1.09375
  7
ＭＳ ゴシック
100
AcDbText
  0
LINE
  5
46E
330
1F
100
AcDbEntity
  8
その他
  6
Continuous
 62
     7
370
     9
100
AcDbLine
 10
-165.7496055199201
 20
329.2795531987018
 30
0.0
 11
-165.7496055199201
 21
154.2795531987019
 31
0.0
  0
LWPOLYLINE
  5
46F
330
1F
100
AcDbEntity
  8
その他
  6
Continuous
 62
     7
370
     9
100
AcDbPolyline
 90
        4
 70
     1
 43
1.0
 10
-165.2496055199201
 20
154.2795531987019
 42
0.4142135623731
 10
-165.7496055199201
 20
154.7795531987019
 42
0.4142135623731
 10
-166.2496055199201
 20
154.2795531987019
 42
0.4142135623731
 10
-165.7496055199201
 20
153.7795531987019
 42
0.4142135623731
  0
LINE
  5
470
330
1F
100
AcDbEntity
  8
その他
  6
Continuous
 62
     7
370
     9
100
AcDbLine
 10
-164.2496055199201
 20
154.2795531987019
 30
0.0
 11
-247.1064308350667
 21
154.2795531987019
 31
0.0
  0
TEXT
  5
471
330
1F
100
AcDbEntity
  8
その他
  6
Continuous
 62
     2
370
   211
100
AcDbText
 10
-171.5696055199201
 20
225.5295531987019
 30
0.0
 40
15.24
  1
175
 50
90.0
 41
1.083333333333333
  7
ＭＳ ゴシック
100
AcDbText
  0
LINE
  5
472
330
1F
100
AcDbEntity
  8
その他
  6
Continuous
 62
     7
370
     9
100
AcDbLine
 10
-165.7496055199201
 20
154.2795531987019
 30
0.0
 11
-165.7496055199201
 21
66.77399732870225
 31
0.0
  0
LWPOLYLINE
  5
473
330
1F
100
AcDbEntity
  8
その他
  6
Continuous
 62
     7
370
     9
100
AcDbPolyline
 90
        4
 70
     1
 43
1.0
 10
-165.2496055199201
 20
66.77399732870225
 42
0.4142135623731
 10
-165.7496055199201
 20
67.27399732870224
 42
0.4142135623731
 10
-166.2496055199201
 20
66.77399732870225
 42
0.4142135623731
 10
-165.7496055199201
 20
66.27399732870225
 42
0.4142135623731
  0
LINE
  5
474
330
1F
100
AcDbEntity
  8
その他
  6
Continuous
 62
     7
370
     9
100
AcDbLine
 10
-164.2496055199201
 20
66.77399732870225
 30
0.0
 11
-278.2168915286957
 21
66.77399732870225
 31
0.0
  0
TEXT
  5
475
330
1F
100
AcDbEntity
  8
その他
  6
Continuous
 62
     2
370
   211
100
AcDbText
 10
-171.5696055199201
 20
88.65177526370206
 30
0.0
 40
15.24
  1
87.5
 50
90.0
 41
1.09375
  7
ＭＳ ゴシック
100
AcDbText
  0
LINE
  5
476
330
1F
100
AcDbEntity
  8
寸法
  6
Continuous
 62
     4
370
     9
100
AcDbLine
 10
-231.8332446336704
 20
241.7739973287024
 30
0.0
 11
-231.8332446336704
 21
227.7739973287024
 31
0.0
  0
LINE
  5
477
330
1F
100
AcDbEntity
  8
寸法
  6
Continuous
 62
     4
370
     9
100
AcDbLine
 10
-231.8332446336704
 20
241.7739973287024
 30
0.0
 11
-230.2332446336704
 21
235.7739973287024
 31
0.0
  0
LINE
  5
478
330
1F
100
AcDbEntity
  8
寸法
  6
Continuous
 62
     4
370
     9
100
AcDbLine
 10
-231.8332446336704
 20
241.7739973287024
 30
0.0
 11
-233.4332446336704
 21
235.7739973287024
 31
0.0
  0
TEXT
  5
479
330
1F
100
AcDbEntity
  8
寸法
  6
Continuous
 62
     2
370
     9
100
AcDbText
 10
-241.8332446336704
 20
214.5939973287024
 30
0.0
 40
15.24
  1
Ａ
 41
1.000000000000003
  7
ＭＳ ゴシック
100
AcDbText
  0
LINE
  5
47A
330
1F
100
AcDbEntity
  8
通り芯
  6
JWW_CENTER2
 62
     7
370
     9
100
AcDbLine
 10
-282.4394378412474
 20
241.7739973287024
 30
0.0
 11
-667.7001933073698
 21
241.7739973287024
 31
0.0
  0
LINE
  5
47B
330
1F
100
AcDbEntity
  8
寸法
  6
JWW_CENTER1
 62
     4
370
     9
100
AcDbLine
 10
-231.8332446336704
 20
241.7739973287024
 30
0.0
 11
-325.2675773165396
 21
241.7739973287024
 31
0.0
  0
TEXT
  5
47C
330
1F
100
AcDbEntity
  8
D-5
  6
Continuous
 62
     2
370
     9
100
AcDbText
 10
266.1649564966373
 20
-65.1983413303343
 30
0.0
 40
15.24
  1
Ａ断面詳細図　Ｓ＝１：２
 41
1.114583333333333
  7
ＭＳ ゴシック
100
AcDbText
  0
LINE
  5
47D
330
1F
100
AcDbEntity
  8
D-5
  6
Continuous
 62
     7
370
     9
100
AcDbLine
 10
251.1715548919076
 20
-75.02391401740688
 30
0.0
 11
545.7276329016615
 21
-75.02391401740688
 31
0.0
  0
LWPOLYLINE
  5
47E
330
1F
100
AcDbEntity
  8
D-2
  6
Continuous
 62
     7
370
     9
100
AcDbPolyline
 90
        4
 70
     1
 43
1.0
 10
480.5780557033881
 20
300.4341725441545
 42
0.4142135623731
 10
480.0780557033881
 20
300.9341725441545
 42
0.4142135623731
 10
479.5780557033882
 20
300.4341725441545
 42
0.4142135623731
 10
480.0780557033881
 20
299.9341725441545
 42
0.4142135623731
  0
LINE
  5
47F
330
1F
100
AcDbEntity
  8
D-4
  6
Continuous
 62
     7
370
     9
100
AcDbLine
 10
117.1672174806228
 20
300.4342404589295
 30
0.0
 11
117.1672174806228
 21
235.4342294125093
 31
0.0
  0
LWPOLYLINE
  5
480
330
1F
100
AcDbEntity
  8
D-4
  6
Continuous
 62
     7
370
     9
100
AcDbPolyline
 90
        4
 70
     1
 43
1.0
 10
117.6672174806228
 20
300.4342404589295
 42
0.4142135623731
 10
117.1672174806228
 20
300.9342404589295
 42
0.4142135623731
 10
116.6672174806228
 20
300.4342404589295
 42
0.4142135623731
 10
117.1672174806228
 20
299.9342404589295
 42
0.4142135623731
  0
LWPOLYLINE
  5
481
330
1F
100
AcDbEntity
  8
D-4
  6
Continuous
 62
     7
370
     9
100
AcDbPolyline
 90
        4
 70
     1
 43
1.0
 10
117.6672174806228
 20
235.4342294125093
 42
0.4142135623731
 10
117.1672174806228
 20
235.9342294125093
 42
0.4142135623731
 10
116.6672174806228
 20
235.4342294125093
 42
0.4142135623731
 10
117.1672174806228
 20
234.9342294125093
 42
0.4142135623731
  0
LINE
  5
482
330
1F
100
AcDbEntity
  8
D-4
  6
Continuous
 62
     7
370
     9
100
AcDbLine
 10
115.6672174806228
 20
300.4342404589295
 30
0.0
 11
145.5094964518726
 21
300.4342404589295
 31
0.0
  0
LINE
  5
483
330
1F
100
AcDbEntity
  8
D-4
  6
Continuous
 62
     7
370
     9
100
AcDbLine
 10
115.6672174806228
 20
235.4342294125093
 30
0.0
 11
145.5094964518726
 21
235.4342294125093
 31
0.0
  0
TEXT
  5
484
330
1F
100
AcDbEntity
  8
D-4
  6
Continuous
 62
     2
370
   211
100
AcDbText
 10
111.3472174806228
 20
257.3092349357194
 30
0.0
 40
15.24
  1
26
 50
90.0
 41
1.0625
  7
ＭＳ ゴシック
100
AcDbText
  0
LINE
  5
485
330
1F
100
AcDbEntity
  8
D-4
  6
Continuous
 62
     7
370
     9
100
AcDbLine
 10
117.1672174806228
 20
235.4342294125093
 30
0.0
 11
117.1672174806228
 21
232.9342294125093
 31
0.0
  0
LWPOLYLINE
  5
486
330
1F
100
AcDbEntity
  8
D-4
  6
Continuous
 62
     7
370
     9
100
AcDbPolyline
 90
        4
 70
     1
 43
1.0
 10
117.6672174806228
 20
232.9342294125093
 42
0.4142135623731
 10
117.1672174806228
 20
233.4342294125093
 42
0.4142135623731
 10
116.6672174806228
 20
232.9342294125093
 42
0.4142135623731
 10
117.1672174806228
 20
232.4342294125093
 42
0.4142135623731
  0
LINE
  5
487
330
1F
100
AcDbEntity
  8
D-4
  6
Continuous
 62
     7
370
     9
100
AcDbLine
 10
115.6672174806228
 20
232.9342294125093
 30
0.0
 11
145.5094964518726
 21
232.9342294125093
 31
0.0
  0
TEXT
  5
488
330
1F
100
AcDbEntity
  8
D-4
  6
Continuous
 62
     2
370
   211
100
AcDbText
 10
111.3472174806228
 20
229.1842294125093
 30
0.0
 40
15.24
  1
1
 50
90.0
 41
0.9999999999999998
  7
ＭＳ ゴシック
100
AcDbText
  0
LINE
  5
489
330
1F
100
AcDbEntity
  8
D-4
  6
Continuous
 62
     7
370
     9
100
AcDbLine
 10
117.1672174806228
 20
232.9342294125093
 30
0.0
 11
117.1672174806228
 21
202.9342194547646
 31
0.0
  0
LWPOLYLINE
  5
48A
330
1F
100
AcDbEntity
  8
D-4
  6
Continuous
 62
     7
370
     9
100
AcDbPolyline
 90
        4
 70
     1
 43
1.0
 10
117.6672174806228
 20
202.9342194547646
 42
0.4142135623731
 10
117.1672174806228
 20
203.4342194547646
 42
0.4142135623731
 10
116.6672174806228
 20
202.9342194547646
 42
0.4142135623731
 10
117.1672174806228
 20
202.4342194547646
 42
0.4142135623731
  0
LINE
  5
48B
330
1F
100
AcDbEntity
  8
D-4
  6
Continuous
 62
     7
370
     9
100
AcDbLine
 10
115.6672174806228
 20
202.9342194547646
 30
0.0
 11
188.0095977843719
 21
202.9342194547646
 31
0.0
  0
TEXT
  5
48C
330
1F
100
AcDbEntity
  8
D-4
  6
Continuous
 62
     2
370
   211
100
AcDbText
 10
111.3472174806228
 20
178.6200016097348
 30
0.0
 40
15.24
  1
12
 50
90.0
 41
1.0625
  7
ＭＳ ゴシック
100
AcDbText
  0
LINE
  5
48D
330
1F
100
AcDbEntity
  8
D-4
  6
Continuous
 62
     7
370
     9
100
AcDbLine
 10
117.1672174806228
 20
202.9342194547646
 30
0.0
 11
117.1672174806228
 21
173.3500220106573
 31
0.0
  0
ARC
  5
48E
330
1F
100
AcDbEntity
  8
D-6
  6
Continuous
 62
     6
370
     9
100
AcDbCircle
 10
695.2258040968667
 20
231.9637410580024
 30
0.0
 40
3.113517740116249
100
AcDbArc
 50
0.0
 51
180.0
  0
ARC
  5
48F
330
1F
100
AcDbEntity
  8
D-6
  6
Continuous
 62
     6
370
     9
100
AcDbCircle
 10
698.3393218369829
 20
231.9637410580024
 30
0.0
 40
3.113517740116249
100
AcDbArc
 50
0.0
 51
180.0
  0
ARC
  5
490
330
1F
100
AcDbEntity
  8
D-6
  6
Continuous
 62
     6
370
     9
100
AcDbCircle
 10
701.4528395770992
 20
231.9637410580024
 30
0.0
 40
3.113517740116249
100
AcDbArc
 50
0.0
 51
180.0
  0
ARC
  5
491
330
1F
100
AcDbEntity
  8
D-6
  6
Continuous
 62
     6
370
     9
100
AcDbCircle
 10
704.5663573172155
 20
231.9637410580024
 30
0.0
 40
3.113517740116249
100
AcDbArc
 50
0.0
 51
180.0
  0
ARC
  5
492
330
1F
100
AcDbEntity
  8
D-6
  6
Continuous
 62
     6
370
     9
100
AcDbCircle
 10
707.6798750573317
 20
231.9637410580024
 30
0.0
 40
3.113517740116249
100
AcDbArc
 50
0.0
 51
180.0
  0
ARC
  5
493
330
1F
100
AcDbEntity
  8
D-6
  6
Continuous
 62
     6
370
     9
100
AcDbCircle
 10
710.793392797448
 20
231.9637410580024
 30
0.0
 40
3.113517740116249
100
AcDbArc
 50
0.0
 51
180.0
  0
LINE
  5
494
330
1F
100
AcDbEntity
  8
D-5
  6
Continuous
 62
     7
370
     9
100
AcDbLine
 10
729.7870736951323
 20
336.0806008327966
 30
0.0
 11
896.4604349836678
 21
336.0806008327966
 31
0.0
  0
TEXT
  5
495
330
1F
100
AcDbEntity
  8
D-5
  6
Continuous
 62
     7
370
     9
100
AcDbText
 10
732.2714684903189
 20
341.0071358174883
 30
0.0
 40
11.43
  1
アンカー（ＳＧＨＣ）
 41
1.15
  7
ＭＳ ゴシック
100
AcDbText
  0
LINE
  5
496
330
1F
100
AcDbEntity
  8
D-5
  6
Continuous
 62
     7
370
     9
100
AcDbLine
 10
714.2595737031751
 20
205.3594505553411
 30
0.0
 11
721.8690915657861
 21
195.4425338017
 31
0.0
  0
LINE
  5
497
330
1F
100
AcDbEntity
  8
D-5
  6
Continuous
 62
     7
370
     9
100
AcDbLine
 10
714.2595737031751
 20
205.3594505553411
 30
0.0
 11
724.1764904568162
 21
197.7499326927301
 31
0.0
  0
LINE
  5
498
330
1F
100
AcDbEntity
  8
D-5
  6
Continuous
 62
     7
370
     9
100
AcDbLine
 10
714.2595737031751
 20
205.3594505553411
 30
0.0
 11
801.5829126224343
 21
118.0361116360818
 31
0.0
  0
LINE
  5
499
330
1F
100
AcDbEntity
  8
D-5
  6
Continuous
 62
     7
370
     9
100
AcDbLine
 10
801.5829126224343
 20
118.0361116360818
 30
0.0
 11
895.745017803847
 21
118.0361116360818
 31
0.0
  0
TEXT
  5
49A
330
1F
100
AcDbEntity
  8
D-5
  6
Continuous
 62
     7
370
   211
100
AcDbText
 10
801.8038884982888
 20
123.8829822873269
 30
0.0
 40
11.43
  1
差筋φ9程度
 41
1.136363636363636
  7
ＭＳ ゴシック
100
AcDbText
  0
TEXT
  5
49B
330
1F
100
AcDbEntity
  8
D-5
  6
Continuous
 62
     7
370
     9
100
AcDbText
 10
732.2714684903189
 20
318.5866013025795
 30
0.0
 40
11.43
  1
ｔ＝１．６
 41
1.133333333333333
  7
ＭＳ ゴシック
100
AcDbText
  0
TEXT
  5
49C
330
1F
100
AcDbEntity
  8
D-5
  6
Continuous
 62
     7
370
     9
100
AcDbText
 10
708.2707371587184
 20
445.9772906150358
 30
0.0
 40
11.43
  1
蓋（ＳＵＳ３０４）
 41
1.148148148148148
  7
ＭＳ ゴシック
100
AcDbText
  0
TEXT
  5
49D
330
1F
100
AcDbEntity
  8
D-5
  6
Continuous
 62
     7
370
     9
100
AcDbText
 10
706.6817974178706
 20
394.6017490007568
 30
0.0
 40
11.43
  1
受枠（ＳＵＳ３０４）
 41
1.15
  7
ＭＳ ゴシック
100
AcDbText
  0
TEXT
  5
49E
330
1F
100
AcDbEntity
  8
D-5
  6
Continuous
 62
     7
370
     9
100
AcDbText
 10
708.2707371587184
 20
425.2527080323846
 30
0.0
 40
11.43
  1
ｔ＝１．０
 41
1.133333333333333
  7
ＭＳ ゴシック
100
AcDbText
  0
TEXT
  5
49F
330
1F
100
AcDbEntity
  8
D-5
  6
Continuous
 62
     7
370
     9
100
AcDbText
 10
706.6817974178706
 20
373.9251697436969
 30
0.0
 40
11.43
  1
ｔ＝１．０
 41
1.133333333333333
  7
ＭＳ ゴシック
100
AcDbText
  0
LINE
  5
4A0
330
1F
100
AcDbEntity
  8
D-5
  6
Continuous
 62
     7
370
     9
100
AcDbLine
 10
703.6255362005991
 20
390.3543126092873
 30
0.0
 11
651.710126978618
 21
300.4341725441545
 31
0.0
  0
LINE
  5
4A1
330
1F
100
AcDbEntity
  8
D-5
  6
Continuous
 62
     7
370
     9
100
AcDbLine
 10
703.6255362005991
 20
390.3543126092873
 30
0.0
 11
868.2930850292955
 21
390.3543126092873
 31
0.0
  0
LINE
  5
4A2
330
1F
100
AcDbEntity
  8
D-5
  6
Continuous
 62
     7
370
     9
100
AcDbLine
 10
705.7368296550242
 20
441.6818508979751
 30
0.0
 11
624.1874036077014
 21
300.4341725441545
 31
0.0
  0
LINE
  5
4A3
330
1F
100
AcDbEntity
  8
D-5
  6
Continuous
 62
     7
370
     9
100
AcDbLine
 10
705.7368296550242
 20
441.6818508979751
 30
0.0
 11
864.2569122624808
 21
441.6818508979751
 31
0.0
  0
LINE
  5
4A4
330
1F
100
AcDbEntity
  8
D-5
  6
Continuous
 62
     7
370
     9
100
AcDbLine
 10
191.7461343311475
 20
300.4342404589295
 30
0.0
 11
186.9625914265839
 21
311.9827346153206
 31
0.0
  0
LINE
  5
4A5
330
1F
100
AcDbEntity
  8
D-5
  6
Continuous
 62
     7
370
     9
100
AcDbLine
 10
191.7461343311475
 20
300.4342404589295
 30
0.0
 11
184.1366164685382
 21
310.3511572125699
 31
0.0
  0
TEXT
  5
4A6
330
1F
100
AcDbEntity
  8
D-5
  6
Continuous
 62
     2
370
     9
100
AcDbText
 10
100.943879815364
 20
-526.3006068318722
 30
0.0
 40
15.24
  1
把手詳細図　Ｓ＝１：２
 41
1.113636363636364
  7
ＭＳ ゴシック
100
AcDbText
  0
LINE
  5
4A7
330
1F
100
AcDbEntity
  8
D-5
  6
Continuous
 62
     7
370
     9
100
AcDbLine
 10
92.95389123058769
 20
-534.1462333495031
 30
0.0
 11
347.7451509962129
 21
-534.1462333495031
 31
0.0
  0
LINE
  5
4A8
330
1F
100
AcDbEntity
  8
D-2
  6
Continuous
 62
     3
370
     9
100
AcDbLine
 10
250.5430184133947
 20
-434.0349259747545
 30
0.0
 11
220.5432402255211
 21
-434.0349259747545
 31
0.0
  0
LINE
  5
4A9
330
1F
100
AcDbEntity
  8
D-2
  6
Continuous
 62
     3
370
     9
100
AcDbLine
 10
216.7931695284292
 20
-237.7849443854558
 30
0.0
 11
216.7931695284291
 21
-430.2849865091393
 31
0.0
  0
LINE
  5
4AA
330
1F
100
AcDbEntity
  8
D-2
  6
Continuous
 62
     3
370
     9
100
AcDbLine
 10
250.5430184133947
 20
-234.0350049198406
 30
0.0
 11
220.5432402255212
 21
-234.0350049198406
 31
0.0
  0
LINE
  5
4AB
330
1F
100
AcDbEntity
  8
D-2
  6
Continuous
 62
     3
370
     9
100
AcDbLine
 10
254.293089110487
 20
-237.7849443854558
 30
0.0
 11
254.293089110487
 21
-430.2849865091393
 31
0.0
  0
LINE
  5
4AC
330
1F
100
AcDbEntity
  8
D-2
  6
Continuous
 62
     3
370
     9
100
AcDbLine
 10
174.2933306588852
 20
-462.7848555722334
 30
0.0
 11
174.2933306588852
 21
-205.2849440908844
 31
0.0
  0
LINE
  5
4AD
330
1F
100
AcDbEntity
  8
D-2
  6
Continuous
 62
     3
370
     9
100
AcDbLine
 10
293.0431197458934
 20
-466.5349262693256
 30
0.0
 11
178.0431388930227
 21
-466.5349262693256
 31
0.0
  0
LINE
  5
4AE
330
1F
100
AcDbEntity
  8
D-2
  6
Continuous
 62
     3
370
     9
100
AcDbLine
 10
293.0431197458934
 20
-201.5348733937919
 30
0.0
 11
178.0431388930227
 21
-201.5348733937919
 31
0.0
  0
LINE
  5
4AF
330
1F
100
AcDbEntity
  8
D-2
  6
Continuous
 62
     3
370
     9
100
AcDbLine
 10
296.7931904429854
 20
-205.2849440908844
 30
0.0
 11
296.7931904429857
 21
-462.7848555722334
 31
0.0
  0
LINE
  5
4B0
330
1F
100
AcDbEntity
  8
D-2
  6
Continuous
 62
     3
370
     9
100
AcDbLine
 10
216.1682452332317
 20
-237.7849443854558
 30
0.0
 11
216.1682452332316
 21
-430.2849865091393
 31
0.0
  0
LINE
  5
4B1
330
1F
100
AcDbEntity
  8
D-2
  6
Continuous
 62
     3
370
     9
100
AcDbLine
 10
250.5430184133947
 20
-233.4100806246434
 30
0.0
 11
220.5432402255212
 21
-233.4100806246434
 31
0.0
  0
LINE
  5
4B2
330
1F
100
AcDbEntity
  8
D-2
  6
Continuous
 62
     3
370
     9
100
AcDbLine
 10
254.9182758686387
 20
-237.7849443854558
 30
0.0
 11
254.9182758686387
 21
-430.2849865091393
 31
0.0
  0
LINE
  5
4B3
330
1F
100
AcDbEntity
  8
D-2
  6
Continuous
 62
     3
370
     9
100
AcDbLine
 10
250.5430184133947
 20
-434.6599815014288
 30
0.0
 11
220.5432402255211
 21
-434.6599815014288
 31
0.0
  0
LINE
  5
4B4
330
1F
100
AcDbEntity
  8
D-2
  6
Continuous
 62
     3
370
     9
100
AcDbLine
 10
278.1247253993984
 20
-359.714603400419
 30
0.0
 11
285.4616148357447
 21
-359.714603400419
 31
0.0
  0
LINE
  5
4B5
330
1F
100
AcDbEntity
  8
D-2
  6
Continuous
 62
     3
370
     9
100
AcDbLine
 10
278.1247253993984
 20
-342.3230206315623
 30
0.0
 11
285.4616148357447
 21
-342.3230206315623
 31
0.0
  0
LINE
  5
4B6
330
1F
100
AcDbEntity
  8
D-2
  6
Continuous
 62
     3
370
     9
100
AcDbLine
 10
278.1247253993984
 20
-334.4425704159835
 30
0.0
 11
285.4616148357447
 21
-334.4425704159835
 31
0.0
  0
LINE
  5
4B7
330
1F
100
AcDbEntity
  8
D-2
  6
Continuous
 62
     3
370
     9
100
AcDbLine
 10
278.1247253993984
 20
-333.6274917100889
 30
0.0
 11
285.4616148357447
 21
-333.6274917100889
 31
0.0
  0
LINE
  5
4B8
330
1F
100
AcDbEntity
  8
D-2
  6
Continuous
 62
     3
370
     9
100
AcDbLine
 10
281.7929076546169
 20
-347.4861918768866
 30
0.0
 11
281.7929076546169
 21
-346.6709819395152
 31
0.0
  0
LINE
  5
4B9
330
1F
100
AcDbEntity
  8
D-2
  6
Continuous
 62
     3
370
     9
100
AcDbLine
 10
283.6952391504544
 20
-347.4861918768866
 30
0.0
 11
285.4616148357447
 21
-347.4861918768866
 31
0.0
  0
LINE
  5
4BA
330
1F
100
AcDbEntity
  8
D-2
  6
Continuous
 62
     3
370
     9
100
AcDbLine
 10
283.6952391504544
 20
-347.4861918768866
 30
0.0
 11
283.6952391504544
 21
-346.6709819395152
 31
0.0
  0
LINE
  5
4BB
330
1F
100
AcDbEntity
  8
D-2
  6
Continuous
 62
     3
370
     9
100
AcDbLine
 10
283.6952391504544
 20
-346.6709819395152
 30
0.0
 11
285.4616148357447
 21
-346.6709819395152
 31
0.0
  0
LINE
  5
4BC
330
1F
100
AcDbEntity
  8
D-2
  6
Continuous
 62
     3
370
     9
100
AcDbLine
 10
278.1247253993984
 20
-338.3829267552503
 30
0.0
 11
281.6572143070245
 21
-337.2958051967845
 31
0.0
  0
LINE
  5
4BD
330
1F
100
AcDbEntity
  8
D-2
  6
Continuous
 62
     3
370
     9
100
AcDbLine
 10
282.8120513078086
 20
-339.469785850761
 30
0.0
 11
285.4616148357447
 21
-339.469785850761
 31
0.0
  0
LINE
  5
4BE
330
1F
100
AcDbEntity
  8
D-2
  6
Continuous
 62
     3
370
     9
100
AcDbLine
 10
285.4616148357447
 20
-338.654575913389
 30
0.0
 11
282.8120513078086
 21
-339.469785850761
 31
0.0
  0
LINE
  5
4BF
330
1F
100
AcDbEntity
  8
D-2
  6
Continuous
 62
     3
370
     9
100
AcDbLine
 10
278.1247253993984
 20
-337.2958051967845
 30
0.0
 11
281.6572143070245
 21
-337.2958051967845
 31
0.0
  0
LINE
  5
4C0
330
1F
100
AcDbEntity
  8
D-2
  6
Continuous
 62
     3
370
     9
100
AcDbLine
 10
283.1516783712214
 20
-326.2903398107881
 30
0.0
 11
283.1516783712214
 21
-322.7577196716842
 31
0.0
  0
LINE
  5
4C1
330
1F
100
AcDbEntity
  8
D-2
  6
Continuous
 62
     3
370
     9
100
AcDbLine
 10
280.4343994009669
 20
-321.9425097343125
 30
0.0
 11
280.4343994009669
 21
-318.409758363732
 31
0.0
  0
LINE
  5
4C2
330
1F
100
AcDbEntity
  8
D-2
  6
Continuous
 62
     3
370
     9
100
AcDbLine
 10
278.1247253993984
 20
-356.1819832613151
 30
0.0
 11
280.841741906698
 21
-356.1819832613151
 31
0.0
  0
LINE
  5
4C3
330
1F
100
AcDbEntity
  8
D-2
  6
Continuous
 62
     3
370
     9
100
AcDbLine
 10
285.4616148357447
 20
-356.1819832613151
 30
0.0
 11
282.7440734025352
 21
-356.1819832613151
 31
0.0
  0
LINE
  5
4C4
330
1F
100
AcDbEntity
  8
D-2
  6
Continuous
 62
     3
370
     9
100
AcDbLine
 10
280.9099822749262
 20
-330.2305649185774
 30
0.0
 11
280.9099822749262
 21
-327.1055497481595
 31
0.0
  0
LINE
  5
4C5
330
1F
100
AcDbEntity
  8
D-2
  6
Continuous
 62
     3
370
     9
100
AcDbLine
 10
280.2304656851466
 20
-330.2305649185774
 30
0.0
 11
280.9099822749262
 21
-330.2305649185774
 31
0.0
  0
LINE
  5
4C6
330
1F
100
AcDbEntity
  8
D-2
  6
Continuous
 62
     3
370
     9
100
AcDbLine
 10
280.2304656851466
 20
-330.2305649185774
 30
0.0
 11
280.2304656851466
 21
-327.1055497481595
 31
0.0
  0
LINE
  5
4C7
330
1F
100
AcDbEntity
  8
D-2
  6
Continuous
 62
     3
370
     9
100
AcDbLine
 10
282.6763579602165
 20
-330.2305649185774
 30
0.0
 11
282.6763579602165
 21
-327.1055497481595
 31
0.0
  0
LINE
  5
4C8
330
1F
100
AcDbEntity
  8
D-2
  6
Continuous
 62
     3
370
     9
100
AcDbLine
 10
282.6763579602165
 20
-330.2305649185774
 30
0.0
 11
283.3556120870417
 21
-330.2305649185774
 31
0.0
  0
LINE
  5
4C9
330
1F
100
AcDbEntity
  8
D-2
  6
Continuous
 62
     3
370
     9
100
AcDbLine
 10
283.3556120870417
 20
-330.2305649185774
 30
0.0
 11
283.3556120870417
 21
-327.1055497481595
 31
0.0
  0
LINE
  5
4CA
330
1F
100
AcDbEntity
  8
D-2
  6
Continuous
 62
     3
370
     9
100
AcDbLine
 10
278.1247253993984
 20
-342.3230206315623
 30
0.0
 11
278.1247253993984
 21
-338.3829267552503
 31
0.0
  0
LINE
  5
4CB
330
1F
100
AcDbEntity
  8
D-2
  6
Continuous
 62
     3
370
     9
100
AcDbLine
 10
278.1247253993984
 20
-337.2958051967845
 30
0.0
 11
278.1247253993984
 21
-334.4425704159835
 31
0.0
  0
LINE
  5
4CC
330
1F
100
AcDbEntity
  8
D-2
  6
Continuous
 62
     3
370
     9
100
AcDbLine
 10
278.1247253993984
 20
-333.6274917100889
 30
0.0
 11
278.1247253993984
 21
-327.1055497481595
 31
0.0
  0
LINE
  5
4CD
330
1F
100
AcDbEntity
  8
D-2
  6
Continuous
 62
     3
370
     9
100
AcDbLine
 10
285.4616148357447
 20
-333.6274917100889
 30
0.0
 11
285.4616148357447
 21
-327.1055497481595
 31
0.0
  0
LINE
  5
4CE
330
1F
100
AcDbEntity
  8
D-2
  6
Continuous
 62
     3
370
     9
100
AcDbLine
 10
285.4616148357447
 20
-338.654575913389
 30
0.0
 11
285.4616148357447
 21
-334.4425704159835
 31
0.0
  0
LINE
  5
4CF
330
1F
100
AcDbEntity
  8
D-2
  6
Continuous
 62
     3
370
     9
100
AcDbLine
 10
285.4616148357447
 20
-342.3230206315623
 30
0.0
 11
285.4616148357447
 21
-339.469785850761
 31
0.0
  0
LINE
  5
4D0
330
1F
100
AcDbEntity
  8
D-2
  6
Continuous
 62
     3
370
     9
100
AcDbLine
 10
285.4616148357447
 20
-346.6709819395152
 30
0.0
 11
285.4616148357447
 21
-343.1382305689343
 31
0.0
  0
LINE
  5
4D1
330
1F
100
AcDbEntity
  8
D-2
  6
Continuous
 62
     3
370
     9
100
AcDbLine
 10
285.4616148357447
 20
-351.0189432474681
 30
0.0
 11
285.4616148357447
 21
-347.4861918768866
 31
0.0
  0
LINE
  5
4D2
330
1F
100
AcDbEntity
  8
D-2
  6
Continuous
 62
     3
370
     9
100
AcDbLine
 10
278.1247253993984
 20
-359.714603400419
 30
0.0
 11
278.1247253993984
 21
-356.1819832613151
 31
0.0
  0
LINE
  5
4D3
330
1F
100
AcDbEntity
  8
D-2
  6
Continuous
 62
     3
370
     9
100
AcDbLine
 10
278.1247253993984
 20
-355.3667733239433
 30
0.0
 11
278.1247253993984
 21
-351.8341531848395
 31
0.0
  0
LINE
  5
4D4
330
1F
100
AcDbEntity
  8
D-2
  6
Continuous
 62
     3
370
     9
100
AcDbLine
 10
285.4616148357447
 20
-359.714603400419
 30
0.0
 11
285.4616148357447
 21
-356.1819832613151
 31
0.0
  0
LINE
  5
4D5
330
1F
100
AcDbEntity
  8
D-2
  6
Continuous
 62
     3
370
     9
100
AcDbLine
 10
285.4616148357447
 20
-355.3667733239433
 30
0.0
 11
285.4616148357447
 21
-351.8341531848395
 31
0.0
  0
LINE
  5
4D6
330
1F
100
AcDbEntity
  8
D-2
  6
Continuous
 62
     3
370
     9
100
AcDbLine
 10
279.2113220319546
 20
-309.7140982107812
 30
0.0
 11
284.3744932772789
 21
-309.7140982107812
 31
0.0
  0
LINE
  5
4D7
330
1F
100
AcDbEntity
  8
D-2
  6
Continuous
 62
     3
370
     9
100
AcDbLine
 10
278.1247253993984
 20
-316.5075580993716
 30
0.0
 11
278.1247253993984
 21
-310.8012197692464
 31
0.0
  0
LINE
  5
4D8
330
1F
100
AcDbEntity
  8
D-2
  6
Continuous
 62
     3
370
     9
100
AcDbLine
 10
284.3744932772789
 20
-317.5945484263599
 30
0.0
 11
279.2113220319546
 21
-317.5945484263599
 31
0.0
  0
LINE
  5
4D9
330
1F
100
AcDbEntity
  8
D-2
  6
Continuous
 62
     3
370
     9
100
AcDbLine
 10
285.4616148357447
 20
-316.5075580993716
 30
0.0
 11
285.4616148357447
 21
-310.8012197692464
 31
0.0
  0
LINE
  5
4DA
330
1F
100
AcDbEntity
  8
D-2
  6
Continuous
 62
     3
370
     9
100
AcDbLine
 10
278.1247253993984
 20
-325.2033494837997
 30
0.0
 11
278.1247253993984
 21
-319.4968799221971
 31
0.0
  0
LINE
  5
4DB
330
1F
100
AcDbEntity
  8
D-2
  6
Continuous
 62
     3
370
     9
100
AcDbLine
 10
285.4616148357447
 20
-325.2033494837997
 30
0.0
 11
285.4616148357447
 21
-319.4968799221971
 31
0.0
  0
LINE
  5
4DC
330
1F
100
AcDbEntity
  8
D-2
  6
Continuous
 62
     3
370
     9
100
AcDbLine
 10
284.3744932772789
 20
-326.2903398107881
 30
0.0
 11
283.1516783712214
 21
-326.2903398107881
 31
0.0
  0
LINE
  5
4DD
330
1F
100
AcDbEntity
  8
D-2
  6
Continuous
 62
     3
370
     9
100
AcDbLine
 10
280.4343994009669
 20
-318.409758363732
 30
0.0
 11
279.2113220319546
 21
-318.409758363732
 31
0.0
  0
LINE
  5
4DE
330
1F
100
AcDbEntity
  8
D-2
  6
Continuous
 62
     3
370
     9
100
AcDbLine
 10
281.5212584964776
 20
-326.2903398107881
 30
0.0
 11
279.2113220319546
 21
-326.2903398107881
 31
0.0
  0
LINE
  5
4DF
330
1F
100
AcDbEntity
  8
D-2
  6
Continuous
 62
     3
370
     9
100
AcDbLine
 10
282.0648192757106
 20
-318.409758363732
 30
0.0
 11
284.3744932772789
 21
-318.409758363732
 31
0.0
  0
LINE
  5
4E0
330
1F
100
AcDbEntity
  8
D-2
  6
Continuous
 62
     3
370
     9
100
AcDbLine
 10
279.2113220319546
 20
-351.0189432474681
 30
0.0
 11
285.4616148357447
 21
-351.0189432474681
 31
0.0
  0
LINE
  5
4E1
330
1F
100
AcDbEntity
  8
D-2
  6
Continuous
 62
     3
370
     9
100
AcDbLine
 10
278.1247253993984
 20
-344.2253521273994
 30
0.0
 11
278.1247253993984
 21
-349.9318216890023
 31
0.0
  0
LINE
  5
4E2
330
1F
100
AcDbEntity
  8
D-2
  6
Continuous
 62
     3
370
     9
100
AcDbLine
 10
279.2113220319546
 20
-343.1382305689343
 30
0.0
 11
285.4616148357447
 21
-343.1382305689343
 31
0.0
  0
LINE
  5
4E3
330
1F
100
AcDbEntity
  8
D-2
  6
Continuous
 62
     3
370
     9
100
AcDbLine
 10
280.4343994009669
 20
-314.0620595187335
 30
0.0
 11
283.1516783712214
 21
-314.0620595187335
 31
0.0
  0
LINE
  5
4E4
330
1F
100
AcDbEntity
  8
D-2
  6
Continuous
 62
     3
370
     9
100
AcDbLine
 10
280.4343994009669
 20
-313.2468495813621
 30
0.0
 11
283.1516783712214
 21
-313.2468495813621
 31
0.0
  0
LINE
  5
4E5
330
1F
100
AcDbEntity
  8
D-2
  6
Continuous
 62
     3
370
     9
100
AcDbLine
 10
280.0267944322811
 20
-321.9425097343125
 30
0.0
 11
280.4343994009669
 21
-321.9425097343125
 31
0.0
  0
LINE
  5
4E6
330
1F
100
AcDbEntity
  8
D-2
  6
Continuous
 62
     3
370
     9
100
AcDbLine
 10
280.5703552115138
 20
-322.7577196716842
 30
0.0
 11
280.0267944322811
 21
-322.7577196716842
 31
0.0
  0
LINE
  5
4E7
330
1F
100
AcDbEntity
  8
D-2
  6
Continuous
 62
     3
370
     9
100
AcDbLine
 10
280.9776977172449
 20
-322.3501147029987
 30
0.0
 11
280.9776977172449
 21
-319.4968799221971
 31
0.0
  0
LINE
  5
4E8
330
1F
100
AcDbEntity
  8
D-2
  6
Continuous
 62
     3
370
     9
100
AcDbLine
 10
282.6081175919883
 20
-322.3501147029987
 30
0.0
 11
282.6081175919883
 21
-325.2033494837997
 31
0.0
  0
LINE
  5
4E9
330
1F
100
AcDbEntity
  8
D-2
  6
Continuous
 62
     3
370
     9
100
AcDbLine
 10
283.1516783712214
 20
-322.7577196716842
 30
0.0
 11
283.5592833399075
 21
-322.7577196716842
 31
0.0
  0
LINE
  5
4EA
330
1F
100
AcDbEntity
  8
D-2
  6
Continuous
 62
     3
370
     9
100
AcDbLine
 10
283.015985023629
 20
-321.9425097343125
 30
0.0
 11
283.5592833399075
 21
-321.9425097343125
 31
0.0
  0
LINE
  5
4EB
330
1F
100
AcDbEntity
  8
D-2
  6
Continuous
 62
     3
370
     9
100
AcDbLine
 10
283.3556120870417
 20
-327.1055497481595
 30
0.0
 11
285.4616148357447
 21
-327.1055497481595
 31
0.0
  0
LINE
  5
4EC
330
1F
100
AcDbEntity
  8
D-2
  6
Continuous
 62
     3
370
     9
100
AcDbLine
 10
278.1247253993984
 20
-327.1055497481595
 30
0.0
 11
280.2304656851466
 21
-327.1055497481595
 31
0.0
  0
LINE
  5
4ED
330
1F
100
AcDbEntity
  8
D-2
  6
Continuous
 62
     3
370
     9
100
AcDbLine
 10
280.9099822749262
 20
-327.1055497481595
 30
0.0
 11
282.6763579602165
 21
-327.1055497481595
 31
0.0
  0
LINE
  5
4EE
330
1F
100
AcDbEntity
  8
D-2
  6
Continuous
 62
     3
370
     9
100
AcDbLine
 10
280.4343994009669
 20
-347.4861918768866
 30
0.0
 11
281.7929076546169
 21
-347.4861918768866
 31
0.0
  0
LINE
  5
4EF
330
1F
100
AcDbEntity
  8
D-2
  6
Continuous
 62
     3
370
     9
100
AcDbLine
 10
280.4343994009669
 20
-346.6709819395152
 30
0.0
 11
281.7929076546169
 21
-346.6709819395152
 31
0.0
  0
LINE
  5
4F0
330
1F
100
AcDbEntity
  8
D-2
  6
Continuous
 62
     3
370
     9
100
AcDbLine
 10
282.7440734025352
 20
-355.7742470611518
 30
0.0
 11
282.7440734025352
 21
-356.1819832613151
 31
0.0
  0
LINE
  5
4F1
330
1F
100
AcDbEntity
  8
D-2
  6
Continuous
 62
     3
370
     9
100
AcDbLine
 10
283.1516783712214
 20
-355.3667733239433
 30
0.0
 11
285.4616148357447
 21
-355.3667733239433
 31
0.0
  0
LINE
  5
4F2
330
1F
100
AcDbEntity
  8
D-2
  6
Continuous
 62
     3
370
     9
100
AcDbLine
 10
280.841741906698
 20
-355.7742470611518
 30
0.0
 11
280.841741906698
 21
-356.1819832613151
 31
0.0
  0
LINE
  5
4F3
330
1F
100
AcDbEntity
  8
D-2
  6
Continuous
 62
     3
370
     9
100
AcDbLine
 10
280.4343994009669
 20
-355.3667733239433
 30
0.0
 11
278.1247253993984
 21
-355.3667733239433
 31
0.0
  0
LINE
  5
4F4
330
1F
100
AcDbEntity
  8
D-2
  6
Continuous
 62
     3
370
     9
100
AcDbLine
 10
279.9021245287874
 20
-351.8341531848395
 30
0.0
 11
278.1247253993984
 21
-351.8341531848395
 31
0.0
  0
LINE
  5
4F5
330
1F
100
AcDbEntity
  8
D-2
  6
Continuous
 62
     3
370
     9
100
AcDbLine
 10
283.6839532434012
 20
-351.8341531848395
 30
0.0
 11
285.4616148357447
 21
-351.8341531848395
 31
0.0
  0
LINE
  5
4F6
330
1F
100
AcDbEntity
  8
D-2
  6
Continuous
 62
     3
370
     9
100
AcDbLine
 10
281.5125972189718
 20
-353.2094590675916
 30
0.0
 11
281.7144312311543
 21
-354.4843728701622
 31
0.0
  0
LINE
  5
4F7
330
1F
100
AcDbEntity
  8
D-2
  6
Continuous
 62
     3
370
     9
100
AcDbLine
 10
282.0737430161712
 20
-353.2094590675916
 30
0.0
 11
281.8716465410337
 21
-354.4843728701622
 31
0.0
  0
ARC
  5
4F8
330
1F
100
AcDbEntity
  8
D-2
  6
Continuous
 62
     3
370
     9
100
AcDbCircle
 10
220.5432402255211
 20
-430.2849865091393
 30
0.0
 40
3.749999955123916
100
AcDbArc
 50
180.0
 51
270.0
  0
ARC
  5
4F9
330
1F
100
AcDbEntity
  8
D-2
  6
Continuous
 62
     3
370
     9
100
AcDbCircle
 10
250.5430184133947
 20
-430.2849865091393
 30
0.0
 40
3.749999955123916
100
AcDbArc
 50
270.0
 51
0.0
  0
ARC
  5
4FA
330
1F
100
AcDbEntity
  8
D-2
  6
Continuous
 62
     3
370
     9
100
AcDbCircle
 10
220.5432402255212
 20
-237.7849443854558
 30
0.0
 40
3.749999955123916
100
AcDbArc
 50
90.0
 51
180.0
  0
ARC
  5
4FB
330
1F
100
AcDbEntity
  8
D-2
  6
Continuous
 62
     3
370
     9
100
AcDbCircle
 10
250.5430184133947
 20
-237.7849443854558
 30
0.0
 40
3.749999955123916
100
AcDbArc
 50
0.0
 51
90.0
  0
ARC
  5
4FC
330
1F
100
AcDbEntity
  8
D-2
  6
Continuous
 62
     3
370
     9
100
AcDbCircle
 10
178.0431388930227
 20
-205.2849440908844
 30
0.0
 40
3.749999955123916
100
AcDbArc
 50
90.0
 51
180.0
  0
ARC
  5
4FD
330
1F
100
AcDbEntity
  8
D-2
  6
Continuous
 62
     3
370
     9
100
AcDbCircle
 10
178.0431388930227
 20
-462.7848555722334
 30
0.0
 40
3.749999955123916
100
AcDbArc
 50
180.0
 51
270.0
  0
ARC
  5
4FE
330
1F
100
AcDbEntity
  8
D-2
  6
Continuous
 62
     3
370
     9
100
AcDbCircle
 10
293.0431197458934
 20
-462.7848555722334
 30
0.0
 40
3.749999955123916
100
AcDbArc
 50
270.0
 51
0.0
  0
ARC
  5
4FF
330
1F
100
AcDbEntity
  8
D-2
  6
Continuous
 62
     3
370
     9
100
AcDbCircle
 10
293.0431197458934
 20
-205.2849440908844
 30
0.0
 40
3.749999955123916
100
AcDbArc
 50
0.0
 51
90.0
  0
ARC
  5
500
330
1F
100
AcDbEntity
  8
D-2
  6
Continuous
 62
     3
370
     9
100
AcDbCircle
 10
220.5432402255212
 20
-237.7849443854558
 30
0.0
 40
4.37499960589593
100
AcDbArc
 50
90.0
 51
180.0
  0
ARC
  5
501
330
1F
100
AcDbEntity
  8
D-2
  6
Continuous
 62
     3
370
     9
100
AcDbCircle
 10
250.5430184133947
 20
-237.7849443854558
 30
0.0
 40
4.37499960589593
100
AcDbArc
 50
0.0
 51
90.0
  0
ARC
  5
502
330
1F
100
AcDbEntity
  8
D-2
  6
Continuous
 62
     3
370
     9
100
AcDbCircle
 10
220.5432402255211
 20
-430.2849865091393
 30
0.0
 40
4.37499960589593
100
AcDbArc
 50
180.0
 51
270.0
  0
ARC
  5
503
330
1F
100
AcDbEntity
  8
D-2
  6
Continuous
 62
     3
370
     9
100
AcDbCircle
 10
250.5430184133947
 20
-430.2849865091393
 30
0.0
 40
4.37499960589593
100
AcDbArc
 50
270.0
 51
0.0
  0
ARC
  5
504
330
1F
100
AcDbEntity
  8
D-2
  6
Continuous
 62
     3
370
     9
100
AcDbCircle
 10
284.3744932772789
 20
-310.8012197692464
 30
0.0
 40
1.086966490020623
100
AcDbArc
 50
0.0
 51
90.0
  0
ARC
  5
505
330
1F
100
AcDbEntity
  8
D-2
  6
Continuous
 62
     3
370
     9
100
AcDbCircle
 10
279.2113220319546
 20
-310.8012197692464
 30
0.0
 40
1.086966490020623
100
AcDbArc
 50
90.0
 51
180.0
  0
ARC
  5
506
330
1F
100
AcDbEntity
  8
D-2
  6
Continuous
 62
     3
370
     9
100
AcDbCircle
 10
279.2113220319546
 20
-316.5075580993716
 30
0.0
 40
1.086966490020623
100
AcDbArc
 50
180.0
 51
270.0
  0
ARC
  5
507
330
1F
100
AcDbEntity
  8
D-2
  6
Continuous
 62
     3
370
     9
100
AcDbCircle
 10
284.3744932772789
 20
-316.5075580993716
 30
0.0
 40
1.086966490020623
100
AcDbArc
 50
270.0
 51
0.0
  0
ARC
  5
508
330
1F
100
AcDbEntity
  8
D-2
  6
Continuous
 62
     3
370
     9
100
AcDbCircle
 10
279.2113220319546
 20
-319.4968799221971
 30
0.0
 40
1.086966490020623
100
AcDbArc
 50
90.0
 51
180.0
  0
ARC
  5
509
330
1F
100
AcDbEntity
  8
D-2
  6
Continuous
 62
     3
370
     9
100
AcDbCircle
 10
284.3744932772789
 20
-319.4968799221971
 30
0.0
 40
1.086966490020623
100
AcDbArc
 50
0.0
 51
90.0
  0
ARC
  5
50A
330
1F
100
AcDbEntity
  8
D-2
  6
Continuous
 62
     3
370
     9
100
AcDbCircle
 10
279.2113220319546
 20
-325.2033494837997
 30
0.0
 40
1.086966490020623
100
AcDbArc
 50
180.0
 51
270.0
  0
ARC
  5
50B
330
1F
100
AcDbEntity
  8
D-2
  6
Continuous
 62
     3
370
     9
100
AcDbCircle
 10
284.3744932772789
 20
-325.2033494837997
 30
0.0
 40
1.086966490020623
100
AcDbArc
 50
270.0
 51
0.0
  0
ARC
  5
50C
330
1F
100
AcDbEntity
  8
D-2
  6
Continuous
 62
     3
370
     9
100
AcDbCircle
 10
281.5212584964776
 20
-325.2033494837997
 30
0.0
 40
1.086966490020623
100
AcDbArc
 50
270.0
 51
0.0
  0
ARC
  5
50D
330
1F
100
AcDbEntity
  8
D-2
  6
Continuous
 62
     3
370
     9
100
AcDbCircle
 10
282.0648192757106
 20
-319.4968799221971
 30
0.0
 40
1.086966490020623
100
AcDbArc
 50
90.0
 51
180.0
  0
ARC
  5
50E
330
1F
100
AcDbEntity
  8
D-2
  6
Continuous
 62
     3
370
     9
100
AcDbCircle
 10
279.2113220319546
 20
-349.9318216890023
 30
0.0
 40
1.086966490020623
100
AcDbArc
 50
180.0
 51
270.0
  0
ARC
  5
50F
330
1F
100
AcDbEntity
  8
D-2
  6
Continuous
 62
     3
370
     9
100
AcDbCircle
 10
279.2113220319546
 20
-344.2253521273994
 30
0.0
 40
1.086966490020623
100
AcDbArc
 50
90.0
 51
180.0
  0
ARC
  5
510
330
1F
100
AcDbEntity
  8
D-2
  6
Continuous
 62
     3
370
     9
100
AcDbCircle
 10
280.4343994009669
 20
-313.6544545500479
 30
0.0
 40
0.4076137473540647
100
AcDbArc
 50
90.0
 51
270.0
  0
ARC
  5
511
330
1F
100
AcDbEntity
  8
D-2
  6
Continuous
 62
     3
370
     9
100
AcDbCircle
 10
283.1516783712214
 20
-313.6544545500479
 30
0.0
 40
0.4076137473540647
100
AcDbArc
 50
270.0
 51
90.0
  0
ARC
  5
512
330
1F
100
AcDbEntity
  8
D-2
  6
Continuous
 62
     3
370
     9
100
AcDbCircle
 10
280.0267944322811
 20
-322.3501147029987
 30
0.0
 40
0.4076137473540647
100
AcDbArc
 50
90.0
 51
270.0
  0
ARC
  5
513
330
1F
100
AcDbEntity
  8
D-2
  6
Continuous
 62
     3
370
     9
100
AcDbCircle
 10
280.5703552115138
 20
-322.3501147029987
 30
0.0
 40
0.4076123696798639
100
AcDbArc
 50
270.0
 51
0.0
  0
ARC
  5
514
330
1F
100
AcDbEntity
  8
D-2
  6
Continuous
 62
     3
370
     9
100
AcDbCircle
 10
283.015985023629
 20
-322.3501147029987
 30
0.0
 40
0.4076123696798639
100
AcDbArc
 50
90.0
 51
180.0
  0
ARC
  5
515
330
1F
100
AcDbEntity
  8
D-2
  6
Continuous
 62
     3
370
     9
100
AcDbCircle
 10
283.5592833399075
 20
-322.3501147029987
 30
0.0
 40
0.4076137473540647
100
AcDbArc
 50
270.0
 51
90.0
  0
ARC
  5
516
330
1F
100
AcDbEntity
  8
D-2
  6
Continuous
 62
     3
370
     9
100
AcDbCircle
 10
280.4343994009669
 20
-347.078586908201
 30
0.0
 40
0.4076104153048348
100
AcDbArc
 50
90.0
 51
270.0
  0
ARC
  5
517
330
1F
100
AcDbEntity
  8
D-2
  6
Continuous
 62
     3
370
     9
100
AcDbCircle
 10
283.1516783712214
 20
-355.7742470611518
 30
0.0
 40
0.4076123696798639
100
AcDbArc
 50
90.0
 51
180.0
  0
ARC
  5
518
330
1F
100
AcDbEntity
  8
D-2
  6
Continuous
 62
     3
370
     9
100
AcDbCircle
 10
280.4343994009669
 20
-355.7742470611518
 30
0.0
 40
0.4076123696798639
100
AcDbArc
 50
0.0
 51
90.0
  0
ARC
  5
519
330
1F
100
AcDbEntity
  8
D-2
  6
Continuous
 62
     3
370
     9
100
AcDbCircle
 10
279.9021245287874
 20
-353.4645730595832
 30
0.0
 40
1.630449478719455
100
AcDbArc
 50
9.00006103515625
 51
90.0
  0
ARC
  5
51A
330
1F
100
AcDbEntity
  8
D-2
  6
Continuous
 62
     3
370
     9
100
AcDbCircle
 10
283.6839532434012
 20
-353.4645730595832
 30
0.0
 40
1.630449478719455
100
AcDbArc
 50
90.0
 51
170.9999389648438
  0
ARC
  5
51B
330
1F
100
AcDbEntity
  8
D-2
  6
Continuous
 62
     3
370
     9
100
AcDbCircle
 10
281.7929076546169
 20
-354.4719058798128
 30
0.0
 40
0.0795561195491421
100
AcDbArc
 50
189.0005645751953
 51
350.9994354248047
  0
ARC
  5
51C
330
1F
100
AcDbEntity
  8
D-2
  6
Continuous
 62
     3
370
     9
100
AcDbCircle
 10
235.5432605509354
 20
-334.0349654472973
 30
0.0
 40
29.99999964099133
100
AcDbArc
 50
310.228256225586
 51
49.77174377441411
  0
ARC
  5
51D
330
1F
100
AcDbEntity
  8
D-2
  6
Continuous
 62
     3
370
     9
100
AcDbCircle
 10
235.5432605509354
 20
-334.0349654472973
 30
0.0
 40
29.99999964099133
100
AcDbArc
 50
130.2282562255859
 51
229.7717437744141
  0
ARC
  5
51E
330
1F
100
AcDbEntity
  8
D-2
  6
Continuous
 62
     3
370
     9
100
AcDbCircle
 10
235.5432605509354
 20
-334.0349654472973
 30
0.0
 40
32.49999619358754
100
AcDbArc
 50
126.5950012207031
 51
233.4049987792968
  0
ARC
  5
51F
330
1F
100
AcDbEntity
  8
D-2
  6
Continuous
 62
     3
370
     9
100
AcDbCircle
 10
235.5432605509354
 20
-334.0349654472973
 30
0.0
 40
32.49999619358754
100
AcDbArc
 50
306.5950012207031
 51
53.40499877929689
  0
LINE
  5
520
330
1F
100
AcDbEntity
  8
D-2
  6
JWW_CENTER1
 62
     3
370
     9
100
AcDbLine
 10
165.2933306588852
 20
-334.0349654472973
 30
0.0
 11
305.7931904429855
 21
-334.0349654472973
 31
0.0
  0
LINE
  5
521
330
1F
100
AcDbEntity
  8
D-2
  6
JWW_CENTER1
 62
     3
370
     9
100
AcDbLine
 10
235.5432605509354
 20
-195.5047213932761
 30
0.0
 11
235.5432605509354
 21
-472.4573372269268
 31
0.0
  0
LINE
  5
522
330
1F
100
AcDbEntity
  8
D-2
  6
Continuous
 62
     7
370
     9
100
AcDbLine
 10
174.2931389378988
 20
-141.0472473537934
 30
0.0
 11
296.7931197010174
 21
-141.0472473537934
 31
0.0
  0
LWPOLYLINE
  5
523
330
1F
100
AcDbEntity
  8
D-2
  6
Continuous
 62
     7
370
     9
100
AcDbPolyline
 90
        4
 70
     1
 43
1.0
 10
174.7931389378988
 20
-141.0472473537934
 42
0.4142135623731
 10
174.2931389378988
 20
-140.5472473537934
 42
0.4142135623731
 10
173.7931389378988
 20
-141.0472473537934
 42
0.4142135623731
 10
174.2931389378988
 20
-141.5472473537934
 42
0.4142135623731
  0
LWPOLYLINE
  5
524
330
1F
100
AcDbEntity
  8
D-2
  6
Continuous
 62
     7
370
     9
100
AcDbPolyline
 90
        4
 70
     1
 43
1.0
 10
297.2931197010174
 20
-141.0472473537934
 42
0.4142135623731
 10
296.7931197010174
 20
-140.5472473537934
 42
0.4142135623731
 10
296.2931197010174
 20
-141.0472473537934
 42
0.4142135623731
 10
296.7931197010174
 20
-141.5472473537934
 42
0.4142135623731
  0
LINE
  5
525
330
1F
100
AcDbEntity
  8
D-2
  6
Continuous
 62
     7
370
     9
100
AcDbLine
 10
174.2931389378988
 20
-139.5472473537934
 30
0.0
 11
174.2931389378988
 21
-195.2849440908844
 31
0.0
  0
LINE
  5
526
330
1F
100
AcDbEntity
  8
D-2
  6
Continuous
 62
     7
370
     9
100
AcDbLine
 10
296.7931197010174
 20
-139.5472473537934
 30
0.0
 11
296.7931197010174
 21
-195.2849440908844
 31
0.0
  0
TEXT
  5
527
330
1F
100
AcDbEntity
  8
D-2
  6
Continuous
 62
     2
370
   211
100
AcDbText
 10
224.9181293194581
 20
-135.2272473537934
 30
0.0
 40
15.24
  1
49
 41
1.0625
  7
ＭＳ ゴシック
100
AcDbText
  0
LINE
  5
528
330
1F
100
AcDbEntity
  8
D-4
  6
Continuous
 62
     7
370
     9
100
AcDbLine
 10
381.6450830820176
 20
-201.5348733937919
 30
0.0
 11
381.6450830820176
 21
-466.5349262693256
 31
0.0
  0
LWPOLYLINE
  5
529
330
1F
100
AcDbEntity
  8
D-4
  6
Continuous
 62
     7
370
     9
100
AcDbPolyline
 90
        4
 70
     1
 43
1.0
 10
382.1450830820175
 20
-201.5348733937919
 42
0.4142135623731
 10
381.6450830820176
 20
-201.0348733937919
 42
0.4142135623731
 10
381.1450830820177
 20
-201.5348733937919
 42
0.4142135623731
 10
381.6450830820176
 20
-202.0348733937919
 42
0.4142135623731
  0
LWPOLYLINE
  5
52A
330
1F
100
AcDbEntity
  8
D-4
  6
Continuous
 62
     7
370
     9
100
AcDbPolyline
 90
        4
 70
     1
 43
1.0
 10
382.1450830820175
 20
-466.5349262693256
 42
0.4142135623731
 10
381.6450830820176
 20
-466.0349262693256
 42
0.4142135623731
 10
381.1450830820177
 20
-466.5349262693256
 42
0.4142135623731
 10
381.6450830820176
 20
-467.0349262693256
 42
0.4142135623731
  0
LINE
  5
52B
330
1F
100
AcDbEntity
  8
D-4
  6
Continuous
 62
     7
370
     9
100
AcDbLine
 10
383.1450830820176
 20
-201.5348733937919
 30
0.0
 11
303.0431197458934
 21
-201.5348733937919
 31
0.0
  0
LINE
  5
52C
330
1F
100
AcDbEntity
  8
D-4
  6
Continuous
 62
     7
370
     9
100
AcDbLine
 10
383.1450830820176
 20
-466.5349262693256
 30
0.0
 11
303.0431197458935
 21
-466.5349262693256
 31
0.0
  0
TEXT
  5
52D
330
1F
100
AcDbEntity
  8
D-4
  6
Continuous
 62
     2
370
   211
100
AcDbText
 10
375.8250830820177
 20
-350.2848998315587
 30
0.0
 40
15.24
  1
106
 50
90.0
 41
1.083333333333333
  7
ＭＳ ゴシック
100
AcDbText
  0
LINE
  5
52E
330
1F
100
AcDbEntity
  8
D-6
  6
Continuous
 62
     6
370
     9
100
AcDbLine
 10
285.5096186989279
 20
300.4342404589295
 30
0.0
 11
285.5096186989279
 21
280.4341065602018
 31
0.0
  0
LINE
  5
52F
330
1F
100
AcDbEntity
  8
D-6
  6
Continuous
 62
     6
370
     9
100
AcDbLine
 10
604.2064710787566
 20
300.4341725441545
 30
0.0
 11
285.5096186989279
 21
300.4341725441545
 31
0.0
  0
LINE
  5
530
330
1F
100
AcDbEntity
  8
D-6
  6
Continuous
 62
     6
370
     9
100
AcDbLine
 10
285.5096186989279
 20
282.4660053034363
 30
0.0
 11
303.478008240918
 21
300.4341725441545
 31
0.0
  0
LINE
  5
531
330
1F
100
AcDbEntity
  8
D-6
  6
JWW_DASHED1
 62
     6
370
     9
100
AcDbLine
 10
285.5096186989279
 20
294.9663751943741
 30
0.0
 11
290.9773484013909
 21
300.4341725441545
 31
0.0
  0
LINE
  5
532
330
1F
100
AcDbEntity
  8
D-6
  6
Continuous
 62
     6
370
     9
100
AcDbLine
 10
285.5096186989279
 20
297.9341725441545
 30
0.0
 11
278.0096186989279
 21
297.9341725441545
 31
0.0
  0
LINE
  5
533
330
1F
100
AcDbEntity
  8
D-1
  6
Continuous
 62
     2
370
     9
100
AcDbLine
 10
-382.6680477870593
 20
-327.8964071116397
 30
0.0
 11
-348.5508068220861
 21
-327.8964071116397
 31
0.0
  0
LINE
  5
534
330
1F
100
AcDbEntity
  8
D-1
  6
Continuous
 62
     2
370
     9
100
AcDbLine
 10
-298.5508068220855
 20
-327.8964071116397
 30
0.0
 11
-264.4335658571123
 21
-327.8964071116397
 31
0.0
  0
TEXT
  5
535
330
1F
100
AcDbEntity
  8
D-5
  6
Continuous
 62
     7
370
     9
100
AcDbText
 10
442.3850725055386
 20
157.2296454102065
 30
0.0
 40
11.43
  1
クッション材
 41
1.138888888888895
  7
ＭＳ ゴシック
100
AcDbText
  0
TEXT
  5
536
330
1F
100
AcDbEntity
  8
D-5
  6
Continuous
 62
     7
370
     9
100
AcDbText
 10
424.1200089729754
 20
129.9869209918943
 30
0.0
 40
11.43
  1
軟質ポリ塩化ビニル
 41
1.148148148148148
  7
ＭＳ ゴシック
100
AcDbText
  0
LINE
  5
537
330
1F
100
AcDbEntity
  8
D-5
  6
Continuous
 62
     7
370
     9
100
AcDbLine
 10
618.6384810089284
 20
215.4342293229006
 30
0.0
 11
579.7997204707455
 21
148.1635901456299
 31
0.0
  0
LINE
  5
538
330
1F
100
AcDbEntity
  8
D-5
  6
Continuous
 62
     7
370
     9
100
AcDbLine
 10
579.7997204707455
 20
148.1635901456299
 30
0.0
 11
419.4221335728955
 21
148.1635901456299
 31
0.0
  0
TEXT
  5
539
330
1F
100
AcDbEntity
  8
D-5
  6
Continuous
 62
     7
370
     9
100
AcDbText
 10
75.6505576294791
 20
406.0712755776182
 30
0.0
 40
11.43
  1
モルタル止め（ＳＵＳ３０４）
 41
1.154761904761905
  7
ＭＳ ゴシック
100
AcDbText
  0
TEXT
  5
53A
330
1F
100
AcDbEntity
  8
D-5
  6
Continuous
 62
     7
370
     9
100
AcDbText
 10
-13.44493738699012
 20
370.0722238730617
 30
0.0
 40
11.43
  1
把手（ＳＵＳ３０４）
 41
1.15
  7
ＭＳ ゴシック
100
AcDbText
  0
LINE
  5
53B
330
1F
100
AcDbEntity
  8
D-5
  6
Continuous
 62
     7
370
     9
100
AcDbLine
 10
154.6514307465268
 20
364.6841517591999
 30
0.0
 11
191.7461343311475
 21
300.4342404589295
 31
0.0
  0
LINE
  5
53C
330
1F
100
AcDbEntity
  8
D-5
  6
Continuous
 62
     7
370
     9
100
AcDbLine
 10
-17.84976785021766
 20
364.6841517591999
 30
0.0
 11
154.6514307465268
 21
364.6841517591999
 31
0.0
  0
LINE
  5
53D
330
1F
100
AcDbEntity
  8
D-5
  6
Continuous
 62
     7
370
     9
100
AcDbLine
 10
70.68455998510618
 20
401.8835959033151
 30
0.0
 11
310.7119933876579
 21
401.8835959033151
 31
0.0
  0
LINE
  5
53E
330
1F
100
AcDbEntity
  8
D-4
  6
Continuous
 62
     7
370
     9
100
AcDbLine
 10
654.2596231911393
 20
308.2255576792896
 30
0.0
 11
654.2596231911393
 21
448.5551164356676
 31
0.0
  0
LWPOLYLINE
  5
53F
330
1F
100
AcDbEntity
  8
D-4
  6
Continuous
 62
     7
370
     9
100
AcDbPolyline
 90
        4
 70
     1
 43
1.0
 10
654.7596231911393
 20
447.0551362308535
 42
0.4142135623731
 10
654.2596231911393
 20
447.5551362308535
 42
0.4142135623731
 10
653.7596231911393
 20
447.0551362308535
 42
0.4142135623731
 10
654.2596231911393
 20
446.5551362308536
 42
0.4142135623731
  0
LINE
  5
540
330
1F
100
AcDbEntity
  8
D-4
  6
Continuous
 62
     7
370
     9
100
AcDbLine
 10
155.5094964518726
 20
447.0551362308535
 30
0.0
 11
654.2596231911393
 21
447.0551362308535
 31
0.0
  0
TEXT
  5
541
330
1F
100
AcDbEntity
  8
D-4
  6
Continuous
 62
     2
370
   211
100
AcDbText
 10
188.441654783269
 20
112.3586801949128
 30
0.0
 40
15.24
  1
□310
 41
1.1
  7
ＭＳ ゴシック
100
AcDbText
  0
TEXT
  5
542
330
1F
100
AcDbEntity
  8
D-4
  6
Continuous
 62
     2
370
     9
100
AcDbText
 10
189.2596231911394
 20
452.3751444788475
 30
0.0
 40
15.24
  1
□350
 41
1.1
  7
ＭＳ ゴシック
100
AcDbText
  0
TEXT
  5
543
330
1F
100
AcDbEntity
  8
F-5ﾚｲﾔ
  6
Continuous
 62
     7
370
     9
100
AcDbText
 10
-423.4207435515201
 20
-683.8333500474321
 30
0.0
 40
11.43
  1
ステンレス製　ＭＳＸＯ－Ｍ－３５０
 41
1.156862745098039
  7
ＭＳ ゴシック
100
AcDbText
  0
LINE
  5
544
330
1F
100
AcDbEntity
  8
建具
  6
Continuous
 62
     2
370
     9
100
AcDbLine
 10
-508.2168489042405
 20
101.7739973287024
 30
0.0
 11
-558.2169341531508
 21
101.7739973287024
 31
0.0
  0
LINE
  5
545
330
1F
100
AcDbEntity
  8
建具
  6
Continuous
 62
     2
370
     9
100
AcDbLine
 10
-508.2168489042405
 20
381.7739973287025
 30
0.0
 11
-558.2169341531508
 21
381.7739973287025
 31
0.0
  0
LINE
  5
546
330
1F
100
AcDbEntity
  8
建具
  6
JWW_DASHED2
 62
     2
370
     9
100
AcDbLine
 10
-549.4169712219925
 20
381.7739973287025
 30
0.0
 11
-549.4169712219925
 21
101.7739973287024
 31
0.0
  0
LINE
  5
547
330
1F
100
AcDbEntity
  8
建具
  6
Continuous
 62
     2
370
     9
100
AcDbLine
 10
-548.2169381004053
 20
101.7739973287024
 30
0.0
 11
-548.2169381004053
 21
381.7739973287025
 31
0.0
  0
LINE
  5
548
330
1F
100
AcDbEntity
  8
建具
  6
JWW_DASHED2
 62
     2
370
     9
100
AcDbLine
 10
-517.0168118353985
 20
101.7739973287024
 30
0.0
 11
-517.0168118353985
 21
381.7739973287025
 31
0.0
  0
LINE
  5
549
330
1F
100
AcDbEntity
  8
建具
  6
Continuous
 62
     2
370
     9
100
AcDbLine
 10
-518.2168449569863
 20
101.7739973287024
 30
0.0
 11
-518.2168449569863
 21
381.7739973287025
 31
0.0
  0
LINE
  5
54A
330
1F
100
AcDbEntity
  8
建具
  6
Continuous
 62
     2
370
     9
100
AcDbLine
 10
-558.2169341531508
 20
381.7739973287025
 30
0.0
 11
-558.2169341531508
 21
101.7739973287024
 31
0.0
  0
LINE
  5
54B
330
1F
100
AcDbEntity
  8
建具
  6
Continuous
 62
     2
370
     9
100
AcDbLine
 10
-418.2169341531508
 20
101.7739973287024
 30
0.0
 11
-368.2168489042405
 21
101.7739973287024
 31
0.0
  0
LINE
  5
54C
330
1F
100
AcDbEntity
  8
建具
  6
Continuous
 62
     2
370
     9
100
AcDbLine
 10
-418.2169341531508
 20
381.7739973287025
 30
0.0
 11
-368.2168489042405
 21
381.7739973287025
 31
0.0
  0
LINE
  5
54D
330
1F
100
AcDbEntity
  8
建具
  6
JWW_DASHED2
 62
     2
370
     9
100
AcDbLine
 10
-377.0168118353988
 20
381.7739973287025
 30
0.0
 11
-377.0168118353988
 21
101.7739973287024
 31
0.0
  0
LINE
  5
54E
330
1F
100
AcDbEntity
  8
建具
  6
Continuous
 62
     2
370
     9
100
AcDbLine
 10
-378.2168449569861
 20
101.7739973287024
 30
0.0
 11
-378.2168449569861
 21
381.7739973287025
 31
0.0
  0
LINE
  5
54F
330
1F
100
AcDbEntity
  8
建具
  6
JWW_DASHED2
 62
     2
370
     9
100
AcDbLine
 10
-409.4169712219929
 20
101.7739973287024
 30
0.0
 11
-409.4169712219929
 21
381.7739973287025
 31
0.0
  0
LINE
  5
550
330
1F
100
AcDbEntity
  8
建具
  6
Continuous
 62
     2
370
     9
100
AcDbLine
 10
-408.216938100405
 20
101.7739973287024
 30
0.0
 11
-408.216938100405
 21
381.7739973287025
 31
0.0
  0
LINE
  5
551
330
1F
100
AcDbEntity
  8
建具
  6
Continuous
 62
     2
370
     9
100
AcDbLine
 10
-418.2169341531508
 20
381.7739973287025
 30
0.0
 11
-418.2169341531508
 21
101.7739973287024
 31
0.0
  0
LINE
  5
552
330
1F
100
AcDbEntity
  8
建具
  6
Continuous
 62
     2
370
     9
100
AcDbLine
 10
-368.2168489042405
 20
381.7739973287025
 30
0.0
 11
-368.2168489042405
 21
101.7739973287024
 31
0.0
  0
LINE
  5
553
330
1F
100
AcDbEntity
  8
建具
  6
Continuous
 62
     2
370
     9
100
AcDbLine
 10
-508.2168489042405
 20
381.7739973287025
 30
0.0
 11
-508.2168489042405
 21
101.7739973287024
 31
0.0
  0
LINE
  5
554
330
1F
100
AcDbEntity
  8
D-3
  6
Continuous
 62
     2
370
     9
100
AcDbLine
 10
329.2593853985243
 20
257.4344222713922
 30
0.0
 11
329.2593853985243
 21
260.4343082281453
 31
0.0
  0
LINE
  5
555
330
1F
100
AcDbEntity
  8
D-3
  6
Continuous
 62
     2
370
     9
100
AcDbLine
 10
454.2595985208
 20
257.4344222713922
 30
0.0
 11
454.2595985208
 21
260.4343082281453
 31
0.0
  0
LINE
  5
556
330
1F
100
AcDbEntity
  8
D-3
  6
Continuous
 62
     2
370
     9
100
AcDbLine
 10
348.7592018511986
 20
257.4344222713922
 30
0.0
 11
329.2593853985243
 21
257.4344222713922
 31
0.0
  0
LINE
  5
557
330
1F
100
AcDbEntity
  8
D-3
  6
Continuous
 62
     2
370
     9
100
AcDbLine
 10
426.7593862822376
 20
238.4341384372956
 30
0.0
 11
356.7594664056089
 21
238.4341384372956
 31
0.0
  0
LINE
  5
558
330
1F
100
AcDbEntity
  8
D-3
  6
Continuous
 62
     2
370
     9
100
AcDbLine
 10
434.7597820681254
 20
257.4344222713922
 30
0.0
 11
454.2595985208
 21
257.4344222713922
 31
0.0
  0
LINE
  5
559
330
1F
100
AcDbEntity
  8
D-3
  6
Continuous
 62
     2
370
     9
100
AcDbLine
 10
354.2593755303885
 20
254.9342657804329
 30
0.0
 11
354.2593755303885
 21
240.9342293125162
 31
0.0
  0
LINE
  5
55A
330
1F
100
AcDbEntity
  8
D-3
  6
Continuous
 62
     2
370
     9
100
AcDbLine
 10
348.7594643141533
 20
260.4343082281453
 30
0.0
 11
329.2593853985243
 21
260.4343082281453
 31
0.0
  0
LINE
  5
55B
330
1F
100
AcDbEntity
  8
D-3
  6
Continuous
 62
     2
370
     9
100
AcDbLine
 10
429.2596083889357
 20
254.9342657804329
 30
0.0
 11
429.2596083889357
 21
240.9342293125162
 31
0.0
  0
LINE
  5
55C
330
1F
100
AcDbEntity
  8
D-3
  6
Continuous
 62
     2
370
     9
100
AcDbLine
 10
434.7596508366483
 20
260.4343082281453
 30
0.0
 11
454.2595985208
 21
260.4343082281453
 31
0.0
  0
LINE
  5
55D
330
1F
100
AcDbEntity
  8
D-3
  6
Continuous
 62
     2
370
     9
100
AcDbLine
 10
351.2592927264189
 20
240.9342293125162
 30
0.0
 11
351.2592927264189
 21
254.9342657804329
 31
0.0
  0
LINE
  5
55E
330
1F
100
AcDbEntity
  8
D-3
  6
Continuous
 62
     2
370
     9
100
AcDbLine
 10
432.2596911929049
 20
254.9342657804329
 30
0.0
 11
432.2596911929049
 21
240.9342293125162
 31
0.0
  0
ARC
  5
55F
330
1F
100
AcDbEntity
  8
D-3
  6
Continuous
 62
     2
370
     9
100
AcDbCircle
 10
348.7592018511986
 20
254.9342657804329
 30
0.0
 40
2.499999628333971
100
AcDbArc
 50
0.0
 51
90.0
  0
ARC
  5
560
330
1F
100
AcDbEntity
  8
D-3
  6
Continuous
 62
     2
370
     9
100
AcDbCircle
 10
356.7594664056089
 20
240.9342293125162
 30
0.0
 40
2.499999628333971
100
AcDbArc
 50
180.0
 51
270.0
  0
ARC
  5
561
330
1F
100
AcDbEntity
  8
D-3
  6
Continuous
 62
     2
370
     9
100
AcDbCircle
 10
426.7593862822376
 20
240.9342293125162
 30
0.0
 40
2.499999628333971
100
AcDbArc
 50
270.0
 51
0.0
  0
ARC
  5
562
330
1F
100
AcDbEntity
  8
D-3
  6
Continuous
 62
     2
370
     9
100
AcDbCircle
 10
434.7597820681254
 20
254.9342657804329
 30
0.0
 40
2.499999628333971
100
AcDbArc
 50
90.0
 51
180.0
  0
ARC
  5
563
330
1F
100
AcDbEntity
  8
D-3
  6
Continuous
 62
     2
370
     9
100
AcDbCircle
 10
348.7594643141533
 20
254.9342657804329
 30
0.0
 40
5.499999900006878
100
AcDbArc
 50
0.0
 51
90.0
  0
ARC
  5
564
330
1F
100
AcDbEntity
  8
D-3
  6
Continuous
 62
     2
370
     9
100
AcDbCircle
 10
434.7596508366483
 20
254.9342657804329
 30
0.0
 40
5.499999900006878
100
AcDbArc
 50
90.0
 51
180.0
  0
ARC
  5
565
330
1F
100
AcDbEntity
  8
D-3
  6
Continuous
 62
     2
370
     9
100
AcDbCircle
 10
356.7593351741316
 20
240.9342293125162
 30
0.0
 40
5.499999900006878
100
AcDbArc
 50
180.0
 51
270.0
  0
ARC
  5
566
330
1F
100
AcDbEntity
  8
D-3
  6
Continuous
 62
     2
370
     9
100
AcDbCircle
 10
426.7599112081472
 20
240.9342293125162
 30
0.0
 40
5.499999900006878
100
AcDbArc
 50
270.0
 51
0.0
  0
LINE
  5
567
330
1F
100
AcDbEntity
  8
D-2
  6
Continuous
 62
     7
370
     9
100
AcDbLine
 10
480.0780557033881
 20
300.4341725441545
 30
0.0
 11
480.0780557033881
 21
260.4343082281453
 31
0.0
  0
LWPOLYLINE
  5
568
330
1F
100
AcDbEntity
  8
D-2
  6
Continuous
 62
     7
370
     9
100
AcDbPolyline
 90
        4
 70
     1
 43
1.0
 10
480.5780557033881
 20
260.4343082281453
 42
0.4142135623731
 10
480.0780557033881
 20
260.9343082281453
 42
0.4142135623731
 10
479.5780557033882
 20
260.4343082281453
 42
0.4142135623731
 10
480.0780557033881
 20
259.9343082281453
 42
0.4142135623731
  0
LINE
  5
569
330
1F
100
AcDbEntity
  8
D-2
  6
Continuous
 62
     7
370
     9
100
AcDbLine
 10
481.5780557033881
 20
260.4343082281453
 30
0.0
 11
458.0649593280339
 21
260.4343082281453
 31
0.0
  0
TEXT
  5
56A
330
1F
100
AcDbEntity
  8
D-F
  6
Continuous
 62
     2
370
   211
100
AcDbText
 10
474.2580557033882
 20
269.8092403861499
 30
0.0
 40
15.24
  1
16
 50
90.0
 41
1.0625
  7
ＭＳ ゴシック
100
AcDbText
  0
LINE
  5
56B
330
1F
100
AcDbEntity
  8
D-6
  6
Continuous
 62
     6
370
     9
100
AcDbLine
 10
474.0419393208484
 20
295.9958490964571
 30
0.0
 11
478.4803176792628
 21
300.4341725441545
 31
0.0
  0
LINE
  5
56C
330
1F
100
AcDbEntity
  8
D-6
  6
JWW_DASHED1
 62
     6
370
     9
100
AcDbLine
 10
483.3799473297947
 20
292.8340380859638
 30
0.0
 11
490.9799877594993
 21
300.4341725441545
 31
0.0
  0
LINE
  5
56D
330
1F
100
AcDbEntity
  8
D-6
  6
Continuous
 62
     6
370
     9
100
AcDbLine
 10
604.2064710787566
 20
280.4341065602018
 30
0.0
 11
481.9275710565335
 21
280.4341065602018
 31
0.0
  0
LINE
  5
56E
330
1F
100
AcDbEntity
  8
D-6
  6
Continuous
 62
     6
370
     9
100
AcDbLine
 10
453.0117003737633
 20
280.4341065602018
 30
0.0
 11
285.5096186989279
 21
280.4341065602018
 31
0.0
  0
LINE
  5
56F
330
1F
100
AcDbEntity
  8
D-5
  6
Continuous
 62
     7
370
     9
100
AcDbLine
 10
310.7119933876579
 20
401.8835959033151
 30
0.0
 11
405.0795816545627
 21
238.4341384372956
 31
0.0
  0
LINE
  5
570
330
1F
100
AcDbEntity
  8
D-5
  6
Continuous
 62
     7
370
     9
100
AcDbLine
 10
405.0795816545627
 20
238.4341384372956
 30
0.0
 11
400.2960387499991
 21
249.9826325936867
 31
0.0
  0
LINE
  5
571
330
1F
100
AcDbEntity
  8
D-5
  6
Continuous
 62
     7
370
     9
100
AcDbLine
 10
405.0795816545627
 20
238.4341384372956
 30
0.0
 11
397.4700637919534
 21
248.351055190936
 31
0.0
  0
LINE
  5
572
330
1F
100
AcDbEntity
  8
D-6
  6
Continuous
 62
     7
370
     9
100
AcDbLine
 10
365.157676423279
 20
251.9707428949139
 30
0.0
 11
364.4077832348024
 21
251.9707428949139
 31
0.0
  0
LINE
  5
573
330
1F
100
AcDbEntity
  8
D-6
  6
Continuous
 62
     7
370
     9
100
AcDbLine
 10
364.4077832348024
 20
251.9707428949139
 30
0.0
 11
364.4077832348024
 21
252.7208840387128
 31
0.0
  0
LINE
  5
574
330
1F
100
AcDbEntity
  8
D-6
  6
Continuous
 62
     7
370
     9
100
AcDbLine
 10
365.157676423279
 20
251.9707428949139
 30
0.0
 11
365.157676423279
 21
252.7208840387128
 31
0.0
  0
LINE
  5
575
330
1F
100
AcDbEntity
  8
D-6
  6
Continuous
 62
     7
370
     9
100
AcDbLine
 10
364.4077832348024
 20
252.7208840387128
 30
0.0
 11
365.157676423279
 21
252.7208840387128
 31
0.0
  0
LINE
  5
576
330
1F
100
AcDbEntity
  8
D-2
  6
Continuous
 62
     3
370
     9
100
AcDbLine
 10
155.5094964518726
 20
232.9342294125093
 30
0.0
 11
198.0095977843719
 21
232.9342294125093
 31
0.0
  0
LINE
  5
577
330
1F
100
AcDbEntity
  8
D-2
  6
Continuous
 62
     3
370
     9
100
AcDbLine
 10
235.5095173664292
 20
232.9342294125093
 30
0.0
 11
632.9564913464936
 21
232.9342294125093
 31
0.0
  0
LINE
  5
578
330
1F
100
AcDbEntity
  8
D-2
  6
Continuous
 62
     3
370
     9
100
AcDbLine
 10
631.7066427560986
 20
235.4342294125093
 30
0.0
 11
235.5095173664292
 21
235.4342294125093
 31
0.0
  0
LINE
  5
579
330
1F
100
AcDbEntity
  8
D-2
  6
Continuous
 62
     3
370
     9
100
AcDbLine
 10
198.0095977843719
 20
235.4342294125093
 30
0.0
 11
155.5094964518726
 21
235.4342294125093
 31
0.0
  0
TEXT
  5
57A
330
1F
100
AcDbEntity
  8
F-5ﾚｲﾔ
  6
Continuous
 62
     7
370
     9
100
AcDbText
 10
-425.0945664554385
 20
-662.6982921817204
 30
0.0
 40
11.43
  1
フロアーハッチ　充填用（充填深さ：16mm）屋内外用　一般形
 41
1.160714285714286
  7
ＭＳ ゴシック
100
AcDbText
  0
ENDSEC
  0
SECTION
  2
OBJECTS
  0
DICTIONARY
  5
C
330
0
100
AcDbDictionary
281
     1
  3
ACAD_DETAILVIEWSTYLE
350
582
  3
ACAD_GROUP
350
D
  3
ACAD_LAYOUT
350
1A
  3
ACAD_MATERIAL
350
43
  3
ACAD_MLEADERSTYLE
350
6B
  3
ACAD_MLINESTYLE
350
17
  3
ACAD_PLOTSETTINGS
350
19
  3
ACAD_PLOTSTYLENAME
350
E
  3
ACAD_SCALELIST
350
47
  3
ACAD_SECTIONVIEWSTYLE
350
583
  3
ACAD_TABLESTYLE
350
69
  3
ACAD_VISUALSTYLE
350
2A
  3
ACDB_RECOMPOSE_DATA
350
57F
  3
AcDbVariableDictionary
350
57B
  0
SUN
  5
6D
330
29
100
AcDbSun
 90
        1
290
     0
 63
     7
421
 16777215
 40
1.0
291
     1
 91
  2455826
 92
 54000000
292
     0
 70
     2
 71
   256
280
     1
  0
DICTIONARY
  5
582
102
{ACAD_REACTORS
330
C
102
}
330
C
100
AcDbDictionary
281
     1
  0
DICTIONARY
  5
D
102
{ACAD_REACTORS
330
C
102
}
330
C
100
AcDbDictionary
281
     1
  0
DICTIONARY
  5
1A
102
{ACAD_REACTORS
330
C
102
}
330
C
100
AcDbDictionary
281
     1
  3
Layout1
350
1E
  3
Layout2
350
26
  3
Model
350
22
  0
DICTIONARY
  5
43
102
{ACAD_REACTORS
330
C
102
}
330
C
100
AcDbDictionary
281
     1
  3
ByBlock
350
45
  3
ByLayer
350
44
  3
Global
350
46
  0
DICTIONARY
  5
6B
102
{ACAD_REACTORS
330
C
102
}
330
C
100
AcDbDictionary
281
     1
  3
Standard
350
6C
  0
DICTIONARY
  5
17
102
{ACAD_REACTORS
330
C
102
}
330
C
100
AcDbDictionary
281
     1
  3
Standard
350
18
  0
DICTIONARY
  5
19
102
{ACAD_REACTORS
330
C
102
}
330
C
100
AcDbDictionary
281
     1
  0
ACDBDICTIONARYWDFLT
  5
E
102
{ACAD_REACTORS
330
C
102
}
330
C
100
AcDbDictionary
281
     1
  3
Normal
350
F
100
AcDbDictionaryWithDefault
340
F
  0
DICTIONARY
  5
47
102
{ACAD_REACTORS
330
C
102
}
330
C
100
AcDbDictionary
281
     1
  3
A0
350
48
  3
A1
350
49
  3
A2
350
4A
  3
A3
350
4B
  3
A4
350
4C
  3
A5
350
4D
  3
A6
350
4E
  3
A7
350
4F
  3
A8
350
50
  3
A9
350
51
  3
B0
350
52
  3
B1
350
53
  3
B2
350
54
  3
B3
350
55
  3
B4
350
56
  3
B5
350
57
  3
B6
350
58
  3
B7
350
59
  3
B8
350
5A
  3
B9
350
5B
  3
C0
350
5C
  3
C1
350
5D
  3
C2
350
5E
  3
C3
350
5F
  3
C4
350
60
  3
C5
350
61
  3
C6
350
62
  3
C7
350
63
  3
C8
350
64
  3
C9
350
65
  3
D0
350
66
  3
D1
350
67
  3
D2
350
68
  0
DICTIONARY
  5
583
102
{ACAD_REACTORS
330
C
102
}
330
C
100
AcDbDictionary
281
     1
  0
DICTIONARY
  5
69
102
{ACAD_REACTORS
330
C
102
}
330
C
100
AcDbDictionary
281
     1
  3
Standard
350
6A
  0
DICTIONARY
  5
2A
102
{ACAD_REACTORS
330
C
102
}
330
C
100
AcDbDictionary
281
     1
  3
2dWireframe
350
2F
  3
Basic
350
32
  3
Brighten
350
36
  3
ColorChange
350
3A
  3
Conceptual
350
34
  3
Dim
350
35
  3
EdgeColorOff
350
3D
  3
Facepattern
350
39
  3
Flat
350
2B
  3
FlatWithEdges
350
2C
  3
Gouraud
350
2D
  3
GouraudWithEdges
350
2E
  3
Hidden
350
31
  3
JitterOff
350
3B
  3
Linepattern
350
38
  3
OverhangOff
350
3C
  3
Realistic
350
33
  3
Shaded
350
42
  3
Shaded with edges
350
41
  3
Shades of Gray
350
3E
  3
Sketchy
350
3F
  3
Thicken
350
37
  3
Wireframe
350
30
  3
X-Ray
350
40
  0
XRECORD
  5
57F
102
{ACAD_REACTORS
330
C
102
}
330
C
100
AcDbXrecord
280
     1
 90
        1
330
6A
  0
DICTIONARY
  5
57B
102
{ACAD_REACTORS
330
C
102
}
330
C
100
AcDbDictionary
281
     1
  3
CANNOSCALE
350
57C
  3
CENTEREXE
350
584
  3
CENTERLTYPEFILE
350
585
  3
CMLEADERSTYLE
350
581
  3
CTABLESTYLE
350
580
  0
LAYOUT
  5
1E
102
{ACAD_REACTORS
330
1A
102
}
330
1A
100
AcDbPlotSettings
  1

  2
none_device
  4

  6

 40
0.0
 41
0.0
 42
0.0
 43
0.0
 44
0.0
 45
0.0
 46
0.0
 47
0.0
 48
0.0
 49
0.0
140
0.0
141
0.0
142
1.0
143
1.0
 70
   688
 72
     1
 73
     0
 74
     5
  7

 75
    16
 76
     0
 77
     5
 78
   300
147
1.0
148
0.0
149
0.0
100
AcDbLayout
  1
Layout1
 70
     1
 71
     1
 10
0.0
 20
0.0
 11
420.0
 21
297.0
 12
0.0
 22
0.0
 32
0.0
 14
1.000000000000000E+20
 24
1.000000000000000E+20
 34
1.000000000000000E+20
 15
-1.000000000000000E+20
 25
-1.000000000000000E+20
 35
-1.000000000000000E+20
146
0.0
 13
0.0
 23
0.0
 33
0.0
 16
1.0
 26
0.0
 36
0.0
 17
0.0
 27
1.0
 37
0.0
 76
     0
330
1B
  0
LAYOUT
  5
26
102
{ACAD_REACTORS
330
1A
102
}
330
1A
100
AcDbPlotSettings
  1

  2
none_device
  4

  6

 40
0.0
 41
0.0
 42
0.0
 43
0.0
 44
0.0
 45
0.0
 46
0.0
 47
0.0
 48
0.0
 49
0.0
140
0.0
141
0.0
142
1.0
143
1.0
 70
   688
 72
     1
 73
     0
 74
     5
  7

 75
    16
 76
     0
 77
     5
 78
   300
147
1.0
148
0.0
149
0.0
100
AcDbLayout
  1
Layout2
 70
     1
 71
     2
 10
0.0
 20
0.0
 11
0.0
 21
0.0
 12
0.0
 22
0.0
 32
0.0
 14
0.0
 24
0.0
 34
0.0
 15
0.0
 25
0.0
 35
0.0
146
0.0
 13
0.0
 23
0.0
 33
0.0
 16
1.0
 26
0.0
 36
0.0
 17
0.0
 27
1.0
 37
0.0
 76
     0
330
23
  0
LAYOUT
  5
22
102
{ACAD_REACTORS
330
1A
102
}
330
1A
100
AcDbPlotSettings
  1

  2
none_device
  4
Letter_(8.50_x_11.00_Inches)
  6

 40
6.35
 41
6.35
 42
6.35000508
 43
6.35000508
 44
215.9
 45
279.4
 46
0.0
 47
0.0
 48
0.0
 49
0.0
140
0.0
141
0.0
142
1.0
143
1.0
 70
  1712
 72
     1
 73
     0
 74
     0
  7

 75
     0
 76
     0
 77
     5
 78
   300
147
1.0
148
0.0
149
0.0
100
AcDbLayout
  1
Model
 70
     1
 71
     0
 10
-1050.0
 20
-742.5
 11
1050.0
 21
742.5
 12
0.0
 22
0.0
 32
0.0
 14
-1050.0
 24
-742.5
 34
0.0
 15
1050.0
 25
742.5
 35
0.0
146
0.0
 13
0.0
 23
0.0
 33
0.0
 16
1.0
 26
0.0
 36
0.0
 17
0.0
 27
1.0
 37
0.0
 76
     0
330
1F
331
29
  0
MATERIAL
  5
45
102
{ACAD_REACTORS
330
43
102
}
330
43
100
AcDbMaterial
  1
ByBlock
 72
     1
 94
      127
  0
MATERIAL
  5
44
102
{ACAD_REACTORS
330
43
102
}
330
43
100
AcDbMaterial
  1
ByLayer
 72
     1
 94
      127
  0
MATERIAL
  5
46
102
{ACAD_REACTORS
330
43
102
}
330
43
100
AcDbMaterial
  1
Global
 72
     1
 94
      127
  0
MLEADERSTYLE
  5
6C
102
{ACAD_REACTORS
330
6B
102
}
330
6B
100
AcDbMLeaderStyle
179
     2
170
     2
171
     1
172
     0
 90
        2
 40
0.0
 41
0.0
173
     1
 91
-1056964608
340
14
 92
       -2
290
     1
 42
2.0
291
     1
 43
8.0
  3
Standard
341
0
 44
4.0
300

342
11
174
     1
178
     6
175
     1
176
     0
 93
-1056964608
 45
4.0
292
     0
297
     0
 46
4.0
343
0
 94
-1056964608
 47
1.0
 49
1.0
140
1.0
293
     1
141
0.0
294
     1
177
     0
142
1.0
295
     0
296
     0
143
3.75
271
     0
272
     9
273
     9
298
     0
  0
MLINESTYLE
  5
18
102
{ACAD_REACTORS
330
17
102
}
330
17
100
AcDbMlineStyle
  2
Standard
 70
     0
  3

 62
   256
 51
90.0
 52
90.0
 71
     2
 49
0.5
 62
   256
  6
BYLAYER
 49
-0.5
 62
   256
  6
BYLAYER
  0
ACDBPLACEHOLDER
  5
F
102
{ACAD_REACTORS
330
E
102
}
330
E
  0
SCALE
  5
48
102
{ACAD_REACTORS
330
47
102
}
330
47
100
AcDbScale
 70
     0
300
1:1
140
1.0
141
1.0
290
     1
  0
SCALE
  5
49
102
{ACAD_REACTORS
330
47
102
}
330
47
100
AcDbScale
 70
     0
300
1:2
140
1.0
141
2.0
290
     0
  0
SCALE
  5
4A
102
{ACAD_REACTORS
330
47
102
}
330
47
100
AcDbScale
 70
     0
300
1:4
140
1.0
141
4.0
290
     0
  0
SCALE
  5
4B
102
{ACAD_REACTORS
330
47
102
}
330
47
100
AcDbScale
 70
     0
300
1:5
140
1.0
141
5.0
290
     0
  0
SCALE
  5
4C
102
{ACAD_REACTORS
330
47
102
}
330
47
100
AcDbScale
 70
     0
300
1:8
140
1.0
141
8.0
290
     0
  0
SCALE
  5
4D
102
{ACAD_REACTORS
330
47
102
}
330
47
100
AcDbScale
 70
     0
300
1:10
140
1.0
141
10.0
290
     0
  0
SCALE
  5
4E
102
{ACAD_REACTORS
330
47
102
}
330
47
100
AcDbScale
 70
     0
300
1:16
140
1.0
141
16.0
290
     0
  0
SCALE
  5
4F
102
{ACAD_REACTORS
330
47
102
}
330
47
100
AcDbScale
 70
     0
300
1:20
140
1.0
141
20.0
290
     0
  0
SCALE
  5
50
102
{ACAD_REACTORS
330
47
102
}
330
47
100
AcDbScale
 70
     0
300
1:30
140
1.0
141
30.0
290
     0
  0
SCALE
  5
51
102
{ACAD_REACTORS
330
47
102
}
330
47
100
AcDbScale
 70
     0
300
1:40
140
1.0
141
40.0
290
     0
  0
SCALE
  5
52
102
{ACAD_REACTORS
330
47
102
}
330
47
100
AcDbScale
 70
     0
300
1:50
140
1.0
141
50.0
290
     0
  0
SCALE
  5
53
102
{ACAD_REACTORS
330
47
102
}
330
47
100
AcDbScale
 70
     0
300
1:100
140
1.0
141
100.0
290
     0
  0
SCALE
  5
54
102
{ACAD_REACTORS
330
47
102
}
330
47
100
AcDbScale
 70
     0
300
2:1
140
2.0
141
1.0
290
     0
  0
SCALE
  5
55
102
{ACAD_REACTORS
330
47
102
}
330
47
100
AcDbScale
 70
     0
300
4:1
140
4.0
141
1.0
290
     0
  0
SCALE
  5
56
102
{ACAD_REACTORS
330
47
102
}
330
47
100
AcDbScale
 70
     0
300
8:1
140
8.0
141
1.0
290
     0
  0
SCALE
  5
57
102
{ACAD_REACTORS
330
47
102
}
330
47
100
AcDbScale
 70
     0
300
10:1
140
10.0
141
1.0
290
     0
  0
SCALE
  5
58
102
{ACAD_REACTORS
330
47
102
}
330
47
100
AcDbScale
 70
     0
300
100:1
140
100.0
141
1.0
290
     0
  0
SCALE
  5
59
102
{ACAD_REACTORS
330
47
102
}
330
47
100
AcDbScale
 70
     0
300
1/128" = 1'-0"
140
0.0078125
141
12.0
290
     0
  0
SCALE
  5
5A
102
{ACAD_REACTORS
330
47
102
}
330
47
100
AcDbScale
 70
     0
300
1/64" = 1'-0"
140
0.015625
141
12.0
290
     0
  0
SCALE
  5
5B
102
{ACAD_REACTORS
330
47
102
}
330
47
100
AcDbScale
 70
     0
300
1/32" = 1'-0"
140
0.03125
141
12.0
290
     0
  0
SCALE
  5
5C
102
{ACAD_REACTORS
330
47
102
}
330
47
100
AcDbScale
 70
     0
300
1/16" = 1'-0"
140
0.0625
141
12.0
290
     0
  0
SCALE
  5
5D
102
{ACAD_REACTORS
330
47
102
}
330
47
100
AcDbScale
 70
     0
300
3/32" = 1'-0"
140
0.09375
141
12.0
290
     0
  0
SCALE
  5
5E
102
{ACAD_REACTORS
330
47
102
}
330
47
100
AcDbScale
 70
     0
300
1/8" = 1'-0"
140
0.125
141
12.0
290
     0
  0
SCALE
  5
5F
102
{ACAD_REACTORS
330
47
102
}
330
47
100
AcDbScale
 70
     0
300
3/16" = 1'-0"
140
0.1875
141
12.0
290
     0
  0
SCALE
  5
60
102
{ACAD_REACTORS
330
47
102
}
330
47
100
AcDbScale
 70
     0
300
1/4" = 1'-0"
140
0.25
141
12.0
290
     0
  0
SCALE
  5
61
102
{ACAD_REACTORS
330
47
102
}
330
47
100
AcDbScale
 70
     0
300
3/8" = 1'-0"
140
0.375
141
12.0
290
     0
  0
SCALE
  5
62
102
{ACAD_REACTORS
330
47
102
}
330
47
100
AcDbScale
 70
     0
300
1/2" = 1'-0"
140
0.5
141
12.0
290
     0
  0
SCALE
  5
63
102
{ACAD_REACTORS
330
47
102
}
330
47
100
AcDbScale
 70
     0
300
3/4" = 1'-0"
140
0.75
141
12.0
290
     0
  0
SCALE
  5
64
102
{ACAD_REACTORS
330
47
102
}
330
47
100
AcDbScale
 70
     0
300
1" = 1'-0"
140
1.0
141
12.0
290
     0
  0
SCALE
  5
65
102
{ACAD_REACTORS
330
47
102
}
330
47
100
AcDbScale
 70
     0
300
1-1/2" = 1'-0"
140
1.5
141
12.0
290
     0
  0
SCALE
  5
66
102
{ACAD_REACTORS
330
47
102
}
330
47
100
AcDbScale
 70
     0
300
3" = 1'-0"
140
3.0
141
12.0
290
     0
  0
SCALE
  5
67
102
{ACAD_REACTORS
330
47
102
}
330
47
100
AcDbScale
 70
     0
300
6" = 1'-0"
140
6.0
141
12.0
290
     0
  0
SCALE
  5
68
102
{ACAD_REACTORS
330
47
102
}
330
47
100
AcDbScale
 70
     0
300
1'-0" = 1'-0"
140
12.0
141
12.0
290
     0
  0
TABLESTYLE
  5
6A
102
{ACAD_REACTORS
330
69
102
}
102
{ACAD_XDICTIONARY
360
57D
102
}
330
69
100
AcDbTableStyle
  3
Standard
 70
     0
 71
     0
 40
0.06
 41
0.06
280
     0
281
     0
  7
Standard
140
4.5
170
     2
 62
     0
 63
   257
283
     0
 90
        4
 91
        0
  1

274
    -2
284
     1
 64
     0
275
    -2
285
     1
 65
     0
276
    -2
286
     1
 66
     0
277
    -2
287
     1
 67
     0
278
    -2
288
     1
 68
     0
279
    -2
289
     1
 69
     0
  7
Standard
140
6.0
170
     5
 62
     0
 63
   257
283
     0
 90
        4
 91
        0
  1

274
    -2
284
     1
 64
     0
275
    -2
285
     1
 65
     0
276
    -2
286
     1
 66
     0
277
    -2
287
     1
 67
     0
278
    -2
288
     1
 68
     0
279
    -2
289
     1
 69
     0
  7
Standard
140
4.5
170
     5
 62
     0
 63
   257
283
     0
 90
        4
 91
        0
  1

274
    -2
284
     1
 64
     0
275
    -2
285
     1
 65
     0
276
    -2
286
     1
 66
     0
277
    -2
287
     1
 67
     0
278
    -2
288
     1
 68
     0
279
    -2
289
     1
 69
     0
  0
VISUALSTYLE
  5
2F
102
{ACAD_REACTORS
330
2A
102
}
330
2A
100
AcDbVisualStyle
  2
2dWireframe
 70
     4
177
     3
291
     0
 70
    58
 90
        0
176
     1
 90
        2
176
     1
 90
        0
176
     1
 90
        0
176
     1
 40
0.6
176
     1
 40
30.0
176
     1
 62
     7
420
 16777215
176
     1
 90
        1
176
     1
 90
        4
176
     1
 62
     7
176
     1
 62
   257
176
     1
 90
        1
176
     1
 90
        1
176
     1
 40
1.0
176
     1
 90
        0
176
     1
 62
   257
176
     1
 40
1.0
176
     1
 90
        1
176
     1
 90
        6
176
     1
 90
        2
176
     1
 62
     7
176
     1
 90
        5
176
     1
 90
        0
176
     1
 90
        0
176
     1
290
     0
176
     1
 90
        1
176
     1
 40
0.0
176
     1
 90
        0
176
     1
290
     1
176
     1
290
     1
176
     1
290
     0
176
     1
290
     0
176
     1
290
     0
176
     1
290
     0
176
     1
290
     0
176
     1
290
     0
176
     1
290
     0
176
     1
 90
       50
176
     1
 40
0.0
176
     1
 40
1.0
176
     1
 90
        0
176
     1
 62
    18
420
        0
176
     1
 90
       50
176
     1
 90
        3
176
     1
 62
     5
420
      255
176
     1
290
     0
176
     1
 90
       50
176
     1
 90
       50
176
     1
 90
       50
176
     1
290
     0
176
     1
 90
       50
176
     1
 62
   256
176
     0
 40
1.0
176
     0
 90
        2
176
     1
  1
strokes_ogs.tif
176
     1
290
     0
176
     1
 40
1.0
176
     1
 40
1.0
176
     1
  0
VISUALSTYLE
  5
32
102
{ACAD_REACTORS
330
2A
102
}
330
2A
100
AcDbVisualStyle
  2
Basic
 70
     7
177
     3
291
     1
 70
    58
 90
        1
176
     1
 90
        0
176
     1
 90
        1
176
     1
 90
        0
176
     1
 40
0.6
176
     1
 40
30.0
176
     1
 62
     7
420
 16777215
176
     1
 90
        0
176
     1
 90
        4
176
     1
 62
     7
176
     1
 62
   257
176
     1
 90
        1
176
     1
 90
        1
176
     1
 40
1.0
176
     1
 90
        8
176
     1
 62
     7
176
     1
 40
1.0
176
     1
 90
        1
176
     1
 90
        6
176
     1
 90
        2
176
     1
 62
     7
176
     1
 90
        5
176
     1
 90
        0
176
     1
 90
        0
176
     1
290
     0
176
     1
 90
        1
176
     1
 40
0.0
176
     1
 90
        0
176
     1
290
     0
176
     1
290
     1
176
     1
290
     1
176
     1
290
     0
176
     1
290
     0
176
     1
290
     0
176
     1
290
     0
176
     1
290
     0
176
     1
290
     0
176
     1
 90
       50
176
     1
 40
0.0
176
     1
 40
1.0
176
     1
 90
        0
176
     1
 62
    18
420
        0
176
     1
 90
       50
176
     1
 90
        3
176
     1
 62
     5
420
      255
176
     1
290
     0
176
     1
 90
       50
176
     1
 90
       50
176
     1
 90
       50
176
     1
290
     0
176
     1
 90
       50
176
     1
 62
   256
176
     0
 40
1.0
176
     0
 90
        2
176
     1
  1
strokes_ogs.tif
176
     1
290
     0
176
     1
 40
1.0
176
     1
 40
1.0
176
     1
  0
VISUALSTYLE
  5
36
102
{ACAD_REACTORS
330
2A
102
}
330
2A
100
AcDbVisualStyle
  2
Brighten
 70
    12
177
     3
291
     1
 70
    58
 90
        2
176
     1
 90
        2
176
     1
 90
        0
176
     1
 90
        0
176
     1
 40
0.6
176
     1
 40
30.0
176
     1
 62
     7
420
 16777215
176
     1
 90
        1
176
     1
 90
        4
176
     1
 62
     7
176
     1
 62
   257
176
     1
 90
        1
176
     1
 90
        1
176
     1
 40
1.0
176
     1
 90
        8
176
     1
 62
     7
176
     1
 40
1.0
176
     1
 90
        1
176
     1
 90
        6
176
     1
 90
        2
176
     1
 62
     7
176
     1
 90
        5
176
     1
 90
        0
176
     1
 90
        0
176
     1
290
     0
176
     1
 90
        1
176
     1
 40
50.0
176
     1
 90
        0
176
     1
290
     0
176
     1
290
     1
176
     1
290
     1
176
     1
290
     0
176
     1
290
     0
176
     1
290
     0
176
     1
290
     0
176
     1
290
     0
176
     1
290
     0
176
     1
 90
       50
176
     1
 40
0.0
176
     1
 40
1.0
176
     1
 90
        0
176
     1
 62
    18
420
        0
176
     1
 90
       50
176
     1
 90
        3
176
     1
 62
     5
420
      255
176
     1
290
     0
176
     1
 90
       50
176
     1
 90
       50
176
     1
 90
       50
176
     1
290
     0
176
     1
 90
       50
176
     1
 62
   256
176
     0
 40
1.0
176
     0
 90
        2
176
     1
  1
strokes_ogs.tif
176
     1
290
     0
176
     1
 40
1.0
176
     1
 40
1.0
176
     1
  0
VISUALSTYLE
  5
3A
102
{ACAD_REACTORS
330
2A
102
}
330
2A
100
AcDbVisualStyle
  2
ColorChange
 70
    16
177
     3
291
     1
 70
    58
 90
        2
176
     1
 90
        2
176
     1
 90
        3
176
     1
 90
        0
176
     1
 40
0.6
176
     1
 40
30.0
176
     1
 62
     8
420
  8421504
176
     1
 90
        1
176
     1
 90
        4
176
     1
 62
     7
176
     1
 62
   257
176
     1
 90
        1
176
     1
 90
        1
176
     1
 40
1.0
176
     1
 90
        8
176
     1
 62
     8
420
  8421504
176
     1
 40
1.0
176
     1
 90
        1
176
     1
 90
        6
176
     1
 90
        2
176
     1
 62
     7
176
     1
 90
        5
176
     1
 90
        0
176
     1
 90
        0
176
     1
290
     0
176
     1
 90
        1
176
     1
 40
0.0
176
     1
 90
        0
176
     1
290
     0
176
     1
290
     1
176
     1
290
     1
176
     1
290
     0
176
     1
290
     0
176
     1
290
     0
176
     1
290
     0
176
     1
290
     0
176
     1
290
     0
176
     1
 90
       50
176
     1
 40
0.0
176
     1
 40
1.0
176
     1
 90
        0
176
     1
 62
    18
420
        0
176
     1
 90
       50
176
     1
 90
        3
176
     1
 62
     5
420
      255
176
     1
290
     0
176
     1
 90
       50
176
     1
 90
       50
176
     1
 90
       50
176
     1
290
     0
176
     1
 90
       50
176
     1
 62
   256
176
     0
 40
1.0
176
     0
 90
        2
176
     1
  1
strokes_ogs.tif
176
     1
290
     0
176
     1
 40
1.0
176
     1
 40
1.0
176
     1
  0
VISUALSTYLE
  5
34
102
{ACAD_REACTORS
330
2A
102
}
330
2A
100
AcDbVisualStyle
  2
Conceptual
 70
     9
177
     3
291
     0
 70
    58
 90
        3
176
     1
 90
        2
176
     1
 90
        0
176
     1
 90
        0
176
     1
 40
0.6
176
     1
 40
30.0
176
     1
 62
     7
420
 16777215
176
     1
 90
        2
176
     1
 90
        2
176
     1
 62
     7
176
     1
 62
   257
176
     1
 90
        1
176
     1
 90
        1
176
     1
 40
179.0
176
     1
 90
        8
176
     1
 62
     7
176
     1
 40
1.0
176
     1
 90
        1
176
     1
 90
        6
176
     1
 90
        2
176
     1
 62
     7
176
     1
 90
        3
176
     1
 90
        0
176
     1
 90
        0
176
     1
290
     0
176
     1
 90
        1
176
     1
 40
0.0
176
     1
 90
        0
176
     1
290
     0
176
     1
290
     1
176
     1
290
     1
176
     1
290
     0
176
     1
290
     0
176
     1
290
     0
176
     1
290
     0
176
     1
290
     0
176
     1
290
     0
176
     1
 90
       50
176
     1
 40
0.0
176
     1
 40
1.0
176
     1
 90
        0
176
     1
 62
    18
420
        0
176
     1
 90
       50
176
     1
 90
        3
176
     1
 62
     5
420
      255
176
     1
290
     0
176
     1
 90
       50
176
     1
 90
       50
176
     1
 90
       50
176
     1
290
     0
176
     1
 90
       50
176
     1
 62
   256
176
     0
 40
1.0
176
     0
 90
        2
176
     1
  1
strokes_ogs.tif
176
     1
290
     0
176
     1
 40
1.0
176
     1
 40
1.0
176
     1
  0
VISUALSTYLE
  5
35
102
{ACAD_REACTORS
330
2A
102
}
330
2A
100
AcDbVisualStyle
  2
Dim
 70
    11
177
     3
291
     1
 70
    58
 90
        2
176
     1
 90
        2
176
     1
 90
        0
176
     1
 90
        0
176
     1
 40
0.6
176
     1
 40
30.0
176
     1
 62
     7
420
 16777215
176
     1
 90
        1
176
     1
 90
        4
176
     1
 62
     7
176
     1
 62
   257
176
     1
 90
        1
176
     1
 90
        1
176
     1
 40
1.0
176
     1
 90
        8
176
     1
 62
     7
176
     1
 40
1.0
176
     1
 90
        1
176
     1
 90
        6
176
     1
 90
        2
176
     1
 62
     7
176
     1
 90
        5
176
     1
 90
        0
176
     1
 90
        0
176
     1
290
     0
176
     1
 90
        1
176
     1
 40
-50.0
176
     1
 90
        0
176
     1
290
     0
176
     1
290
     1
176
     1
290
     1
176
     1
290
     0
176
     1
290
     0
176
     1
290
     0
176
     1
290
     0
176
     1
290
     0
176
     1
290
     0
176
     1
 90
       50
176
     1
 40
0.0
176
     1
 40
1.0
176
     1
 90
        0
176
     1
 62
    18
420
        0
176
     1
 90
       50
176
     1
 90
        3
176
     1
 62
     5
420
      255
176
     1
290
     0
176
     1
 90
       50
176
     1
 90
       50
176
     1
 90
       50
176
     1
290
     0
176
     1
 90
       50
176
     1
 62
   256
176
     0
 40
1.0
176
     0
 90
        2
176
     1
  1
strokes_ogs.tif
176
     1
290
     0
176
     1
 40
1.0
176
     1
 40
1.0
176
     1
  0
VISUALSTYLE
  5
3D
102
{ACAD_REACTORS
330
2A
102
}
330
2A
100
AcDbVisualStyle
  2
EdgeColorOff
 70
    22
177
     3
291
     1
 70
    58
 90
        2
176
     0
 90
        2
176
     0
 90
        0
176
     0
 90
        0
176
     0
 40
0.6
176
     0
 40
30.0
176
     0
 62
     7
420
 16777215
176
     0
 90
        1
176
     0
 90
        4
176
     0
 62
     7
176
     0
 62
   257
176
     0
 90
        1
176
     0
 90
        1
176
     0
 40
1.0
176
     0
 90
        8
176
     2
 62
     7
176
     0
 40
1.0
176
     0
 90
        1
176
     0
 90
        6
176
     0
 90
        2
176
     0
 62
     7
176
     0
 90
        5
176
     0
 90
        0
176
     0
 90
        0
176
     0
290
     0
176
     0
 90
        1
176
     0
 40
0.0
176
     0
 90
        0
176
     0
290
     0
176
     0
290
     1
176
     0
290
     1
176
     0
290
     0
176
     0
290
     0
176
     0
290
     0
176
     0
290
     0
176
     0
290
     0
176
     0
290
     0
176
     0
 90
       50
176
     0
 40
0.0
176
     0
 40
1.0
176
     0
 90
        0
176
     0
 62
    18
420
        0
176
     0
 90
       50
176
     0
 90
        3
176
     0
 62
     5
420
      255
176
     0
290
     0
176
     0
 90
       50
176
     0
 90
       50
176
     0
 90
       50
176
     0
290
     0
176
     0
 90
       50
176
     0
 62
   256
176
     0
 40
1.0
176
     0
 90
        2
176
     0
  1
strokes_ogs.tif
176
     0
290
     0
176
     0
 40
1.0
176
     0
 40
1.0
176
     0
  0
VISUALSTYLE
  5
39
102
{ACAD_REACTORS
330
2A
102
}
330
2A
100
AcDbVisualStyle
  2
Facepattern
 70
    15
177
     3
291
     1
 70
    58
 90
        2
176
     1
 90
        2
176
     1
 90
        0
176
     1
 90
        0
176
     1
 40
0.6
176
     1
 40
30.0
176
     1
 62
     7
420
 16777215
176
     1
 90
        1
176
     1
 90
        4
176
     1
 62
     7
176
     1
 62
   257
176
     1
 90
        1
176
     1
 90
        1
176
     1
 40
1.0
176
     1
 90
        8
176
     1
 62
     7
176
     1
 40
1.0
176
     1
 90
        1
176
     1
 90
        6
176
     1
 90
        2
176
     1
 62
     7
176
     1
 90
        5
176
     1
 90
        0
176
     1
 90
        0
176
     1
290
     0
176
     1
 90
        1
176
     1
 40
0.0
176
     1
 90
        0
176
     1
290
     0
176
     1
290
     1
176
     1
290
     1
176
     1
290
     0
176
     1
290
     0
176
     1
290
     0
176
     1
290
     0
176
     1
290
     0
176
     1
290
     0
176
     1
 90
       50
176
     1
 40
0.0
176
     1
 40
1.0
176
     1
 90
        0
176
     1
 62
    18
420
        0
176
     1
 90
       50
176
     1
 90
        3
176
     1
 62
     5
420
      255
176
     1
290
     0
176
     1
 90
       50
176
     1
 90
       50
176
     1
 90
       50
176
     1
290
     0
176
     1
 90
       50
176
     1
 62
   256
176
     0
 40
1.0
176
     0
 90
        2
176
     1
  1
strokes_ogs.tif
176
     1
290
     0
176
     1
 40
1.0
176
     1
 40
1.0
176
     1
  0
VISUALSTYLE
  5
2B
102
{ACAD_REACTORS
330
2A
102
}
330
2A
100
AcDbVisualStyle
  2
Flat
 70
     0
177
     3
291
     1
 70
    58
 90
        2
176
     1
 90
        1
176
     1
 90
        1
176
     1
 90
        2
176
     1
 40
0.6
176
     1
 40
30.0
176
     1
 62
     7
420
 16777215
176
     1
 90
        0
176
     1
 90
        0
176
     1
 62
     7
176
     1
 62
   257
176
     1
 90
        1
176
     1
 90
        1
176
     1
 40
1.0
176
     1
 90
        8
176
     1
 62
     7
176
     1
 40
1.0
176
     1
 90
        1
176
     1
 90
        6
176
     1
 90
        2
176
     1
 62
     7
176
     1
 90
        5
176
     1
 90
        0
176
     1
 90
        0
176
     1
290
     0
176
     1
 90
       13
176
     1
 40
0.0
176
     1
 90
        0
176
     1
290
     0
176
     1
290
     1
176
     1
290
     1
176
     1
290
     0
176
     1
290
     0
176
     1
290
     0
176
     1
290
     0
176
     1
290
     0
176
     1
290
     0
176
     1
 90
       50
176
     1
 40
0.0
176
     1
 40
1.0
176
     1
 90
        0
176
     1
 62
    18
420
        0
176
     1
 90
       50
176
     1
 90
        3
176
     1
 62
     5
420
      255
176
     1
290
     0
176
     1
 90
       50
176
     1
 90
       50
176
     1
 90
       50
176
     1
290
     0
176
     1
 90
       50
176
     1
 62
   256
176
     0
 40
1.0
176
     0
 90
        2
176
     1
  1
strokes_ogs.tif
176
     1
290
     0
176
     1
 40
1.0
176
     1
 40
1.0
176
     1
  0
VISUALSTYLE
  5
2C
102
{ACAD_REACTORS
330
2A
102
}
330
2A
100
AcDbVisualStyle
  2
FlatWithEdges
 70
     1
177
     3
291
     1
 70
    58
 90
        2
176
     1
 90
        1
176
     1
 90
        1
176
     1
 90
        2
176
     1
 40
0.6
176
     1
 40
30.0
176
     1
 62
     7
420
 16777215
176
     1
 90
        1
176
     1
 90
        0
176
     1
 62
     7
176
     1
 62
   257
176
     1
 90
        1
176
     1
 90
        1
176
     1
 40
1.0
176
     1
 90
        0
176
     1
 62
   257
176
     1
 40
1.0
176
     1
 90
        1
176
     1
 90
        6
176
     1
 90
        2
176
     1
 62
     7
176
     1
 90
        5
176
     1
 90
        0
176
     1
 90
        0
176
     1
290
     0
176
     1
 90
       13
176
     1
 40
0.0
176
     1
 90
        0
176
     1
290
     0
176
     1
290
     1
176
     1
290
     1
176
     1
290
     0
176
     1
290
     0
176
     1
290
     0
176
     1
290
     0
176
     1
290
     0
176
     1
290
     0
176
     1
 90
       50
176
     1
 40
0.0
176
     1
 40
1.0
176
     1
 90
        0
176
     1
 62
    18
420
        0
176
     1
 90
       50
176
     1
 90
        3
176
     1
 62
     5
420
      255
176
     1
290
     0
176
     1
 90
       50
176
     1
 90
       50
176
     1
 90
       50
176
     1
290
     0
176
     1
 90
       50
176
     1
 62
   256
176
     0
 40
1.0
176
     0
 90
        2
176
     1
  1
strokes_ogs.tif
176
     1
290
     0
176
     1
 40
1.0
176
     1
 40
1.0
176
     1
  0
VISUALSTYLE
  5
2D
102
{ACAD_REACTORS
330
2A
102
}
330
2A
100
AcDbVisualStyle
  2
Gouraud
 70
     2
177
     3
291
     1
 70
    58
 90
        2
176
     1
 90
        2
176
     1
 90
        1
176
     1
 90
        2
176
     1
 40
0.6
176
     1
 40
30.0
176
     1
 62
     7
420
 16777215
176
     1
 90
        0
176
     1
 90
        0
176
     1
 62
     7
176
     1
 62
   257
176
     1
 90
        1
176
     1
 90
        1
176
     1
 40
1.0
176
     1
 90
        0
176
     1
 62
     7
176
     1
 40
1.0
176
     1
 90
        1
176
     1
 90
        6
176
     1
 90
        2
176
     1
 62
     7
176
     1
 90
        5
176
     1
 90
        0
176
     1
 90
        0
176
     1
290
     0
176
     1
 90
       13
176
     1
 40
0.0
176
     1
 90
        0
176
     1
290
     0
176
     1
290
     1
176
     1
290
     1
176
     1
290
     0
176
     1
290
     0
176
     1
290
     0
176
     1
290
     0
176
     1
290
     0
176
     1
290
     0
176
     1
 90
       50
176
     1
 40
0.0
176
     1
 40
1.0
176
     1
 90
        0
176
     1
 62
    18
420
        0
176
     1
 90
       50
176
     1
 90
        3
176
     1
 62
     5
420
      255
176
     1
290
     0
176
     1
 90
       50
176
     1
 90
       50
176
     1
 90
       50
176
     1
290
     0
176
     1
 90
       50
176
     1
 62
   256
176
     0
 40
1.0
176
     0
 90
        2
176
     1
  1
strokes_ogs.tif
176
     1
290
     0
176
     1
 40
1.0
176
     1
 40
1.0
176
     1
  0
VISUALSTYLE
  5
2E
102
{ACAD_REACTORS
330
2A
102
}
330
2A
100
AcDbVisualStyle
  2
GouraudWithEdges
 70
     3
177
     3
291
     1
 70
    58
 90
        2
176
     1
 90
        2
176
     1
 90
        1
176
     1
 90
        2
176
     1
 40
0.6
176
     1
 40
30.0
176
     1
 62
     7
420
 16777215
176
     1
 90
        1
176
     1
 90
        0
176
     1
 62
     7
176
     1
 62
   257
176
     1
 90
        1
176
     1
 90
        1
176
     1
 40
1.0
176
     1
 90
        0
176
     1
 62
   257
176
     1
 40
1.0
176
     1
 90
        1
176
     1
 90
        6
176
     1
 90
        2
176
     1
 62
     7
176
     1
 90
        5
176
     1
 90
        0
176
     1
 90
        0
176
     1
290
     0
176
     1
 90
       13
176
     1
 40
0.0
176
     1
 90
        0
176
     1
290
     0
176
     1
290
     1
176
     1
290
     1
176
     1
290
     0
176
     1
290
     0
176
     1
290
     0
176
     1
290
     0
176
     1
290
     0
176
     1
290
     0
176
     1
 90
       50
176
     1
 40
0.0
176
     1
 40
1.0
176
     1
 90
        0
176
     1
 62
    18
420
        0
176
     1
 90
       50
176
     1
 90
        3
176
     1
 62
     5
420
      255
176
     1
290
     0
176
     1
 90
       50
176
     1
 90
       50
176
     1
 90
       50
176
     1
290
     0
176
     1
 90
       50
176
     1
 62
   256
176
     0
 40
1.0
176
     0
 90
        2
176
     1
  1
strokes_ogs.tif
176
     1
290
     0
176
     1
 40
1.0
176
     1
 40
1.0
176
     1
  0
VISUALSTYLE
  5
31
102
{ACAD_REACTORS
330
2A
102
}
330
2A
100
AcDbVisualStyle
  2
Hidden
 70
     6
177
     3
291
     0
 70
    58
 90
        1
176
     1
 90
        2
176
     1
 90
        2
176
     1
 90
        0
176
     1
 40
0.6
176
     1
 40
30.0
176
     1
 62
     7
420
 16777215
176
     1
 90
        2
176
     1
 90
        2
176
     1
 62
     7
176
     1
 62
   257
176
     1
 90
        2
176
     1
 90
        1
176
     1
 40
40.0
176
     1
 90
        0
176
     1
 62
   257
176
     1
 40
1.0
176
     1
 90
        1
176
     1
 90
        6
176
     1
 90
        2
176
     1
 62
     7
176
     1
 90
        3
176
     1
 90
        0
176
     1
 90
        0
176
     1
290
     0
176
     1
 90
        1
176
     1
 40
0.0
176
     1
 90
        0
176
     1
290
     0
176
     1
290
     1
176
     1
290
     1
176
     1
290
     0
176
     1
290
     0
176
     1
290
     0
176
     1
290
     0
176
     1
290
     0
176
     1
290
     0
176
     1
 90
       50
176
     1
 40
0.0
176
     1
 40
1.0
176
     1
 90
        0
176
     1
 62
    18
420
        0
176
     1
 90
       50
176
     1
 90
        3
176
     1
 62
     5
420
      255
176
     1
290
     0
176
     1
 90
       50
176
     1
 90
       50
176
     1
 90
       50
176
     1
290
     0
176
     1
 90
       50
176
     1
 62
   256
176
     0
 40
1.0
176
     0
 90
        2
176
     1
  1
strokes_ogs.tif
176
     1
290
     0
176
     1
 40
1.0
176
     1
 40
1.0
176
     1
  0
VISUALSTYLE
  5
3B
102
{ACAD_REACTORS
330
2A
102
}
330
2A
100
AcDbVisualStyle
  2
JitterOff
 70
    20
177
     3
291
     1
 70
    58
 90
        2
176
     0
 90
        2
176
     0
 90
        0
176
     0
 90
        0
176
     0
 40
0.6
176
     0
 40
30.0
176
     0
 62
     7
420
 16777215
176
     0
 90
        1
176
     0
 90
        4
176
     0
 62
     7
176
     0
 62
   257
176
     0
 90
        1
176
     0
 90
        1
176
     0
 40
1.0
176
     0
 90
       10
176
     2
 62
     7
176
     0
 40
1.0
176
     0
 90
        1
176
     0
 90
        6
176
     0
 90
        2
176
     0
 62
     7
176
     0
 90
        5
176
     0
 90
        0
176
     0
 90
        0
176
     0
290
     0
176
     0
 90
        1
176
     0
 40
0.0
176
     0
 90
        0
176
     0
290
     0
176
     0
290
     1
176
     0
290
     1
176
     0
290
     0
176
     0
290
     0
176
     0
290
     0
176
     0
290
     0
176
     0
290
     0
176
     0
290
     0
176
     0
 90
       50
176
     0
 40
0.0
176
     0
 40
1.0
176
     0
 90
        0
176
     0
 62
    18
420
        0
176
     0
 90
       50
176
     0
 90
        3
176
     0
 62
     5
420
      255
176
     0
290
     0
176
     0
 90
       50
176
     0
 90
       50
176
     0
 90
       50
176
     0
290
     0
176
     0
 90
       50
176
     0
 62
   256
176
     0
 40
1.0
176
     0
 90
        2
176
     0
  1
strokes_ogs.tif
176
     0
290
     0
176
     0
 40
1.0
176
     0
 40
1.0
176
     0
  0
VISUALSTYLE
  5
38
102
{ACAD_REACTORS
330
2A
102
}
330
2A
100
AcDbVisualStyle
  2
Linepattern
 70
    14
177
     3
291
     1
 70
    58
 90
        2
176
     1
 90
        2
176
     1
 90
        0
176
     1
 90
        0
176
     1
 40
0.6
176
     1
 40
30.0
176
     1
 62
     7
420
 16777215
176
     1
 90
        1
176
     1
 90
        4
176
     1
 62
     7
176
     1
 62
   257
176
     1
 90
        7
176
     1
 90
        7
176
     1
 40
1.0
176
     1
 90
        8
176
     1
 62
     7
176
     1
 40
1.0
176
     1
 90
        1
176
     1
 90
        6
176
     1
 90
        2
176
     1
 62
     7
176
     1
 90
        5
176
     1
 90
        0
176
     1
 90
        0
176
     1
290
     0
176
     1
 90
        1
176
     1
 40
0.0
176
     1
 90
        0
176
     1
290
     0
176
     1
290
     1
176
     1
290
     1
176
     1
290
     0
176
     1
290
     0
176
     1
290
     0
176
     1
290
     0
176
     1
290
     0
176
     1
290
     0
176
     1
 90
       50
176
     1
 40
0.0
176
     1
 40
1.0
176
     1
 90
        0
176
     1
 62
    18
420
        0
176
     1
 90
       50
176
     1
 90
        3
176
     1
 62
     5
420
      255
176
     1
290
     0
176
     1
 90
       50
176
     1
 90
       50
176
     1
 90
       50
176
     1
290
     0
176
     1
 90
       50
176
     1
 62
   256
176
     0
 40
1.0
176
     0
 90
        2
176
     1
  1
strokes_ogs.tif
176
     1
290
     0
176
     1
 40
1.0
176
     1
 40
1.0
176
     1
  0
VISUALSTYLE
  5
3C
102
{ACAD_REACTORS
330
2A
102
}
330
2A
100
AcDbVisualStyle
  2
OverhangOff
 70
    21
177
     3
291
     1
 70
    58
 90
        2
176
     0
 90
        2
176
     0
 90
        0
176
     0
 90
        0
176
     0
 40
0.6
176
     0
 40
30.0
176
     0
 62
     7
420
 16777215
176
     0
 90
        1
176
     0
 90
        4
176
     0
 62
     7
176
     0
 62
   257
176
     0
 90
        1
176
     0
 90
        1
176
     0
 40
1.0
176
     0
 90
        9
176
     2
 62
     7
176
     0
 40
1.0
176
     0
 90
        1
176
     0
 90
        6
176
     0
 90
        2
176
     0
 62
     7
176
     0
 90
        5
176
     0
 90
        0
176
     0
 90
        0
176
     0
290
     0
176
     0
 90
        1
176
     0
 40
0.0
176
     0
 90
        0
176
     0
290
     0
176
     0
290
     1
176
     0
290
     1
176
     0
290
     0
176
     0
290
     0
176
     0
290
     0
176
     0
290
     0
176
     0
290
     0
176
     0
290
     0
176
     0
 90
       50
176
     0
 40
0.0
176
     0
 40
1.0
176
     0
 90
        0
176
     0
 62
    18
420
        0
176
     0
 90
       50
176
     0
 90
        3
176
     0
 62
     5
420
      255
176
     0
290
     0
176
     0
 90
       50
176
     0
 90
       50
176
     0
 90
       50
176
     0
290
     0
176
     0
 90
       50
176
     0
 62
   256
176
     0
 40
1.0
176
     0
 90
        2
176
     0
  1
strokes_ogs.tif
176
     0
290
     0
176
     0
 40
1.0
176
     0
 40
1.0
176
     0
  0
VISUALSTYLE
  5
33
102
{ACAD_REACTORS
330
2A
102
}
330
2A
100
AcDbVisualStyle
  2
Realistic
 70
     8
177
     3
291
     0
 70
    58
 90
        2
176
     1
 90
        3
176
     1
 90
        0
176
     1
 90
        2
176
     1
 40
0.6
176
     1
 40
30.0
176
     1
 62
     7
420
 16777215
176
     1
 90
        0
176
     1
 90
        0
176
     1
 62
     7
176
     1
 62
   257
176
     1
 90
        1
176
     1
 90
        1
176
     1
 40
1.0
176
     1
 90
        8
176
     1
 62
   257
176
     1
 40
1.0
176
     1
 90
        1
176
     1
 90
        6
176
     1
 90
        2
176
     1
 62
     7
176
     1
 90
        3
176
     1
 90
        0
176
     1
 90
        0
176
     1
290
     0
176
     1
 90
       13
176
     1
 40
0.0
176
     1
 90
        0
176
     1
290
     0
176
     1
290
     1
176
     1
290
     1
176
     1
290
     0
176
     1
290
     0
176
     1
290
     0
176
     1
290
     0
176
     1
290
     0
176
     1
290
     0
176
     1
 90
       50
176
     1
 40
0.0
176
     1
 40
1.0
176
     1
 90
        0
176
     1
 62
    18
420
        0
176
     1
 90
       50
176
     1
 90
        3
176
     1
 62
     5
420
      255
176
     1
290
     0
176
     1
 90
       50
176
     1
 90
       50
176
     1
 90
       50
176
     1
290
     0
176
     1
 90
       50
176
     1
 62
   256
176
     0
 40
1.0
176
     0
 90
        2
176
     1
  1
strokes_ogs.tif
176
     1
290
     0
176
     1
 40
1.0
176
     1
 40
1.0
176
     1
  0
VISUALSTYLE
  5
42
102
{ACAD_REACTORS
330
2A
102
}
330
2A
100
AcDbVisualStyle
  2
Shaded
 70
    27
177
     3
291
     0
 70
    58
 90
        2
176
     1
 90
        2
176
     1
 90
        1
176
     1
 90
        2
176
     1
 40
0.6
176
     1
 40
30.0
176
     1
 62
     7
420
 16777215
176
     1
 90
        0
176
     1
 90
        4
176
     1
 62
     7
176
     1
 62
   257
176
     1
 90
        1
176
     1
 90
        1
176
     1
 40
1.0
176
     1
 90
        8
176
     1
 62
   257
176
     1
 40
1.0
176
     1
 90
        1
176
     1
 90
        6
176
     1
 90
        2
176
     1
 62
     8
420
  7895160
176
     1
 90
        3
176
     1
 90
        0
176
     1
 90
        0
176
     1
290
     0
176
     1
 90
        5
176
     1
 40
0.0
176
     1
 90
        0
176
     1
290
     0
176
     1
290
     1
176
     1
290
     1
176
     1
290
     0
176
     1
290
     0
176
     1
290
     0
176
     1
290
     0
176
     1
290
     0
176
     1
290
     0
176
     1
 90
       50
176
     1
 40
0.0
176
     1
 40
1.0
176
     1
 90
        0
176
     1
 62
    18
420
        0
176
     1
 90
       50
176
     1
 90
        3
176
     1
 62
     5
420
      255
176
     1
290
     0
176
     1
 90
       50
176
     1
 90
       50
176
     1
 90
       50
176
     1
290
     0
176
     1
 90
       50
176
     1
 62
   256
176
     0
 40
1.0
176
     0
 90
        2
176
     1
  1
strokes_ogs.tif
176
     1
290
     0
176
     1
 40
1.0
176
     1
 40
1.0
176
     1
  0
VISUALSTYLE
  5
41
102
{ACAD_REACTORS
330
2A
102
}
330
2A
100
AcDbVisualStyle
  2
Shaded with edges
 70
    26
177
     3
291
     0
 70
    58
 90
        2
176
     1
 90
        2
176
     1
 90
        1
176
     1
 90
        2
176
     1
 40
0.6
176
     1
 40
30.0
176
     1
 62
     7
420
 16777215
176
     1
 90
        1
176
     1
 90
       10
176
     1
 62
     7
176
     1
 62
   257
176
     1
 90
        2
176
     1
 90
        1
176
     1
 40
1.0
176
     1
 90
        8
176
     1
 62
   257
176
     1
 40
1.0
176
     1
 90
        1
176
     1
 90
        6
176
     1
 90
        2
176
     1
 62
     7
176
     1
 90
        3
176
     1
 90
        0
176
     1
 90
        0
176
     1
290
     0
176
     1
 90
        5
176
     1
 40
0.0
176
     1
 90
        0
176
     1
290
     0
176
     1
290
     1
176
     1
290
     1
176
     1
290
     0
176
     1
290
     0
176
     1
290
     0
176
     1
290
     0
176
     1
290
     0
176
     1
290
     0
176
     1
 90
       50
176
     1
 40
0.0
176
     1
 40
1.0
176
     1
 90
        0
176
     1
 62
    18
420
        0
176
     1
 90
       50
176
     1
 90
        3
176
     1
 62
     5
420
      255
176
     1
290
     0
176
     1
 90
       50
176
     1
 90
       50
176
     1
 90
       50
176
     1
290
     0
176
     1
 90
       50
176
     1
 62
   256
176
     0
 40
1.0
176
     0
 90
        2
176
     1
  1
strokes_ogs.tif
176
     1
290
     0
176
     1
 40
1.0
176
     1
 40
1.0
176
     1
  0
VISUALSTYLE
  5
3E
102
{ACAD_REACTORS
330
2A
102
}
330
2A
100
AcDbVisualStyle
  2
Shades of Gray
 70
    23
177
     3
291
     0
 70
    58
 90
        2
176
     1
 90
        2
176
     1
 90
        3
176
     1
 90
        0
176
     1
 40
0.6
176
     1
 40
30.0
176
     1
 62
     7
420
 16777215
176
     1
 90
        2
176
     1
 90
        2
176
     1
 62
     7
176
     1
 62
     7
176
     1
 90
        1
176
     1
 90
        1
176
     1
 40
40.0
176
     1
 90
        8
176
     1
 62
     7
176
     1
 40
1.0
176
     1
 90
        1
176
     1
 90
        6
176
     1
 90
        2
176
     1
 62
     7
176
     1
 90
        3
176
     1
 90
        0
176
     1
 90
        0
176
     1
290
     0
176
     1
 90
        1
176
     1
 40
0.0
176
     1
 90
        0
176
     1
290
     0
176
     1
290
     1
176
     1
290
     1
176
     1
290
     0
176
     1
290
     0
176
     1
290
     0
176
     1
290
     0
176
     1
290
     0
176
     1
290
     0
176
     1
 90
       50
176
     1
 40
0.0
176
     1
 40
1.0
176
     1
 90
        0
176
     1
 62
    18
420
        0
176
     1
 90
       50
176
     1
 90
        3
176
     1
 62
     5
420
      255
176
     1
290
     0
176
     1
 90
       50
176
     1
 90
       50
176
     1
 90
       50
176
     1
290
     0
176
     1
 90
       50
176
     1
 62
   256
176
     0
 40
1.0
176
     0
 90
        2
176
     1
  1
strokes_ogs.tif
176
     1
290
     0
176
     1
 40
1.0
176
     1
 40
1.0
176
     1
  0
VISUALSTYLE
  5
3F
102
{ACAD_REACTORS
330
2A
102
}
330
2A
100
AcDbVisualStyle
  2
Sketchy
 70
    24
177
     3
291
     0
 70
    58
 90
        1
176
     1
 90
        2
176
     1
 90
        2
176
     1
 90
        0
176
     1
 40
0.6
176
     1
 40
30.0
176
     1
 62
     7
420
 16777215
176
     1
 90
        2
176
     1
 90
        2
176
     1
 62
     7
176
     1
 62
     7
176
     1
 90
        1
176
     1
 90
        1
176
     1
 40
40.0
176
     1
 90
       11
176
     1
 62
     7
176
     1
 40
1.0
176
     1
 90
        1
176
     1
 90
        6
176
     1
 90
        2
176
     1
 62
     7
176
     1
 90
        6
176
     1
 90
        0
176
     1
 90
        0
176
     1
290
     0
176
     1
 90
        1
176
     1
 40
0.0
176
     1
 90
        0
176
     1
290
     0
176
     1
290
     1
176
     1
290
     1
176
     1
290
     0
176
     1
290
     0
176
     1
290
     0
176
     1
290
     0
176
     1
290
     0
176
     1
290
     0
176
     1
 90
       50
176
     1
 40
0.0
176
     1
 40
1.0
176
     1
 90
        0
176
     1
 62
    18
420
        0
176
     1
 90
       50
176
     1
 90
        3
176
     1
 62
     5
420
      255
176
     1
290
     0
176
     1
 90
       50
176
     1
 90
       50
176
     1
 90
       50
176
     1
290
     0
176
     1
 90
       50
176
     1
 62
   256
176
     0
 40
1.0
176
     0
 90
        2
176
     1
  1
strokes_ogs.tif
176
     1
290
     0
176
     1
 40
1.0
176
     1
 40
1.0
176
     1
  0
VISUALSTYLE
  5
37
102
{ACAD_REACTORS
330
2A
102
}
330
2A
100
AcDbVisualStyle
  2
Thicken
 70
    13
177
     3
291
     1
 70
    58
 90
        2
176
     1
 90
        2
176
     1
 90
        0
176
     1
 90
        0
176
     1
 40
0.6
176
     1
 40
30.0
176
     1
 62
     7
420
 16777215
176
     1
 90
        1
176
     1
 90
        4
176
     1
 62
     7
176
     1
 62
   257
176
     1
 90
        1
176
     1
 90
        1
176
     1
 40
1.0
176
     1
 90
       12
176
     1
 62
     7
176
     1
 40
1.0
176
     1
 90
        1
176
     1
 90
        6
176
     1
 90
        2
176
     1
 62
     7
176
     1
 90
        5
176
     1
 90
        0
176
     1
 90
        0
176
     1
290
     0
176
     1
 90
        1
176
     1
 40
0.0
176
     1
 90
        0
176
     1
290
     0
176
     1
290
     1
176
     1
290
     1
176
     1
290
     0
176
     1
290
     0
176
     1
290
     0
176
     1
290
     0
176
     1
290
     0
176
     1
290
     0
176
     1
 90
       50
176
     1
 40
0.0
176
     1
 40
1.0
176
     1
 90
        0
176
     1
 62
    18
420
        0
176
     1
 90
       50
176
     1
 90
        3
176
     1
 62
     5
420
      255
176
     1
290
     0
176
     1
 90
       50
176
     1
 90
       50
176
     1
 90
       50
176
     1
290
     0
176
     1
 90
       50
176
     1
 62
   256
176
     0
 40
1.0
176
     0
 90
        2
176
     1
  1
strokes_ogs.tif
176
     1
290
     0
176
     1
 40
1.0
176
     1
 40
1.0
176
     1
  0
VISUALSTYLE
  5
30
102
{ACAD_REACTORS
330
2A
102
}
330
2A
100
AcDbVisualStyle
  2
Wireframe
 70
     5
177
     3
291
     0
 70
    58
 90
        0
176
     1
 90
        2
176
     1
 90
        0
176
     1
 90
        0
176
     1
 40
0.6
176
     1
 40
30.0
176
     1
 62
     7
420
 16777215
176
     1
 90
        1
176
     1
 90
        4
176
     1
 62
     7
176
     1
 62
   257
176
     1
 90
        1
176
     1
 90
        1
176
     1
 40
1.0
176
     1
 90
        0
176
     1
 62
   257
176
     1
 40
1.0
176
     1
 90
        1
176
     1
 90
        6
176
     1
 90
        2
176
     1
 62
     7
176
     1
 90
        3
176
     1
 90
        0
176
     1
 90
        0
176
     1
290
     0
176
     1
 90
        1
176
     1
 40
0.0
176
     1
 90
        0
176
     1
290
     0
176
     1
290
     1
176
     1
290
     1
176
     1
290
     0
176
     1
290
     0
176
     1
290
     0
176
     1
290
     0
176
     1
290
     0
176
     1
290
     0
176
     1
 90
       50
176
     1
 40
0.0
176
     1
 40
1.0
176
     1
 90
        0
176
     1
 62
    18
420
        0
176
     1
 90
       50
176
     1
 90
        3
176
     1
 62
     5
420
      255
176
     1
290
     0
176
     1
 90
       50
176
     1
 90
       50
176
     1
 90
       50
176
     1
290
     0
176
     1
 90
       50
176
     1
 62
   256
176
     0
 40
1.0
176
     0
 90
        2
176
     1
  1
strokes_ogs.tif
176
     1
290
     0
176
     1
 40
1.0
176
     1
 40
1.0
176
     1
  0
VISUALSTYLE
  5
40
102
{ACAD_REACTORS
330
2A
102
}
330
2A
100
AcDbVisualStyle
  2
X-Ray
 70
    25
177
     3
291
     0
 70
    58
 90
        2
176
     1
 90
        2
176
     1
 90
        1
176
     1
 90
        1
176
     1
 40
0.5
176
     1
 40
30.0
176
     1
 62
     7
420
 16777215
176
     1
 90
        1
176
     1
 90
        0
176
     1
 62
     7
176
     1
 62
   257
176
     1
 90
        1
176
     1
 90
        1
176
     1
 40
1.0
176
     1
 90
        8
176
     1
 62
     7
176
     1
 40
1.0
176
     1
 90
        1
176
     1
 90
        6
176
     1
 90
        2
176
     1
 62
     7
176
     1
 90
        3
176
     1
 90
        0
176
     1
 90
        0
176
     1
290
     0
176
     1
 90
       13
176
     1
 40
0.0
176
     1
 90
        0
176
     1
290
     0
176
     1
290
     1
176
     1
290
     1
176
     1
290
     0
176
     1
290
     0
176
     1
290
     0
176
     1
290
     0
176
     1
290
     0
176
     1
290
     0
176
     1
 90
       50
176
     1
 40
0.0
176
     1
 40
1.0
176
     1
 90
        0
176
     1
 62
    18
420
        0
176
     1
 90
       50
176
     1
 90
        3
176
     1
 62
     5
420
      255
176
     1
290
     0
176
     1
 90
       50
176
     1
 90
       50
176
     1
 90
       50
176
     1
290
     0
176
     1
 90
       50
176
     1
 62
   256
176
     0
 40
1.0
176
     0
 90
        2
176
     1
  1
strokes_ogs.tif
176
     1
290
     0
176
     1
 40
1.0
176
     1
 40
1.0
176
     1
  0
DICTIONARYVAR
  5
57C
102
{ACAD_REACTORS
330
57B
102
}
330
57B
100
DictionaryVariables
280
     0
  1
1:1
  0
DICTIONARYVAR
  5
584
102
{ACAD_REACTORS
330
57B
102
}
330
57B
100
DictionaryVariables
280
     0
  1
3.500000
  0
DICTIONARYVAR
  5
585
102
{ACAD_REACTORS
330
57B
102
}
330
57B
100
DictionaryVariables
280
     0
  1
acadiso.lin
  0
DICTIONARYVAR
  5
581
102
{ACAD_REACTORS
330
57B
102
}
330
57B
100
DictionaryVariables
280
     0
  1
Standard
  0
DICTIONARYVAR
  5
580
102
{ACAD_REACTORS
330
57B
102
}
330
57B
100
DictionaryVariables
280
     0
  1
Standard
  0
DICTIONARY
  5
57D
330
6A
100
AcDbDictionary
280
     1
281
     1
  3
ACAD_ROUNDTRIP_2008_TABLESTYLE_CELLSTYLEMAP
360
57E
  0
CELLSTYLEMAP
  5
57E
102
{ACAD_REACTORS
330
57D
102
}
330
57D
100
AcDbCellStyleMap
 90
        3
300
CELLSTYLE
  1
TABLEFORMAT_BEGIN
 90
        5
170
     1
 91
        0
 92
    32768
 62
   257
 93
        1
300
CONTENTFORMAT
  1
CONTENTFORMAT_BEGIN
 90
        0
 91
        0
 92
        4
 93
        0
300

 40
0.0
140
1.0
 94
        5
 62
     0
340
11
144
6.0
309
CONTENTFORMAT_END
171
     1
301
MARGIN
  1
CELLMARGIN_BEGIN
 40
1.5
 40
1.5
 40
1.5
 40
1.5
 40
1.5
 40
1.5
309
CELLMARGIN_END
 94
        6
 95
        1
302
GRIDFORMAT
  1
GRIDFORMAT_BEGIN
 90
        0
 91
        1
 62
     0
 92
       -2
340
14
 93
        0
 40
0.045
309
GRIDFORMAT_END
 95
        2
302
GRIDFORMAT
  1
GRIDFORMAT_BEGIN
 90
        0
 91
        1
 62
     0
 92
       -2
340
14
 93
        0
 40
0.045
309
GRIDFORMAT_END
 95
        4
302
GRIDFORMAT
  1
GRIDFORMAT_BEGIN
 90
        0
 91
        1
 62
     0
 92
       -2
340
14
 93
        0
 40
0.045
309
GRIDFORMAT_END
 95
        8
302
GRIDFORMAT
  1
GRIDFORMAT_BEGIN
 90
        0
 91
        1
 62
     0
 92
       -2
340
14
 93
        0
 40
0.045
309
GRIDFORMAT_END
 95
       16
302
GRIDFORMAT
  1
GRIDFORMAT_BEGIN
 90
        0
 91
        1
 62
     0
 92
       -2
340
14
 93
        0
 40
0.045
309
GRIDFORMAT_END
 95
       32
302
GRIDFORMAT
  1
GRIDFORMAT_BEGIN
 90
        0
 91
        1
 62
     0
 92
       -2
340
14
 93
        0
 40
0.045
309
GRIDFORMAT_END
309
TABLEFORMAT_END
  1
CELLSTYLE_BEGIN
 90
        1
 91
        1
300
_TITLE
309
CELLSTYLE_END
300
CELLSTYLE
  1
TABLEFORMAT_BEGIN
 90
        5
170
     1
 91
        0
 92
        0
 62
   257
 93
        1
300
CONTENTFORMAT
  1
CONTENTFORMAT_BEGIN
 90
        0
 91
        0
 92
        4
 93
        0
300

 40
0.0
140
1.0
 94
        5
 62
     0
340
11
144
4.5
309
CONTENTFORMAT_END
171
     1
301
MARGIN
  1
CELLMARGIN_BEGIN
 40
1.5
 40
1.5
 40
1.5
 40
1.5
 40
1.5
 40
1.5
309
CELLMARGIN_END
 94
        6
 95
        1
302
GRIDFORMAT
  1
GRIDFORMAT_BEGIN
 90
        0
 91
        1
 62
     0
 92
       -2
340
14
 93
        0
 40
0.045
309
GRIDFORMAT_END
 95
        2
302
GRIDFORMAT
  1
GRIDFORMAT_BEGIN
 90
        0
 91
        1
 62
     0
 92
       -2
340
14
 93
        0
 40
0.045
309
GRIDFORMAT_END
 95
        4
302
GRIDFORMAT
  1
GRIDFORMAT_BEGIN
 90
        0
 91
        1
 62
     0
 92
       -2
340
14
 93
        0
 40
0.045
309
GRIDFORMAT_END
 95
        8
302
GRIDFORMAT
  1
GRIDFORMAT_BEGIN
 90
        0
 91
        1
 62
     0
 92
       -2
340
14
 93
        0
 40
0.045
309
GRIDFORMAT_END
 95
       16
302
GRIDFORMAT
  1
GRIDFORMAT_BEGIN
 90
        0
 91
        1
 62
     0
 92
       -2
340
14
 93
        0
 40
0.045
309
GRIDFORMAT_END
 95
       32
302
GRIDFORMAT
  1
GRIDFORMAT_BEGIN
 90
        0
 91
        1
 62
     0
 92
       -2
340
14
 93
        0
 40
0.045
309
GRIDFORMAT_END
309
TABLEFORMAT_END
  1
CELLSTYLE_BEGIN
 90
        2
 91
        1
300
_HEADER
309
CELLSTYLE_END
300
CELLSTYLE
  1
TABLEFORMAT_BEGIN
 90
        5
170
     1
 91
        0
 92
        0
 62
   257
 93
        1
300
CONTENTFORMAT
  1
CONTENTFORMAT_BEGIN
 90
        0
 91
        0
 92
        4
 93
        0
300

 40
0.0
140
1.0
 94
        2
 62
     0
340
11
144
4.5
309
CONTENTFORMAT_END
171
     1
301
MARGIN
  1
CELLMARGIN_BEGIN
 40
1.5
 40
1.5
 40
1.5
 40
1.5
 40
1.5
 40
1.5
309
CELLMARGIN_END
 94
        6
 95
        1
302
GRIDFORMAT
  1
GRIDFORMAT_BEGIN
 90
        0
 91
        1
 62
     0
 92
       -2
340
14
 93
        0
 40
0.045
309
GRIDFORMAT_END
 95
        2
302
GRIDFORMAT
  1
GRIDFORMAT_BEGIN
 90
        0
 91
        1
 62
     0
 92
       -2
340
14
 93
        0
 40
0.045
309
GRIDFORMAT_END
 95
        4
302
GRIDFORMAT
  1
GRIDFORMAT_BEGIN
 90
        0
 91
        1
 62
     0
 92
       -2
340
14
 93
        0
 40
0.045
309
GRIDFORMAT_END
 95
        8
302
GRIDFORMAT
  1
GRIDFORMAT_BEGIN
 90
        0
 91
        1
 62
     0
 92
       -2
340
14
 93
        0
 40
0.045
309
GRIDFORMAT_END
 95
       16
302
GRIDFORMAT
  1
GRIDFORMAT_BEGIN
 90
        0
 91
        1
 62
     0
 92
       -2
340
14
 93
        0
 40
0.045
309
GRIDFORMAT_END
 95
       32
302
GRIDFORMAT
  1
GRIDFORMAT_BEGIN
 90
        0
 91
        1
 62
     0
 92
       -2
340
14
 93
        0
 40
0.045
309
GRIDFORMAT_END
309
TABLEFORMAT_END
  1
CELLSTYLE_BEGIN
 90
        3
 91
        2
300
_DATA
309
CELLSTYLE_END
  0
ENDSEC
  0
EOF
