  0
SECTION
  2
HEADER
  9
$ACADVER
  1
AC1018
  9
$ACADMAINTVER
 70
     0
  9
$DWGCODEPAGE
  3
ANSI_932
  9
$INSBASE
 10
0.0
 20
0.0
 30
0.0
  9
$EXTMIN
 10
-1050.0
 20
-742.5
 30
0.0
  9
$EXTMAX
 10
1050.0
 20
742.5
 30
0.0
  9
$LIMMIN
 10
-1050.0
 20
-742.5
  9
$LIMMAX
 10
1050.0
 20
742.5
  9
$ORTHOMODE
 70
     0
  9
$REGENMODE
 70
     1
  9
$FILLMODE
 70
     1
  9
$QTEXTMODE
 70
     0
  9
$MIRRTEXT
 70
     1
  9
$LTSCALE
 40
5.0
  9
$ATTMODE
 70
     1
  9
$TEXTSIZE
 40
2.5
  9
$TRACEWID
 40
1.0
  9
$TEXTSTYLE
  7
Standard
  9
$CLAYER
  8
0
  9
$CELTYPE
  6
ByLayer
  9
$CECOLOR
 62
   256
  9
$CELTSCALE
 40
1.0
  9
$DISPSILH
 70
     0
  9
$DIMSCALE
 40
1.0
  9
$DIMASZ
 40
2.5
  9
$DIMEXO
 40
0.625
  9
$DIMDLI
 40
3.75
  9
$DIMRND
 40
0.0
  9
$DIMDLE
 40
0.0
  9
$DIMEXE
 40
1.25
  9
$DIMTP
 40
0.0
  9
$DIMTM
 40
0.0
  9
$DIMTXT
 40
2.5
  9
$DIMCEN
 40
2.5
  9
$DIMTSZ
 40
0.0
  9
$DIMTOL
 70
     0
  9
$DIMLIM
 70
     0
  9
$DIMTIH
 70
     0
  9
$DIMTOH
 70
     0
  9
$DIMSE1
 70
     0
  9
$DIMSE2
 70
     0
  9
$DIMTAD
 70
     1
  9
$DIMZIN
 70
     8
  9
$DIMBLK
  1

  9
$DIMASO
 70
     1
  9
$DIMSHO
 70
     1
  9
$DIMPOST
  1

  9
$DIMAPOST
  1

  9
$DIMALT
 70
     0
  9
$DIMALTD
 70
     3
  9
$DIMALTF
 40
0.03937007874016
  9
$DIMLFAC
 40
1.0
  9
$DIMTOFL
 70
     1
  9
$DIMTVP
 40
0.0
  9
$DIMTIX
 70
     0
  9
$DIMSOXD
 70
     0
  9
$DIMSAH
 70
     0
  9
$DIMBLK1
  1

  9
$DIMBLK2
  1

  9
$DIMSTYLE
  2
ISO-25
  9
$DIMCLRD
 70
     0
  9
$DIMCLRE
 70
     0
  9
$DIMCLRT
 70
     0
  9
$DIMTFAC
 40
1.0
  9
$DIMGAP
 40
0.625
  9
$DIMJUST
 70
     0
  9
$DIMSD1
 70
     0
  9
$DIMSD2
 70
     0
  9
$DIMTOLJ
 70
     0
  9
$DIMTZIN
 70
     8
  9
$DIMALTZ
 70
     0
  9
$DIMALTTZ
 70
     0
  9
$DIMUPT
 70
     0
  9
$DIMDEC
 70
     2
  9
$DIMTDEC
 70
     2
  9
$DIMALTU
 70
     2
  9
$DIMALTTD
 70
     3
  9
$DIMTXSTY
  7
Standard
  9
$DIMAUNIT
 70
     0
  9
$DIMADEC
 70
     0
  9
$DIMALTRND
 40
0.0
  9
$DIMAZIN
 70
     0
  9
$DIMDSEP
 70
    44
  9
$DIMATFIT
 70
     3
  9
$DIMFRAC
 70
     0
  9
$DIMLDRBLK
  1

  9
$DIMLUNIT
 70
     2
  9
$DIMLWD
 70
    -2
  9
$DIMLWE
 70
    -2
  9
$DIMTMOVE
 70
     0
  9
$LUNITS
 70
     2
  9
$LUPREC
 70
     4
  9
$SKETCHINC
 40
1.0
  9
$FILLETRAD
 40
10.0
  9
$AUNITS
 70
     0
  9
$AUPREC
 70
     0
  9
$MENU
  1
.
  9
$ELEVATION
 40
0.0
  9
$PELEVATION
 40
0.0
  9
$THICKNESS
 40
0.0
  9
$LIMCHECK
 70
     0
  9
$CHAMFERA
 40
0.0
  9
$CHAMFERB
 40
0.0
  9
$CHAMFERC
 40
0.0
  9
$CHAMFERD
 40
0.0
  9
$SKPOLY
 70
     0
  9
$TDCREATE
 40
2459538.608943021
  9
$TDUCREATE
 40
2459538.233943021
  9
$TDUPDATE
 40
2459538.608943136
  9
$TDUUPDATE
 40
2459538.233943136
  9
$TDINDWG
 40
0.0000000116
  9
$TDUSRTIMER
 40
0.0000000116
  9
$USRTIMER
 70
     1
  9
$ANGBASE
 50
0.0
  9
$ANGDIR
 70
     0
  9
$PDMODE
 70
     0
  9
$PDSIZE
 40
0.0
  9
$PLINEWID
 40
0.0
  9
$SPLFRAME
 70
     0
  9
$SPLINETYPE
 70
     6
  9
$SPLINESEGS
 70
     8
  9
$HANDSEED
  5
3BB
  9
$SURFTAB1
 70
     6
  9
$SURFTAB2
 70
     6
  9
$SURFTYPE
 70
     6
  9
$SURFU
 70
     6
  9
$SURFV
 70
     6
  9
$UCSBASE
  2

  9
$UCSNAME
  2

  9
$UCSORG
 10
0.0
 20
0.0
 30
0.0
  9
$UCSXDIR
 10
1.0
 20
0.0
 30
0.0
  9
$UCSYDIR
 10
0.0
 20
1.0
 30
0.0
  9
$UCSORTHOREF
  2

  9
$UCSORTHOVIEW
 70
     0
  9
$UCSORGTOP
 10
0.0
 20
0.0
 30
0.0
  9
$UCSORGBOTTOM
 10
0.0
 20
0.0
 30
0.0
  9
$UCSORGLEFT
 10
0.0
 20
0.0
 30
0.0
  9
$UCSORGRIGHT
 10
0.0
 20
0.0
 30
0.0
  9
$UCSORGFRONT
 10
0.0
 20
0.0
 30
0.0
  9
$UCSORGBACK
 10
0.0
 20
0.0
 30
0.0
  9
$PUCSBASE
  2

  9
$PUCSNAME
  2

  9
$PUCSORG
 10
0.0
 20
0.0
 30
0.0
  9
$PUCSXDIR
 10
1.0
 20
0.0
 30
0.0
  9
$PUCSYDIR
 10
0.0
 20
1.0
 30
0.0
  9
$PUCSORTHOREF
  2

  9
$PUCSORTHOVIEW
 70
     0
  9
$PUCSORGTOP
 10
0.0
 20
0.0
 30
0.0
  9
$PUCSORGBOTTOM
 10
0.0
 20
0.0
 30
0.0
  9
$PUCSORGLEFT
 10
0.0
 20
0.0
 30
0.0
  9
$PUCSORGRIGHT
 10
0.0
 20
0.0
 30
0.0
  9
$PUCSORGFRONT
 10
0.0
 20
0.0
 30
0.0
  9
$PUCSORGBACK
 10
0.0
 20
0.0
 30
0.0
  9
$USERI1
 70
     0
  9
$USERI2
 70
     0
  9
$USERI3
 70
     0
  9
$USERI4
 70
     0
  9
$USERI5
 70
     0
  9
$USERR1
 40
0.0
  9
$USERR2
 40
0.0
  9
$USERR3
 40
0.0
  9
$USERR4
 40
0.0
  9
$USERR5
 40
0.0
  9
$WORLDVIEW
 70
     1
  9
$SHADEDGE
 70
     3
  9
$SHADEDIF
 70
    70
  9
$TILEMODE
 70
     1
  9
$MAXACTVP
 70
    64
  9
$PINSBASE
 10
0.0
 20
0.0
 30
0.0
  9
$PLIMCHECK
 70
     0
  9
$PEXTMIN
 10
1.000000000000000E+20
 20
1.000000000000000E+20
 30
1.000000000000000E+20
  9
$PEXTMAX
 10
-1.000000000000000E+20
 20
-1.000000000000000E+20
 30
-1.000000000000000E+20
  9
$PLIMMIN
 10
0.0
 20
0.0
  9
$PLIMMAX
 10
420.0
 20
297.0
  9
$UNITMODE
 70
     0
  9
$VISRETAIN
 70
     1
  9
$PLINEGEN
 70
     0
  9
$PSLTSCALE
 70
     1
  9
$TREEDEPTH
 70
  3020
  9
$CMLSTYLE
  2
Standard
  9
$CMLJUST
 70
     0
  9
$CMLSCALE
 40
20.0
  9
$PROXYGRAPHICS
 70
     1
  9
$MEASUREMENT
 70
     1
  9
$CELWEIGHT
370
    -1
  9
$ENDCAPS
280
     0
  9
$JOINSTYLE
280
     0
  9
$LWDISPLAY
290
     0
  9
$INSUNITS
 70
     4
  9
$HYPERLINKBASE
  1

  9
$STYLESHEET
  1

  9
$XEDIT
290
     1
  9
$CEPSNTYPE
380
     0
  9
$PSTYLEMODE
290
     1
  9
$FINGERPRINTGUID
  2
{61E61664-396A-481F-AB16-80E639D3B41D}
  9
$VERSIONGUID
  2
{FAEB1C32-E019-11D5-929B-00C0DF256EC4}
  9
$EXTNAMES
290
     1
  9
$PSVPSCALE
 40
0.0
  9
$OLESTARTUP
290
     0
  9
$SORTENTS
280
   127
  9
$INDEXCTL
280
     0
  9
$HIDETEXT
280
     1
  9
$XCLIPFRAME
290
     0
  9
$HALOGAP
280
     0
  9
$OBSCOLOR
 70
   257
  9
$OBSLTYPE
280
     0
  9
$INTERSECTIONDISPLAY
280
     0
  9
$INTERSECTIONCOLOR
 70
   257
  9
$DIMASSOC
280
     2
  9
$PROJECTNAME
  1

  0
ENDSEC
  0
SECTION
  2
CLASSES
  0
CLASS
  1
ACDBDICTIONARYWDFLT
  2
AcDbDictionaryWithDefault
  3
ObjectDBX Classes
 90
        0
 91
        4
280
     0
281
     0
  0
CLASS
  1
VISUALSTYLE
  2
AcDbVisualStyle
  3
ObjectDBX Classes
 90
     4095
 91
        4
280
     0
281
     0
  0
CLASS
  1
MATERIAL
  2
AcDbMaterial
  3
ObjectDBX Classes
 90
     1153
 91
        4
280
     0
281
     0
  0
CLASS
  1
SCALE
  2
AcDbScale
  3
ObjectDBX Classes
 90
     1153
 91
        4
280
     0
281
     0
  0
CLASS
  1
TABLESTYLE
  2
AcDbTableStyle
  3
ObjectDBX Classes
 90
     4095
 91
        4
280
     0
281
     0
  0
CLASS
  1
MLEADERSTYLE
  2
AcDbMLeaderStyle
  3
ACDB_MLEADERSTYLE_CLASS
 90
     4095
 91
        4
280
     0
281
     0
  0
CLASS
  1
SUN
  2
AcDbSun
  3
SCENEOE
 90
     1153
 91
        4
280
     0
281
     0
  0
CLASS
  1
DICTIONARYVAR
  2
AcDbDictionaryVar
  3
ObjectDBX Classes
 90
        0
 91
        4
280
     0
281
     0
  0
CLASS
  1
CELLSTYLEMAP
  2
AcDbCellStyleMap
  3
ObjectDBX Classes
 90
     1152
 91
        4
280
     0
281
     0
  0
ENDSEC
  0
SECTION
  2
TABLES
  0
TABLE
  2
VPORT
  5
8
102
{ACAD_XDICTIONARY
360
372
102
}
330
0
100
AcDbSymbolTable
 70
     1
  0
VPORT
  5
29
330
8
100
AcDbSymbolTableRecord
100
AcDbViewportTableRecord
  2
*Active
 70
     0
 10
0.0
 20
0.0
 11
1.0
 21
1.0
 12
0.0
 22
0.0
 13
0.0
 23
0.0
 14
10.0
 24
10.0
 15
10.0
 25
10.0
 16
0.0
 26
0.0
 36
1.0
 17
0.0
 27
0.0
 37
0.0
 40
1633.5
 41
1.414141414141414
 42
50.0
 43
0.0
 44
0.0
 50
0.0
 51
0.0
 71
     0
 72
 10000
 73
     1
 74
     3
 75
     0
 76
     0
 77
     0
 78
     0
281
     0
 65
     1
110
0.0
120
0.0
130
0.0
111
1.0
121
0.0
131
0.0
112
0.0
122
1.0
132
0.0
 79
     0
146
0.0
  0
ENDTAB
  0
TABLE
  2
LTYPE
  5
5
330
0
100
AcDbSymbolTable
 70
     4
  0
LTYPE
  5
14
330
5
100
AcDbSymbolTableRecord
100
AcDbLinetypeTableRecord
  2
ByBlock
 70
     0
  3

 72
    65
 73
     0
 40
0.0
  0
LTYPE
  5
15
330
5
100
AcDbSymbolTableRecord
100
AcDbLinetypeTableRecord
  2
ByLayer
 70
     0
  3

 72
    65
 73
     0
 40
0.0
  0
LTYPE
  5
16
330
5
100
AcDbSymbolTableRecord
100
AcDbLinetypeTableRecord
  2
Continuous
 70
     0
  3
Solid line
 72
    65
 73
     0
 40
0.0
  0
LTYPE
  5
6F
330
5
100
AcDbSymbolTableRecord
100
AcDbLinetypeTableRecord
  2
JWW_CENTER1
 70
     0
  3
-----  --  ----------  --  -----
 72
    65
 73
     4
 40
6.773333333333333
 49
4.233333333333333
 74
     0
 49
-0.8466666666666667
 74
     0
 49
0.8466666666666667
 74
     0
 49
-0.8466666666666667
 74
     0
  0
LTYPE
  5
70
330
5
100
AcDbSymbolTableRecord
100
AcDbLinetypeTableRecord
  2
JWW_DASHED3
 70
     0
  3
---  ------  ------  ------  ---
 72
    65
 73
     2
 40
3.386666666666667
 49
2.54
 74
     0
 49
-0.8466666666666667
 74
     0
  0
LTYPE
  5
71
330
5
100
AcDbSymbolTableRecord
100
AcDbLinetypeTableRecord
  2
JWW_CENTER2
 70
     0
  3
-------------  --  -------------
 72
    65
 73
     4
 40
13.54666666666667
 49
11.00666666666667
 74
     0
 49
-0.8466666666666667
 74
     0
 49
0.8466666666666667
 74
     0
 49
-0.8466666666666667
 74
     0
  0
ENDTAB
  0
TABLE
  2
LAYER
  5
2
330
0
100
AcDbSymbolTable
 70
     6
  0
LAYER
  5
10
330
2
100
AcDbSymbolTableRecord
100
AcDbLayerTableRecord
  2
0
 70
     0
 62
     7
  6
Continuous
370
    -3
390
F
  0
LAYER
  5
72
330
2
100
AcDbSymbolTableRecord
100
AcDbLayerTableRecord
  2
E-2
 70
     0
 62
     7
  6
Continuous
370
    -3
390
F
  0
LAYER
  5
73
330
2
100
AcDbSymbolTableRecord
100
AcDbLayerTableRecord
  2
E-4
 70
     0
 62
     7
  6
Continuous
370
    -3
390
F
  0
LAYER
  5
74
330
2
100
AcDbSymbolTableRecord
100
AcDbLayerTableRecord
  2
E-5
 70
     0
 62
     7
  6
Continuous
370
    -3
390
F
  0
LAYER
  5
75
330
2
100
AcDbSymbolTableRecord
100
AcDbLayerTableRecord
  2
E-1
 70
     0
 62
     7
  6
Continuous
370
    -3
390
F
  0
LAYER
  5
76
330
2
100
AcDbSymbolTableRecord
100
AcDbLayerTableRecord
  2
F-5ﾚｲﾔ
 70
     0
 62
     7
  6
Continuous
370
    -3
390
F
  0
ENDTAB
  0
TABLE
  2
STYLE
  5
3
330
0
100
AcDbSymbolTable
 70
     2
  0
STYLE
  5
11
330
3
100
AcDbSymbolTableRecord
100
AcDbTextStyleTableRecord
  2
Standard
 70
     0
 40
0.0
 41
1.0
 50
0.0
 71
     0
 42
2.5
  3
txt
  4

  0
STYLE
  5
6E
330
3
100
AcDbSymbolTableRecord
100
AcDbTextStyleTableRecord
  2
ＭＳ ゴシック
 70
     0
 40
1.0
 41
1.0
 50
0.0
 71
     0
 42
2.5
  3

  4

1001
ACAD
1000
MS Gothic
1071
    32817
  0
ENDTAB
  0
TABLE
  2
VIEW
  5
6
330
0
100
AcDbSymbolTable
 70
     0
  0
ENDTAB
  0
TABLE
  2
UCS
  5
7
330
0
100
AcDbSymbolTable
 70
     0
  0
ENDTAB
  0
TABLE
  2
APPID
  5
9
330
0
100
AcDbSymbolTable
 70
     2
  0
APPID
  5
12
330
9
100
AcDbSymbolTableRecord
100
AcDbRegAppTableRecord
  2
ACAD
 70
     0
  0
APPID
  5
3B1
330
9
100
AcDbSymbolTableRecord
100
AcDbRegAppTableRecord
  2
ACAD_MLEADERVER
 70
     0
  0
ENDTAB
  0
TABLE
  2
DIMSTYLE
  5
A
330
0
100
AcDbSymbolTable
 70
     1
100
AcDbDimStyleTable
  0
DIMSTYLE
105
27
330
A
100
AcDbSymbolTableRecord
100
AcDbDimStyleTableRecord
  2
ISO-25
 70
     0
 41
2.5
 42
0.625
 43
3.75
 44
1.25
 73
     0
 74
     0
 77
     1
 78
     8
140
2.5
141
2.5
143
0.03937007874016
147
0.625
171
     3
172
     1
178
     0
271
     2
272
     2
274
     3
278
    44
283
     0
284
     8
340
11
  0
ENDTAB
  0
TABLE
  2
BLOCK_RECORD
  5
1
330
0
100
AcDbSymbolTable
 70
     1
  0
BLOCK_RECORD
  5
1F
330
1
100
AcDbSymbolTableRecord
100
AcDbBlockTableRecord
  2
*Model_Space
340
22
  0
BLOCK_RECORD
  5
1B
330
1
100
AcDbSymbolTableRecord
100
AcDbBlockTableRecord
  2
*Paper_Space
340
1E
  0
BLOCK_RECORD
  5
23
330
1
100
AcDbSymbolTableRecord
100
AcDbBlockTableRecord
  2
*Paper_Space0
340
26
  0
ENDTAB
  0
ENDSEC
  0
SECTION
  2
BLOCKS
  0
BLOCK
  5
20
330
1F
100
AcDbEntity
  8
0
100
AcDbBlockBegin
  2
*Model_Space
 70
     0
 10
0.0
 20
0.0
 30
0.0
  3
*Model_Space
  1

  0
ENDBLK
  5
21
330
1F
100
AcDbEntity
  8
0
100
AcDbBlockEnd
  0
BLOCK
  5
1C
330
1B
100
AcDbEntity
 67
     1
  8
0
100
AcDbBlockBegin
  2
*Paper_Space
 70
     0
 10
0.0
 20
0.0
 30
0.0
  3
*Paper_Space
  1

  0
ENDBLK
  5
1D
330
1B
100
AcDbEntity
 67
     1
  8
0
100
AcDbBlockEnd
  0
BLOCK
  5
24
330
23
100
AcDbEntity
  8
0
100
AcDbBlockBegin
  2
*Paper_Space0
 70
     0
 10
0.0
 20
0.0
 30
0.0
  3
*Paper_Space0
  1

  0
ENDBLK
  5
25
330
23
100
AcDbEntity
  8
0
100
AcDbBlockEnd
  0
ENDSEC
  0
SECTION
  2
ENTITIES
  0
LINE
  5
77
330
1F
100
AcDbEntity
  8
E-2
  6
JWW_CENTER1
 62
     3
370
     9
100
AcDbLine
 10
345.6086108783549
 20
172.3066463242534
 30
0.0
 11
403.6084393200778
 21
172.3066463242534
 31
0.0
  0
LINE
  5
78
330
1F
100
AcDbEntity
  8
E-4
  6
Continuous
 62
     7
370
     9
100
AcDbLine
 10
393.6084393200778
 20
-124.1928884888801
 30
0.0
 11
393.6084393200778
 21
-58.19342130929812
 31
0.0
  0
LINE
  5
79
330
1F
100
AcDbEntity
  8
E-5
  6
Continuous
 62
     7
370
     9
100
AcDbLine
 10
395.8585126499003
 20
346.8064938781253
 30
0.0
 11
402.4309658846712
 21
336.1738621024664
 31
0.0
  0
LINE
  5
7A
330
1F
100
AcDbEntity
  8
E-5
  6
Continuous
 62
     7
370
     9
100
AcDbLine
 10
395.8585126499003
 20
346.8064938781253
 30
0.0
 11
404.9589425745454
 21
338.2372363147989
 31
0.0
  0
LINE
  5
7B
330
1F
100
AcDbEntity
  8
E-1
  6
JWW_CENTER1
 62
     2
370
     9
100
AcDbLine
 10
-269.8265866561748
 20
396.4439815528971
 30
0.0
 11
-269.8265866561748
 21
341.1704745340896
 31
0.0
  0
LINE
  5
7C
330
1F
100
AcDbEntity
  8
E-1
  6
Continuous
 62
     2
370
     9
100
AcDbLine
 10
-482.3265219094209
 20
-73.29395281003713
 30
0.0
 11
-482.3265219094209
 21
-67.19381886261317
 31
0.0
  0
LINE
  5
7D
330
1F
100
AcDbEntity
  8
E-1
  6
Continuous
 62
     2
370
     9
100
AcDbLine
 10
-382.3265631493913
 20
-83.29349092236825
 30
0.0
 11
-472.3264889174446
 21
-83.29349092236825
 31
0.0
  0
LINE
  5
7E
330
1F
100
AcDbEntity
  8
E-1
  6
Continuous
 62
     2
370
     9
100
AcDbLine
 10
-372.326530157415
 20
-73.29395281003713
 30
0.0
 11
-372.326530157415
 21
-67.19381886261317
 31
0.0
  0
LINE
  5
7F
330
1F
100
AcDbEntity
  8
E-1
  6
Continuous
 62
     2
370
     9
100
AcDbLine
 10
-381.3266588261228
 20
-73.29395281003713
 30
0.0
 11
-381.3266588261228
 21
-67.19381886261317
 31
0.0
  0
LINE
  5
80
330
1F
100
AcDbEntity
  8
E-1
  6
Continuous
 62
     2
370
     9
100
AcDbLine
 10
-472.3264889174446
 20
-74.29385713330575
 30
0.0
 11
-382.3265631493913
 21
-74.29385713330575
 31
0.0
  0
LINE
  5
81
330
1F
100
AcDbEntity
  8
E-1
  6
Continuous
 62
     2
370
     9
100
AcDbLine
 10
-473.3267644004471
 20
-73.29395281003713
 30
0.0
 11
-473.3267644004471
 21
-67.19381886261317
 31
0.0
  0
LINE
  5
82
330
1F
100
AcDbEntity
  8
E-1
  6
JWW_CENTER1
 62
     2
370
     9
100
AcDbLine
 10
-477.8267050148896
 20
-59.08645307397293
 30
0.0
 11
-477.8267050148896
 21
-74.68332741413349
 31
0.0
  0
LINE
  5
83
330
1F
100
AcDbEntity
  8
E-1
  6
JWW_CENTER1
 62
     2
370
     9
100
AcDbLine
 10
-469.6637889860679
 20
-67.19381886261317
 30
0.0
 11
-486.0707813055358
 21
-67.19381886261317
 31
0.0
  0
LINE
  5
84
330
1F
100
AcDbEntity
  8
E-1
  6
JWW_CENTER1
 62
     2
370
     9
100
AcDbLine
 10
-376.8263470519463
 20
-59.08645307397293
 30
0.0
 11
-376.8263470519463
 21
-74.68332741413349
 31
0.0
  0
LINE
  5
85
330
1F
100
AcDbEntity
  8
E-1
  6
JWW_CENTER1
 62
     2
370
     9
100
AcDbLine
 10
-368.6638021828584
 20
-67.19381886261317
 30
0.0
 11
-385.070670782415
 21
-67.19381886261317
 31
0.0
  0
CIRCLE
  5
86
330
1F
100
AcDbEntity
  8
E-1
  6
Continuous
 62
     2
370
     9
100
AcDbCircle
 10
-477.8267050148896
 20
-67.19381886261317
 30
0.0
 40
4.500000057993709
  0
CIRCLE
  5
87
330
1F
100
AcDbEntity
  8
E-1
  6
Continuous
 62
     2
370
     9
100
AcDbCircle
 10
-376.8268419315915
 20
-67.19381886261317
 30
0.0
 40
4.500000057993709
  0
ARC
  5
88
330
1F
100
AcDbEntity
  8
E-1
  6
Continuous
 62
     2
370
     9
100
AcDbCircle
 10
-472.3264889174446
 20
-73.29395281003713
 30
0.0
 40
9.9999991623131
100
AcDbArc
 50
180.0
 51
270.0
  0
ARC
  5
89
330
1F
100
AcDbEntity
  8
E-1
  6
Continuous
 62
     2
370
     9
100
AcDbCircle
 10
-382.3265631493913
 20
-73.29395281003713
 30
0.0
 40
9.9999991623131
100
AcDbArc
 50
270.0
 51
0.0
  0
ARC
  5
8A
330
1F
100
AcDbEntity
  8
E-1
  6
Continuous
 62
     2
370
     9
100
AcDbCircle
 10
-382.3265631493913
 20
-73.29395281003713
 30
0.0
 40
0.9999999524773778
100
AcDbArc
 50
270.0
 51
0.0
  0
ARC
  5
8B
330
1F
100
AcDbEntity
  8
E-1
  6
Continuous
 62
     2
370
     9
100
AcDbCircle
 10
-472.3264889174446
 20
-73.29395281003713
 30
0.0
 40
0.9999999524773778
100
AcDbArc
 50
180.0
 51
270.0
  0
LINE
  5
8C
330
1F
100
AcDbEntity
  8
E-1
  6
Continuous
 62
     2
370
     9
100
AcDbLine
 10
-198.32646747266
 20
-56.692843949712
 30
0.0
 11
-656.3264608742646
 21
-56.692843949712
 31
0.0
  0
LINE
  5
8D
330
1F
100
AcDbEntity
  8
E-1
  6
Continuous
 62
     2
370
     9
100
AcDbLine
 10
-192.3265466534032
 20
-62.6928884888801
 30
0.0
 11
-662.3265054134328
 21
-62.6928884888801
 31
0.0
  0
LINE
  5
8E
330
1F
100
AcDbEntity
  8
E-1
  6
JWW_DASHED3
 62
     2
370
     9
100
AcDbLine
 10
-252.3265590253943
 20
-2.693680296312522
 30
0.0
 11
-602.326431181486
 21
-2.693680296312522
 31
0.0
  0
LINE
  5
8F
330
1F
100
AcDbEntity
  8
E-1
  6
Continuous
 62
     2
370
     9
100
AcDbLine
 10
-482.3265219094209
 20
417.9068973931935
 30
0.0
 11
-482.3265219094209
 21
411.8072583254147
 31
0.0
  0
LINE
  5
90
330
1F
100
AcDbEntity
  8
E-1
  6
Continuous
 62
     2
370
     9
100
AcDbLine
 10
-382.3265631493913
 20
427.9069303851697
 30
0.0
 11
-472.3264889174446
 21
427.9069303851697
 31
0.0
  0
LINE
  5
91
330
1F
100
AcDbEntity
  8
E-1
  6
Continuous
 62
     2
370
     9
100
AcDbLine
 10
-372.326530157415
 20
417.9068973931935
 30
0.0
 11
-372.326530157415
 21
411.8072583254147
 31
0.0
  0
LINE
  5
92
330
1F
100
AcDbEntity
  8
E-1
  6
Continuous
 62
     2
370
     9
100
AcDbLine
 10
-381.3266588261228
 20
417.9068973931935
 30
0.0
 11
-381.3266588261228
 21
411.8072583254147
 31
0.0
  0
LINE
  5
93
330
1F
100
AcDbEntity
  8
E-1
  6
Continuous
 62
     2
370
     9
100
AcDbLine
 10
-472.3264889174446
 20
418.9068017164621
 30
0.0
 11
-382.3265631493913
 21
418.9068017164621
 31
0.0
  0
LINE
  5
94
330
1F
100
AcDbEntity
  8
E-1
  6
Continuous
 62
     2
370
     9
100
AcDbLine
 10
-473.3267644004471
 20
417.9068973931935
 30
0.0
 11
-473.3267644004471
 21
411.8072583254147
 31
0.0
  0
LINE
  5
95
330
1F
100
AcDbEntity
  8
E-1
  6
JWW_CENTER1
 62
     2
370
     9
100
AcDbLine
 10
-477.8267050148896
 20
403.6998925367746
 30
0.0
 11
-477.8267050148896
 21
419.2972617565803
 31
0.0
  0
LINE
  5
96
330
1F
100
AcDbEntity
  8
E-1
  6
JWW_CENTER1
 62
     2
370
     9
100
AcDbLine
 10
-469.6637889860679
 20
411.8072583254147
 30
0.0
 11
-486.0707813055358
 21
411.8072583254147
 31
0.0
  0
LINE
  5
97
330
1F
100
AcDbEntity
  8
E-1
  6
JWW_CENTER1
 62
     2
370
     9
100
AcDbLine
 10
-376.8263470519463
 20
403.6998925367746
 30
0.0
 11
-376.8263470519463
 21
419.2972617565803
 31
0.0
  0
LINE
  5
98
330
1F
100
AcDbEntity
  8
E-1
  6
JWW_CENTER1
 62
     2
370
     9
100
AcDbLine
 10
-368.6638021828584
 20
411.8072583254147
 30
0.0
 11
-385.070670782415
 21
411.8072583254147
 31
0.0
  0
CIRCLE
  5
99
330
1F
100
AcDbEntity
  8
E-1
  6
Continuous
 62
     2
370
     9
100
AcDbCircle
 10
-477.8267050148896
 20
411.8072583254147
 30
0.0
 40
4.500000057993709
  0
CIRCLE
  5
9A
330
1F
100
AcDbEntity
  8
E-1
  6
Continuous
 62
     2
370
     9
100
AcDbCircle
 10
-376.8268419315915
 20
411.8072583254147
 30
0.0
 40
4.500000057993709
  0
ARC
  5
9B
330
1F
100
AcDbEntity
  8
E-1
  6
Continuous
 62
     2
370
     9
100
AcDbCircle
 10
-472.3264889174446
 20
417.9068973931935
 30
0.0
 40
9.9999991623131
100
AcDbArc
 50
90.0
 51
180.0
  0
ARC
  5
9C
330
1F
100
AcDbEntity
  8
E-1
  6
Continuous
 62
     2
370
     9
100
AcDbCircle
 10
-382.3265631493913
 20
417.9068973931935
 30
0.0
 40
9.9999991623131
100
AcDbArc
 50
0.0
 51
90.0
  0
ARC
  5
9D
330
1F
100
AcDbEntity
  8
E-1
  6
Continuous
 62
     2
370
     9
100
AcDbCircle
 10
-382.3265631493913
 20
417.9068973931935
 30
0.0
 40
0.9999999524773778
100
AcDbArc
 50
0.0
 51
90.0
  0
ARC
  5
9E
330
1F
100
AcDbEntity
  8
E-1
  6
Continuous
 62
     2
370
     9
100
AcDbCircle
 10
-472.3264889174446
 20
417.9068973931935
 30
0.0
 40
0.9999999524773778
100
AcDbArc
 50
90.0
 51
180.0
  0
LINE
  5
9F
330
1F
100
AcDbEntity
  8
E-1
  6
Continuous
 62
     2
370
     9
100
AcDbLine
 10
-192.3265466534032
 20
407.3068228313269
 30
0.0
 11
-662.3265054134328
 21
407.3068228313269
 31
0.0
  0
LINE
  5
A0
330
1F
100
AcDbEntity
  8
E-1
  6
Continuous
 62
     2
370
     9
100
AcDbLine
 10
-198.32646747266
 20
401.3066545722475
 30
0.0
 11
-656.3264608742646
 21
401.3066545722475
 31
0.0
  0
LINE
  5
A1
330
1F
100
AcDbEntity
  8
E-1
  6
JWW_DASHED3
 62
     2
370
     9
100
AcDbLine
 10
-252.3265590253943
 20
347.3076146387593
 30
0.0
 11
-602.326431181486
 21
347.3076146387593
 31
0.0
  0
LINE
  5
A2
330
1F
100
AcDbEntity
  8
E-1
  6
Continuous
 62
     2
370
     9
100
AcDbLine
 10
-192.3265466534032
 20
407.3068228313269
 30
0.0
 11
-192.3265466534032
 21
-62.6928884888801
 31
0.0
  0
LINE
  5
A3
330
1F
100
AcDbEntity
  8
E-1
  6
Continuous
 62
     2
370
     9
100
AcDbLine
 10
-198.32646747266
 20
401.3066545722475
 30
0.0
 11
-198.32646747266
 21
-56.692843949712
 31
0.0
  0
LINE
  5
A4
330
1F
100
AcDbEntity
  8
E-1
  6
JWW_DASHED3
 62
     2
370
     9
100
AcDbLine
 10
-252.3265590253943
 20
347.3076146387593
 30
0.0
 11
-252.3265590253943
 21
-2.693680296312522
 31
0.0
  0
LINE
  5
A5
330
1F
100
AcDbEntity
  8
E-1
  6
Continuous
 62
     2
370
     9
100
AcDbLine
 10
-662.3265054134328
 20
-62.6928884888801
 30
0.0
 11
-662.3265054134328
 21
407.3068228313269
 31
0.0
  0
LINE
  5
A6
330
1F
100
AcDbEntity
  8
E-1
  6
Continuous
 62
     2
370
     9
100
AcDbLine
 10
-656.3264608742646
 20
-56.692843949712
 30
0.0
 11
-656.3264608742646
 21
401.3066545722475
 31
0.0
  0
LINE
  5
A7
330
1F
100
AcDbEntity
  8
E-1
  6
JWW_DASHED3
 62
     2
370
     9
100
AcDbLine
 10
-602.326431181486
 20
-2.693680296312522
 30
0.0
 11
-602.326431181486
 21
347.3076146387593
 31
0.0
  0
LINE
  5
A8
330
1F
100
AcDbEntity
  8
E-4
  6
Continuous
 62
     7
370
     9
100
AcDbLine
 10
-602.326431181486
 20
-122.6928884888801
 30
0.0
 11
-252.3265590253943
 21
-122.6928884888801
 31
0.0
  0
LWPOLYLINE
  5
A9
330
1F
100
AcDbEntity
  8
E-4
  6
Continuous
 62
     7
370
     9
100
AcDbPolyline
 90
        4
 70
     1
 43
1.0
 10
-601.826431181486
 20
-122.6928884888801
 42
0.4142135623731
 10
-602.326431181486
 20
-122.1928884888801
 42
0.4142135623731
 10
-602.826431181486
 20
-122.6928884888801
 42
0.4142135623731
 10
-602.326431181486
 20
-123.1928884888801
 42
0.4142135623731
  0
LWPOLYLINE
  5
AA
330
1F
100
AcDbEntity
  8
E-4
  6
Continuous
 62
     7
370
     9
100
AcDbPolyline
 90
        4
 70
     1
 43
1.0
 10
-251.8265590253943
 20
-122.6928884888801
 42
0.4142135623731
 10
-252.3265590253943
 20
-122.1928884888801
 42
0.4142135623731
 10
-252.8265590253943
 20
-122.6928884888801
 42
0.4142135623731
 10
-252.3265590253943
 20
-123.1928884888801
 42
0.4142135623731
  0
TEXT
  5
AB
330
1F
100
AcDbEntity
  8
E-4
  6
Continuous
 62
     2
370
   211
100
AcDbText
 10
-443.5764951034402
 20
-116.8728884888801
 30
0.0
 40
15.24
  1
350
 41
1.083333333333333
  7
ＭＳ ゴシック
100
AcDbText
  0
LINE
  5
AC
330
1F
100
AcDbEntity
  8
E-4
  6
Continuous
 62
     7
370
     9
100
AcDbLine
 10
-662.3265054134328
 20
-162.6928884888801
 30
0.0
 11
-656.3264608742646
 21
-162.6928884888801
 31
0.0
  0
LWPOLYLINE
  5
AD
330
1F
100
AcDbEntity
  8
E-4
  6
Continuous
 62
     7
370
     9
100
AcDbPolyline
 90
        4
 70
     1
 43
1.0
 10
-661.8265054134328
 20
-162.6928884888801
 42
0.4142135623731
 10
-662.3265054134328
 20
-162.1928884888801
 42
0.4142135623731
 10
-662.8265054134328
 20
-162.6928884888801
 42
0.4142135623731
 10
-662.3265054134328
 20
-163.1928884888801
 42
0.4142135623731
  0
LWPOLYLINE
  5
AE
330
1F
100
AcDbEntity
  8
E-4
  6
Continuous
 62
     7
370
     9
100
AcDbPolyline
 90
        4
 70
     1
 43
1.0
 10
-655.8264608742647
 20
-162.6928884888801
 42
0.4142135623731
 10
-656.3264608742646
 20
-162.1928884888801
 42
0.4142135623731
 10
-656.8264608742646
 20
-162.6928884888801
 42
0.4142135623731
 10
-656.3264608742646
 20
-163.1928884888801
 42
0.4142135623731
  0
LWPOLYLINE
  5
AF
330
1F
100
AcDbEntity
  8
E-4
  6
Continuous
 62
     7
370
     9
100
AcDbPolyline
 90
        4
 70
     1
 43
1.0
 10
-197.82646747266
 20
-162.6928884888801
 42
0.4142135623731
 10
-198.32646747266
 20
-162.1928884888801
 42
0.4142135623731
 10
-198.82646747266
 20
-162.6928884888801
 42
0.4142135623731
 10
-198.32646747266
 20
-163.1928884888801
 42
0.4142135623731
  0
LINE
  5
B0
330
1F
100
AcDbEntity
  8
E-4
  6
Continuous
 62
     7
370
     9
100
AcDbLine
 10
-198.32646747266
 20
-162.6928884888801
 30
0.0
 11
-192.3265466534032
 21
-162.6928884888801
 31
0.0
  0
LWPOLYLINE
  5
B1
330
1F
100
AcDbEntity
  8
E-4
  6
Continuous
 62
     7
370
     9
100
AcDbPolyline
 90
        4
 70
     1
 43
1.0
 10
-191.8265466534032
 20
-162.6928884888801
 42
0.4142135623731
 10
-192.3265466534032
 20
-162.1928884888801
 42
0.4142135623731
 10
-192.8265466534032
 20
-162.6928884888801
 42
0.4142135623731
 10
-192.3265466534032
 20
-163.1928884888801
 42
0.4142135623731
  0
LINE
  5
B2
330
1F
100
AcDbEntity
  8
E-4
  6
Continuous
 62
     7
370
     9
100
AcDbLine
 10
-662.3265054134328
 20
-202.6928884888801
 30
0.0
 11
-192.3265466534032
 21
-202.6928884888801
 31
0.0
  0
LWPOLYLINE
  5
B3
330
1F
100
AcDbEntity
  8
E-4
  6
Continuous
 62
     7
370
     9
100
AcDbPolyline
 90
        4
 70
     1
 43
1.0
 10
-661.8265054134328
 20
-202.6928884888801
 42
0.4142135623731
 10
-662.3265054134328
 20
-202.1928884888801
 42
0.4142135623731
 10
-662.8265054134328
 20
-202.6928884888801
 42
0.4142135623731
 10
-662.3265054134328
 20
-203.1928884888801
 42
0.4142135623731
  0
LWPOLYLINE
  5
B4
330
1F
100
AcDbEntity
  8
E-4
  6
Continuous
 62
     7
370
     9
100
AcDbPolyline
 90
        4
 70
     1
 43
1.0
 10
-191.8265466534032
 20
-202.6928884888801
 42
0.4142135623731
 10
-192.3265466534032
 20
-202.1928884888801
 42
0.4142135623731
 10
-192.8265466534032
 20
-202.6928884888801
 42
0.4142135623731
 10
-192.3265466534032
 20
-203.1928884888801
 42
0.4142135623731
  0
LINE
  5
B5
330
1F
100
AcDbEntity
  8
E-4
  6
Continuous
 62
     7
370
     9
100
AcDbLine
 10
-662.3265054134328
 20
-204.1928884888801
 30
0.0
 11
-662.3265054134328
 21
-72.6928884888801
 31
0.0
  0
LINE
  5
B6
330
1F
100
AcDbEntity
  8
E-4
  6
Continuous
 62
     7
370
     9
100
AcDbLine
 10
-192.3265466534032
 20
-204.1928884888801
 30
0.0
 11
-192.3265466534032
 21
-72.6928884888801
 31
0.0
  0
TEXT
  5
B7
330
1F
100
AcDbEntity
  8
E-4
  6
Continuous
 62
     2
370
   211
100
AcDbText
 10
-443.5765260334181
 20
-196.8728884888801
 30
0.0
 40
15.24
  1
470
 41
1.083333333333333
  7
ＭＳ ゴシック
100
AcDbText
  0
TEXT
  5
B8
330
1F
100
AcDbEntity
  8
E-4
  6
Continuous
 62
     2
370
   211
100
AcDbText
 10
-185.3265070630316
 20
-156.8728884888801
 30
0.0
 40
15.24
  1
6
 41
0.9999999999999998
  7
ＭＳ ゴシック
100
AcDbText
  0
LINE
  5
B9
330
1F
100
AcDbEntity
  8
E-4
  6
Continuous
 62
     7
370
     9
100
AcDbLine
 10
-192.3265466534032
 20
-162.6928884888801
 30
0.0
 11
-175.3265070630316
 21
-162.6928884888801
 31
0.0
  0
TEXT
  5
BA
330
1F
100
AcDbEntity
  8
E-4
  6
Continuous
 62
     2
370
   211
100
AcDbText
 10
-679.3264831438487
 20
-156.8728884888801
 30
0.0
 40
15.24
  1
6
 41
0.9999999999999856
  7
ＭＳ ゴシック
100
AcDbText
  0
LINE
  5
BB
330
1F
100
AcDbEntity
  8
E-4
  6
Continuous
 62
     7
370
     9
100
AcDbLine
 10
-662.3265054134328
 20
-162.6928884888801
 30
0.0
 11
-679.3264831438487
 21
-162.6928884888801
 31
0.0
  0
CIRCLE
  5
BC
330
1F
100
AcDbEntity
  8
E-2
  6
Continuous
 62
     3
370
     9
100
AcDbCircle
 10
358.6085712879833
 20
322.3067815913565
 30
0.0
 40
2.999999797022021
  0
CIRCLE
  5
BD
330
1F
100
AcDbEntity
  8
E-2
  6
Continuous
 62
     3
370
     9
100
AcDbCircle
 10
358.6085712879833
 20
222.3069465512383
 30
0.0
 40
2.999999797022021
  0
CIRCLE
  5
BE
330
1F
100
AcDbEntity
  8
E-2
  6
Continuous
 62
     3
370
     9
100
AcDbCircle
 10
358.6085712879833
 20
122.3068640712974
 30
0.0
 40
2.999999797022021
  0
CIRCLE
  5
BF
330
1F
100
AcDbEntity
  8
E-2
  6
Continuous
 62
     3
370
     9
100
AcDbCircle
 10
358.6085712879833
 20
22.30702903117901
 30
0.0
 40
2.999999797022021
  0
LINE
  5
C0
330
1F
100
AcDbEntity
  8
E-2
  6
Continuous
 62
     3
370
     9
100
AcDbLine
 10
355.6086108783549
 20
392.8067139578048
 30
0.0
 11
393.6084393200778
 21
392.8067139578048
 31
0.0
  0
LINE
  5
C1
330
1F
100
AcDbEntity
  8
E-2
  6
Continuous
 62
     3
370
     9
100
AcDbLine
 10
387.6086422207322
 20
397.3066545722475
 30
0.0
 11
387.6086422207322
 21
392.8067139578048
 31
0.0
  0
LINE
  5
C2
330
1F
100
AcDbEntity
  8
E-2
  6
Continuous
 62
     3
370
     9
100
AcDbLine
 10
355.6086108783549
 20
397.3066545722475
 30
0.0
 11
387.6086422207322
 21
397.3066545722475
 31
0.0
  0
LINE
  5
C3
330
1F
100
AcDbEntity
  8
E-2
  6
Continuous
 62
     3
370
     9
100
AcDbLine
 10
355.6086108783549
 20
-48.19342130929812
 30
0.0
 11
393.6084393200778
 21
-48.19342130929812
 31
0.0
  0
LINE
  5
C4
330
1F
100
AcDbEntity
  8
E-2
  6
Continuous
 62
     3
370
     9
100
AcDbLine
 10
387.6086422207322
 20
-48.19342130929812
 30
0.0
 11
387.6086422207322
 21
-52.6933619237407
 31
0.0
  0
LINE
  5
C5
330
1F
100
AcDbEntity
  8
E-2
  6
Continuous
 62
     3
370
     9
100
AcDbLine
 10
355.6086108783549
 20
-52.6933619237407
 30
0.0
 11
387.6086422207322
 21
-52.6933619237407
 31
0.0
  0
LINE
  5
C6
330
1F
100
AcDbEntity
  8
E-2
  6
Continuous
 62
     3
370
     9
100
AcDbLine
 10
393.6084393200778
 20
392.8067139578048
 30
0.0
 11
393.6084393200778
 21
-48.19342130929812
 31
0.0
  0
LINE
  5
C7
330
1F
100
AcDbEntity
  8
E-4
  6
Continuous
 62
     7
370
     9
100
AcDbLine
 10
295.608610878355
 20
407.3070702711496
 30
0.0
 11
295.608610878355
 21
401.3071494518928
 31
0.0
  0
LWPOLYLINE
  5
C8
330
1F
100
AcDbEntity
  8
E-4
  6
Continuous
 62
     7
370
     9
100
AcDbPolyline
 90
        4
 70
     1
 43
1.0
 10
296.108610878355
 20
407.3070702711496
 42
0.4142135623731
 10
295.608610878355
 20
407.8070702711495
 42
0.4142135623731
 10
295.108610878355
 20
407.3070702711496
 42
0.4142135623731
 10
295.608610878355
 20
406.8070702711497
 42
0.4142135623731
  0
LWPOLYLINE
  5
C9
330
1F
100
AcDbEntity
  8
E-4
  6
Continuous
 62
     7
370
     9
100
AcDbPolyline
 90
        4
 70
     1
 43
1.0
 10
296.108610878355
 20
401.3071494518928
 42
0.4142135623731
 10
295.608610878355
 20
401.8071494518928
 42
0.4142135623731
 10
295.108610878355
 20
401.3071494518928
 42
0.4142135623731
 10
295.608610878355
 20
400.8071494518929
 42
0.4142135623731
  0
LINE
  5
CA
330
1F
100
AcDbEntity
  8
E-4
  6
Continuous
 62
     7
370
     9
100
AcDbLine
 10
294.108610878355
 20
401.3071494518928
 30
0.0
 11
348.1086191263489
 21
401.3071494518928
 31
0.0
  0
LINE
  5
CB
330
1F
100
AcDbEntity
  8
E-4
  6
Continuous
 62
     7
370
     9
100
AcDbLine
 10
295.608610878355
 20
401.3071494518928
 30
0.0
 11
295.608610878355
 21
397.3066545722475
 31
0.0
  0
LWPOLYLINE
  5
CC
330
1F
100
AcDbEntity
  8
E-4
  6
Continuous
 62
     7
370
     9
100
AcDbPolyline
 90
        4
 70
     1
 43
1.0
 10
296.108610878355
 20
397.3066545722475
 42
0.4142135623731
 10
295.608610878355
 20
397.8066545722475
 42
0.4142135623731
 10
295.108610878355
 20
397.3066545722475
 42
0.4142135623731
 10
295.608610878355
 20
396.8066545722475
 42
0.4142135623731
  0
LINE
  5
CD
330
1F
100
AcDbEntity
  8
E-4
  6
Continuous
 62
     7
370
     9
100
AcDbLine
 10
294.108610878355
 20
397.3066545722475
 30
0.0
 11
345.6086108783549
 21
397.3066545722475
 31
0.0
  0
LINE
  5
CE
330
1F
100
AcDbEntity
  8
E-4
  6
Continuous
 62
     7
370
     9
100
AcDbLine
 10
295.608610878355
 20
397.3066545722475
 30
0.0
 11
295.608610878355
 21
-52.6933619237407
 31
0.0
  0
LWPOLYLINE
  5
CF
330
1F
100
AcDbEntity
  8
E-4
  6
Continuous
 62
     7
370
     9
100
AcDbPolyline
 90
        4
 70
     1
 43
1.0
 10
296.108610878355
 20
-52.6933619237407
 42
0.4142135623731
 10
295.608610878355
 20
-52.1933619237407
 42
0.4142135623731
 10
295.108610878355
 20
-52.6933619237407
 42
0.4142135623731
 10
295.608610878355
 20
-53.1933619237407
 42
0.4142135623731
  0
LINE
  5
D0
330
1F
100
AcDbEntity
  8
E-4
  6
Continuous
 62
     7
370
     9
100
AcDbLine
 10
294.108610878355
 20
-52.6933619237407
 30
0.0
 11
345.6086108783549
 21
-52.6933619237407
 31
0.0
  0
TEXT
  5
D1
330
1F
100
AcDbEntity
  8
E-4
  6
Continuous
 62
     2
370
   211
100
AcDbText
 10
289.788610878355
 20
156.0566463242534
 30
0.0
 40
15.24
  1
450
 50
90.0
 41
1.083333333333333
  7
ＭＳ ゴシック
100
AcDbText
  0
LINE
  5
D2
330
1F
100
AcDbEntity
  8
E-4
  6
Continuous
 62
     7
370
     9
100
AcDbLine
 10
295.608610878355
 20
-52.6933619237407
 30
0.0
 11
295.608610878355
 21
-56.69297564375817
 31
0.0
  0
LWPOLYLINE
  5
D3
330
1F
100
AcDbEntity
  8
E-4
  6
Continuous
 62
     7
370
     9
100
AcDbPolyline
 90
        4
 70
     1
 43
1.0
 10
296.108610878355
 20
-56.69297564375817
 42
0.4142135623731
 10
295.608610878355
 20
-56.19297564375817
 42
0.4142135623731
 10
295.108610878355
 20
-56.69297564375817
 42
0.4142135623731
 10
295.608610878355
 20
-57.19297564375817
 42
0.4142135623731
  0
LINE
  5
D4
330
1F
100
AcDbEntity
  8
E-4
  6
Continuous
 62
     7
370
     9
100
AcDbLine
 10
294.108610878355
 20
-56.69297564375817
 30
0.0
 11
348.1086191263489
 21
-56.69297564375817
 31
0.0
  0
LINE
  5
D5
330
1F
100
AcDbEntity
  8
E-4
  6
Continuous
 62
     7
370
     9
100
AcDbLine
 10
295.608610878355
 20
-56.69297564375817
 30
0.0
 11
295.608610878355
 21
-62.69289828337307
 31
0.0
  0
LWPOLYLINE
  5
D6
330
1F
100
AcDbEntity
  8
E-4
  6
Continuous
 62
     7
370
     9
100
AcDbPolyline
 90
        4
 70
     1
 43
1.0
 10
296.108610878355
 20
-62.69289828337307
 42
0.4142135623731
 10
295.608610878355
 20
-62.19289828337307
 42
0.4142135623731
 10
295.108610878355
 20
-62.69289828337307
 42
0.4142135623731
 10
295.608610878355
 20
-63.19289828337307
 42
0.4142135623731
  0
LINE
  5
D7
330
1F
100
AcDbEntity
  8
E-4
  6
Continuous
 62
     7
370
     9
100
AcDbLine
 10
255.6086108783549
 20
407.3070702711496
 30
0.0
 11
255.6086108783549
 21
-62.6928884888801
 31
0.0
  0
LWPOLYLINE
  5
D8
330
1F
100
AcDbEntity
  8
E-4
  6
Continuous
 62
     7
370
     9
100
AcDbPolyline
 90
        4
 70
     1
 43
1.0
 10
256.108610878355
 20
407.3070702711496
 42
0.4142135623731
 10
255.6086108783549
 20
407.8070702711495
 42
0.4142135623731
 10
255.1086108783549
 20
407.3070702711496
 42
0.4142135623731
 10
255.6086108783549
 20
406.8070702711497
 42
0.4142135623731
  0
LWPOLYLINE
  5
D9
330
1F
100
AcDbEntity
  8
E-4
  6
Continuous
 62
     7
370
     9
100
AcDbPolyline
 90
        4
 70
     1
 43
1.0
 10
256.108610878355
 20
-62.6928884888801
 42
0.4142135623731
 10
255.6086108783549
 20
-62.1928884888801
 42
0.4142135623731
 10
255.1086108783549
 20
-62.6928884888801
 42
0.4142135623731
 10
255.6086108783549
 20
-63.1928884888801
 42
0.4142135623731
  0
LINE
  5
DA
330
1F
100
AcDbEntity
  8
E-4
  6
Continuous
 62
     7
370
     9
100
AcDbLine
 10
254.108610878355
 20
407.3070702711496
 30
0.0
 11
345.6086108783549
 21
407.3070702711496
 31
0.0
  0
LINE
  5
DB
330
1F
100
AcDbEntity
  8
E-4
  6
Continuous
 62
     7
370
     9
100
AcDbLine
 10
254.108610878355
 20
-62.6928884888801
 30
0.0
 11
345.6086108783549
 21
-62.6928884888801
 31
0.0
  0
TEXT
  5
DC
330
1F
100
AcDbEntity
  8
E-4
  6
Continuous
 62
     2
370
   211
100
AcDbText
 10
249.788610878355
 20
156.0570908911347
 30
0.0
 40
15.24
  1
470
 50
90.0
 41
1.083333333333333
  7
ＭＳ ゴシック
100
AcDbText
  0
TEXT
  5
DD
330
1F
100
AcDbEntity
  8
E-4
  6
Continuous
 62
     2
370
   211
100
AcDbText
 10
289.788610878355
 20
-79.69293696356561
 30
0.0
 40
15.24
  1
6
 50
90.0
 41
0.9999999999999998
  7
ＭＳ ゴシック
100
AcDbText
  0
LINE
  5
DE
330
1F
100
AcDbEntity
  8
E-4
  6
Continuous
 62
     7
370
     9
100
AcDbLine
 10
295.608610878355
 20
-62.69289828337307
 30
0.0
 11
295.608610878355
 21
-79.69293696356561
 31
0.0
  0
TEXT
  5
DF
330
1F
100
AcDbEntity
  8
E-4
  6
Continuous
 62
     2
370
   211
100
AcDbText
 10
289.788610878355
 20
-54.69316878374944
 30
0.0
 40
15.24
  1
4
 50
90.0
 41
0.9999999999999998
  7
ＭＳ ゴシック
100
AcDbText
  0
TEXT
  5
E0
330
1F
100
AcDbEntity
  8
E-4
  6
Continuous
 62
     2
370
   211
100
AcDbText
 10
289.788610878355
 20
414.3071098615212
 30
0.0
 40
15.24
  1
6
 50
90.0
 41
0.9999999999999998
  7
ＭＳ ゴシック
100
AcDbText
  0
TEXT
  5
E1
330
1F
100
AcDbEntity
  8
E-4
  6
Continuous
 62
     2
370
   211
100
AcDbText
 10
289.788610878355
 20
389.3069020120702
 30
0.0
 40
15.24
  1
4
 50
90.0
 41
0.9999999999999998
  7
ＭＳ ゴシック
100
AcDbText
  0
LINE
  5
E2
330
1F
100
AcDbEntity
  8
E-4
  6
Continuous
 62
     7
370
     9
100
AcDbLine
 10
295.608610878355
 20
407.3070702711496
 30
0.0
 11
295.608610878355
 21
424.3071098615212
 31
0.0
  0
LINE
  5
E3
330
1F
100
AcDbEntity
  8
E-2
  6
Continuous
 62
     3
370
     9
100
AcDbLine
 10
355.6086108783549
 20
397.3066545722475
 30
0.0
 11
355.6086108783549
 21
-52.6933619237407
 31
0.0
  0
LINE
  5
E4
330
1F
100
AcDbEntity
  8
E-2
  6
Continuous
 62
     3
370
     9
100
AcDbLine
 10
-642.3263548875401
 20
225.3066479738522
 30
0.0
 11
-642.3263548875401
 21
319.3063147548912
 31
0.0
  0
LINE
  5
E5
330
1F
100
AcDbEntity
  8
E-2
  6
Continuous
 62
     3
370
     9
100
AcDbLine
 10
-642.3263548875401
 20
325.3064830139706
 30
0.0
 11
-642.3263548875401
 21
392.8059716383371
 31
0.0
  0
LINE
  5
E6
330
1F
100
AcDbEntity
  8
E-2
  6
Continuous
 62
     3
370
     9
100
AcDbLine
 10
-642.3263548875401
 20
125.3065654939113
 30
0.0
 11
-642.3263548875401
 21
219.3064797147729
 31
0.0
  0
LINE
  5
E7
330
1F
100
AcDbEntity
  8
E-2
  6
Continuous
 62
     3
370
     9
100
AcDbLine
 10
-642.3263548875401
 20
25.30648301397044
 30
0.0
 11
-642.3263548875401
 21
119.306397234832
 31
0.0
  0
LINE
  5
E8
330
1F
100
AcDbEntity
  8
E-2
  6
Continuous
 62
     3
370
     9
100
AcDbLine
 10
-642.3263548875401
 20
-48.19342130929805
 30
0.0
 11
-642.3263548875401
 21
19.30656219471366
 31
0.0
  0
LINE
  5
E9
330
1F
100
AcDbEntity
  8
E-2
  6
Continuous
 62
     3
370
     9
100
AcDbLine
 10
-647.3264951034402
 20
397.3066545722475
 30
0.0
 11
-647.3264951034402
 21
-52.69336192374062
 31
0.0
  0
LINE
  5
EA
330
1F
100
AcDbEntity
  8
E-2
  6
Continuous
 62
     3
370
     9
100
AcDbLine
 10
-632.3264951034402
 20
225.3066479738522
 30
0.0
 11
-632.3264951034402
 21
319.3063147548912
 31
0.0
  0
LINE
  5
EB
330
1F
100
AcDbEntity
  8
E-2
  6
Continuous
 62
     3
370
     9
100
AcDbLine
 10
-627.3267569772527
 20
225.3066479738522
 30
0.0
 11
-627.3267569772527
 21
319.3063147548912
 31
0.0
  0
LINE
  5
EC
330
1F
100
AcDbEntity
  8
E-2
  6
Continuous
 62
     3
370
     9
100
AcDbLine
 10
-632.3264951034402
 20
325.3064830139706
 30
0.0
 11
-632.3264951034402
 21
392.8059716383371
 31
0.0
  0
LINE
  5
ED
330
1F
100
AcDbEntity
  8
E-2
  6
Continuous
 62
     3
370
     9
100
AcDbLine
 10
-627.3267569772527
 20
325.3064830139706
 30
0.0
 11
-627.3267569772527
 21
392.8059716383371
 31
0.0
  0
LINE
  5
EE
330
1F
100
AcDbEntity
  8
E-2
  6
Continuous
 62
     3
370
     9
100
AcDbLine
 10
-632.3264951034402
 20
125.3065654939113
 30
0.0
 11
-632.3264951034402
 21
219.3064797147729
 31
0.0
  0
LINE
  5
EF
330
1F
100
AcDbEntity
  8
E-2
  6
Continuous
 62
     3
370
     9
100
AcDbLine
 10
-627.3267569772527
 20
125.3065654939113
 30
0.0
 11
-627.3267569772527
 21
219.3064797147729
 31
0.0
  0
LINE
  5
F0
330
1F
100
AcDbEntity
  8
E-2
  6
Continuous
 62
     3
370
     9
100
AcDbLine
 10
-632.3264951034402
 20
25.30648301397044
 30
0.0
 11
-632.3264951034402
 21
119.306397234832
 31
0.0
  0
LINE
  5
F1
330
1F
100
AcDbEntity
  8
E-2
  6
Continuous
 62
     3
370
     9
100
AcDbLine
 10
-627.3267569772527
 20
25.30648301397044
 30
0.0
 11
-627.3267569772527
 21
119.306397234832
 31
0.0
  0
LINE
  5
F2
330
1F
100
AcDbEntity
  8
E-2
  6
Continuous
 62
     3
370
     9
100
AcDbLine
 10
-632.3264951034402
 20
-48.19342130929805
 30
0.0
 11
-632.3264951034402
 21
19.30656219471366
 31
0.0
  0
LINE
  5
F3
330
1F
100
AcDbEntity
  8
E-2
  6
Continuous
 62
     3
370
     9
100
AcDbLine
 10
-627.3267569772527
 20
-48.19342130929805
 30
0.0
 11
-627.3267569772527
 21
19.30656219471366
 31
0.0
  0
LINE
  5
F4
330
1F
100
AcDbEntity
  8
E-2
  6
Continuous
 62
     3
370
     9
100
AcDbLine
 10
-617.3264951034402
 20
225.3066479738522
 30
0.0
 11
-617.3264951034402
 21
319.3063147548912
 31
0.0
  0
LINE
  5
F5
330
1F
100
AcDbEntity
  8
E-2
  6
Continuous
 62
     3
370
     9
100
AcDbLine
 10
-612.3267569772527
 20
225.3066479738522
 30
0.0
 11
-612.3267569772527
 21
319.3063147548912
 31
0.0
  0
LINE
  5
F6
330
1F
100
AcDbEntity
  8
E-2
  6
Continuous
 62
     3
370
     9
100
AcDbLine
 10
-617.3264951034402
 20
325.3064830139706
 30
0.0
 11
-617.3264951034402
 21
392.8059716383371
 31
0.0
  0
LINE
  5
F7
330
1F
100
AcDbEntity
  8
E-2
  6
Continuous
 62
     3
370
     9
100
AcDbLine
 10
-612.3267569772527
 20
325.3064830139706
 30
0.0
 11
-612.3267569772527
 21
392.8059716383371
 31
0.0
  0
LINE
  5
F8
330
1F
100
AcDbEntity
  8
E-2
  6
Continuous
 62
     3
370
     9
100
AcDbLine
 10
-617.3264951034402
 20
125.3065654939113
 30
0.0
 11
-617.3264951034402
 21
219.3064797147729
 31
0.0
  0
LINE
  5
F9
330
1F
100
AcDbEntity
  8
E-2
  6
Continuous
 62
     3
370
     9
100
AcDbLine
 10
-612.3267569772527
 20
125.3065654939113
 30
0.0
 11
-612.3267569772527
 21
219.3064797147729
 31
0.0
  0
LINE
  5
FA
330
1F
100
AcDbEntity
  8
E-2
  6
Continuous
 62
     3
370
     9
100
AcDbLine
 10
-617.3264951034402
 20
25.30648301397044
 30
0.0
 11
-617.3264951034402
 21
119.306397234832
 31
0.0
  0
LINE
  5
FB
330
1F
100
AcDbEntity
  8
E-2
  6
Continuous
 62
     3
370
     9
100
AcDbLine
 10
-612.3267569772527
 20
25.30648301397044
 30
0.0
 11
-612.3267569772527
 21
119.306397234832
 31
0.0
  0
LINE
  5
FC
330
1F
100
AcDbEntity
  8
E-2
  6
Continuous
 62
     3
370
     9
100
AcDbLine
 10
-617.3264951034402
 20
-48.19342130929805
 30
0.0
 11
-617.3264951034402
 21
19.30656219471366
 31
0.0
  0
LINE
  5
FD
330
1F
100
AcDbEntity
  8
E-2
  6
Continuous
 62
     3
370
     9
100
AcDbLine
 10
-612.3267569772527
 20
-48.19342130929805
 30
0.0
 11
-612.3267569772527
 21
19.30656219471366
 31
0.0
  0
LINE
  5
FE
330
1F
100
AcDbEntity
  8
E-2
  6
Continuous
 62
     3
370
     9
100
AcDbLine
 10
-602.3264951034402
 20
225.3066479738522
 30
0.0
 11
-602.3264951034402
 21
319.3063147548912
 31
0.0
  0
LINE
  5
FF
330
1F
100
AcDbEntity
  8
E-2
  6
Continuous
 62
     3
370
     9
100
AcDbLine
 10
-597.3267569772527
 20
225.3066479738522
 30
0.0
 11
-597.3267569772527
 21
319.3063147548912
 31
0.0
  0
LINE
  5
100
330
1F
100
AcDbEntity
  8
E-2
  6
Continuous
 62
     3
370
     9
100
AcDbLine
 10
-602.3264951034402
 20
125.3065654939113
 30
0.0
 11
-602.3264951034402
 21
219.3064797147729
 31
0.0
  0
LINE
  5
101
330
1F
100
AcDbEntity
  8
E-2
  6
Continuous
 62
     3
370
     9
100
AcDbLine
 10
-597.3267569772527
 20
125.3065654939113
 30
0.0
 11
-597.3267569772527
 21
219.3064797147729
 31
0.0
  0
LINE
  5
102
330
1F
100
AcDbEntity
  8
E-2
  6
Continuous
 62
     3
370
     9
100
AcDbLine
 10
-602.3264951034402
 20
25.30648301397044
 30
0.0
 11
-602.3264951034402
 21
119.306397234832
 31
0.0
  0
LINE
  5
103
330
1F
100
AcDbEntity
  8
E-2
  6
Continuous
 62
     3
370
     9
100
AcDbLine
 10
-597.3267569772527
 20
25.30648301397044
 30
0.0
 11
-597.3267569772527
 21
119.306397234832
 31
0.0
  0
LINE
  5
104
330
1F
100
AcDbEntity
  8
E-2
  6
Continuous
 62
     3
370
     9
100
AcDbLine
 10
-587.3264951034402
 20
225.3066479738522
 30
0.0
 11
-587.3264951034402
 21
319.3063147548912
 31
0.0
  0
LINE
  5
105
330
1F
100
AcDbEntity
  8
E-2
  6
Continuous
 62
     3
370
     9
100
AcDbLine
 10
-582.3267569772527
 20
225.3066479738522
 30
0.0
 11
-582.3267569772527
 21
319.3063147548912
 31
0.0
  0
LINE
  5
106
330
1F
100
AcDbEntity
  8
E-2
  6
Continuous
 62
     3
370
     9
100
AcDbLine
 10
-587.3264951034402
 20
125.3065654939113
 30
0.0
 11
-587.3264951034402
 21
219.3064797147729
 31
0.0
  0
LINE
  5
107
330
1F
100
AcDbEntity
  8
E-2
  6
Continuous
 62
     3
370
     9
100
AcDbLine
 10
-582.3267569772527
 20
125.3065654939113
 30
0.0
 11
-582.3267569772527
 21
219.3064797147729
 31
0.0
  0
LINE
  5
108
330
1F
100
AcDbEntity
  8
E-2
  6
Continuous
 62
     3
370
     9
100
AcDbLine
 10
-587.3264951034402
 20
25.30648301397044
 30
0.0
 11
-587.3264951034402
 21
119.306397234832
 31
0.0
  0
LINE
  5
109
330
1F
100
AcDbEntity
  8
E-2
  6
Continuous
 62
     3
370
     9
100
AcDbLine
 10
-582.3267569772527
 20
25.30648301397044
 30
0.0
 11
-582.3267569772527
 21
119.306397234832
 31
0.0
  0
LINE
  5
10A
330
1F
100
AcDbEntity
  8
E-2
  6
Continuous
 62
     3
370
     9
100
AcDbLine
 10
-572.3264951034402
 20
225.3066479738522
 30
0.0
 11
-572.3264951034402
 21
319.3063147548912
 31
0.0
  0
LINE
  5
10B
330
1F
100
AcDbEntity
  8
E-2
  6
Continuous
 62
     3
370
     9
100
AcDbLine
 10
-567.3267569772527
 20
225.3066479738522
 30
0.0
 11
-567.3267569772527
 21
319.3063147548912
 31
0.0
  0
LINE
  5
10C
330
1F
100
AcDbEntity
  8
E-2
  6
Continuous
 62
     3
370
     9
100
AcDbLine
 10
-572.3264951034402
 20
125.3065654939113
 30
0.0
 11
-572.3264951034402
 21
219.3064797147729
 31
0.0
  0
LINE
  5
10D
330
1F
100
AcDbEntity
  8
E-2
  6
Continuous
 62
     3
370
     9
100
AcDbLine
 10
-567.3267569772527
 20
125.3065654939113
 30
0.0
 11
-567.3267569772527
 21
219.3064797147729
 31
0.0
  0
LINE
  5
10E
330
1F
100
AcDbEntity
  8
E-2
  6
Continuous
 62
     3
370
     9
100
AcDbLine
 10
-572.3264951034402
 20
25.30648301397044
 30
0.0
 11
-572.3264951034402
 21
119.306397234832
 31
0.0
  0
LINE
  5
10F
330
1F
100
AcDbEntity
  8
E-2
  6
Continuous
 62
     3
370
     9
100
AcDbLine
 10
-567.3267569772527
 20
25.30648301397044
 30
0.0
 11
-567.3267569772527
 21
119.306397234832
 31
0.0
  0
LINE
  5
110
330
1F
100
AcDbEntity
  8
E-2
  6
Continuous
 62
     3
370
     9
100
AcDbLine
 10
-557.3264951034402
 20
225.3066479738522
 30
0.0
 11
-557.3264951034402
 21
319.3063147548912
 31
0.0
  0
LINE
  5
111
330
1F
100
AcDbEntity
  8
E-2
  6
Continuous
 62
     3
370
     9
100
AcDbLine
 10
-552.3267569772527
 20
225.3066479738522
 30
0.0
 11
-552.3267569772527
 21
319.3063147548912
 31
0.0
  0
LINE
  5
112
330
1F
100
AcDbEntity
  8
E-2
  6
Continuous
 62
     3
370
     9
100
AcDbLine
 10
-557.3264951034402
 20
325.3064830139706
 30
0.0
 11
-557.3264951034402
 21
392.8059716383371
 31
0.0
  0
LINE
  5
113
330
1F
100
AcDbEntity
  8
E-2
  6
Continuous
 62
     3
370
     9
100
AcDbLine
 10
-552.3267569772527
 20
325.3064830139706
 30
0.0
 11
-552.3267569772527
 21
392.8059716383371
 31
0.0
  0
LINE
  5
114
330
1F
100
AcDbEntity
  8
E-2
  6
Continuous
 62
     3
370
     9
100
AcDbLine
 10
-557.3264951034402
 20
125.3065654939113
 30
0.0
 11
-557.3264951034402
 21
219.3064797147729
 31
0.0
  0
LINE
  5
115
330
1F
100
AcDbEntity
  8
E-2
  6
Continuous
 62
     3
370
     9
100
AcDbLine
 10
-552.3267569772527
 20
125.3065654939113
 30
0.0
 11
-552.3267569772527
 21
219.3064797147729
 31
0.0
  0
LINE
  5
116
330
1F
100
AcDbEntity
  8
E-2
  6
Continuous
 62
     3
370
     9
100
AcDbLine
 10
-557.3264951034402
 20
25.30648301397044
 30
0.0
 11
-557.3264951034402
 21
119.306397234832
 31
0.0
  0
LINE
  5
117
330
1F
100
AcDbEntity
  8
E-2
  6
Continuous
 62
     3
370
     9
100
AcDbLine
 10
-552.3267569772527
 20
25.30648301397044
 30
0.0
 11
-552.3267569772527
 21
119.306397234832
 31
0.0
  0
LINE
  5
118
330
1F
100
AcDbEntity
  8
E-2
  6
Continuous
 62
     3
370
     9
100
AcDbLine
 10
-557.3264951034402
 20
-48.19342130929805
 30
0.0
 11
-557.3264951034402
 21
19.30656219471366
 31
0.0
  0
LINE
  5
119
330
1F
100
AcDbEntity
  8
E-2
  6
Continuous
 62
     3
370
     9
100
AcDbLine
 10
-552.3267569772527
 20
-48.19342130929805
 30
0.0
 11
-552.3267569772527
 21
19.30656219471366
 31
0.0
  0
LINE
  5
11A
330
1F
100
AcDbEntity
  8
E-2
  6
Continuous
 62
     3
370
     9
100
AcDbLine
 10
-542.3264951034402
 20
225.3066479738522
 30
0.0
 11
-542.3264951034402
 21
319.3063147548912
 31
0.0
  0
LINE
  5
11B
330
1F
100
AcDbEntity
  8
E-2
  6
Continuous
 62
     3
370
     9
100
AcDbLine
 10
-537.3267569772527
 20
225.3066479738522
 30
0.0
 11
-537.3267569772527
 21
319.3063147548912
 31
0.0
  0
LINE
  5
11C
330
1F
100
AcDbEntity
  8
E-2
  6
Continuous
 62
     3
370
     9
100
AcDbLine
 10
-542.3264951034402
 20
325.3064830139706
 30
0.0
 11
-542.3264951034402
 21
392.8059716383371
 31
0.0
  0
LINE
  5
11D
330
1F
100
AcDbEntity
  8
E-2
  6
Continuous
 62
     3
370
     9
100
AcDbLine
 10
-537.3267569772527
 20
325.3064830139706
 30
0.0
 11
-537.3267569772527
 21
392.8059716383371
 31
0.0
  0
LINE
  5
11E
330
1F
100
AcDbEntity
  8
E-2
  6
Continuous
 62
     3
370
     9
100
AcDbLine
 10
-542.3264951034402
 20
125.3065654939113
 30
0.0
 11
-542.3264951034402
 21
219.3064797147729
 31
0.0
  0
LINE
  5
11F
330
1F
100
AcDbEntity
  8
E-2
  6
Continuous
 62
     3
370
     9
100
AcDbLine
 10
-537.3267569772527
 20
125.3065654939113
 30
0.0
 11
-537.3267569772527
 21
219.3064797147729
 31
0.0
  0
LINE
  5
120
330
1F
100
AcDbEntity
  8
E-2
  6
Continuous
 62
     3
370
     9
100
AcDbLine
 10
-542.3264951034402
 20
25.30648301397044
 30
0.0
 11
-542.3264951034402
 21
119.306397234832
 31
0.0
  0
LINE
  5
121
330
1F
100
AcDbEntity
  8
E-2
  6
Continuous
 62
     3
370
     9
100
AcDbLine
 10
-537.3267569772527
 20
25.30648301397044
 30
0.0
 11
-537.3267569772527
 21
119.306397234832
 31
0.0
  0
LINE
  5
122
330
1F
100
AcDbEntity
  8
E-2
  6
Continuous
 62
     3
370
     9
100
AcDbLine
 10
-542.3264951034402
 20
-48.19342130929805
 30
0.0
 11
-542.3264951034402
 21
19.30656219471366
 31
0.0
  0
LINE
  5
123
330
1F
100
AcDbEntity
  8
E-2
  6
Continuous
 62
     3
370
     9
100
AcDbLine
 10
-537.3267569772527
 20
-48.19342130929805
 30
0.0
 11
-537.3267569772527
 21
19.30656219471366
 31
0.0
  0
LINE
  5
124
330
1F
100
AcDbEntity
  8
E-2
  6
Continuous
 62
     3
370
     9
100
AcDbLine
 10
-527.3264951034402
 20
225.3066479738522
 30
0.0
 11
-527.3264951034402
 21
319.3063147548912
 31
0.0
  0
LINE
  5
125
330
1F
100
AcDbEntity
  8
E-2
  6
Continuous
 62
     3
370
     9
100
AcDbLine
 10
-522.3267569772527
 20
225.3066479738522
 30
0.0
 11
-522.3267569772527
 21
319.3063147548912
 31
0.0
  0
LINE
  5
126
330
1F
100
AcDbEntity
  8
E-2
  6
Continuous
 62
     3
370
     9
100
AcDbLine
 10
-527.3264951034402
 20
325.3064830139706
 30
0.0
 11
-527.3264951034402
 21
392.8059716383371
 31
0.0
  0
LINE
  5
127
330
1F
100
AcDbEntity
  8
E-2
  6
Continuous
 62
     3
370
     9
100
AcDbLine
 10
-522.3267569772527
 20
325.3064830139706
 30
0.0
 11
-522.3267569772527
 21
392.8059716383371
 31
0.0
  0
LINE
  5
128
330
1F
100
AcDbEntity
  8
E-2
  6
Continuous
 62
     3
370
     9
100
AcDbLine
 10
-527.3264951034402
 20
125.3065654939113
 30
0.0
 11
-527.3264951034402
 21
219.3064797147729
 31
0.0
  0
LINE
  5
129
330
1F
100
AcDbEntity
  8
E-2
  6
Continuous
 62
     3
370
     9
100
AcDbLine
 10
-522.3267569772527
 20
125.3065654939113
 30
0.0
 11
-522.3267569772527
 21
219.3064797147729
 31
0.0
  0
LINE
  5
12A
330
1F
100
AcDbEntity
  8
E-2
  6
Continuous
 62
     3
370
     9
100
AcDbLine
 10
-527.3264951034402
 20
25.30648301397044
 30
0.0
 11
-527.3264951034402
 21
119.306397234832
 31
0.0
  0
LINE
  5
12B
330
1F
100
AcDbEntity
  8
E-2
  6
Continuous
 62
     3
370
     9
100
AcDbLine
 10
-522.3267569772527
 20
25.30648301397044
 30
0.0
 11
-522.3267569772527
 21
119.306397234832
 31
0.0
  0
LINE
  5
12C
330
1F
100
AcDbEntity
  8
E-2
  6
Continuous
 62
     3
370
     9
100
AcDbLine
 10
-527.3264951034402
 20
-48.19342130929805
 30
0.0
 11
-527.3264951034402
 21
19.30656219471366
 31
0.0
  0
LINE
  5
12D
330
1F
100
AcDbEntity
  8
E-2
  6
Continuous
 62
     3
370
     9
100
AcDbLine
 10
-522.3267569772527
 20
-48.19342130929805
 30
0.0
 11
-522.3267569772527
 21
19.30656219471366
 31
0.0
  0
LINE
  5
12E
330
1F
100
AcDbEntity
  8
E-2
  6
Continuous
 62
     3
370
     9
100
AcDbLine
 10
-512.3264951034402
 20
225.3066479738522
 30
0.0
 11
-512.3264951034402
 21
319.3063147548912
 31
0.0
  0
LINE
  5
12F
330
1F
100
AcDbEntity
  8
E-2
  6
Continuous
 62
     3
370
     9
100
AcDbLine
 10
-507.3267569772527
 20
225.3066479738522
 30
0.0
 11
-507.3267569772527
 21
319.3063147548912
 31
0.0
  0
LINE
  5
130
330
1F
100
AcDbEntity
  8
E-2
  6
Continuous
 62
     3
370
     9
100
AcDbLine
 10
-512.3264951034402
 20
325.3064830139706
 30
0.0
 11
-512.3264951034402
 21
392.8059716383371
 31
0.0
  0
LINE
  5
131
330
1F
100
AcDbEntity
  8
E-2
  6
Continuous
 62
     3
370
     9
100
AcDbLine
 10
-507.3267569772527
 20
325.3064830139706
 30
0.0
 11
-507.3267569772527
 21
392.8059716383371
 31
0.0
  0
LINE
  5
132
330
1F
100
AcDbEntity
  8
E-2
  6
Continuous
 62
     3
370
     9
100
AcDbLine
 10
-512.3264951034402
 20
125.3065654939113
 30
0.0
 11
-512.3264951034402
 21
219.3064797147729
 31
0.0
  0
LINE
  5
133
330
1F
100
AcDbEntity
  8
E-2
  6
Continuous
 62
     3
370
     9
100
AcDbLine
 10
-507.3267569772527
 20
125.3065654939113
 30
0.0
 11
-507.3267569772527
 21
219.3064797147729
 31
0.0
  0
LINE
  5
134
330
1F
100
AcDbEntity
  8
E-2
  6
Continuous
 62
     3
370
     9
100
AcDbLine
 10
-512.3264951034402
 20
25.30648301397044
 30
0.0
 11
-512.3264951034402
 21
119.306397234832
 31
0.0
  0
LINE
  5
135
330
1F
100
AcDbEntity
  8
E-2
  6
Continuous
 62
     3
370
     9
100
AcDbLine
 10
-507.3267569772527
 20
25.30648301397044
 30
0.0
 11
-507.3267569772527
 21
119.306397234832
 31
0.0
  0
LINE
  5
136
330
1F
100
AcDbEntity
  8
E-2
  6
Continuous
 62
     3
370
     9
100
AcDbLine
 10
-512.3264951034402
 20
-48.19342130929805
 30
0.0
 11
-512.3264951034402
 21
19.30656219471366
 31
0.0
  0
LINE
  5
137
330
1F
100
AcDbEntity
  8
E-2
  6
Continuous
 62
     3
370
     9
100
AcDbLine
 10
-507.3267569772527
 20
-48.19342130929805
 30
0.0
 11
-507.3267569772527
 21
19.30656219471366
 31
0.0
  0
LINE
  5
138
330
1F
100
AcDbEntity
  8
E-2
  6
Continuous
 62
     3
370
     9
100
AcDbLine
 10
-497.3264951034402
 20
225.3066479738522
 30
0.0
 11
-497.3264951034402
 21
319.3063147548912
 31
0.0
  0
LINE
  5
139
330
1F
100
AcDbEntity
  8
E-2
  6
Continuous
 62
     3
370
     9
100
AcDbLine
 10
-492.3267569772527
 20
225.3066479738522
 30
0.0
 11
-492.3267569772527
 21
319.3063147548912
 31
0.0
  0
LINE
  5
13A
330
1F
100
AcDbEntity
  8
E-2
  6
Continuous
 62
     3
370
     9
100
AcDbLine
 10
-497.3264951034402
 20
325.3064830139706
 30
0.0
 11
-497.3264951034402
 21
392.8059716383371
 31
0.0
  0
LINE
  5
13B
330
1F
100
AcDbEntity
  8
E-2
  6
Continuous
 62
     3
370
     9
100
AcDbLine
 10
-492.3267569772527
 20
325.3064830139706
 30
0.0
 11
-492.3267569772527
 21
392.8059716383371
 31
0.0
  0
LINE
  5
13C
330
1F
100
AcDbEntity
  8
E-2
  6
Continuous
 62
     3
370
     9
100
AcDbLine
 10
-497.3264951034402
 20
125.3065654939113
 30
0.0
 11
-497.3264951034402
 21
219.3064797147729
 31
0.0
  0
LINE
  5
13D
330
1F
100
AcDbEntity
  8
E-2
  6
Continuous
 62
     3
370
     9
100
AcDbLine
 10
-492.3267569772527
 20
125.3065654939113
 30
0.0
 11
-492.3267569772527
 21
219.3064797147729
 31
0.0
  0
LINE
  5
13E
330
1F
100
AcDbEntity
  8
E-2
  6
Continuous
 62
     3
370
     9
100
AcDbLine
 10
-497.3264951034402
 20
25.30648301397044
 30
0.0
 11
-497.3264951034402
 21
119.306397234832
 31
0.0
  0
LINE
  5
13F
330
1F
100
AcDbEntity
  8
E-2
  6
Continuous
 62
     3
370
     9
100
AcDbLine
 10
-492.3267569772527
 20
25.30648301397044
 30
0.0
 11
-492.3267569772527
 21
119.306397234832
 31
0.0
  0
LINE
  5
140
330
1F
100
AcDbEntity
  8
E-2
  6
Continuous
 62
     3
370
     9
100
AcDbLine
 10
-497.3264951034402
 20
-48.19342130929805
 30
0.0
 11
-497.3264951034402
 21
19.30656219471366
 31
0.0
  0
LINE
  5
141
330
1F
100
AcDbEntity
  8
E-2
  6
Continuous
 62
     3
370
     9
100
AcDbLine
 10
-492.3267569772527
 20
-48.19342130929805
 30
0.0
 11
-492.3267569772527
 21
19.30656219471366
 31
0.0
  0
LINE
  5
142
330
1F
100
AcDbEntity
  8
E-2
  6
Continuous
 62
     3
370
     9
100
AcDbLine
 10
-482.3264951034402
 20
225.3066479738522
 30
0.0
 11
-482.3264951034402
 21
319.3063147548912
 31
0.0
  0
LINE
  5
143
330
1F
100
AcDbEntity
  8
E-2
  6
Continuous
 62
     3
370
     9
100
AcDbLine
 10
-477.3267569772527
 20
225.3066479738522
 30
0.0
 11
-477.3267569772527
 21
319.3063147548912
 31
0.0
  0
LINE
  5
144
330
1F
100
AcDbEntity
  8
E-2
  6
Continuous
 62
     3
370
     9
100
AcDbLine
 10
-482.3264951034402
 20
325.3064830139706
 30
0.0
 11
-482.3264951034402
 21
392.8059716383371
 31
0.0
  0
LINE
  5
145
330
1F
100
AcDbEntity
  8
E-2
  6
Continuous
 62
     3
370
     9
100
AcDbLine
 10
-477.3267569772527
 20
325.3064830139706
 30
0.0
 11
-477.3267569772527
 21
392.8059716383371
 31
0.0
  0
LINE
  5
146
330
1F
100
AcDbEntity
  8
E-2
  6
Continuous
 62
     3
370
     9
100
AcDbLine
 10
-482.3264951034402
 20
125.3065654939113
 30
0.0
 11
-482.3264951034402
 21
219.3064797147729
 31
0.0
  0
LINE
  5
147
330
1F
100
AcDbEntity
  8
E-2
  6
Continuous
 62
     3
370
     9
100
AcDbLine
 10
-477.3267569772527
 20
125.3065654939113
 30
0.0
 11
-477.3267569772527
 21
219.3064797147729
 31
0.0
  0
LINE
  5
148
330
1F
100
AcDbEntity
  8
E-2
  6
Continuous
 62
     3
370
     9
100
AcDbLine
 10
-482.3264951034402
 20
25.30648301397044
 30
0.0
 11
-482.3264951034402
 21
119.306397234832
 31
0.0
  0
LINE
  5
149
330
1F
100
AcDbEntity
  8
E-2
  6
Continuous
 62
     3
370
     9
100
AcDbLine
 10
-477.3267569772527
 20
25.30648301397044
 30
0.0
 11
-477.3267569772527
 21
119.306397234832
 31
0.0
  0
LINE
  5
14A
330
1F
100
AcDbEntity
  8
E-2
  6
Continuous
 62
     3
370
     9
100
AcDbLine
 10
-482.3264951034402
 20
-48.19342130929805
 30
0.0
 11
-482.3264951034402
 21
19.30656219471366
 31
0.0
  0
LINE
  5
14B
330
1F
100
AcDbEntity
  8
E-2
  6
Continuous
 62
     3
370
     9
100
AcDbLine
 10
-477.3267569772527
 20
-48.19342130929805
 30
0.0
 11
-477.3267569772527
 21
19.30656219471366
 31
0.0
  0
LINE
  5
14C
330
1F
100
AcDbEntity
  8
E-2
  6
Continuous
 62
     3
370
     9
100
AcDbLine
 10
-467.3264951034402
 20
225.3066479738522
 30
0.0
 11
-467.3264951034402
 21
319.3063147548912
 31
0.0
  0
LINE
  5
14D
330
1F
100
AcDbEntity
  8
E-2
  6
Continuous
 62
     3
370
     9
100
AcDbLine
 10
-462.3267569772527
 20
225.3066479738522
 30
0.0
 11
-462.3267569772527
 21
319.3063147548912
 31
0.0
  0
LINE
  5
14E
330
1F
100
AcDbEntity
  8
E-2
  6
Continuous
 62
     3
370
     9
100
AcDbLine
 10
-467.3264951034402
 20
325.3064830139706
 30
0.0
 11
-467.3264951034402
 21
392.8059716383371
 31
0.0
  0
LINE
  5
14F
330
1F
100
AcDbEntity
  8
E-2
  6
Continuous
 62
     3
370
     9
100
AcDbLine
 10
-462.3267569772527
 20
325.3064830139706
 30
0.0
 11
-462.3267569772527
 21
392.8059716383371
 31
0.0
  0
LINE
  5
150
330
1F
100
AcDbEntity
  8
E-2
  6
Continuous
 62
     3
370
     9
100
AcDbLine
 10
-467.3264951034402
 20
125.3065654939113
 30
0.0
 11
-467.3264951034402
 21
219.3064797147729
 31
0.0
  0
LINE
  5
151
330
1F
100
AcDbEntity
  8
E-2
  6
Continuous
 62
     3
370
     9
100
AcDbLine
 10
-462.3267569772527
 20
125.3065654939113
 30
0.0
 11
-462.3267569772527
 21
219.3064797147729
 31
0.0
  0
LINE
  5
152
330
1F
100
AcDbEntity
  8
E-2
  6
Continuous
 62
     3
370
     9
100
AcDbLine
 10
-467.3264951034402
 20
25.30648301397044
 30
0.0
 11
-467.3264951034402
 21
119.306397234832
 31
0.0
  0
LINE
  5
153
330
1F
100
AcDbEntity
  8
E-2
  6
Continuous
 62
     3
370
     9
100
AcDbLine
 10
-462.3267569772527
 20
25.30648301397044
 30
0.0
 11
-462.3267569772527
 21
119.306397234832
 31
0.0
  0
LINE
  5
154
330
1F
100
AcDbEntity
  8
E-2
  6
Continuous
 62
     3
370
     9
100
AcDbLine
 10
-467.3264951034402
 20
-48.19342130929805
 30
0.0
 11
-467.3264951034402
 21
19.30656219471366
 31
0.0
  0
LINE
  5
155
330
1F
100
AcDbEntity
  8
E-2
  6
Continuous
 62
     3
370
     9
100
AcDbLine
 10
-462.3267569772527
 20
-48.19342130929805
 30
0.0
 11
-462.3267569772527
 21
19.30656219471366
 31
0.0
  0
LINE
  5
156
330
1F
100
AcDbEntity
  8
E-2
  6
Continuous
 62
     3
370
     9
100
AcDbLine
 10
-452.3264951034402
 20
225.3066479738522
 30
0.0
 11
-452.3264951034402
 21
319.3063147548912
 31
0.0
  0
LINE
  5
157
330
1F
100
AcDbEntity
  8
E-2
  6
Continuous
 62
     3
370
     9
100
AcDbLine
 10
-447.3267569772527
 20
225.3066479738522
 30
0.0
 11
-447.3267569772527
 21
319.3063147548912
 31
0.0
  0
LINE
  5
158
330
1F
100
AcDbEntity
  8
E-2
  6
Continuous
 62
     3
370
     9
100
AcDbLine
 10
-452.3264951034402
 20
325.3064830139706
 30
0.0
 11
-452.3264951034402
 21
392.8059716383371
 31
0.0
  0
LINE
  5
159
330
1F
100
AcDbEntity
  8
E-2
  6
Continuous
 62
     3
370
     9
100
AcDbLine
 10
-447.3267569772527
 20
325.3064830139706
 30
0.0
 11
-447.3267569772527
 21
392.8059716383371
 31
0.0
  0
LINE
  5
15A
330
1F
100
AcDbEntity
  8
E-2
  6
Continuous
 62
     3
370
     9
100
AcDbLine
 10
-452.3264951034402
 20
125.3065654939113
 30
0.0
 11
-452.3264951034402
 21
219.3064797147729
 31
0.0
  0
LINE
  5
15B
330
1F
100
AcDbEntity
  8
E-2
  6
Continuous
 62
     3
370
     9
100
AcDbLine
 10
-447.3267569772527
 20
125.3065654939113
 30
0.0
 11
-447.3267569772527
 21
219.3064797147729
 31
0.0
  0
LINE
  5
15C
330
1F
100
AcDbEntity
  8
E-2
  6
Continuous
 62
     3
370
     9
100
AcDbLine
 10
-452.3264951034402
 20
25.30648301397044
 30
0.0
 11
-452.3264951034402
 21
119.306397234832
 31
0.0
  0
LINE
  5
15D
330
1F
100
AcDbEntity
  8
E-2
  6
Continuous
 62
     3
370
     9
100
AcDbLine
 10
-447.3267569772527
 20
25.30648301397044
 30
0.0
 11
-447.3267569772527
 21
119.306397234832
 31
0.0
  0
LINE
  5
15E
330
1F
100
AcDbEntity
  8
E-2
  6
Continuous
 62
     3
370
     9
100
AcDbLine
 10
-452.3264951034402
 20
-48.19342130929805
 30
0.0
 11
-452.3264951034402
 21
19.30656219471366
 31
0.0
  0
LINE
  5
15F
330
1F
100
AcDbEntity
  8
E-2
  6
Continuous
 62
     3
370
     9
100
AcDbLine
 10
-447.3267569772527
 20
-48.19342130929805
 30
0.0
 11
-447.3267569772527
 21
19.30656219471366
 31
0.0
  0
LINE
  5
160
330
1F
100
AcDbEntity
  8
E-2
  6
Continuous
 62
     3
370
     9
100
AcDbLine
 10
-437.3264951034402
 20
225.3066479738522
 30
0.0
 11
-437.3264951034402
 21
319.3063147548912
 31
0.0
  0
LINE
  5
161
330
1F
100
AcDbEntity
  8
E-2
  6
Continuous
 62
     3
370
     9
100
AcDbLine
 10
-432.3267569772527
 20
225.3066479738522
 30
0.0
 11
-432.3267569772527
 21
319.3063147548912
 31
0.0
  0
LINE
  5
162
330
1F
100
AcDbEntity
  8
E-2
  6
Continuous
 62
     3
370
     9
100
AcDbLine
 10
-437.3264951034402
 20
325.3064830139706
 30
0.0
 11
-437.3264951034402
 21
392.8059716383371
 31
0.0
  0
LINE
  5
163
330
1F
100
AcDbEntity
  8
E-2
  6
Continuous
 62
     3
370
     9
100
AcDbLine
 10
-432.3267569772527
 20
325.3064830139706
 30
0.0
 11
-432.3267569772527
 21
392.8059716383371
 31
0.0
  0
LINE
  5
164
330
1F
100
AcDbEntity
  8
E-2
  6
Continuous
 62
     3
370
     9
100
AcDbLine
 10
-437.3264951034402
 20
125.3065654939113
 30
0.0
 11
-437.3264951034402
 21
219.3064797147729
 31
0.0
  0
LINE
  5
165
330
1F
100
AcDbEntity
  8
E-2
  6
Continuous
 62
     3
370
     9
100
AcDbLine
 10
-432.3267569772527
 20
125.3065654939113
 30
0.0
 11
-432.3267569772527
 21
219.3064797147729
 31
0.0
  0
LINE
  5
166
330
1F
100
AcDbEntity
  8
E-2
  6
Continuous
 62
     3
370
     9
100
AcDbLine
 10
-437.3264951034402
 20
25.30648301397044
 30
0.0
 11
-437.3264951034402
 21
119.306397234832
 31
0.0
  0
LINE
  5
167
330
1F
100
AcDbEntity
  8
E-2
  6
Continuous
 62
     3
370
     9
100
AcDbLine
 10
-432.3267569772527
 20
25.30648301397044
 30
0.0
 11
-432.3267569772527
 21
119.306397234832
 31
0.0
  0
LINE
  5
168
330
1F
100
AcDbEntity
  8
E-2
  6
Continuous
 62
     3
370
     9
100
AcDbLine
 10
-437.3264951034402
 20
-48.19342130929805
 30
0.0
 11
-437.3264951034402
 21
19.30656219471366
 31
0.0
  0
LINE
  5
169
330
1F
100
AcDbEntity
  8
E-2
  6
Continuous
 62
     3
370
     9
100
AcDbLine
 10
-432.3267569772527
 20
-48.19342130929805
 30
0.0
 11
-432.3267569772527
 21
19.30656219471366
 31
0.0
  0
LINE
  5
16A
330
1F
100
AcDbEntity
  8
E-2
  6
Continuous
 62
     3
370
     9
100
AcDbLine
 10
-422.3264951034402
 20
225.3066479738522
 30
0.0
 11
-422.3264951034402
 21
319.3063147548912
 31
0.0
  0
LINE
  5
16B
330
1F
100
AcDbEntity
  8
E-2
  6
Continuous
 62
     3
370
     9
100
AcDbLine
 10
-417.3267569772527
 20
225.3066479738522
 30
0.0
 11
-417.3267569772527
 21
319.3063147548912
 31
0.0
  0
LINE
  5
16C
330
1F
100
AcDbEntity
  8
E-2
  6
Continuous
 62
     3
370
     9
100
AcDbLine
 10
-422.3264951034402
 20
325.3064830139706
 30
0.0
 11
-422.3264951034402
 21
392.8059716383371
 31
0.0
  0
LINE
  5
16D
330
1F
100
AcDbEntity
  8
E-2
  6
Continuous
 62
     3
370
     9
100
AcDbLine
 10
-417.3267569772527
 20
325.3064830139706
 30
0.0
 11
-417.3267569772527
 21
392.8059716383371
 31
0.0
  0
LINE
  5
16E
330
1F
100
AcDbEntity
  8
E-2
  6
Continuous
 62
     3
370
     9
100
AcDbLine
 10
-422.3264951034402
 20
125.3065654939113
 30
0.0
 11
-422.3264951034402
 21
219.3064797147729
 31
0.0
  0
LINE
  5
16F
330
1F
100
AcDbEntity
  8
E-2
  6
Continuous
 62
     3
370
     9
100
AcDbLine
 10
-417.3267569772527
 20
125.3065654939113
 30
0.0
 11
-417.3267569772527
 21
219.3064797147729
 31
0.0
  0
LINE
  5
170
330
1F
100
AcDbEntity
  8
E-2
  6
Continuous
 62
     3
370
     9
100
AcDbLine
 10
-422.3264951034402
 20
25.30648301397044
 30
0.0
 11
-422.3264951034402
 21
119.306397234832
 31
0.0
  0
LINE
  5
171
330
1F
100
AcDbEntity
  8
E-2
  6
Continuous
 62
     3
370
     9
100
AcDbLine
 10
-417.3267569772527
 20
25.30648301397044
 30
0.0
 11
-417.3267569772527
 21
119.306397234832
 31
0.0
  0
LINE
  5
172
330
1F
100
AcDbEntity
  8
E-2
  6
Continuous
 62
     3
370
     9
100
AcDbLine
 10
-422.3264951034402
 20
-48.19342130929805
 30
0.0
 11
-422.3264951034402
 21
19.30656219471366
 31
0.0
  0
LINE
  5
173
330
1F
100
AcDbEntity
  8
E-2
  6
Continuous
 62
     3
370
     9
100
AcDbLine
 10
-417.3267569772527
 20
-48.19342130929805
 30
0.0
 11
-417.3267569772527
 21
19.30656219471366
 31
0.0
  0
LINE
  5
174
330
1F
100
AcDbEntity
  8
E-2
  6
Continuous
 62
     3
370
     9
100
AcDbLine
 10
-407.3264951034402
 20
225.3066479738522
 30
0.0
 11
-407.3264951034402
 21
319.3063147548912
 31
0.0
  0
LINE
  5
175
330
1F
100
AcDbEntity
  8
E-2
  6
Continuous
 62
     3
370
     9
100
AcDbLine
 10
-402.3267569772527
 20
225.3066479738522
 30
0.0
 11
-402.3267569772527
 21
319.3063147548912
 31
0.0
  0
LINE
  5
176
330
1F
100
AcDbEntity
  8
E-2
  6
Continuous
 62
     3
370
     9
100
AcDbLine
 10
-407.3264951034402
 20
325.3064830139706
 30
0.0
 11
-407.3264951034402
 21
392.8059716383371
 31
0.0
  0
LINE
  5
177
330
1F
100
AcDbEntity
  8
E-2
  6
Continuous
 62
     3
370
     9
100
AcDbLine
 10
-402.3267569772527
 20
325.3064830139706
 30
0.0
 11
-402.3267569772527
 21
392.8059716383371
 31
0.0
  0
LINE
  5
178
330
1F
100
AcDbEntity
  8
E-2
  6
Continuous
 62
     3
370
     9
100
AcDbLine
 10
-407.3264951034402
 20
125.3065654939113
 30
0.0
 11
-407.3264951034402
 21
219.3064797147729
 31
0.0
  0
LINE
  5
179
330
1F
100
AcDbEntity
  8
E-2
  6
Continuous
 62
     3
370
     9
100
AcDbLine
 10
-402.3267569772527
 20
125.3065654939113
 30
0.0
 11
-402.3267569772527
 21
219.3064797147729
 31
0.0
  0
LINE
  5
17A
330
1F
100
AcDbEntity
  8
E-2
  6
Continuous
 62
     3
370
     9
100
AcDbLine
 10
-407.3264951034402
 20
25.30648301397044
 30
0.0
 11
-407.3264951034402
 21
119.306397234832
 31
0.0
  0
LINE
  5
17B
330
1F
100
AcDbEntity
  8
E-2
  6
Continuous
 62
     3
370
     9
100
AcDbLine
 10
-402.3267569772527
 20
25.30648301397044
 30
0.0
 11
-402.3267569772527
 21
119.306397234832
 31
0.0
  0
LINE
  5
17C
330
1F
100
AcDbEntity
  8
E-2
  6
Continuous
 62
     3
370
     9
100
AcDbLine
 10
-407.3264951034402
 20
-48.19342130929805
 30
0.0
 11
-407.3264951034402
 21
19.30656219471366
 31
0.0
  0
LINE
  5
17D
330
1F
100
AcDbEntity
  8
E-2
  6
Continuous
 62
     3
370
     9
100
AcDbLine
 10
-402.3267569772527
 20
-48.19342130929805
 30
0.0
 11
-402.3267569772527
 21
19.30656219471366
 31
0.0
  0
LINE
  5
17E
330
1F
100
AcDbEntity
  8
E-2
  6
Continuous
 62
     3
370
     9
100
AcDbLine
 10
-392.3264951034402
 20
225.3066479738522
 30
0.0
 11
-392.3264951034402
 21
319.3063147548912
 31
0.0
  0
LINE
  5
17F
330
1F
100
AcDbEntity
  8
E-2
  6
Continuous
 62
     3
370
     9
100
AcDbLine
 10
-387.3267569772527
 20
225.3066479738522
 30
0.0
 11
-387.3267569772527
 21
319.3063147548912
 31
0.0
  0
LINE
  5
180
330
1F
100
AcDbEntity
  8
E-2
  6
Continuous
 62
     3
370
     9
100
AcDbLine
 10
-392.3264951034402
 20
325.3064830139706
 30
0.0
 11
-392.3264951034402
 21
392.8059716383371
 31
0.0
  0
LINE
  5
181
330
1F
100
AcDbEntity
  8
E-2
  6
Continuous
 62
     3
370
     9
100
AcDbLine
 10
-387.3267569772527
 20
325.3064830139706
 30
0.0
 11
-387.3267569772527
 21
392.8059716383371
 31
0.0
  0
LINE
  5
182
330
1F
100
AcDbEntity
  8
E-2
  6
Continuous
 62
     3
370
     9
100
AcDbLine
 10
-392.3264951034402
 20
125.3065654939113
 30
0.0
 11
-392.3264951034402
 21
219.3064797147729
 31
0.0
  0
LINE
  5
183
330
1F
100
AcDbEntity
  8
E-2
  6
Continuous
 62
     3
370
     9
100
AcDbLine
 10
-387.3267569772527
 20
125.3065654939113
 30
0.0
 11
-387.3267569772527
 21
219.3064797147729
 31
0.0
  0
LINE
  5
184
330
1F
100
AcDbEntity
  8
E-2
  6
Continuous
 62
     3
370
     9
100
AcDbLine
 10
-392.3264951034402
 20
25.30648301397044
 30
0.0
 11
-392.3264951034402
 21
119.306397234832
 31
0.0
  0
LINE
  5
185
330
1F
100
AcDbEntity
  8
E-2
  6
Continuous
 62
     3
370
     9
100
AcDbLine
 10
-387.3267569772527
 20
25.30648301397044
 30
0.0
 11
-387.3267569772527
 21
119.306397234832
 31
0.0
  0
LINE
  5
186
330
1F
100
AcDbEntity
  8
E-2
  6
Continuous
 62
     3
370
     9
100
AcDbLine
 10
-392.3264951034402
 20
-48.19342130929805
 30
0.0
 11
-392.3264951034402
 21
19.30656219471366
 31
0.0
  0
LINE
  5
187
330
1F
100
AcDbEntity
  8
E-2
  6
Continuous
 62
     3
370
     9
100
AcDbLine
 10
-387.3267569772527
 20
-48.19342130929805
 30
0.0
 11
-387.3267569772527
 21
19.30656219471366
 31
0.0
  0
LINE
  5
188
330
1F
100
AcDbEntity
  8
E-2
  6
Continuous
 62
     3
370
     9
100
AcDbLine
 10
-377.3264951034402
 20
225.3066479738522
 30
0.0
 11
-377.3264951034402
 21
319.3063147548912
 31
0.0
  0
LINE
  5
189
330
1F
100
AcDbEntity
  8
E-2
  6
Continuous
 62
     3
370
     9
100
AcDbLine
 10
-372.3267569772527
 20
225.3066479738522
 30
0.0
 11
-372.3267569772527
 21
319.3063147548912
 31
0.0
  0
LINE
  5
18A
330
1F
100
AcDbEntity
  8
E-2
  6
Continuous
 62
     3
370
     9
100
AcDbLine
 10
-377.3264951034402
 20
325.3064830139706
 30
0.0
 11
-377.3264951034402
 21
392.8059716383371
 31
0.0
  0
LINE
  5
18B
330
1F
100
AcDbEntity
  8
E-2
  6
Continuous
 62
     3
370
     9
100
AcDbLine
 10
-372.3267569772527
 20
325.3064830139706
 30
0.0
 11
-372.3267569772527
 21
392.8059716383371
 31
0.0
  0
LINE
  5
18C
330
1F
100
AcDbEntity
  8
E-2
  6
Continuous
 62
     3
370
     9
100
AcDbLine
 10
-377.3264951034402
 20
125.3065654939113
 30
0.0
 11
-377.3264951034402
 21
219.3064797147729
 31
0.0
  0
LINE
  5
18D
330
1F
100
AcDbEntity
  8
E-2
  6
Continuous
 62
     3
370
     9
100
AcDbLine
 10
-372.3267569772527
 20
125.3065654939113
 30
0.0
 11
-372.3267569772527
 21
219.3064797147729
 31
0.0
  0
LINE
  5
18E
330
1F
100
AcDbEntity
  8
E-2
  6
Continuous
 62
     3
370
     9
100
AcDbLine
 10
-377.3264951034402
 20
25.30648301397044
 30
0.0
 11
-377.3264951034402
 21
119.306397234832
 31
0.0
  0
LINE
  5
18F
330
1F
100
AcDbEntity
  8
E-2
  6
Continuous
 62
     3
370
     9
100
AcDbLine
 10
-372.3267569772527
 20
25.30648301397044
 30
0.0
 11
-372.3267569772527
 21
119.306397234832
 31
0.0
  0
LINE
  5
190
330
1F
100
AcDbEntity
  8
E-2
  6
Continuous
 62
     3
370
     9
100
AcDbLine
 10
-377.3264951034402
 20
-48.19342130929805
 30
0.0
 11
-377.3264951034402
 21
19.30656219471366
 31
0.0
  0
LINE
  5
191
330
1F
100
AcDbEntity
  8
E-2
  6
Continuous
 62
     3
370
     9
100
AcDbLine
 10
-372.3267569772527
 20
-48.19342130929805
 30
0.0
 11
-372.3267569772527
 21
19.30656219471366
 31
0.0
  0
LINE
  5
192
330
1F
100
AcDbEntity
  8
E-2
  6
Continuous
 62
     3
370
     9
100
AcDbLine
 10
-362.3264951034402
 20
225.3066479738522
 30
0.0
 11
-362.3264951034402
 21
319.3063147548912
 31
0.0
  0
LINE
  5
193
330
1F
100
AcDbEntity
  8
E-2
  6
Continuous
 62
     3
370
     9
100
AcDbLine
 10
-357.3267569772527
 20
225.3066479738522
 30
0.0
 11
-357.3267569772527
 21
319.3063147548912
 31
0.0
  0
LINE
  5
194
330
1F
100
AcDbEntity
  8
E-2
  6
Continuous
 62
     3
370
     9
100
AcDbLine
 10
-362.3264951034402
 20
325.3064830139706
 30
0.0
 11
-362.3264951034402
 21
392.8059716383371
 31
0.0
  0
LINE
  5
195
330
1F
100
AcDbEntity
  8
E-2
  6
Continuous
 62
     3
370
     9
100
AcDbLine
 10
-357.3267569772527
 20
325.3064830139706
 30
0.0
 11
-357.3267569772527
 21
392.8059716383371
 31
0.0
  0
LINE
  5
196
330
1F
100
AcDbEntity
  8
E-2
  6
Continuous
 62
     3
370
     9
100
AcDbLine
 10
-362.3264951034402
 20
125.3065654939113
 30
0.0
 11
-362.3264951034402
 21
219.3064797147729
 31
0.0
  0
LINE
  5
197
330
1F
100
AcDbEntity
  8
E-2
  6
Continuous
 62
     3
370
     9
100
AcDbLine
 10
-357.3267569772527
 20
125.3065654939113
 30
0.0
 11
-357.3267569772527
 21
219.3064797147729
 31
0.0
  0
LINE
  5
198
330
1F
100
AcDbEntity
  8
E-2
  6
Continuous
 62
     3
370
     9
100
AcDbLine
 10
-362.3264951034402
 20
25.30648301397044
 30
0.0
 11
-362.3264951034402
 21
119.306397234832
 31
0.0
  0
LINE
  5
199
330
1F
100
AcDbEntity
  8
E-2
  6
Continuous
 62
     3
370
     9
100
AcDbLine
 10
-357.3267569772527
 20
25.30648301397044
 30
0.0
 11
-357.3267569772527
 21
119.306397234832
 31
0.0
  0
LINE
  5
19A
330
1F
100
AcDbEntity
  8
E-2
  6
Continuous
 62
     3
370
     9
100
AcDbLine
 10
-362.3264951034402
 20
-48.19342130929805
 30
0.0
 11
-362.3264951034402
 21
19.30656219471366
 31
0.0
  0
LINE
  5
19B
330
1F
100
AcDbEntity
  8
E-2
  6
Continuous
 62
     3
370
     9
100
AcDbLine
 10
-357.3267569772527
 20
-48.19342130929805
 30
0.0
 11
-357.3267569772527
 21
19.30656219471366
 31
0.0
  0
LINE
  5
19C
330
1F
100
AcDbEntity
  8
E-2
  6
Continuous
 62
     3
370
     9
100
AcDbLine
 10
-347.3264951034402
 20
225.3066479738522
 30
0.0
 11
-347.3264951034402
 21
319.3063147548912
 31
0.0
  0
LINE
  5
19D
330
1F
100
AcDbEntity
  8
E-2
  6
Continuous
 62
     3
370
     9
100
AcDbLine
 10
-342.3267569772527
 20
225.3066479738522
 30
0.0
 11
-342.3267569772527
 21
319.3063147548912
 31
0.0
  0
LINE
  5
19E
330
1F
100
AcDbEntity
  8
E-2
  6
Continuous
 62
     3
370
     9
100
AcDbLine
 10
-347.3264951034402
 20
325.3064830139706
 30
0.0
 11
-347.3264951034402
 21
392.8059716383371
 31
0.0
  0
LINE
  5
19F
330
1F
100
AcDbEntity
  8
E-2
  6
Continuous
 62
     3
370
     9
100
AcDbLine
 10
-342.3267569772527
 20
325.3064830139706
 30
0.0
 11
-342.3267569772527
 21
392.8059716383371
 31
0.0
  0
LINE
  5
1A0
330
1F
100
AcDbEntity
  8
E-2
  6
Continuous
 62
     3
370
     9
100
AcDbLine
 10
-347.3264951034402
 20
125.3065654939113
 30
0.0
 11
-347.3264951034402
 21
219.3064797147729
 31
0.0
  0
LINE
  5
1A1
330
1F
100
AcDbEntity
  8
E-2
  6
Continuous
 62
     3
370
     9
100
AcDbLine
 10
-342.3267569772527
 20
125.3065654939113
 30
0.0
 11
-342.3267569772527
 21
219.3064797147729
 31
0.0
  0
LINE
  5
1A2
330
1F
100
AcDbEntity
  8
E-2
  6
Continuous
 62
     3
370
     9
100
AcDbLine
 10
-347.3264951034402
 20
25.30648301397044
 30
0.0
 11
-347.3264951034402
 21
119.306397234832
 31
0.0
  0
LINE
  5
1A3
330
1F
100
AcDbEntity
  8
E-2
  6
Continuous
 62
     3
370
     9
100
AcDbLine
 10
-342.3267569772527
 20
25.30648301397044
 30
0.0
 11
-342.3267569772527
 21
119.306397234832
 31
0.0
  0
LINE
  5
1A4
330
1F
100
AcDbEntity
  8
E-2
  6
Continuous
 62
     3
370
     9
100
AcDbLine
 10
-347.3264951034402
 20
-48.19342130929805
 30
0.0
 11
-347.3264951034402
 21
19.30656219471366
 31
0.0
  0
LINE
  5
1A5
330
1F
100
AcDbEntity
  8
E-2
  6
Continuous
 62
     3
370
     9
100
AcDbLine
 10
-342.3267569772527
 20
-48.19342130929805
 30
0.0
 11
-342.3267569772527
 21
19.30656219471366
 31
0.0
  0
LINE
  5
1A6
330
1F
100
AcDbEntity
  8
E-2
  6
Continuous
 62
     3
370
     9
100
AcDbLine
 10
-332.3264951034402
 20
225.3066479738522
 30
0.0
 11
-332.3264951034402
 21
319.3063147548912
 31
0.0
  0
LINE
  5
1A7
330
1F
100
AcDbEntity
  8
E-2
  6
Continuous
 62
     3
370
     9
100
AcDbLine
 10
-327.3267569772527
 20
225.3066479738522
 30
0.0
 11
-327.3267569772527
 21
319.3063147548912
 31
0.0
  0
LINE
  5
1A8
330
1F
100
AcDbEntity
  8
E-2
  6
Continuous
 62
     3
370
     9
100
AcDbLine
 10
-332.3264951034402
 20
325.3064830139706
 30
0.0
 11
-332.3264951034402
 21
392.8059716383371
 31
0.0
  0
LINE
  5
1A9
330
1F
100
AcDbEntity
  8
E-2
  6
Continuous
 62
     3
370
     9
100
AcDbLine
 10
-327.3267569772527
 20
325.3064830139706
 30
0.0
 11
-327.3267569772527
 21
392.8059716383371
 31
0.0
  0
LINE
  5
1AA
330
1F
100
AcDbEntity
  8
E-2
  6
Continuous
 62
     3
370
     9
100
AcDbLine
 10
-332.3264951034402
 20
125.3065654939113
 30
0.0
 11
-332.3264951034402
 21
219.3064797147729
 31
0.0
  0
LINE
  5
1AB
330
1F
100
AcDbEntity
  8
E-2
  6
Continuous
 62
     3
370
     9
100
AcDbLine
 10
-327.3267569772527
 20
125.3065654939113
 30
0.0
 11
-327.3267569772527
 21
219.3064797147729
 31
0.0
  0
LINE
  5
1AC
330
1F
100
AcDbEntity
  8
E-2
  6
Continuous
 62
     3
370
     9
100
AcDbLine
 10
-332.3264951034402
 20
25.30648301397044
 30
0.0
 11
-332.3264951034402
 21
119.306397234832
 31
0.0
  0
LINE
  5
1AD
330
1F
100
AcDbEntity
  8
E-2
  6
Continuous
 62
     3
370
     9
100
AcDbLine
 10
-327.3267569772527
 20
25.30648301397044
 30
0.0
 11
-327.3267569772527
 21
119.306397234832
 31
0.0
  0
LINE
  5
1AE
330
1F
100
AcDbEntity
  8
E-2
  6
Continuous
 62
     3
370
     9
100
AcDbLine
 10
-332.3264951034402
 20
-48.19342130929805
 30
0.0
 11
-332.3264951034402
 21
19.30656219471366
 31
0.0
  0
LINE
  5
1AF
330
1F
100
AcDbEntity
  8
E-2
  6
Continuous
 62
     3
370
     9
100
AcDbLine
 10
-327.3267569772527
 20
-48.19342130929805
 30
0.0
 11
-327.3267569772527
 21
19.30656219471366
 31
0.0
  0
LINE
  5
1B0
330
1F
100
AcDbEntity
  8
E-2
  6
Continuous
 62
     3
370
     9
100
AcDbLine
 10
-317.3264951034402
 20
225.3066479738522
 30
0.0
 11
-317.3264951034402
 21
319.3063147548912
 31
0.0
  0
LINE
  5
1B1
330
1F
100
AcDbEntity
  8
E-2
  6
Continuous
 62
     3
370
     9
100
AcDbLine
 10
-312.3267569772527
 20
225.3066479738522
 30
0.0
 11
-312.3267569772527
 21
319.3063147548912
 31
0.0
  0
LINE
  5
1B2
330
1F
100
AcDbEntity
  8
E-2
  6
Continuous
 62
     3
370
     9
100
AcDbLine
 10
-317.3264951034402
 20
325.3064830139706
 30
0.0
 11
-317.3264951034402
 21
392.8059716383371
 31
0.0
  0
LINE
  5
1B3
330
1F
100
AcDbEntity
  8
E-2
  6
Continuous
 62
     3
370
     9
100
AcDbLine
 10
-312.3267569772527
 20
325.3064830139706
 30
0.0
 11
-312.3267569772527
 21
392.8059716383371
 31
0.0
  0
LINE
  5
1B4
330
1F
100
AcDbEntity
  8
E-2
  6
Continuous
 62
     3
370
     9
100
AcDbLine
 10
-317.3264951034402
 20
125.3065654939113
 30
0.0
 11
-317.3264951034402
 21
219.3064797147729
 31
0.0
  0
LINE
  5
1B5
330
1F
100
AcDbEntity
  8
E-2
  6
Continuous
 62
     3
370
     9
100
AcDbLine
 10
-312.3267569772527
 20
125.3065654939113
 30
0.0
 11
-312.3267569772527
 21
219.3064797147729
 31
0.0
  0
LINE
  5
1B6
330
1F
100
AcDbEntity
  8
E-2
  6
Continuous
 62
     3
370
     9
100
AcDbLine
 10
-317.3264951034402
 20
25.30648301397044
 30
0.0
 11
-317.3264951034402
 21
119.306397234832
 31
0.0
  0
LINE
  5
1B7
330
1F
100
AcDbEntity
  8
E-2
  6
Continuous
 62
     3
370
     9
100
AcDbLine
 10
-312.3267569772527
 20
25.30648301397044
 30
0.0
 11
-312.3267569772527
 21
119.306397234832
 31
0.0
  0
LINE
  5
1B8
330
1F
100
AcDbEntity
  8
E-2
  6
Continuous
 62
     3
370
     9
100
AcDbLine
 10
-317.3264951034402
 20
-48.19342130929805
 30
0.0
 11
-317.3264951034402
 21
19.30656219471366
 31
0.0
  0
LINE
  5
1B9
330
1F
100
AcDbEntity
  8
E-2
  6
Continuous
 62
     3
370
     9
100
AcDbLine
 10
-312.3267569772527
 20
-48.19342130929805
 30
0.0
 11
-312.3267569772527
 21
19.30656219471366
 31
0.0
  0
LINE
  5
1BA
330
1F
100
AcDbEntity
  8
E-2
  6
Continuous
 62
     3
370
     9
100
AcDbLine
 10
-302.3264951034402
 20
225.3066479738522
 30
0.0
 11
-302.3264951034402
 21
319.3063147548912
 31
0.0
  0
LINE
  5
1BB
330
1F
100
AcDbEntity
  8
E-2
  6
Continuous
 62
     3
370
     9
100
AcDbLine
 10
-297.3267569772527
 20
225.3066479738522
 30
0.0
 11
-297.3267569772527
 21
319.3063147548912
 31
0.0
  0
LINE
  5
1BC
330
1F
100
AcDbEntity
  8
E-2
  6
Continuous
 62
     3
370
     9
100
AcDbLine
 10
-302.3264951034402
 20
325.3064830139706
 30
0.0
 11
-302.3264951034402
 21
392.8059716383371
 31
0.0
  0
LINE
  5
1BD
330
1F
100
AcDbEntity
  8
E-2
  6
Continuous
 62
     3
370
     9
100
AcDbLine
 10
-297.3267569772527
 20
325.3064830139706
 30
0.0
 11
-297.3267569772527
 21
392.8059716383371
 31
0.0
  0
LINE
  5
1BE
330
1F
100
AcDbEntity
  8
E-2
  6
Continuous
 62
     3
370
     9
100
AcDbLine
 10
-302.3264951034402
 20
125.3065654939113
 30
0.0
 11
-302.3264951034402
 21
219.3064797147729
 31
0.0
  0
LINE
  5
1BF
330
1F
100
AcDbEntity
  8
E-2
  6
Continuous
 62
     3
370
     9
100
AcDbLine
 10
-297.3267569772527
 20
125.3065654939113
 30
0.0
 11
-297.3267569772527
 21
219.3064797147729
 31
0.0
  0
LINE
  5
1C0
330
1F
100
AcDbEntity
  8
E-2
  6
Continuous
 62
     3
370
     9
100
AcDbLine
 10
-302.3264951034402
 20
25.30648301397044
 30
0.0
 11
-302.3264951034402
 21
119.306397234832
 31
0.0
  0
LINE
  5
1C1
330
1F
100
AcDbEntity
  8
E-2
  6
Continuous
 62
     3
370
     9
100
AcDbLine
 10
-297.3267569772527
 20
25.30648301397044
 30
0.0
 11
-297.3267569772527
 21
119.306397234832
 31
0.0
  0
LINE
  5
1C2
330
1F
100
AcDbEntity
  8
E-2
  6
Continuous
 62
     3
370
     9
100
AcDbLine
 10
-302.3264951034402
 20
-48.19342130929805
 30
0.0
 11
-302.3264951034402
 21
19.30656219471366
 31
0.0
  0
LINE
  5
1C3
330
1F
100
AcDbEntity
  8
E-2
  6
Continuous
 62
     3
370
     9
100
AcDbLine
 10
-297.3267569772527
 20
-48.19342130929805
 30
0.0
 11
-297.3267569772527
 21
19.30656219471366
 31
0.0
  0
LINE
  5
1C4
330
1F
100
AcDbEntity
  8
E-2
  6
Continuous
 62
     3
370
     9
100
AcDbLine
 10
-287.3264951034402
 20
225.3066479738522
 30
0.0
 11
-287.3264951034402
 21
319.3063147548912
 31
0.0
  0
LINE
  5
1C5
330
1F
100
AcDbEntity
  8
E-2
  6
Continuous
 62
     3
370
     9
100
AcDbLine
 10
-282.3267569772527
 20
225.3066479738522
 30
0.0
 11
-282.3267569772527
 21
319.3063147548912
 31
0.0
  0
LINE
  5
1C6
330
1F
100
AcDbEntity
  8
E-2
  6
Continuous
 62
     3
370
     9
100
AcDbLine
 10
-287.3264951034402
 20
125.3065654939113
 30
0.0
 11
-287.3264951034402
 21
219.3064797147729
 31
0.0
  0
LINE
  5
1C7
330
1F
100
AcDbEntity
  8
E-2
  6
Continuous
 62
     3
370
     9
100
AcDbLine
 10
-282.3267569772527
 20
125.3065654939113
 30
0.0
 11
-282.3267569772527
 21
219.3064797147729
 31
0.0
  0
LINE
  5
1C8
330
1F
100
AcDbEntity
  8
E-2
  6
Continuous
 62
     3
370
     9
100
AcDbLine
 10
-287.3264951034402
 20
25.30648301397044
 30
0.0
 11
-287.3264951034402
 21
119.306397234832
 31
0.0
  0
LINE
  5
1C9
330
1F
100
AcDbEntity
  8
E-2
  6
Continuous
 62
     3
370
     9
100
AcDbLine
 10
-282.3267569772527
 20
25.30648301397044
 30
0.0
 11
-282.3267569772527
 21
119.306397234832
 31
0.0
  0
LINE
  5
1CA
330
1F
100
AcDbEntity
  8
E-2
  6
Continuous
 62
     3
370
     9
100
AcDbLine
 10
-272.3264951034402
 20
225.3066479738522
 30
0.0
 11
-272.3264951034402
 21
319.3063147548912
 31
0.0
  0
LINE
  5
1CB
330
1F
100
AcDbEntity
  8
E-2
  6
Continuous
 62
     3
370
     9
100
AcDbLine
 10
-267.3267569772527
 20
225.3066479738522
 30
0.0
 11
-267.3267569772527
 21
319.3063147548912
 31
0.0
  0
LINE
  5
1CC
330
1F
100
AcDbEntity
  8
E-2
  6
Continuous
 62
     3
370
     9
100
AcDbLine
 10
-272.3264951034402
 20
125.3065654939113
 30
0.0
 11
-272.3264951034402
 21
219.3064797147729
 31
0.0
  0
LINE
  5
1CD
330
1F
100
AcDbEntity
  8
E-2
  6
Continuous
 62
     3
370
     9
100
AcDbLine
 10
-267.3267569772527
 20
125.3065654939113
 30
0.0
 11
-267.3267569772527
 21
219.3064797147729
 31
0.0
  0
LINE
  5
1CE
330
1F
100
AcDbEntity
  8
E-2
  6
Continuous
 62
     3
370
     9
100
AcDbLine
 10
-272.3264951034402
 20
25.30648301397044
 30
0.0
 11
-272.3264951034402
 21
119.306397234832
 31
0.0
  0
LINE
  5
1CF
330
1F
100
AcDbEntity
  8
E-2
  6
Continuous
 62
     3
370
     9
100
AcDbLine
 10
-267.3267569772527
 20
25.30648301397044
 30
0.0
 11
-267.3267569772527
 21
119.306397234832
 31
0.0
  0
LINE
  5
1D0
330
1F
100
AcDbEntity
  8
E-2
  6
Continuous
 62
     3
370
     9
100
AcDbLine
 10
-257.3264951034402
 20
225.3066479738522
 30
0.0
 11
-257.3264951034402
 21
319.3063147548912
 31
0.0
  0
LINE
  5
1D1
330
1F
100
AcDbEntity
  8
E-2
  6
Continuous
 62
     3
370
     9
100
AcDbLine
 10
-252.3267569772527
 20
225.3066479738522
 30
0.0
 11
-252.3267569772527
 21
319.3063147548912
 31
0.0
  0
LINE
  5
1D2
330
1F
100
AcDbEntity
  8
E-2
  6
Continuous
 62
     3
370
     9
100
AcDbLine
 10
-257.3264951034402
 20
125.3065654939113
 30
0.0
 11
-257.3264951034402
 21
219.3064797147729
 31
0.0
  0
LINE
  5
1D3
330
1F
100
AcDbEntity
  8
E-2
  6
Continuous
 62
     3
370
     9
100
AcDbLine
 10
-252.3267569772527
 20
125.3065654939113
 30
0.0
 11
-252.3267569772527
 21
219.3064797147729
 31
0.0
  0
LINE
  5
1D4
330
1F
100
AcDbEntity
  8
E-2
  6
Continuous
 62
     3
370
     9
100
AcDbLine
 10
-257.3264951034402
 20
25.30648301397044
 30
0.0
 11
-257.3264951034402
 21
119.306397234832
 31
0.0
  0
LINE
  5
1D5
330
1F
100
AcDbEntity
  8
E-2
  6
Continuous
 62
     3
370
     9
100
AcDbLine
 10
-252.3267569772527
 20
25.30648301397044
 30
0.0
 11
-252.3267569772527
 21
119.306397234832
 31
0.0
  0
LINE
  5
1D6
330
1F
100
AcDbEntity
  8
E-2
  6
Continuous
 62
     3
370
     9
100
AcDbLine
 10
-242.3264951034402
 20
225.3066479738522
 30
0.0
 11
-242.3264951034402
 21
319.3063147548912
 31
0.0
  0
LINE
  5
1D7
330
1F
100
AcDbEntity
  8
E-2
  6
Continuous
 62
     3
370
     9
100
AcDbLine
 10
-237.3267569772527
 20
225.3066479738522
 30
0.0
 11
-237.3267569772527
 21
319.3063147548912
 31
0.0
  0
LINE
  5
1D8
330
1F
100
AcDbEntity
  8
E-2
  6
Continuous
 62
     3
370
     9
100
AcDbLine
 10
-242.3264951034402
 20
325.3064830139706
 30
0.0
 11
-242.3264951034402
 21
392.8059716383371
 31
0.0
  0
LINE
  5
1D9
330
1F
100
AcDbEntity
  8
E-2
  6
Continuous
 62
     3
370
     9
100
AcDbLine
 10
-237.3267569772527
 20
325.3064830139706
 30
0.0
 11
-237.3267569772527
 21
392.8059716383371
 31
0.0
  0
LINE
  5
1DA
330
1F
100
AcDbEntity
  8
E-2
  6
Continuous
 62
     3
370
     9
100
AcDbLine
 10
-242.3264951034402
 20
125.3065654939113
 30
0.0
 11
-242.3264951034402
 21
219.3064797147729
 31
0.0
  0
LINE
  5
1DB
330
1F
100
AcDbEntity
  8
E-2
  6
Continuous
 62
     3
370
     9
100
AcDbLine
 10
-237.3267569772527
 20
125.3065654939113
 30
0.0
 11
-237.3267569772527
 21
219.3064797147729
 31
0.0
  0
LINE
  5
1DC
330
1F
100
AcDbEntity
  8
E-2
  6
Continuous
 62
     3
370
     9
100
AcDbLine
 10
-242.3264951034402
 20
25.30648301397044
 30
0.0
 11
-242.3264951034402
 21
119.306397234832
 31
0.0
  0
LINE
  5
1DD
330
1F
100
AcDbEntity
  8
E-2
  6
Continuous
 62
     3
370
     9
100
AcDbLine
 10
-237.3267569772527
 20
25.30648301397044
 30
0.0
 11
-237.3267569772527
 21
119.306397234832
 31
0.0
  0
LINE
  5
1DE
330
1F
100
AcDbEntity
  8
E-2
  6
Continuous
 62
     3
370
     9
100
AcDbLine
 10
-242.3264951034402
 20
-48.19342130929805
 30
0.0
 11
-242.3264951034402
 21
19.30656219471366
 31
0.0
  0
LINE
  5
1DF
330
1F
100
AcDbEntity
  8
E-2
  6
Continuous
 62
     3
370
     9
100
AcDbLine
 10
-237.3267569772527
 20
-48.19342130929805
 30
0.0
 11
-237.3267569772527
 21
19.30656219471366
 31
0.0
  0
LINE
  5
1E0
330
1F
100
AcDbEntity
  8
E-2
  6
Continuous
 62
     3
370
     9
100
AcDbLine
 10
-227.3264951034402
 20
225.3066479738522
 30
0.0
 11
-227.3264951034402
 21
319.3063147548912
 31
0.0
  0
LINE
  5
1E1
330
1F
100
AcDbEntity
  8
E-2
  6
Continuous
 62
     3
370
     9
100
AcDbLine
 10
-222.3267569772527
 20
225.3066479738522
 30
0.0
 11
-222.3267569772527
 21
319.3063147548912
 31
0.0
  0
LINE
  5
1E2
330
1F
100
AcDbEntity
  8
E-2
  6
Continuous
 62
     3
370
     9
100
AcDbLine
 10
-227.3264951034402
 20
325.3064830139706
 30
0.0
 11
-227.3264951034402
 21
392.8059716383371
 31
0.0
  0
LINE
  5
1E3
330
1F
100
AcDbEntity
  8
E-2
  6
Continuous
 62
     3
370
     9
100
AcDbLine
 10
-222.3267569772527
 20
325.3064830139706
 30
0.0
 11
-222.3267569772527
 21
392.8059716383371
 31
0.0
  0
LINE
  5
1E4
330
1F
100
AcDbEntity
  8
E-2
  6
Continuous
 62
     3
370
     9
100
AcDbLine
 10
-227.3264951034402
 20
125.3065654939113
 30
0.0
 11
-227.3264951034402
 21
219.3064797147729
 31
0.0
  0
LINE
  5
1E5
330
1F
100
AcDbEntity
  8
E-2
  6
Continuous
 62
     3
370
     9
100
AcDbLine
 10
-222.3267569772527
 20
125.3065654939113
 30
0.0
 11
-222.3267569772527
 21
219.3064797147729
 31
0.0
  0
LINE
  5
1E6
330
1F
100
AcDbEntity
  8
E-2
  6
Continuous
 62
     3
370
     9
100
AcDbLine
 10
-227.3264951034402
 20
25.30648301397044
 30
0.0
 11
-227.3264951034402
 21
119.306397234832
 31
0.0
  0
LINE
  5
1E7
330
1F
100
AcDbEntity
  8
E-2
  6
Continuous
 62
     3
370
     9
100
AcDbLine
 10
-222.3267569772527
 20
25.30648301397044
 30
0.0
 11
-222.3267569772527
 21
119.306397234832
 31
0.0
  0
LINE
  5
1E8
330
1F
100
AcDbEntity
  8
E-2
  6
Continuous
 62
     3
370
     9
100
AcDbLine
 10
-227.3264951034402
 20
-48.19342130929805
 30
0.0
 11
-227.3264951034402
 21
19.30656219471366
 31
0.0
  0
LINE
  5
1E9
330
1F
100
AcDbEntity
  8
E-2
  6
Continuous
 62
     3
370
     9
100
AcDbLine
 10
-222.3267569772527
 20
-48.19342130929805
 30
0.0
 11
-222.3267569772527
 21
19.30656219471366
 31
0.0
  0
LINE
  5
1EA
330
1F
100
AcDbEntity
  8
E-2
  6
Continuous
 62
     3
370
     9
100
AcDbLine
 10
-647.3264951034402
 20
397.3066545722475
 30
0.0
 11
-207.3264951034402
 21
397.3066545722475
 31
0.0
  0
LINE
  5
1EB
330
1F
100
AcDbEntity
  8
E-2
  6
Continuous
 62
     3
370
     9
100
AcDbLine
 10
-647.3264951034402
 20
392.8059716383371
 30
0.0
 11
-207.3264951034402
 21
392.8059716383371
 31
0.0
  0
LINE
  5
1EC
330
1F
100
AcDbEntity
  8
E-2
  6
Continuous
 62
     3
370
     9
100
AcDbLine
 10
-207.3264951034402
 20
319.3063147548912
 30
0.0
 11
-647.3264951034402
 21
319.3063147548912
 31
0.0
  0
LINE
  5
1ED
330
1F
100
AcDbEntity
  8
E-2
  6
Continuous
 62
     3
370
     9
100
AcDbLine
 10
-207.3264951034402
 20
325.3064830139706
 30
0.0
 11
-647.3264951034402
 21
325.3064830139706
 31
0.0
  0
LINE
  5
1EE
330
1F
100
AcDbEntity
  8
E-2
  6
Continuous
 62
     3
370
     9
100
AcDbLine
 10
-212.3263260195615
 20
225.3066479738522
 30
0.0
 11
-212.3263260195615
 21
319.3063147548912
 31
0.0
  0
LINE
  5
1EF
330
1F
100
AcDbEntity
  8
E-2
  6
Continuous
 62
     3
370
     9
100
AcDbLine
 10
-212.3263260195615
 20
325.3064830139706
 30
0.0
 11
-212.3263260195615
 21
392.8059716383371
 31
0.0
  0
LINE
  5
1F0
330
1F
100
AcDbEntity
  8
E-2
  6
Continuous
 62
     3
370
     9
100
AcDbLine
 10
-212.3263260195615
 20
125.3065654939113
 30
0.0
 11
-212.3263260195615
 21
219.3064797147729
 31
0.0
  0
LINE
  5
1F1
330
1F
100
AcDbEntity
  8
E-2
  6
Continuous
 62
     3
370
     9
100
AcDbLine
 10
-207.3264951034402
 20
125.306812933734
 30
0.0
 11
-647.3264951034402
 21
125.306812933734
 31
0.0
  0
LINE
  5
1F2
330
1F
100
AcDbEntity
  8
E-2
  6
Continuous
 62
     3
370
     9
100
AcDbLine
 10
-207.3264951034402
 20
119.306397234832
 30
0.0
 11
-647.3264951034402
 21
119.306397234832
 31
0.0
  0
LINE
  5
1F3
330
1F
100
AcDbEntity
  8
E-2
  6
Continuous
 62
     3
370
     9
100
AcDbLine
 10
-212.3263260195615
 20
25.30648301397044
 30
0.0
 11
-212.3263260195615
 21
119.306397234832
 31
0.0
  0
LINE
  5
1F4
330
1F
100
AcDbEntity
  8
E-2
  6
Continuous
 62
     3
370
     9
100
AcDbLine
 10
-207.3264951034402
 20
219.3064797147729
 30
0.0
 11
-647.3264951034402
 21
219.3064797147729
 31
0.0
  0
LINE
  5
1F5
330
1F
100
AcDbEntity
  8
E-2
  6
Continuous
 62
     3
370
     9
100
AcDbLine
 10
-207.3264951034402
 20
225.3064005340297
 30
0.0
 11
-647.3264951034402
 21
225.3064005340297
 31
0.0
  0
LINE
  5
1F6
330
1F
100
AcDbEntity
  8
E-2
  6
Continuous
 62
     3
370
     9
100
AcDbLine
 10
-207.3264951034402
 20
25.30673045379309
 30
0.0
 11
-647.3264951034402
 21
25.30673045379309
 31
0.0
  0
LINE
  5
1F7
330
1F
100
AcDbEntity
  8
E-2
  6
Continuous
 62
     3
370
     9
100
AcDbLine
 10
-207.3264951034402
 20
19.30656219471366
 30
0.0
 11
-647.3264951034402
 21
19.30656219471366
 31
0.0
  0
LINE
  5
1F8
330
1F
100
AcDbEntity
  8
E-2
  6
Continuous
 62
     3
370
     9
100
AcDbLine
 10
-207.3264951034402
 20
-48.19342130929805
 30
0.0
 11
-647.3264951034402
 21
-48.19342130929805
 31
0.0
  0
LINE
  5
1F9
330
1F
100
AcDbEntity
  8
E-2
  6
Continuous
 62
     3
370
     9
100
AcDbLine
 10
-207.3264951034402
 20
-52.69336192374062
 30
0.0
 11
-647.3264951034402
 21
-52.69336192374062
 31
0.0
  0
LINE
  5
1FA
330
1F
100
AcDbEntity
  8
E-2
  6
Continuous
 62
     3
370
     9
100
AcDbLine
 10
-212.3263260195615
 20
-48.19342130929805
 30
0.0
 11
-212.3263260195615
 21
19.30656219471366
 31
0.0
  0
LWPOLYLINE
  5
1FB
330
1F
100
AcDbEntity
  8
E-4
  6
Continuous
 62
     7
370
     9
100
AcDbPolyline
 90
        4
 70
     1
 43
1.0
 10
-646.8264951034403
 20
-162.6928884888801
 42
0.4142135623731
 10
-647.3264951034402
 20
-162.1928884888801
 42
0.4142135623731
 10
-647.8264951034402
 20
-162.6928884888801
 42
0.4142135623731
 10
-647.3264951034402
 20
-163.1928884888801
 42
0.4142135623731
  0
LWPOLYLINE
  5
1FC
330
1F
100
AcDbEntity
  8
E-4
  6
Continuous
 62
     7
370
     9
100
AcDbPolyline
 90
        4
 70
     1
 43
1.0
 10
-206.8264951034402
 20
-162.6928884888801
 42
0.4142135623731
 10
-207.3264951034402
 20
-162.1928884888801
 42
0.4142135623731
 10
-207.8264951034402
 20
-162.6928884888801
 42
0.4142135623731
 10
-207.3264951034402
 20
-163.1928884888801
 42
0.4142135623731
  0
LINE
  5
1FD
330
1F
100
AcDbEntity
  8
E-4
  6
Continuous
 62
     7
370
     9
100
AcDbLine
 10
-647.3264951034402
 20
-162.6928884888801
 30
0.0
 11
-207.3264951034402
 21
-162.6928884888801
 31
0.0
  0
TEXT
  5
1FE
330
1F
100
AcDbEntity
  8
E-4
  6
Continuous
 62
     2
370
   211
100
AcDbText
 10
-443.5764951034402
 20
-156.8728884888801
 30
0.0
 40
15.24
  1
440
 41
1.083333333333333
  7
ＭＳ ゴシック
100
AcDbText
  0
LINE
  5
1FF
330
1F
100
AcDbEntity
  8
E-4
  6
Continuous
 62
     7
370
     9
100
AcDbLine
 10
-207.3264951034402
 20
-162.6928884888801
 30
0.0
 11
-198.32646747266
 21
-162.6928884888801
 31
0.0
  0
TEXT
  5
200
330
1F
100
AcDbEntity
  8
E-4
  6
Continuous
 62
     2
370
   211
100
AcDbText
 10
-225.3264951034402
 20
-156.8728884888801
 30
0.0
 40
15.24
  1
9
 41
0.9999999999999998
  7
ＭＳ ゴシック
100
AcDbText
  0
LINE
  5
201
330
1F
100
AcDbEntity
  8
E-4
  6
Continuous
 62
     7
370
     9
100
AcDbLine
 10
-656.3264608742646
 20
-162.6928884888801
 30
0.0
 11
-647.3264951034402
 21
-162.6928884888801
 31
0.0
  0
TEXT
  5
202
330
1F
100
AcDbEntity
  8
E-4
  6
Continuous
 62
     2
370
   211
100
AcDbText
 10
-639.3264951034403
 20
-156.8728884888801
 30
0.0
 40
15.24
  1
9
 41
0.9999999999999998
  7
ＭＳ ゴシック
100
AcDbText
  0
LINE
  5
203
330
1F
100
AcDbEntity
  8
E-1
  6
JWW_CENTER1
 62
     2
370
     9
100
AcDbLine
 10
-269.8265866561748
 20
-51.83032858487699
 30
0.0
 11
-269.8265866561748
 21
3.443178433930214
 31
0.0
  0
LINE
  5
204
330
1F
100
AcDbEntity
  8
E-1
  6
Continuous
 62
     2
370
     9
100
AcDbLine
 10
-281.826840694393
 20
-31.12121966516661
 30
0.0
 11
-281.826840694393
 21
-17.26493954820505
 31
0.0
  0
LINE
  5
205
330
1F
100
AcDbEntity
  8
E-1
  6
Continuous
 62
     2
370
     9
100
AcDbLine
 10
-281.826840694393
 20
-17.26493954820505
 30
0.0
 11
-269.8265866561748
 21
-10.33630402093699
 31
0.0
  0
LINE
  5
206
330
1F
100
AcDbEntity
  8
E-1
  6
Continuous
 62
     2
370
     9
100
AcDbLine
 10
-269.8265866561748
 20
-10.33630402093699
 30
0.0
 11
-257.8268280867452
 21
-17.26493954820505
 31
0.0
  0
LINE
  5
207
330
1F
100
AcDbEntity
  8
E-1
  6
Continuous
 62
     2
370
     9
100
AcDbLine
 10
-257.8268280867452
 20
-17.26493954820505
 30
0.0
 11
-257.8268280867452
 21
-31.12121966516661
 31
0.0
  0
LINE
  5
208
330
1F
100
AcDbEntity
  8
E-1
  6
Continuous
 62
     2
370
     9
100
AcDbLine
 10
-257.8268280867452
 20
-31.12121966516661
 30
0.0
 11
-269.8265866561748
 21
-38.04985519243466
 31
0.0
  0
LINE
  5
209
330
1F
100
AcDbEntity
  8
E-1
  6
Continuous
 62
     2
370
     9
100
AcDbLine
 10
-269.8265866561748
 20
-38.04985519243466
 30
0.0
 11
-281.826840694393
 21
-31.12121966516661
 31
0.0
  0
LINE
  5
20A
330
1F
100
AcDbEntity
  8
E-1
  6
JWW_CENTER1
 62
     2
370
     9
100
AcDbLine
 10
-242.1900808811655
 20
-24.19357507547367
 30
0.0
 11
-299.9633401655786
 21
-24.19357507547367
 31
0.0
  0
CIRCLE
  5
20B
330
1F
100
AcDbEntity
  8
E-1
  6
Continuous
 62
     2
370
     9
100
AcDbCircle
 10
-269.8265866561748
 20
-24.19357507547367
 30
0.0
 40
12.00000630382405
  0
CIRCLE
  5
20C
330
1F
100
AcDbEntity
  8
E-1
  6
Continuous
 62
     2
370
     9
100
AcDbCircle
 10
-269.8265866561748
 20
-24.19357507547367
 30
0.0
 40
8.000000170414053
  0
CIRCLE
  5
20D
330
1F
100
AcDbEntity
  8
E-1
  6
Continuous
 62
     2
370
     9
100
AcDbCircle
 10
-269.8265866561748
 20
-24.19357507547367
 30
0.0
 40
19.00000288449659
  0
LINE
  5
20E
330
1F
100
AcDbEntity
  8
E-1
  6
JWW_CENTER1
 62
     2
370
     9
100
AcDbLine
 10
-584.8265561385965
 20
-51.83032858487699
 30
0.0
 11
-584.8265561385965
 21
3.443178433930214
 31
0.0
  0
LINE
  5
20F
330
1F
100
AcDbEntity
  8
E-1
  6
Continuous
 62
     2
370
     9
100
AcDbLine
 10
-596.8268101768148
 20
-31.12121966516661
 30
0.0
 11
-596.8268101768148
 21
-17.26493954820505
 31
0.0
  0
LINE
  5
210
330
1F
100
AcDbEntity
  8
E-1
  6
Continuous
 62
     2
370
     9
100
AcDbLine
 10
-596.8268101768148
 20
-17.26493954820505
 30
0.0
 11
-584.8265561385965
 21
-10.33630402093699
 31
0.0
  0
LINE
  5
211
330
1F
100
AcDbEntity
  8
E-1
  6
Continuous
 62
     2
370
     9
100
AcDbLine
 10
-584.8265561385965
 20
-10.33630402093699
 30
0.0
 11
-572.826797569167
 21
-17.26493954820505
 31
0.0
  0
LINE
  5
212
330
1F
100
AcDbEntity
  8
E-1
  6
Continuous
 62
     2
370
     9
100
AcDbLine
 10
-572.826797569167
 20
-17.26493954820505
 30
0.0
 11
-572.826797569167
 21
-31.12121966516661
 31
0.0
  0
LINE
  5
213
330
1F
100
AcDbEntity
  8
E-1
  6
Continuous
 62
     2
370
     9
100
AcDbLine
 10
-572.826797569167
 20
-31.12121966516661
 30
0.0
 11
-584.8265561385965
 21
-38.04985519243466
 31
0.0
  0
LINE
  5
214
330
1F
100
AcDbEntity
  8
E-1
  6
Continuous
 62
     2
370
     9
100
AcDbLine
 10
-584.8265561385965
 20
-38.04985519243466
 30
0.0
 11
-596.8268101768148
 21
-31.12121966516661
 31
0.0
  0
LINE
  5
215
330
1F
100
AcDbEntity
  8
E-1
  6
JWW_CENTER1
 62
     2
370
     9
100
AcDbLine
 10
-557.1900503635873
 20
-24.19357507547367
 30
0.0
 11
-614.9633096480004
 21
-24.19357507547367
 31
0.0
  0
CIRCLE
  5
216
330
1F
100
AcDbEntity
  8
E-1
  6
Continuous
 62
     2
370
     9
100
AcDbCircle
 10
-584.8265561385965
 20
-24.19357507547367
 30
0.0
 40
12.00000630382405
  0
CIRCLE
  5
217
330
1F
100
AcDbEntity
  8
E-1
  6
Continuous
 62
     2
370
     9
100
AcDbCircle
 10
-584.8265561385965
 20
-24.19357507547367
 30
0.0
 40
8.000000170414053
  0
CIRCLE
  5
218
330
1F
100
AcDbEntity
  8
E-1
  6
Continuous
 62
     2
370
     9
100
AcDbCircle
 10
-584.8265561385965
 20
-24.19357507547367
 30
0.0
 40
19.00000288449659
  0
CIRCLE
  5
219
330
1F
100
AcDbEntity
  8
E-1
  6
Continuous
 62
     2
370
     9
100
AcDbCircle
 10
-269.8265866561748
 20
368.8072280434938
 30
0.0
 40
19.00000288449659
  0
CIRCLE
  5
21A
330
1F
100
AcDbEntity
  8
E-1
  6
Continuous
 62
     2
370
     9
100
AcDbCircle
 10
-269.8265866561748
 20
368.8072280434938
 30
0.0
 40
8.000000170414053
  0
CIRCLE
  5
21B
330
1F
100
AcDbEntity
  8
E-1
  6
Continuous
 62
     2
370
     9
100
AcDbCircle
 10
-269.8265866561748
 20
368.8072280434938
 30
0.0
 40
12.00000630382405
  0
LINE
  5
21C
330
1F
100
AcDbEntity
  8
E-1
  6
JWW_CENTER1
 62
     2
370
     9
100
AcDbLine
 10
-297.4630924311849
 20
368.8072280434938
 30
0.0
 11
-242.1898331467715
 21
368.8072280434938
 31
0.0
  0
LINE
  5
21D
330
1F
100
AcDbEntity
  8
E-1
  6
Continuous
 62
     2
370
     9
100
AcDbLine
 10
-269.8265866561748
 20
382.6635081604548
 30
0.0
 11
-257.8263326179571
 21
375.7348726331867
 31
0.0
  0
LINE
  5
21E
330
1F
100
AcDbEntity
  8
E-1
  6
Continuous
 62
     2
370
     9
100
AcDbLine
 10
-281.8263452256049
 20
375.7348726331867
 30
0.0
 11
-269.8265866561748
 21
382.6635081604548
 31
0.0
  0
LINE
  5
21F
330
1F
100
AcDbEntity
  8
E-1
  6
Continuous
 62
     2
370
     9
100
AcDbLine
 10
-281.8263452256049
 20
361.8785925162252
 30
0.0
 11
-281.8263452256049
 21
375.7348726331867
 31
0.0
  0
LINE
  5
220
330
1F
100
AcDbEntity
  8
E-1
  6
Continuous
 62
     2
370
     9
100
AcDbLine
 10
-269.8265866561748
 20
354.9499569889568
 30
0.0
 11
-281.8263452256049
 21
361.8785925162252
 31
0.0
  0
LINE
  5
221
330
1F
100
AcDbEntity
  8
E-1
  6
Continuous
 62
     2
370
     9
100
AcDbLine
 10
-257.8263326179571
 20
361.8785925162252
 30
0.0
 11
-269.8265866561748
 21
354.9499569889568
 31
0.0
  0
LINE
  5
222
330
1F
100
AcDbEntity
  8
E-1
  6
Continuous
 62
     2
370
     9
100
AcDbLine
 10
-257.8263326179571
 20
375.7348726331867
 30
0.0
 11
-257.8263326179571
 21
361.8785925162252
 31
0.0
  0
CIRCLE
  5
223
330
1F
100
AcDbEntity
  8
E-1
  6
Continuous
 62
     2
370
     9
100
AcDbCircle
 10
-584.8265561385967
 20
368.8072280434938
 30
0.0
 40
19.00000288449659
  0
CIRCLE
  5
224
330
1F
100
AcDbEntity
  8
E-1
  6
Continuous
 62
     2
370
     9
100
AcDbCircle
 10
-584.8265561385967
 20
368.8072280434938
 30
0.0
 40
8.000000170414053
  0
CIRCLE
  5
225
330
1F
100
AcDbEntity
  8
E-1
  6
Continuous
 62
     2
370
     9
100
AcDbCircle
 10
-584.8265561385967
 20
368.8072280434938
 30
0.0
 40
12.00000630382405
  0
LINE
  5
226
330
1F
100
AcDbEntity
  8
E-1
  6
JWW_CENTER1
 62
     2
370
     9
100
AcDbLine
 10
-612.4630619136066
 20
368.8072280434938
 30
0.0
 11
-557.1898026291934
 21
368.8072280434938
 31
0.0
  0
LINE
  5
227
330
1F
100
AcDbEntity
  8
E-1
  6
Continuous
 62
     2
370
     9
100
AcDbLine
 10
-584.8265561385967
 20
382.6635081604548
 30
0.0
 11
-572.826302100379
 21
375.7348726331867
 31
0.0
  0
LINE
  5
228
330
1F
100
AcDbEntity
  8
E-1
  6
Continuous
 62
     2
370
     9
100
AcDbLine
 10
-596.8263147080269
 20
375.7348726331867
 30
0.0
 11
-584.8265561385967
 21
382.6635081604548
 31
0.0
  0
LINE
  5
229
330
1F
100
AcDbEntity
  8
E-1
  6
Continuous
 62
     2
370
     9
100
AcDbLine
 10
-596.8263147080269
 20
361.8785925162252
 30
0.0
 11
-596.8263147080269
 21
375.7348726331867
 31
0.0
  0
LINE
  5
22A
330
1F
100
AcDbEntity
  8
E-1
  6
Continuous
 62
     2
370
     9
100
AcDbLine
 10
-584.8265561385967
 20
354.9499569889568
 30
0.0
 11
-596.8263147080269
 21
361.8785925162252
 31
0.0
  0
LINE
  5
22B
330
1F
100
AcDbEntity
  8
E-1
  6
Continuous
 62
     2
370
     9
100
AcDbLine
 10
-572.826302100379
 20
361.8785925162252
 30
0.0
 11
-584.8265561385967
 21
354.9499569889568
 31
0.0
  0
LINE
  5
22C
330
1F
100
AcDbEntity
  8
E-1
  6
Continuous
 62
     2
370
     9
100
AcDbLine
 10
-572.826302100379
 20
375.7348726331867
 30
0.0
 11
-572.826302100379
 21
361.8785925162252
 31
0.0
  0
LINE
  5
22D
330
1F
100
AcDbEntity
  8
E-1
  6
JWW_CENTER1
 62
     2
370
     9
100
AcDbLine
 10
-584.8265561385967
 20
396.4439815528971
 30
0.0
 11
-584.8265561385967
 21
341.1704745340896
 31
0.0
  0
LINE
  5
22E
330
1F
100
AcDbEntity
  8
E-2
  6
Continuous
 62
     3
370
     9
100
AcDbLine
 10
-612.3267697616434
 20
332.8066545722475
 30
0.0
 11
-557.3265027328348
 21
332.8066545722475
 31
0.0
  0
LINE
  5
22F
330
1F
100
AcDbEntity
  8
E-2
  6
Continuous
 62
     3
370
     9
100
AcDbLine
 10
-612.3267697616434
 20
337.3066545722475
 30
0.0
 11
-557.3265027328348
 21
337.3066545722475
 31
0.0
  0
LINE
  5
230
330
1F
100
AcDbEntity
  8
E-2
  6
Continuous
 62
     3
370
     9
100
AcDbLine
 10
-297.3264951034405
 20
332.8066545722475
 30
0.0
 11
-242.3262204452372
 21
332.8066545722475
 31
0.0
  0
LINE
  5
231
330
1F
100
AcDbEntity
  8
E-2
  6
Continuous
 62
     3
370
     9
100
AcDbLine
 10
-297.3264951034405
 20
337.3066545722475
 30
0.0
 11
-242.3262204452372
 21
337.3066545722475
 31
0.0
  0
LINE
  5
232
330
1F
100
AcDbEntity
  8
E-2
  6
Continuous
 62
     3
370
     9
100
AcDbLine
 10
-567.3267569772527
 20
325.3064830139706
 30
0.0
 11
-567.3267569772527
 21
332.8066545722475
 31
0.0
  0
LINE
  5
233
330
1F
100
AcDbEntity
  8
E-2
  6
Continuous
 62
     3
370
     9
100
AcDbLine
 10
-602.3264951034402
 20
325.3064830139706
 30
0.0
 11
-602.3264951034402
 21
332.8066545722475
 31
0.0
  0
LINE
  5
234
330
1F
100
AcDbEntity
  8
E-2
  6
Continuous
 62
     3
370
     9
100
AcDbLine
 10
-597.3267569772527
 20
325.3064830139706
 30
0.0
 11
-597.3267569772527
 21
332.8066545722475
 31
0.0
  0
LINE
  5
235
330
1F
100
AcDbEntity
  8
E-2
  6
Continuous
 62
     3
370
     9
100
AcDbLine
 10
-587.3264951034402
 20
325.3064830139706
 30
0.0
 11
-587.3264951034402
 21
332.8066545722475
 31
0.0
  0
LINE
  5
236
330
1F
100
AcDbEntity
  8
E-2
  6
Continuous
 62
     3
370
     9
100
AcDbLine
 10
-582.3267569772527
 20
325.3064830139706
 30
0.0
 11
-582.3267569772527
 21
332.8066545722475
 31
0.0
  0
LINE
  5
237
330
1F
100
AcDbEntity
  8
E-2
  6
Continuous
 62
     3
370
     9
100
AcDbLine
 10
-572.3264951034402
 20
325.3064830139706
 30
0.0
 11
-572.3264951034402
 21
332.8066545722475
 31
0.0
  0
LINE
  5
238
330
1F
100
AcDbEntity
  8
E-2
  6
Continuous
 62
     3
370
     9
100
AcDbLine
 10
-287.3264951034402
 20
325.3064830139706
 30
0.0
 11
-287.3264951034402
 21
332.8066545722475
 31
0.0
  0
LINE
  5
239
330
1F
100
AcDbEntity
  8
E-2
  6
Continuous
 62
     3
370
     9
100
AcDbLine
 10
-252.3267569772527
 20
325.3064830139706
 30
0.0
 11
-252.3267569772527
 21
332.8066545722475
 31
0.0
  0
LINE
  5
23A
330
1F
100
AcDbEntity
  8
E-2
  6
Continuous
 62
     3
370
     9
100
AcDbLine
 10
-282.3267569772527
 20
325.3064830139706
 30
0.0
 11
-282.3267569772527
 21
332.8066545722475
 31
0.0
  0
LINE
  5
23B
330
1F
100
AcDbEntity
  8
E-2
  6
Continuous
 62
     3
370
     9
100
AcDbLine
 10
-272.3264951034402
 20
325.3064830139706
 30
0.0
 11
-272.3264951034402
 21
332.8066545722475
 31
0.0
  0
LINE
  5
23C
330
1F
100
AcDbEntity
  8
E-2
  6
Continuous
 62
     3
370
     9
100
AcDbLine
 10
-267.3267569772527
 20
325.3064830139706
 30
0.0
 11
-267.3267569772527
 21
332.8066545722475
 31
0.0
  0
LINE
  5
23D
330
1F
100
AcDbEntity
  8
E-2
  6
Continuous
 62
     3
370
     9
100
AcDbLine
 10
-257.3264951034402
 20
325.3064830139706
 30
0.0
 11
-257.3264951034402
 21
332.8066545722475
 31
0.0
  0
LINE
  5
23E
330
1F
100
AcDbEntity
  8
E-4
  6
Continuous
 62
     7
370
     9
100
AcDbLine
 10
-539.7964863234507
 20
427.3068228313269
 30
0.0
 11
-524.8567657572423
 21
427.3068228313269
 31
0.0
  0
LWPOLYLINE
  5
23F
330
1F
100
AcDbEntity
  8
E-4
  6
Continuous
 62
     7
370
     9
100
AcDbPolyline
 90
        4
 70
     1
 43
1.0
 10
-539.2964863234507
 20
427.3068228313269
 42
0.4142135623731
 10
-539.7964863234507
 20
427.8068228313269
 42
0.4142135623731
 10
-540.2964863234506
 20
427.3068228313269
 42
0.4142135623731
 10
-539.7964863234507
 20
426.8068228313269
 42
0.4142135623731
  0
LWPOLYLINE
  5
240
330
1F
100
AcDbEntity
  8
E-4
  6
Continuous
 62
     7
370
     9
100
AcDbPolyline
 90
        4
 70
     1
 43
1.0
 10
-524.3567657572423
 20
427.3068228313269
 42
0.4142135623731
 10
-524.8567657572423
 20
427.8068228313269
 42
0.4142135623731
 10
-525.3567657572423
 20
427.3068228313269
 42
0.4142135623731
 10
-524.8567657572423
 20
426.8068228313269
 42
0.4142135623731
  0
TEXT
  5
241
330
1F
100
AcDbEntity
  8
E-4
  6
Continuous
 62
     2
370
   211
100
AcDbText
 10
-542.9516260403464
 20
433.1268228313269
 30
0.0
 40
15.24
  1
15
 41
1.0625
  7
ＭＳ ゴシック
100
AcDbText
  0
LINE
  5
242
330
1F
100
AcDbEntity
  8
E-4
  6
Continuous
 62
     7
370
     9
100
AcDbLine
 10
-539.7964863234507
 20
428.8068228313269
 30
0.0
 11
-539.7964863234507
 21
377.3068228313269
 31
0.0
  0
LINE
  5
243
330
1F
100
AcDbEntity
  8
E-4
  6
Continuous
 62
     7
370
     9
100
AcDbLine
 10
-524.8567657572423
 20
428.8068228313269
 30
0.0
 11
-524.8567657572423
 21
377.3068228313269
 31
0.0
  0
LINE
  5
244
330
1F
100
AcDbEntity
  8
E-5
  6
Continuous
 62
     7
370
     9
100
AcDbLine
 10
-352.1765897832103
 20
325.3064830139705
 30
0.0
 11
-348.1903342405581
 21
334.9302837556302
 31
0.0
  0
LINE
  5
245
330
1F
100
AcDbEntity
  8
E-5
  6
Continuous
 62
     7
370
     9
100
AcDbLine
 10
-352.1765897832103
 20
325.3064830139705
 30
0.0
 11
-350.8170316777415
 21
335.6340026112045
 31
0.0
  0
LINE
  5
246
330
1F
100
AcDbEntity
  8
E-5
  6
Continuous
 62
     7
370
     9
100
AcDbLine
 10
-590.745887601737
 20
379.245698540712
 30
0.0
 11
-598.355405464346
 21
389.1626152943525
 31
0.0
  0
LINE
  5
247
330
1F
100
AcDbEntity
  8
E-5
  6
Continuous
 62
     7
370
     9
100
AcDbLine
 10
-590.745887601737
 20
379.245698540712
 30
0.0
 11
-595.5294305063006
 21
390.7941926971031
 31
0.0
  0
LINE
  5
248
330
1F
100
AcDbEntity
  8
E-4
  6
Continuous
 62
     7
370
     9
100
AcDbLine
 10
-722.3265054134328
 20
407.3068228313269
 30
0.0
 11
-722.3265054134328
 21
368.8072280434938
 31
0.0
  0
LWPOLYLINE
  5
249
330
1F
100
AcDbEntity
  8
E-4
  6
Continuous
 62
     7
370
     9
100
AcDbPolyline
 90
        4
 70
     1
 43
1.0
 10
-721.8265054134328
 20
407.3068228313269
 42
0.4142135623731
 10
-722.3265054134328
 20
407.8068228313269
 42
0.4142135623731
 10
-722.8265054134328
 20
407.3068228313269
 42
0.4142135623731
 10
-722.3265054134328
 20
406.8068228313269
 42
0.4142135623731
  0
LWPOLYLINE
  5
24A
330
1F
100
AcDbEntity
  8
E-4
  6
Continuous
 62
     7
370
     9
100
AcDbPolyline
 90
        4
 70
     1
 43
1.0
 10
-721.8265054134328
 20
368.8072280434938
 42
0.4142135623731
 10
-722.3265054134328
 20
369.3072280434938
 42
0.4142135623731
 10
-722.8265054134328
 20
368.8072280434938
 42
0.4142135623731
 10
-722.3265054134328
 20
368.3072280434939
 42
0.4142135623731
  0
LINE
  5
24B
330
1F
100
AcDbEntity
  8
E-4
  6
Continuous
 62
     7
370
     9
100
AcDbLine
 10
-723.8265054134329
 20
407.3068228313269
 30
0.0
 11
-672.3265054134328
 21
407.3068228313269
 31
0.0
  0
TEXT
  5
24C
330
1F
100
AcDbEntity
  8
E-4
  6
Continuous
 62
     2
370
   211
100
AcDbText
 10
-728.1465054134328
 20
366.1820254374103
 30
0.0
 40
15.24
  1
38.5
 50
90.0
 41
1.09375
  7
ＭＳ ゴシック
100
AcDbText
  0
LINE
  5
24D
330
1F
100
AcDbEntity
  8
E-4
  6
Continuous
 62
     7
370
     9
100
AcDbLine
 10
-722.3265054134328
 20
368.8072280434938
 30
0.0
 11
-722.3265054134328
 21
-24.19357507547367
 31
0.0
  0
LWPOLYLINE
  5
24E
330
1F
100
AcDbEntity
  8
E-4
  6
Continuous
 62
     7
370
     9
100
AcDbPolyline
 90
        4
 70
     1
 43
1.0
 10
-721.8265054134328
 20
-24.19357507547367
 42
0.4142135623731
 10
-722.3265054134328
 20
-23.69357507547367
 42
0.4142135623731
 10
-722.8265054134328
 20
-24.19357507547367
 42
0.4142135623731
 10
-722.3265054134328
 20
-24.69357507547367
 42
0.4142135623731
  0
TEXT
  5
24F
330
1F
100
AcDbEntity
  8
E-4
  6
Continuous
 62
     2
370
   211
100
AcDbText
 10
-728.1465054134328
 20
156.0568264840101
 30
0.0
 40
15.24
  1
393
 50
90.0
 41
1.083333333333333
  7
ＭＳ ゴシック
100
AcDbText
  0
LINE
  5
250
330
1F
100
AcDbEntity
  8
E-4
  6
Continuous
 62
     7
370
     9
100
AcDbLine
 10
-722.3265054134328
 20
-24.19357507547367
 30
0.0
 11
-722.3265054134328
 21
-62.6928884888801
 31
0.0
  0
LWPOLYLINE
  5
251
330
1F
100
AcDbEntity
  8
E-4
  6
Continuous
 62
     7
370
     9
100
AcDbPolyline
 90
        4
 70
     1
 43
1.0
 10
-721.8265054134328
 20
-62.6928884888801
 42
0.4142135623731
 10
-722.3265054134328
 20
-62.1928884888801
 42
0.4142135623731
 10
-722.8265054134328
 20
-62.6928884888801
 42
0.4142135623731
 10
-722.3265054134328
 20
-63.1928884888801
 42
0.4142135623731
  0
LINE
  5
252
330
1F
100
AcDbEntity
  8
E-4
  6
Continuous
 62
     7
370
     9
100
AcDbLine
 10
-723.8265054134329
 20
-62.6928884888801
 30
0.0
 11
-672.3265054134328
 21
-62.69288848888011
 31
0.0
  0
TEXT
  5
253
330
1F
100
AcDbEntity
  8
E-4
  6
Continuous
 62
     2
370
   211
100
AcDbText
 10
-728.1465054134328
 20
-65.3182317821769
 30
0.0
 40
15.24
  1
38.5
 50
90.0
 41
1.09375
  7
ＭＳ ゴシック
100
AcDbText
  0
LINE
  5
254
330
1F
100
AcDbEntity
  8
E-1
  6
Continuous
 62
     2
370
     9
100
AcDbLine
 10
391.3084752658671
 20
387.8065358397953
 30
0.0
 11
391.3084752658671
 21
349.8066579101078
 31
0.0
  0
LINE
  5
255
330
1F
100
AcDbEntity
  8
E-1
  6
Continuous
 62
     2
370
     9
100
AcDbLine
 10
393.608539352781
 20
387.8065358397953
 30
0.0
 11
391.3084752658671
 21
387.8065358397953
 31
0.0
  0
LINE
  5
256
330
1F
100
AcDbEntity
  8
E-1
  6
Continuous
 62
     2
370
     9
100
AcDbLine
 10
391.3084752658671
 20
382.3066350219241
 30
0.0
 11
380.3473165134255
 21
382.3066350219241
 31
0.0
  0
LINE
  5
257
330
1F
100
AcDbEntity
  8
E-1
  6
Continuous
 62
     2
370
     9
100
AcDbLine
 10
379.3086164096658
 20
379.5567837951174
 30
0.0
 11
379.3086164096658
 21
358.0566083190433
 31
0.0
  0
LINE
  5
258
330
1F
100
AcDbEntity
  8
E-1
  6
Continuous
 62
     2
370
     9
100
AcDbLine
 10
391.3084752658671
 20
355.3065587279787
 30
0.0
 11
380.3473165134255
 21
355.3065587279787
 31
0.0
  0
LINE
  5
259
330
1F
100
AcDbEntity
  8
E-1
  6
Continuous
 62
     2
370
     9
100
AcDbLine
 10
379.1084478000468
 20
379.806499600171
 30
0.0
 11
379.3086164096658
 21
379.806499600171
 31
0.0
  0
LINE
  5
25A
330
1F
100
AcDbEntity
  8
E-1
  6
Continuous
 62
     2
370
     9
100
AcDbLine
 10
379.1084478000468
 20
357.8066960570803
 30
0.0
 11
379.3086164096658
 21
357.8066960570803
 31
0.0
  0
LINE
  5
25B
330
1F
100
AcDbEntity
  8
E-1
  6
Continuous
 62
     2
370
     9
100
AcDbLine
 10
377.3085076907938
 20
359.6066342589847
 30
0.0
 11
377.3085076907938
 21
378.006757855176
 31
0.0
  0
LINE
  5
25C
330
1F
100
AcDbEntity
  8
E-1
  6
Continuous
 62
     2
370
     9
100
AcDbLine
 10
373.8087155917947
 20
360.306432842969
 30
0.0
 11
377.3085076907938
 21
360.306432842969
 31
0.0
  0
LINE
  5
25D
330
1F
100
AcDbEntity
  8
E-1
  6
Continuous
 62
     2
370
     9
100
AcDbLine
 10
373.7986066440408
 20
377.3067609069338
 30
0.0
 11
377.3085076907938
 21
377.3067609069338
 31
0.0
  0
LINE
  5
25E
330
1F
100
AcDbEntity
  8
E-1
  6
Continuous
 62
     2
370
     9
100
AcDbLine
 10
391.3084752658671
 20
376.8067322967045
 30
0.0
 11
380.3471200565164
 21
376.8067322967045
 31
0.0
  0
LINE
  5
25F
330
1F
100
AcDbEntity
  8
E-1
  6
Continuous
 62
     2
370
     9
100
AcDbLine
 10
391.3084752658671
 20
360.8066579101077
 30
0.0
 11
380.3471200565164
 21
360.8066579101077
 31
0.0
  0
LINE
  5
260
330
1F
100
AcDbEntity
  8
E-1
  6
Continuous
 62
     2
370
     9
100
AcDbLine
 10
393.608539352781
 20
349.8066579101078
 30
0.0
 11
391.3084752658671
 21
349.8066579101078
 31
0.0
  0
ARC
  5
261
330
1F
100
AcDbEntity
  8
E-1
  6
Continuous
 62
     2
370
     9
100
AcDbCircle
 10
403.3087270358865
 20
368.8066960570802
 30
0.0
 40
24.0
100
AcDbArc
 50
160.52880859375
 51
199.47119140625
  0
ARC
  5
262
330
1F
100
AcDbEntity
  8
E-1
  6
Continuous
 62
     2
370
     9
100
AcDbCircle
 10
383.4685723880594
 20
379.5567837951174
 30
0.0
 40
4.159999847412109
100
AcDbArc
 50
138.6183471679688
 51
221.3798828125
  0
ARC
  5
263
330
1F
100
AcDbEntity
  8
E-1
  6
Continuous
 62
     2
370
     9
100
AcDbCircle
 10
383.4685723880594
 20
358.0566083190433
 30
0.0
 40
4.159999847412109
100
AcDbArc
 50
138.6201171875
 51
221.3816528320312
  0
ARC
  5
264
330
1F
100
AcDbEntity
  8
E-1
  6
Continuous
 62
     2
370
     9
100
AcDbCircle
 10
379.1084478000468
 20
378.006757855176
 30
0.0
 40
1.799999594688416
100
AcDbArc
 50
90.0
 51
180.0
  0
ARC
  5
265
330
1F
100
AcDbEntity
  8
E-1
  6
Continuous
 62
     2
370
     9
100
AcDbCircle
 10
379.1084478000468
 20
359.6066342589847
 30
0.0
 40
1.799999594688416
100
AcDbArc
 50
180.0
 51
270.0
  0
ARC
  5
266
330
1F
100
AcDbEntity
  8
E-1
  6
Continuous
 62
     2
370
     9
100
AcDbCircle
 10
373.8087155917947
 20
368.8066960570802
 30
0.0
 40
8.5
100
AcDbArc
 50
180.0
 51
270.0
  0
ARC
  5
267
330
1F
100
AcDbEntity
  8
E-1
  6
Continuous
 62
     2
370
     9
100
AcDbCircle
 10
373.7986066440408
 20
368.8166066405765
 30
0.0
 40
8.489999771118164
100
AcDbArc
 50
90.0
 51
180.0
  0
LINE
  5
268
330
1F
100
AcDbEntity
  8
E-2
  6
Continuous
 62
     3
370
     9
100
AcDbLine
 10
385.6084624144611
 20
392.8067139578048
 30
0.0
 11
385.6084624144611
 21
382.3066350219241
 31
0.0
  0
LINE
  5
269
330
1F
100
AcDbEntity
  8
E-2
  6
Continuous
 62
     3
370
     9
100
AcDbLine
 10
386.6086141775526
 20
392.8067139578048
 30
0.0
 11
386.6086141775526
 21
382.3066350219241
 31
0.0
  0
LINE
  5
26A
330
1F
100
AcDbEntity
  8
E-5
  6
Continuous
 62
     7
370
     9
100
AcDbLine
 10
354.1085295776196
 20
407.3066016433231
 30
0.0
 11
322.029884439279
 21
462.8684467525926
 31
0.0
  0
LINE
  5
26B
330
1F
100
AcDbEntity
  8
E-5
  6
Continuous
 62
     7
370
     9
100
AcDbLine
 10
186.521020320033
 20
462.8684467525926
 30
0.0
 11
322.029884439279
 21
462.8684467525926
 31
0.0
  0
TEXT
  5
26C
330
1F
100
AcDbEntity
  8
E-5
  6
Continuous
 62
     7
370
     9
100
AcDbText
 10
185.525452379656
 20
443.1114985104051
 30
0.0
 40
11.43
  1
（四方受四方枠）
 41
1.145833333333333
  7
ＭＳ ゴシック
100
AcDbText
  0
LINE
  5
26D
330
1F
100
AcDbEntity
  8
E-5
  6
Continuous
 62
     7
370
     9
100
AcDbLine
 10
354.1085295776196
 20
407.3066016433231
 30
0.0
 11
347.7671418031264
 21
415.5705968396913
 31
0.0
  0
LINE
  5
26E
330
1F
100
AcDbEntity
  8
E-5
  6
Continuous
 62
     7
370
     9
100
AcDbLine
 10
354.1085295776196
 20
407.3066016433231
 30
0.0
 11
350.1222740349675
 21
416.9302786650713
 31
0.0
  0
LINE
  5
26F
330
1F
100
AcDbEntity
  8
E-2
  6
Continuous
 62
     3
370
     9
100
AcDbLine
 10
398.1085355380839
 20
346.8064938781253
 30
0.0
 11
393.6084897617167
 21
346.8064938781253
 31
0.0
  0
LINE
  5
270
330
1F
100
AcDbEntity
  8
E-2
  6
Continuous
 62
     3
370
     9
100
AcDbLine
 10
398.1085355380839
 20
390.8066989181032
 30
0.0
 11
393.6085889438456
 21
390.8066989181032
 31
0.0
  0
LINE
  5
271
330
1F
100
AcDbEntity
  8
E-2
  6
Continuous
 62
     3
370
     9
100
AcDbLine
 10
398.1085355380839
 20
346.8064938781253
 30
0.0
 11
398.1085355380839
 21
390.8065005538455
 31
0.0
  0
LINE
  5
272
330
1F
100
AcDbEntity
  8
E-2
  6
Continuous
 62
     3
370
     9
100
AcDbLine
 10
398.1085355380839
 20
-46.19251713583367
 30
0.0
 11
393.6085889438456
 21
-46.19251713583367
 31
0.0
  0
LINE
  5
273
330
1F
100
AcDbEntity
  8
E-2
  6
Continuous
 62
     3
370
     9
100
AcDbLine
 10
398.1085355380839
 20
-2.192312095855726
 30
0.0
 11
393.6084897617167
 21
-2.192312095855726
 31
0.0
  0
LINE
  5
274
330
1F
100
AcDbEntity
  8
E-2
  6
Continuous
 62
     3
370
     9
100
AcDbLine
 10
398.1085355380839
 20
-2.192312095855726
 30
0.0
 11
398.1085355380839
 21
-46.19231877157603
 31
0.0
  0
LINE
  5
275
330
1F
100
AcDbEntity
  8
E-4
  6
Continuous
 62
     7
370
     9
100
AcDbLine
 10
355.6086108783549
 20
-122.6928884888801
 30
0.0
 11
393.6084393200778
 21
-122.6928884888801
 31
0.0
  0
LWPOLYLINE
  5
276
330
1F
100
AcDbEntity
  8
E-4
  6
Continuous
 62
     7
370
     9
100
AcDbPolyline
 90
        4
 70
     1
 43
1.0
 10
356.1086108783549
 20
-122.6928884888801
 42
0.4142135623731
 10
355.6086108783549
 20
-122.1928884888801
 42
0.4142135623731
 10
355.108610878355
 20
-122.6928884888801
 42
0.4142135623731
 10
355.6086108783549
 20
-123.1928884888801
 42
0.4142135623731
  0
LWPOLYLINE
  5
277
330
1F
100
AcDbEntity
  8
E-4
  6
Continuous
 62
     7
370
     9
100
AcDbPolyline
 90
        4
 70
     1
 43
1.0
 10
394.1084393200778
 20
-122.6928884888801
 42
0.4142135623731
 10
393.6084393200778
 20
-122.1928884888801
 42
0.4142135623731
 10
393.1084393200779
 20
-122.6928884888801
 42
0.4142135623731
 10
393.6084393200778
 20
-123.1928884888801
 42
0.4142135623731
  0
LINE
  5
278
330
1F
100
AcDbEntity
  8
E-4
  6
Continuous
 62
     7
370
     9
100
AcDbLine
 10
355.6086108783549
 20
-124.1928884888801
 30
0.0
 11
355.6086108783549
 21
-62.6933619237407
 31
0.0
  0
TEXT
  5
279
330
1F
100
AcDbEntity
  8
E-4
  6
Continuous
 62
     2
370
   211
100
AcDbText
 10
363.9835250992164
 20
-116.8728884888801
 30
0.0
 40
15.24
  1
38
 41
1.0625
  7
ＭＳ ゴシック
100
AcDbText
  0
LINE
  5
27A
330
1F
100
AcDbEntity
  8
E-4
  6
Continuous
 62
     7
370
     9
100
AcDbLine
 10
-662.3265054134328
 20
467.3068228313269
 30
0.0
 11
-584.8265561385967
 21
467.3068228313269
 31
0.0
  0
LWPOLYLINE
  5
27B
330
1F
100
AcDbEntity
  8
E-4
  6
Continuous
 62
     7
370
     9
100
AcDbPolyline
 90
        4
 70
     1
 43
1.0
 10
-661.8265054134328
 20
467.3068228313269
 42
0.4142135623731
 10
-662.3265054134328
 20
467.8068228313269
 42
0.4142135623731
 10
-662.8265054134328
 20
467.3068228313269
 42
0.4142135623731
 10
-662.3265054134328
 20
466.8068228313269
 42
0.4142135623731
  0
LWPOLYLINE
  5
27C
330
1F
100
AcDbEntity
  8
E-4
  6
Continuous
 62
     7
370
     9
100
AcDbPolyline
 90
        4
 70
     1
 43
1.0
 10
-584.3265561385967
 20
467.3068228313269
 42
0.4142135623731
 10
-584.8265561385967
 20
467.8068228313269
 42
0.4142135623731
 10
-585.3265561385967
 20
467.3068228313269
 42
0.4142135623731
 10
-584.8265561385967
 20
466.8068228313269
 42
0.4142135623731
  0
LINE
  5
27D
330
1F
100
AcDbEntity
  8
E-4
  6
Continuous
 62
     7
370
     9
100
AcDbLine
 10
-584.8265561385967
 20
467.3068228313269
 30
0.0
 11
-269.8265866561748
 21
467.3068228313269
 31
0.0
  0
LWPOLYLINE
  5
27E
330
1F
100
AcDbEntity
  8
E-4
  6
Continuous
 62
     7
370
     9
100
AcDbPolyline
 90
        4
 70
     1
 43
1.0
 10
-269.3265866561748
 20
467.3068228313269
 42
0.4142135623731
 10
-269.8265866561748
 20
467.8068228313269
 42
0.4142135623731
 10
-270.3265866561748
 20
467.3068228313269
 42
0.4142135623731
 10
-269.8265866561748
 20
466.8068228313269
 42
0.4142135623731
  0
LINE
  5
27F
330
1F
100
AcDbEntity
  8
E-4
  6
Continuous
 62
     7
370
     9
100
AcDbLine
 10
-269.8265866561748
 20
467.3068228313269
 30
0.0
 11
-192.3265466534032
 21
467.3068228313269
 31
0.0
  0
LWPOLYLINE
  5
280
330
1F
100
AcDbEntity
  8
E-4
  6
Continuous
 62
     7
370
     9
100
AcDbPolyline
 90
        4
 70
     1
 43
1.0
 10
-191.8265466534032
 20
467.3068228313269
 42
0.4142135623731
 10
-192.3265466534032
 20
467.8068228313269
 42
0.4142135623731
 10
-192.8265466534032
 20
467.3068228313269
 42
0.4142135623731
 10
-192.3265466534032
 20
466.8068228313269
 42
0.4142135623731
  0
TEXT
  5
281
330
1F
100
AcDbEntity
  8
E-4
  6
Continuous
 62
     2
370
   211
100
AcDbText
 10
-252.951566654789
 20
473.1268228313269
 30
0.0
 40
15.24
  1
77.5
 41
1.09375
  7
ＭＳ ゴシック
100
AcDbText
  0
LINE
  5
282
330
1F
100
AcDbEntity
  8
E-4
  6
Continuous
 62
     7
370
     9
100
AcDbLine
 10
-584.8265561385967
 20
468.8068228313269
 30
0.0
 11
-584.8265561385967
 21
417.3068228313269
 31
0.0
  0
LINE
  5
283
330
1F
100
AcDbEntity
  8
E-4
  6
Continuous
 62
     7
370
     9
100
AcDbLine
 10
-269.8265866561748
 20
468.8068228313269
 30
0.0
 11
-269.8265866561748
 21
417.3068228313269
 31
0.0
  0
LINE
  5
284
330
1F
100
AcDbEntity
  8
E-5
  6
Continuous
 62
     7
370
     9
100
AcDbLine
 10
-312.3269321574446
 20
351.152199335761
 30
0.0
 11
-308.3406147548371
 21
360.7758763575093
 31
0.0
  0
LINE
  5
285
330
1F
100
AcDbEntity
  8
E-5
  6
Continuous
 62
     7
370
     9
100
AcDbLine
 10
-312.3269321574446
 20
351.152199335761
 30
0.0
 11
-310.9673121920204
 21
361.479718932995
 31
0.0
  0
LINE
  5
286
330
1F
100
AcDbEntity
  8
E-5
  6
Continuous
 62
     7
370
     9
100
AcDbLine
 10
-367.3266260403465
 20
397.3066545722475
 30
0.0
 11
-363.3403704976944
 21
406.9303315939958
 31
0.0
  0
LINE
  5
287
330
1F
100
AcDbEntity
  8
E-5
  6
Continuous
 62
     7
370
     9
100
AcDbLine
 10
-367.3266260403465
 20
397.3066545722475
 30
0.0
 11
-365.9669442149662
 21
407.6341741694814
 31
0.0
  0
LINE
  5
288
330
1F
100
AcDbEntity
  8
E-2
  6
Continuous
 62
     3
370
     9
100
AcDbLine
 10
-207.3264951034402
 20
397.3066545722475
 30
0.0
 11
-207.3264951034402
 21
328.5763131817694
 31
0.0
  0
LINE
  5
289
330
1F
100
AcDbEntity
  8
E-2
  6
Continuous
 62
     3
370
     9
100
AcDbLine
 10
-207.3264951034402
 20
328.5763131817694
 30
0.0
 11
-207.3264951034402
 21
-52.69336192374062
 31
0.0
  0
LINE
  5
28A
330
1F
100
AcDbEntity
  8
E-2
  6
Continuous
 62
     3
370
     9
100
AcDbLine
 10
362.6084360208802
 20
392.8067139578048
 30
0.0
 11
362.6084360208802
 21
337.3066545722475
 31
0.0
  0
LINE
  5
28B
330
1F
100
AcDbEntity
  8
E-2
  6
Continuous
 62
     3
370
     9
100
AcDbLine
 10
363.6085877839713
 20
392.8067139578048
 30
0.0
 11
363.6085877839713
 21
337.3066545722475
 31
0.0
  0
LINE
  5
28C
330
1F
100
AcDbEntity
  8
E-2
  6
Continuous
 62
     3
370
     9
100
AcDbLine
 10
385.6084624144611
 20
355.3065587279787
 30
0.0
 11
385.6084624144611
 21
337.3066545722475
 31
0.0
  0
LINE
  5
28D
330
1F
100
AcDbEntity
  8
E-2
  6
Continuous
 62
     3
370
     9
100
AcDbLine
 10
386.6086141775526
 20
355.3065587279787
 30
0.0
 11
386.6086141775526
 21
337.3066545722475
 31
0.0
  0
LINE
  5
28E
330
1F
100
AcDbEntity
  8
E-2
  6
Continuous
 62
     3
370
     9
100
AcDbLine
 10
386.6086141775526
 20
-37.69245323965464
 30
0.0
 11
386.6086141775526
 21
-48.19342130929812
 31
0.0
  0
LINE
  5
28F
330
1F
100
AcDbEntity
  8
E-2
  6
Continuous
 62
     3
370
     9
100
AcDbLine
 10
385.6084624144611
 20
-37.69245323965464
 30
0.0
 11
385.6084624144611
 21
-48.19342130929812
 31
0.0
  0
LINE
  5
290
330
1F
100
AcDbEntity
  8
E-2
  6
Continuous
 62
     3
370
     9
100
AcDbLine
 10
-297.3264951034405
 20
11.80657869070198
 30
0.0
 11
-242.3262204452372
 21
11.80657869070198
 31
0.0
  0
LINE
  5
291
330
1F
100
AcDbEntity
  8
E-2
  6
Continuous
 62
     3
370
     9
100
AcDbLine
 10
-297.3264951034405
 20
7.306578690701953
 30
0.0
 11
-242.3262204452372
 21
7.306578690701953
 31
0.0
  0
LINE
  5
292
330
1F
100
AcDbEntity
  8
E-2
  6
Continuous
 62
     3
370
     9
100
AcDbLine
 10
-287.3264951034402
 20
11.80657869070198
 30
0.0
 11
-287.3264951034402
 21
19.30656219471366
 31
0.0
  0
LINE
  5
293
330
1F
100
AcDbEntity
  8
E-2
  6
Continuous
 62
     3
370
     9
100
AcDbLine
 10
-252.3267569772527
 20
11.80657869070198
 30
0.0
 11
-252.3267569772527
 21
19.30656219471366
 31
0.0
  0
LINE
  5
294
330
1F
100
AcDbEntity
  8
E-2
  6
Continuous
 62
     3
370
     9
100
AcDbLine
 10
-282.3267569772527
 20
11.80657869070198
 30
0.0
 11
-282.3267569772527
 21
19.30656219471366
 31
0.0
  0
LINE
  5
295
330
1F
100
AcDbEntity
  8
E-2
  6
Continuous
 62
     3
370
     9
100
AcDbLine
 10
-272.3264951034402
 20
11.80657869070198
 30
0.0
 11
-272.3264951034402
 21
19.30656219471366
 31
0.0
  0
LINE
  5
296
330
1F
100
AcDbEntity
  8
E-2
  6
Continuous
 62
     3
370
     9
100
AcDbLine
 10
-267.3267569772527
 20
11.80657869070198
 30
0.0
 11
-267.3267569772527
 21
19.30656219471366
 31
0.0
  0
LINE
  5
297
330
1F
100
AcDbEntity
  8
E-2
  6
Continuous
 62
     3
370
     9
100
AcDbLine
 10
-257.3264951034402
 20
11.80657869070198
 30
0.0
 11
-257.3264951034402
 21
19.30656219471366
 31
0.0
  0
LINE
  5
298
330
1F
100
AcDbEntity
  8
E-2
  6
Continuous
 62
     3
370
     9
100
AcDbLine
 10
-612.3267697616434
 20
11.80657869070198
 30
0.0
 11
-557.3265027328348
 21
11.80657869070198
 31
0.0
  0
LINE
  5
299
330
1F
100
AcDbEntity
  8
E-2
  6
Continuous
 62
     3
370
     9
100
AcDbLine
 10
-612.3267697616434
 20
7.306578690701953
 30
0.0
 11
-557.3265027328348
 21
7.306578690701953
 31
0.0
  0
LINE
  5
29A
330
1F
100
AcDbEntity
  8
E-2
  6
Continuous
 62
     3
370
     9
100
AcDbLine
 10
-567.3267569772527
 20
11.80657869070198
 30
0.0
 11
-567.3267569772527
 21
19.30656219471366
 31
0.0
  0
LINE
  5
29B
330
1F
100
AcDbEntity
  8
E-2
  6
Continuous
 62
     3
370
     9
100
AcDbLine
 10
-602.3264951034402
 20
11.80657869070198
 30
0.0
 11
-602.3264951034402
 21
19.30656219471366
 31
0.0
  0
LINE
  5
29C
330
1F
100
AcDbEntity
  8
E-2
  6
Continuous
 62
     3
370
     9
100
AcDbLine
 10
-597.3267569772527
 20
11.80657869070198
 30
0.0
 11
-597.3267569772527
 21
19.30656219471366
 31
0.0
  0
LINE
  5
29D
330
1F
100
AcDbEntity
  8
E-2
  6
Continuous
 62
     3
370
     9
100
AcDbLine
 10
-587.3264951034402
 20
11.80657869070198
 30
0.0
 11
-587.3264951034402
 21
19.30656219471366
 31
0.0
  0
LINE
  5
29E
330
1F
100
AcDbEntity
  8
E-2
  6
Continuous
 62
     3
370
     9
100
AcDbLine
 10
-582.3267569772527
 20
11.80657869070198
 30
0.0
 11
-582.3267569772527
 21
19.30656219471366
 31
0.0
  0
LINE
  5
29F
330
1F
100
AcDbEntity
  8
E-2
  6
Continuous
 62
     3
370
     9
100
AcDbLine
 10
-572.3264951034402
 20
11.80657869070198
 30
0.0
 11
-572.3264951034402
 21
19.30656219471366
 31
0.0
  0
LINE
  5
2A0
330
1F
100
AcDbEntity
  8
E-2
  6
Continuous
 62
     3
370
     9
100
AcDbLine
 10
362.6084360208802
 20
7.306578690701953
 30
0.0
 11
362.6084360208802
 21
-48.19342130929812
 31
0.0
  0
LINE
  5
2A1
330
1F
100
AcDbEntity
  8
E-2
  6
Continuous
 62
     3
370
     9
100
AcDbLine
 10
363.6085877839713
 20
7.306578690701953
 30
0.0
 11
363.6085877839713
 21
-48.19342130929812
 31
0.0
  0
LINE
  5
2A2
330
1F
100
AcDbEntity
  8
E-2
  6
Continuous
 62
     3
370
     9
100
AcDbLine
 10
362.6084360208802
 20
332.8066087958803
 30
0.0
 11
362.6084360208802
 21
11.80662446706914
 31
0.0
  0
LINE
  5
2A3
330
1F
100
AcDbEntity
  8
E-2
  6
Continuous
 62
     3
370
     9
100
AcDbLine
 10
386.6086141775526
 20
332.8066087958803
 30
0.0
 11
386.6086141775526
 21
11.80662446706914
 31
0.0
  0
LINE
  5
2A4
330
1F
100
AcDbEntity
  8
E-2
  6
Continuous
 62
     3
370
     9
100
AcDbLine
 10
363.6085877839713
 20
332.8066087958803
 30
0.0
 11
363.6085877839713
 21
11.80662446706914
 31
0.0
  0
LINE
  5
2A5
330
1F
100
AcDbEntity
  8
E-2
  6
Continuous
 62
     3
370
     9
100
AcDbLine
 10
385.6084624144611
 20
332.8066087958803
 30
0.0
 11
385.6084624144611
 21
11.80662446706914
 31
0.0
  0
LINE
  5
2A6
330
1F
100
AcDbEntity
  8
E-2
  6
Continuous
 62
     3
370
     9
100
AcDbLine
 10
386.6086141775526
 20
7.306578690701953
 30
0.0
 11
386.6086141775526
 21
-10.69237694570916
 31
0.0
  0
LINE
  5
2A7
330
1F
100
AcDbEntity
  8
E-2
  6
Continuous
 62
     3
370
     9
100
AcDbLine
 10
385.6084624144611
 20
7.306578690701953
 30
0.0
 11
385.6084624144611
 21
-10.69237694570916
 31
0.0
  0
LINE
  5
2A8
330
1F
100
AcDbEntity
  8
E-4
  6
Continuous
 62
     7
370
     9
100
AcDbLine
 10
-198.32646747266
 20
-164.1928884888801
 30
0.0
 11
-198.32646747266
 21
-72.6928884888801
 31
0.0
  0
LINE
  5
2A9
330
1F
100
AcDbEntity
  8
E-4
  6
Continuous
 62
     7
370
     9
100
AcDbLine
 10
-656.3264608742646
 20
-164.1928884888801
 30
0.0
 11
-656.3264608742646
 21
-72.6928884888801
 31
0.0
  0
LINE
  5
2AA
330
1F
100
AcDbEntity
  8
E-4
  6
Continuous
 62
     7
370
     9
100
AcDbLine
 10
-602.326431181486
 20
-124.1928884888801
 30
0.0
 11
-602.326431181486
 21
-72.6928884888801
 31
0.0
  0
LINE
  5
2AB
330
1F
100
AcDbEntity
  8
E-4
  6
Continuous
 62
     7
370
     9
100
AcDbLine
 10
-252.3265590253943
 20
-124.1928884888801
 30
0.0
 11
-252.3265590253943
 21
-72.6928884888801
 31
0.0
  0
LINE
  5
2AC
330
1F
100
AcDbEntity
  8
E-4
  6
Continuous
 62
     7
370
     9
100
AcDbLine
 10
-647.3264951034402
 20
-164.1928884888801
 30
0.0
 11
-647.3264951034402
 21
-72.6928884888801
 31
0.0
  0
LINE
  5
2AD
330
1F
100
AcDbEntity
  8
E-4
  6
Continuous
 62
     7
370
     9
100
AcDbLine
 10
-207.3264951034402
 20
-164.1928884888801
 30
0.0
 11
-207.3264951034402
 21
-72.6928884888801
 31
0.0
  0
LINE
  5
2AE
330
1F
100
AcDbEntity
  8
E-4
  6
Continuous
 62
     7
370
     9
100
AcDbLine
 10
-723.8265054134329
 20
368.8072280434938
 30
0.0
 11
-672.3265054134328
 21
368.8072280434938
 31
0.0
  0
LINE
  5
2AF
330
1F
100
AcDbEntity
  8
E-4
  6
Continuous
 62
     7
370
     9
100
AcDbLine
 10
-723.8265054134329
 20
-24.19357507547367
 30
0.0
 11
-672.3265054134328
 21
-24.19357507547368
 31
0.0
  0
LINE
  5
2B0
330
1F
100
AcDbEntity
  8
E-2
  6
Continuous
 62
     3
370
     9
100
AcDbLine
 10
387.608610878355
 20
337.3066545722475
 30
0.0
 11
387.608610878355
 21
332.8066087958803
 31
0.0
  0
LINE
  5
2B1
330
1F
100
AcDbEntity
  8
E-2
  6
Continuous
 62
     3
370
     9
100
AcDbLine
 10
387.608610878355
 20
11.80662446706914
 30
0.0
 11
387.608610878355
 21
7.306578690701953
 31
0.0
  0
LINE
  5
2B2
330
1F
100
AcDbEntity
  8
E-2
  6
Continuous
 62
     3
370
     9
100
AcDbLine
 10
355.6086108783549
 20
337.3066545722475
 30
0.0
 11
387.608610878355
 21
337.3066545722475
 31
0.0
  0
LINE
  5
2B3
330
1F
100
AcDbEntity
  8
E-2
  6
Continuous
 62
     3
370
     9
100
AcDbLine
 10
355.6086108783549
 20
7.306578690701953
 30
0.0
 11
387.608610878355
 21
7.306578690701953
 31
0.0
  0
LINE
  5
2B4
330
1F
100
AcDbEntity
  8
E-4
  6
Continuous
 62
     7
370
     9
100
AcDbLine
 10
-662.3265054134328
 20
517.3068228313269
 30
0.0
 11
-427.326526033418
 21
517.3068228313269
 31
0.0
  0
LWPOLYLINE
  5
2B5
330
1F
100
AcDbEntity
  8
E-4
  6
Continuous
 62
     7
370
     9
100
AcDbPolyline
 90
        4
 70
     1
 43
1.0
 10
-661.8265054134328
 20
517.3068228313269
 42
0.4142135623731
 10
-662.3265054134328
 20
517.8068228313269
 42
0.4142135623731
 10
-662.8265054134328
 20
517.3068228313269
 42
0.4142135623731
 10
-662.3265054134328
 20
516.8068228313269
 42
0.4142135623731
  0
LWPOLYLINE
  5
2B6
330
1F
100
AcDbEntity
  8
E-4
  6
Continuous
 62
     7
370
     9
100
AcDbPolyline
 90
        4
 70
     1
 43
1.0
 10
-426.826526033418
 20
517.3068228313269
 42
0.4142135623731
 10
-427.326526033418
 20
517.8068228313269
 42
0.4142135623731
 10
-427.826526033418
 20
517.3068228313269
 42
0.4142135623731
 10
-427.326526033418
 20
516.8068228313269
 42
0.4142135623731
  0
TEXT
  5
2B7
330
1F
100
AcDbEntity
  8
E-4
  6
Continuous
 62
     2
370
   211
100
AcDbText
 10
-561.0765157234254
 20
523.126822831327
 30
0.0
 40
15.24
  1
235
 41
1.083333333333333
  7
ＭＳ ゴシック
100
AcDbText
  0
LINE
  5
2B8
330
1F
100
AcDbEntity
  8
E-4
  6
Continuous
 62
     7
370
     9
100
AcDbLine
 10
-427.326526033418
 20
517.3068228313269
 30
0.0
 11
-192.3265466534032
 21
517.3068228313269
 31
0.0
  0
LWPOLYLINE
  5
2B9
330
1F
100
AcDbEntity
  8
E-4
  6
Continuous
 62
     7
370
     9
100
AcDbPolyline
 90
        4
 70
     1
 43
1.0
 10
-191.8265466534032
 20
517.3068228313269
 42
0.4142135623731
 10
-192.3265466534032
 20
517.8068228313269
 42
0.4142135623731
 10
-192.8265466534032
 20
517.3068228313269
 42
0.4142135623731
 10
-192.3265466534032
 20
516.8068228313269
 42
0.4142135623731
  0
LINE
  5
2BA
330
1F
100
AcDbEntity
  8
E-4
  6
Continuous
 62
     7
370
     9
100
AcDbLine
 10
-662.3265054134328
 20
518.8068228313269
 30
0.0
 11
-662.3265054134328
 21
417.3068228313269
 31
0.0
  0
LINE
  5
2BB
330
1F
100
AcDbEntity
  8
E-4
  6
Continuous
 62
     7
370
     9
100
AcDbLine
 10
-192.3265466534032
 20
518.8068228313269
 30
0.0
 11
-192.3265466534032
 21
417.3068228313269
 31
0.0
  0
LINE
  5
2BC
330
1F
100
AcDbEntity
  8
E-4
  6
Continuous
 62
     7
370
     9
100
AcDbLine
 10
-427.326526033418
 20
518.8068228313269
 30
0.0
 11
-427.326526033418
 21
487.3068228313269
 31
0.0
  0
TEXT
  5
2BD
330
1F
100
AcDbEntity
  8
E-4
  6
Continuous
 62
     2
370
   211
100
AcDbText
 10
-418.5765713973858
 20
473.1268228313269
 30
0.0
 40
15.24
  1
315
 41
1.083333333333333
  7
ＭＳ ゴシック
100
AcDbText
  0
LINE
  5
2BE
330
1F
100
AcDbEntity
  8
E-5
  6
Continuous
 62
     7
370
     9
100
AcDbLine
 10
-283.2019337587723
 20
582.7233932713959
 30
0.0
 11
-79.86665114950273
 21
582.7233932713959
 31
0.0
  0
LINE
  5
2BF
330
1F
100
AcDbEntity
  8
E-5
  6
Continuous
 62
     7
370
     9
100
AcDbLine
 10
-352.1765897832103
 20
325.3064830139705
 30
0.0
 11
-283.2019337587723
 21
582.7233932713959
 31
0.0
  0
TEXT
  5
2C0
330
1F
100
AcDbEntity
  8
E-5
  6
Continuous
 62
     7
370
     9
100
AcDbText
 10
-273.2513379868678
 20
589.0050324447332
 30
0.0
 40
11.43
  1
クロスバー φ６ ＠100
 50
0.00007768361159
 41
1.158730158730159
  7
ＭＳ ゴシック
100
AcDbText
  0
LINE
  5
2C1
330
1F
100
AcDbEntity
  8
E-5
  6
Continuous
 62
     7
370
     9
100
AcDbLine
 10
-312.3268702974892
 20
351.152199335761
 30
0.0
 11
-259.767266555673
 21
547.306822831327
 31
0.0
  0
LINE
  5
2C2
330
1F
100
AcDbEntity
  8
E-5
  6
Continuous
 62
     7
370
     9
100
AcDbLine
 10
-259.767266555673
 20
547.3068228313269
 30
0.0
 11
-44.85588919027691
 21
547.306822831327
 31
0.0
  0
TEXT
  5
2C3
330
1F
100
AcDbEntity
  8
E-5
  6
Continuous
 62
     7
370
     9
100
AcDbText
 10
-253.6058857203703
 20
553.5884620046802
 30
0.0
 40
11.43
  1
メインバー Ⅰ－３８ ＠15
 50
359.9999060071308
 41
1.159722222222223
  7
ＭＳ ゴシック
100
AcDbText
  0
LINE
  5
2C4
330
1F
100
AcDbEntity
  8
E-5
  6
Continuous
 62
     7
370
     9
100
AcDbLine
 10
-687.7760229512347
 20
547.3068228313269
 30
0.0
 11
-882.7760229512347
 21
547.3068228313269
 31
0.0
  0
TEXT
  5
2C5
330
1F
100
AcDbEntity
  8
E-5
  6
Continuous
 62
     7
370
     0
100
AcDbText
 10
-877.7760229512347
 20
554.421822831327
 30
0.0
 40
11.43
  1
平座金，六角袋Ｕナット
 41
1.151515151515152
  7
ＭＳ ゴシック
100
AcDbText
  0
LINE
  5
2C6
330
1F
100
AcDbEntity
  8
E-5
  6
Continuous
 62
     7
370
     9
100
AcDbLine
 10
-687.7760229512347
 20
547.3068228313269
 30
0.0
 11
-590.745887601737
 21
379.245698540712
 31
0.0
  0
LINE
  5
2C7
330
1F
100
AcDbEntity
  8
E-5
  6
Continuous
 62
     7
370
     9
100
AcDbLine
 10
-367.3266260403465
 20
397.3066545722475
 30
0.0
 11
-309.2708270982031
 21
613.9735444846208
 31
0.0
  0
LINE
  5
2C8
330
1F
100
AcDbEntity
  8
E-5
  6
Continuous
 62
     7
370
     9
100
AcDbLine
 10
-309.2708270982031
 20
613.9735444846207
 30
0.0
 11
-75.64458000149725
 21
613.9735444846207
 31
0.0
  0
TEXT
  5
2C9
330
1F
100
AcDbEntity
  8
E-5
  6
Continuous
 62
     7
370
     9
100
AcDbText
 10
-307.6819520751087
 20
620.2551836579738
 30
0.0
 40
11.43
  1
エンドプレート ＦＢ4.5×32
 41
1.16025641025641
  7
ＭＳ ゴシック
100
AcDbText
  0
TEXT
  5
2CA
330
1F
100
AcDbEntity
  8
E-4
  6
Continuous
 62
     2
370
   211
100
AcDbText
 10
-376.0765363434106
 20
523.126822831327
 30
0.0
 40
15.24
  1
235
 41
1.083333333333333
  7
ＭＳ ゴシック
100
AcDbText
  0
TEXT
  5
2CB
330
1F
100
AcDbEntity
  8
F-5ﾚｲﾔ
  6
Continuous
 62
     2
370
     0
100
AcDbText
 10
-426.9733985694677
 20
-663.7341536260332
 30
0.0
 40
15.24
  1
スチール製グレーチング　ボルト固定式　枠付正方形型　細目プレーンタイプ
 41
0.899285714285714
  7
ＭＳ ゴシック
100
AcDbText
  0
LINE
  5
2CC
330
1F
100
AcDbEntity
  8
E-2
  6
Continuous
 62
     3
370
     9
100
AcDbLine
 10
355.608710000879
 20
332.8066087958803
 30
0.0
 11
387.608610878355
 21
332.8066087958803
 31
0.0
  0
LINE
  5
2CD
330
1F
100
AcDbEntity
  8
E-2
  6
Continuous
 62
     3
370
     9
100
AcDbLine
 10
355.608710000879
 20
11.80662446706914
 30
0.0
 11
387.608610878355
 21
11.80662446706914
 31
0.0
  0
TEXT
  5
2CE
330
1F
100
AcDbEntity
  8
E-4
  6
Continuous
 62
     2
370
   211
100
AcDbText
 10
-640.4515307760147
 20
473.1268228313269
 30
0.0
 40
15.24
  1
77.5
 41
1.09375
  7
ＭＳ ゴシック
100
AcDbText
  0
LINE
  5
2CF
330
1F
100
AcDbEntity
  8
E-5
  6
Continuous
 62
     7
370
     9
100
AcDbLine
 10
507.359742425819
 20
210.1989371484219
 30
0.0
 11
639.859742425819
 21
210.1989371484219
 31
0.0
  0
TEXT
  5
2D0
330
1F
100
AcDbEntity
  8
E-5
  6
Continuous
 62
     7
370
     9
100
AcDbText
 10
513.609742425819
 20
217.945238615905
 30
0.0
 40
11.43
  1
ベースプレート
 41
1.142857142857143
  7
ＭＳ ゴシック
100
AcDbText
  0
TEXT
  5
2D1
330
1F
100
AcDbEntity
  8
E-5
  6
Continuous
 62
     7
370
     9
100
AcDbText
 10
511.109742425819
 20
192.3611466045821
 30
0.0
 40
11.43
  1
ＦＢ４.５×４４
 41
1.144444444444444
  7
ＭＳ ゴシック
100
AcDbText
  0
TEXT
  5
2D2
330
1F
100
AcDbEntity
  8
E-5
  6
Continuous
 62
     2
370
     9
100
AcDbText
 10
248.7229199634532
 20
-418.5196675821557
 30
0.0
 40
15.24
  1
処理：溶融亜鉛めっき
 41
1.1125
  7
ＭＳ ゴシック
100
AcDbText
  0
TEXT
  5
2D3
330
1F
100
AcDbEntity
  8
E-5
  6
Continuous
 62
     2
370
     9
100
AcDbText
 10
248.7229080828581
 20
-391.0191438345284
 30
0.0
 40
15.24
  1
材質：ＳＳ４００
 50
359.999990016014
 41
1.109375
  7
ＭＳ ゴシック
100
AcDbText
  0
TEXT
  5
2D4
330
1F
100
AcDbEntity
  8
E-5
  6
Continuous
 62
     2
370
     9
100
AcDbText
 10
246.4733084439746
 20
-478.5199737889363
 30
0.0
 40
15.24
  1
材質：ＳＳ４００
 41
1.109375
  7
ＭＳ ゴシック
100
AcDbText
  0
LINE
  5
2D5
330
1F
100
AcDbEntity
  8
E-5
  6
Continuous
 62
     2
370
     9
100
AcDbLine
 10
164.8669497354126
 20
-311.8800225428294
 30
0.0
 11
164.8669497354126
 21
-286.8796926230659
 31
0.0
  0
LINE
  5
2D6
330
1F
100
AcDbEntity
  8
E-5
  6
Continuous
 62
     2
370
     9
100
AcDbLine
 10
164.8669497354126
 20
-286.8796926230659
 30
0.0
 11
277.3667022955902
 21
-286.8796926230659
 31
0.0
  0
LINE
  5
2D7
330
1F
100
AcDbEntity
  8
E-5
  6
Continuous
 62
     2
370
     9
100
AcDbLine
 10
277.3667022955902
 20
-286.8796926230659
 30
0.0
 11
277.3667022955902
 21
-311.8800225428294
 31
0.0
  0
LINE
  5
2D8
330
1F
100
AcDbEntity
  8
E-5
  6
Continuous
 62
     2
370
     9
100
AcDbLine
 10
277.3667022955902
 20
-311.8800225428294
 30
0.0
 11
164.8669497354126
 21
-311.8800225428294
 31
0.0
  0
TEXT
  5
2D9
330
1F
100
AcDbEntity
  8
E-5
  6
Continuous
 62
     2
370
     9
100
AcDbText
 10
188.6168260155014
 20
-306.5598575829476
 30
0.0
 40
15.24
  1
仕　様
 41
1.083333333333333
  7
ＭＳ ゴシック
100
AcDbText
  0
TEXT
  5
2DA
330
1F
100
AcDbEntity
  8
E-5
  6
Continuous
 62
     2
370
     9
100
AcDbText
 10
246.4733208159658
 20
-506.0199407969598
 30
0.0
 40
15.24
  1
処理：樹脂系塗装
 41
1.109375
  7
ＭＳ ゴシック
100
AcDbText
  0
TEXT
  5
2DB
330
1F
100
AcDbEntity
  8
E-5
  6
Continuous
 62
     2
370
     9
100
AcDbText
 10
221.1168260155014
 20
-336.0201995777744
 30
0.0
 40
15.24
  1
スチール製グレーチング　ボルト固定式　枠付正方形型
 41
1.12
  7
ＭＳ ゴシック
100
AcDbText
  0
TEXT
  5
2DC
330
1F
100
AcDbEntity
  8
E-5
  6
Continuous
 62
     2
370
     9
100
AcDbText
 10
221.1168260155014
 20
-363.520723325399
 30
0.0
 40
15.24
  1
細目プレーンタイプ　集水桝用　ＱＳＣＬ　３３３８ＡⅠ
 41
1.120192307692307
  7
ＭＳ ゴシック
100
AcDbText
  0
LINE
  5
2DD
330
1F
100
AcDbEntity
  8
E-1
  6
Continuous
 62
     2
370
     9
100
AcDbLine
 10
403.1086080173319
 20
346.8064938781253
 30
0.0
 11
398.1085355380839
 21
346.8064938781253
 31
0.0
  0
LINE
  5
2DE
330
1F
100
AcDbEntity
  8
E-1
  6
Continuous
 62
     2
370
     9
100
AcDbLine
 10
401.8451650241677
 20
346.8064938781253
 30
0.0
 11
398.1085355380839
 21
350.543321728467
 31
0.0
  0
LINE
  5
2DF
330
1F
100
AcDbEntity
  8
E-1
  6
Continuous
 62
     2
370
     9
100
AcDbLine
 10
403.1085088352031
 20
349.7858487365237
 30
0.0
 11
398.1085355380839
 21
354.7857228515139
 31
0.0
  0
LINE
  5
2E0
330
1F
100
AcDbEntity
  8
E-1
  6
Continuous
 62
     2
370
     9
100
AcDbLine
 10
403.1085088352031
 20
354.0284482238283
 30
0.0
 11
398.1085355380839
 21
359.0285207030764
 31
0.0
  0
LINE
  5
2E1
330
1F
100
AcDbEntity
  8
E-1
  6
Continuous
 62
     2
370
     9
100
AcDbLine
 10
403.1085088352031
 20
358.2710477111331
 30
0.0
 11
398.1085355380839
 21
363.2711201903811
 31
0.0
  0
LINE
  5
2E2
330
1F
100
AcDbEntity
  8
E-1
  6
Continuous
 62
     2
370
     9
100
AcDbLine
 10
403.1085088352031
 20
362.5136471984377
 30
0.0
 11
398.1085355380839
 21
367.5137196776858
 31
0.0
  0
LINE
  5
2E3
330
1F
100
AcDbEntity
  8
E-1
  6
Continuous
 62
     2
370
     9
100
AcDbLine
 10
403.1085088352031
 20
366.7562466857424
 30
0.0
 11
398.1085355380839
 21
371.7563210723392
 31
0.0
  0
LINE
  5
2E4
330
1F
100
AcDbEntity
  8
E-1
  6
Continuous
 62
     2
370
     9
100
AcDbLine
 10
403.1085088352031
 20
370.9990464446536
 30
0.0
 11
398.1085355380839
 21
375.9989205596438
 31
0.0
  0
LINE
  5
2E5
330
1F
100
AcDbEntity
  8
E-1
  6
Continuous
 62
     2
370
     9
100
AcDbLine
 10
403.1085088352031
 20
375.2414475677005
 30
0.0
 11
398.1085355380839
 21
380.2415200469486
 31
0.0
  0
LINE
  5
2E6
330
1F
100
AcDbEntity
  8
E-1
  6
Continuous
 62
     2
370
     9
100
AcDbLine
 10
403.1085088352031
 20
379.4842454192629
 30
0.0
 11
398.1085355380839
 21
384.4841214416018
 31
0.0
  0
LINE
  5
2E7
330
1F
100
AcDbEntity
  8
E-1
  6
Continuous
 62
     2
370
     9
100
AcDbLine
 10
403.1085088352031
 20
383.7268468139163
 30
0.0
 11
398.1085355380839
 21
388.7269192931644
 31
0.0
  0
LINE
  5
2E8
330
1F
100
AcDbEntity
  8
E-1
  6
Continuous
 62
     2
370
     9
100
AcDbLine
 10
403.1085088352031
 20
387.9694463012211
 30
0.0
 11
400.2712590793435
 21
390.8066989181032
 31
0.0
  0
LINE
  5
2E9
330
1F
100
AcDbEntity
  8
E-1
  6
Continuous
 62
     2
370
     9
100
AcDbLine
 10
403.1086080173319
 20
390.8066989181032
 30
0.0
 11
398.1085355380839
 21
390.8066989181032
 31
0.0
  0
LINE
  5
2EA
330
1F
100
AcDbEntity
  8
E-1
  6
Continuous
 62
     2
370
     9
100
AcDbLine
 10
398.1085355380839
 20
346.8064938781253
 30
0.0
 11
398.1085355380839
 21
390.8066989181032
 31
0.0
  0
LINE
  5
2EB
330
1F
100
AcDbEntity
  8
E-5
  6
Continuous
 62
     7
370
     9
100
AcDbLine
 10
507.359742425819
 20
210.1989371484219
 30
0.0
 11
395.8585126499003
 21
346.8064938781253
 31
0.0
  0
LINE
  5
2EC
330
1F
100
AcDbEntity
  8
E-5
  6
Continuous
 62
     7
370
     9
100
AcDbLine
 10
400.6087562750263
 20
346.806128595087
 30
0.0
 11
412.1572500464061
 21
342.0225847610242
 31
0.0
  0
LINE
  5
2ED
330
1F
100
AcDbEntity
  8
E-5
  6
Continuous
 62
     7
370
     9
100
AcDbLine
 10
400.6087562750263
 20
346.806128595087
 30
0.0
 11
410.5256724162024
 21
339.1966099342989
 31
0.0
  0
ARC
  5
2EE
330
1F
100
AcDbEntity
  8
E-1
  6
Continuous
 62
     2
370
     9
100
AcDbCircle
 10
397.9237744907207
 20
425.3066841361515
 30
0.0
 40
9.0
100
AcDbArc
 50
270.0
 51
285.0000152587891
  0
ARC
  5
2EF
330
1F
100
AcDbEntity
  8
E-1
  6
Continuous
 62
     2
370
     9
100
AcDbCircle
 10
459.6086499790019
 20
427.8589435813419
 30
0.0
 40
4.5
100
AcDbArc
 50
285.0001373291016
 51
104.9999084472656
  0
ARC
  5
2F0
330
1F
100
AcDbEntity
  8
E-1
  6
Continuous
 62
     2
370
     9
100
AcDbCircle
 10
397.9236753085916
 20
425.3066841361515
 30
0.0
 40
18.0
100
AcDbArc
 50
270.0
 51
285.0
  0
ARC
  5
2F1
330
1F
100
AcDbEntity
  8
E-1
  6
Continuous
 62
     2
370
     9
100
AcDbCircle
 10
399.1086385349101
 20
397.3067528007023
 30
0.0
 40
4.0
100
AcDbArc
 50
0.0
 51
90.0
  0
ARC
  5
2F2
330
1F
100
AcDbEntity
  8
E-1
  6
Continuous
 62
     2
370
     9
100
AcDbCircle
 10
405.6086461643044
 20
349.8067566153995
 30
0.0
 40
2.5
100
AcDbArc
 50
180.0
 51
270.0
  0
ARC
  5
2F3
330
1F
100
AcDbEntity
  8
E-1
  6
Continuous
 62
     2
370
     9
100
AcDbCircle
 10
355.6086125472849
 20
403.8067089316837
 30
0.0
 40
2.5
100
AcDbArc
 50
180.0
 51
270.0
  0
ARC
  5
2F4
330
1F
100
AcDbEntity
  8
E-1
  6
Continuous
 62
     2
370
     9
100
AcDbCircle
 10
416.9487378696268
 20
358.056707024335
 30
0.0
 40
4.159999847412109
100
AcDbArc
 50
318.6183471679688
 51
41.3798828125
  0
ARC
  5
2F5
330
1F
100
AcDbEntity
  8
E-1
  6
Continuous
 62
     2
370
     9
100
AcDbCircle
 10
416.9487378696268
 20
379.5568825004092
 30
0.0
 40
4.159999847412109
100
AcDbArc
 50
318.6201171875
 51
41.38165283203125
  0
ARC
  5
2F6
330
1F
100
AcDbEntity
  8
E-1
  6
Continuous
 62
     2
370
     9
100
AcDbCircle
 10
397.1086804965801
 20
368.8065963981143
 30
0.0
 40
24.0
100
AcDbArc
 50
340.52880859375
 51
19.47119140625
  0
LINE
  5
2F7
330
1F
100
AcDbEntity
  8
E-1
  6
Continuous
 62
     2
370
     9
100
AcDbLine
 10
400.2531735996075
 20
416.6133877036563
 30
0.0
 11
458.443900833494
 21
432.205590843915
 31
0.0
  0
LINE
  5
2F8
330
1F
100
AcDbEntity
  8
E-1
  6
Continuous
 62
     2
370
     9
100
AcDbLine
 10
402.5824697116676
 20
407.9200903174869
 30
0.0
 11
460.7732999423806
 21
423.5122944114199
 31
0.0
  0
LINE
  5
2F9
330
1F
100
AcDbEntity
  8
E-1
  6
Continuous
 62
     2
370
     9
100
AcDbLine
 10
397.9237744907207
 20
416.3067909476749
 30
0.0
 11
384.1086194614236
 21
416.3067909476749
 31
0.0
  0
LINE
  5
2FA
330
1F
100
AcDbEntity
  8
E-1
  6
Continuous
 62
     2
370
     9
100
AcDbLine
 10
409.1085851291484
 20
407.3066993949405
 30
0.0
 11
353.1086256603068
 21
407.3066993949405
 31
0.0
  0
LINE
  5
2FB
330
1F
100
AcDbEntity
  8
E-1
  6
Continuous
 62
     2
370
     9
100
AcDbLine
 10
384.1086194614236
 20
407.3066993949405
 30
0.0
 11
384.1086194614236
 21
416.3067909476749
 31
0.0
  0
LINE
  5
2FC
330
1F
100
AcDbEntity
  8
E-1
  6
Continuous
 62
     2
370
     9
100
AcDbLine
 10
409.1085851291484
 20
407.3066993949405
 30
0.0
 11
409.1085851291484
 21
347.3068176505558
 31
0.0
  0
LINE
  5
2FD
330
1F
100
AcDbEntity
  8
E-1
  6
Continuous
 62
     2
370
     9
100
AcDbLine
 10
399.1086385349101
 20
401.3067713973514
 30
0.0
 11
355.6086125472849
 21
401.3067713973514
 31
0.0
  0
LINE
  5
2FE
330
1F
100
AcDbEntity
  8
E-1
  6
Continuous
 62
     2
370
     9
100
AcDbLine
 10
405.6086461643044
 20
347.3068176505558
 30
0.0
 11
409.1085851291484
 21
347.3068176505558
 31
0.0
  0
LINE
  5
2FF
330
1F
100
AcDbEntity
  8
E-1
  6
Continuous
 62
     2
370
     9
100
AcDbLine
 10
353.1086256603068
 20
403.8067089316837
 30
0.0
 11
353.1086256603068
 21
407.3066993949405
 31
0.0
  0
LINE
  5
300
330
1F
100
AcDbEntity
  8
E-1
  6
Continuous
 62
     2
370
     9
100
AcDbLine
 10
409.1087339023417
 20
355.3066574332706
 30
0.0
 11
420.0700910190409
 21
355.3066574332706
 31
0.0
  0
LINE
  5
301
330
1F
100
AcDbEntity
  8
E-1
  6
Continuous
 62
     2
370
     9
100
AcDbLine
 10
409.1087339023417
 20
360.8067566153994
 30
0.0
 11
420.0701902011697
 21
360.8067566153994
 31
0.0
  0
LINE
  5
302
330
1F
100
AcDbEntity
  8
E-1
  6
Continuous
 62
     2
370
     9
100
AcDbLine
 10
409.1087339023417
 20
376.8068310019962
 30
0.0
 11
420.0701902011697
 21
376.8068310019962
 31
0.0
  0
LINE
  5
303
330
1F
100
AcDbEntity
  8
E-1
  6
Continuous
 62
     2
370
     9
100
AcDbLine
 10
421.3087613681619
 20
357.806794762372
 30
0.0
 11
421.1086957553689
 21
357.806794762372
 31
0.0
  0
LINE
  5
304
330
1F
100
AcDbEntity
  8
E-1
  6
Continuous
 62
     2
370
     9
100
AcDbLine
 10
421.3087613681619
 20
379.806598305463
 30
0.0
 11
421.1086957553689
 21
379.806598305463
 31
0.0
  0
LINE
  5
305
330
1F
100
AcDbEntity
  8
E-1
  6
Continuous
 62
     2
370
     9
100
AcDbLine
 10
421.1086957553689
 20
379.5568825004092
 30
0.0
 11
421.1086957553689
 21
358.056707024335
 31
0.0
  0
LINE
  5
306
330
1F
100
AcDbEntity
  8
E-1
  6
Continuous
 62
     2
370
     9
100
AcDbLine
 10
409.1087339023417
 20
382.3067337272158
 30
0.0
 11
420.0700910190409
 21
382.3067337272158
 31
0.0
  0
LINE
  5
307
330
1F
100
AcDbEntity
  8
E-1
  6
JWW_CENTER2
 62
     2
370
     9
100
AcDbLine
 10
397.9236753085916
 20
411.8067451713077
 30
0.0
 11
380.3037164310281
 21
411.8067451713077
 31
0.0
  0
LINE
  5
308
330
1F
100
AcDbEntity
  8
E-1
  6
JWW_CENTER2
 62
     2
370
     9
100
AcDbLine
 10
401.4177243808575
 20
412.2667385337343
 30
0.0
 11
466.5843503574198
 21
429.7280479667177
 31
0.0
  0
ARC
  5
309
330
1F
100
AcDbEntity
  8
E-1
  6
JWW_CENTER2
 62
     2
370
     9
100
AcDbCircle
 10
397.9236753085916
 20
425.3066841361515
 30
0.0
 40
13.50000095367432
100
AcDbArc
 50
270.0
 51
284.9999542236328
  0
LINE
  5
30A
330
1F
100
AcDbEntity
  8
E-1
  6
Continuous
 62
     2
370
     9
100
AcDbLine
 10
403.1086080173319
 20
397.3067528007023
 30
0.0
 11
403.1086080173319
 21
346.8064938781253
 31
0.0
  0
LINE
  5
30B
330
1F
100
AcDbEntity
  8
E-1
  6
JWW_CENTER1
 62
     2
370
     9
100
AcDbLine
 10
424.6144826511209
 20
368.8066960570802
 30
0.0
 11
361.0070402721232
 21
368.8066960570802
 31
0.0
  0
LINE
  5
30C
330
1F
100
AcDbEntity
  8
E-5
  6
Continuous
 62
     7
370
     9
100
AcDbLine
 10
421.1086957553689
 20
368.8066960570802
 30
0.0
 11
431.0256125090093
 21
376.4162139196893
 31
0.0
  0
LINE
  5
30D
330
1F
100
AcDbEntity
  8
E-5
  6
Continuous
 62
     7
370
     9
100
AcDbLine
 10
421.1086957553689
 20
368.8066960570802
 30
0.0
 11
428.7182136179779
 21
378.7236128107206
 31
0.0
  0
LINE
  5
30E
330
1F
100
AcDbEntity
  8
E-5
  6
Continuous
 62
     7
370
     9
100
AcDbLine
 10
498.4508837455869
 20
446.1488840472981
 30
0.0
 11
421.1086957553689
 21
368.8066960570802
 31
0.0
  0
LINE
  5
30F
330
1F
100
AcDbEntity
  8
E-5
  6
Continuous
 62
     7
370
     9
100
AcDbLine
 10
498.4508837455869
 20
446.1488840472981
 30
0.0
 11
710.6466152436866
 21
446.1488840472981
 31
0.0
  0
TEXT
  5
310
330
1F
100
AcDbEntity
  8
E-5
  6
Continuous
 62
     7
370
     9
100
AcDbText
 10
503.8603830190262
 20
452.4042945994342
 30
0.0
 40
11.43
  1
六角ボルト：Ｍ１６×３５
 50
0.0000341620758528
 41
1.152777777777781
  7
ＭＳ ゴシック
100
AcDbText
  0
LINE
  5
311
330
1F
100
AcDbEntity
  8
E-5
  6
Continuous
 62
     7
370
     9
100
AcDbLine
 10
400.6087562750263
 20
346.806128595087
 30
0.0
 11
507.359742425819
 21
285.1734065486345
 31
0.0
  0
TEXT
  5
312
330
1F
100
AcDbEntity
  8
E-5
  6
Continuous
 62
     2
370
     9
100
AcDbText
 10
221.1168012715951
 20
-451.0199758509348
 30
0.0
 40
15.24
  1
スチール製受枠　Ｌ－３８Ｂ（四方受四方枠）
 50
359.9999999984568
 41
1.119047619047619
  7
ＭＳ ゴシック
100
AcDbText
  0
TEXT
  5
313
330
1F
100
AcDbEntity
  8
F-5ﾚｲﾔ
  6
Continuous
 62
     2
370
     0
100
AcDbText
 10
-426.9733985693917
 20
-686.2341536260332
 30
0.0
 40
15.24
  1
集水桝用　クッション付　ＱＳＣＬ　３３３８ＡⅠ－ｂ
 50
359.9999999984568
 41
0.8990000000000002
  7
ＭＳ ゴシック
100
AcDbText
  0
LINE
  5
314
330
1F
100
AcDbEntity
  8
E-1
  6
Continuous
 62
     2
370
     9
100
AcDbLine
 10
391.3084752658671
 20
-43.19235405752579
 30
0.0
 11
391.3084752658671
 21
-5.19247612783829
 31
0.0
  0
LINE
  5
315
330
1F
100
AcDbEntity
  8
E-1
  6
Continuous
 62
     2
370
     9
100
AcDbLine
 10
393.608539352781
 20
-43.19235405752579
 30
0.0
 11
391.3084752658671
 21
-43.19235405752579
 31
0.0
  0
LINE
  5
316
330
1F
100
AcDbEntity
  8
E-1
  6
Continuous
 62
     2
370
     9
100
AcDbLine
 10
391.3084752658671
 20
-37.69245323965464
 30
0.0
 11
380.3473165134255
 21
-37.69245323965464
 31
0.0
  0
LINE
  5
317
330
1F
100
AcDbEntity
  8
E-1
  6
Continuous
 62
     2
370
     9
100
AcDbLine
 10
379.3086164096658
 20
-34.94260201284789
 30
0.0
 11
379.3086164096658
 21
-13.44242653677384
 31
0.0
  0
LINE
  5
318
330
1F
100
AcDbEntity
  8
E-1
  6
Continuous
 62
     2
370
     9
100
AcDbLine
 10
391.3084752658671
 20
-10.69237694570916
 30
0.0
 11
380.3473165134255
 21
-10.69237694570916
 31
0.0
  0
LINE
  5
319
330
1F
100
AcDbEntity
  8
E-1
  6
Continuous
 62
     2
370
     9
100
AcDbLine
 10
379.1084478000468
 20
-35.19231781790154
 30
0.0
 11
379.3086164096658
 21
-35.19231781790154
 31
0.0
  0
LINE
  5
31A
330
1F
100
AcDbEntity
  8
E-1
  6
Continuous
 62
     2
370
     9
100
AcDbLine
 10
379.1084478000468
 20
-13.19251427481078
 30
0.0
 11
379.3086164096658
 21
-13.19251427481078
 31
0.0
  0
LINE
  5
31B
330
1F
100
AcDbEntity
  8
E-1
  6
Continuous
 62
     2
370
     9
100
AcDbLine
 10
377.3085076907938
 20
-14.99245247671524
 30
0.0
 11
377.3085076907938
 21
-33.39257607290648
 31
0.0
  0
LINE
  5
31C
330
1F
100
AcDbEntity
  8
E-1
  6
Continuous
 62
     2
370
     9
100
AcDbLine
 10
373.8087155917947
 20
-15.6922510606995
 30
0.0
 11
377.3085076907938
 21
-15.6922510606995
 31
0.0
  0
LINE
  5
31D
330
1F
100
AcDbEntity
  8
E-1
  6
Continuous
 62
     2
370
     9
100
AcDbLine
 10
373.7986066440408
 20
-32.69257912466429
 30
0.0
 11
377.3085076907938
 21
-32.69257912466429
 31
0.0
  0
LINE
  5
31E
330
1F
100
AcDbEntity
  8
E-1
  6
Continuous
 62
     2
370
     9
100
AcDbLine
 10
391.3084752658671
 20
-32.19255051443497
 30
0.0
 11
380.3471200565164
 21
-32.19255051443497
 31
0.0
  0
LINE
  5
31F
330
1F
100
AcDbEntity
  8
E-1
  6
Continuous
 62
     2
370
     9
100
AcDbLine
 10
391.3084752658671
 20
-16.19247612783823
 30
0.0
 11
380.3471200565164
 21
-16.19247612783823
 31
0.0
  0
LINE
  5
320
330
1F
100
AcDbEntity
  8
E-1
  6
Continuous
 62
     2
370
     9
100
AcDbLine
 10
393.608539352781
 20
-5.19247612783829
 30
0.0
 11
391.3084752658671
 21
-5.19247612783829
 31
0.0
  0
ARC
  5
321
330
1F
100
AcDbEntity
  8
E-1
  6
Continuous
 62
     2
370
     9
100
AcDbCircle
 10
403.3087270358865
 20
-24.19251427481072
 30
0.0
 40
24.0
100
AcDbArc
 50
160.52880859375
 51
199.47119140625
  0
ARC
  5
322
330
1F
100
AcDbEntity
  8
E-1
  6
Continuous
 62
     2
370
     9
100
AcDbCircle
 10
383.4685723880594
 20
-34.94260201284789
 30
0.0
 40
4.159999847412109
100
AcDbArc
 50
138.6201171875
 51
221.3816528320312
  0
ARC
  5
323
330
1F
100
AcDbEntity
  8
E-1
  6
Continuous
 62
     2
370
     9
100
AcDbCircle
 10
383.4685723880594
 20
-13.44242653677384
 30
0.0
 40
4.159999847412109
100
AcDbArc
 50
138.6183471679688
 51
221.3798828125
  0
ARC
  5
324
330
1F
100
AcDbEntity
  8
E-1
  6
Continuous
 62
     2
370
     9
100
AcDbCircle
 10
379.1084478000468
 20
-33.39257607290648
 30
0.0
 40
1.799999594688416
100
AcDbArc
 50
180.0
 51
270.0
  0
ARC
  5
325
330
1F
100
AcDbEntity
  8
E-1
  6
Continuous
 62
     2
370
     9
100
AcDbCircle
 10
379.1084478000468
 20
-14.99245247671524
 30
0.0
 40
1.799999594688416
100
AcDbArc
 50
90.0
 51
180.0
  0
ARC
  5
326
330
1F
100
AcDbEntity
  8
E-1
  6
Continuous
 62
     2
370
     9
100
AcDbCircle
 10
373.8087155917947
 20
-24.19251427481072
 30
0.0
 40
8.5
100
AcDbArc
 50
90.0
 51
180.0
  0
ARC
  5
327
330
1F
100
AcDbEntity
  8
E-1
  6
Continuous
 62
     2
370
     9
100
AcDbCircle
 10
373.7986066440408
 20
-24.20242485830698
 30
0.0
 40
8.489999771118164
100
AcDbArc
 50
180.0
 51
270.0
  0
LINE
  5
328
330
1F
100
AcDbEntity
  8
E-1
  6
Continuous
 62
     2
370
     9
100
AcDbLine
 10
403.1086080173319
 20
-2.192312095855726
 30
0.0
 11
398.1085355380839
 21
-2.192312095855726
 31
0.0
  0
LINE
  5
329
330
1F
100
AcDbEntity
  8
E-1
  6
Continuous
 62
     2
370
     9
100
AcDbLine
 10
401.8451650241677
 20
-2.192312095855726
 30
0.0
 11
398.1085355380839
 21
-5.929139946197495
 31
0.0
  0
LINE
  5
32A
330
1F
100
AcDbEntity
  8
E-1
  6
Continuous
 62
     2
370
     9
100
AcDbLine
 10
403.1085088352031
 20
-5.171666954254164
 30
0.0
 11
398.1085355380839
 21
-10.17154106924444
 31
0.0
  0
LINE
  5
32B
330
1F
100
AcDbEntity
  8
E-1
  6
Continuous
 62
     2
370
     9
100
AcDbLine
 10
403.1085088352031
 20
-9.414266441558823
 30
0.0
 11
398.1085355380839
 21
-14.41433892080688
 31
0.0
  0
LINE
  5
32C
330
1F
100
AcDbEntity
  8
E-1
  6
Continuous
 62
     2
370
     9
100
AcDbLine
 10
403.1085088352031
 20
-13.65686592886355
 30
0.0
 11
398.1085355380839
 21
-18.65693840811161
 31
0.0
  0
LINE
  5
32D
330
1F
100
AcDbEntity
  8
E-1
  6
Continuous
 62
     2
370
     9
100
AcDbLine
 10
403.1085088352031
 20
-17.89946541616821
 30
0.0
 11
398.1085355380839
 21
-22.89953789541627
 31
0.0
  0
LINE
  5
32E
330
1F
100
AcDbEntity
  8
E-1
  6
Continuous
 62
     2
370
     9
100
AcDbLine
 10
403.1085088352031
 20
-22.14206490347294
 30
0.0
 11
398.1085355380839
 21
-27.14213929006966
 31
0.0
  0
LINE
  5
32F
330
1F
100
AcDbEntity
  8
E-1
  6
Continuous
 62
     2
370
     9
100
AcDbLine
 10
403.1085088352031
 20
-26.38486466238405
 30
0.0
 11
398.1085355380839
 21
-31.38473877737432
 31
0.0
  0
LINE
  5
330
330
1F
100
AcDbEntity
  8
E-1
  6
Continuous
 62
     2
370
     9
100
AcDbLine
 10
403.1085088352031
 20
-30.62726578543099
 30
0.0
 11
398.1085355380839
 21
-35.62733826467905
 31
0.0
  0
LINE
  5
331
330
1F
100
AcDbEntity
  8
E-1
  6
Continuous
 62
     2
370
     9
100
AcDbLine
 10
403.1085088352031
 20
-34.87006363699344
 30
0.0
 11
398.1085355380839
 21
-39.8699396593323
 31
0.0
  0
LINE
  5
332
330
1F
100
AcDbEntity
  8
E-1
  6
Continuous
 62
     2
370
     9
100
AcDbLine
 10
403.1085088352031
 20
-39.11266503164683
 30
0.0
 11
398.1085355380839
 21
-44.11273751089489
 31
0.0
  0
LINE
  5
333
330
1F
100
AcDbEntity
  8
E-1
  6
Continuous
 62
     2
370
     9
100
AcDbLine
 10
403.1085088352031
 20
-43.35526451895156
 30
0.0
 11
400.2712590793435
 21
-46.19251713583374
 31
0.0
  0
LINE
  5
334
330
1F
100
AcDbEntity
  8
E-1
  6
Continuous
 62
     2
370
     9
100
AcDbLine
 10
403.1086080173319
 20
-46.19251713583374
 30
0.0
 11
398.1085355380839
 21
-46.19251713583374
 31
0.0
  0
LINE
  5
335
330
1F
100
AcDbEntity
  8
E-1
  6
Continuous
 62
     2
370
     9
100
AcDbLine
 10
398.1085355380839
 20
-2.192312095855726
 30
0.0
 11
398.1085355380839
 21
-46.19251713583374
 31
0.0
  0
ARC
  5
336
330
1F
100
AcDbEntity
  8
E-1
  6
Continuous
 62
     2
370
     9
100
AcDbCircle
 10
397.9237744907207
 20
-80.69250235388196
 30
0.0
 40
9.0
100
AcDbArc
 50
74.99998474121094
 51
90.0
  0
ARC
  5
337
330
1F
100
AcDbEntity
  8
E-1
  6
Continuous
 62
     2
370
     9
100
AcDbCircle
 10
459.6086499790019
 20
-83.24476179907236
 30
0.0
 40
4.5
100
AcDbArc
 50
255.0000915527344
 51
74.99986267089844
  0
ARC
  5
338
330
1F
100
AcDbEntity
  8
E-1
  6
Continuous
 62
     2
370
     9
100
AcDbCircle
 10
397.9236753085916
 20
-80.69250235388196
 30
0.0
 40
18.0
100
AcDbArc
 50
75.0
 51
90.0
  0
ARC
  5
339
330
1F
100
AcDbEntity
  8
E-1
  6
Continuous
 62
     2
370
     9
100
AcDbCircle
 10
399.1086385349101
 20
-52.6925710184328
 30
0.0
 40
4.0
100
AcDbArc
 50
270.0
 51
0.0
  0
ARC
  5
33A
330
1F
100
AcDbEntity
  8
E-1
  6
Continuous
 62
     2
370
     9
100
AcDbCircle
 10
405.6086461643044
 20
-5.192574833129981
 30
0.0
 40
2.5
100
AcDbArc
 50
90.0
 51
180.0
  0
ARC
  5
33B
330
1F
100
AcDbEntity
  8
E-1
  6
Continuous
 62
     2
370
     9
100
AcDbCircle
 10
355.6086125472849
 20
-59.19252714941422
 30
0.0
 40
2.5
100
AcDbArc
 50
90.0
 51
180.0
  0
ARC
  5
33C
330
1F
100
AcDbEntity
  8
E-1
  6
Continuous
 62
     2
370
     9
100
AcDbCircle
 10
416.9487378696268
 20
-13.44252524206553
 30
0.0
 40
4.159999847412109
100
AcDbArc
 50
318.6201171875
 51
41.38165283203124
  0
ARC
  5
33D
330
1F
100
AcDbEntity
  8
E-1
  6
Continuous
 62
     2
370
     9
100
AcDbCircle
 10
416.9487378696268
 20
-34.94270071813972
 30
0.0
 40
4.159999847412109
100
AcDbArc
 50
318.6183471679688
 51
41.37988281250001
  0
ARC
  5
33E
330
1F
100
AcDbEntity
  8
E-1
  6
Continuous
 62
     2
370
     9
100
AcDbCircle
 10
397.1086804965801
 20
-24.19241461584477
 30
0.0
 40
24.0
100
AcDbArc
 50
340.52880859375
 51
19.47119140625
  0
LINE
  5
33F
330
1F
100
AcDbEntity
  8
E-1
  6
Continuous
 62
     2
370
     9
100
AcDbLine
 10
400.2531735996075
 20
-71.99920592138675
 30
0.0
 11
458.443900833494
 21
-87.59140906164554
 31
0.0
  0
LINE
  5
340
330
1F
100
AcDbEntity
  8
E-1
  6
Continuous
 62
     2
370
     9
100
AcDbLine
 10
402.5824697116676
 20
-63.30590853521741
 30
0.0
 11
460.7732999423806
 21
-78.89811262915046
 31
0.0
  0
LINE
  5
341
330
1F
100
AcDbEntity
  8
E-1
  6
Continuous
 62
     2
370
     9
100
AcDbLine
 10
397.9237744907207
 20
-71.69260916540537
 30
0.0
 11
384.1086194614236
 21
-71.69260916540537
 31
0.0
  0
LINE
  5
342
330
1F
100
AcDbEntity
  8
E-1
  6
Continuous
 62
     2
370
     9
100
AcDbLine
 10
409.1085851291484
 20
-62.692517612671
 30
0.0
 11
353.1086256603068
 21
-62.692517612671
 31
0.0
  0
LINE
  5
343
330
1F
100
AcDbEntity
  8
E-1
  6
Continuous
 62
     2
370
     9
100
AcDbLine
 10
384.1086194614236
 20
-62.692517612671
 30
0.0
 11
384.1086194614236
 21
-71.69260916540537
 31
0.0
  0
LINE
  5
344
330
1F
100
AcDbEntity
  8
E-1
  6
Continuous
 62
     2
370
     9
100
AcDbLine
 10
409.1085851291484
 20
-62.692517612671
 30
0.0
 11
409.1085851291484
 21
-2.692635868286288
 31
0.0
  0
LINE
  5
345
330
1F
100
AcDbEntity
  8
E-1
  6
Continuous
 62
     2
370
     9
100
AcDbLine
 10
399.1086385349101
 20
-56.69258961508191
 30
0.0
 11
355.6086125472849
 21
-56.69258961508191
 31
0.0
  0
LINE
  5
346
330
1F
100
AcDbEntity
  8
E-1
  6
Continuous
 62
     2
370
     9
100
AcDbLine
 10
405.6086461643044
 20
-2.692635868286288
 30
0.0
 11
409.1085851291484
 21
-2.692635868286288
 31
0.0
  0
LINE
  5
347
330
1F
100
AcDbEntity
  8
E-1
  6
Continuous
 62
     2
370
     9
100
AcDbLine
 10
353.1086256603068
 20
-59.19252714941422
 30
0.0
 11
353.1086256603068
 21
-62.692517612671
 31
0.0
  0
LINE
  5
348
330
1F
100
AcDbEntity
  8
E-1
  6
Continuous
 62
     2
370
     9
100
AcDbLine
 10
409.1087339023417
 20
-10.69247565100113
 30
0.0
 11
420.0700910190409
 21
-10.69247565100113
 31
0.0
  0
LINE
  5
349
330
1F
100
AcDbEntity
  8
E-1
  6
Continuous
 62
     2
370
     9
100
AcDbLine
 10
409.1087339023417
 20
-16.19257483312992
 30
0.0
 11
420.0701902011697
 21
-16.19257483312992
 31
0.0
  0
LINE
  5
34A
330
1F
100
AcDbEntity
  8
E-1
  6
Continuous
 62
     2
370
     9
100
AcDbLine
 10
409.1087339023417
 20
-32.19264921972666
 30
0.0
 11
420.0701902011697
 21
-32.19264921972666
 31
0.0
  0
LINE
  5
34B
330
1F
100
AcDbEntity
  8
E-1
  6
Continuous
 62
     2
370
     9
100
AcDbLine
 10
421.3087613681619
 20
-13.19261298010254
 30
0.0
 11
421.1086957553689
 21
-13.19261298010254
 31
0.0
  0
LINE
  5
34C
330
1F
100
AcDbEntity
  8
E-1
  6
Continuous
 62
     2
370
     9
100
AcDbLine
 10
421.3087613681619
 20
-35.19241652319351
 30
0.0
 11
421.1086957553689
 21
-35.19241652319351
 31
0.0
  0
LINE
  5
34D
330
1F
100
AcDbEntity
  8
E-1
  6
Continuous
 62
     2
370
     9
100
AcDbLine
 10
421.1086957553689
 20
-34.94270071813972
 30
0.0
 11
421.1086957553689
 21
-13.44252524206553
 31
0.0
  0
LINE
  5
34E
330
1F
100
AcDbEntity
  8
E-1
  6
Continuous
 62
     2
370
     9
100
AcDbLine
 10
409.1087339023417
 20
-37.69255194494633
 30
0.0
 11
420.0700910190409
 21
-37.69255194494633
 31
0.0
  0
LINE
  5
34F
330
1F
100
AcDbEntity
  8
E-1
  6
JWW_CENTER2
 62
     2
370
     9
100
AcDbLine
 10
397.9236753085916
 20
-67.19256338903818
 30
0.0
 11
380.3037164310281
 21
-67.19256338903818
 31
0.0
  0
LINE
  5
350
330
1F
100
AcDbEntity
  8
E-1
  6
JWW_CENTER2
 62
     2
370
     9
100
AcDbLine
 10
401.4177243808575
 20
-67.65255675146484
 30
0.0
 11
466.5843503574198
 21
-85.11386618444824
 31
0.0
  0
ARC
  5
351
330
1F
100
AcDbEntity
  8
E-1
  6
JWW_CENTER2
 62
     2
370
     9
100
AcDbCircle
 10
397.9236753085916
 20
-80.69250235388196
 30
0.0
 40
13.50000095367432
100
AcDbArc
 50
75.00004577636717
 51
90.0
  0
LINE
  5
352
330
1F
100
AcDbEntity
  8
E-1
  6
Continuous
 62
     2
370
     9
100
AcDbLine
 10
403.1086080173319
 20
-52.6925710184328
 30
0.0
 11
403.1086080173319
 21
-2.192312095855726
 31
0.0
  0
LINE
  5
353
330
1F
100
AcDbEntity
  8
E-1
  6
JWW_CENTER1
 62
     2
370
     9
100
AcDbLine
 10
424.6144826511209
 20
-24.19251427481072
 30
0.0
 11
361.0070402721232
 21
-24.19251427481072
 31
0.0
  0
LINE
  5
354
330
1F
100
AcDbEntity
  8
E-4
  6
Continuous
 62
     7
370
     9
100
AcDbLine
 10
470.6085851291484
 20
-2.693061696755876
 30
0.0
 11
419.1085851291484
 21
-2.693061696755876
 31
0.0
  0
LINE
  5
355
330
1F
100
AcDbEntity
  8
E-4
  6
Continuous
 62
     7
370
     9
100
AcDbLine
 10
469.1085851291484
 20
407.3070702711496
 30
0.0
 11
469.1085851291484
 21
347.3072434790254
 31
0.0
  0
LWPOLYLINE
  5
356
330
1F
100
AcDbEntity
  8
E-4
  6
Continuous
 62
     7
370
     9
100
AcDbPolyline
 90
        4
 70
     1
 43
1.0
 10
469.6085851291483
 20
407.3070702711496
 42
0.4142135623731
 10
469.1085851291484
 20
407.8070702711495
 42
0.4142135623731
 10
468.6085851291484
 20
407.3070702711496
 42
0.4142135623731
 10
469.1085851291484
 20
406.8070702711497
 42
0.4142135623731
  0
LWPOLYLINE
  5
357
330
1F
100
AcDbEntity
  8
E-4
  6
Continuous
 62
     7
370
     9
100
AcDbPolyline
 90
        4
 70
     1
 43
1.0
 10
469.6085851291483
 20
347.3072434790254
 42
0.4142135623731
 10
469.1085851291484
 20
347.8072434790254
 42
0.4142135623731
 10
468.6085851291484
 20
347.3072434790254
 42
0.4142135623731
 10
469.1085851291484
 20
346.8072434790254
 42
0.4142135623731
  0
LINE
  5
358
330
1F
100
AcDbEntity
  8
E-4
  6
Continuous
 62
     7
370
     9
100
AcDbLine
 10
470.6085851291484
 20
407.3070702711496
 30
0.0
 11
419.1085851291484
 21
407.3070702711496
 31
0.0
  0
LINE
  5
359
330
1F
100
AcDbEntity
  8
E-4
  6
Continuous
 62
     7
370
     9
100
AcDbLine
 10
470.6085851291484
 20
347.3072434790254
 30
0.0
 11
419.1085851291484
 21
347.3072434790254
 31
0.0
  0
LINE
  5
35A
330
1F
100
AcDbEntity
  8
E-4
  6
Continuous
 62
     7
370
     9
100
AcDbLine
 10
469.1085851291484
 20
347.3072434790254
 30
0.0
 11
469.1085851291484
 21
-2.693061696755876
 31
0.0
  0
LWPOLYLINE
  5
35B
330
1F
100
AcDbEntity
  8
E-4
  6
Continuous
 62
     7
370
     9
100
AcDbPolyline
 90
        4
 70
     1
 43
1.0
 10
469.6085851291483
 20
-2.693061696755876
 42
0.4142135623731
 10
469.1085851291484
 20
-2.193061696755876
 42
0.4142135623731
 10
468.6085851291484
 20
-2.693061696755876
 42
0.4142135623731
 10
469.1085851291484
 20
-3.193061696755876
 42
0.4142135623731
  0
LINE
  5
35C
330
1F
100
AcDbEntity
  8
E-4
  6
Continuous
 62
     7
370
     9
100
AcDbLine
 10
469.1085851291484
 20
-2.693061696755876
 30
0.0
 11
469.1085851291484
 21
-62.6928884888801
 31
0.0
  0
LWPOLYLINE
  5
35D
330
1F
100
AcDbEntity
  8
E-4
  6
Continuous
 62
     7
370
     9
100
AcDbPolyline
 90
        4
 70
     1
 43
1.0
 10
469.6085851291483
 20
-62.6928884888801
 42
0.4142135623731
 10
469.1085851291484
 20
-62.1928884888801
 42
0.4142135623731
 10
468.6085851291484
 20
-62.6928884888801
 42
0.4142135623731
 10
469.1085851291484
 20
-63.1928884888801
 42
0.4142135623731
  0
LINE
  5
35E
330
1F
100
AcDbEntity
  8
E-4
  6
Continuous
 62
     7
370
     9
100
AcDbLine
 10
470.6085851291484
 20
-62.6928884888801
 30
0.0
 11
419.1085851291484
 21
-62.6928884888801
 31
0.0
  0
TEXT
  5
35F
330
1F
100
AcDbEntity
  8
E-4
  6
Continuous
 62
     2
370
   211
100
AcDbText
 10
463.2885851291484
 20
-43.31797509281799
 30
0.0
 40
15.24
  1
60
 50
90.0
 41
1.0625
  7
ＭＳ ゴシック
100
AcDbText
  0
TEXT
  5
360
330
1F
100
AcDbEntity
  8
E-4
  6
Continuous
 62
     2
370
   211
100
AcDbText
 10
463.2885851291484
 20
156.0570908911347
 30
0.0
 40
15.24
  1
350
 50
90.0
 41
1.083333333333333
  7
ＭＳ ゴシック
100
AcDbText
  0
TEXT
  5
361
330
1F
100
AcDbEntity
  8
E-4
  6
Continuous
 62
     2
370
   211
100
AcDbText
 10
463.2885851291484
 20
366.6821568750875
 30
0.0
 40
15.24
  1
60
 50
90.0
 41
1.0625
  7
ＭＳ ゴシック
100
AcDbText
  0
LINE
  5
362
330
1F
100
AcDbEntity
  8
E-4
  6
Continuous
 62
     7
370
     9
100
AcDbLine
 10
353.1086256603068
 20
-164.1928884888801
 30
0.0
 11
353.1086256603068
 21
-72.69241986105357
 31
0.0
  0
LWPOLYLINE
  5
363
330
1F
100
AcDbEntity
  8
E-4
  6
Continuous
 62
     7
370
     9
100
AcDbPolyline
 90
        4
 70
     1
 43
1.0
 10
353.6086256603068
 20
-162.6928884888801
 42
0.4142135623731
 10
353.1086256603068
 20
-162.1928884888801
 42
0.4142135623731
 10
352.6086256603068
 20
-162.6928884888801
 42
0.4142135623731
 10
353.1086256603068
 20
-163.1928884888801
 42
0.4142135623731
  0
LWPOLYLINE
  5
364
330
1F
100
AcDbEntity
  8
E-4
  6
Continuous
 62
     7
370
     9
100
AcDbPolyline
 90
        4
 70
     1
 43
1.0
 10
409.6085851291483
 20
-162.6928884888801
 42
0.4142135623731
 10
409.1085851291484
 20
-162.1928884888801
 42
0.4142135623731
 10
408.6085851291484
 20
-162.6928884888801
 42
0.4142135623731
 10
409.1085851291484
 20
-163.1928884888801
 42
0.4142135623731
  0
LINE
  5
365
330
1F
100
AcDbEntity
  8
E-4
  6
Continuous
 62
     7
370
     9
100
AcDbLine
 10
409.1085851291484
 20
-164.1928884888801
 30
0.0
 11
409.1085851291484
 21
-72.69241986105357
 31
0.0
  0
LINE
  5
366
330
1F
100
AcDbEntity
  8
E-4
  6
Continuous
 62
     7
370
     9
100
AcDbLine
 10
353.1086256603068
 20
-162.6928884888801
 30
0.0
 11
409.1085851291484
 21
-162.6928884888801
 31
0.0
  0
TEXT
  5
367
330
1F
100
AcDbEntity
  8
E-4
  6
Continuous
 62
     2
370
   211
100
AcDbText
 10
370.4836053947275
 20
-156.8728884888801
 30
0.0
 40
15.24
  1
56
 41
1.0625
  7
ＭＳ ゴシック
100
AcDbText
  0
TEXT
  5
368
330
1F
100
AcDbEntity
  8
E-5
  6
Continuous
 62
     7
370
     9
100
AcDbText
 10
184.5298844392791
 20
471.2971212669509
 30
0.0
 40
11.43
  1
受枠：Ｌ－３８Ｂ
 41
1.145833333333333
  7
ＭＳ ゴシック
100
AcDbText
  0
TEXT
  5
369
330
1F
100
AcDbEntity
  8
E-5
  6
Continuous
 62
     7
370
     9
100
AcDbText
 10
507.359742425819
 20
292.2884065486345
 30
0.0
 40
11.43
  1
クッション：ｔ＝５
 41
1.148148148148148
  7
ＭＳ ゴシック
100
AcDbText
  0
TEXT
  5
36A
330
1F
100
AcDbEntity
  8
E-5
  6
Continuous
 62
     7
370
     9
100
AcDbText
 10
516.1097424258191
 20
267.2884065486345
 30
0.0
 40
11.43
  1
クロロプレンゴム
 41
1.145833333333333
  7
ＭＳ ゴシック
100
AcDbText
  0
LINE
  5
36B
330
1F
100
AcDbEntity
  8
E-5
  6
Continuous
 62
     7
370
     9
100
AcDbLine
 10
507.359742425819
 20
285.1734065486345
 30
0.0
 11
662.359742425819
 21
285.1734065486345
 31
0.0
  0
LINE
  5
36C
330
1F
100
AcDbEntity
  8
E-5
  6
Continuous
 62
     7
370
     9
100
AcDbLine
 10
429.3485372165508
 20
424.4094892737857
 30
0.0
 11
436.9580550791597
 21
434.3264060274262
 31
0.0
  0
LINE
  5
36D
330
1F
100
AcDbEntity
  8
E-5
  6
Continuous
 62
     7
370
     9
100
AcDbLine
 10
429.3485372165508
 20
424.4094892737857
 30
0.0
 11
434.1320801211143
 21
435.9579834301767
 31
0.0
  0
LINE
  5
36E
330
1F
100
AcDbEntity
  8
E-5
  6
Continuous
 62
     7
370
     9
100
AcDbLine
 10
429.3485372165508
 20
424.4094892737857
 30
0.0
 11
471.3064721599544
 21
497.0827643764304
 31
0.0
  0
LINE
  5
36F
330
1F
100
AcDbEntity
  8
E-5
  6
Continuous
 62
     7
370
     9
100
AcDbLine
 10
471.3064721599544
 20
497.0827643764304
 30
0.0
 11
592.841242403831
 21
497.0827643764304
 31
0.0
  0
TEXT
  5
370
330
1F
100
AcDbEntity
  8
E-5
  6
Continuous
 62
     7
370
     9
100
AcDbText
 10
471.7294829087404
 20
501.7750975689979
 30
0.0
 40
11.43
  1
アンカー：φ９
 41
1.142857142857143
  7
ＭＳ ゴシック
100
AcDbText
  0
TEXT
  5
371
330
1F
100
AcDbEntity
  8
F-5ﾚｲﾔ
  6
Continuous
 62
     3
370
     9
100
AcDbText
 10
302.3667022955902
 20
-308.3550225428294
 30
0.0
 40
19.05
  1
※適用荷重：Ｔ－２５
 41
1.09
  7
ＭＳ ゴシック
100
AcDbText
  0
ENDSEC
  0
SECTION
  2
OBJECTS
  0
DICTIONARY
  5
C
330
0
100
AcDbDictionary
281
     1
  3
ACAD_DETAILVIEWSTYLE
350
3B7
  3
ACAD_GROUP
350
D
  3
ACAD_LAYOUT
350
1A
  3
ACAD_MATERIAL
350
43
  3
ACAD_MLEADERSTYLE
350
6B
  3
ACAD_MLINESTYLE
350
17
  3
ACAD_PLOTSETTINGS
350
19
  3
ACAD_PLOTSTYLENAME
350
E
  3
ACAD_SCALELIST
350
47
  3
ACAD_SECTIONVIEWSTYLE
350
3B8
  3
ACAD_TABLESTYLE
350
69
  3
ACAD_VISUALSTYLE
350
2A
  3
ACDB_RECOMPOSE_DATA
350
3B4
  3
AcDbVariableDictionary
350
374
  0
DICTIONARY
  5
372
330
8
100
AcDbDictionary
280
     1
281
     1
  3
ACAD_XREC_ROUNDTRIP
360
373
  0
DICTIONARY
  5
3B7
102
{ACAD_REACTORS
330
C
102
}
330
C
100
AcDbDictionary
281
     1
  0
DICTIONARY
  5
D
102
{ACAD_REACTORS
330
C
102
}
330
C
100
AcDbDictionary
281
     1
  0
DICTIONARY
  5
1A
102
{ACAD_REACTORS
330
C
102
}
330
C
100
AcDbDictionary
281
     1
  3
Layout1
350
1E
  3
Layout2
350
26
  3
Model
350
22
  0
DICTIONARY
  5
43
102
{ACAD_REACTORS
330
C
102
}
330
C
100
AcDbDictionary
281
     1
  3
ByBlock
350
45
  3
ByLayer
350
44
  3
Global
350
46
  0
DICTIONARY
  5
6B
102
{ACAD_REACTORS
330
C
102
}
330
C
100
AcDbDictionary
281
     1
  3
Standard
350
6C
  0
DICTIONARY
  5
17
102
{ACAD_REACTORS
330
C
102
}
330
C
100
AcDbDictionary
281
     1
  3
Standard
350
18
  0
DICTIONARY
  5
19
102
{ACAD_REACTORS
330
C
102
}
330
C
100
AcDbDictionary
281
     1
  0
ACDBDICTIONARYWDFLT
  5
E
102
{ACAD_REACTORS
330
C
102
}
330
C
100
AcDbDictionary
281
     1
  3
Normal
350
F
100
AcDbDictionaryWithDefault
340
F
  0
DICTIONARY
  5
47
102
{ACAD_REACTORS
330
C
102
}
330
C
100
AcDbDictionary
281
     1
  3
A0
350
48
  3
A1
350
49
  3
A2
350
4A
  3
A3
350
4B
  3
A4
350
4C
  3
A5
350
4D
  3
A6
350
4E
  3
A7
350
4F
  3
A8
350
50
  3
A9
350
51
  3
B0
350
52
  3
B1
350
53
  3
B2
350
54
  3
B3
350
55
  3
B4
350
56
  3
B5
350
57
  3
B6
350
58
  3
B7
350
59
  3
B8
350
5A
  3
B9
350
5B
  3
C0
350
5C
  3
C1
350
5D
  3
C2
350
5E
  3
C3
350
5F
  3
C4
350
60
  3
C5
350
61
  3
C6
350
62
  3
C7
350
63
  3
C8
350
64
  3
C9
350
65
  3
D0
350
66
  3
D1
350
67
  3
D2
350
68
  0
DICTIONARY
  5
3B8
102
{ACAD_REACTORS
330
C
102
}
330
C
100
AcDbDictionary
281
     1
  0
DICTIONARY
  5
69
102
{ACAD_REACTORS
330
C
102
}
330
C
100
AcDbDictionary
281
     1
  3
Standard
350
6A
  0
DICTIONARY
  5
2A
102
{ACAD_REACTORS
330
C
102
}
330
C
100
AcDbDictionary
281
     1
  3
2dWireframe
350
2F
  3
Basic
350
32
  3
Brighten
350
36
  3
ColorChange
350
3A
  3
Conceptual
350
34
  3
Dim
350
35
  3
EdgeColorOff
350
3D
  3
Facepattern
350
39
  3
Flat
350
2B
  3
FlatWithEdges
350
2C
  3
Gouraud
350
2D
  3
GouraudWithEdges
350
2E
  3
Hidden
350
31
  3
JitterOff
350
3B
  3
Linepattern
350
38
  3
OverhangOff
350
3C
  3
Realistic
350
33
  3
Shaded
350
42
  3
Shaded with edges
350
41
  3
Shades of Gray
350
3E
  3
Sketchy
350
3F
  3
Thicken
350
37
  3
Wireframe
350
30
  3
X-Ray
350
40
  0
XRECORD
  5
3B4
102
{ACAD_REACTORS
330
C
102
}
330
C
100
AcDbXrecord
280
     1
 90
        1
330
6A
  0
DICTIONARY
  5
374
102
{ACAD_REACTORS
330
C
102
}
330
C
100
AcDbDictionary
281
     1
  3
CANNOSCALE
350
375
  3
CENTEREXE
350
3B9
  3
CENTERLTYPEFILE
350
3BA
  3
CMLEADERSTYLE
350
3B6
  3
CTABLESTYLE
350
3B5
  3
MSLTSCALE
350
376
  3
XCLIPFRAME
350
377
  0
XRECORD
  5
373
102
{ACAD_REACTORS
330
372
102
}
330
372
100
AcDbXrecord
280
     1
102
VTR_0.000_0.000_1.000_1.000_VISUALSTYLE
340
2F
102
VTR_0.000_0.000_1.000_1.000_GRIDDISPLAY
 70
     3
102
VTR_0.000_0.000_1.000_1.000_GRIDMAJOR
 70
     5
102
VTR_0.000_0.000_1.000_1.000_DEFAULTLIGHTING
280
     1
102
VTR_0.000_0.000_1.000_1.000_DEFAULTLIGHTINGTYPE
 70
     1
102
VTR_0.000_0.000_1.000_1.000_BRIGHTNESS
141
0.0
102
VTR_0.000_0.000_1.000_1.000_CONTRAST
142
0.0
  0
LAYOUT
  5
1E
102
{ACAD_REACTORS
330
1A
102
}
330
1A
100
AcDbPlotSettings
  1

  2
none_device
  4

  6

 40
0.0
 41
0.0
 42
0.0
 43
0.0
 44
0.0
 45
0.0
 46
0.0
 47
0.0
 48
0.0
 49
0.0
140
0.0
141
0.0
142
1.0
143
1.0
 70
   688
 72
     1
 73
     0
 74
     5
  7

 75
    16
 76
     0
 77
     5
 78
   300
147
1.0
148
0.0
149
0.0
100
AcDbLayout
  1
Layout1
 70
     1
 71
     1
 10
0.0
 20
0.0
 11
420.0
 21
297.0
 12
0.0
 22
0.0
 32
0.0
 14
1.000000000000000E+20
 24
1.000000000000000E+20
 34
1.000000000000000E+20
 15
-1.000000000000000E+20
 25
-1.000000000000000E+20
 35
-1.000000000000000E+20
146
0.0
 13
0.0
 23
0.0
 33
0.0
 16
1.0
 26
0.0
 36
0.0
 17
0.0
 27
1.0
 37
0.0
 76
     0
330
1B
  0
LAYOUT
  5
26
102
{ACAD_REACTORS
330
1A
102
}
330
1A
100
AcDbPlotSettings
  1

  2
none_device
  4

  6

 40
0.0
 41
0.0
 42
0.0
 43
0.0
 44
0.0
 45
0.0
 46
0.0
 47
0.0
 48
0.0
 49
0.0
140
0.0
141
0.0
142
1.0
143
1.0
 70
   688
 72
     1
 73
     0
 74
     5
  7

 75
    16
 76
     0
 77
     5
 78
   300
147
1.0
148
0.0
149
0.0
100
AcDbLayout
  1
Layout2
 70
     1
 71
     2
 10
0.0
 20
0.0
 11
0.0
 21
0.0
 12
0.0
 22
0.0
 32
0.0
 14
0.0
 24
0.0
 34
0.0
 15
0.0
 25
0.0
 35
0.0
146
0.0
 13
0.0
 23
0.0
 33
0.0
 16
1.0
 26
0.0
 36
0.0
 17
0.0
 27
1.0
 37
0.0
 76
     0
330
23
  0
LAYOUT
  5
22
102
{ACAD_REACTORS
330
1A
102
}
330
1A
100
AcDbPlotSettings
  1

  2
none_device
  4
Letter_(8.50_x_11.00_Inches)
  6

 40
6.35
 41
6.35
 42
6.35000508
 43
6.35000508
 44
215.9
 45
279.4
 46
0.0
 47
0.0
 48
0.0
 49
0.0
140
0.0
141
0.0
142
1.0
143
1.0
 70
  1712
 72
     1
 73
     0
 74
     0
  7

 75
     0
 76
     0
 77
     5
 78
   300
147
1.0
148
0.0
149
0.0
100
AcDbLayout
  1
Model
 70
     1
 71
     0
 10
-1050.0
 20
-742.5
 11
1050.0
 21
742.5
 12
0.0
 22
0.0
 32
0.0
 14
-1050.0
 24
-742.5
 34
0.0
 15
1050.0
 25
742.5
 35
0.0
146
0.0
 13
0.0
 23
0.0
 33
0.0
 16
1.0
 26
0.0
 36
0.0
 17
0.0
 27
1.0
 37
0.0
 76
     0
330
1F
331
29
  0
MATERIAL
  5
45
102
{ACAD_REACTORS
330
43
102
}
102
{ACAD_XDICTIONARY
360
3AA
102
}
330
43
100
AcDbMaterial
  1
ByBlock
  0
MATERIAL
  5
44
102
{ACAD_REACTORS
330
43
102
}
102
{ACAD_XDICTIONARY
360
3A8
102
}
330
43
100
AcDbMaterial
  1
ByLayer
  0
MATERIAL
  5
46
102
{ACAD_REACTORS
330
43
102
}
102
{ACAD_XDICTIONARY
360
3AC
102
}
330
43
100
AcDbMaterial
  1
Global
  0
MLEADERSTYLE
  5
6C
102
{ACAD_REACTORS
330
6B
102
}
102
{ACAD_XDICTIONARY
360
3B2
102
}
330
6B
100
AcDbMLeaderStyle
170
     2
171
     1
172
     0
 90
        2
 40
0.0
 41
0.0
173
     1
 91
-1056964608
340
14
 92
       -2
290
     1
 42
2.0
291
     1
 43
8.0
  3
Standard
341
0
 44
4.0
300

342
11
174
     1
178
     6
175
     1
176
     0
 93
-1056964608
 45
4.0
292
     0
297
     0
 46
4.0
343
0
 94
-1056964608
 47
1.0
 49
1.0
140
1.0
293
     1
141
0.0
294
     1
177
     0
142
1.0
295
     0
296
     0
143
3.75
1001
ACAD_MLEADERVER
1070
     2
  0
MLINESTYLE
  5
18
102
{ACAD_REACTORS
330
17
102
}
330
17
100
AcDbMlineStyle
  2
Standard
 70
     0
  3

 62
   256
 51
90.0
 52
90.0
 71
     2
 49
0.5
 62
   256
  6
BYLAYER
 49
-0.5
 62
   256
  6
BYLAYER
  0
ACDBPLACEHOLDER
  5
F
102
{ACAD_REACTORS
330
E
102
}
330
E
  0
SCALE
  5
48
102
{ACAD_REACTORS
330
47
102
}
330
47
100
AcDbScale
 70
     0
300
1:1
140
1.0
141
1.0
290
     1
  0
SCALE
  5
49
102
{ACAD_REACTORS
330
47
102
}
330
47
100
AcDbScale
 70
     0
300
1:2
140
1.0
141
2.0
290
     0
  0
SCALE
  5
4A
102
{ACAD_REACTORS
330
47
102
}
330
47
100
AcDbScale
 70
     0
300
1:4
140
1.0
141
4.0
290
     0
  0
SCALE
  5
4B
102
{ACAD_REACTORS
330
47
102
}
330
47
100
AcDbScale
 70
     0
300
1:5
140
1.0
141
5.0
290
     0
  0
SCALE
  5
4C
102
{ACAD_REACTORS
330
47
102
}
330
47
100
AcDbScale
 70
     0
300
1:8
140
1.0
141
8.0
290
     0
  0
SCALE
  5
4D
102
{ACAD_REACTORS
330
47
102
}
330
47
100
AcDbScale
 70
     0
300
1:10
140
1.0
141
10.0
290
     0
  0
SCALE
  5
4E
102
{ACAD_REACTORS
330
47
102
}
330
47
100
AcDbScale
 70
     0
300
1:16
140
1.0
141
16.0
290
     0
  0
SCALE
  5
4F
102
{ACAD_REACTORS
330
47
102
}
330
47
100
AcDbScale
 70
     0
300
1:20
140
1.0
141
20.0
290
     0
  0
SCALE
  5
50
102
{ACAD_REACTORS
330
47
102
}
330
47
100
AcDbScale
 70
     0
300
1:30
140
1.0
141
30.0
290
     0
  0
SCALE
  5
51
102
{ACAD_REACTORS
330
47
102
}
330
47
100
AcDbScale
 70
     0
300
1:40
140
1.0
141
40.0
290
     0
  0
SCALE
  5
52
102
{ACAD_REACTORS
330
47
102
}
330
47
100
AcDbScale
 70
     0
300
1:50
140
1.0
141
50.0
290
     0
  0
SCALE
  5
53
102
{ACAD_REACTORS
330
47
102
}
330
47
100
AcDbScale
 70
     0
300
1:100
140
1.0
141
100.0
290
     0
  0
SCALE
  5
54
102
{ACAD_REACTORS
330
47
102
}
330
47
100
AcDbScale
 70
     0
300
2:1
140
2.0
141
1.0
290
     0
  0
SCALE
  5
55
102
{ACAD_REACTORS
330
47
102
}
330
47
100
AcDbScale
 70
     0
300
4:1
140
4.0
141
1.0
290
     0
  0
SCALE
  5
56
102
{ACAD_REACTORS
330
47
102
}
330
47
100
AcDbScale
 70
     0
300
8:1
140
8.0
141
1.0
290
     0
  0
SCALE
  5
57
102
{ACAD_REACTORS
330
47
102
}
330
47
100
AcDbScale
 70
     0
300
10:1
140
10.0
141
1.0
290
     0
  0
SCALE
  5
58
102
{ACAD_REACTORS
330
47
102
}
330
47
100
AcDbScale
 70
     0
300
100:1
140
100.0
141
1.0
290
     0
  0
SCALE
  5
59
102
{ACAD_REACTORS
330
47
102
}
330
47
100
AcDbScale
 70
     0
300
1/128" = 1'-0"
140
0.0078125
141
12.0
290
     0
  0
SCALE
  5
5A
102
{ACAD_REACTORS
330
47
102
}
330
47
100
AcDbScale
 70
     0
300
1/64" = 1'-0"
140
0.015625
141
12.0
290
     0
  0
SCALE
  5
5B
102
{ACAD_REACTORS
330
47
102
}
330
47
100
AcDbScale
 70
     0
300
1/32" = 1'-0"
140
0.03125
141
12.0
290
     0
  0
SCALE
  5
5C
102
{ACAD_REACTORS
330
47
102
}
330
47
100
AcDbScale
 70
     0
300
1/16" = 1'-0"
140
0.0625
141
12.0
290
     0
  0
SCALE
  5
5D
102
{ACAD_REACTORS
330
47
102
}
330
47
100
AcDbScale
 70
     0
300
3/32" = 1'-0"
140
0.09375
141
12.0
290
     0
  0
SCALE
  5
5E
102
{ACAD_REACTORS
330
47
102
}
330
47
100
AcDbScale
 70
     0
300
1/8" = 1'-0"
140
0.125
141
12.0
290
     0
  0
SCALE
  5
5F
102
{ACAD_REACTORS
330
47
102
}
330
47
100
AcDbScale
 70
     0
300
3/16" = 1'-0"
140
0.1875
141
12.0
290
     0
  0
SCALE
  5
60
102
{ACAD_REACTORS
330
47
102
}
330
47
100
AcDbScale
 70
     0
300
1/4" = 1'-0"
140
0.25
141
12.0
290
     0
  0
SCALE
  5
61
102
{ACAD_REACTORS
330
47
102
}
330
47
100
AcDbScale
 70
     0
300
3/8" = 1'-0"
140
0.375
141
12.0
290
     0
  0
SCALE
  5
62
102
{ACAD_REACTORS
330
47
102
}
330
47
100
AcDbScale
 70
     0
300
1/2" = 1'-0"
140
0.5
141
12.0
290
     0
  0
SCALE
  5
63
102
{ACAD_REACTORS
330
47
102
}
330
47
100
AcDbScale
 70
     0
300
3/4" = 1'-0"
140
0.75
141
12.0
290
     0
  0
SCALE
  5
64
102
{ACAD_REACTORS
330
47
102
}
330
47
100
AcDbScale
 70
     0
300
1" = 1'-0"
140
1.0
141
12.0
290
     0
  0
SCALE
  5
65
102
{ACAD_REACTORS
330
47
102
}
330
47
100
AcDbScale
 70
     0
300
1-1/2" = 1'-0"
140
1.5
141
12.0
290
     0
  0
SCALE
  5
66
102
{ACAD_REACTORS
330
47
102
}
330
47
100
AcDbScale
 70
     0
300
3" = 1'-0"
140
3.0
141
12.0
290
     0
  0
SCALE
  5
67
102
{ACAD_REACTORS
330
47
102
}
330
47
100
AcDbScale
 70
     0
300
6" = 1'-0"
140
6.0
141
12.0
290
     0
  0
SCALE
  5
68
102
{ACAD_REACTORS
330
47
102
}
330
47
100
AcDbScale
 70
     0
300
1'-0" = 1'-0"
140
12.0
141
12.0
290
     0
  0
TABLESTYLE
  5
6A
102
{ACAD_REACTORS
330
69
102
}
102
{ACAD_XDICTIONARY
360
3AE
102
}
330
69
100
AcDbTableStyle
  3
Standard
 70
     0
 71
     0
 40
0.06
 41
0.06
280
     0
281
     0
  7
Standard
140
4.5
170
     2
 62
     0
 63
   257
283
     0
274
    -2
284
     1
 64
     0
275
    -2
285
     1
 65
     0
276
    -2
286
     1
 66
     0
277
    -2
287
     1
 67
     0
278
    -2
288
     1
 68
     0
279
    -2
289
     1
 69
     0
  7
Standard
140
6.0
170
     5
 62
     0
 63
   257
283
     0
274
    -2
284
     1
 64
     0
275
    -2
285
     1
 65
     0
276
    -2
286
     1
 66
     0
277
    -2
287
     1
 67
     0
278
    -2
288
     1
 68
     0
279
    -2
289
     1
 69
     0
  7
Standard
140
4.5
170
     5
 62
     0
 63
   257
283
     0
274
    -2
284
     1
 64
     0
275
    -2
285
     1
 65
     0
276
    -2
286
     1
 66
     0
277
    -2
287
     1
 67
     0
278
    -2
288
     1
 68
     0
279
    -2
289
     1
 69
     0
  0
VISUALSTYLE
  5
2F
102
{ACAD_REACTORS
330
2A
102
}
102
{ACAD_XDICTIONARY
360
380
102
}
330
2A
100
AcDbVisualStyle
  2
2dWireframe
 70
     4
 71
     0
 72
     2
 73
     0
 90
        0
 40
0.6
 41
30.0
 62
     5
 63
     7
421
 16777215
 74
     1
 91
        4
 64
     7
 65
   257
 75
     1
175
     1
 42
1.0
 92
        0
 66
   257
 43
1.0
 76
     1
 77
     6
 78
     2
 67
     7
 79
     5
170
     0
171
     0
290
     0
174
     0
 93
        1
 44
0.0
173
     0
291
     0
 45
0.0
1001
ACAD
1000
AcDbSavedByObjectVersion
1070
     0
  0
VISUALSTYLE
  5
32
102
{ACAD_REACTORS
330
2A
102
}
102
{ACAD_XDICTIONARY
360
386
102
}
330
2A
100
AcDbVisualStyle
  2
Basic
 70
     7
 71
     1
 72
     0
 73
     1
 90
        0
 40
0.6
 41
30.0
 62
     5
 63
     7
421
 16777215
 74
     0
 91
        4
 64
     7
 65
   257
 75
     1
175
     1
 42
1.0
 92
        8
 66
     7
 43
1.0
 76
     1
 77
     6
 78
     2
 67
     7
 79
     5
170
     0
171
     0
290
     0
174
     0
 93
        1
 44
0.0
173
     0
291
     1
 45
0.0
1001
ACAD
1000
AcDbSavedByObjectVersion
1070
     0
  0
VISUALSTYLE
  5
36
102
{ACAD_REACTORS
330
2A
102
}
102
{ACAD_XDICTIONARY
360
38E
102
}
330
2A
100
AcDbVisualStyle
  2
Brighten
 70
    12
 71
     2
 72
     2
 73
     0
 90
        0
 40
0.6
 41
30.0
 62
     5
 63
     7
421
 16777215
 74
     1
 91
        4
 64
     7
 65
   257
 75
     1
175
     1
 42
1.0
 92
        8
 66
     7
 43
1.0
 76
     1
 77
     6
 78
     2
 67
     7
 79
     5
170
     0
171
     0
290
     0
174
     0
 93
        1
 44
50.0
173
     0
291
     1
 45
0.0
1001
ACAD
1000
AcDbSavedByObjectVersion
1070
     0
  0
VISUALSTYLE
  5
3A
102
{ACAD_REACTORS
330
2A
102
}
102
{ACAD_XDICTIONARY
360
396
102
}
330
2A
100
AcDbVisualStyle
  2
ColorChange
 70
    16
 71
     2
 72
     2
 73
     3
 90
        0
 40
0.6
 41
30.0
 62
     5
 63
     8
421
  8421504
 74
     1
 91
        4
 64
     7
 65
   257
 75
     1
175
     1
 42
1.0
 92
        8
 66
     8
424
  8421504
 43
1.0
 76
     1
 77
     6
 78
     2
 67
     7
 79
     5
170
     0
171
     0
290
     0
174
     0
 93
        1
 44
0.0
173
     0
291
     1
 45
0.0
1001
ACAD
1000
AcDbSavedByObjectVersion
1070
     0
  0
VISUALSTYLE
  5
34
102
{ACAD_REACTORS
330
2A
102
}
102
{ACAD_XDICTIONARY
360
38A
102
}
330
2A
100
AcDbVisualStyle
  2
Conceptual
 70
     9
 71
     3
 72
     2
 73
     0
 90
        0
 40
0.6
 41
30.0
 62
     5
 63
     7
421
 16777215
 74
     2
 91
        2
 64
     7
 65
   257
 75
     1
175
     1
 42
179.0
 92
        8
 66
     7
 43
1.0
 76
     1
 77
     6
 78
     2
 67
     7
 79
     3
170
     0
171
     0
290
     0
174
     0
 93
        1
 44
0.0
173
     0
291
     0
 45
0.0
1001
ACAD
1000
AcDbSavedByObjectVersion
1070
     0
  0
VISUALSTYLE
  5
35
102
{ACAD_REACTORS
330
2A
102
}
102
{ACAD_XDICTIONARY
360
38C
102
}
330
2A
100
AcDbVisualStyle
  2
Dim
 70
    11
 71
     2
 72
     2
 73
     0
 90
        0
 40
0.6
 41
30.0
 62
     5
 63
     7
421
 16777215
 74
     1
 91
        4
 64
     7
 65
   257
 75
     1
175
     1
 42
1.0
 92
        8
 66
     7
 43
1.0
 76
     1
 77
     6
 78
     2
 67
     7
 79
     5
170
     0
171
     0
290
     0
174
     0
 93
        1
 44
-50.0
173
     0
291
     1
 45
0.0
1001
ACAD
1000
AcDbSavedByObjectVersion
1070
     0
  0
VISUALSTYLE
  5
3D
102
{ACAD_REACTORS
330
2A
102
}
102
{ACAD_XDICTIONARY
360
39C
102
}
330
2A
100
AcDbVisualStyle
  2
EdgeColorOff
 70
    22
 71
     2
 72
     2
 73
     0
 90
        0
 40
0.6
 41
30.0
 62
     5
 63
     7
421
 16777215
 74
     1
 91
        4
 64
     7
 65
   257
 75
     1
175
     1
 42
1.0
 92
        8
 66
     7
 43
1.0
 76
     1
 77
     6
 78
     2
 67
     7
 79
     5
170
     0
171
     0
290
     0
174
     0
 93
        1
 44
0.0
173
     0
291
     1
 45
0.0
1001
ACAD
1000
AcDbSavedByObjectVersion
1070
     0
  0
VISUALSTYLE
  5
39
102
{ACAD_REACTORS
330
2A
102
}
102
{ACAD_XDICTIONARY
360
394
102
}
330
2A
100
AcDbVisualStyle
  2
Facepattern
 70
    15
 71
     2
 72
     2
 73
     0
 90
        0
 40
0.6
 41
30.0
 62
     5
 63
     7
421
 16777215
 74
     1
 91
        4
 64
     7
 65
   257
 75
     1
175
     1
 42
1.0
 92
        8
 66
     7
 43
1.0
 76
     1
 77
     6
 78
     2
 67
     7
 79
     5
170
     0
171
     0
290
     0
174
     0
 93
        1
 44
0.0
173
     0
291
     1
 45
0.0
1001
ACAD
1000
AcDbSavedByObjectVersion
1070
     0
  0
VISUALSTYLE
  5
2B
102
{ACAD_REACTORS
330
2A
102
}
102
{ACAD_XDICTIONARY
360
378
102
}
330
2A
100
AcDbVisualStyle
  2
Flat
 70
     0
 71
     2
 72
     1
 73
     1
 90
        2
 40
0.6
 41
30.0
 62
     5
 63
     7
421
 16777215
 74
     0
 91
        0
 64
     7
 65
   257
 75
     1
175
     1
 42
1.0
 92
        8
 66
     7
 43
1.0
 76
     1
 77
     6
 78
     2
 67
     7
 79
     5
170
     0
171
     0
290
     0
174
     0
 93
       13
 44
0.0
173
     0
291
     1
 45
0.0
1001
ACAD
1000
AcDbSavedByObjectVersion
1070
     0
  0
VISUALSTYLE
  5
2C
102
{ACAD_REACTORS
330
2A
102
}
102
{ACAD_XDICTIONARY
360
37A
102
}
330
2A
100
AcDbVisualStyle
  2
FlatWithEdges
 70
     1
 71
     2
 72
     1
 73
     1
 90
        2
 40
0.6
 41
30.0
 62
     5
 63
     7
421
 16777215
 74
     1
 91
        0
 64
     7
 65
   257
 75
     1
175
     1
 42
1.0
 92
        0
 66
   257
 43
1.0
 76
     1
 77
     6
 78
     2
 67
     7
 79
     5
170
     0
171
     0
290
     0
174
     0
 93
       13
 44
0.0
173
     0
291
     1
 45
0.0
1001
ACAD
1000
AcDbSavedByObjectVersion
1070
     0
  0
VISUALSTYLE
  5
2D
102
{ACAD_REACTORS
330
2A
102
}
102
{ACAD_XDICTIONARY
360
37C
102
}
330
2A
100
AcDbVisualStyle
  2
Gouraud
 70
     2
 71
     2
 72
     2
 73
     1
 90
        2
 40
0.6
 41
30.0
 62
     5
 63
     7
421
 16777215
 74
     0
 91
        0
 64
     7
 65
   257
 75
     1
175
     1
 42
1.0
 92
        0
 66
     7
 43
1.0
 76
     1
 77
     6
 78
     2
 67
     7
 79
     5
170
     0
171
     0
290
     0
174
     0
 93
       13
 44
0.0
173
     0
291
     1
 45
0.0
1001
ACAD
1000
AcDbSavedByObjectVersion
1070
     0
  0
VISUALSTYLE
  5
2E
102
{ACAD_REACTORS
330
2A
102
}
102
{ACAD_XDICTIONARY
360
37E
102
}
330
2A
100
AcDbVisualStyle
  2
GouraudWithEdges
 70
     3
 71
     2
 72
     2
 73
     1
 90
        2
 40
0.6
 41
30.0
 62
     5
 63
     7
421
 16777215
 74
     1
 91
        0
 64
     7
 65
   257
 75
     1
175
     1
 42
1.0
 92
        0
 66
   257
 43
1.0
 76
     1
 77
     6
 78
     2
 67
     7
 79
     5
170
     0
171
     0
290
     0
174
     0
 93
       13
 44
0.0
173
     0
291
     1
 45
0.0
1001
ACAD
1000
AcDbSavedByObjectVersion
1070
     0
  0
VISUALSTYLE
  5
31
102
{ACAD_REACTORS
330
2A
102
}
102
{ACAD_XDICTIONARY
360
384
102
}
330
2A
100
AcDbVisualStyle
  2
Hidden
 70
     6
 71
     1
 72
     2
 73
     2
 90
        0
 40
0.6
 41
30.0
 62
     5
 63
     7
421
 16777215
 74
     2
 91
        2
 64
     7
 65
   257
 75
     2
175
     1
 42
40.0
 92
        0
 66
   257
 43
1.0
 76
     1
 77
     6
 78
     2
 67
     7
 79
     3
170
     0
171
     0
290
     0
174
     0
 93
        1
 44
0.0
173
     0
291
     0
 45
0.0
1001
ACAD
1000
AcDbSavedByObjectVersion
1070
     0
  0
VISUALSTYLE
  5
3B
102
{ACAD_REACTORS
330
2A
102
}
102
{ACAD_XDICTIONARY
360
398
102
}
330
2A
100
AcDbVisualStyle
  2
JitterOff
 70
    20
 71
     2
 72
     2
 73
     0
 90
        0
 40
0.6
 41
30.0
 62
     5
 63
     7
421
 16777215
 74
     1
 91
        4
 64
     7
 65
   257
 75
     1
175
     1
 42
1.0
 92
       10
 66
     7
 43
1.0
 76
     1
 77
     6
 78
     2
 67
     7
 79
     5
170
     0
171
     0
290
     0
174
     0
 93
        1
 44
0.0
173
     0
291
     1
 45
0.0
1001
ACAD
1000
AcDbSavedByObjectVersion
1070
     0
  0
VISUALSTYLE
  5
38
102
{ACAD_REACTORS
330
2A
102
}
102
{ACAD_XDICTIONARY
360
392
102
}
330
2A
100
AcDbVisualStyle
  2
Linepattern
 70
    14
 71
     2
 72
     2
 73
     0
 90
        0
 40
0.6
 41
30.0
 62
     5
 63
     7
421
 16777215
 74
     1
 91
        4
 64
     7
 65
   257
 75
     7
175
     7
 42
1.0
 92
        8
 66
     7
 43
1.0
 76
     1
 77
     6
 78
     2
 67
     7
 79
     5
170
     0
171
     0
290
     0
174
     0
 93
        1
 44
0.0
173
     0
291
     1
 45
0.0
1001
ACAD
1000
AcDbSavedByObjectVersion
1070
     0
  0
VISUALSTYLE
  5
3C
102
{ACAD_REACTORS
330
2A
102
}
102
{ACAD_XDICTIONARY
360
39A
102
}
330
2A
100
AcDbVisualStyle
  2
OverhangOff
 70
    21
 71
     2
 72
     2
 73
     0
 90
        0
 40
0.6
 41
30.0
 62
     5
 63
     7
421
 16777215
 74
     1
 91
        4
 64
     7
 65
   257
 75
     1
175
     1
 42
1.0
 92
        9
 66
     7
 43
1.0
 76
     1
 77
     6
 78
     2
 67
     7
 79
     5
170
     0
171
     0
290
     0
174
     0
 93
        1
 44
0.0
173
     0
291
     1
 45
0.0
1001
ACAD
1000
AcDbSavedByObjectVersion
1070
     0
  0
VISUALSTYLE
  5
33
102
{ACAD_REACTORS
330
2A
102
}
102
{ACAD_XDICTIONARY
360
388
102
}
330
2A
100
AcDbVisualStyle
  2
Realistic
 70
     8
 71
     2
 72
     3
 73
     0
 90
        2
 40
0.6
 41
30.0
 62
     5
 63
     7
421
 16777215
 74
     0
 91
        0
 64
     7
 65
   257
 75
     1
175
     1
 42
1.0
 92
        8
 66
   257
 43
1.0
 76
     1
 77
     6
 78
     2
 67
     7
 79
     3
170
     0
171
     0
290
     0
174
     0
 93
       13
 44
0.0
173
     0
291
     0
 45
0.0
1001
ACAD
1000
AcDbSavedByObjectVersion
1070
     0
  0
VISUALSTYLE
  5
42
102
{ACAD_REACTORS
330
2A
102
}
102
{ACAD_XDICTIONARY
360
3A6
102
}
330
2A
100
AcDbVisualStyle
  2
Shaded
 70
    27
 71
     2
 72
     2
 73
     1
 90
        2
 40
0.6
 41
30.0
 62
     5
 63
     7
421
 16777215
 74
     0
 91
        4
 64
     7
 65
   257
 75
     1
175
     1
 42
1.0
 92
        8
 66
   257
 43
1.0
 76
     1
 77
     6
 78
     2
 67
     8
425
  7895160
 79
     3
170
     0
171
     0
290
     0
174
     0
 93
        5
 44
0.0
173
     0
291
     0
 45
0.0
1001
ACAD
1000
AcDbSavedByObjectVersion
1070
     0
  0
VISUALSTYLE
  5
41
102
{ACAD_REACTORS
330
2A
102
}
102
{ACAD_XDICTIONARY
360
3A4
102
}
330
2A
100
AcDbVisualStyle
  2
Shaded with edges
 70
    26
 71
     2
 72
     2
 73
     1
 90
        2
 40
0.6
 41
30.0
 62
     5
 63
     7
421
 16777215
 74
     1
 91
       10
 64
     7
 65
   257
 75
     2
175
     1
 42
1.0
 92
        8
 66
   257
 43
1.0
 76
     1
 77
     6
 78
     2
 67
     7
 79
     3
170
     0
171
     0
290
     0
174
     0
 93
        5
 44
0.0
173
     0
291
     0
 45
0.0
1001
ACAD
1000
AcDbSavedByObjectVersion
1070
     0
  0
VISUALSTYLE
  5
3E
102
{ACAD_REACTORS
330
2A
102
}
102
{ACAD_XDICTIONARY
360
39E
102
}
330
2A
100
AcDbVisualStyle
  2
Shades of Gray
 70
    23
 71
     2
 72
     2
 73
     3
 90
        0
 40
0.6
 41
30.0
 62
     5
 63
     7
421
 16777215
 74
     2
 91
        2
 64
     7
 65
     7
 75
     1
175
     1
 42
40.0
 92
        8
 66
     7
 43
1.0
 76
     1
 77
     6
 78
     2
 67
     7
 79
     3
170
     0
171
     0
290
     0
174
     0
 93
        1
 44
0.0
173
     0
291
     0
 45
0.0
1001
ACAD
1000
AcDbSavedByObjectVersion
1070
     0
  0
VISUALSTYLE
  5
3F
102
{ACAD_REACTORS
330
2A
102
}
102
{ACAD_XDICTIONARY
360
3A0
102
}
330
2A
100
AcDbVisualStyle
  2
Sketchy
 70
    24
 71
     1
 72
     2
 73
     2
 90
        0
 40
0.6
 41
30.0
 62
     5
 63
     7
421
 16777215
 74
     2
 91
        2
 64
     7
 65
     7
 75
     1
175
     1
 42
40.0
 92
       11
 66
     7
 43
1.0
 76
     1
 77
     6
 78
     2
 67
     7
 79
     6
170
     0
171
     0
290
     0
174
     0
 93
        1
 44
0.0
173
     0
291
     0
 45
0.0
1001
ACAD
1000
AcDbSavedByObjectVersion
1070
     0
  0
VISUALSTYLE
  5
37
102
{ACAD_REACTORS
330
2A
102
}
102
{ACAD_XDICTIONARY
360
390
102
}
330
2A
100
AcDbVisualStyle
  2
Thicken
 70
    13
 71
     2
 72
     2
 73
     0
 90
        0
 40
0.6
 41
30.0
 62
     5
 63
     7
421
 16777215
 74
     1
 91
        4
 64
     7
 65
   257
 75
     1
175
     1
 42
1.0
 92
       12
 66
     7
 43
1.0
 76
     1
 77
     6
 78
     2
 67
     7
 79
     5
170
     0
171
     0
290
     0
174
     0
 93
        1
 44
0.0
173
     0
291
     1
 45
0.0
1001
ACAD
1000
AcDbSavedByObjectVersion
1070
     0
  0
VISUALSTYLE
  5
30
102
{ACAD_REACTORS
330
2A
102
}
102
{ACAD_XDICTIONARY
360
382
102
}
330
2A
100
AcDbVisualStyle
  2
Wireframe
 70
     5
 71
     0
 72
     2
 73
     0
 90
        0
 40
0.6
 41
30.0
 62
     5
 63
     7
421
 16777215
 74
     1
 91
        4
 64
     7
 65
   257
 75
     1
175
     1
 42
1.0
 92
        0
 66
   257
 43
1.0
 76
     1
 77
     6
 78
     2
 67
     7
 79
     3
170
     0
171
     0
290
     0
174
     0
 93
        1
 44
0.0
173
     0
291
     0
 45
0.0
1001
ACAD
1000
AcDbSavedByObjectVersion
1070
     0
  0
VISUALSTYLE
  5
40
102
{ACAD_REACTORS
330
2A
102
}
102
{ACAD_XDICTIONARY
360
3A2
102
}
330
2A
100
AcDbVisualStyle
  2
X-Ray
 70
    25
 71
     2
 72
     2
 73
     1
 90
        1
 40
0.5
 41
30.0
 62
     5
 63
     7
421
 16777215
 74
     1
 91
        0
 64
     7
 65
   257
 75
     1
175
     1
 42
1.0
 92
        8
 66
     7
 43
1.0
 76
     1
 77
     6
 78
     2
 67
     7
 79
     3
170
     0
171
     0
290
     0
174
     0
 93
       13
 44
0.0
173
     0
291
     0
 45
0.0
1001
ACAD
1000
AcDbSavedByObjectVersion
1070
     0
  0
DICTIONARYVAR
  5
375
102
{ACAD_REACTORS
330
374
102
}
330
374
100
DictionaryVariables
280
     0
  1
1:1
  0
DICTIONARYVAR
  5
3B9
102
{ACAD_REACTORS
330
374
102
}
330
374
100
DictionaryVariables
280
     0
  1
3.500000
  0
DICTIONARYVAR
  5
3BA
102
{ACAD_REACTORS
330
374
102
}
330
374
100
DictionaryVariables
280
     0
  1
acadiso.lin
  0
DICTIONARYVAR
  5
3B6
102
{ACAD_REACTORS
330
374
102
}
330
374
100
DictionaryVariables
280
     0
  1
Standard
  0
DICTIONARYVAR
  5
3B5
102
{ACAD_REACTORS
330
374
102
}
330
374
100
DictionaryVariables
280
     0
  1
Standard
  0
DICTIONARYVAR
  5
376
102
{ACAD_REACTORS
330
374
102
}
330
374
100
DictionaryVariables
280
     0
  1
1
  0
DICTIONARYVAR
  5
377
102
{ACAD_REACTORS
330
374
102
}
330
374
100
DictionaryVariables
280
     0
  1
2
  0
DICTIONARY
  5
3AA
330
45
100
AcDbDictionary
280
     1
281
     1
  3
ACAD_XREC_ROUNDTRIP
360
3AB
  0
DICTIONARY
  5
3A8
330
44
100
AcDbDictionary
280
     1
281
     1
  3
ACAD_XREC_ROUNDTRIP
360
3A9
  0
DICTIONARY
  5
3AC
330
46
100
AcDbDictionary
280
     1
281
     1
  3
ACAD_XREC_ROUNDTRIP
360
3AD
  0
DICTIONARY
  5
3B2
330
6C
100
AcDbDictionary
280
     1
281
     1
  3
ACAD_XREC_ROUNDTRIP
360
3B3
  0
DICTIONARY
  5
3AE
330
6A
100
AcDbDictionary
280
     1
281
     1
  3
ACAD_ROUNDTRIP_2008_TABLESTYLE_CELLSTYLEMAP
360
3B0
  3
ACAD_XREC_ROUNDTRIP
360
3AF
  0
DICTIONARY
  5
380
330
2F
100
AcDbDictionary
280
     1
281
     1
  3
ACAD_XREC_ROUNDTRIP
360
381
  0
DICTIONARY
  5
386
330
32
100
AcDbDictionary
280
     1
281
     1
  3
ACAD_XREC_ROUNDTRIP
360
387
  0
DICTIONARY
  5
38E
330
36
100
AcDbDictionary
280
     1
281
     1
  3
ACAD_XREC_ROUNDTRIP
360
38F
  0
DICTIONARY
  5
396
330
3A
100
AcDbDictionary
280
     1
281
     1
  3
ACAD_XREC_ROUNDTRIP
360
397
  0
DICTIONARY
  5
38A
330
34
100
AcDbDictionary
280
     1
281
     1
  3
ACAD_XREC_ROUNDTRIP
360
38B
  0
DICTIONARY
  5
38C
330
35
100
AcDbDictionary
280
     1
281
     1
  3
ACAD_XREC_ROUNDTRIP
360
38D
  0
DICTIONARY
  5
39C
330
3D
100
AcDbDictionary
280
     1
281
     1
  3
ACAD_XREC_ROUNDTRIP
360
39D
  0
DICTIONARY
  5
394
330
39
100
AcDbDictionary
280
     1
281
     1
  3
ACAD_XREC_ROUNDTRIP
360
395
  0
DICTIONARY
  5
378
330
2B
100
AcDbDictionary
280
     1
281
     1
  3
ACAD_XREC_ROUNDTRIP
360
379
  0
DICTIONARY
  5
37A
330
2C
100
AcDbDictionary
280
     1
281
     1
  3
ACAD_XREC_ROUNDTRIP
360
37B
  0
DICTIONARY
  5
37C
330
2D
100
AcDbDictionary
280
     1
281
     1
  3
ACAD_XREC_ROUNDTRIP
360
37D
  0
DICTIONARY
  5
37E
330
2E
100
AcDbDictionary
280
     1
281
     1
  3
ACAD_XREC_ROUNDTRIP
360
37F
  0
DICTIONARY
  5
384
330
31
100
AcDbDictionary
280
     1
281
     1
  3
ACAD_XREC_ROUNDTRIP
360
385
  0
DICTIONARY
  5
398
330
3B
100
AcDbDictionary
280
     1
281
     1
  3
ACAD_XREC_ROUNDTRIP
360
399
  0
DICTIONARY
  5
392
330
38
100
AcDbDictionary
280
     1
281
     1
  3
ACAD_XREC_ROUNDTRIP
360
393
  0
DICTIONARY
  5
39A
330
3C
100
AcDbDictionary
280
     1
281
     1
  3
ACAD_XREC_ROUNDTRIP
360
39B
  0
DICTIONARY
  5
388
330
33
100
AcDbDictionary
280
     1
281
     1
  3
ACAD_XREC_ROUNDTRIP
360
389
  0
DICTIONARY
  5
3A6
330
42
100
AcDbDictionary
280
     1
281
     1
  3
ACAD_XREC_ROUNDTRIP
360
3A7
  0
DICTIONARY
  5
3A4
330
41
100
AcDbDictionary
280
     1
281
     1
  3
ACAD_XREC_ROUNDTRIP
360
3A5
  0
DICTIONARY
  5
39E
330
3E
100
AcDbDictionary
280
     1
281
     1
  3
ACAD_XREC_ROUNDTRIP
360
39F
  0
DICTIONARY
  5
3A0
330
3F
100
AcDbDictionary
280
     1
281
     1
  3
ACAD_XREC_ROUNDTRIP
360
3A1
  0
DICTIONARY
  5
390
330
37
100
AcDbDictionary
280
     1
281
     1
  3
ACAD_XREC_ROUNDTRIP
360
391
  0
DICTIONARY
  5
382
330
30
100
AcDbDictionary
280
     1
281
     1
  3
ACAD_XREC_ROUNDTRIP
360
383
  0
DICTIONARY
  5
3A2
330
40
100
AcDbDictionary
280
     1
281
     1
  3
ACAD_XREC_ROUNDTRIP
360
3A3
  0
XRECORD
  5
3AB
102
{ACAD_REACTORS
330
3AA
102
}
330
3AA
100
AcDbXrecord
280
     1
102
MATERIAL
148
0.0
149
0.0
149
0.0
 93
        0
 94
      127
282
     0
 72
     1
 77
     1
171
     1
175
     1
179
     1
273
     0
  0
XRECORD
  5
3A9
102
{ACAD_REACTORS
330
3A8
102
}
330
3A8
100
AcDbXrecord
280
     1
102
MATERIAL
148
0.0
149
0.0
149
0.0
 93
        0
 94
      127
282
     0
 72
     1
 77
     1
171
     1
175
     1
179
     1
273
     0
  0
XRECORD
  5
3AD
102
{ACAD_REACTORS
330
3AC
102
}
330
3AC
100
AcDbXrecord
280
     1
102
MATERIAL
148
0.0
149
0.0
149
0.0
 93
        0
 94
      127
282
     0
 72
     1
 77
     1
171
     1
175
     1
179
     1
273
     0
  0
XRECORD
  5
3B3
102
{ACAD_REACTORS
330
3B2
102
}
330
3B2
100
AcDbXrecord
280
     1
102
ACAD_ROUNDTRIP_2010_MLEADER_STYLE
  0
CELLSTYLEMAP
  5
3B0
102
{ACAD_REACTORS
330
3AE
102
}
330
3AE
100
AcDbCellStyleMap
 90
        3
300
CELLSTYLE
  1
TABLEFORMAT_BEGIN
 90
        5
170
     1
 91
        0
 92
    32768
 62
   257
 93
        1
300
CONTENTFORMAT
  1
CONTENTFORMAT_BEGIN
 90
        0
 91
        0
 92
        4
 93
        0
300

 40
0.0
140
1.0
 94
        5
 62
     0
340
11
144
6.0
309
CONTENTFORMAT_END
171
     1
301
MARGIN
  1
CELLMARGIN_BEGIN
 40
1.5
 40
1.5
 40
1.5
 40
1.5
 40
1.5
 40
1.5
309
CELLMARGIN_END
 94
        6
 95
        1
302
GRIDFORMAT
  1
GRIDFORMAT_BEGIN
 90
        0
 91
        1
 62
     0
 92
       -2
340
14
 93
        0
 40
0.045
309
GRIDFORMAT_END
 95
        2
302
GRIDFORMAT
  1
GRIDFORMAT_BEGIN
 90
        0
 91
        1
 62
     0
 92
       -2
340
14
 93
        0
 40
0.045
309
GRIDFORMAT_END
 95
        4
302
GRIDFORMAT
  1
GRIDFORMAT_BEGIN
 90
        0
 91
        1
 62
     0
 92
       -2
340
14
 93
        0
 40
0.045
309
GRIDFORMAT_END
 95
        8
302
GRIDFORMAT
  1
GRIDFORMAT_BEGIN
 90
        0
 91
        1
 62
     0
 92
       -2
340
14
 93
        0
 40
0.045
309
GRIDFORMAT_END
 95
       16
302
GRIDFORMAT
  1
GRIDFORMAT_BEGIN
 90
        0
 91
        1
 62
     0
 92
       -2
340
14
 93
        0
 40
0.045
309
GRIDFORMAT_END
 95
       32
302
GRIDFORMAT
  1
GRIDFORMAT_BEGIN
 90
        0
 91
        1
 62
     0
 92
       -2
340
14
 93
        0
 40
0.045
309
GRIDFORMAT_END
309
TABLEFORMAT_END
  1
CELLSTYLE_BEGIN
 90
        1
 91
        1
300
_TITLE
309
CELLSTYLE_END
300
CELLSTYLE
  1
TABLEFORMAT_BEGIN
 90
        5
170
     1
 91
        0
 92
        0
 62
   257
 93
        1
300
CONTENTFORMAT
  1
CONTENTFORMAT_BEGIN
 90
        0
 91
        0
 92
        4
 93
        0
300

 40
0.0
140
1.0
 94
        5
 62
     0
340
11
144
4.5
309
CONTENTFORMAT_END
171
     1
301
MARGIN
  1
CELLMARGIN_BEGIN
 40
1.5
 40
1.5
 40
1.5
 40
1.5
 40
1.5
 40
1.5
309
CELLMARGIN_END
 94
        6
 95
        1
302
GRIDFORMAT
  1
GRIDFORMAT_BEGIN
 90
        0
 91
        1
 62
     0
 92
       -2
340
14
 93
        0
 40
0.045
309
GRIDFORMAT_END
 95
        2
302
GRIDFORMAT
  1
GRIDFORMAT_BEGIN
 90
        0
 91
        1
 62
     0
 92
       -2
340
14
 93
        0
 40
0.045
309
GRIDFORMAT_END
 95
        4
302
GRIDFORMAT
  1
GRIDFORMAT_BEGIN
 90
        0
 91
        1
 62
     0
 92
       -2
340
14
 93
        0
 40
0.045
309
GRIDFORMAT_END
 95
        8
302
GRIDFORMAT
  1
GRIDFORMAT_BEGIN
 90
        0
 91
        1
 62
     0
 92
       -2
340
14
 93
        0
 40
0.045
309
GRIDFORMAT_END
 95
       16
302
GRIDFORMAT
  1
GRIDFORMAT_BEGIN
 90
        0
 91
        1
 62
     0
 92
       -2
340
14
 93
        0
 40
0.045
309
GRIDFORMAT_END
 95
       32
302
GRIDFORMAT
  1
GRIDFORMAT_BEGIN
 90
        0
 91
        1
 62
     0
 92
       -2
340
14
 93
        0
 40
0.045
309
GRIDFORMAT_END
309
TABLEFORMAT_END
  1
CELLSTYLE_BEGIN
 90
        2
 91
        1
300
_HEADER
309
CELLSTYLE_END
300
CELLSTYLE
  1
TABLEFORMAT_BEGIN
 90
        5
170
     1
 91
        0
 92
        0
 62
   257
 93
        1
300
CONTENTFORMAT
  1
CONTENTFORMAT_BEGIN
 90
        0
 91
        0
 92
        4
 93
        0
300

 40
0.0
140
1.0
 94
        2
 62
     0
340
11
144
4.5
309
CONTENTFORMAT_END
171
     1
301
MARGIN
  1
CELLMARGIN_BEGIN
 40
1.5
 40
1.5
 40
1.5
 40
1.5
 40
1.5
 40
1.5
309
CELLMARGIN_END
 94
        6
 95
        1
302
GRIDFORMAT
  1
GRIDFORMAT_BEGIN
 90
        0
 91
        1
 62
     0
 92
       -2
340
14
 93
        0
 40
0.045
309
GRIDFORMAT_END
 95
        2
302
GRIDFORMAT
  1
GRIDFORMAT_BEGIN
 90
        0
 91
        1
 62
     0
 92
       -2
340
14
 93
        0
 40
0.045
309
GRIDFORMAT_END
 95
        4
302
GRIDFORMAT
  1
GRIDFORMAT_BEGIN
 90
        0
 91
        1
 62
     0
 92
       -2
340
14
 93
        0
 40
0.045
309
GRIDFORMAT_END
 95
        8
302
GRIDFORMAT
  1
GRIDFORMAT_BEGIN
 90
        0
 91
        1
 62
     0
 92
       -2
340
14
 93
        0
 40
0.045
309
GRIDFORMAT_END
 95
       16
302
GRIDFORMAT
  1
GRIDFORMAT_BEGIN
 90
        0
 91
        1
 62
     0
 92
       -2
340
14
 93
        0
 40
0.045
309
GRIDFORMAT_END
 95
       32
302
GRIDFORMAT
  1
GRIDFORMAT_BEGIN
 90
        0
 91
        1
 62
     0
 92
       -2
340
14
 93
        0
 40
0.045
309
GRIDFORMAT_END
309
TABLEFORMAT_END
  1
CELLSTYLE_BEGIN
 90
        3
 91
        2
300
_DATA
309
CELLSTYLE_END
  0
XRECORD
  5
3AF
102
{ACAD_REACTORS
330
3AE
102
}
330
3AE
100
AcDbXrecord
280
     1
102
ACAD_ROUNDTRIP_PRE2007_TABLESTYLE
 90
        4
 91
        0
  1

 92
        4
 93
        0
  2

 94
        4
 95
        0
  3

  0
XRECORD
  5
381
102
{ACAD_REACTORS
330
380
102
}
330
380
100
AcDbXrecord
280
     1
102
RTVSPropertyOp0
 70
     1
102
RTVSPropertyOp1
 70
     1
102
RTVSPropertyOp2
 70
     1
102
RTVSPropertyOp3
 70
     1
102
RTVSPropertyOp4
 70
     1
102
RTVSPropertyOp5
 70
     1
102
RTVSPropertyOp6
 70
     1
102
RTVSPropertyOp7
 70
     1
102
RTVSPropertyOp8
 70
     1
102
RTVSPropertyOp9
 70
     1
102
RTVSPropertyOp10
 70
     1
102
RTVSPropertyOp11
 70
     1
102
RTVSPropertyOp12
 70
     1
102
RTVSPropertyOp13
 70
     1
102
RTVSPropertyOp14
 70
     1
102
RTVSPropertyOp15
 70
     1
102
RTVSPropertyOp16
 70
     1
102
RTVSPropertyOp17
 70
     1
102
RTVSPropertyOp18
 70
     1
102
RTVSPropertyOp19
 70
     1
102
RTVSPropertyOp20
 70
     1
102
RTVSPropertyOp21
 70
     1
102
RTVSPropertyOp22
 70
     1
102
RTVSPropertyOp23
 70
     1
102
RTVSPropertyOp24
 70
     1
102
RTVSPropertyOp25
 70
     1
102
RTVSPropertyOp26
 70
     1
102
RTVSPropertyOp27
 70
     1
102
RTVSPropertyOp28
 70
     1
102
RTVSPropertyOp29
 70
     1
102
RTVSPropertyOp30
 70
     1
102
RTVSPropertyOp31
 70
     1
102
RTVSPropertyOp32
 70
     1
102
RTVSPropertyOp33
 70
     1
102
RTVSPropertyOp34
 70
     1
102
RTVSPropertyOp35
 70
     1
102
RTVSPropertyOp36
 70
     1
102
RTVSPropertyOp37
 70
     1
102
RTVSPropertyOp38
 70
     1
102
RTVSPropertyOp39
 70
     1
102
RTVSPropertyOp40
 70
     1
102
RTVSPropertyOp41
 70
     1
102
RTVSPropertyOp42
 70
     1
102
RTVSPropertyOp43
 70
     1
102
RTVSPropertyOp44
 70
     1
102
RTVSPropertyOp45
 70
     1
102
RTVSPropertyOp46
 70
     1
102
RTVSPropertyOp47
 70
     1
102
RTVSPropertyOp48
 70
     1
102
RTVSPropertyOp49
 70
     1
102
RTVSPropertyOp50
 70
     1
102
RTVSPropertyOp51
 70
     0
102
RTVSPropertyOp52
 70
     0
102
RTVSPropertyOp53
 70
     1
102
RTVSPropertyOp54
 70
     1
102
RTVSPropertyOp55
 70
     1
102
RTVSPropertyOp56
 70
     1
102
RTVSPropertyOp57
 70
     1
102
RTVSPost2010Prop28
280
     1
102
RTVSPost2010PropOp28
 70
     1
102
RTVSPost2010Prop29
280
     1
102
RTVSPost2010PropOp29
 70
     1
102
RTVSPost2010Prop30
280
     0
102
RTVSPost2010PropOp30
 70
     1
102
RTVSPost2010Prop31
280
     0
102
RTVSPost2010PropOp31
 70
     1
102
RTVSPost2010Prop32
280
     0
102
RTVSPost2010PropOp32
 70
     1
102
RTVSPost2010Prop33
280
     0
102
RTVSPost2010PropOp33
 70
     1
102
RTVSPost2010Prop34
280
     0
102
RTVSPost2010PropOp34
 70
     1
102
RTVSPost2010Prop35
280
     0
102
RTVSPost2010PropOp35
 70
     1
102
RTVSPost2010Prop36
280
     0
102
RTVSPost2010PropOp36
 70
     1
102
RTVSPost2010Prop37
 90
       50
102
RTVSPost2010PropOp37
 70
     1
102
RTVSPost2010Prop38
140
0.0
102
RTVSPost2010PropOp38
 70
     1
102
RTVSPost2010Prop39
140
1.0
102
RTVSPost2010PropOp39
 70
     1
102
RTVSPost2010Prop40
 90
        0
102
RTVSPost2010PropOp40
 70
     1
102
RTVSPost2010Prop41ColorIndex
 90
       18
102
RTVSPost2010Prop41ColorRGB
 90
        0
102
RTVSPost2010PropOp41
 70
     1
102
RTVSPost2010Prop42
 90
       50
102
RTVSPost2010PropOp42
 70
     1
102
RTVSPost2010Prop43
 90
        3
102
RTVSPost2010PropOp43
 70
     1
102
RTVSPost2010Prop44ColorIndex
 90
        5
102
RTVSPost2010Prop44ColorRGB
 90
      255
102
RTVSPost2010PropOp44
 70
     1
102
RTVSPost2010Prop45
280
     0
102
RTVSPost2010PropOp45
 70
     1
102
RTVSPost2010Prop46
 90
       50
102
RTVSPost2010PropOp46
 70
     1
102
RTVSPost2010Prop47
 90
       50
102
RTVSPost2010PropOp47
 70
     1
102
RTVSPost2010Prop48
 90
       50
102
RTVSPost2010PropOp48
 70
     1
102
RTVSPost2010Prop49
280
     0
102
RTVSPost2010PropOp49
 70
     1
102
RTVSPost2010Prop50
 90
       50
102
RTVSPost2010PropOp50
 70
     1
102
RTVSPost2010Prop51ColorIndex
 90
      256
102
RTVSPost2010Prop51ColorRGB
 90
-16777216
102
RTVSPost2010PropOp51
 70
     0
102
RTVSPost2010Prop52
140
1.0
102
RTVSPost2010PropOp52
 70
     0
102
RTVSPost2010Prop53
 90
        2
102
RTVSPost2010PropOp53
 70
     1
102
RTVSPost2010Prop54
  1
strokes_ogs.tif
102
RTVSPost2010PropOp54
 70
     1
102
RTVSPost2010Prop55
280
     0
102
RTVSPost2010PropOp55
 70
     1
102
RTVSPost2010Prop56
140
1.0
102
RTVSPost2010PropOp56
 70
     1
102
RTVSPost2010Prop57
140
1.0
102
RTVSPost2010PropOp57
 70
     1
  0
XRECORD
  5
387
102
{ACAD_REACTORS
330
386
102
}
330
386
100
AcDbXrecord
280
     1
102
RTVSPropertyOp0
 70
     1
102
RTVSPropertyOp1
 70
     1
102
RTVSPropertyOp2
 70
     1
102
RTVSPropertyOp3
 70
     1
102
RTVSPropertyOp4
 70
     1
102
RTVSPropertyOp5
 70
     1
102
RTVSPropertyOp6
 70
     1
102
RTVSPropertyOp7
 70
     1
102
RTVSPropertyOp8
 70
     1
102
RTVSPropertyOp9
 70
     1
102
RTVSPropertyOp10
 70
     1
102
RTVSPropertyOp11
 70
     1
102
RTVSPropertyOp12
 70
     1
102
RTVSPropertyOp13
 70
     1
102
RTVSPropertyOp14
 70
     1
102
RTVSPropertyOp15
 70
     1
102
RTVSPropertyOp16
 70
     1
102
RTVSPropertyOp17
 70
     1
102
RTVSPropertyOp18
 70
     1
102
RTVSPropertyOp19
 70
     1
102
RTVSPropertyOp20
 70
     1
102
RTVSPropertyOp21
 70
     1
102
RTVSPropertyOp22
 70
     1
102
RTVSPropertyOp23
 70
     1
102
RTVSPropertyOp24
 70
     1
102
RTVSPropertyOp25
 70
     1
102
RTVSPropertyOp26
 70
     1
102
RTVSPropertyOp27
 70
     1
102
RTVSPropertyOp28
 70
     1
102
RTVSPropertyOp29
 70
     1
102
RTVSPropertyOp30
 70
     1
102
RTVSPropertyOp31
 70
     1
102
RTVSPropertyOp32
 70
     1
102
RTVSPropertyOp33
 70
     1
102
RTVSPropertyOp34
 70
     1
102
RTVSPropertyOp35
 70
     1
102
RTVSPropertyOp36
 70
     1
102
RTVSPropertyOp37
 70
     1
102
RTVSPropertyOp38
 70
     1
102
RTVSPropertyOp39
 70
     1
102
RTVSPropertyOp40
 70
     1
102
RTVSPropertyOp41
 70
     1
102
RTVSPropertyOp42
 70
     1
102
RTVSPropertyOp43
 70
     1
102
RTVSPropertyOp44
 70
     1
102
RTVSPropertyOp45
 70
     1
102
RTVSPropertyOp46
 70
     1
102
RTVSPropertyOp47
 70
     1
102
RTVSPropertyOp48
 70
     1
102
RTVSPropertyOp49
 70
     1
102
RTVSPropertyOp50
 70
     1
102
RTVSPropertyOp51
 70
     0
102
RTVSPropertyOp52
 70
     0
102
RTVSPropertyOp53
 70
     1
102
RTVSPropertyOp54
 70
     1
102
RTVSPropertyOp55
 70
     1
102
RTVSPropertyOp56
 70
     1
102
RTVSPropertyOp57
 70
     1
102
RTVSPost2010Prop28
280
     0
102
RTVSPost2010PropOp28
 70
     1
102
RTVSPost2010Prop29
280
     1
102
RTVSPost2010PropOp29
 70
     1
102
RTVSPost2010Prop30
280
     1
102
RTVSPost2010PropOp30
 70
     1
102
RTVSPost2010Prop31
280
     0
102
RTVSPost2010PropOp31
 70
     1
102
RTVSPost2010Prop32
280
     0
102
RTVSPost2010PropOp32
 70
     1
102
RTVSPost2010Prop33
280
     0
102
RTVSPost2010PropOp33
 70
     1
102
RTVSPost2010Prop34
280
     0
102
RTVSPost2010PropOp34
 70
     1
102
RTVSPost2010Prop35
280
     0
102
RTVSPost2010PropOp35
 70
     1
102
RTVSPost2010Prop36
280
     0
102
RTVSPost2010PropOp36
 70
     1
102
RTVSPost2010Prop37
 90
       50
102
RTVSPost2010PropOp37
 70
     1
102
RTVSPost2010Prop38
140
0.0
102
RTVSPost2010PropOp38
 70
     1
102
RTVSPost2010Prop39
140
1.0
102
RTVSPost2010PropOp39
 70
     1
102
RTVSPost2010Prop40
 90
        0
102
RTVSPost2010PropOp40
 70
     1
102
RTVSPost2010Prop41ColorIndex
 90
       18
102
RTVSPost2010Prop41ColorRGB
 90
        0
102
RTVSPost2010PropOp41
 70
     1
102
RTVSPost2010Prop42
 90
       50
102
RTVSPost2010PropOp42
 70
     1
102
RTVSPost2010Prop43
 90
        3
102
RTVSPost2010PropOp43
 70
     1
102
RTVSPost2010Prop44ColorIndex
 90
        5
102
RTVSPost2010Prop44ColorRGB
 90
      255
102
RTVSPost2010PropOp44
 70
     1
102
RTVSPost2010Prop45
280
     0
102
RTVSPost2010PropOp45
 70
     1
102
RTVSPost2010Prop46
 90
       50
102
RTVSPost2010PropOp46
 70
     1
102
RTVSPost2010Prop47
 90
       50
102
RTVSPost2010PropOp47
 70
     1
102
RTVSPost2010Prop48
 90
       50
102
RTVSPost2010PropOp48
 70
     1
102
RTVSPost2010Prop49
280
     0
102
RTVSPost2010PropOp49
 70
     1
102
RTVSPost2010Prop50
 90
       50
102
RTVSPost2010PropOp50
 70
     1
102
RTVSPost2010Prop51ColorIndex
 90
      256
102
RTVSPost2010Prop51ColorRGB
 90
-16777216
102
RTVSPost2010PropOp51
 70
     0
102
RTVSPost2010Prop52
140
1.0
102
RTVSPost2010PropOp52
 70
     0
102
RTVSPost2010Prop53
 90
        2
102
RTVSPost2010PropOp53
 70
     1
102
RTVSPost2010Prop54
  1
strokes_ogs.tif
102
RTVSPost2010PropOp54
 70
     1
102
RTVSPost2010Prop55
280
     0
102
RTVSPost2010PropOp55
 70
     1
102
RTVSPost2010Prop56
140
1.0
102
RTVSPost2010PropOp56
 70
     1
102
RTVSPost2010Prop57
140
1.0
102
RTVSPost2010PropOp57
 70
     1
  0
XRECORD
  5
38F
102
{ACAD_REACTORS
330
38E
102
}
330
38E
100
AcDbXrecord
280
     1
102
RTVSPropertyOp0
 70
     1
102
RTVSPropertyOp1
 70
     1
102
RTVSPropertyOp2
 70
     1
102
RTVSPropertyOp3
 70
     1
102
RTVSPropertyOp4
 70
     1
102
RTVSPropertyOp5
 70
     1
102
RTVSPropertyOp6
 70
     1
102
RTVSPropertyOp7
 70
     1
102
RTVSPropertyOp8
 70
     1
102
RTVSPropertyOp9
 70
     1
102
RTVSPropertyOp10
 70
     1
102
RTVSPropertyOp11
 70
     1
102
RTVSPropertyOp12
 70
     1
102
RTVSPropertyOp13
 70
     1
102
RTVSPropertyOp14
 70
     1
102
RTVSPropertyOp15
 70
     1
102
RTVSPropertyOp16
 70
     1
102
RTVSPropertyOp17
 70
     1
102
RTVSPropertyOp18
 70
     1
102
RTVSPropertyOp19
 70
     1
102
RTVSPropertyOp20
 70
     1
102
RTVSPropertyOp21
 70
     1
102
RTVSPropertyOp22
 70
     1
102
RTVSPropertyOp23
 70
     1
102
RTVSPropertyOp24
 70
     1
102
RTVSPropertyOp25
 70
     1
102
RTVSPropertyOp26
 70
     1
102
RTVSPropertyOp27
 70
     1
102
RTVSPropertyOp28
 70
     1
102
RTVSPropertyOp29
 70
     1
102
RTVSPropertyOp30
 70
     1
102
RTVSPropertyOp31
 70
     1
102
RTVSPropertyOp32
 70
     1
102
RTVSPropertyOp33
 70
     1
102
RTVSPropertyOp34
 70
     1
102
RTVSPropertyOp35
 70
     1
102
RTVSPropertyOp36
 70
     1
102
RTVSPropertyOp37
 70
     1
102
RTVSPropertyOp38
 70
     1
102
RTVSPropertyOp39
 70
     1
102
RTVSPropertyOp40
 70
     1
102
RTVSPropertyOp41
 70
     1
102
RTVSPropertyOp42
 70
     1
102
RTVSPropertyOp43
 70
     1
102
RTVSPropertyOp44
 70
     1
102
RTVSPropertyOp45
 70
     1
102
RTVSPropertyOp46
 70
     1
102
RTVSPropertyOp47
 70
     1
102
RTVSPropertyOp48
 70
     1
102
RTVSPropertyOp49
 70
     1
102
RTVSPropertyOp50
 70
     1
102
RTVSPropertyOp51
 70
     0
102
RTVSPropertyOp52
 70
     0
102
RTVSPropertyOp53
 70
     1
102
RTVSPropertyOp54
 70
     1
102
RTVSPropertyOp55
 70
     1
102
RTVSPropertyOp56
 70
     1
102
RTVSPropertyOp57
 70
     1
102
RTVSPost2010Prop28
280
     0
102
RTVSPost2010PropOp28
 70
     1
102
RTVSPost2010Prop29
280
     1
102
RTVSPost2010PropOp29
 70
     1
102
RTVSPost2010Prop30
280
     1
102
RTVSPost2010PropOp30
 70
     1
102
RTVSPost2010Prop31
280
     0
102
RTVSPost2010PropOp31
 70
     1
102
RTVSPost2010Prop32
280
     0
102
RTVSPost2010PropOp32
 70
     1
102
RTVSPost2010Prop33
280
     0
102
RTVSPost2010PropOp33
 70
     1
102
RTVSPost2010Prop34
280
     0
102
RTVSPost2010PropOp34
 70
     1
102
RTVSPost2010Prop35
280
     0
102
RTVSPost2010PropOp35
 70
     1
102
RTVSPost2010Prop36
280
     0
102
RTVSPost2010PropOp36
 70
     1
102
RTVSPost2010Prop37
 90
       50
102
RTVSPost2010PropOp37
 70
     1
102
RTVSPost2010Prop38
140
0.0
102
RTVSPost2010PropOp38
 70
     1
102
RTVSPost2010Prop39
140
1.0
102
RTVSPost2010PropOp39
 70
     1
102
RTVSPost2010Prop40
 90
        0
102
RTVSPost2010PropOp40
 70
     1
102
RTVSPost2010Prop41ColorIndex
 90
       18
102
RTVSPost2010Prop41ColorRGB
 90
        0
102
RTVSPost2010PropOp41
 70
     1
102
RTVSPost2010Prop42
 90
       50
102
RTVSPost2010PropOp42
 70
     1
102
RTVSPost2010Prop43
 90
        3
102
RTVSPost2010PropOp43
 70
     1
102
RTVSPost2010Prop44ColorIndex
 90
        5
102
RTVSPost2010Prop44ColorRGB
 90
      255
102
RTVSPost2010PropOp44
 70
     1
102
RTVSPost2010Prop45
280
     0
102
RTVSPost2010PropOp45
 70
     1
102
RTVSPost2010Prop46
 90
       50
102
RTVSPost2010PropOp46
 70
     1
102
RTVSPost2010Prop47
 90
       50
102
RTVSPost2010PropOp47
 70
     1
102
RTVSPost2010Prop48
 90
       50
102
RTVSPost2010PropOp48
 70
     1
102
RTVSPost2010Prop49
280
     0
102
RTVSPost2010PropOp49
 70
     1
102
RTVSPost2010Prop50
 90
       50
102
RTVSPost2010PropOp50
 70
     1
102
RTVSPost2010Prop51ColorIndex
 90
      256
102
RTVSPost2010Prop51ColorRGB
 90
-16777216
102
RTVSPost2010PropOp51
 70
     0
102
RTVSPost2010Prop52
140
1.0
102
RTVSPost2010PropOp52
 70
     0
102
RTVSPost2010Prop53
 90
        2
102
RTVSPost2010PropOp53
 70
     1
102
RTVSPost2010Prop54
  1
strokes_ogs.tif
102
RTVSPost2010PropOp54
 70
     1
102
RTVSPost2010Prop55
280
     0
102
RTVSPost2010PropOp55
 70
     1
102
RTVSPost2010Prop56
140
1.0
102
RTVSPost2010PropOp56
 70
     1
102
RTVSPost2010Prop57
140
1.0
102
RTVSPost2010PropOp57
 70
     1
  0
XRECORD
  5
397
102
{ACAD_REACTORS
330
396
102
}
330
396
100
AcDbXrecord
280
     1
102
RTVSPropertyOp0
 70
     1
102
RTVSPropertyOp1
 70
     1
102
RTVSPropertyOp2
 70
     1
102
RTVSPropertyOp3
 70
     1
102
RTVSPropertyOp4
 70
     1
102
RTVSPropertyOp5
 70
     1
102
RTVSPropertyOp6
 70
     1
102
RTVSPropertyOp7
 70
     1
102
RTVSPropertyOp8
 70
     1
102
RTVSPropertyOp9
 70
     1
102
RTVSPropertyOp10
 70
     1
102
RTVSPropertyOp11
 70
     1
102
RTVSPropertyOp12
 70
     1
102
RTVSPropertyOp13
 70
     1
102
RTVSPropertyOp14
 70
     1
102
RTVSPropertyOp15
 70
     1
102
RTVSPropertyOp16
 70
     1
102
RTVSPropertyOp17
 70
     1
102
RTVSPropertyOp18
 70
     1
102
RTVSPropertyOp19
 70
     1
102
RTVSPropertyOp20
 70
     1
102
RTVSPropertyOp21
 70
     1
102
RTVSPropertyOp22
 70
     1
102
RTVSPropertyOp23
 70
     1
102
RTVSPropertyOp24
 70
     1
102
RTVSPropertyOp25
 70
     1
102
RTVSPropertyOp26
 70
     1
102
RTVSPropertyOp27
 70
     1
102
RTVSPropertyOp28
 70
     1
102
RTVSPropertyOp29
 70
     1
102
RTVSPropertyOp30
 70
     1
102
RTVSPropertyOp31
 70
     1
102
RTVSPropertyOp32
 70
     1
102
RTVSPropertyOp33
 70
     1
102
RTVSPropertyOp34
 70
     1
102
RTVSPropertyOp35
 70
     1
102
RTVSPropertyOp36
 70
     1
102
RTVSPropertyOp37
 70
     1
102
RTVSPropertyOp38
 70
     1
102
RTVSPropertyOp39
 70
     1
102
RTVSPropertyOp40
 70
     1
102
RTVSPropertyOp41
 70
     1
102
RTVSPropertyOp42
 70
     1
102
RTVSPropertyOp43
 70
     1
102
RTVSPropertyOp44
 70
     1
102
RTVSPropertyOp45
 70
     1
102
RTVSPropertyOp46
 70
     1
102
RTVSPropertyOp47
 70
     1
102
RTVSPropertyOp48
 70
     1
102
RTVSPropertyOp49
 70
     1
102
RTVSPropertyOp50
 70
     1
102
RTVSPropertyOp51
 70
     0
102
RTVSPropertyOp52
 70
     0
102
RTVSPropertyOp53
 70
     1
102
RTVSPropertyOp54
 70
     1
102
RTVSPropertyOp55
 70
     1
102
RTVSPropertyOp56
 70
     1
102
RTVSPropertyOp57
 70
     1
102
RTVSPost2010Prop28
280
     0
102
RTVSPost2010PropOp28
 70
     1
102
RTVSPost2010Prop29
280
     1
102
RTVSPost2010PropOp29
 70
     1
102
RTVSPost2010Prop30
280
     1
102
RTVSPost2010PropOp30
 70
     1
102
RTVSPost2010Prop31
280
     0
102
RTVSPost2010PropOp31
 70
     1
102
RTVSPost2010Prop32
280
     0
102
RTVSPost2010PropOp32
 70
     1
102
RTVSPost2010Prop33
280
     0
102
RTVSPost2010PropOp33
 70
     1
102
RTVSPost2010Prop34
280
     0
102
RTVSPost2010PropOp34
 70
     1
102
RTVSPost2010Prop35
280
     0
102
RTVSPost2010PropOp35
 70
     1
102
RTVSPost2010Prop36
280
     0
102
RTVSPost2010PropOp36
 70
     1
102
RTVSPost2010Prop37
 90
       50
102
RTVSPost2010PropOp37
 70
     1
102
RTVSPost2010Prop38
140
0.0
102
RTVSPost2010PropOp38
 70
     1
102
RTVSPost2010Prop39
140
1.0
102
RTVSPost2010PropOp39
 70
     1
102
RTVSPost2010Prop40
 90
        0
102
RTVSPost2010PropOp40
 70
     1
102
RTVSPost2010Prop41ColorIndex
 90
       18
102
RTVSPost2010Prop41ColorRGB
 90
        0
102
RTVSPost2010PropOp41
 70
     1
102
RTVSPost2010Prop42
 90
       50
102
RTVSPost2010PropOp42
 70
     1
102
RTVSPost2010Prop43
 90
        3
102
RTVSPost2010PropOp43
 70
     1
102
RTVSPost2010Prop44ColorIndex
 90
        5
102
RTVSPost2010Prop44ColorRGB
 90
      255
102
RTVSPost2010PropOp44
 70
     1
102
RTVSPost2010Prop45
280
     0
102
RTVSPost2010PropOp45
 70
     1
102
RTVSPost2010Prop46
 90
       50
102
RTVSPost2010PropOp46
 70
     1
102
RTVSPost2010Prop47
 90
       50
102
RTVSPost2010PropOp47
 70
     1
102
RTVSPost2010Prop48
 90
       50
102
RTVSPost2010PropOp48
 70
     1
102
RTVSPost2010Prop49
280
     0
102
RTVSPost2010PropOp49
 70
     1
102
RTVSPost2010Prop50
 90
       50
102
RTVSPost2010PropOp50
 70
     1
102
RTVSPost2010Prop51ColorIndex
 90
      256
102
RTVSPost2010Prop51ColorRGB
 90
-16777216
102
RTVSPost2010PropOp51
 70
     0
102
RTVSPost2010Prop52
140
1.0
102
RTVSPost2010PropOp52
 70
     0
102
RTVSPost2010Prop53
 90
        2
102
RTVSPost2010PropOp53
 70
     1
102
RTVSPost2010Prop54
  1
strokes_ogs.tif
102
RTVSPost2010PropOp54
 70
     1
102
RTVSPost2010Prop55
280
     0
102
RTVSPost2010PropOp55
 70
     1
102
RTVSPost2010Prop56
140
1.0
102
RTVSPost2010PropOp56
 70
     1
102
RTVSPost2010Prop57
140
1.0
102
RTVSPost2010PropOp57
 70
     1
  0
XRECORD
  5
38B
102
{ACAD_REACTORS
330
38A
102
}
330
38A
100
AcDbXrecord
280
     1
102
RTVSPropertyOp0
 70
     1
102
RTVSPropertyOp1
 70
     1
102
RTVSPropertyOp2
 70
     1
102
RTVSPropertyOp3
 70
     1
102
RTVSPropertyOp4
 70
     1
102
RTVSPropertyOp5
 70
     1
102
RTVSPropertyOp6
 70
     1
102
RTVSPropertyOp7
 70
     1
102
RTVSPropertyOp8
 70
     1
102
RTVSPropertyOp9
 70
     1
102
RTVSPropertyOp10
 70
     1
102
RTVSPropertyOp11
 70
     1
102
RTVSPropertyOp12
 70
     1
102
RTVSPropertyOp13
 70
     1
102
RTVSPropertyOp14
 70
     1
102
RTVSPropertyOp15
 70
     1
102
RTVSPropertyOp16
 70
     1
102
RTVSPropertyOp17
 70
     1
102
RTVSPropertyOp18
 70
     1
102
RTVSPropertyOp19
 70
     1
102
RTVSPropertyOp20
 70
     1
102
RTVSPropertyOp21
 70
     1
102
RTVSPropertyOp22
 70
     1
102
RTVSPropertyOp23
 70
     1
102
RTVSPropertyOp24
 70
     1
102
RTVSPropertyOp25
 70
     1
102
RTVSPropertyOp26
 70
     1
102
RTVSPropertyOp27
 70
     1
102
RTVSPropertyOp28
 70
     1
102
RTVSPropertyOp29
 70
     1
102
RTVSPropertyOp30
 70
     1
102
RTVSPropertyOp31
 70
     1
102
RTVSPropertyOp32
 70
     1
102
RTVSPropertyOp33
 70
     1
102
RTVSPropertyOp34
 70
     1
102
RTVSPropertyOp35
 70
     1
102
RTVSPropertyOp36
 70
     1
102
RTVSPropertyOp37
 70
     1
102
RTVSPropertyOp38
 70
     1
102
RTVSPropertyOp39
 70
     1
102
RTVSPropertyOp40
 70
     1
102
RTVSPropertyOp41
 70
     1
102
RTVSPropertyOp42
 70
     1
102
RTVSPropertyOp43
 70
     1
102
RTVSPropertyOp44
 70
     1
102
RTVSPropertyOp45
 70
     1
102
RTVSPropertyOp46
 70
     1
102
RTVSPropertyOp47
 70
     1
102
RTVSPropertyOp48
 70
     1
102
RTVSPropertyOp49
 70
     1
102
RTVSPropertyOp50
 70
     1
102
RTVSPropertyOp51
 70
     0
102
RTVSPropertyOp52
 70
     0
102
RTVSPropertyOp53
 70
     1
102
RTVSPropertyOp54
 70
     1
102
RTVSPropertyOp55
 70
     1
102
RTVSPropertyOp56
 70
     1
102
RTVSPropertyOp57
 70
     1
102
RTVSPost2010Prop28
280
     0
102
RTVSPost2010PropOp28
 70
     1
102
RTVSPost2010Prop29
280
     1
102
RTVSPost2010PropOp29
 70
     1
102
RTVSPost2010Prop30
280
     1
102
RTVSPost2010PropOp30
 70
     1
102
RTVSPost2010Prop31
280
     0
102
RTVSPost2010PropOp31
 70
     1
102
RTVSPost2010Prop32
280
     0
102
RTVSPost2010PropOp32
 70
     1
102
RTVSPost2010Prop33
280
     0
102
RTVSPost2010PropOp33
 70
     1
102
RTVSPost2010Prop34
280
     0
102
RTVSPost2010PropOp34
 70
     1
102
RTVSPost2010Prop35
280
     0
102
RTVSPost2010PropOp35
 70
     1
102
RTVSPost2010Prop36
280
     0
102
RTVSPost2010PropOp36
 70
     1
102
RTVSPost2010Prop37
 90
       50
102
RTVSPost2010PropOp37
 70
     1
102
RTVSPost2010Prop38
140
0.0
102
RTVSPost2010PropOp38
 70
     1
102
RTVSPost2010Prop39
140
1.0
102
RTVSPost2010PropOp39
 70
     1
102
RTVSPost2010Prop40
 90
        0
102
RTVSPost2010PropOp40
 70
     1
102
RTVSPost2010Prop41ColorIndex
 90
       18
102
RTVSPost2010Prop41ColorRGB
 90
        0
102
RTVSPost2010PropOp41
 70
     1
102
RTVSPost2010Prop42
 90
       50
102
RTVSPost2010PropOp42
 70
     1
102
RTVSPost2010Prop43
 90
        3
102
RTVSPost2010PropOp43
 70
     1
102
RTVSPost2010Prop44ColorIndex
 90
        5
102
RTVSPost2010Prop44ColorRGB
 90
      255
102
RTVSPost2010PropOp44
 70
     1
102
RTVSPost2010Prop45
280
     0
102
RTVSPost2010PropOp45
 70
     1
102
RTVSPost2010Prop46
 90
       50
102
RTVSPost2010PropOp46
 70
     1
102
RTVSPost2010Prop47
 90
       50
102
RTVSPost2010PropOp47
 70
     1
102
RTVSPost2010Prop48
 90
       50
102
RTVSPost2010PropOp48
 70
     1
102
RTVSPost2010Prop49
280
     0
102
RTVSPost2010PropOp49
 70
     1
102
RTVSPost2010Prop50
 90
       50
102
RTVSPost2010PropOp50
 70
     1
102
RTVSPost2010Prop51ColorIndex
 90
      256
102
RTVSPost2010Prop51ColorRGB
 90
-16777216
102
RTVSPost2010PropOp51
 70
     0
102
RTVSPost2010Prop52
140
1.0
102
RTVSPost2010PropOp52
 70
     0
102
RTVSPost2010Prop53
 90
        2
102
RTVSPost2010PropOp53
 70
     1
102
RTVSPost2010Prop54
  1
strokes_ogs.tif
102
RTVSPost2010PropOp54
 70
     1
102
RTVSPost2010Prop55
280
     0
102
RTVSPost2010PropOp55
 70
     1
102
RTVSPost2010Prop56
140
1.0
102
RTVSPost2010PropOp56
 70
     1
102
RTVSPost2010Prop57
140
1.0
102
RTVSPost2010PropOp57
 70
     1
  0
XRECORD
  5
38D
102
{ACAD_REACTORS
330
38C
102
}
330
38C
100
AcDbXrecord
280
     1
102
RTVSPropertyOp0
 70
     1
102
RTVSPropertyOp1
 70
     1
102
RTVSPropertyOp2
 70
     1
102
RTVSPropertyOp3
 70
     1
102
RTVSPropertyOp4
 70
     1
102
RTVSPropertyOp5
 70
     1
102
RTVSPropertyOp6
 70
     1
102
RTVSPropertyOp7
 70
     1
102
RTVSPropertyOp8
 70
     1
102
RTVSPropertyOp9
 70
     1
102
RTVSPropertyOp10
 70
     1
102
RTVSPropertyOp11
 70
     1
102
RTVSPropertyOp12
 70
     1
102
RTVSPropertyOp13
 70
     1
102
RTVSPropertyOp14
 70
     1
102
RTVSPropertyOp15
 70
     1
102
RTVSPropertyOp16
 70
     1
102
RTVSPropertyOp17
 70
     1
102
RTVSPropertyOp18
 70
     1
102
RTVSPropertyOp19
 70
     1
102
RTVSPropertyOp20
 70
     1
102
RTVSPropertyOp21
 70
     1
102
RTVSPropertyOp22
 70
     1
102
RTVSPropertyOp23
 70
     1
102
RTVSPropertyOp24
 70
     1
102
RTVSPropertyOp25
 70
     1
102
RTVSPropertyOp26
 70
     1
102
RTVSPropertyOp27
 70
     1
102
RTVSPropertyOp28
 70
     1
102
RTVSPropertyOp29
 70
     1
102
RTVSPropertyOp30
 70
     1
102
RTVSPropertyOp31
 70
     1
102
RTVSPropertyOp32
 70
     1
102
RTVSPropertyOp33
 70
     1
102
RTVSPropertyOp34
 70
     1
102
RTVSPropertyOp35
 70
     1
102
RTVSPropertyOp36
 70
     1
102
RTVSPropertyOp37
 70
     1
102
RTVSPropertyOp38
 70
     1
102
RTVSPropertyOp39
 70
     1
102
RTVSPropertyOp40
 70
     1
102
RTVSPropertyOp41
 70
     1
102
RTVSPropertyOp42
 70
     1
102
RTVSPropertyOp43
 70
     1
102
RTVSPropertyOp44
 70
     1
102
RTVSPropertyOp45
 70
     1
102
RTVSPropertyOp46
 70
     1
102
RTVSPropertyOp47
 70
     1
102
RTVSPropertyOp48
 70
     1
102
RTVSPropertyOp49
 70
     1
102
RTVSPropertyOp50
 70
     1
102
RTVSPropertyOp51
 70
     0
102
RTVSPropertyOp52
 70
     0
102
RTVSPropertyOp53
 70
     1
102
RTVSPropertyOp54
 70
     1
102
RTVSPropertyOp55
 70
     1
102
RTVSPropertyOp56
 70
     1
102
RTVSPropertyOp57
 70
     1
102
RTVSPost2010Prop28
280
     0
102
RTVSPost2010PropOp28
 70
     1
102
RTVSPost2010Prop29
280
     1
102
RTVSPost2010PropOp29
 70
     1
102
RTVSPost2010Prop30
280
     1
102
RTVSPost2010PropOp30
 70
     1
102
RTVSPost2010Prop31
280
     0
102
RTVSPost2010PropOp31
 70
     1
102
RTVSPost2010Prop32
280
     0
102
RTVSPost2010PropOp32
 70
     1
102
RTVSPost2010Prop33
280
     0
102
RTVSPost2010PropOp33
 70
     1
102
RTVSPost2010Prop34
280
     0
102
RTVSPost2010PropOp34
 70
     1
102
RTVSPost2010Prop35
280
     0
102
RTVSPost2010PropOp35
 70
     1
102
RTVSPost2010Prop36
280
     0
102
RTVSPost2010PropOp36
 70
     1
102
RTVSPost2010Prop37
 90
       50
102
RTVSPost2010PropOp37
 70
     1
102
RTVSPost2010Prop38
140
0.0
102
RTVSPost2010PropOp38
 70
     1
102
RTVSPost2010Prop39
140
1.0
102
RTVSPost2010PropOp39
 70
     1
102
RTVSPost2010Prop40
 90
        0
102
RTVSPost2010PropOp40
 70
     1
102
RTVSPost2010Prop41ColorIndex
 90
       18
102
RTVSPost2010Prop41ColorRGB
 90
        0
102
RTVSPost2010PropOp41
 70
     1
102
RTVSPost2010Prop42
 90
       50
102
RTVSPost2010PropOp42
 70
     1
102
RTVSPost2010Prop43
 90
        3
102
RTVSPost2010PropOp43
 70
     1
102
RTVSPost2010Prop44ColorIndex
 90
        5
102
RTVSPost2010Prop44ColorRGB
 90
      255
102
RTVSPost2010PropOp44
 70
     1
102
RTVSPost2010Prop45
280
     0
102
RTVSPost2010PropOp45
 70
     1
102
RTVSPost2010Prop46
 90
       50
102
RTVSPost2010PropOp46
 70
     1
102
RTVSPost2010Prop47
 90
       50
102
RTVSPost2010PropOp47
 70
     1
102
RTVSPost2010Prop48
 90
       50
102
RTVSPost2010PropOp48
 70
     1
102
RTVSPost2010Prop49
280
     0
102
RTVSPost2010PropOp49
 70
     1
102
RTVSPost2010Prop50
 90
       50
102
RTVSPost2010PropOp50
 70
     1
102
RTVSPost2010Prop51ColorIndex
 90
      256
102
RTVSPost2010Prop51ColorRGB
 90
-16777216
102
RTVSPost2010PropOp51
 70
     0
102
RTVSPost2010Prop52
140
1.0
102
RTVSPost2010PropOp52
 70
     0
102
RTVSPost2010Prop53
 90
        2
102
RTVSPost2010PropOp53
 70
     1
102
RTVSPost2010Prop54
  1
strokes_ogs.tif
102
RTVSPost2010PropOp54
 70
     1
102
RTVSPost2010Prop55
280
     0
102
RTVSPost2010PropOp55
 70
     1
102
RTVSPost2010Prop56
140
1.0
102
RTVSPost2010PropOp56
 70
     1
102
RTVSPost2010Prop57
140
1.0
102
RTVSPost2010PropOp57
 70
     1
  0
XRECORD
  5
39D
102
{ACAD_REACTORS
330
39C
102
}
330
39C
100
AcDbXrecord
280
     1
102
RTVSPropertyOp0
 70
     0
102
RTVSPropertyOp1
 70
     0
102
RTVSPropertyOp2
 70
     0
102
RTVSPropertyOp3
 70
     0
102
RTVSPropertyOp4
 70
     0
102
RTVSPropertyOp5
 70
     0
102
RTVSPropertyOp6
 70
     0
102
RTVSPropertyOp7
 70
     0
102
RTVSPropertyOp8
 70
     0
102
RTVSPropertyOp9
 70
     0
102
RTVSPropertyOp10
 70
     0
102
RTVSPropertyOp11
 70
     0
102
RTVSPropertyOp12
 70
     0
102
RTVSPropertyOp13
 70
     0
102
RTVSPropertyOp14
 70
     2
102
RTVSPropertyOp15
 70
     0
102
RTVSPropertyOp16
 70
     0
102
RTVSPropertyOp17
 70
     0
102
RTVSPropertyOp18
 70
     0
102
RTVSPropertyOp19
 70
     0
102
RTVSPropertyOp20
 70
     0
102
RTVSPropertyOp21
 70
     0
102
RTVSPropertyOp22
 70
     0
102
RTVSPropertyOp23
 70
     0
102
RTVSPropertyOp24
 70
     0
102
RTVSPropertyOp25
 70
     0
102
RTVSPropertyOp26
 70
     0
102
RTVSPropertyOp27
 70
     0
102
RTVSPropertyOp28
 70
     0
102
RTVSPropertyOp29
 70
     0
102
RTVSPropertyOp30
 70
     0
102
RTVSPropertyOp31
 70
     0
102
RTVSPropertyOp32
 70
     0
102
RTVSPropertyOp33
 70
     0
102
RTVSPropertyOp34
 70
     0
102
RTVSPropertyOp35
 70
     0
102
RTVSPropertyOp36
 70
     0
102
RTVSPropertyOp37
 70
     0
102
RTVSPropertyOp38
 70
     0
102
RTVSPropertyOp39
 70
     0
102
RTVSPropertyOp40
 70
     0
102
RTVSPropertyOp41
 70
     0
102
RTVSPropertyOp42
 70
     0
102
RTVSPropertyOp43
 70
     0
102
RTVSPropertyOp44
 70
     0
102
RTVSPropertyOp45
 70
     0
102
RTVSPropertyOp46
 70
     0
102
RTVSPropertyOp47
 70
     0
102
RTVSPropertyOp48
 70
     0
102
RTVSPropertyOp49
 70
     0
102
RTVSPropertyOp50
 70
     0
102
RTVSPropertyOp51
 70
     0
102
RTVSPropertyOp52
 70
     0
102
RTVSPropertyOp53
 70
     0
102
RTVSPropertyOp54
 70
     0
102
RTVSPropertyOp55
 70
     0
102
RTVSPropertyOp56
 70
     0
102
RTVSPropertyOp57
 70
     0
102
RTVSPost2010Prop28
280
     0
102
RTVSPost2010PropOp28
 70
     0
102
RTVSPost2010Prop29
280
     1
102
RTVSPost2010PropOp29
 70
     0
102
RTVSPost2010Prop30
280
     1
102
RTVSPost2010PropOp30
 70
     0
102
RTVSPost2010Prop31
280
     0
102
RTVSPost2010PropOp31
 70
     0
102
RTVSPost2010Prop32
280
     0
102
RTVSPost2010PropOp32
 70
     0
102
RTVSPost2010Prop33
280
     0
102
RTVSPost2010PropOp33
 70
     0
102
RTVSPost2010Prop34
280
     0
102
RTVSPost2010PropOp34
 70
     0
102
RTVSPost2010Prop35
280
     0
102
RTVSPost2010PropOp35
 70
     0
102
RTVSPost2010Prop36
280
     0
102
RTVSPost2010PropOp36
 70
     0
102
RTVSPost2010Prop37
 90
       50
102
RTVSPost2010PropOp37
 70
     0
102
RTVSPost2010Prop38
140
0.0
102
RTVSPost2010PropOp38
 70
     0
102
RTVSPost2010Prop39
140
1.0
102
RTVSPost2010PropOp39
 70
     0
102
RTVSPost2010Prop40
 90
        0
102
RTVSPost2010PropOp40
 70
     0
102
RTVSPost2010Prop41ColorIndex
 90
       18
102
RTVSPost2010Prop41ColorRGB
 90
        0
102
RTVSPost2010PropOp41
 70
     0
102
RTVSPost2010Prop42
 90
       50
102
RTVSPost2010PropOp42
 70
     0
102
RTVSPost2010Prop43
 90
        3
102
RTVSPost2010PropOp43
 70
     0
102
RTVSPost2010Prop44ColorIndex
 90
        5
102
RTVSPost2010Prop44ColorRGB
 90
      255
102
RTVSPost2010PropOp44
 70
     0
102
RTVSPost2010Prop45
280
     0
102
RTVSPost2010PropOp45
 70
     0
102
RTVSPost2010Prop46
 90
       50
102
RTVSPost2010PropOp46
 70
     0
102
RTVSPost2010Prop47
 90
       50
102
RTVSPost2010PropOp47
 70
     0
102
RTVSPost2010Prop48
 90
       50
102
RTVSPost2010PropOp48
 70
     0
102
RTVSPost2010Prop49
280
     0
102
RTVSPost2010PropOp49
 70
     0
102
RTVSPost2010Prop50
 90
       50
102
RTVSPost2010PropOp50
 70
     0
102
RTVSPost2010Prop51ColorIndex
 90
      256
102
RTVSPost2010Prop51ColorRGB
 90
-16777216
102
RTVSPost2010PropOp51
 70
     0
102
RTVSPost2010Prop52
140
1.0
102
RTVSPost2010PropOp52
 70
     0
102
RTVSPost2010Prop53
 90
        2
102
RTVSPost2010PropOp53
 70
     0
102
RTVSPost2010Prop54
  1
strokes_ogs.tif
102
RTVSPost2010PropOp54
 70
     0
102
RTVSPost2010Prop55
280
     0
102
RTVSPost2010PropOp55
 70
     0
102
RTVSPost2010Prop56
140
1.0
102
RTVSPost2010PropOp56
 70
     0
102
RTVSPost2010Prop57
140
1.0
102
RTVSPost2010PropOp57
 70
     0
  0
XRECORD
  5
395
102
{ACAD_REACTORS
330
394
102
}
330
394
100
AcDbXrecord
280
     1
102
RTVSPropertyOp0
 70
     1
102
RTVSPropertyOp1
 70
     1
102
RTVSPropertyOp2
 70
     1
102
RTVSPropertyOp3
 70
     1
102
RTVSPropertyOp4
 70
     1
102
RTVSPropertyOp5
 70
     1
102
RTVSPropertyOp6
 70
     1
102
RTVSPropertyOp7
 70
     1
102
RTVSPropertyOp8
 70
     1
102
RTVSPropertyOp9
 70
     1
102
RTVSPropertyOp10
 70
     1
102
RTVSPropertyOp11
 70
     1
102
RTVSPropertyOp12
 70
     1
102
RTVSPropertyOp13
 70
     1
102
RTVSPropertyOp14
 70
     1
102
RTVSPropertyOp15
 70
     1
102
RTVSPropertyOp16
 70
     1
102
RTVSPropertyOp17
 70
     1
102
RTVSPropertyOp18
 70
     1
102
RTVSPropertyOp19
 70
     1
102
RTVSPropertyOp20
 70
     1
102
RTVSPropertyOp21
 70
     1
102
RTVSPropertyOp22
 70
     1
102
RTVSPropertyOp23
 70
     1
102
RTVSPropertyOp24
 70
     1
102
RTVSPropertyOp25
 70
     1
102
RTVSPropertyOp26
 70
     1
102
RTVSPropertyOp27
 70
     1
102
RTVSPropertyOp28
 70
     1
102
RTVSPropertyOp29
 70
     1
102
RTVSPropertyOp30
 70
     1
102
RTVSPropertyOp31
 70
     1
102
RTVSPropertyOp32
 70
     1
102
RTVSPropertyOp33
 70
     1
102
RTVSPropertyOp34
 70
     1
102
RTVSPropertyOp35
 70
     1
102
RTVSPropertyOp36
 70
     1
102
RTVSPropertyOp37
 70
     1
102
RTVSPropertyOp38
 70
     1
102
RTVSPropertyOp39
 70
     1
102
RTVSPropertyOp40
 70
     1
102
RTVSPropertyOp41
 70
     1
102
RTVSPropertyOp42
 70
     1
102
RTVSPropertyOp43
 70
     1
102
RTVSPropertyOp44
 70
     1
102
RTVSPropertyOp45
 70
     1
102
RTVSPropertyOp46
 70
     1
102
RTVSPropertyOp47
 70
     1
102
RTVSPropertyOp48
 70
     1
102
RTVSPropertyOp49
 70
     1
102
RTVSPropertyOp50
 70
     1
102
RTVSPropertyOp51
 70
     0
102
RTVSPropertyOp52
 70
     0
102
RTVSPropertyOp53
 70
     1
102
RTVSPropertyOp54
 70
     1
102
RTVSPropertyOp55
 70
     1
102
RTVSPropertyOp56
 70
     1
102
RTVSPropertyOp57
 70
     1
102
RTVSPost2010Prop28
280
     0
102
RTVSPost2010PropOp28
 70
     1
102
RTVSPost2010Prop29
280
     1
102
RTVSPost2010PropOp29
 70
     1
102
RTVSPost2010Prop30
280
     1
102
RTVSPost2010PropOp30
 70
     1
102
RTVSPost2010Prop31
280
     0
102
RTVSPost2010PropOp31
 70
     1
102
RTVSPost2010Prop32
280
     0
102
RTVSPost2010PropOp32
 70
     1
102
RTVSPost2010Prop33
280
     0
102
RTVSPost2010PropOp33
 70
     1
102
RTVSPost2010Prop34
280
     0
102
RTVSPost2010PropOp34
 70
     1
102
RTVSPost2010Prop35
280
     0
102
RTVSPost2010PropOp35
 70
     1
102
RTVSPost2010Prop36
280
     0
102
RTVSPost2010PropOp36
 70
     1
102
RTVSPost2010Prop37
 90
       50
102
RTVSPost2010PropOp37
 70
     1
102
RTVSPost2010Prop38
140
0.0
102
RTVSPost2010PropOp38
 70
     1
102
RTVSPost2010Prop39
140
1.0
102
RTVSPost2010PropOp39
 70
     1
102
RTVSPost2010Prop40
 90
        0
102
RTVSPost2010PropOp40
 70
     1
102
RTVSPost2010Prop41ColorIndex
 90
       18
102
RTVSPost2010Prop41ColorRGB
 90
        0
102
RTVSPost2010PropOp41
 70
     1
102
RTVSPost2010Prop42
 90
       50
102
RTVSPost2010PropOp42
 70
     1
102
RTVSPost2010Prop43
 90
        3
102
RTVSPost2010PropOp43
 70
     1
102
RTVSPost2010Prop44ColorIndex
 90
        5
102
RTVSPost2010Prop44ColorRGB
 90
      255
102
RTVSPost2010PropOp44
 70
     1
102
RTVSPost2010Prop45
280
     0
102
RTVSPost2010PropOp45
 70
     1
102
RTVSPost2010Prop46
 90
       50
102
RTVSPost2010PropOp46
 70
     1
102
RTVSPost2010Prop47
 90
       50
102
RTVSPost2010PropOp47
 70
     1
102
RTVSPost2010Prop48
 90
       50
102
RTVSPost2010PropOp48
 70
     1
102
RTVSPost2010Prop49
280
     0
102
RTVSPost2010PropOp49
 70
     1
102
RTVSPost2010Prop50
 90
       50
102
RTVSPost2010PropOp50
 70
     1
102
RTVSPost2010Prop51ColorIndex
 90
      256
102
RTVSPost2010Prop51ColorRGB
 90
-16777216
102
RTVSPost2010PropOp51
 70
     0
102
RTVSPost2010Prop52
140
1.0
102
RTVSPost2010PropOp52
 70
     0
102
RTVSPost2010Prop53
 90
        2
102
RTVSPost2010PropOp53
 70
     1
102
RTVSPost2010Prop54
  1
strokes_ogs.tif
102
RTVSPost2010PropOp54
 70
     1
102
RTVSPost2010Prop55
280
     0
102
RTVSPost2010PropOp55
 70
     1
102
RTVSPost2010Prop56
140
1.0
102
RTVSPost2010PropOp56
 70
     1
102
RTVSPost2010Prop57
140
1.0
102
RTVSPost2010PropOp57
 70
     1
  0
XRECORD
  5
379
102
{ACAD_REACTORS
330
378
102
}
330
378
100
AcDbXrecord
280
     1
102
RTVSPropertyOp0
 70
     1
102
RTVSPropertyOp1
 70
     1
102
RTVSPropertyOp2
 70
     1
102
RTVSPropertyOp3
 70
     1
102
RTVSPropertyOp4
 70
     1
102
RTVSPropertyOp5
 70
     1
102
RTVSPropertyOp6
 70
     1
102
RTVSPropertyOp7
 70
     1
102
RTVSPropertyOp8
 70
     1
102
RTVSPropertyOp9
 70
     1
102
RTVSPropertyOp10
 70
     1
102
RTVSPropertyOp11
 70
     1
102
RTVSPropertyOp12
 70
     1
102
RTVSPropertyOp13
 70
     1
102
RTVSPropertyOp14
 70
     1
102
RTVSPropertyOp15
 70
     1
102
RTVSPropertyOp16
 70
     1
102
RTVSPropertyOp17
 70
     1
102
RTVSPropertyOp18
 70
     1
102
RTVSPropertyOp19
 70
     1
102
RTVSPropertyOp20
 70
     1
102
RTVSPropertyOp21
 70
     1
102
RTVSPropertyOp22
 70
     1
102
RTVSPropertyOp23
 70
     1
102
RTVSPropertyOp24
 70
     1
102
RTVSPropertyOp25
 70
     1
102
RTVSPropertyOp26
 70
     1
102
RTVSPropertyOp27
 70
     1
102
RTVSPropertyOp28
 70
     1
102
RTVSPropertyOp29
 70
     1
102
RTVSPropertyOp30
 70
     1
102
RTVSPropertyOp31
 70
     1
102
RTVSPropertyOp32
 70
     1
102
RTVSPropertyOp33
 70
     1
102
RTVSPropertyOp34
 70
     1
102
RTVSPropertyOp35
 70
     1
102
RTVSPropertyOp36
 70
     1
102
RTVSPropertyOp37
 70
     1
102
RTVSPropertyOp38
 70
     1
102
RTVSPropertyOp39
 70
     1
102
RTVSPropertyOp40
 70
     1
102
RTVSPropertyOp41
 70
     1
102
RTVSPropertyOp42
 70
     1
102
RTVSPropertyOp43
 70
     1
102
RTVSPropertyOp44
 70
     1
102
RTVSPropertyOp45
 70
     1
102
RTVSPropertyOp46
 70
     1
102
RTVSPropertyOp47
 70
     1
102
RTVSPropertyOp48
 70
     1
102
RTVSPropertyOp49
 70
     1
102
RTVSPropertyOp50
 70
     1
102
RTVSPropertyOp51
 70
     0
102
RTVSPropertyOp52
 70
     0
102
RTVSPropertyOp53
 70
     1
102
RTVSPropertyOp54
 70
     1
102
RTVSPropertyOp55
 70
     1
102
RTVSPropertyOp56
 70
     1
102
RTVSPropertyOp57
 70
     1
102
RTVSPost2010Prop28
280
     0
102
RTVSPost2010PropOp28
 70
     1
102
RTVSPost2010Prop29
280
     1
102
RTVSPost2010PropOp29
 70
     1
102
RTVSPost2010Prop30
280
     1
102
RTVSPost2010PropOp30
 70
     1
102
RTVSPost2010Prop31
280
     0
102
RTVSPost2010PropOp31
 70
     1
102
RTVSPost2010Prop32
280
     0
102
RTVSPost2010PropOp32
 70
     1
102
RTVSPost2010Prop33
280
     0
102
RTVSPost2010PropOp33
 70
     1
102
RTVSPost2010Prop34
280
     0
102
RTVSPost2010PropOp34
 70
     1
102
RTVSPost2010Prop35
280
     0
102
RTVSPost2010PropOp35
 70
     1
102
RTVSPost2010Prop36
280
     0
102
RTVSPost2010PropOp36
 70
     1
102
RTVSPost2010Prop37
 90
       50
102
RTVSPost2010PropOp37
 70
     1
102
RTVSPost2010Prop38
140
0.0
102
RTVSPost2010PropOp38
 70
     1
102
RTVSPost2010Prop39
140
1.0
102
RTVSPost2010PropOp39
 70
     1
102
RTVSPost2010Prop40
 90
        0
102
RTVSPost2010PropOp40
 70
     1
102
RTVSPost2010Prop41ColorIndex
 90
       18
102
RTVSPost2010Prop41ColorRGB
 90
        0
102
RTVSPost2010PropOp41
 70
     1
102
RTVSPost2010Prop42
 90
       50
102
RTVSPost2010PropOp42
 70
     1
102
RTVSPost2010Prop43
 90
        3
102
RTVSPost2010PropOp43
 70
     1
102
RTVSPost2010Prop44ColorIndex
 90
        5
102
RTVSPost2010Prop44ColorRGB
 90
      255
102
RTVSPost2010PropOp44
 70
     1
102
RTVSPost2010Prop45
280
     0
102
RTVSPost2010PropOp45
 70
     1
102
RTVSPost2010Prop46
 90
       50
102
RTVSPost2010PropOp46
 70
     1
102
RTVSPost2010Prop47
 90
       50
102
RTVSPost2010PropOp47
 70
     1
102
RTVSPost2010Prop48
 90
       50
102
RTVSPost2010PropOp48
 70
     1
102
RTVSPost2010Prop49
280
     0
102
RTVSPost2010PropOp49
 70
     1
102
RTVSPost2010Prop50
 90
       50
102
RTVSPost2010PropOp50
 70
     1
102
RTVSPost2010Prop51ColorIndex
 90
      256
102
RTVSPost2010Prop51ColorRGB
 90
-16777216
102
RTVSPost2010PropOp51
 70
     0
102
RTVSPost2010Prop52
140
1.0
102
RTVSPost2010PropOp52
 70
     0
102
RTVSPost2010Prop53
 90
        2
102
RTVSPost2010PropOp53
 70
     1
102
RTVSPost2010Prop54
  1
strokes_ogs.tif
102
RTVSPost2010PropOp54
 70
     1
102
RTVSPost2010Prop55
280
     0
102
RTVSPost2010PropOp55
 70
     1
102
RTVSPost2010Prop56
140
1.0
102
RTVSPost2010PropOp56
 70
     1
102
RTVSPost2010Prop57
140
1.0
102
RTVSPost2010PropOp57
 70
     1
  0
XRECORD
  5
37B
102
{ACAD_REACTORS
330
37A
102
}
330
37A
100
AcDbXrecord
280
     1
102
RTVSPropertyOp0
 70
     1
102
RTVSPropertyOp1
 70
     1
102
RTVSPropertyOp2
 70
     1
102
RTVSPropertyOp3
 70
     1
102
RTVSPropertyOp4
 70
     1
102
RTVSPropertyOp5
 70
     1
102
RTVSPropertyOp6
 70
     1
102
RTVSPropertyOp7
 70
     1
102
RTVSPropertyOp8
 70
     1
102
RTVSPropertyOp9
 70
     1
102
RTVSPropertyOp10
 70
     1
102
RTVSPropertyOp11
 70
     1
102
RTVSPropertyOp12
 70
     1
102
RTVSPropertyOp13
 70
     1
102
RTVSPropertyOp14
 70
     1
102
RTVSPropertyOp15
 70
     1
102
RTVSPropertyOp16
 70
     1
102
RTVSPropertyOp17
 70
     1
102
RTVSPropertyOp18
 70
     1
102
RTVSPropertyOp19
 70
     1
102
RTVSPropertyOp20
 70
     1
102
RTVSPropertyOp21
 70
     1
102
RTVSPropertyOp22
 70
     1
102
RTVSPropertyOp23
 70
     1
102
RTVSPropertyOp24
 70
     1
102
RTVSPropertyOp25
 70
     1
102
RTVSPropertyOp26
 70
     1
102
RTVSPropertyOp27
 70
     1
102
RTVSPropertyOp28
 70
     1
102
RTVSPropertyOp29
 70
     1
102
RTVSPropertyOp30
 70
     1
102
RTVSPropertyOp31
 70
     1
102
RTVSPropertyOp32
 70
     1
102
RTVSPropertyOp33
 70
     1
102
RTVSPropertyOp34
 70
     1
102
RTVSPropertyOp35
 70
     1
102
RTVSPropertyOp36
 70
     1
102
RTVSPropertyOp37
 70
     1
102
RTVSPropertyOp38
 70
     1
102
RTVSPropertyOp39
 70
     1
102
RTVSPropertyOp40
 70
     1
102
RTVSPropertyOp41
 70
     1
102
RTVSPropertyOp42
 70
     1
102
RTVSPropertyOp43
 70
     1
102
RTVSPropertyOp44
 70
     1
102
RTVSPropertyOp45
 70
     1
102
RTVSPropertyOp46
 70
     1
102
RTVSPropertyOp47
 70
     1
102
RTVSPropertyOp48
 70
     1
102
RTVSPropertyOp49
 70
     1
102
RTVSPropertyOp50
 70
     1
102
RTVSPropertyOp51
 70
     0
102
RTVSPropertyOp52
 70
     0
102
RTVSPropertyOp53
 70
     1
102
RTVSPropertyOp54
 70
     1
102
RTVSPropertyOp55
 70
     1
102
RTVSPropertyOp56
 70
     1
102
RTVSPropertyOp57
 70
     1
102
RTVSPost2010Prop28
280
     0
102
RTVSPost2010PropOp28
 70
     1
102
RTVSPost2010Prop29
280
     1
102
RTVSPost2010PropOp29
 70
     1
102
RTVSPost2010Prop30
280
     1
102
RTVSPost2010PropOp30
 70
     1
102
RTVSPost2010Prop31
280
     0
102
RTVSPost2010PropOp31
 70
     1
102
RTVSPost2010Prop32
280
     0
102
RTVSPost2010PropOp32
 70
     1
102
RTVSPost2010Prop33
280
     0
102
RTVSPost2010PropOp33
 70
     1
102
RTVSPost2010Prop34
280
     0
102
RTVSPost2010PropOp34
 70
     1
102
RTVSPost2010Prop35
280
     0
102
RTVSPost2010PropOp35
 70
     1
102
RTVSPost2010Prop36
280
     0
102
RTVSPost2010PropOp36
 70
     1
102
RTVSPost2010Prop37
 90
       50
102
RTVSPost2010PropOp37
 70
     1
102
RTVSPost2010Prop38
140
0.0
102
RTVSPost2010PropOp38
 70
     1
102
RTVSPost2010Prop39
140
1.0
102
RTVSPost2010PropOp39
 70
     1
102
RTVSPost2010Prop40
 90
        0
102
RTVSPost2010PropOp40
 70
     1
102
RTVSPost2010Prop41ColorIndex
 90
       18
102
RTVSPost2010Prop41ColorRGB
 90
        0
102
RTVSPost2010PropOp41
 70
     1
102
RTVSPost2010Prop42
 90
       50
102
RTVSPost2010PropOp42
 70
     1
102
RTVSPost2010Prop43
 90
        3
102
RTVSPost2010PropOp43
 70
     1
102
RTVSPost2010Prop44ColorIndex
 90
        5
102
RTVSPost2010Prop44ColorRGB
 90
      255
102
RTVSPost2010PropOp44
 70
     1
102
RTVSPost2010Prop45
280
     0
102
RTVSPost2010PropOp45
 70
     1
102
RTVSPost2010Prop46
 90
       50
102
RTVSPost2010PropOp46
 70
     1
102
RTVSPost2010Prop47
 90
       50
102
RTVSPost2010PropOp47
 70
     1
102
RTVSPost2010Prop48
 90
       50
102
RTVSPost2010PropOp48
 70
     1
102
RTVSPost2010Prop49
280
     0
102
RTVSPost2010PropOp49
 70
     1
102
RTVSPost2010Prop50
 90
       50
102
RTVSPost2010PropOp50
 70
     1
102
RTVSPost2010Prop51ColorIndex
 90
      256
102
RTVSPost2010Prop51ColorRGB
 90
-16777216
102
RTVSPost2010PropOp51
 70
     0
102
RTVSPost2010Prop52
140
1.0
102
RTVSPost2010PropOp52
 70
     0
102
RTVSPost2010Prop53
 90
        2
102
RTVSPost2010PropOp53
 70
     1
102
RTVSPost2010Prop54
  1
strokes_ogs.tif
102
RTVSPost2010PropOp54
 70
     1
102
RTVSPost2010Prop55
280
     0
102
RTVSPost2010PropOp55
 70
     1
102
RTVSPost2010Prop56
140
1.0
102
RTVSPost2010PropOp56
 70
     1
102
RTVSPost2010Prop57
140
1.0
102
RTVSPost2010PropOp57
 70
     1
  0
XRECORD
  5
37D
102
{ACAD_REACTORS
330
37C
102
}
330
37C
100
AcDbXrecord
280
     1
102
RTVSPropertyOp0
 70
     1
102
RTVSPropertyOp1
 70
     1
102
RTVSPropertyOp2
 70
     1
102
RTVSPropertyOp3
 70
     1
102
RTVSPropertyOp4
 70
     1
102
RTVSPropertyOp5
 70
     1
102
RTVSPropertyOp6
 70
     1
102
RTVSPropertyOp7
 70
     1
102
RTVSPropertyOp8
 70
     1
102
RTVSPropertyOp9
 70
     1
102
RTVSPropertyOp10
 70
     1
102
RTVSPropertyOp11
 70
     1
102
RTVSPropertyOp12
 70
     1
102
RTVSPropertyOp13
 70
     1
102
RTVSPropertyOp14
 70
     1
102
RTVSPropertyOp15
 70
     1
102
RTVSPropertyOp16
 70
     1
102
RTVSPropertyOp17
 70
     1
102
RTVSPropertyOp18
 70
     1
102
RTVSPropertyOp19
 70
     1
102
RTVSPropertyOp20
 70
     1
102
RTVSPropertyOp21
 70
     1
102
RTVSPropertyOp22
 70
     1
102
RTVSPropertyOp23
 70
     1
102
RTVSPropertyOp24
 70
     1
102
RTVSPropertyOp25
 70
     1
102
RTVSPropertyOp26
 70
     1
102
RTVSPropertyOp27
 70
     1
102
RTVSPropertyOp28
 70
     1
102
RTVSPropertyOp29
 70
     1
102
RTVSPropertyOp30
 70
     1
102
RTVSPropertyOp31
 70
     1
102
RTVSPropertyOp32
 70
     1
102
RTVSPropertyOp33
 70
     1
102
RTVSPropertyOp34
 70
     1
102
RTVSPropertyOp35
 70
     1
102
RTVSPropertyOp36
 70
     1
102
RTVSPropertyOp37
 70
     1
102
RTVSPropertyOp38
 70
     1
102
RTVSPropertyOp39
 70
     1
102
RTVSPropertyOp40
 70
     1
102
RTVSPropertyOp41
 70
     1
102
RTVSPropertyOp42
 70
     1
102
RTVSPropertyOp43
 70
     1
102
RTVSPropertyOp44
 70
     1
102
RTVSPropertyOp45
 70
     1
102
RTVSPropertyOp46
 70
     1
102
RTVSPropertyOp47
 70
     1
102
RTVSPropertyOp48
 70
     1
102
RTVSPropertyOp49
 70
     1
102
RTVSPropertyOp50
 70
     1
102
RTVSPropertyOp51
 70
     0
102
RTVSPropertyOp52
 70
     0
102
RTVSPropertyOp53
 70
     1
102
RTVSPropertyOp54
 70
     1
102
RTVSPropertyOp55
 70
     1
102
RTVSPropertyOp56
 70
     1
102
RTVSPropertyOp57
 70
     1
102
RTVSPost2010Prop28
280
     0
102
RTVSPost2010PropOp28
 70
     1
102
RTVSPost2010Prop29
280
     1
102
RTVSPost2010PropOp29
 70
     1
102
RTVSPost2010Prop30
280
     1
102
RTVSPost2010PropOp30
 70
     1
102
RTVSPost2010Prop31
280
     0
102
RTVSPost2010PropOp31
 70
     1
102
RTVSPost2010Prop32
280
     0
102
RTVSPost2010PropOp32
 70
     1
102
RTVSPost2010Prop33
280
     0
102
RTVSPost2010PropOp33
 70
     1
102
RTVSPost2010Prop34
280
     0
102
RTVSPost2010PropOp34
 70
     1
102
RTVSPost2010Prop35
280
     0
102
RTVSPost2010PropOp35
 70
     1
102
RTVSPost2010Prop36
280
     0
102
RTVSPost2010PropOp36
 70
     1
102
RTVSPost2010Prop37
 90
       50
102
RTVSPost2010PropOp37
 70
     1
102
RTVSPost2010Prop38
140
0.0
102
RTVSPost2010PropOp38
 70
     1
102
RTVSPost2010Prop39
140
1.0
102
RTVSPost2010PropOp39
 70
     1
102
RTVSPost2010Prop40
 90
        0
102
RTVSPost2010PropOp40
 70
     1
102
RTVSPost2010Prop41ColorIndex
 90
       18
102
RTVSPost2010Prop41ColorRGB
 90
        0
102
RTVSPost2010PropOp41
 70
     1
102
RTVSPost2010Prop42
 90
       50
102
RTVSPost2010PropOp42
 70
     1
102
RTVSPost2010Prop43
 90
        3
102
RTVSPost2010PropOp43
 70
     1
102
RTVSPost2010Prop44ColorIndex
 90
        5
102
RTVSPost2010Prop44ColorRGB
 90
      255
102
RTVSPost2010PropOp44
 70
     1
102
RTVSPost2010Prop45
280
     0
102
RTVSPost2010PropOp45
 70
     1
102
RTVSPost2010Prop46
 90
       50
102
RTVSPost2010PropOp46
 70
     1
102
RTVSPost2010Prop47
 90
       50
102
RTVSPost2010PropOp47
 70
     1
102
RTVSPost2010Prop48
 90
       50
102
RTVSPost2010PropOp48
 70
     1
102
RTVSPost2010Prop49
280
     0
102
RTVSPost2010PropOp49
 70
     1
102
RTVSPost2010Prop50
 90
       50
102
RTVSPost2010PropOp50
 70
     1
102
RTVSPost2010Prop51ColorIndex
 90
      256
102
RTVSPost2010Prop51ColorRGB
 90
-16777216
102
RTVSPost2010PropOp51
 70
     0
102
RTVSPost2010Prop52
140
1.0
102
RTVSPost2010PropOp52
 70
     0
102
RTVSPost2010Prop53
 90
        2
102
RTVSPost2010PropOp53
 70
     1
102
RTVSPost2010Prop54
  1
strokes_ogs.tif
102
RTVSPost2010PropOp54
 70
     1
102
RTVSPost2010Prop55
280
     0
102
RTVSPost2010PropOp55
 70
     1
102
RTVSPost2010Prop56
140
1.0
102
RTVSPost2010PropOp56
 70
     1
102
RTVSPost2010Prop57
140
1.0
102
RTVSPost2010PropOp57
 70
     1
  0
XRECORD
  5
37F
102
{ACAD_REACTORS
330
37E
102
}
330
37E
100
AcDbXrecord
280
     1
102
RTVSPropertyOp0
 70
     1
102
RTVSPropertyOp1
 70
     1
102
RTVSPropertyOp2
 70
     1
102
RTVSPropertyOp3
 70
     1
102
RTVSPropertyOp4
 70
     1
102
RTVSPropertyOp5
 70
     1
102
RTVSPropertyOp6
 70
     1
102
RTVSPropertyOp7
 70
     1
102
RTVSPropertyOp8
 70
     1
102
RTVSPropertyOp9
 70
     1
102
RTVSPropertyOp10
 70
     1
102
RTVSPropertyOp11
 70
     1
102
RTVSPropertyOp12
 70
     1
102
RTVSPropertyOp13
 70
     1
102
RTVSPropertyOp14
 70
     1
102
RTVSPropertyOp15
 70
     1
102
RTVSPropertyOp16
 70
     1
102
RTVSPropertyOp17
 70
     1
102
RTVSPropertyOp18
 70
     1
102
RTVSPropertyOp19
 70
     1
102
RTVSPropertyOp20
 70
     1
102
RTVSPropertyOp21
 70
     1
102
RTVSPropertyOp22
 70
     1
102
RTVSPropertyOp23
 70
     1
102
RTVSPropertyOp24
 70
     1
102
RTVSPropertyOp25
 70
     1
102
RTVSPropertyOp26
 70
     1
102
RTVSPropertyOp27
 70
     1
102
RTVSPropertyOp28
 70
     1
102
RTVSPropertyOp29
 70
     1
102
RTVSPropertyOp30
 70
     1
102
RTVSPropertyOp31
 70
     1
102
RTVSPropertyOp32
 70
     1
102
RTVSPropertyOp33
 70
     1
102
RTVSPropertyOp34
 70
     1
102
RTVSPropertyOp35
 70
     1
102
RTVSPropertyOp36
 70
     1
102
RTVSPropertyOp37
 70
     1
102
RTVSPropertyOp38
 70
     1
102
RTVSPropertyOp39
 70
     1
102
RTVSPropertyOp40
 70
     1
102
RTVSPropertyOp41
 70
     1
102
RTVSPropertyOp42
 70
     1
102
RTVSPropertyOp43
 70
     1
102
RTVSPropertyOp44
 70
     1
102
RTVSPropertyOp45
 70
     1
102
RTVSPropertyOp46
 70
     1
102
RTVSPropertyOp47
 70
     1
102
RTVSPropertyOp48
 70
     1
102
RTVSPropertyOp49
 70
     1
102
RTVSPropertyOp50
 70
     1
102
RTVSPropertyOp51
 70
     0
102
RTVSPropertyOp52
 70
     0
102
RTVSPropertyOp53
 70
     1
102
RTVSPropertyOp54
 70
     1
102
RTVSPropertyOp55
 70
     1
102
RTVSPropertyOp56
 70
     1
102
RTVSPropertyOp57
 70
     1
102
RTVSPost2010Prop28
280
     0
102
RTVSPost2010PropOp28
 70
     1
102
RTVSPost2010Prop29
280
     1
102
RTVSPost2010PropOp29
 70
     1
102
RTVSPost2010Prop30
280
     1
102
RTVSPost2010PropOp30
 70
     1
102
RTVSPost2010Prop31
280
     0
102
RTVSPost2010PropOp31
 70
     1
102
RTVSPost2010Prop32
280
     0
102
RTVSPost2010PropOp32
 70
     1
102
RTVSPost2010Prop33
280
     0
102
RTVSPost2010PropOp33
 70
     1
102
RTVSPost2010Prop34
280
     0
102
RTVSPost2010PropOp34
 70
     1
102
RTVSPost2010Prop35
280
     0
102
RTVSPost2010PropOp35
 70
     1
102
RTVSPost2010Prop36
280
     0
102
RTVSPost2010PropOp36
 70
     1
102
RTVSPost2010Prop37
 90
       50
102
RTVSPost2010PropOp37
 70
     1
102
RTVSPost2010Prop38
140
0.0
102
RTVSPost2010PropOp38
 70
     1
102
RTVSPost2010Prop39
140
1.0
102
RTVSPost2010PropOp39
 70
     1
102
RTVSPost2010Prop40
 90
        0
102
RTVSPost2010PropOp40
 70
     1
102
RTVSPost2010Prop41ColorIndex
 90
       18
102
RTVSPost2010Prop41ColorRGB
 90
        0
102
RTVSPost2010PropOp41
 70
     1
102
RTVSPost2010Prop42
 90
       50
102
RTVSPost2010PropOp42
 70
     1
102
RTVSPost2010Prop43
 90
        3
102
RTVSPost2010PropOp43
 70
     1
102
RTVSPost2010Prop44ColorIndex
 90
        5
102
RTVSPost2010Prop44ColorRGB
 90
      255
102
RTVSPost2010PropOp44
 70
     1
102
RTVSPost2010Prop45
280
     0
102
RTVSPost2010PropOp45
 70
     1
102
RTVSPost2010Prop46
 90
       50
102
RTVSPost2010PropOp46
 70
     1
102
RTVSPost2010Prop47
 90
       50
102
RTVSPost2010PropOp47
 70
     1
102
RTVSPost2010Prop48
 90
       50
102
RTVSPost2010PropOp48
 70
     1
102
RTVSPost2010Prop49
280
     0
102
RTVSPost2010PropOp49
 70
     1
102
RTVSPost2010Prop50
 90
       50
102
RTVSPost2010PropOp50
 70
     1
102
RTVSPost2010Prop51ColorIndex
 90
      256
102
RTVSPost2010Prop51ColorRGB
 90
-16777216
102
RTVSPost2010PropOp51
 70
     0
102
RTVSPost2010Prop52
140
1.0
102
RTVSPost2010PropOp52
 70
     0
102
RTVSPost2010Prop53
 90
        2
102
RTVSPost2010PropOp53
 70
     1
102
RTVSPost2010Prop54
  1
strokes_ogs.tif
102
RTVSPost2010PropOp54
 70
     1
102
RTVSPost2010Prop55
280
     0
102
RTVSPost2010PropOp55
 70
     1
102
RTVSPost2010Prop56
140
1.0
102
RTVSPost2010PropOp56
 70
     1
102
RTVSPost2010Prop57
140
1.0
102
RTVSPost2010PropOp57
 70
     1
  0
XRECORD
  5
385
102
{ACAD_REACTORS
330
384
102
}
330
384
100
AcDbXrecord
280
     1
102
RTVSPropertyOp0
 70
     1
102
RTVSPropertyOp1
 70
     1
102
RTVSPropertyOp2
 70
     1
102
RTVSPropertyOp3
 70
     1
102
RTVSPropertyOp4
 70
     1
102
RTVSPropertyOp5
 70
     1
102
RTVSPropertyOp6
 70
     1
102
RTVSPropertyOp7
 70
     1
102
RTVSPropertyOp8
 70
     1
102
RTVSPropertyOp9
 70
     1
102
RTVSPropertyOp10
 70
     1
102
RTVSPropertyOp11
 70
     1
102
RTVSPropertyOp12
 70
     1
102
RTVSPropertyOp13
 70
     1
102
RTVSPropertyOp14
 70
     1
102
RTVSPropertyOp15
 70
     1
102
RTVSPropertyOp16
 70
     1
102
RTVSPropertyOp17
 70
     1
102
RTVSPropertyOp18
 70
     1
102
RTVSPropertyOp19
 70
     1
102
RTVSPropertyOp20
 70
     1
102
RTVSPropertyOp21
 70
     1
102
RTVSPropertyOp22
 70
     1
102
RTVSPropertyOp23
 70
     1
102
RTVSPropertyOp24
 70
     1
102
RTVSPropertyOp25
 70
     1
102
RTVSPropertyOp26
 70
     1
102
RTVSPropertyOp27
 70
     1
102
RTVSPropertyOp28
 70
     1
102
RTVSPropertyOp29
 70
     1
102
RTVSPropertyOp30
 70
     1
102
RTVSPropertyOp31
 70
     1
102
RTVSPropertyOp32
 70
     1
102
RTVSPropertyOp33
 70
     1
102
RTVSPropertyOp34
 70
     1
102
RTVSPropertyOp35
 70
     1
102
RTVSPropertyOp36
 70
     1
102
RTVSPropertyOp37
 70
     1
102
RTVSPropertyOp38
 70
     1
102
RTVSPropertyOp39
 70
     1
102
RTVSPropertyOp40
 70
     1
102
RTVSPropertyOp41
 70
     1
102
RTVSPropertyOp42
 70
     1
102
RTVSPropertyOp43
 70
     1
102
RTVSPropertyOp44
 70
     1
102
RTVSPropertyOp45
 70
     1
102
RTVSPropertyOp46
 70
     1
102
RTVSPropertyOp47
 70
     1
102
RTVSPropertyOp48
 70
     1
102
RTVSPropertyOp49
 70
     1
102
RTVSPropertyOp50
 70
     1
102
RTVSPropertyOp51
 70
     0
102
RTVSPropertyOp52
 70
     0
102
RTVSPropertyOp53
 70
     1
102
RTVSPropertyOp54
 70
     1
102
RTVSPropertyOp55
 70
     1
102
RTVSPropertyOp56
 70
     1
102
RTVSPropertyOp57
 70
     1
102
RTVSPost2010Prop28
280
     0
102
RTVSPost2010PropOp28
 70
     1
102
RTVSPost2010Prop29
280
     1
102
RTVSPost2010PropOp29
 70
     1
102
RTVSPost2010Prop30
280
     1
102
RTVSPost2010PropOp30
 70
     1
102
RTVSPost2010Prop31
280
     0
102
RTVSPost2010PropOp31
 70
     1
102
RTVSPost2010Prop32
280
     0
102
RTVSPost2010PropOp32
 70
     1
102
RTVSPost2010Prop33
280
     0
102
RTVSPost2010PropOp33
 70
     1
102
RTVSPost2010Prop34
280
     0
102
RTVSPost2010PropOp34
 70
     1
102
RTVSPost2010Prop35
280
     0
102
RTVSPost2010PropOp35
 70
     1
102
RTVSPost2010Prop36
280
     0
102
RTVSPost2010PropOp36
 70
     1
102
RTVSPost2010Prop37
 90
       50
102
RTVSPost2010PropOp37
 70
     1
102
RTVSPost2010Prop38
140
0.0
102
RTVSPost2010PropOp38
 70
     1
102
RTVSPost2010Prop39
140
1.0
102
RTVSPost2010PropOp39
 70
     1
102
RTVSPost2010Prop40
 90
        0
102
RTVSPost2010PropOp40
 70
     1
102
RTVSPost2010Prop41ColorIndex
 90
       18
102
RTVSPost2010Prop41ColorRGB
 90
        0
102
RTVSPost2010PropOp41
 70
     1
102
RTVSPost2010Prop42
 90
       50
102
RTVSPost2010PropOp42
 70
     1
102
RTVSPost2010Prop43
 90
        3
102
RTVSPost2010PropOp43
 70
     1
102
RTVSPost2010Prop44ColorIndex
 90
        5
102
RTVSPost2010Prop44ColorRGB
 90
      255
102
RTVSPost2010PropOp44
 70
     1
102
RTVSPost2010Prop45
280
     0
102
RTVSPost2010PropOp45
 70
     1
102
RTVSPost2010Prop46
 90
       50
102
RTVSPost2010PropOp46
 70
     1
102
RTVSPost2010Prop47
 90
       50
102
RTVSPost2010PropOp47
 70
     1
102
RTVSPost2010Prop48
 90
       50
102
RTVSPost2010PropOp48
 70
     1
102
RTVSPost2010Prop49
280
     0
102
RTVSPost2010PropOp49
 70
     1
102
RTVSPost2010Prop50
 90
       50
102
RTVSPost2010PropOp50
 70
     1
102
RTVSPost2010Prop51ColorIndex
 90
      256
102
RTVSPost2010Prop51ColorRGB
 90
-16777216
102
RTVSPost2010PropOp51
 70
     0
102
RTVSPost2010Prop52
140
1.0
102
RTVSPost2010PropOp52
 70
     0
102
RTVSPost2010Prop53
 90
        2
102
RTVSPost2010PropOp53
 70
     1
102
RTVSPost2010Prop54
  1
strokes_ogs.tif
102
RTVSPost2010PropOp54
 70
     1
102
RTVSPost2010Prop55
280
     0
102
RTVSPost2010PropOp55
 70
     1
102
RTVSPost2010Prop56
140
1.0
102
RTVSPost2010PropOp56
 70
     1
102
RTVSPost2010Prop57
140
1.0
102
RTVSPost2010PropOp57
 70
     1
  0
XRECORD
  5
399
102
{ACAD_REACTORS
330
398
102
}
330
398
100
AcDbXrecord
280
     1
102
RTVSPropertyOp0
 70
     0
102
RTVSPropertyOp1
 70
     0
102
RTVSPropertyOp2
 70
     0
102
RTVSPropertyOp3
 70
     0
102
RTVSPropertyOp4
 70
     0
102
RTVSPropertyOp5
 70
     0
102
RTVSPropertyOp6
 70
     0
102
RTVSPropertyOp7
 70
     0
102
RTVSPropertyOp8
 70
     0
102
RTVSPropertyOp9
 70
     0
102
RTVSPropertyOp10
 70
     0
102
RTVSPropertyOp11
 70
     0
102
RTVSPropertyOp12
 70
     0
102
RTVSPropertyOp13
 70
     0
102
RTVSPropertyOp14
 70
     2
102
RTVSPropertyOp15
 70
     0
102
RTVSPropertyOp16
 70
     0
102
RTVSPropertyOp17
 70
     0
102
RTVSPropertyOp18
 70
     0
102
RTVSPropertyOp19
 70
     0
102
RTVSPropertyOp20
 70
     0
102
RTVSPropertyOp21
 70
     0
102
RTVSPropertyOp22
 70
     0
102
RTVSPropertyOp23
 70
     0
102
RTVSPropertyOp24
 70
     0
102
RTVSPropertyOp25
 70
     0
102
RTVSPropertyOp26
 70
     0
102
RTVSPropertyOp27
 70
     0
102
RTVSPropertyOp28
 70
     0
102
RTVSPropertyOp29
 70
     0
102
RTVSPropertyOp30
 70
     0
102
RTVSPropertyOp31
 70
     0
102
RTVSPropertyOp32
 70
     0
102
RTVSPropertyOp33
 70
     0
102
RTVSPropertyOp34
 70
     0
102
RTVSPropertyOp35
 70
     0
102
RTVSPropertyOp36
 70
     0
102
RTVSPropertyOp37
 70
     0
102
RTVSPropertyOp38
 70
     0
102
RTVSPropertyOp39
 70
     0
102
RTVSPropertyOp40
 70
     0
102
RTVSPropertyOp41
 70
     0
102
RTVSPropertyOp42
 70
     0
102
RTVSPropertyOp43
 70
     0
102
RTVSPropertyOp44
 70
     0
102
RTVSPropertyOp45
 70
     0
102
RTVSPropertyOp46
 70
     0
102
RTVSPropertyOp47
 70
     0
102
RTVSPropertyOp48
 70
     0
102
RTVSPropertyOp49
 70
     0
102
RTVSPropertyOp50
 70
     0
102
RTVSPropertyOp51
 70
     0
102
RTVSPropertyOp52
 70
     0
102
RTVSPropertyOp53
 70
     0
102
RTVSPropertyOp54
 70
     0
102
RTVSPropertyOp55
 70
     0
102
RTVSPropertyOp56
 70
     0
102
RTVSPropertyOp57
 70
     0
102
RTVSPost2010Prop28
280
     0
102
RTVSPost2010PropOp28
 70
     0
102
RTVSPost2010Prop29
280
     1
102
RTVSPost2010PropOp29
 70
     0
102
RTVSPost2010Prop30
280
     1
102
RTVSPost2010PropOp30
 70
     0
102
RTVSPost2010Prop31
280
     0
102
RTVSPost2010PropOp31
 70
     0
102
RTVSPost2010Prop32
280
     0
102
RTVSPost2010PropOp32
 70
     0
102
RTVSPost2010Prop33
280
     0
102
RTVSPost2010PropOp33
 70
     0
102
RTVSPost2010Prop34
280
     0
102
RTVSPost2010PropOp34
 70
     0
102
RTVSPost2010Prop35
280
     0
102
RTVSPost2010PropOp35
 70
     0
102
RTVSPost2010Prop36
280
     0
102
RTVSPost2010PropOp36
 70
     0
102
RTVSPost2010Prop37
 90
       50
102
RTVSPost2010PropOp37
 70
     0
102
RTVSPost2010Prop38
140
0.0
102
RTVSPost2010PropOp38
 70
     0
102
RTVSPost2010Prop39
140
1.0
102
RTVSPost2010PropOp39
 70
     0
102
RTVSPost2010Prop40
 90
        0
102
RTVSPost2010PropOp40
 70
     0
102
RTVSPost2010Prop41ColorIndex
 90
       18
102
RTVSPost2010Prop41ColorRGB
 90
        0
102
RTVSPost2010PropOp41
 70
     0
102
RTVSPost2010Prop42
 90
       50
102
RTVSPost2010PropOp42
 70
     0
102
RTVSPost2010Prop43
 90
        3
102
RTVSPost2010PropOp43
 70
     0
102
RTVSPost2010Prop44ColorIndex
 90
        5
102
RTVSPost2010Prop44ColorRGB
 90
      255
102
RTVSPost2010PropOp44
 70
     0
102
RTVSPost2010Prop45
280
     0
102
RTVSPost2010PropOp45
 70
     0
102
RTVSPost2010Prop46
 90
       50
102
RTVSPost2010PropOp46
 70
     0
102
RTVSPost2010Prop47
 90
       50
102
RTVSPost2010PropOp47
 70
     0
102
RTVSPost2010Prop48
 90
       50
102
RTVSPost2010PropOp48
 70
     0
102
RTVSPost2010Prop49
280
     0
102
RTVSPost2010PropOp49
 70
     0
102
RTVSPost2010Prop50
 90
       50
102
RTVSPost2010PropOp50
 70
     0
102
RTVSPost2010Prop51ColorIndex
 90
      256
102
RTVSPost2010Prop51ColorRGB
 90
-16777216
102
RTVSPost2010PropOp51
 70
     0
102
RTVSPost2010Prop52
140
1.0
102
RTVSPost2010PropOp52
 70
     0
102
RTVSPost2010Prop53
 90
        2
102
RTVSPost2010PropOp53
 70
     0
102
RTVSPost2010Prop54
  1
strokes_ogs.tif
102
RTVSPost2010PropOp54
 70
     0
102
RTVSPost2010Prop55
280
     0
102
RTVSPost2010PropOp55
 70
     0
102
RTVSPost2010Prop56
140
1.0
102
RTVSPost2010PropOp56
 70
     0
102
RTVSPost2010Prop57
140
1.0
102
RTVSPost2010PropOp57
 70
     0
  0
XRECORD
  5
393
102
{ACAD_REACTORS
330
392
102
}
330
392
100
AcDbXrecord
280
     1
102
RTVSPropertyOp0
 70
     1
102
RTVSPropertyOp1
 70
     1
102
RTVSPropertyOp2
 70
     1
102
RTVSPropertyOp3
 70
     1
102
RTVSPropertyOp4
 70
     1
102
RTVSPropertyOp5
 70
     1
102
RTVSPropertyOp6
 70
     1
102
RTVSPropertyOp7
 70
     1
102
RTVSPropertyOp8
 70
     1
102
RTVSPropertyOp9
 70
     1
102
RTVSPropertyOp10
 70
     1
102
RTVSPropertyOp11
 70
     1
102
RTVSPropertyOp12
 70
     1
102
RTVSPropertyOp13
 70
     1
102
RTVSPropertyOp14
 70
     1
102
RTVSPropertyOp15
 70
     1
102
RTVSPropertyOp16
 70
     1
102
RTVSPropertyOp17
 70
     1
102
RTVSPropertyOp18
 70
     1
102
RTVSPropertyOp19
 70
     1
102
RTVSPropertyOp20
 70
     1
102
RTVSPropertyOp21
 70
     1
102
RTVSPropertyOp22
 70
     1
102
RTVSPropertyOp23
 70
     1
102
RTVSPropertyOp24
 70
     1
102
RTVSPropertyOp25
 70
     1
102
RTVSPropertyOp26
 70
     1
102
RTVSPropertyOp27
 70
     1
102
RTVSPropertyOp28
 70
     1
102
RTVSPropertyOp29
 70
     1
102
RTVSPropertyOp30
 70
     1
102
RTVSPropertyOp31
 70
     1
102
RTVSPropertyOp32
 70
     1
102
RTVSPropertyOp33
 70
     1
102
RTVSPropertyOp34
 70
     1
102
RTVSPropertyOp35
 70
     1
102
RTVSPropertyOp36
 70
     1
102
RTVSPropertyOp37
 70
     1
102
RTVSPropertyOp38
 70
     1
102
RTVSPropertyOp39
 70
     1
102
RTVSPropertyOp40
 70
     1
102
RTVSPropertyOp41
 70
     1
102
RTVSPropertyOp42
 70
     1
102
RTVSPropertyOp43
 70
     1
102
RTVSPropertyOp44
 70
     1
102
RTVSPropertyOp45
 70
     1
102
RTVSPropertyOp46
 70
     1
102
RTVSPropertyOp47
 70
     1
102
RTVSPropertyOp48
 70
     1
102
RTVSPropertyOp49
 70
     1
102
RTVSPropertyOp50
 70
     1
102
RTVSPropertyOp51
 70
     0
102
RTVSPropertyOp52
 70
     0
102
RTVSPropertyOp53
 70
     1
102
RTVSPropertyOp54
 70
     1
102
RTVSPropertyOp55
 70
     1
102
RTVSPropertyOp56
 70
     1
102
RTVSPropertyOp57
 70
     1
102
RTVSPost2010Prop28
280
     0
102
RTVSPost2010PropOp28
 70
     1
102
RTVSPost2010Prop29
280
     1
102
RTVSPost2010PropOp29
 70
     1
102
RTVSPost2010Prop30
280
     1
102
RTVSPost2010PropOp30
 70
     1
102
RTVSPost2010Prop31
280
     0
102
RTVSPost2010PropOp31
 70
     1
102
RTVSPost2010Prop32
280
     0
102
RTVSPost2010PropOp32
 70
     1
102
RTVSPost2010Prop33
280
     0
102
RTVSPost2010PropOp33
 70
     1
102
RTVSPost2010Prop34
280
     0
102
RTVSPost2010PropOp34
 70
     1
102
RTVSPost2010Prop35
280
     0
102
RTVSPost2010PropOp35
 70
     1
102
RTVSPost2010Prop36
280
     0
102
RTVSPost2010PropOp36
 70
     1
102
RTVSPost2010Prop37
 90
       50
102
RTVSPost2010PropOp37
 70
     1
102
RTVSPost2010Prop38
140
0.0
102
RTVSPost2010PropOp38
 70
     1
102
RTVSPost2010Prop39
140
1.0
102
RTVSPost2010PropOp39
 70
     1
102
RTVSPost2010Prop40
 90
        0
102
RTVSPost2010PropOp40
 70
     1
102
RTVSPost2010Prop41ColorIndex
 90
       18
102
RTVSPost2010Prop41ColorRGB
 90
        0
102
RTVSPost2010PropOp41
 70
     1
102
RTVSPost2010Prop42
 90
       50
102
RTVSPost2010PropOp42
 70
     1
102
RTVSPost2010Prop43
 90
        3
102
RTVSPost2010PropOp43
 70
     1
102
RTVSPost2010Prop44ColorIndex
 90
        5
102
RTVSPost2010Prop44ColorRGB
 90
      255
102
RTVSPost2010PropOp44
 70
     1
102
RTVSPost2010Prop45
280
     0
102
RTVSPost2010PropOp45
 70
     1
102
RTVSPost2010Prop46
 90
       50
102
RTVSPost2010PropOp46
 70
     1
102
RTVSPost2010Prop47
 90
       50
102
RTVSPost2010PropOp47
 70
     1
102
RTVSPost2010Prop48
 90
       50
102
RTVSPost2010PropOp48
 70
     1
102
RTVSPost2010Prop49
280
     0
102
RTVSPost2010PropOp49
 70
     1
102
RTVSPost2010Prop50
 90
       50
102
RTVSPost2010PropOp50
 70
     1
102
RTVSPost2010Prop51ColorIndex
 90
      256
102
RTVSPost2010Prop51ColorRGB
 90
-16777216
102
RTVSPost2010PropOp51
 70
     0
102
RTVSPost2010Prop52
140
1.0
102
RTVSPost2010PropOp52
 70
     0
102
RTVSPost2010Prop53
 90
        2
102
RTVSPost2010PropOp53
 70
     1
102
RTVSPost2010Prop54
  1
strokes_ogs.tif
102
RTVSPost2010PropOp54
 70
     1
102
RTVSPost2010Prop55
280
     0
102
RTVSPost2010PropOp55
 70
     1
102
RTVSPost2010Prop56
140
1.0
102
RTVSPost2010PropOp56
 70
     1
102
RTVSPost2010Prop57
140
1.0
102
RTVSPost2010PropOp57
 70
     1
  0
XRECORD
  5
39B
102
{ACAD_REACTORS
330
39A
102
}
330
39A
100
AcDbXrecord
280
     1
102
RTVSPropertyOp0
 70
     0
102
RTVSPropertyOp1
 70
     0
102
RTVSPropertyOp2
 70
     0
102
RTVSPropertyOp3
 70
     0
102
RTVSPropertyOp4
 70
     0
102
RTVSPropertyOp5
 70
     0
102
RTVSPropertyOp6
 70
     0
102
RTVSPropertyOp7
 70
     0
102
RTVSPropertyOp8
 70
     0
102
RTVSPropertyOp9
 70
     0
102
RTVSPropertyOp10
 70
     0
102
RTVSPropertyOp11
 70
     0
102
RTVSPropertyOp12
 70
     0
102
RTVSPropertyOp13
 70
     0
102
RTVSPropertyOp14
 70
     2
102
RTVSPropertyOp15
 70
     0
102
RTVSPropertyOp16
 70
     0
102
RTVSPropertyOp17
 70
     0
102
RTVSPropertyOp18
 70
     0
102
RTVSPropertyOp19
 70
     0
102
RTVSPropertyOp20
 70
     0
102
RTVSPropertyOp21
 70
     0
102
RTVSPropertyOp22
 70
     0
102
RTVSPropertyOp23
 70
     0
102
RTVSPropertyOp24
 70
     0
102
RTVSPropertyOp25
 70
     0
102
RTVSPropertyOp26
 70
     0
102
RTVSPropertyOp27
 70
     0
102
RTVSPropertyOp28
 70
     0
102
RTVSPropertyOp29
 70
     0
102
RTVSPropertyOp30
 70
     0
102
RTVSPropertyOp31
 70
     0
102
RTVSPropertyOp32
 70
     0
102
RTVSPropertyOp33
 70
     0
102
RTVSPropertyOp34
 70
     0
102
RTVSPropertyOp35
 70
     0
102
RTVSPropertyOp36
 70
     0
102
RTVSPropertyOp37
 70
     0
102
RTVSPropertyOp38
 70
     0
102
RTVSPropertyOp39
 70
     0
102
RTVSPropertyOp40
 70
     0
102
RTVSPropertyOp41
 70
     0
102
RTVSPropertyOp42
 70
     0
102
RTVSPropertyOp43
 70
     0
102
RTVSPropertyOp44
 70
     0
102
RTVSPropertyOp45
 70
     0
102
RTVSPropertyOp46
 70
     0
102
RTVSPropertyOp47
 70
     0
102
RTVSPropertyOp48
 70
     0
102
RTVSPropertyOp49
 70
     0
102
RTVSPropertyOp50
 70
     0
102
RTVSPropertyOp51
 70
     0
102
RTVSPropertyOp52
 70
     0
102
RTVSPropertyOp53
 70
     0
102
RTVSPropertyOp54
 70
     0
102
RTVSPropertyOp55
 70
     0
102
RTVSPropertyOp56
 70
     0
102
RTVSPropertyOp57
 70
     0
102
RTVSPost2010Prop28
280
     0
102
RTVSPost2010PropOp28
 70
     0
102
RTVSPost2010Prop29
280
     1
102
RTVSPost2010PropOp29
 70
     0
102
RTVSPost2010Prop30
280
     1
102
RTVSPost2010PropOp30
 70
     0
102
RTVSPost2010Prop31
280
     0
102
RTVSPost2010PropOp31
 70
     0
102
RTVSPost2010Prop32
280
     0
102
RTVSPost2010PropOp32
 70
     0
102
RTVSPost2010Prop33
280
     0
102
RTVSPost2010PropOp33
 70
     0
102
RTVSPost2010Prop34
280
     0
102
RTVSPost2010PropOp34
 70
     0
102
RTVSPost2010Prop35
280
     0
102
RTVSPost2010PropOp35
 70
     0
102
RTVSPost2010Prop36
280
     0
102
RTVSPost2010PropOp36
 70
     0
102
RTVSPost2010Prop37
 90
       50
102
RTVSPost2010PropOp37
 70
     0
102
RTVSPost2010Prop38
140
0.0
102
RTVSPost2010PropOp38
 70
     0
102
RTVSPost2010Prop39
140
1.0
102
RTVSPost2010PropOp39
 70
     0
102
RTVSPost2010Prop40
 90
        0
102
RTVSPost2010PropOp40
 70
     0
102
RTVSPost2010Prop41ColorIndex
 90
       18
102
RTVSPost2010Prop41ColorRGB
 90
        0
102
RTVSPost2010PropOp41
 70
     0
102
RTVSPost2010Prop42
 90
       50
102
RTVSPost2010PropOp42
 70
     0
102
RTVSPost2010Prop43
 90
        3
102
RTVSPost2010PropOp43
 70
     0
102
RTVSPost2010Prop44ColorIndex
 90
        5
102
RTVSPost2010Prop44ColorRGB
 90
      255
102
RTVSPost2010PropOp44
 70
     0
102
RTVSPost2010Prop45
280
     0
102
RTVSPost2010PropOp45
 70
     0
102
RTVSPost2010Prop46
 90
       50
102
RTVSPost2010PropOp46
 70
     0
102
RTVSPost2010Prop47
 90
       50
102
RTVSPost2010PropOp47
 70
     0
102
RTVSPost2010Prop48
 90
       50
102
RTVSPost2010PropOp48
 70
     0
102
RTVSPost2010Prop49
280
     0
102
RTVSPost2010PropOp49
 70
     0
102
RTVSPost2010Prop50
 90
       50
102
RTVSPost2010PropOp50
 70
     0
102
RTVSPost2010Prop51ColorIndex
 90
      256
102
RTVSPost2010Prop51ColorRGB
 90
-16777216
102
RTVSPost2010PropOp51
 70
     0
102
RTVSPost2010Prop52
140
1.0
102
RTVSPost2010PropOp52
 70
     0
102
RTVSPost2010Prop53
 90
        2
102
RTVSPost2010PropOp53
 70
     0
102
RTVSPost2010Prop54
  1
strokes_ogs.tif
102
RTVSPost2010PropOp54
 70
     0
102
RTVSPost2010Prop55
280
     0
102
RTVSPost2010PropOp55
 70
     0
102
RTVSPost2010Prop56
140
1.0
102
RTVSPost2010PropOp56
 70
     0
102
RTVSPost2010Prop57
140
1.0
102
RTVSPost2010PropOp57
 70
     0
  0
XRECORD
  5
389
102
{ACAD_REACTORS
330
388
102
}
330
388
100
AcDbXrecord
280
     1
102
RTVSPropertyOp0
 70
     1
102
RTVSPropertyOp1
 70
     1
102
RTVSPropertyOp2
 70
     1
102
RTVSPropertyOp3
 70
     1
102
RTVSPropertyOp4
 70
     1
102
RTVSPropertyOp5
 70
     1
102
RTVSPropertyOp6
 70
     1
102
RTVSPropertyOp7
 70
     1
102
RTVSPropertyOp8
 70
     1
102
RTVSPropertyOp9
 70
     1
102
RTVSPropertyOp10
 70
     1
102
RTVSPropertyOp11
 70
     1
102
RTVSPropertyOp12
 70
     1
102
RTVSPropertyOp13
 70
     1
102
RTVSPropertyOp14
 70
     1
102
RTVSPropertyOp15
 70
     1
102
RTVSPropertyOp16
 70
     1
102
RTVSPropertyOp17
 70
     1
102
RTVSPropertyOp18
 70
     1
102
RTVSPropertyOp19
 70
     1
102
RTVSPropertyOp20
 70
     1
102
RTVSPropertyOp21
 70
     1
102
RTVSPropertyOp22
 70
     1
102
RTVSPropertyOp23
 70
     1
102
RTVSPropertyOp24
 70
     1
102
RTVSPropertyOp25
 70
     1
102
RTVSPropertyOp26
 70
     1
102
RTVSPropertyOp27
 70
     1
102
RTVSPropertyOp28
 70
     1
102
RTVSPropertyOp29
 70
     1
102
RTVSPropertyOp30
 70
     1
102
RTVSPropertyOp31
 70
     1
102
RTVSPropertyOp32
 70
     1
102
RTVSPropertyOp33
 70
     1
102
RTVSPropertyOp34
 70
     1
102
RTVSPropertyOp35
 70
     1
102
RTVSPropertyOp36
 70
     1
102
RTVSPropertyOp37
 70
     1
102
RTVSPropertyOp38
 70
     1
102
RTVSPropertyOp39
 70
     1
102
RTVSPropertyOp40
 70
     1
102
RTVSPropertyOp41
 70
     1
102
RTVSPropertyOp42
 70
     1
102
RTVSPropertyOp43
 70
     1
102
RTVSPropertyOp44
 70
     1
102
RTVSPropertyOp45
 70
     1
102
RTVSPropertyOp46
 70
     1
102
RTVSPropertyOp47
 70
     1
102
RTVSPropertyOp48
 70
     1
102
RTVSPropertyOp49
 70
     1
102
RTVSPropertyOp50
 70
     1
102
RTVSPropertyOp51
 70
     0
102
RTVSPropertyOp52
 70
     0
102
RTVSPropertyOp53
 70
     1
102
RTVSPropertyOp54
 70
     1
102
RTVSPropertyOp55
 70
     1
102
RTVSPropertyOp56
 70
     1
102
RTVSPropertyOp57
 70
     1
102
RTVSPost2010Prop28
280
     0
102
RTVSPost2010PropOp28
 70
     1
102
RTVSPost2010Prop29
280
     1
102
RTVSPost2010PropOp29
 70
     1
102
RTVSPost2010Prop30
280
     1
102
RTVSPost2010PropOp30
 70
     1
102
RTVSPost2010Prop31
280
     0
102
RTVSPost2010PropOp31
 70
     1
102
RTVSPost2010Prop32
280
     0
102
RTVSPost2010PropOp32
 70
     1
102
RTVSPost2010Prop33
280
     0
102
RTVSPost2010PropOp33
 70
     1
102
RTVSPost2010Prop34
280
     0
102
RTVSPost2010PropOp34
 70
     1
102
RTVSPost2010Prop35
280
     0
102
RTVSPost2010PropOp35
 70
     1
102
RTVSPost2010Prop36
280
     0
102
RTVSPost2010PropOp36
 70
     1
102
RTVSPost2010Prop37
 90
       50
102
RTVSPost2010PropOp37
 70
     1
102
RTVSPost2010Prop38
140
0.0
102
RTVSPost2010PropOp38
 70
     1
102
RTVSPost2010Prop39
140
1.0
102
RTVSPost2010PropOp39
 70
     1
102
RTVSPost2010Prop40
 90
        0
102
RTVSPost2010PropOp40
 70
     1
102
RTVSPost2010Prop41ColorIndex
 90
       18
102
RTVSPost2010Prop41ColorRGB
 90
        0
102
RTVSPost2010PropOp41
 70
     1
102
RTVSPost2010Prop42
 90
       50
102
RTVSPost2010PropOp42
 70
     1
102
RTVSPost2010Prop43
 90
        3
102
RTVSPost2010PropOp43
 70
     1
102
RTVSPost2010Prop44ColorIndex
 90
        5
102
RTVSPost2010Prop44ColorRGB
 90
      255
102
RTVSPost2010PropOp44
 70
     1
102
RTVSPost2010Prop45
280
     0
102
RTVSPost2010PropOp45
 70
     1
102
RTVSPost2010Prop46
 90
       50
102
RTVSPost2010PropOp46
 70
     1
102
RTVSPost2010Prop47
 90
       50
102
RTVSPost2010PropOp47
 70
     1
102
RTVSPost2010Prop48
 90
       50
102
RTVSPost2010PropOp48
 70
     1
102
RTVSPost2010Prop49
280
     0
102
RTVSPost2010PropOp49
 70
     1
102
RTVSPost2010Prop50
 90
       50
102
RTVSPost2010PropOp50
 70
     1
102
RTVSPost2010Prop51ColorIndex
 90
      256
102
RTVSPost2010Prop51ColorRGB
 90
-16777216
102
RTVSPost2010PropOp51
 70
     0
102
RTVSPost2010Prop52
140
1.0
102
RTVSPost2010PropOp52
 70
     0
102
RTVSPost2010Prop53
 90
        2
102
RTVSPost2010PropOp53
 70
     1
102
RTVSPost2010Prop54
  1
strokes_ogs.tif
102
RTVSPost2010PropOp54
 70
     1
102
RTVSPost2010Prop55
280
     0
102
RTVSPost2010PropOp55
 70
     1
102
RTVSPost2010Prop56
140
1.0
102
RTVSPost2010PropOp56
 70
     1
102
RTVSPost2010Prop57
140
1.0
102
RTVSPost2010PropOp57
 70
     1
  0
XRECORD
  5
3A7
102
{ACAD_REACTORS
330
3A6
102
}
330
3A6
100
AcDbXrecord
280
     1
102
RTVSPropertyOp0
 70
     1
102
RTVSPropertyOp1
 70
     1
102
RTVSPropertyOp2
 70
     1
102
RTVSPropertyOp3
 70
     1
102
RTVSPropertyOp4
 70
     1
102
RTVSPropertyOp5
 70
     1
102
RTVSPropertyOp6
 70
     1
102
RTVSPropertyOp7
 70
     1
102
RTVSPropertyOp8
 70
     1
102
RTVSPropertyOp9
 70
     1
102
RTVSPropertyOp10
 70
     1
102
RTVSPropertyOp11
 70
     1
102
RTVSPropertyOp12
 70
     1
102
RTVSPropertyOp13
 70
     1
102
RTVSPropertyOp14
 70
     1
102
RTVSPropertyOp15
 70
     1
102
RTVSPropertyOp16
 70
     1
102
RTVSPropertyOp17
 70
     1
102
RTVSPropertyOp18
 70
     1
102
RTVSPropertyOp19
 70
     1
102
RTVSPropertyOp20
 70
     1
102
RTVSPropertyOp21
 70
     1
102
RTVSPropertyOp22
 70
     1
102
RTVSPropertyOp23
 70
     1
102
RTVSPropertyOp24
 70
     1
102
RTVSPropertyOp25
 70
     1
102
RTVSPropertyOp26
 70
     1
102
RTVSPropertyOp27
 70
     1
102
RTVSPropertyOp28
 70
     1
102
RTVSPropertyOp29
 70
     1
102
RTVSPropertyOp30
 70
     1
102
RTVSPropertyOp31
 70
     1
102
RTVSPropertyOp32
 70
     1
102
RTVSPropertyOp33
 70
     1
102
RTVSPropertyOp34
 70
     1
102
RTVSPropertyOp35
 70
     1
102
RTVSPropertyOp36
 70
     1
102
RTVSPropertyOp37
 70
     1
102
RTVSPropertyOp38
 70
     1
102
RTVSPropertyOp39
 70
     1
102
RTVSPropertyOp40
 70
     1
102
RTVSPropertyOp41
 70
     1
102
RTVSPropertyOp42
 70
     1
102
RTVSPropertyOp43
 70
     1
102
RTVSPropertyOp44
 70
     1
102
RTVSPropertyOp45
 70
     1
102
RTVSPropertyOp46
 70
     1
102
RTVSPropertyOp47
 70
     1
102
RTVSPropertyOp48
 70
     1
102
RTVSPropertyOp49
 70
     1
102
RTVSPropertyOp50
 70
     1
102
RTVSPropertyOp51
 70
     0
102
RTVSPropertyOp52
 70
     0
102
RTVSPropertyOp53
 70
     1
102
RTVSPropertyOp54
 70
     1
102
RTVSPropertyOp55
 70
     1
102
RTVSPropertyOp56
 70
     1
102
RTVSPropertyOp57
 70
     1
102
RTVSPost2010Prop28
280
     0
102
RTVSPost2010PropOp28
 70
     1
102
RTVSPost2010Prop29
280
     1
102
RTVSPost2010PropOp29
 70
     1
102
RTVSPost2010Prop30
280
     1
102
RTVSPost2010PropOp30
 70
     1
102
RTVSPost2010Prop31
280
     0
102
RTVSPost2010PropOp31
 70
     1
102
RTVSPost2010Prop32
280
     0
102
RTVSPost2010PropOp32
 70
     1
102
RTVSPost2010Prop33
280
     0
102
RTVSPost2010PropOp33
 70
     1
102
RTVSPost2010Prop34
280
     0
102
RTVSPost2010PropOp34
 70
     1
102
RTVSPost2010Prop35
280
     0
102
RTVSPost2010PropOp35
 70
     1
102
RTVSPost2010Prop36
280
     0
102
RTVSPost2010PropOp36
 70
     1
102
RTVSPost2010Prop37
 90
       50
102
RTVSPost2010PropOp37
 70
     1
102
RTVSPost2010Prop38
140
0.0
102
RTVSPost2010PropOp38
 70
     1
102
RTVSPost2010Prop39
140
1.0
102
RTVSPost2010PropOp39
 70
     1
102
RTVSPost2010Prop40
 90
        0
102
RTVSPost2010PropOp40
 70
     1
102
RTVSPost2010Prop41ColorIndex
 90
       18
102
RTVSPost2010Prop41ColorRGB
 90
        0
102
RTVSPost2010PropOp41
 70
     1
102
RTVSPost2010Prop42
 90
       50
102
RTVSPost2010PropOp42
 70
     1
102
RTVSPost2010Prop43
 90
        3
102
RTVSPost2010PropOp43
 70
     1
102
RTVSPost2010Prop44ColorIndex
 90
        5
102
RTVSPost2010Prop44ColorRGB
 90
      255
102
RTVSPost2010PropOp44
 70
     1
102
RTVSPost2010Prop45
280
     0
102
RTVSPost2010PropOp45
 70
     1
102
RTVSPost2010Prop46
 90
       50
102
RTVSPost2010PropOp46
 70
     1
102
RTVSPost2010Prop47
 90
       50
102
RTVSPost2010PropOp47
 70
     1
102
RTVSPost2010Prop48
 90
       50
102
RTVSPost2010PropOp48
 70
     1
102
RTVSPost2010Prop49
280
     0
102
RTVSPost2010PropOp49
 70
     1
102
RTVSPost2010Prop50
 90
       50
102
RTVSPost2010PropOp50
 70
     1
102
RTVSPost2010Prop51ColorIndex
 90
      256
102
RTVSPost2010Prop51ColorRGB
 90
-16777216
102
RTVSPost2010PropOp51
 70
     0
102
RTVSPost2010Prop52
140
1.0
102
RTVSPost2010PropOp52
 70
     0
102
RTVSPost2010Prop53
 90
        2
102
RTVSPost2010PropOp53
 70
     1
102
RTVSPost2010Prop54
  1
strokes_ogs.tif
102
RTVSPost2010PropOp54
 70
     1
102
RTVSPost2010Prop55
280
     0
102
RTVSPost2010PropOp55
 70
     1
102
RTVSPost2010Prop56
140
1.0
102
RTVSPost2010PropOp56
 70
     1
102
RTVSPost2010Prop57
140
1.0
102
RTVSPost2010PropOp57
 70
     1
  0
XRECORD
  5
3A5
102
{ACAD_REACTORS
330
3A4
102
}
330
3A4
100
AcDbXrecord
280
     1
102
RTVSPropertyOp0
 70
     1
102
RTVSPropertyOp1
 70
     1
102
RTVSPropertyOp2
 70
     1
102
RTVSPropertyOp3
 70
     1
102
RTVSPropertyOp4
 70
     1
102
RTVSPropertyOp5
 70
     1
102
RTVSPropertyOp6
 70
     1
102
RTVSPropertyOp7
 70
     1
102
RTVSPropertyOp8
 70
     1
102
RTVSPropertyOp9
 70
     1
102
RTVSPropertyOp10
 70
     1
102
RTVSPropertyOp11
 70
     1
102
RTVSPropertyOp12
 70
     1
102
RTVSPropertyOp13
 70
     1
102
RTVSPropertyOp14
 70
     1
102
RTVSPropertyOp15
 70
     1
102
RTVSPropertyOp16
 70
     1
102
RTVSPropertyOp17
 70
     1
102
RTVSPropertyOp18
 70
     1
102
RTVSPropertyOp19
 70
     1
102
RTVSPropertyOp20
 70
     1
102
RTVSPropertyOp21
 70
     1
102
RTVSPropertyOp22
 70
     1
102
RTVSPropertyOp23
 70
     1
102
RTVSPropertyOp24
 70
     1
102
RTVSPropertyOp25
 70
     1
102
RTVSPropertyOp26
 70
     1
102
RTVSPropertyOp27
 70
     1
102
RTVSPropertyOp28
 70
     1
102
RTVSPropertyOp29
 70
     1
102
RTVSPropertyOp30
 70
     1
102
RTVSPropertyOp31
 70
     1
102
RTVSPropertyOp32
 70
     1
102
RTVSPropertyOp33
 70
     1
102
RTVSPropertyOp34
 70
     1
102
RTVSPropertyOp35
 70
     1
102
RTVSPropertyOp36
 70
     1
102
RTVSPropertyOp37
 70
     1
102
RTVSPropertyOp38
 70
     1
102
RTVSPropertyOp39
 70
     1
102
RTVSPropertyOp40
 70
     1
102
RTVSPropertyOp41
 70
     1
102
RTVSPropertyOp42
 70
     1
102
RTVSPropertyOp43
 70
     1
102
RTVSPropertyOp44
 70
     1
102
RTVSPropertyOp45
 70
     1
102
RTVSPropertyOp46
 70
     1
102
RTVSPropertyOp47
 70
     1
102
RTVSPropertyOp48
 70
     1
102
RTVSPropertyOp49
 70
     1
102
RTVSPropertyOp50
 70
     1
102
RTVSPropertyOp51
 70
     0
102
RTVSPropertyOp52
 70
     0
102
RTVSPropertyOp53
 70
     1
102
RTVSPropertyOp54
 70
     1
102
RTVSPropertyOp55
 70
     1
102
RTVSPropertyOp56
 70
     1
102
RTVSPropertyOp57
 70
     1
102
RTVSPost2010Prop28
280
     0
102
RTVSPost2010PropOp28
 70
     1
102
RTVSPost2010Prop29
280
     1
102
RTVSPost2010PropOp29
 70
     1
102
RTVSPost2010Prop30
280
     1
102
RTVSPost2010PropOp30
 70
     1
102
RTVSPost2010Prop31
280
     0
102
RTVSPost2010PropOp31
 70
     1
102
RTVSPost2010Prop32
280
     0
102
RTVSPost2010PropOp32
 70
     1
102
RTVSPost2010Prop33
280
     0
102
RTVSPost2010PropOp33
 70
     1
102
RTVSPost2010Prop34
280
     0
102
RTVSPost2010PropOp34
 70
     1
102
RTVSPost2010Prop35
280
     0
102
RTVSPost2010PropOp35
 70
     1
102
RTVSPost2010Prop36
280
     0
102
RTVSPost2010PropOp36
 70
     1
102
RTVSPost2010Prop37
 90
       50
102
RTVSPost2010PropOp37
 70
     1
102
RTVSPost2010Prop38
140
0.0
102
RTVSPost2010PropOp38
 70
     1
102
RTVSPost2010Prop39
140
1.0
102
RTVSPost2010PropOp39
 70
     1
102
RTVSPost2010Prop40
 90
        0
102
RTVSPost2010PropOp40
 70
     1
102
RTVSPost2010Prop41ColorIndex
 90
       18
102
RTVSPost2010Prop41ColorRGB
 90
        0
102
RTVSPost2010PropOp41
 70
     1
102
RTVSPost2010Prop42
 90
       50
102
RTVSPost2010PropOp42
 70
     1
102
RTVSPost2010Prop43
 90
        3
102
RTVSPost2010PropOp43
 70
     1
102
RTVSPost2010Prop44ColorIndex
 90
        5
102
RTVSPost2010Prop44ColorRGB
 90
      255
102
RTVSPost2010PropOp44
 70
     1
102
RTVSPost2010Prop45
280
     0
102
RTVSPost2010PropOp45
 70
     1
102
RTVSPost2010Prop46
 90
       50
102
RTVSPost2010PropOp46
 70
     1
102
RTVSPost2010Prop47
 90
       50
102
RTVSPost2010PropOp47
 70
     1
102
RTVSPost2010Prop48
 90
       50
102
RTVSPost2010PropOp48
 70
     1
102
RTVSPost2010Prop49
280
     0
102
RTVSPost2010PropOp49
 70
     1
102
RTVSPost2010Prop50
 90
       50
102
RTVSPost2010PropOp50
 70
     1
102
RTVSPost2010Prop51ColorIndex
 90
      256
102
RTVSPost2010Prop51ColorRGB
 90
-16777216
102
RTVSPost2010PropOp51
 70
     0
102
RTVSPost2010Prop52
140
1.0
102
RTVSPost2010PropOp52
 70
     0
102
RTVSPost2010Prop53
 90
        2
102
RTVSPost2010PropOp53
 70
     1
102
RTVSPost2010Prop54
  1
strokes_ogs.tif
102
RTVSPost2010PropOp54
 70
     1
102
RTVSPost2010Prop55
280
     0
102
RTVSPost2010PropOp55
 70
     1
102
RTVSPost2010Prop56
140
1.0
102
RTVSPost2010PropOp56
 70
     1
102
RTVSPost2010Prop57
140
1.0
102
RTVSPost2010PropOp57
 70
     1
  0
XRECORD
  5
39F
102
{ACAD_REACTORS
330
39E
102
}
330
39E
100
AcDbXrecord
280
     1
102
RTVSPropertyOp0
 70
     1
102
RTVSPropertyOp1
 70
     1
102
RTVSPropertyOp2
 70
     1
102
RTVSPropertyOp3
 70
     1
102
RTVSPropertyOp4
 70
     1
102
RTVSPropertyOp5
 70
     1
102
RTVSPropertyOp6
 70
     1
102
RTVSPropertyOp7
 70
     1
102
RTVSPropertyOp8
 70
     1
102
RTVSPropertyOp9
 70
     1
102
RTVSPropertyOp10
 70
     1
102
RTVSPropertyOp11
 70
     1
102
RTVSPropertyOp12
 70
     1
102
RTVSPropertyOp13
 70
     1
102
RTVSPropertyOp14
 70
     1
102
RTVSPropertyOp15
 70
     1
102
RTVSPropertyOp16
 70
     1
102
RTVSPropertyOp17
 70
     1
102
RTVSPropertyOp18
 70
     1
102
RTVSPropertyOp19
 70
     1
102
RTVSPropertyOp20
 70
     1
102
RTVSPropertyOp21
 70
     1
102
RTVSPropertyOp22
 70
     1
102
RTVSPropertyOp23
 70
     1
102
RTVSPropertyOp24
 70
     1
102
RTVSPropertyOp25
 70
     1
102
RTVSPropertyOp26
 70
     1
102
RTVSPropertyOp27
 70
     1
102
RTVSPropertyOp28
 70
     1
102
RTVSPropertyOp29
 70
     1
102
RTVSPropertyOp30
 70
     1
102
RTVSPropertyOp31
 70
     1
102
RTVSPropertyOp32
 70
     1
102
RTVSPropertyOp33
 70
     1
102
RTVSPropertyOp34
 70
     1
102
RTVSPropertyOp35
 70
     1
102
RTVSPropertyOp36
 70
     1
102
RTVSPropertyOp37
 70
     1
102
RTVSPropertyOp38
 70
     1
102
RTVSPropertyOp39
 70
     1
102
RTVSPropertyOp40
 70
     1
102
RTVSPropertyOp41
 70
     1
102
RTVSPropertyOp42
 70
     1
102
RTVSPropertyOp43
 70
     1
102
RTVSPropertyOp44
 70
     1
102
RTVSPropertyOp45
 70
     1
102
RTVSPropertyOp46
 70
     1
102
RTVSPropertyOp47
 70
     1
102
RTVSPropertyOp48
 70
     1
102
RTVSPropertyOp49
 70
     1
102
RTVSPropertyOp50
 70
     1
102
RTVSPropertyOp51
 70
     0
102
RTVSPropertyOp52
 70
     0
102
RTVSPropertyOp53
 70
     1
102
RTVSPropertyOp54
 70
     1
102
RTVSPropertyOp55
 70
     1
102
RTVSPropertyOp56
 70
     1
102
RTVSPropertyOp57
 70
     1
102
RTVSPost2010Prop28
280
     0
102
RTVSPost2010PropOp28
 70
     1
102
RTVSPost2010Prop29
280
     1
102
RTVSPost2010PropOp29
 70
     1
102
RTVSPost2010Prop30
280
     1
102
RTVSPost2010PropOp30
 70
     1
102
RTVSPost2010Prop31
280
     0
102
RTVSPost2010PropOp31
 70
     1
102
RTVSPost2010Prop32
280
     0
102
RTVSPost2010PropOp32
 70
     1
102
RTVSPost2010Prop33
280
     0
102
RTVSPost2010PropOp33
 70
     1
102
RTVSPost2010Prop34
280
     0
102
RTVSPost2010PropOp34
 70
     1
102
RTVSPost2010Prop35
280
     0
102
RTVSPost2010PropOp35
 70
     1
102
RTVSPost2010Prop36
280
     0
102
RTVSPost2010PropOp36
 70
     1
102
RTVSPost2010Prop37
 90
       50
102
RTVSPost2010PropOp37
 70
     1
102
RTVSPost2010Prop38
140
0.0
102
RTVSPost2010PropOp38
 70
     1
102
RTVSPost2010Prop39
140
1.0
102
RTVSPost2010PropOp39
 70
     1
102
RTVSPost2010Prop40
 90
        0
102
RTVSPost2010PropOp40
 70
     1
102
RTVSPost2010Prop41ColorIndex
 90
       18
102
RTVSPost2010Prop41ColorRGB
 90
        0
102
RTVSPost2010PropOp41
 70
     1
102
RTVSPost2010Prop42
 90
       50
102
RTVSPost2010PropOp42
 70
     1
102
RTVSPost2010Prop43
 90
        3
102
RTVSPost2010PropOp43
 70
     1
102
RTVSPost2010Prop44ColorIndex
 90
        5
102
RTVSPost2010Prop44ColorRGB
 90
      255
102
RTVSPost2010PropOp44
 70
     1
102
RTVSPost2010Prop45
280
     0
102
RTVSPost2010PropOp45
 70
     1
102
RTVSPost2010Prop46
 90
       50
102
RTVSPost2010PropOp46
 70
     1
102
RTVSPost2010Prop47
 90
       50
102
RTVSPost2010PropOp47
 70
     1
102
RTVSPost2010Prop48
 90
       50
102
RTVSPost2010PropOp48
 70
     1
102
RTVSPost2010Prop49
280
     0
102
RTVSPost2010PropOp49
 70
     1
102
RTVSPost2010Prop50
 90
       50
102
RTVSPost2010PropOp50
 70
     1
102
RTVSPost2010Prop51ColorIndex
 90
      256
102
RTVSPost2010Prop51ColorRGB
 90
-16777216
102
RTVSPost2010PropOp51
 70
     0
102
RTVSPost2010Prop52
140
1.0
102
RTVSPost2010PropOp52
 70
     0
102
RTVSPost2010Prop53
 90
        2
102
RTVSPost2010PropOp53
 70
     1
102
RTVSPost2010Prop54
  1
strokes_ogs.tif
102
RTVSPost2010PropOp54
 70
     1
102
RTVSPost2010Prop55
280
     0
102
RTVSPost2010PropOp55
 70
     1
102
RTVSPost2010Prop56
140
1.0
102
RTVSPost2010PropOp56
 70
     1
102
RTVSPost2010Prop57
140
1.0
102
RTVSPost2010PropOp57
 70
     1
  0
XRECORD
  5
3A1
102
{ACAD_REACTORS
330
3A0
102
}
330
3A0
100
AcDbXrecord
280
     1
102
RTVSPropertyOp0
 70
     1
102
RTVSPropertyOp1
 70
     1
102
RTVSPropertyOp2
 70
     1
102
RTVSPropertyOp3
 70
     1
102
RTVSPropertyOp4
 70
     1
102
RTVSPropertyOp5
 70
     1
102
RTVSPropertyOp6
 70
     1
102
RTVSPropertyOp7
 70
     1
102
RTVSPropertyOp8
 70
     1
102
RTVSPropertyOp9
 70
     1
102
RTVSPropertyOp10
 70
     1
102
RTVSPropertyOp11
 70
     1
102
RTVSPropertyOp12
 70
     1
102
RTVSPropertyOp13
 70
     1
102
RTVSPropertyOp14
 70
     1
102
RTVSPropertyOp15
 70
     1
102
RTVSPropertyOp16
 70
     1
102
RTVSPropertyOp17
 70
     1
102
RTVSPropertyOp18
 70
     1
102
RTVSPropertyOp19
 70
     1
102
RTVSPropertyOp20
 70
     1
102
RTVSPropertyOp21
 70
     1
102
RTVSPropertyOp22
 70
     1
102
RTVSPropertyOp23
 70
     1
102
RTVSPropertyOp24
 70
     1
102
RTVSPropertyOp25
 70
     1
102
RTVSPropertyOp26
 70
     1
102
RTVSPropertyOp27
 70
     1
102
RTVSPropertyOp28
 70
     1
102
RTVSPropertyOp29
 70
     1
102
RTVSPropertyOp30
 70
     1
102
RTVSPropertyOp31
 70
     1
102
RTVSPropertyOp32
 70
     1
102
RTVSPropertyOp33
 70
     1
102
RTVSPropertyOp34
 70
     1
102
RTVSPropertyOp35
 70
     1
102
RTVSPropertyOp36
 70
     1
102
RTVSPropertyOp37
 70
     1
102
RTVSPropertyOp38
 70
     1
102
RTVSPropertyOp39
 70
     1
102
RTVSPropertyOp40
 70
     1
102
RTVSPropertyOp41
 70
     1
102
RTVSPropertyOp42
 70
     1
102
RTVSPropertyOp43
 70
     1
102
RTVSPropertyOp44
 70
     1
102
RTVSPropertyOp45
 70
     1
102
RTVSPropertyOp46
 70
     1
102
RTVSPropertyOp47
 70
     1
102
RTVSPropertyOp48
 70
     1
102
RTVSPropertyOp49
 70
     1
102
RTVSPropertyOp50
 70
     1
102
RTVSPropertyOp51
 70
     0
102
RTVSPropertyOp52
 70
     0
102
RTVSPropertyOp53
 70
     1
102
RTVSPropertyOp54
 70
     1
102
RTVSPropertyOp55
 70
     1
102
RTVSPropertyOp56
 70
     1
102
RTVSPropertyOp57
 70
     1
102
RTVSPost2010Prop28
280
     0
102
RTVSPost2010PropOp28
 70
     1
102
RTVSPost2010Prop29
280
     1
102
RTVSPost2010PropOp29
 70
     1
102
RTVSPost2010Prop30
280
     1
102
RTVSPost2010PropOp30
 70
     1
102
RTVSPost2010Prop31
280
     0
102
RTVSPost2010PropOp31
 70
     1
102
RTVSPost2010Prop32
280
     0
102
RTVSPost2010PropOp32
 70
     1
102
RTVSPost2010Prop33
280
     0
102
RTVSPost2010PropOp33
 70
     1
102
RTVSPost2010Prop34
280
     0
102
RTVSPost2010PropOp34
 70
     1
102
RTVSPost2010Prop35
280
     0
102
RTVSPost2010PropOp35
 70
     1
102
RTVSPost2010Prop36
280
     0
102
RTVSPost2010PropOp36
 70
     1
102
RTVSPost2010Prop37
 90
       50
102
RTVSPost2010PropOp37
 70
     1
102
RTVSPost2010Prop38
140
0.0
102
RTVSPost2010PropOp38
 70
     1
102
RTVSPost2010Prop39
140
1.0
102
RTVSPost2010PropOp39
 70
     1
102
RTVSPost2010Prop40
 90
        0
102
RTVSPost2010PropOp40
 70
     1
102
RTVSPost2010Prop41ColorIndex
 90
       18
102
RTVSPost2010Prop41ColorRGB
 90
        0
102
RTVSPost2010PropOp41
 70
     1
102
RTVSPost2010Prop42
 90
       50
102
RTVSPost2010PropOp42
 70
     1
102
RTVSPost2010Prop43
 90
        3
102
RTVSPost2010PropOp43
 70
     1
102
RTVSPost2010Prop44ColorIndex
 90
        5
102
RTVSPost2010Prop44ColorRGB
 90
      255
102
RTVSPost2010PropOp44
 70
     1
102
RTVSPost2010Prop45
280
     0
102
RTVSPost2010PropOp45
 70
     1
102
RTVSPost2010Prop46
 90
       50
102
RTVSPost2010PropOp46
 70
     1
102
RTVSPost2010Prop47
 90
       50
102
RTVSPost2010PropOp47
 70
     1
102
RTVSPost2010Prop48
 90
       50
102
RTVSPost2010PropOp48
 70
     1
102
RTVSPost2010Prop49
280
     0
102
RTVSPost2010PropOp49
 70
     1
102
RTVSPost2010Prop50
 90
       50
102
RTVSPost2010PropOp50
 70
     1
102
RTVSPost2010Prop51ColorIndex
 90
      256
102
RTVSPost2010Prop51ColorRGB
 90
-16777216
102
RTVSPost2010PropOp51
 70
     0
102
RTVSPost2010Prop52
140
1.0
102
RTVSPost2010PropOp52
 70
     0
102
RTVSPost2010Prop53
 90
        2
102
RTVSPost2010PropOp53
 70
     1
102
RTVSPost2010Prop54
  1
strokes_ogs.tif
102
RTVSPost2010PropOp54
 70
     1
102
RTVSPost2010Prop55
280
     0
102
RTVSPost2010PropOp55
 70
     1
102
RTVSPost2010Prop56
140
1.0
102
RTVSPost2010PropOp56
 70
     1
102
RTVSPost2010Prop57
140
1.0
102
RTVSPost2010PropOp57
 70
     1
  0
XRECORD
  5
391
102
{ACAD_REACTORS
330
390
102
}
330
390
100
AcDbXrecord
280
     1
102
RTVSPropertyOp0
 70
     1
102
RTVSPropertyOp1
 70
     1
102
RTVSPropertyOp2
 70
     1
102
RTVSPropertyOp3
 70
     1
102
RTVSPropertyOp4
 70
     1
102
RTVSPropertyOp5
 70
     1
102
RTVSPropertyOp6
 70
     1
102
RTVSPropertyOp7
 70
     1
102
RTVSPropertyOp8
 70
     1
102
RTVSPropertyOp9
 70
     1
102
RTVSPropertyOp10
 70
     1
102
RTVSPropertyOp11
 70
     1
102
RTVSPropertyOp12
 70
     1
102
RTVSPropertyOp13
 70
     1
102
RTVSPropertyOp14
 70
     1
102
RTVSPropertyOp15
 70
     1
102
RTVSPropertyOp16
 70
     1
102
RTVSPropertyOp17
 70
     1
102
RTVSPropertyOp18
 70
     1
102
RTVSPropertyOp19
 70
     1
102
RTVSPropertyOp20
 70
     1
102
RTVSPropertyOp21
 70
     1
102
RTVSPropertyOp22
 70
     1
102
RTVSPropertyOp23
 70
     1
102
RTVSPropertyOp24
 70
     1
102
RTVSPropertyOp25
 70
     1
102
RTVSPropertyOp26
 70
     1
102
RTVSPropertyOp27
 70
     1
102
RTVSPropertyOp28
 70
     1
102
RTVSPropertyOp29
 70
     1
102
RTVSPropertyOp30
 70
     1
102
RTVSPropertyOp31
 70
     1
102
RTVSPropertyOp32
 70
     1
102
RTVSPropertyOp33
 70
     1
102
RTVSPropertyOp34
 70
     1
102
RTVSPropertyOp35
 70
     1
102
RTVSPropertyOp36
 70
     1
102
RTVSPropertyOp37
 70
     1
102
RTVSPropertyOp38
 70
     1
102
RTVSPropertyOp39
 70
     1
102
RTVSPropertyOp40
 70
     1
102
RTVSPropertyOp41
 70
     1
102
RTVSPropertyOp42
 70
     1
102
RTVSPropertyOp43
 70
     1
102
RTVSPropertyOp44
 70
     1
102
RTVSPropertyOp45
 70
     1
102
RTVSPropertyOp46
 70
     1
102
RTVSPropertyOp47
 70
     1
102
RTVSPropertyOp48
 70
     1
102
RTVSPropertyOp49
 70
     1
102
RTVSPropertyOp50
 70
     1
102
RTVSPropertyOp51
 70
     0
102
RTVSPropertyOp52
 70
     0
102
RTVSPropertyOp53
 70
     1
102
RTVSPropertyOp54
 70
     1
102
RTVSPropertyOp55
 70
     1
102
RTVSPropertyOp56
 70
     1
102
RTVSPropertyOp57
 70
     1
102
RTVSPost2010Prop28
280
     0
102
RTVSPost2010PropOp28
 70
     1
102
RTVSPost2010Prop29
280
     1
102
RTVSPost2010PropOp29
 70
     1
102
RTVSPost2010Prop30
280
     1
102
RTVSPost2010PropOp30
 70
     1
102
RTVSPost2010Prop31
280
     0
102
RTVSPost2010PropOp31
 70
     1
102
RTVSPost2010Prop32
280
     0
102
RTVSPost2010PropOp32
 70
     1
102
RTVSPost2010Prop33
280
     0
102
RTVSPost2010PropOp33
 70
     1
102
RTVSPost2010Prop34
280
     0
102
RTVSPost2010PropOp34
 70
     1
102
RTVSPost2010Prop35
280
     0
102
RTVSPost2010PropOp35
 70
     1
102
RTVSPost2010Prop36
280
     0
102
RTVSPost2010PropOp36
 70
     1
102
RTVSPost2010Prop37
 90
       50
102
RTVSPost2010PropOp37
 70
     1
102
RTVSPost2010Prop38
140
0.0
102
RTVSPost2010PropOp38
 70
     1
102
RTVSPost2010Prop39
140
1.0
102
RTVSPost2010PropOp39
 70
     1
102
RTVSPost2010Prop40
 90
        0
102
RTVSPost2010PropOp40
 70
     1
102
RTVSPost2010Prop41ColorIndex
 90
       18
102
RTVSPost2010Prop41ColorRGB
 90
        0
102
RTVSPost2010PropOp41
 70
     1
102
RTVSPost2010Prop42
 90
       50
102
RTVSPost2010PropOp42
 70
     1
102
RTVSPost2010Prop43
 90
        3
102
RTVSPost2010PropOp43
 70
     1
102
RTVSPost2010Prop44ColorIndex
 90
        5
102
RTVSPost2010Prop44ColorRGB
 90
      255
102
RTVSPost2010PropOp44
 70
     1
102
RTVSPost2010Prop45
280
     0
102
RTVSPost2010PropOp45
 70
     1
102
RTVSPost2010Prop46
 90
       50
102
RTVSPost2010PropOp46
 70
     1
102
RTVSPost2010Prop47
 90
       50
102
RTVSPost2010PropOp47
 70
     1
102
RTVSPost2010Prop48
 90
       50
102
RTVSPost2010PropOp48
 70
     1
102
RTVSPost2010Prop49
280
     0
102
RTVSPost2010PropOp49
 70
     1
102
RTVSPost2010Prop50
 90
       50
102
RTVSPost2010PropOp50
 70
     1
102
RTVSPost2010Prop51ColorIndex
 90
      256
102
RTVSPost2010Prop51ColorRGB
 90
-16777216
102
RTVSPost2010PropOp51
 70
     0
102
RTVSPost2010Prop52
140
1.0
102
RTVSPost2010PropOp52
 70
     0
102
RTVSPost2010Prop53
 90
        2
102
RTVSPost2010PropOp53
 70
     1
102
RTVSPost2010Prop54
  1
strokes_ogs.tif
102
RTVSPost2010PropOp54
 70
     1
102
RTVSPost2010Prop55
280
     0
102
RTVSPost2010PropOp55
 70
     1
102
RTVSPost2010Prop56
140
1.0
102
RTVSPost2010PropOp56
 70
     1
102
RTVSPost2010Prop57
140
1.0
102
RTVSPost2010PropOp57
 70
     1
  0
XRECORD
  5
383
102
{ACAD_REACTORS
330
382
102
}
330
382
100
AcDbXrecord
280
     1
102
RTVSPropertyOp0
 70
     1
102
RTVSPropertyOp1
 70
     1
102
RTVSPropertyOp2
 70
     1
102
RTVSPropertyOp3
 70
     1
102
RTVSPropertyOp4
 70
     1
102
RTVSPropertyOp5
 70
     1
102
RTVSPropertyOp6
 70
     1
102
RTVSPropertyOp7
 70
     1
102
RTVSPropertyOp8
 70
     1
102
RTVSPropertyOp9
 70
     1
102
RTVSPropertyOp10
 70
     1
102
RTVSPropertyOp11
 70
     1
102
RTVSPropertyOp12
 70
     1
102
RTVSPropertyOp13
 70
     1
102
RTVSPropertyOp14
 70
     1
102
RTVSPropertyOp15
 70
     1
102
RTVSPropertyOp16
 70
     1
102
RTVSPropertyOp17
 70
     1
102
RTVSPropertyOp18
 70
     1
102
RTVSPropertyOp19
 70
     1
102
RTVSPropertyOp20
 70
     1
102
RTVSPropertyOp21
 70
     1
102
RTVSPropertyOp22
 70
     1
102
RTVSPropertyOp23
 70
     1
102
RTVSPropertyOp24
 70
     1
102
RTVSPropertyOp25
 70
     1
102
RTVSPropertyOp26
 70
     1
102
RTVSPropertyOp27
 70
     1
102
RTVSPropertyOp28
 70
     1
102
RTVSPropertyOp29
 70
     1
102
RTVSPropertyOp30
 70
     1
102
RTVSPropertyOp31
 70
     1
102
RTVSPropertyOp32
 70
     1
102
RTVSPropertyOp33
 70
     1
102
RTVSPropertyOp34
 70
     1
102
RTVSPropertyOp35
 70
     1
102
RTVSPropertyOp36
 70
     1
102
RTVSPropertyOp37
 70
     1
102
RTVSPropertyOp38
 70
     1
102
RTVSPropertyOp39
 70
     1
102
RTVSPropertyOp40
 70
     1
102
RTVSPropertyOp41
 70
     1
102
RTVSPropertyOp42
 70
     1
102
RTVSPropertyOp43
 70
     1
102
RTVSPropertyOp44
 70
     1
102
RTVSPropertyOp45
 70
     1
102
RTVSPropertyOp46
 70
     1
102
RTVSPropertyOp47
 70
     1
102
RTVSPropertyOp48
 70
     1
102
RTVSPropertyOp49
 70
     1
102
RTVSPropertyOp50
 70
     1
102
RTVSPropertyOp51
 70
     0
102
RTVSPropertyOp52
 70
     0
102
RTVSPropertyOp53
 70
     1
102
RTVSPropertyOp54
 70
     1
102
RTVSPropertyOp55
 70
     1
102
RTVSPropertyOp56
 70
     1
102
RTVSPropertyOp57
 70
     1
102
RTVSPost2010Prop28
280
     0
102
RTVSPost2010PropOp28
 70
     1
102
RTVSPost2010Prop29
280
     1
102
RTVSPost2010PropOp29
 70
     1
102
RTVSPost2010Prop30
280
     1
102
RTVSPost2010PropOp30
 70
     1
102
RTVSPost2010Prop31
280
     0
102
RTVSPost2010PropOp31
 70
     1
102
RTVSPost2010Prop32
280
     0
102
RTVSPost2010PropOp32
 70
     1
102
RTVSPost2010Prop33
280
     0
102
RTVSPost2010PropOp33
 70
     1
102
RTVSPost2010Prop34
280
     0
102
RTVSPost2010PropOp34
 70
     1
102
RTVSPost2010Prop35
280
     0
102
RTVSPost2010PropOp35
 70
     1
102
RTVSPost2010Prop36
280
     0
102
RTVSPost2010PropOp36
 70
     1
102
RTVSPost2010Prop37
 90
       50
102
RTVSPost2010PropOp37
 70
     1
102
RTVSPost2010Prop38
140
0.0
102
RTVSPost2010PropOp38
 70
     1
102
RTVSPost2010Prop39
140
1.0
102
RTVSPost2010PropOp39
 70
     1
102
RTVSPost2010Prop40
 90
        0
102
RTVSPost2010PropOp40
 70
     1
102
RTVSPost2010Prop41ColorIndex
 90
       18
102
RTVSPost2010Prop41ColorRGB
 90
        0
102
RTVSPost2010PropOp41
 70
     1
102
RTVSPost2010Prop42
 90
       50
102
RTVSPost2010PropOp42
 70
     1
102
RTVSPost2010Prop43
 90
        3
102
RTVSPost2010PropOp43
 70
     1
102
RTVSPost2010Prop44ColorIndex
 90
        5
102
RTVSPost2010Prop44ColorRGB
 90
      255
102
RTVSPost2010PropOp44
 70
     1
102
RTVSPost2010Prop45
280
     0
102
RTVSPost2010PropOp45
 70
     1
102
RTVSPost2010Prop46
 90
       50
102
RTVSPost2010PropOp46
 70
     1
102
RTVSPost2010Prop47
 90
       50
102
RTVSPost2010PropOp47
 70
     1
102
RTVSPost2010Prop48
 90
       50
102
RTVSPost2010PropOp48
 70
     1
102
RTVSPost2010Prop49
280
     0
102
RTVSPost2010PropOp49
 70
     1
102
RTVSPost2010Prop50
 90
       50
102
RTVSPost2010PropOp50
 70
     1
102
RTVSPost2010Prop51ColorIndex
 90
      256
102
RTVSPost2010Prop51ColorRGB
 90
-16777216
102
RTVSPost2010PropOp51
 70
     0
102
RTVSPost2010Prop52
140
1.0
102
RTVSPost2010PropOp52
 70
     0
102
RTVSPost2010Prop53
 90
        2
102
RTVSPost2010PropOp53
 70
     1
102
RTVSPost2010Prop54
  1
strokes_ogs.tif
102
RTVSPost2010PropOp54
 70
     1
102
RTVSPost2010Prop55
280
     0
102
RTVSPost2010PropOp55
 70
     1
102
RTVSPost2010Prop56
140
1.0
102
RTVSPost2010PropOp56
 70
     1
102
RTVSPost2010Prop57
140
1.0
102
RTVSPost2010PropOp57
 70
     1
  0
XRECORD
  5
3A3
102
{ACAD_REACTORS
330
3A2
102
}
330
3A2
100
AcDbXrecord
280
     1
102
RTVSPropertyOp0
 70
     1
102
RTVSPropertyOp1
 70
     1
102
RTVSPropertyOp2
 70
     1
102
RTVSPropertyOp3
 70
     1
102
RTVSPropertyOp4
 70
     1
102
RTVSPropertyOp5
 70
     1
102
RTVSPropertyOp6
 70
     1
102
RTVSPropertyOp7
 70
     1
102
RTVSPropertyOp8
 70
     1
102
RTVSPropertyOp9
 70
     1
102
RTVSPropertyOp10
 70
     1
102
RTVSPropertyOp11
 70
     1
102
RTVSPropertyOp12
 70
     1
102
RTVSPropertyOp13
 70
     1
102
RTVSPropertyOp14
 70
     1
102
RTVSPropertyOp15
 70
     1
102
RTVSPropertyOp16
 70
     1
102
RTVSPropertyOp17
 70
     1
102
RTVSPropertyOp18
 70
     1
102
RTVSPropertyOp19
 70
     1
102
RTVSPropertyOp20
 70
     1
102
RTVSPropertyOp21
 70
     1
102
RTVSPropertyOp22
 70
     1
102
RTVSPropertyOp23
 70
     1
102
RTVSPropertyOp24
 70
     1
102
RTVSPropertyOp25
 70
     1
102
RTVSPropertyOp26
 70
     1
102
RTVSPropertyOp27
 70
     1
102
RTVSPropertyOp28
 70
     1
102
RTVSPropertyOp29
 70
     1
102
RTVSPropertyOp30
 70
     1
102
RTVSPropertyOp31
 70
     1
102
RTVSPropertyOp32
 70
     1
102
RTVSPropertyOp33
 70
     1
102
RTVSPropertyOp34
 70
     1
102
RTVSPropertyOp35
 70
     1
102
RTVSPropertyOp36
 70
     1
102
RTVSPropertyOp37
 70
     1
102
RTVSPropertyOp38
 70
     1
102
RTVSPropertyOp39
 70
     1
102
RTVSPropertyOp40
 70
     1
102
RTVSPropertyOp41
 70
     1
102
RTVSPropertyOp42
 70
     1
102
RTVSPropertyOp43
 70
     1
102
RTVSPropertyOp44
 70
     1
102
RTVSPropertyOp45
 70
     1
102
RTVSPropertyOp46
 70
     1
102
RTVSPropertyOp47
 70
     1
102
RTVSPropertyOp48
 70
     1
102
RTVSPropertyOp49
 70
     1
102
RTVSPropertyOp50
 70
     1
102
RTVSPropertyOp51
 70
     0
102
RTVSPropertyOp52
 70
     0
102
RTVSPropertyOp53
 70
     1
102
RTVSPropertyOp54
 70
     1
102
RTVSPropertyOp55
 70
     1
102
RTVSPropertyOp56
 70
     1
102
RTVSPropertyOp57
 70
     1
102
RTVSPost2010Prop28
280
     0
102
RTVSPost2010PropOp28
 70
     1
102
RTVSPost2010Prop29
280
     1
102
RTVSPost2010PropOp29
 70
     1
102
RTVSPost2010Prop30
280
     1
102
RTVSPost2010PropOp30
 70
     1
102
RTVSPost2010Prop31
280
     0
102
RTVSPost2010PropOp31
 70
     1
102
RTVSPost2010Prop32
280
     0
102
RTVSPost2010PropOp32
 70
     1
102
RTVSPost2010Prop33
280
     0
102
RTVSPost2010PropOp33
 70
     1
102
RTVSPost2010Prop34
280
     0
102
RTVSPost2010PropOp34
 70
     1
102
RTVSPost2010Prop35
280
     0
102
RTVSPost2010PropOp35
 70
     1
102
RTVSPost2010Prop36
280
     0
102
RTVSPost2010PropOp36
 70
     1
102
RTVSPost2010Prop37
 90
       50
102
RTVSPost2010PropOp37
 70
     1
102
RTVSPost2010Prop38
140
0.0
102
RTVSPost2010PropOp38
 70
     1
102
RTVSPost2010Prop39
140
1.0
102
RTVSPost2010PropOp39
 70
     1
102
RTVSPost2010Prop40
 90
        0
102
RTVSPost2010PropOp40
 70
     1
102
RTVSPost2010Prop41ColorIndex
 90
       18
102
RTVSPost2010Prop41ColorRGB
 90
        0
102
RTVSPost2010PropOp41
 70
     1
102
RTVSPost2010Prop42
 90
       50
102
RTVSPost2010PropOp42
 70
     1
102
RTVSPost2010Prop43
 90
        3
102
RTVSPost2010PropOp43
 70
     1
102
RTVSPost2010Prop44ColorIndex
 90
        5
102
RTVSPost2010Prop44ColorRGB
 90
      255
102
RTVSPost2010PropOp44
 70
     1
102
RTVSPost2010Prop45
280
     0
102
RTVSPost2010PropOp45
 70
     1
102
RTVSPost2010Prop46
 90
       50
102
RTVSPost2010PropOp46
 70
     1
102
RTVSPost2010Prop47
 90
       50
102
RTVSPost2010PropOp47
 70
     1
102
RTVSPost2010Prop48
 90
       50
102
RTVSPost2010PropOp48
 70
     1
102
RTVSPost2010Prop49
280
     0
102
RTVSPost2010PropOp49
 70
     1
102
RTVSPost2010Prop50
 90
       50
102
RTVSPost2010PropOp50
 70
     1
102
RTVSPost2010Prop51ColorIndex
 90
      256
102
RTVSPost2010Prop51ColorRGB
 90
-16777216
102
RTVSPost2010PropOp51
 70
     0
102
RTVSPost2010Prop52
140
1.0
102
RTVSPost2010PropOp52
 70
     0
102
RTVSPost2010Prop53
 90
        2
102
RTVSPost2010PropOp53
 70
     1
102
RTVSPost2010Prop54
  1
strokes_ogs.tif
102
RTVSPost2010PropOp54
 70
     1
102
RTVSPost2010Prop55
280
     0
102
RTVSPost2010PropOp55
 70
     1
102
RTVSPost2010Prop56
140
1.0
102
RTVSPost2010PropOp56
 70
     1
102
RTVSPost2010Prop57
140
1.0
102
RTVSPost2010PropOp57
 70
     1
  0
ENDSEC
  0
EOF
