  0
SECTION
  2
HEADER
  9
$ACADVER
  1
AC1018
  9
$ACADMAINTVER
 70
     0
  9
$DWGCODEPAGE
  3
ANSI_932
  9
$INSBASE
 10
0.0
 20
0.0
 30
0.0
  9
$EXTMIN
 10
-1050.0
 20
-742.5
 30
0.0
  9
$EXTMAX
 10
1050.0
 20
742.5
 30
0.0
  9
$LIMMIN
 10
-1050.0
 20
-742.5
  9
$LIMMAX
 10
1050.0
 20
742.5
  9
$ORTHOMODE
 70
     0
  9
$REGENMODE
 70
     1
  9
$FILLMODE
 70
     1
  9
$QTEXTMODE
 70
     0
  9
$MIRRTEXT
 70
     1
  9
$LTSCALE
 40
5.0
  9
$ATTMODE
 70
     1
  9
$TEXTSIZE
 40
2.5
  9
$TRACEWID
 40
1.0
  9
$TEXTSTYLE
  7
Standard
  9
$CLAYER
  8
0
  9
$CELTYPE
  6
ByLayer
  9
$CECOLOR
 62
   256
  9
$CELTSCALE
 40
1.0
  9
$DISPSILH
 70
     0
  9
$DIMSCALE
 40
1.0
  9
$DIMASZ
 40
2.5
  9
$DIMEXO
 40
0.625
  9
$DIMDLI
 40
3.75
  9
$DIMRND
 40
0.0
  9
$DIMDLE
 40
0.0
  9
$DIMEXE
 40
1.25
  9
$DIMTP
 40
0.0
  9
$DIMTM
 40
0.0
  9
$DIMTXT
 40
2.5
  9
$DIMCEN
 40
2.5
  9
$DIMTSZ
 40
0.0
  9
$DIMTOL
 70
     0
  9
$DIMLIM
 70
     0
  9
$DIMTIH
 70
     0
  9
$DIMTOH
 70
     0
  9
$DIMSE1
 70
     0
  9
$DIMSE2
 70
     0
  9
$DIMTAD
 70
     1
  9
$DIMZIN
 70
     8
  9
$DIMBLK
  1

  9
$DIMASO
 70
     1
  9
$DIMSHO
 70
     1
  9
$DIMPOST
  1

  9
$DIMAPOST
  1

  9
$DIMALT
 70
     0
  9
$DIMALTD
 70
     3
  9
$DIMALTF
 40
0.03937007874016
  9
$DIMLFAC
 40
1.0
  9
$DIMTOFL
 70
     1
  9
$DIMTVP
 40
0.0
  9
$DIMTIX
 70
     0
  9
$DIMSOXD
 70
     0
  9
$DIMSAH
 70
     0
  9
$DIMBLK1
  1

  9
$DIMBLK2
  1

  9
$DIMSTYLE
  2
ISO-25
  9
$DIMCLRD
 70
     0
  9
$DIMCLRE
 70
     0
  9
$DIMCLRT
 70
     0
  9
$DIMTFAC
 40
1.0
  9
$DIMGAP
 40
0.625
  9
$DIMJUST
 70
     0
  9
$DIMSD1
 70
     0
  9
$DIMSD2
 70
     0
  9
$DIMTOLJ
 70
     0
  9
$DIMTZIN
 70
     8
  9
$DIMALTZ
 70
     0
  9
$DIMALTTZ
 70
     0
  9
$DIMUPT
 70
     0
  9
$DIMDEC
 70
     2
  9
$DIMTDEC
 70
     2
  9
$DIMALTU
 70
     2
  9
$DIMALTTD
 70
     3
  9
$DIMTXSTY
  7
Standard
  9
$DIMAUNIT
 70
     0
  9
$DIMADEC
 70
     0
  9
$DIMALTRND
 40
0.0
  9
$DIMAZIN
 70
     0
  9
$DIMDSEP
 70
    44
  9
$DIMATFIT
 70
     3
  9
$DIMFRAC
 70
     0
  9
$DIMLDRBLK
  1

  9
$DIMLUNIT
 70
     2
  9
$DIMLWD
 70
    -2
  9
$DIMLWE
 70
    -2
  9
$DIMTMOVE
 70
     0
  9
$LUNITS
 70
     2
  9
$LUPREC
 70
     4
  9
$SKETCHINC
 40
1.0
  9
$FILLETRAD
 40
10.0
  9
$AUNITS
 70
     0
  9
$AUPREC
 70
     0
  9
$MENU
  1
.
  9
$ELEVATION
 40
0.0
  9
$PELEVATION
 40
0.0
  9
$THICKNESS
 40
0.0
  9
$LIMCHECK
 70
     0
  9
$CHAMFERA
 40
0.0
  9
$CHAMFERB
 40
0.0
  9
$CHAMFERC
 40
0.0
  9
$CHAMFERD
 40
0.0
  9
$SKPOLY
 70
     0
  9
$TDCREATE
 40
2460748.702217813
  9
$TDUCREATE
 40
2460748.327217813
  9
$TDUPDATE
 40
2460748.702223113
  9
$TDUUPDATE
 40
2460748.327223113
  9
$TDINDWG
 40
0.0000000116
  9
$TDUSRTIMER
 40
0.0000000116
  9
$USRTIMER
 70
     1
  9
$ANGBASE
 50
0.0
  9
$ANGDIR
 70
     0
  9
$PDMODE
 70
     0
  9
$PDSIZE
 40
0.0
  9
$PLINEWID
 40
0.0
  9
$SPLFRAME
 70
     0
  9
$SPLINETYPE
 70
     6
  9
$SPLINESEGS
 70
     8
  9
$HANDSEED
  5
487
  9
$SURFTAB1
 70
     6
  9
$SURFTAB2
 70
     6
  9
$SURFTYPE
 70
     6
  9
$SURFU
 70
     6
  9
$SURFV
 70
     6
  9
$UCSBASE
  2

  9
$UCSNAME
  2

  9
$UCSORG
 10
0.0
 20
0.0
 30
0.0
  9
$UCSXDIR
 10
1.0
 20
0.0
 30
0.0
  9
$UCSYDIR
 10
0.0
 20
1.0
 30
0.0
  9
$UCSORTHOREF
  2

  9
$UCSORTHOVIEW
 70
     0
  9
$UCSORGTOP
 10
0.0
 20
0.0
 30
0.0
  9
$UCSORGBOTTOM
 10
0.0
 20
0.0
 30
0.0
  9
$UCSORGLEFT
 10
0.0
 20
0.0
 30
0.0
  9
$UCSORGRIGHT
 10
0.0
 20
0.0
 30
0.0
  9
$UCSORGFRONT
 10
0.0
 20
0.0
 30
0.0
  9
$UCSORGBACK
 10
0.0
 20
0.0
 30
0.0
  9
$PUCSBASE
  2

  9
$PUCSNAME
  2

  9
$PUCSORG
 10
0.0
 20
0.0
 30
0.0
  9
$PUCSXDIR
 10
1.0
 20
0.0
 30
0.0
  9
$PUCSYDIR
 10
0.0
 20
1.0
 30
0.0
  9
$PUCSORTHOREF
  2

  9
$PUCSORTHOVIEW
 70
     0
  9
$PUCSORGTOP
 10
0.0
 20
0.0
 30
0.0
  9
$PUCSORGBOTTOM
 10
0.0
 20
0.0
 30
0.0
  9
$PUCSORGLEFT
 10
0.0
 20
0.0
 30
0.0
  9
$PUCSORGRIGHT
 10
0.0
 20
0.0
 30
0.0
  9
$PUCSORGFRONT
 10
0.0
 20
0.0
 30
0.0
  9
$PUCSORGBACK
 10
0.0
 20
0.0
 30
0.0
  9
$USERI1
 70
     0
  9
$USERI2
 70
     0
  9
$USERI3
 70
     0
  9
$USERI4
 70
     0
  9
$USERI5
 70
     0
  9
$USERR1
 40
0.0
  9
$USERR2
 40
0.0
  9
$USERR3
 40
0.0
  9
$USERR4
 40
0.0
  9
$USERR5
 40
0.0
  9
$WORLDVIEW
 70
     1
  9
$SHADEDGE
 70
     3
  9
$SHADEDIF
 70
    70
  9
$TILEMODE
 70
     1
  9
$MAXACTVP
 70
    64
  9
$PINSBASE
 10
0.0
 20
0.0
 30
0.0
  9
$PLIMCHECK
 70
     0
  9
$PEXTMIN
 10
1.000000000000000E+20
 20
1.000000000000000E+20
 30
1.000000000000000E+20
  9
$PEXTMAX
 10
-1.000000000000000E+20
 20
-1.000000000000000E+20
 30
-1.000000000000000E+20
  9
$PLIMMIN
 10
0.0
 20
0.0
  9
$PLIMMAX
 10
420.0
 20
297.0
  9
$UNITMODE
 70
     0
  9
$VISRETAIN
 70
     1
  9
$PLINEGEN
 70
     0
  9
$PSLTSCALE
 70
     1
  9
$TREEDEPTH
 70
  3020
  9
$CMLSTYLE
  2
Standard
  9
$CMLJUST
 70
     0
  9
$CMLSCALE
 40
20.0
  9
$PROXYGRAPHICS
 70
     1
  9
$MEASUREMENT
 70
     1
  9
$CELWEIGHT
370
    -1
  9
$ENDCAPS
280
     0
  9
$JOINSTYLE
280
     0
  9
$LWDISPLAY
290
     0
  9
$INSUNITS
 70
     4
  9
$HYPERLINKBASE
  1

  9
$STYLESHEET
  1

  9
$XEDIT
290
     1
  9
$CEPSNTYPE
380
     0
  9
$PSTYLEMODE
290
     1
  9
$FINGERPRINTGUID
  2
{E9BE2B23-DB14-4545-8968-C3BDE2E1FE3A}
  9
$VERSIONGUID
  2
{FAEB1C32-E019-11D5-929B-00C0DF256EC4}
  9
$EXTNAMES
290
     1
  9
$PSVPSCALE
 40
0.0
  9
$OLESTARTUP
290
     0
  9
$SORTENTS
280
   127
  9
$INDEXCTL
280
     0
  9
$HIDETEXT
280
     1
  9
$XCLIPFRAME
290
     0
  9
$HALOGAP
280
     0
  9
$OBSCOLOR
 70
   257
  9
$OBSLTYPE
280
     0
  9
$INTERSECTIONDISPLAY
280
     0
  9
$INTERSECTIONCOLOR
 70
   257
  9
$DIMASSOC
280
     2
  9
$PROJECTNAME
  1

  0
ENDSEC
  0
SECTION
  2
CLASSES
  0
CLASS
  1
ACDBDICTIONARYWDFLT
  2
AcDbDictionaryWithDefault
  3
ObjectDBX Classes
 90
        0
 91
        4
280
     0
281
     0
  0
CLASS
  1
VISUALSTYLE
  2
AcDbVisualStyle
  3
ObjectDBX Classes
 90
     4095
 91
        4
280
     0
281
     0
  0
CLASS
  1
MATERIAL
  2
AcDbMaterial
  3
ObjectDBX Classes
 90
     1153
 91
        4
280
     0
281
     0
  0
CLASS
  1
SCALE
  2
AcDbScale
  3
ObjectDBX Classes
 90
     1153
 91
        4
280
     0
281
     0
  0
CLASS
  1
TABLESTYLE
  2
AcDbTableStyle
  3
ObjectDBX Classes
 90
     4095
 91
        4
280
     0
281
     0
  0
CLASS
  1
MLEADERSTYLE
  2
AcDbMLeaderStyle
  3
ACDB_MLEADERSTYLE_CLASS
 90
     4095
 91
        4
280
     0
281
     0
  0
CLASS
  1
SUN
  2
AcDbSun
  3
SCENEOE
 90
     1153
 91
        4
280
     0
281
     0
  0
CLASS
  1
DICTIONARYVAR
  2
AcDbDictionaryVar
  3
ObjectDBX Classes
 90
        0
 91
        4
280
     0
281
     0
  0
CLASS
  1
CELLSTYLEMAP
  2
AcDbCellStyleMap
  3
ObjectDBX Classes
 90
     1152
 91
        4
280
     0
281
     0
  0
ENDSEC
  0
SECTION
  2
TABLES
  0
TABLE
  2
VPORT
  5
8
102
{ACAD_XDICTIONARY
360
43E
102
}
330
0
100
AcDbSymbolTable
 70
     1
  0
VPORT
  5
29
330
8
100
AcDbSymbolTableRecord
100
AcDbViewportTableRecord
  2
*Active
 70
     0
 10
0.0
 20
0.0
 11
1.0
 21
1.0
 12
0.0
 22
0.0
 13
0.0
 23
0.0
 14
10.0
 24
10.0
 15
10.0
 25
10.0
 16
0.0
 26
0.0
 36
1.0
 17
0.0
 27
0.0
 37
0.0
 40
1633.5
 41
1.414141414141414
 42
50.0
 43
0.0
 44
0.0
 50
0.0
 51
0.0
 71
     0
 72
 10000
 73
     1
 74
     3
 75
     0
 76
     0
 77
     0
 78
     0
281
     0
 65
     1
110
0.0
120
0.0
130
0.0
111
1.0
121
0.0
131
0.0
112
0.0
122
1.0
132
0.0
 79
     0
146
0.0
  0
ENDTAB
  0
TABLE
  2
LTYPE
  5
5
330
0
100
AcDbSymbolTable
 70
     3
  0
LTYPE
  5
14
330
5
100
AcDbSymbolTableRecord
100
AcDbLinetypeTableRecord
  2
ByBlock
 70
     0
  3

 72
    65
 73
     0
 40
0.0
  0
LTYPE
  5
15
330
5
100
AcDbSymbolTableRecord
100
AcDbLinetypeTableRecord
  2
ByLayer
 70
     0
  3

 72
    65
 73
     0
 40
0.0
  0
LTYPE
  5
16
330
5
100
AcDbSymbolTableRecord
100
AcDbLinetypeTableRecord
  2
Continuous
 70
     0
  3
Solid line
 72
    65
 73
     0
 40
0.0
  0
LTYPE
  5
6F
330
5
100
AcDbSymbolTableRecord
100
AcDbLinetypeTableRecord
  2
JWW_CENTER1
 70
     0
  3
-----  --  ----------  --  -----
 72
    65
 73
     4
 40
6.773333333333333
 49
4.233333333333333
 74
     0
 49
-0.8466666666666667
 74
     0
 49
0.8466666666666667
 74
     0
 49
-0.8466666666666667
 74
     0
  0
LTYPE
  5
70
330
5
100
AcDbSymbolTableRecord
100
AcDbLinetypeTableRecord
  2
JWW_DASHED1
 70
     0
  3
-  --  --  --  --  --  --  --  -
 72
    65
 73
     2
 40
1.693333333333333
 49
0.8466666666666667
 74
     0
 49
-0.8466666666666667
 74
     0
  0
ENDTAB
  0
TABLE
  2
LAYER
  5
2
330
0
100
AcDbSymbolTable
 70
    11
  0
LAYER
  5
10
330
2
100
AcDbSymbolTableRecord
100
AcDbLayerTableRecord
  2
0
 70
     0
 62
     7
  6
Continuous
370
    -3
390
F
  0
LAYER
  5
71
330
2
100
AcDbSymbolTableRecord
100
AcDbLayerTableRecord
  2
1-2ﾚｲﾔ
 70
     0
 62
     7
  6
Continuous
370
    -3
390
F
  0
LAYER
  5
72
330
2
100
AcDbSymbolTableRecord
100
AcDbLayerTableRecord
  2
1-4ﾚｲﾔ
 70
     0
 62
     7
  6
Continuous
370
    -3
390
F
  0
LAYER
  5
73
330
2
100
AcDbSymbolTableRecord
100
AcDbLayerTableRecord
  2
1-1ﾚｲﾔ
 70
     0
 62
     7
  6
Continuous
370
    -3
390
F
  0
LAYER
  5
74
330
2
100
AcDbSymbolTableRecord
100
AcDbLayerTableRecord
  2
1-5ﾚｲﾔ
 70
     0
 62
     7
  6
Continuous
370
    -3
390
F
  0
LAYER
  5
75
330
2
100
AcDbSymbolTableRecord
100
AcDbLayerTableRecord
  2
F-4ﾚｲﾔ
 70
     0
 62
     7
  6
Continuous
370
    -3
390
F
  0
LAYER
  5
76
330
2
100
AcDbSymbolTableRecord
100
AcDbLayerTableRecord
  2
F-5ﾚｲﾔ
 70
     0
 62
     7
  6
Continuous
370
    -3
390
F
  0
LAYER
  5
77
330
2
100
AcDbSymbolTableRecord
100
AcDbLayerTableRecord
  2
D-4
 70
     0
 62
     7
  6
Continuous
370
    -3
390
F
  0
LAYER
  5
78
330
2
100
AcDbSymbolTableRecord
100
AcDbLayerTableRecord
  2
D-0
 70
     0
 62
     7
  6
Continuous
370
    -3
390
F
  0
LAYER
  5
79
330
2
100
AcDbSymbolTableRecord
100
AcDbLayerTableRecord
  2
D-2
 70
     0
 62
     7
  6
Continuous
370
    -3
390
F
  0
LAYER
  5
7A
330
2
100
AcDbSymbolTableRecord
100
AcDbLayerTableRecord
  2
F-0ﾚｲﾔ
 70
     0
 62
     7
  6
Continuous
370
    -3
390
F
  0
ENDTAB
  0
TABLE
  2
STYLE
  5
3
330
0
100
AcDbSymbolTable
 70
     2
  0
STYLE
  5
11
330
3
100
AcDbSymbolTableRecord
100
AcDbTextStyleTableRecord
  2
Standard
 70
     0
 40
0.0
 41
1.0
 50
0.0
 71
     0
 42
2.5
  3
txt
  4

  0
STYLE
  5
6E
330
3
100
AcDbSymbolTableRecord
100
AcDbTextStyleTableRecord
  2
ＭＳ ゴシック
 70
     0
 40
1.0
 41
1.0
 50
0.0
 71
     0
 42
2.5
  3

  4

1001
ACAD
1000
MS Gothic
1071
    32817
  0
ENDTAB
  0
TABLE
  2
VIEW
  5
6
330
0
100
AcDbSymbolTable
 70
     0
  0
ENDTAB
  0
TABLE
  2
UCS
  5
7
330
0
100
AcDbSymbolTable
 70
     0
  0
ENDTAB
  0
TABLE
  2
APPID
  5
9
330
0
100
AcDbSymbolTable
 70
     2
  0
APPID
  5
12
330
9
100
AcDbSymbolTableRecord
100
AcDbRegAppTableRecord
  2
ACAD
 70
     0
  0
APPID
  5
47D
330
9
100
AcDbSymbolTableRecord
100
AcDbRegAppTableRecord
  2
ACAD_MLEADERVER
 70
     0
  0
ENDTAB
  0
TABLE
  2
DIMSTYLE
  5
A
330
0
100
AcDbSymbolTable
 70
     1
100
AcDbDimStyleTable
  0
DIMSTYLE
105
27
330
A
100
AcDbSymbolTableRecord
100
AcDbDimStyleTableRecord
  2
ISO-25
 70
     0
 41
2.5
 42
0.625
 43
3.75
 44
1.25
 73
     0
 74
     0
 77
     1
 78
     8
140
2.5
141
2.5
143
0.03937007874016
147
0.625
171
     3
172
     1
178
     0
271
     2
272
     2
274
     3
278
    44
283
     0
284
     8
340
11
  0
ENDTAB
  0
TABLE
  2
BLOCK_RECORD
  5
1
330
0
100
AcDbSymbolTable
 70
     1
  0
BLOCK_RECORD
  5
1F
330
1
100
AcDbSymbolTableRecord
100
AcDbBlockTableRecord
  2
*Model_Space
340
22
  0
BLOCK_RECORD
  5
1B
330
1
100
AcDbSymbolTableRecord
100
AcDbBlockTableRecord
  2
*Paper_Space
340
1E
  0
BLOCK_RECORD
  5
23
330
1
100
AcDbSymbolTableRecord
100
AcDbBlockTableRecord
  2
*Paper_Space0
340
26
  0
ENDTAB
  0
ENDSEC
  0
SECTION
  2
BLOCKS
  0
BLOCK
  5
20
330
1F
100
AcDbEntity
  8
0
100
AcDbBlockBegin
  2
*Model_Space
 70
     0
 10
0.0
 20
0.0
 30
0.0
  3
*Model_Space
  1

  0
ENDBLK
  5
21
330
1F
100
AcDbEntity
  8
0
100
AcDbBlockEnd
  0
BLOCK
  5
1C
330
1B
100
AcDbEntity
 67
     1
  8
0
100
AcDbBlockBegin
  2
*Paper_Space
 70
     0
 10
0.0
 20
0.0
 30
0.0
  3
*Paper_Space
  1

  0
ENDBLK
  5
1D
330
1B
100
AcDbEntity
 67
     1
  8
0
100
AcDbBlockEnd
  0
BLOCK
  5
24
330
23
100
AcDbEntity
  8
0
100
AcDbBlockBegin
  2
*Paper_Space0
 70
     0
 10
0.0
 20
0.0
 30
0.0
  3
*Paper_Space0
  1

  0
ENDBLK
  5
25
330
23
100
AcDbEntity
  8
0
100
AcDbBlockEnd
  0
ENDSEC
  0
SECTION
  2
ENTITIES
  0
LINE
  5
7B
330
1F
100
AcDbEntity
  8
1-2ﾚｲﾔ
  6
Continuous
 62
     3
370
     9
100
AcDbLine
 10
-599.351336504962
 20
497.1121463260135
 30
0.0
 11
-101.3513513513513
 21
497.1121463260135
 31
0.0
  0
LINE
  5
7C
330
1F
100
AcDbEntity
  8
1-2ﾚｲﾔ
  6
Continuous
 62
     3
370
     9
100
AcDbLine
 10
-599.351336504962
 20
492.6119582717484
 30
0.0
 11
-101.3513513513513
 21
492.6119582717484
 31
0.0
  0
LINE
  5
7D
330
1F
100
AcDbEntity
  8
1-2ﾚｲﾔ
  6
Continuous
 62
     3
370
     9
100
AcDbLine
 10
-101.3513513513513
 20
-128.3875790157833
 30
0.0
 11
-599.351336504962
 21
-128.3875790157833
 31
0.0
  0
LINE
  5
7E
330
1F
100
AcDbEntity
  8
1-2ﾚｲﾔ
  6
Continuous
 62
     3
370
     9
100
AcDbLine
 10
-599.351336504962
 20
429.1127137880068
 30
0.0
 11
-101.3513513513513
 21
429.1127137880068
 31
0.0
  0
LINE
  5
7F
330
1F
100
AcDbEntity
  8
1-2ﾚｲﾔ
  6
Continuous
 62
     3
370
     9
100
AcDbLine
 10
-599.351336504962
 20
435.1126346072635
 30
0.0
 11
-101.3513513513513
 21
435.1126346072635
 31
0.0
  0
LINE
  5
80
330
1F
100
AcDbEntity
  8
1-2ﾚｲﾔ
  6
Continuous
 62
     3
370
     9
100
AcDbLine
 10
-592.3515113624367
 20
435.1126346072635
 30
0.0
 11
-592.3515113624367
 21
492.6119582717484
 31
0.0
  0
LINE
  5
81
330
1F
100
AcDbEntity
  8
1-2ﾚｲﾔ
  6
Continuous
 62
     3
370
     9
100
AcDbLine
 10
-108.3514239336992
 20
492.6119582717484
 30
0.0
 11
-108.3514239336992
 21
435.1126346072635
 31
0.0
  0
LINE
  5
82
330
1F
100
AcDbEntity
  8
1-2ﾚｲﾔ
  6
Continuous
 62
     3
370
     9
100
AcDbLine
 10
-584.4517475849873
 20
435.1126346072635
 30
0.0
 11
-584.4517475849873
 21
492.6119582717484
 31
0.0
  0
LINE
  5
83
330
1F
100
AcDbEntity
  8
1-2ﾚｲﾔ
  6
Continuous
 62
     3
370
     9
100
AcDbLine
 10
-577.451551282728
 20
435.1126346072635
 30
0.0
 11
-577.451551282728
 21
492.6119582717484
 31
0.0
  0
LINE
  5
84
330
1F
100
AcDbEntity
  8
1-4ﾚｲﾔ
  6
Continuous
 62
     7
370
     9
100
AcDbLine
 10
-208.441265209301
 20
514.2803872598186
 30
0.0
 11
-193.5623375145164
 21
514.2803872598186
 31
0.0
  0
LINE
  5
85
330
1F
100
AcDbEntity
  8
1-4ﾚｲﾔ
  6
Continuous
 62
     7
370
     9
100
AcDbLine
 10
-208.441265209301
 20
483.6307587494721
 30
0.0
 11
-208.441265209301
 21
517.2802239495355
 31
0.0
  0
LINE
  5
86
330
1F
100
AcDbEntity
  8
1-4ﾚｲﾔ
  6
Continuous
 62
     7
370
     9
100
AcDbLine
 10
-193.5623375145164
 20
483.6307587494721
 30
0.0
 11
-193.5623375145164
 21
517.2802239495355
 31
0.0
  0
LINE
  5
87
330
1F
100
AcDbEntity
  8
1-2ﾚｲﾔ
  6
Continuous
 62
     3
370
     9
100
AcDbLine
 10
-599.351336504962
 20
329.1126313080659
 30
0.0
 11
-101.3513513513513
 21
329.1126313080659
 31
0.0
  0
LINE
  5
88
330
1F
100
AcDbEntity
  8
1-2ﾚｲﾔ
  6
Continuous
 62
     3
370
     9
100
AcDbLine
 10
-599.351336504962
 20
335.1127995671453
 30
0.0
 11
-101.3513513513513
 21
335.1127995671453
 31
0.0
  0
LINE
  5
89
330
1F
100
AcDbEntity
  8
1-2ﾚｲﾔ
  6
Continuous
 62
     3
370
     9
100
AcDbLine
 10
-592.3515113624367
 20
335.1127995671453
 30
0.0
 11
-592.3515113624367
 21
429.1127137880068
 31
0.0
  0
LINE
  5
8A
330
1F
100
AcDbEntity
  8
1-2ﾚｲﾔ
  6
Continuous
 62
     3
370
     9
100
AcDbLine
 10
-108.3514239336992
 20
429.1127137880068
 30
0.0
 11
-108.3514239336992
 21
335.1127995671453
 31
0.0
  0
LINE
  5
8B
330
1F
100
AcDbEntity
  8
1-2ﾚｲﾔ
  6
Continuous
 62
     3
370
     9
100
AcDbLine
 10
-584.4517475849873
 20
335.1127995671453
 30
0.0
 11
-584.4517475849873
 21
429.1127137880068
 31
0.0
  0
LINE
  5
8C
330
1F
100
AcDbEntity
  8
1-2ﾚｲﾔ
  6
Continuous
 62
     3
370
     9
100
AcDbLine
 10
-577.451551282728
 20
335.1127995671453
 30
0.0
 11
-577.451551282728
 21
429.1127137880068
 31
0.0
  0
LINE
  5
8D
330
1F
100
AcDbEntity
  8
1-2ﾚｲﾔ
  6
Continuous
 62
     3
370
     9
100
AcDbLine
 10
-101.3513513513513
 20
-132.8873959103146
 30
0.0
 11
-599.351336504962
 21
-132.8873959103146
 31
0.0
  0
LINE
  5
8E
330
1F
100
AcDbEntity
  8
1-2ﾚｲﾔ
  6
Continuous
 62
     3
370
     9
100
AcDbLine
 10
-599.351336504962
 20
229.1126106880807
 30
0.0
 11
-101.3513513513513
 21
229.1126106880807
 31
0.0
  0
LINE
  5
8F
330
1F
100
AcDbEntity
  8
1-2ﾚｲﾔ
  6
Continuous
 62
     3
370
     9
100
AcDbLine
 10
-599.351336504962
 20
235.1129026670714
 30
0.0
 11
-101.3513513513513
 21
235.1129026670714
 31
0.0
  0
LINE
  5
90
330
1F
100
AcDbEntity
  8
1-2ﾚｲﾔ
  6
Continuous
 62
     3
370
     9
100
AcDbLine
 10
-592.3515113624367
 20
235.1129026670714
 30
0.0
 11
-592.3515113624367
 21
329.1126313080659
 31
0.0
  0
LINE
  5
91
330
1F
100
AcDbEntity
  8
1-2ﾚｲﾔ
  6
Continuous
 62
     3
370
     9
100
AcDbLine
 10
-108.3514239336992
 20
329.1126313080659
 30
0.0
 11
-108.3514239336992
 21
235.1129026670714
 31
0.0
  0
LINE
  5
92
330
1F
100
AcDbEntity
  8
1-2ﾚｲﾔ
  6
Continuous
 62
     3
370
     9
100
AcDbLine
 10
-584.4517475849873
 20
235.1129026670714
 30
0.0
 11
-584.4517475849873
 21
329.1126313080659
 31
0.0
  0
LINE
  5
93
330
1F
100
AcDbEntity
  8
1-2ﾚｲﾔ
  6
Continuous
 62
     3
370
     9
100
AcDbLine
 10
-577.451551282728
 20
235.1129026670714
 30
0.0
 11
-577.451551282728
 21
329.1126313080659
 31
0.0
  0
LINE
  5
94
330
1F
100
AcDbEntity
  8
1-2ﾚｲﾔ
  6
Continuous
 62
     3
370
     9
100
AcDbLine
 10
-599.351336504962
 20
129.1126519280512
 30
0.0
 11
-101.3513513513513
 21
129.1126519280512
 31
0.0
  0
LINE
  5
95
330
1F
100
AcDbEntity
  8
1-2ﾚｲﾔ
  6
Continuous
 62
     3
370
     9
100
AcDbLine
 10
-599.351336504962
 20
135.1126964672193
 30
0.0
 11
-101.3513513513513
 21
135.1126964672193
 31
0.0
  0
LINE
  5
96
330
1F
100
AcDbEntity
  8
1-2ﾚｲﾔ
  6
Continuous
 62
     3
370
     9
100
AcDbLine
 10
-592.3515113624367
 20
135.1126964672193
 30
0.0
 11
-592.3515113624367
 21
229.1126106880807
 31
0.0
  0
LINE
  5
97
330
1F
100
AcDbEntity
  8
1-2ﾚｲﾔ
  6
Continuous
 62
     3
370
     9
100
AcDbLine
 10
-108.3514239336992
 20
229.1126106880807
 30
0.0
 11
-108.3514239336992
 21
135.1126964672193
 31
0.0
  0
LINE
  5
98
330
1F
100
AcDbEntity
  8
1-2ﾚｲﾔ
  6
Continuous
 62
     3
370
     9
100
AcDbLine
 10
-584.4517475849873
 20
135.1126964672193
 30
0.0
 11
-584.4517475849873
 21
229.1126106880807
 31
0.0
  0
LINE
  5
99
330
1F
100
AcDbEntity
  8
1-2ﾚｲﾔ
  6
Continuous
 62
     3
370
     9
100
AcDbLine
 10
-577.451551282728
 20
135.1126964672193
 30
0.0
 11
-577.451551282728
 21
229.1126106880807
 31
0.0
  0
LINE
  5
9A
330
1F
100
AcDbEntity
  8
1-2ﾚｲﾔ
  6
Continuous
 62
     3
370
     9
100
AcDbLine
 10
-599.351336504962
 20
-70.8875130318306
 30
0.0
 11
-101.3513513513513
 21
-70.8875130318306
 31
0.0
  0
LINE
  5
9B
330
1F
100
AcDbEntity
  8
1-2ﾚｲﾔ
  6
Continuous
 62
     3
370
     9
100
AcDbLine
 10
-599.351336504962
 20
-64.88728291279557
 30
0.0
 11
-101.3513513513513
 21
-64.88728291279557
 31
0.0
  0
LINE
  5
9C
330
1F
100
AcDbEntity
  8
1-2ﾚｲﾔ
  6
Continuous
 62
     3
370
     9
100
AcDbLine
 10
-592.3515113624367
 20
-128.3875790157833
 30
0.0
 11
-592.3515113624367
 21
-70.8875130318306
 31
0.0
  0
LINE
  5
9D
330
1F
100
AcDbEntity
  8
1-2ﾚｲﾔ
  6
Continuous
 62
     3
370
     9
100
AcDbLine
 10
-108.3514239336992
 20
-70.8875130318306
 30
0.0
 11
-108.3514239336992
 21
-128.3875790157833
 31
0.0
  0
LINE
  5
9E
330
1F
100
AcDbEntity
  8
1-2ﾚｲﾔ
  6
Continuous
 62
     3
370
     9
100
AcDbLine
 10
-584.4517475849873
 20
-128.3875790157833
 30
0.0
 11
-584.4517475849873
 21
-70.8875130318306
 31
0.0
  0
LINE
  5
9F
330
1F
100
AcDbEntity
  8
1-2ﾚｲﾔ
  6
Continuous
 62
     3
370
     9
100
AcDbLine
 10
-577.451551282728
 20
-128.3875790157833
 30
0.0
 11
-577.451551282728
 21
-70.8875130318306
 31
0.0
  0
LINE
  5
A0
330
1F
100
AcDbEntity
  8
1-2ﾚｲﾔ
  6
JWW_CENTER1
 62
     3
370
     9
100
AcDbLine
 10
292.6934731973185
 20
182.1125917176943
 30
0.0
 11
415.0999739363388
 21
182.1125917176943
 31
0.0
  0
LINE
  5
A1
330
1F
100
AcDbEntity
  8
1-2ﾚｲﾔ
  6
Continuous
 62
     3
370
     9
100
AcDbLine
 10
356.3435322529563
 20
492.612576871305
 30
0.0
 11
356.3435322529563
 21
-128.387455295872
 31
0.0
  0
LINE
  5
A2
330
1F
100
AcDbEntity
  8
1-2ﾚｲﾔ
  6
Continuous
 62
     3
370
     9
100
AcDbLine
 10
325.3436526736698
 20
-128.387455295872
 30
0.0
 11
325.3436526736698
 21
492.612576871305
 31
0.0
  0
LINE
  5
A3
330
1F
100
AcDbEntity
  8
1-2ﾚｲﾔ
  6
Continuous
 62
     3
370
     9
100
AcDbLine
 10
323.8439199086784
 20
-128.387455295872
 30
0.0
 11
323.8439199086784
 21
492.612576871305
 31
0.0
  0
LINE
  5
A4
330
1F
100
AcDbEntity
  8
1-2ﾚｲﾔ
  6
Continuous
 62
     3
370
     9
100
AcDbLine
 10
357.8438836175042
 20
492.612576871305
 30
0.0
 11
357.8438836175042
 21
-128.387455295872
 31
0.0
  0
LINE
  5
A5
330
1F
100
AcDbEntity
  8
1-2ﾚｲﾔ
  6
Continuous
 62
     3
370
     9
100
AcDbLine
 10
-599.351336504962
 20
-132.8873959103146
 30
0.0
 11
-599.351336504962
 21
497.1121463260135
 31
0.0
  0
LINE
  5
A6
330
1F
100
AcDbEntity
  8
1-2ﾚｲﾔ
  6
Continuous
 62
     3
370
     9
100
AcDbLine
 10
-101.3513513513513
 20
497.1121463260135
 30
0.0
 11
-101.3513513513513
 21
-132.8873959103146
 31
0.0
  0
LINE
  5
A7
330
1F
100
AcDbEntity
  8
1-2ﾚｲﾔ
  6
Continuous
 62
     3
370
     9
100
AcDbLine
 10
-569.5517875052788
 20
435.1126346072635
 30
0.0
 11
-569.5517875052788
 21
492.6119582717484
 31
0.0
  0
LINE
  5
A8
330
1F
100
AcDbEntity
  8
1-2ﾚｲﾔ
  6
Continuous
 62
     3
370
     9
100
AcDbLine
 10
-562.5514674831081
 20
435.1126346072635
 30
0.0
 11
-562.5514674831081
 21
492.6119582717484
 31
0.0
  0
LINE
  5
A9
330
1F
100
AcDbEntity
  8
1-2ﾚｲﾔ
  6
Continuous
 62
     3
370
     9
100
AcDbLine
 10
-569.5517875052788
 20
335.1127995671453
 30
0.0
 11
-569.5517875052788
 21
429.1127137880068
 31
0.0
  0
LINE
  5
AA
330
1F
100
AcDbEntity
  8
1-2ﾚｲﾔ
  6
Continuous
 62
     3
370
     9
100
AcDbLine
 10
-562.5514674831081
 20
335.1127995671453
 30
0.0
 11
-562.5514674831081
 21
429.1127137880068
 31
0.0
  0
LINE
  5
AB
330
1F
100
AcDbEntity
  8
1-2ﾚｲﾔ
  6
Continuous
 62
     3
370
     9
100
AcDbLine
 10
-569.5517875052788
 20
235.1129026670714
 30
0.0
 11
-569.5517875052788
 21
329.1126313080659
 31
0.0
  0
LINE
  5
AC
330
1F
100
AcDbEntity
  8
1-2ﾚｲﾔ
  6
Continuous
 62
     3
370
     9
100
AcDbLine
 10
-562.5514674831081
 20
235.1129026670714
 30
0.0
 11
-562.5514674831081
 21
329.1126313080659
 31
0.0
  0
LINE
  5
AD
330
1F
100
AcDbEntity
  8
1-2ﾚｲﾔ
  6
Continuous
 62
     3
370
     9
100
AcDbLine
 10
-569.5517875052788
 20
135.1126964672193
 30
0.0
 11
-569.5517875052788
 21
229.1126106880807
 31
0.0
  0
LINE
  5
AE
330
1F
100
AcDbEntity
  8
1-2ﾚｲﾔ
  6
Continuous
 62
     3
370
     9
100
AcDbLine
 10
-562.5514674831081
 20
135.1126964672193
 30
0.0
 11
-562.5514674831081
 21
229.1126106880807
 31
0.0
  0
LINE
  5
AF
330
1F
100
AcDbEntity
  8
1-2ﾚｲﾔ
  6
Continuous
 62
     3
370
     9
100
AcDbLine
 10
-569.5517875052788
 20
-128.3875790157833
 30
0.0
 11
-569.5517875052788
 21
-70.8875130318306
 31
0.0
  0
LINE
  5
B0
330
1F
100
AcDbEntity
  8
1-2ﾚｲﾔ
  6
Continuous
 62
     3
370
     9
100
AcDbLine
 10
-562.5514674831081
 20
-128.3875790157833
 30
0.0
 11
-562.5514674831081
 21
-70.8875130318306
 31
0.0
  0
LINE
  5
B1
330
1F
100
AcDbEntity
  8
1-2ﾚｲﾔ
  6
Continuous
 62
     3
370
     9
100
AcDbLine
 10
-554.6517037056587
 20
435.1126346072635
 30
0.0
 11
-554.6517037056587
 21
492.6119582717484
 31
0.0
  0
LINE
  5
B2
330
1F
100
AcDbEntity
  8
1-2ﾚｲﾔ
  6
Continuous
 62
     3
370
     9
100
AcDbLine
 10
-547.6515074033995
 20
435.1126346072635
 30
0.0
 11
-547.6515074033995
 21
492.6119582717484
 31
0.0
  0
LINE
  5
B3
330
1F
100
AcDbEntity
  8
1-2ﾚｲﾔ
  6
Continuous
 62
     3
370
     9
100
AcDbLine
 10
-554.6517037056587
 20
335.1127995671453
 30
0.0
 11
-554.6517037056587
 21
429.1127137880068
 31
0.0
  0
LINE
  5
B4
330
1F
100
AcDbEntity
  8
1-2ﾚｲﾔ
  6
Continuous
 62
     3
370
     9
100
AcDbLine
 10
-547.6515074033995
 20
335.1127995671453
 30
0.0
 11
-547.6515074033995
 21
429.1127137880068
 31
0.0
  0
LINE
  5
B5
330
1F
100
AcDbEntity
  8
1-2ﾚｲﾔ
  6
Continuous
 62
     3
370
     9
100
AcDbLine
 10
-554.6517037056587
 20
235.1129026670714
 30
0.0
 11
-554.6517037056587
 21
329.1126313080659
 31
0.0
  0
LINE
  5
B6
330
1F
100
AcDbEntity
  8
1-2ﾚｲﾔ
  6
Continuous
 62
     3
370
     9
100
AcDbLine
 10
-547.6515074033995
 20
235.1129026670714
 30
0.0
 11
-547.6515074033995
 21
329.1126313080659
 31
0.0
  0
LINE
  5
B7
330
1F
100
AcDbEntity
  8
1-2ﾚｲﾔ
  6
Continuous
 62
     3
370
     9
100
AcDbLine
 10
-554.6517037056587
 20
135.1126964672193
 30
0.0
 11
-554.6517037056587
 21
229.1126106880807
 31
0.0
  0
LINE
  5
B8
330
1F
100
AcDbEntity
  8
1-2ﾚｲﾔ
  6
Continuous
 62
     3
370
     9
100
AcDbLine
 10
-547.6515074033995
 20
135.1126964672193
 30
0.0
 11
-547.6515074033995
 21
229.1126106880807
 31
0.0
  0
LINE
  5
B9
330
1F
100
AcDbEntity
  8
1-2ﾚｲﾔ
  6
Continuous
 62
     3
370
     9
100
AcDbLine
 10
-554.6517037056587
 20
-128.3875790157833
 30
0.0
 11
-554.6517037056587
 21
-70.8875130318306
 31
0.0
  0
LINE
  5
BA
330
1F
100
AcDbEntity
  8
1-2ﾚｲﾔ
  6
Continuous
 62
     3
370
     9
100
AcDbLine
 10
-547.6515074033995
 20
-128.3875790157833
 30
0.0
 11
-547.6515074033995
 21
-70.8875130318306
 31
0.0
  0
LINE
  5
BB
330
1F
100
AcDbEntity
  8
1-2ﾚｲﾔ
  6
Continuous
 62
     3
370
     9
100
AcDbLine
 10
-539.7517436259501
 20
435.1126346072635
 30
0.0
 11
-539.7517436259501
 21
492.6119582717484
 31
0.0
  0
LINE
  5
BC
330
1F
100
AcDbEntity
  8
1-2ﾚｲﾔ
  6
Continuous
 62
     3
370
     9
100
AcDbLine
 10
-532.7515473236908
 20
435.1126346072635
 30
0.0
 11
-532.7515473236908
 21
492.6119582717484
 31
0.0
  0
LINE
  5
BD
330
1F
100
AcDbEntity
  8
1-2ﾚｲﾔ
  6
Continuous
 62
     3
370
     9
100
AcDbLine
 10
-539.7517436259501
 20
335.1127995671453
 30
0.0
 11
-539.7517436259501
 21
429.1127137880068
 31
0.0
  0
LINE
  5
BE
330
1F
100
AcDbEntity
  8
1-2ﾚｲﾔ
  6
Continuous
 62
     3
370
     9
100
AcDbLine
 10
-532.7515473236908
 20
335.1127995671453
 30
0.0
 11
-532.7515473236908
 21
429.1127137880068
 31
0.0
  0
LINE
  5
BF
330
1F
100
AcDbEntity
  8
1-2ﾚｲﾔ
  6
Continuous
 62
     3
370
     9
100
AcDbLine
 10
-539.7517436259501
 20
235.1129026670714
 30
0.0
 11
-539.7517436259501
 21
329.1126313080659
 31
0.0
  0
LINE
  5
C0
330
1F
100
AcDbEntity
  8
1-2ﾚｲﾔ
  6
Continuous
 62
     3
370
     9
100
AcDbLine
 10
-532.7515473236908
 20
235.1129026670714
 30
0.0
 11
-532.7515473236908
 21
329.1126313080659
 31
0.0
  0
LINE
  5
C1
330
1F
100
AcDbEntity
  8
1-2ﾚｲﾔ
  6
Continuous
 62
     3
370
     9
100
AcDbLine
 10
-539.7517436259501
 20
135.1126964672193
 30
0.0
 11
-539.7517436259501
 21
229.1126106880807
 31
0.0
  0
LINE
  5
C2
330
1F
100
AcDbEntity
  8
1-2ﾚｲﾔ
  6
Continuous
 62
     3
370
     9
100
AcDbLine
 10
-532.7515473236908
 20
135.1126964672193
 30
0.0
 11
-532.7515473236908
 21
229.1126106880807
 31
0.0
  0
LINE
  5
C3
330
1F
100
AcDbEntity
  8
1-2ﾚｲﾔ
  6
Continuous
 62
     3
370
     9
100
AcDbLine
 10
-539.7517436259501
 20
-128.3875790157833
 30
0.0
 11
-539.7517436259501
 21
-70.8875130318306
 31
0.0
  0
LINE
  5
C4
330
1F
100
AcDbEntity
  8
1-2ﾚｲﾔ
  6
Continuous
 62
     3
370
     9
100
AcDbLine
 10
-532.7515473236908
 20
-128.3875790157833
 30
0.0
 11
-532.7515473236908
 21
-70.8875130318306
 31
0.0
  0
LINE
  5
C5
330
1F
100
AcDbEntity
  8
1-2ﾚｲﾔ
  6
Continuous
 62
     3
370
     9
100
AcDbLine
 10
-524.8517835462416
 20
435.1126346072635
 30
0.0
 11
-524.8517835462416
 21
492.6119582717484
 31
0.0
  0
LINE
  5
C6
330
1F
100
AcDbEntity
  8
1-2ﾚｲﾔ
  6
Continuous
 62
     3
370
     9
100
AcDbLine
 10
-517.8515872439822
 20
435.1126346072635
 30
0.0
 11
-517.8515872439822
 21
492.6119582717484
 31
0.0
  0
LINE
  5
C7
330
1F
100
AcDbEntity
  8
1-2ﾚｲﾔ
  6
Continuous
 62
     3
370
     9
100
AcDbLine
 10
-524.8517835462416
 20
335.1127995671453
 30
0.0
 11
-524.8517835462416
 21
429.1127137880068
 31
0.0
  0
LINE
  5
C8
330
1F
100
AcDbEntity
  8
1-2ﾚｲﾔ
  6
Continuous
 62
     3
370
     9
100
AcDbLine
 10
-517.8515872439822
 20
335.1127995671453
 30
0.0
 11
-517.8515872439822
 21
429.1127137880068
 31
0.0
  0
LINE
  5
C9
330
1F
100
AcDbEntity
  8
1-2ﾚｲﾔ
  6
Continuous
 62
     3
370
     9
100
AcDbLine
 10
-524.8517835462416
 20
235.1129026670714
 30
0.0
 11
-524.8517835462416
 21
329.1126313080659
 31
0.0
  0
LINE
  5
CA
330
1F
100
AcDbEntity
  8
1-2ﾚｲﾔ
  6
Continuous
 62
     3
370
     9
100
AcDbLine
 10
-517.8515872439822
 20
235.1129026670714
 30
0.0
 11
-517.8515872439822
 21
329.1126313080659
 31
0.0
  0
LINE
  5
CB
330
1F
100
AcDbEntity
  8
1-2ﾚｲﾔ
  6
Continuous
 62
     3
370
     9
100
AcDbLine
 10
-524.8517835462416
 20
135.1126964672193
 30
0.0
 11
-524.8517835462416
 21
229.1126106880807
 31
0.0
  0
LINE
  5
CC
330
1F
100
AcDbEntity
  8
1-2ﾚｲﾔ
  6
Continuous
 62
     3
370
     9
100
AcDbLine
 10
-517.8515872439822
 20
135.1126964672193
 30
0.0
 11
-517.8515872439822
 21
229.1126106880807
 31
0.0
  0
LINE
  5
CD
330
1F
100
AcDbEntity
  8
1-2ﾚｲﾔ
  6
Continuous
 62
     3
370
     9
100
AcDbLine
 10
-524.8517835462416
 20
-128.3875790157833
 30
0.0
 11
-524.8517835462416
 21
-70.8875130318306
 31
0.0
  0
LINE
  5
CE
330
1F
100
AcDbEntity
  8
1-2ﾚｲﾔ
  6
Continuous
 62
     3
370
     9
100
AcDbLine
 10
-517.8515872439822
 20
-128.3875790157833
 30
0.0
 11
-517.8515872439822
 21
-70.8875130318306
 31
0.0
  0
LINE
  5
CF
330
1F
100
AcDbEntity
  8
1-2ﾚｲﾔ
  6
Continuous
 62
     3
370
     9
100
AcDbLine
 10
-509.9516997466216
 20
435.1126346072635
 30
0.0
 11
-509.9516997466216
 21
492.6119582717484
 31
0.0
  0
LINE
  5
D0
330
1F
100
AcDbEntity
  8
1-2ﾚｲﾔ
  6
Continuous
 62
     3
370
     9
100
AcDbLine
 10
-502.9516271642736
 20
435.1126346072635
 30
0.0
 11
-502.9516271642736
 21
492.6119582717484
 31
0.0
  0
LINE
  5
D1
330
1F
100
AcDbEntity
  8
1-2ﾚｲﾔ
  6
Continuous
 62
     3
370
     9
100
AcDbLine
 10
-509.9516997466216
 20
335.1127995671453
 30
0.0
 11
-509.9516997466216
 21
429.1127137880068
 31
0.0
  0
LINE
  5
D2
330
1F
100
AcDbEntity
  8
1-2ﾚｲﾔ
  6
Continuous
 62
     3
370
     9
100
AcDbLine
 10
-502.9516271642736
 20
335.1127995671453
 30
0.0
 11
-502.9516271642736
 21
429.1127137880068
 31
0.0
  0
LINE
  5
D3
330
1F
100
AcDbEntity
  8
1-2ﾚｲﾔ
  6
Continuous
 62
     3
370
     9
100
AcDbLine
 10
-509.9516997466216
 20
235.1129026670714
 30
0.0
 11
-509.9516997466216
 21
329.1126313080659
 31
0.0
  0
LINE
  5
D4
330
1F
100
AcDbEntity
  8
1-2ﾚｲﾔ
  6
Continuous
 62
     3
370
     9
100
AcDbLine
 10
-502.9516271642736
 20
235.1129026670714
 30
0.0
 11
-502.9516271642736
 21
329.1126313080659
 31
0.0
  0
LINE
  5
D5
330
1F
100
AcDbEntity
  8
1-2ﾚｲﾔ
  6
Continuous
 62
     3
370
     9
100
AcDbLine
 10
-509.9516997466216
 20
135.1126964672193
 30
0.0
 11
-509.9516997466216
 21
229.1126106880807
 31
0.0
  0
LINE
  5
D6
330
1F
100
AcDbEntity
  8
1-2ﾚｲﾔ
  6
Continuous
 62
     3
370
     9
100
AcDbLine
 10
-502.9516271642736
 20
135.1126964672193
 30
0.0
 11
-502.9516271642736
 21
229.1126106880807
 31
0.0
  0
LINE
  5
D7
330
1F
100
AcDbEntity
  8
1-2ﾚｲﾔ
  6
Continuous
 62
     3
370
     9
100
AcDbLine
 10
-509.9516997466216
 20
-128.3875790157833
 30
0.0
 11
-509.9516997466216
 21
-70.8875130318306
 31
0.0
  0
LINE
  5
D8
330
1F
100
AcDbEntity
  8
1-2ﾚｲﾔ
  6
Continuous
 62
     3
370
     9
100
AcDbLine
 10
-502.9516271642736
 20
-128.3875790157833
 30
0.0
 11
-502.9516271642736
 21
-70.8875130318306
 31
0.0
  0
LINE
  5
D9
330
1F
100
AcDbEntity
  8
1-2ﾚｲﾔ
  6
Continuous
 62
     3
370
     9
100
AcDbLine
 10
-495.051739666913
 20
435.1126346072635
 30
0.0
 11
-495.051739666913
 21
492.6119582717484
 31
0.0
  0
LINE
  5
DA
330
1F
100
AcDbEntity
  8
1-2ﾚｲﾔ
  6
Continuous
 62
     3
370
     9
100
AcDbLine
 10
-488.0515433646537
 20
435.1126346072635
 30
0.0
 11
-488.0515433646537
 21
492.6119582717484
 31
0.0
  0
LINE
  5
DB
330
1F
100
AcDbEntity
  8
1-2ﾚｲﾔ
  6
Continuous
 62
     3
370
     9
100
AcDbLine
 10
-495.051739666913
 20
335.1127995671453
 30
0.0
 11
-495.051739666913
 21
429.1127137880068
 31
0.0
  0
LINE
  5
DC
330
1F
100
AcDbEntity
  8
1-2ﾚｲﾔ
  6
Continuous
 62
     3
370
     9
100
AcDbLine
 10
-488.0515433646537
 20
335.1127995671453
 30
0.0
 11
-488.0515433646537
 21
429.1127137880068
 31
0.0
  0
LINE
  5
DD
330
1F
100
AcDbEntity
  8
1-2ﾚｲﾔ
  6
Continuous
 62
     3
370
     9
100
AcDbLine
 10
-495.051739666913
 20
235.1129026670714
 30
0.0
 11
-495.051739666913
 21
329.1126313080659
 31
0.0
  0
LINE
  5
DE
330
1F
100
AcDbEntity
  8
1-2ﾚｲﾔ
  6
Continuous
 62
     3
370
     9
100
AcDbLine
 10
-488.0515433646537
 20
235.1129026670714
 30
0.0
 11
-488.0515433646537
 21
329.1126313080659
 31
0.0
  0
LINE
  5
DF
330
1F
100
AcDbEntity
  8
1-2ﾚｲﾔ
  6
Continuous
 62
     3
370
     9
100
AcDbLine
 10
-495.051739666913
 20
135.1126964672193
 30
0.0
 11
-495.051739666913
 21
229.1126106880807
 31
0.0
  0
LINE
  5
E0
330
1F
100
AcDbEntity
  8
1-2ﾚｲﾔ
  6
Continuous
 62
     3
370
     9
100
AcDbLine
 10
-488.0515433646537
 20
135.1126964672193
 30
0.0
 11
-488.0515433646537
 21
229.1126106880807
 31
0.0
  0
LINE
  5
E1
330
1F
100
AcDbEntity
  8
1-2ﾚｲﾔ
  6
Continuous
 62
     3
370
     9
100
AcDbLine
 10
-495.051739666913
 20
-128.3875790157833
 30
0.0
 11
-495.051739666913
 21
-70.8875130318306
 31
0.0
  0
LINE
  5
E2
330
1F
100
AcDbEntity
  8
1-2ﾚｲﾔ
  6
Continuous
 62
     3
370
     9
100
AcDbLine
 10
-488.0515433646537
 20
-128.3875790157833
 30
0.0
 11
-488.0515433646537
 21
-70.8875130318306
 31
0.0
  0
LINE
  5
E3
330
1F
100
AcDbEntity
  8
1-2ﾚｲﾔ
  6
Continuous
 62
     3
370
     9
100
AcDbLine
 10
-480.1517795872044
 20
435.1126346072635
 30
0.0
 11
-480.1517795872044
 21
492.6119582717484
 31
0.0
  0
LINE
  5
E4
330
1F
100
AcDbEntity
  8
1-2ﾚｲﾔ
  6
Continuous
 62
     3
370
     9
100
AcDbLine
 10
-473.151583284945
 20
435.1126346072635
 30
0.0
 11
-473.151583284945
 21
492.6119582717484
 31
0.0
  0
LINE
  5
E5
330
1F
100
AcDbEntity
  8
1-2ﾚｲﾔ
  6
Continuous
 62
     3
370
     9
100
AcDbLine
 10
-480.1517795872044
 20
335.1127995671453
 30
0.0
 11
-480.1517795872044
 21
429.1127137880068
 31
0.0
  0
LINE
  5
E6
330
1F
100
AcDbEntity
  8
1-2ﾚｲﾔ
  6
Continuous
 62
     3
370
     9
100
AcDbLine
 10
-473.151583284945
 20
335.1127995671453
 30
0.0
 11
-473.151583284945
 21
429.1127137880068
 31
0.0
  0
LINE
  5
E7
330
1F
100
AcDbEntity
  8
1-2ﾚｲﾔ
  6
Continuous
 62
     3
370
     9
100
AcDbLine
 10
-480.1517795872044
 20
235.1129026670714
 30
0.0
 11
-480.1517795872044
 21
329.1126313080659
 31
0.0
  0
LINE
  5
E8
330
1F
100
AcDbEntity
  8
1-2ﾚｲﾔ
  6
Continuous
 62
     3
370
     9
100
AcDbLine
 10
-473.151583284945
 20
235.1129026670714
 30
0.0
 11
-473.151583284945
 21
329.1126313080659
 31
0.0
  0
LINE
  5
E9
330
1F
100
AcDbEntity
  8
1-2ﾚｲﾔ
  6
Continuous
 62
     3
370
     9
100
AcDbLine
 10
-480.1517795872044
 20
135.1126964672193
 30
0.0
 11
-480.1517795872044
 21
229.1126106880807
 31
0.0
  0
LINE
  5
EA
330
1F
100
AcDbEntity
  8
1-2ﾚｲﾔ
  6
Continuous
 62
     3
370
     9
100
AcDbLine
 10
-473.151583284945
 20
135.1126964672193
 30
0.0
 11
-473.151583284945
 21
229.1126106880807
 31
0.0
  0
LINE
  5
EB
330
1F
100
AcDbEntity
  8
1-2ﾚｲﾔ
  6
Continuous
 62
     3
370
     9
100
AcDbLine
 10
-480.1517795872044
 20
-128.3875790157833
 30
0.0
 11
-480.1517795872044
 21
-70.8875130318306
 31
0.0
  0
LINE
  5
EC
330
1F
100
AcDbEntity
  8
1-2ﾚｲﾔ
  6
Continuous
 62
     3
370
     9
100
AcDbLine
 10
-473.151583284945
 20
-128.3875790157833
 30
0.0
 11
-473.151583284945
 21
-70.8875130318306
 31
0.0
  0
LINE
  5
ED
330
1F
100
AcDbEntity
  8
1-2ﾚｲﾔ
  6
Continuous
 62
     3
370
     9
100
AcDbLine
 10
-465.2518195074958
 20
435.1126346072635
 30
0.0
 11
-465.2518195074958
 21
492.6119582717484
 31
0.0
  0
LINE
  5
EE
330
1F
100
AcDbEntity
  8
1-2ﾚｲﾔ
  6
Continuous
 62
     3
370
     9
100
AcDbLine
 10
-458.2516232052365
 20
435.1126346072635
 30
0.0
 11
-458.2516232052365
 21
492.6119582717484
 31
0.0
  0
LINE
  5
EF
330
1F
100
AcDbEntity
  8
1-2ﾚｲﾔ
  6
Continuous
 62
     3
370
     9
100
AcDbLine
 10
-465.2518195074958
 20
335.1127995671453
 30
0.0
 11
-465.2518195074958
 21
429.1127137880068
 31
0.0
  0
LINE
  5
F0
330
1F
100
AcDbEntity
  8
1-2ﾚｲﾔ
  6
Continuous
 62
     3
370
     9
100
AcDbLine
 10
-458.2516232052365
 20
335.1127995671453
 30
0.0
 11
-458.2516232052365
 21
429.1127137880068
 31
0.0
  0
LINE
  5
F1
330
1F
100
AcDbEntity
  8
1-2ﾚｲﾔ
  6
Continuous
 62
     3
370
     9
100
AcDbLine
 10
-465.2518195074958
 20
235.1129026670714
 30
0.0
 11
-465.2518195074958
 21
329.1126313080659
 31
0.0
  0
LINE
  5
F2
330
1F
100
AcDbEntity
  8
1-2ﾚｲﾔ
  6
Continuous
 62
     3
370
     9
100
AcDbLine
 10
-458.2516232052365
 20
235.1129026670714
 30
0.0
 11
-458.2516232052365
 21
329.1126313080659
 31
0.0
  0
LINE
  5
F3
330
1F
100
AcDbEntity
  8
1-2ﾚｲﾔ
  6
Continuous
 62
     3
370
     9
100
AcDbLine
 10
-465.2518195074958
 20
135.1126964672193
 30
0.0
 11
-465.2518195074958
 21
229.1126106880807
 31
0.0
  0
LINE
  5
F4
330
1F
100
AcDbEntity
  8
1-2ﾚｲﾔ
  6
Continuous
 62
     3
370
     9
100
AcDbLine
 10
-458.2516232052365
 20
135.1126964672193
 30
0.0
 11
-458.2516232052365
 21
229.1126106880807
 31
0.0
  0
LINE
  5
F5
330
1F
100
AcDbEntity
  8
1-2ﾚｲﾔ
  6
Continuous
 62
     3
370
     9
100
AcDbLine
 10
-465.2518195074958
 20
-128.3875790157833
 30
0.0
 11
-465.2518195074958
 21
-70.8875130318306
 31
0.0
  0
LINE
  5
F6
330
1F
100
AcDbEntity
  8
1-2ﾚｲﾔ
  6
Continuous
 62
     3
370
     9
100
AcDbLine
 10
-458.2516232052365
 20
-128.3875790157833
 30
0.0
 11
-458.2516232052365
 21
-70.8875130318306
 31
0.0
  0
LINE
  5
F7
330
1F
100
AcDbEntity
  8
1-2ﾚｲﾔ
  6
Continuous
 62
     3
370
     9
100
AcDbLine
 10
-450.3517975678315
 20
435.1126346072635
 30
0.0
 11
-450.3517975678315
 21
492.6119582717484
 31
0.0
  0
LINE
  5
F8
330
1F
100
AcDbEntity
  8
1-2ﾚｲﾔ
  6
Continuous
 62
     3
370
     9
100
AcDbLine
 10
-443.3516012655722
 20
435.1126346072635
 30
0.0
 11
-443.3516012655722
 21
492.6119582717484
 31
0.0
  0
LINE
  5
F9
330
1F
100
AcDbEntity
  8
1-2ﾚｲﾔ
  6
Continuous
 62
     3
370
     9
100
AcDbLine
 10
-450.3517975678315
 20
335.1127995671453
 30
0.0
 11
-450.3517975678315
 21
429.1127137880068
 31
0.0
  0
LINE
  5
FA
330
1F
100
AcDbEntity
  8
1-2ﾚｲﾔ
  6
Continuous
 62
     3
370
     9
100
AcDbLine
 10
-443.3516012655722
 20
335.1127995671453
 30
0.0
 11
-443.3516012655722
 21
429.1127137880068
 31
0.0
  0
LINE
  5
FB
330
1F
100
AcDbEntity
  8
1-2ﾚｲﾔ
  6
Continuous
 62
     3
370
     9
100
AcDbLine
 10
-450.3517975678315
 20
235.1129026670714
 30
0.0
 11
-450.3517975678315
 21
329.1126313080659
 31
0.0
  0
LINE
  5
FC
330
1F
100
AcDbEntity
  8
1-2ﾚｲﾔ
  6
Continuous
 62
     3
370
     9
100
AcDbLine
 10
-443.3516012655722
 20
235.1129026670714
 30
0.0
 11
-443.3516012655722
 21
329.1126313080659
 31
0.0
  0
LINE
  5
FD
330
1F
100
AcDbEntity
  8
1-2ﾚｲﾔ
  6
Continuous
 62
     3
370
     9
100
AcDbLine
 10
-450.3517975678315
 20
135.1126964672193
 30
0.0
 11
-450.3517975678315
 21
229.1126106880807
 31
0.0
  0
LINE
  5
FE
330
1F
100
AcDbEntity
  8
1-2ﾚｲﾔ
  6
Continuous
 62
     3
370
     9
100
AcDbLine
 10
-443.3516012655722
 20
135.1126964672193
 30
0.0
 11
-443.3516012655722
 21
229.1126106880807
 31
0.0
  0
LINE
  5
FF
330
1F
100
AcDbEntity
  8
1-2ﾚｲﾔ
  6
Continuous
 62
     3
370
     9
100
AcDbLine
 10
-450.3517975678315
 20
-128.3875790157833
 30
0.0
 11
-450.3517975678315
 21
-70.8875130318306
 31
0.0
  0
LINE
  5
100
330
1F
100
AcDbEntity
  8
1-2ﾚｲﾔ
  6
Continuous
 62
     3
370
     9
100
AcDbLine
 10
-443.3516012655722
 20
-128.3875790157833
 30
0.0
 11
-443.3516012655722
 21
-70.8875130318306
 31
0.0
  0
LINE
  5
101
330
1F
100
AcDbEntity
  8
1-2ﾚｲﾔ
  6
Continuous
 62
     3
370
     9
100
AcDbLine
 10
-435.4517756281672
 20
435.1126346072635
 30
0.0
 11
-435.4517756281672
 21
492.6119582717484
 31
0.0
  0
LINE
  5
102
330
1F
100
AcDbEntity
  8
1-2ﾚｲﾔ
  6
Continuous
 62
     3
370
     9
100
AcDbLine
 10
-428.4515793259079
 20
435.1126346072635
 30
0.0
 11
-428.4515793259079
 21
492.6119582717484
 31
0.0
  0
LINE
  5
103
330
1F
100
AcDbEntity
  8
1-2ﾚｲﾔ
  6
Continuous
 62
     3
370
     9
100
AcDbLine
 10
-435.4517756281672
 20
335.1127995671453
 30
0.0
 11
-435.4517756281672
 21
429.1127137880068
 31
0.0
  0
LINE
  5
104
330
1F
100
AcDbEntity
  8
1-2ﾚｲﾔ
  6
Continuous
 62
     3
370
     9
100
AcDbLine
 10
-428.4515793259079
 20
335.1127995671453
 30
0.0
 11
-428.4515793259079
 21
429.1127137880068
 31
0.0
  0
LINE
  5
105
330
1F
100
AcDbEntity
  8
1-2ﾚｲﾔ
  6
Continuous
 62
     3
370
     9
100
AcDbLine
 10
-435.4517756281672
 20
235.1129026670714
 30
0.0
 11
-435.4517756281672
 21
329.1126313080659
 31
0.0
  0
LINE
  5
106
330
1F
100
AcDbEntity
  8
1-2ﾚｲﾔ
  6
Continuous
 62
     3
370
     9
100
AcDbLine
 10
-428.4515793259079
 20
235.1129026670714
 30
0.0
 11
-428.4515793259079
 21
329.1126313080659
 31
0.0
  0
LINE
  5
107
330
1F
100
AcDbEntity
  8
1-2ﾚｲﾔ
  6
Continuous
 62
     3
370
     9
100
AcDbLine
 10
-435.4517756281672
 20
135.1126964672193
 30
0.0
 11
-435.4517756281672
 21
229.1126106880807
 31
0.0
  0
LINE
  5
108
330
1F
100
AcDbEntity
  8
1-2ﾚｲﾔ
  6
Continuous
 62
     3
370
     9
100
AcDbLine
 10
-428.4515793259079
 20
135.1126964672193
 30
0.0
 11
-428.4515793259079
 21
229.1126106880807
 31
0.0
  0
LINE
  5
109
330
1F
100
AcDbEntity
  8
1-2ﾚｲﾔ
  6
Continuous
 62
     3
370
     9
100
AcDbLine
 10
-435.4517756281672
 20
-128.3875790157833
 30
0.0
 11
-435.4517756281672
 21
-70.8875130318306
 31
0.0
  0
LINE
  5
10A
330
1F
100
AcDbEntity
  8
1-2ﾚｲﾔ
  6
Continuous
 62
     3
370
     9
100
AcDbLine
 10
-428.4515793259079
 20
-128.3875790157833
 30
0.0
 11
-428.4515793259079
 21
-70.8875130318306
 31
0.0
  0
LINE
  5
10B
330
1F
100
AcDbEntity
  8
1-2ﾚｲﾔ
  6
Continuous
 62
     3
370
     9
100
AcDbLine
 10
-420.5518155484586
 20
435.1126346072635
 30
0.0
 11
-420.5518155484586
 21
492.6119582717484
 31
0.0
  0
LINE
  5
10C
330
1F
100
AcDbEntity
  8
1-2ﾚｲﾔ
  6
Continuous
 62
     3
370
     9
100
AcDbLine
 10
-413.5516192461993
 20
435.1126346072635
 30
0.0
 11
-413.5516192461993
 21
492.6119582717484
 31
0.0
  0
LINE
  5
10D
330
1F
100
AcDbEntity
  8
1-2ﾚｲﾔ
  6
Continuous
 62
     3
370
     9
100
AcDbLine
 10
-420.5518155484586
 20
335.1127995671453
 30
0.0
 11
-420.5518155484586
 21
429.1127137880068
 31
0.0
  0
LINE
  5
10E
330
1F
100
AcDbEntity
  8
1-2ﾚｲﾔ
  6
Continuous
 62
     3
370
     9
100
AcDbLine
 10
-413.5516192461993
 20
335.1127995671453
 30
0.0
 11
-413.5516192461993
 21
429.1127137880068
 31
0.0
  0
LINE
  5
10F
330
1F
100
AcDbEntity
  8
1-2ﾚｲﾔ
  6
Continuous
 62
     3
370
     9
100
AcDbLine
 10
-420.5518155484586
 20
235.1129026670714
 30
0.0
 11
-420.5518155484586
 21
329.1126313080659
 31
0.0
  0
LINE
  5
110
330
1F
100
AcDbEntity
  8
1-2ﾚｲﾔ
  6
Continuous
 62
     3
370
     9
100
AcDbLine
 10
-413.5516192461993
 20
235.1129026670714
 30
0.0
 11
-413.5516192461993
 21
329.1126313080659
 31
0.0
  0
LINE
  5
111
330
1F
100
AcDbEntity
  8
1-2ﾚｲﾔ
  6
Continuous
 62
     3
370
     9
100
AcDbLine
 10
-420.5518155484586
 20
135.1126964672193
 30
0.0
 11
-420.5518155484586
 21
229.1126106880807
 31
0.0
  0
LINE
  5
112
330
1F
100
AcDbEntity
  8
1-2ﾚｲﾔ
  6
Continuous
 62
     3
370
     9
100
AcDbLine
 10
-413.5516192461993
 20
135.1126964672193
 30
0.0
 11
-413.5516192461993
 21
229.1126106880807
 31
0.0
  0
LINE
  5
113
330
1F
100
AcDbEntity
  8
1-2ﾚｲﾔ
  6
Continuous
 62
     3
370
     9
100
AcDbLine
 10
-420.5518155484586
 20
-128.3875790157833
 30
0.0
 11
-420.5518155484586
 21
-70.8875130318306
 31
0.0
  0
LINE
  5
114
330
1F
100
AcDbEntity
  8
1-2ﾚｲﾔ
  6
Continuous
 62
     3
370
     9
100
AcDbLine
 10
-413.5516192461993
 20
-128.3875790157833
 30
0.0
 11
-413.5516192461993
 21
-70.8875130318306
 31
0.0
  0
LINE
  5
115
330
1F
100
AcDbEntity
  8
1-2ﾚｲﾔ
  6
Continuous
 62
     3
370
     9
100
AcDbLine
 10
-405.65185546875
 20
435.1126346072635
 30
0.0
 11
-405.65185546875
 21
492.6119582717484
 31
0.0
  0
LINE
  5
116
330
1F
100
AcDbEntity
  8
1-2ﾚｲﾔ
  6
Continuous
 62
     3
370
     9
100
AcDbLine
 10
-398.6516591664906
 20
435.1126346072635
 30
0.0
 11
-398.6516591664906
 21
492.6119582717484
 31
0.0
  0
LINE
  5
117
330
1F
100
AcDbEntity
  8
1-2ﾚｲﾔ
  6
Continuous
 62
     3
370
     9
100
AcDbLine
 10
-405.65185546875
 20
335.1127995671453
 30
0.0
 11
-405.65185546875
 21
429.1127137880068
 31
0.0
  0
LINE
  5
118
330
1F
100
AcDbEntity
  8
1-2ﾚｲﾔ
  6
Continuous
 62
     3
370
     9
100
AcDbLine
 10
-398.6516591664906
 20
335.1127995671453
 30
0.0
 11
-398.6516591664906
 21
429.1127137880068
 31
0.0
  0
LINE
  5
119
330
1F
100
AcDbEntity
  8
1-2ﾚｲﾔ
  6
Continuous
 62
     3
370
     9
100
AcDbLine
 10
-405.65185546875
 20
235.1129026670714
 30
0.0
 11
-405.65185546875
 21
329.1126313080659
 31
0.0
  0
LINE
  5
11A
330
1F
100
AcDbEntity
  8
1-2ﾚｲﾔ
  6
Continuous
 62
     3
370
     9
100
AcDbLine
 10
-398.6516591664906
 20
235.1129026670714
 30
0.0
 11
-398.6516591664906
 21
329.1126313080659
 31
0.0
  0
LINE
  5
11B
330
1F
100
AcDbEntity
  8
1-2ﾚｲﾔ
  6
Continuous
 62
     3
370
     9
100
AcDbLine
 10
-405.65185546875
 20
135.1126964672193
 30
0.0
 11
-405.65185546875
 21
229.1126106880807
 31
0.0
  0
LINE
  5
11C
330
1F
100
AcDbEntity
  8
1-2ﾚｲﾔ
  6
Continuous
 62
     3
370
     9
100
AcDbLine
 10
-398.6516591664906
 20
135.1126964672193
 30
0.0
 11
-398.6516591664906
 21
229.1126106880807
 31
0.0
  0
LINE
  5
11D
330
1F
100
AcDbEntity
  8
1-2ﾚｲﾔ
  6
Continuous
 62
     3
370
     9
100
AcDbLine
 10
-405.65185546875
 20
-128.3875790157833
 30
0.0
 11
-405.65185546875
 21
-70.8875130318306
 31
0.0
  0
LINE
  5
11E
330
1F
100
AcDbEntity
  8
1-2ﾚｲﾔ
  6
Continuous
 62
     3
370
     9
100
AcDbLine
 10
-398.6516591664906
 20
-128.3875790157833
 30
0.0
 11
-398.6516591664906
 21
-70.8875130318306
 31
0.0
  0
LINE
  5
11F
330
1F
100
AcDbEntity
  8
1-2ﾚｲﾔ
  6
Continuous
 62
     3
370
     9
100
AcDbLine
 10
-390.7518335290857
 20
435.1126346072635
 30
0.0
 11
-390.7518335290857
 21
492.6119582717484
 31
0.0
  0
LINE
  5
120
330
1F
100
AcDbEntity
  8
1-2ﾚｲﾔ
  6
Continuous
 62
     3
370
     9
100
AcDbLine
 10
-383.7516372268265
 20
435.1126346072635
 30
0.0
 11
-383.7516372268265
 21
492.6119582717484
 31
0.0
  0
LINE
  5
121
330
1F
100
AcDbEntity
  8
1-2ﾚｲﾔ
  6
Continuous
 62
     3
370
     9
100
AcDbLine
 10
-390.7518335290857
 20
335.1127995671453
 30
0.0
 11
-390.7518335290857
 21
429.1127137880068
 31
0.0
  0
LINE
  5
122
330
1F
100
AcDbEntity
  8
1-2ﾚｲﾔ
  6
Continuous
 62
     3
370
     9
100
AcDbLine
 10
-383.7516372268265
 20
335.1127995671453
 30
0.0
 11
-383.7516372268265
 21
429.1127137880068
 31
0.0
  0
LINE
  5
123
330
1F
100
AcDbEntity
  8
1-2ﾚｲﾔ
  6
Continuous
 62
     3
370
     9
100
AcDbLine
 10
-390.7518335290857
 20
235.1129026670714
 30
0.0
 11
-390.7518335290857
 21
329.1126313080659
 31
0.0
  0
LINE
  5
124
330
1F
100
AcDbEntity
  8
1-2ﾚｲﾔ
  6
Continuous
 62
     3
370
     9
100
AcDbLine
 10
-383.7516372268265
 20
235.1129026670714
 30
0.0
 11
-383.7516372268265
 21
329.1126313080659
 31
0.0
  0
LINE
  5
125
330
1F
100
AcDbEntity
  8
1-2ﾚｲﾔ
  6
Continuous
 62
     3
370
     9
100
AcDbLine
 10
-390.7518335290857
 20
135.1126964672193
 30
0.0
 11
-390.7518335290857
 21
229.1126106880807
 31
0.0
  0
LINE
  5
126
330
1F
100
AcDbEntity
  8
1-2ﾚｲﾔ
  6
Continuous
 62
     3
370
     9
100
AcDbLine
 10
-383.7516372268265
 20
135.1126964672193
 30
0.0
 11
-383.7516372268265
 21
229.1126106880807
 31
0.0
  0
LINE
  5
127
330
1F
100
AcDbEntity
  8
1-2ﾚｲﾔ
  6
Continuous
 62
     3
370
     9
100
AcDbLine
 10
-390.7518335290857
 20
-128.3875790157833
 30
0.0
 11
-390.7518335290857
 21
-70.8875130318306
 31
0.0
  0
LINE
  5
128
330
1F
100
AcDbEntity
  8
1-2ﾚｲﾔ
  6
Continuous
 62
     3
370
     9
100
AcDbLine
 10
-383.7516372268265
 20
-128.3875790157833
 30
0.0
 11
-383.7516372268265
 21
-70.8875130318306
 31
0.0
  0
LINE
  5
129
330
1F
100
AcDbEntity
  8
1-2ﾚｲﾔ
  6
Continuous
 62
     3
370
     9
100
AcDbLine
 10
-375.8518115894213
 20
435.1126346072635
 30
0.0
 11
-375.8518115894213
 21
492.6119582717484
 31
0.0
  0
LINE
  5
12A
330
1F
100
AcDbEntity
  8
1-2ﾚｲﾔ
  6
Continuous
 62
     3
370
     9
100
AcDbLine
 10
-368.8516152871621
 20
435.1126346072635
 30
0.0
 11
-368.8516152871621
 21
492.6119582717484
 31
0.0
  0
LINE
  5
12B
330
1F
100
AcDbEntity
  8
1-2ﾚｲﾔ
  6
Continuous
 62
     3
370
     9
100
AcDbLine
 10
-375.8518115894213
 20
335.1127995671453
 30
0.0
 11
-375.8518115894213
 21
429.1127137880068
 31
0.0
  0
LINE
  5
12C
330
1F
100
AcDbEntity
  8
1-2ﾚｲﾔ
  6
Continuous
 62
     3
370
     9
100
AcDbLine
 10
-368.8516152871621
 20
335.1127995671453
 30
0.0
 11
-368.8516152871621
 21
429.1127137880068
 31
0.0
  0
LINE
  5
12D
330
1F
100
AcDbEntity
  8
1-2ﾚｲﾔ
  6
Continuous
 62
     3
370
     9
100
AcDbLine
 10
-375.8518115894213
 20
235.1129026670714
 30
0.0
 11
-375.8518115894213
 21
329.1126313080659
 31
0.0
  0
LINE
  5
12E
330
1F
100
AcDbEntity
  8
1-2ﾚｲﾔ
  6
Continuous
 62
     3
370
     9
100
AcDbLine
 10
-368.8516152871621
 20
235.1129026670714
 30
0.0
 11
-368.8516152871621
 21
329.1126313080659
 31
0.0
  0
LINE
  5
12F
330
1F
100
AcDbEntity
  8
1-2ﾚｲﾔ
  6
Continuous
 62
     3
370
     9
100
AcDbLine
 10
-375.8518115894213
 20
135.1126964672193
 30
0.0
 11
-375.8518115894213
 21
229.1126106880807
 31
0.0
  0
LINE
  5
130
330
1F
100
AcDbEntity
  8
1-2ﾚｲﾔ
  6
Continuous
 62
     3
370
     9
100
AcDbLine
 10
-368.8516152871621
 20
135.1126964672193
 30
0.0
 11
-368.8516152871621
 21
229.1126106880807
 31
0.0
  0
LINE
  5
131
330
1F
100
AcDbEntity
  8
1-2ﾚｲﾔ
  6
Continuous
 62
     3
370
     9
100
AcDbLine
 10
-375.8518115894213
 20
-128.3875790157833
 30
0.0
 11
-375.8518115894213
 21
-70.8875130318306
 31
0.0
  0
LINE
  5
132
330
1F
100
AcDbEntity
  8
1-2ﾚｲﾔ
  6
Continuous
 62
     3
370
     9
100
AcDbLine
 10
-368.8516152871621
 20
-128.3875790157833
 30
0.0
 11
-368.8516152871621
 21
-70.8875130318306
 31
0.0
  0
LINE
  5
133
330
1F
100
AcDbEntity
  8
1-2ﾚｲﾔ
  6
Continuous
 62
     3
370
     9
100
AcDbLine
 10
-353.9516552074535
 20
435.1126346072635
 30
0.0
 11
-353.9516552074535
 21
492.6119582717484
 31
0.0
  0
LINE
  5
134
330
1F
100
AcDbEntity
  8
1-2ﾚｲﾔ
  6
Continuous
 62
     3
370
     9
100
AcDbLine
 10
-360.9518515097128
 20
335.1127995671453
 30
0.0
 11
-360.9518515097128
 21
429.1127137880068
 31
0.0
  0
LINE
  5
135
330
1F
100
AcDbEntity
  8
1-2ﾚｲﾔ
  6
Continuous
 62
     3
370
     9
100
AcDbLine
 10
-353.9516552074535
 20
335.1127995671453
 30
0.0
 11
-353.9516552074535
 21
429.1127137880068
 31
0.0
  0
LINE
  5
136
330
1F
100
AcDbEntity
  8
1-2ﾚｲﾔ
  6
Continuous
 62
     3
370
     9
100
AcDbLine
 10
-360.9518515097128
 20
235.1129026670714
 30
0.0
 11
-360.9518515097128
 21
329.1126313080659
 31
0.0
  0
LINE
  5
137
330
1F
100
AcDbEntity
  8
1-2ﾚｲﾔ
  6
Continuous
 62
     3
370
     9
100
AcDbLine
 10
-353.9516552074535
 20
235.1129026670714
 30
0.0
 11
-353.9516552074535
 21
329.1126313080659
 31
0.0
  0
LINE
  5
138
330
1F
100
AcDbEntity
  8
1-2ﾚｲﾔ
  6
Continuous
 62
     3
370
     9
100
AcDbLine
 10
-360.9518515097128
 20
135.1126964672193
 30
0.0
 11
-360.9518515097128
 21
229.1126106880807
 31
0.0
  0
LINE
  5
139
330
1F
100
AcDbEntity
  8
1-2ﾚｲﾔ
  6
Continuous
 62
     3
370
     9
100
AcDbLine
 10
-353.9516552074535
 20
135.1126964672193
 30
0.0
 11
-353.9516552074535
 21
229.1126106880807
 31
0.0
  0
LINE
  5
13A
330
1F
100
AcDbEntity
  8
1-2ﾚｲﾔ
  6
Continuous
 62
     3
370
     9
100
AcDbLine
 10
-360.9518515097128
 20
-128.3875790157833
 30
0.0
 11
-360.9518515097128
 21
-70.8875130318306
 31
0.0
  0
LINE
  5
13B
330
1F
100
AcDbEntity
  8
1-2ﾚｲﾔ
  6
Continuous
 62
     3
370
     9
100
AcDbLine
 10
-353.9516552074535
 20
-128.3875790157833
 30
0.0
 11
-353.9516552074535
 21
-70.8875130318306
 31
0.0
  0
LINE
  5
13C
330
1F
100
AcDbEntity
  8
1-2ﾚｲﾔ
  6
Continuous
 62
     3
370
     9
100
AcDbLine
 10
-346.0518914300042
 20
435.1126346072635
 30
0.0
 11
-346.0518914300042
 21
492.6119582717484
 31
0.0
  0
LINE
  5
13D
330
1F
100
AcDbEntity
  8
1-2ﾚｲﾔ
  6
Continuous
 62
     3
370
     9
100
AcDbLine
 10
-339.0516951277449
 20
435.1126346072635
 30
0.0
 11
-339.0516951277449
 21
492.6119582717484
 31
0.0
  0
LINE
  5
13E
330
1F
100
AcDbEntity
  8
1-2ﾚｲﾔ
  6
Continuous
 62
     3
370
     9
100
AcDbLine
 10
-346.0518914300042
 20
335.1127995671453
 30
0.0
 11
-346.0518914300042
 21
429.1127137880068
 31
0.0
  0
LINE
  5
13F
330
1F
100
AcDbEntity
  8
1-2ﾚｲﾔ
  6
Continuous
 62
     3
370
     9
100
AcDbLine
 10
-339.0516951277449
 20
335.1127995671453
 30
0.0
 11
-339.0516951277449
 21
429.1127137880068
 31
0.0
  0
LINE
  5
140
330
1F
100
AcDbEntity
  8
1-2ﾚｲﾔ
  6
Continuous
 62
     3
370
     9
100
AcDbLine
 10
-346.0518914300042
 20
235.1129026670714
 30
0.0
 11
-346.0518914300042
 21
329.1126313080659
 31
0.0
  0
LINE
  5
141
330
1F
100
AcDbEntity
  8
1-2ﾚｲﾔ
  6
Continuous
 62
     3
370
     9
100
AcDbLine
 10
-339.0516951277449
 20
235.1129026670714
 30
0.0
 11
-339.0516951277449
 21
329.1126313080659
 31
0.0
  0
LINE
  5
142
330
1F
100
AcDbEntity
  8
1-2ﾚｲﾔ
  6
Continuous
 62
     3
370
     9
100
AcDbLine
 10
-346.0518914300042
 20
135.1126964672193
 30
0.0
 11
-346.0518914300042
 21
229.1126106880807
 31
0.0
  0
LINE
  5
143
330
1F
100
AcDbEntity
  8
1-2ﾚｲﾔ
  6
Continuous
 62
     3
370
     9
100
AcDbLine
 10
-339.0516951277449
 20
135.1126964672193
 30
0.0
 11
-339.0516951277449
 21
229.1126106880807
 31
0.0
  0
LINE
  5
144
330
1F
100
AcDbEntity
  8
1-2ﾚｲﾔ
  6
Continuous
 62
     3
370
     9
100
AcDbLine
 10
-346.0518914300042
 20
-128.3875790157833
 30
0.0
 11
-346.0518914300042
 21
-70.8875130318306
 31
0.0
  0
LINE
  5
145
330
1F
100
AcDbEntity
  8
1-2ﾚｲﾔ
  6
Continuous
 62
     3
370
     9
100
AcDbLine
 10
-339.0516951277449
 20
-128.3875790157833
 30
0.0
 11
-339.0516951277449
 21
-70.8875130318306
 31
0.0
  0
LINE
  5
146
330
1F
100
AcDbEntity
  8
1-2ﾚｲﾔ
  6
Continuous
 62
     3
370
     9
100
AcDbLine
 10
-331.15186949034
 20
435.1126346072635
 30
0.0
 11
-331.15186949034
 21
492.6119582717484
 31
0.0
  0
LINE
  5
147
330
1F
100
AcDbEntity
  8
1-2ﾚｲﾔ
  6
Continuous
 62
     3
370
     9
100
AcDbLine
 10
-324.1516731880806
 20
435.1126346072635
 30
0.0
 11
-324.1516731880806
 21
492.6119582717484
 31
0.0
  0
LINE
  5
148
330
1F
100
AcDbEntity
  8
1-2ﾚｲﾔ
  6
Continuous
 62
     3
370
     9
100
AcDbLine
 10
-331.15186949034
 20
335.1127995671453
 30
0.0
 11
-331.15186949034
 21
429.1127137880068
 31
0.0
  0
LINE
  5
149
330
1F
100
AcDbEntity
  8
1-2ﾚｲﾔ
  6
Continuous
 62
     3
370
     9
100
AcDbLine
 10
-324.1516731880806
 20
335.1127995671453
 30
0.0
 11
-324.1516731880806
 21
429.1127137880068
 31
0.0
  0
LINE
  5
14A
330
1F
100
AcDbEntity
  8
1-2ﾚｲﾔ
  6
Continuous
 62
     3
370
     9
100
AcDbLine
 10
-331.15186949034
 20
235.1129026670714
 30
0.0
 11
-331.15186949034
 21
329.1126313080659
 31
0.0
  0
LINE
  5
14B
330
1F
100
AcDbEntity
  8
1-2ﾚｲﾔ
  6
Continuous
 62
     3
370
     9
100
AcDbLine
 10
-324.1516731880806
 20
235.1129026670714
 30
0.0
 11
-324.1516731880806
 21
329.1126313080659
 31
0.0
  0
LINE
  5
14C
330
1F
100
AcDbEntity
  8
1-2ﾚｲﾔ
  6
Continuous
 62
     3
370
     9
100
AcDbLine
 10
-331.15186949034
 20
135.1126964672193
 30
0.0
 11
-331.15186949034
 21
229.1126106880807
 31
0.0
  0
LINE
  5
14D
330
1F
100
AcDbEntity
  8
1-2ﾚｲﾔ
  6
Continuous
 62
     3
370
     9
100
AcDbLine
 10
-324.1516731880806
 20
135.1126964672193
 30
0.0
 11
-324.1516731880806
 21
229.1126106880807
 31
0.0
  0
LINE
  5
14E
330
1F
100
AcDbEntity
  8
1-2ﾚｲﾔ
  6
Continuous
 62
     3
370
     9
100
AcDbLine
 10
-331.15186949034
 20
-128.3875790157833
 30
0.0
 11
-331.15186949034
 21
-70.8875130318306
 31
0.0
  0
LINE
  5
14F
330
1F
100
AcDbEntity
  8
1-2ﾚｲﾔ
  6
Continuous
 62
     3
370
     9
100
AcDbLine
 10
-324.1516731880806
 20
-128.3875790157833
 30
0.0
 11
-324.1516731880806
 21
-70.8875130318306
 31
0.0
  0
LINE
  5
150
330
1F
100
AcDbEntity
  8
1-2ﾚｲﾔ
  6
Continuous
 62
     3
370
     9
100
AcDbLine
 10
-316.2518475506756
 20
435.1126346072635
 30
0.0
 11
-316.2518475506756
 21
492.6119582717484
 31
0.0
  0
LINE
  5
151
330
1F
100
AcDbEntity
  8
1-2ﾚｲﾔ
  6
Continuous
 62
     3
370
     9
100
AcDbLine
 10
-309.2516512484164
 20
435.1126346072635
 30
0.0
 11
-309.2516512484164
 21
492.6119582717484
 31
0.0
  0
LINE
  5
152
330
1F
100
AcDbEntity
  8
1-2ﾚｲﾔ
  6
Continuous
 62
     3
370
     9
100
AcDbLine
 10
-316.2518475506756
 20
335.1127995671453
 30
0.0
 11
-316.2518475506756
 21
429.1127137880068
 31
0.0
  0
LINE
  5
153
330
1F
100
AcDbEntity
  8
1-2ﾚｲﾔ
  6
Continuous
 62
     3
370
     9
100
AcDbLine
 10
-309.2516512484164
 20
335.1127995671453
 30
0.0
 11
-309.2516512484164
 21
429.1127137880068
 31
0.0
  0
LINE
  5
154
330
1F
100
AcDbEntity
  8
1-2ﾚｲﾔ
  6
Continuous
 62
     3
370
     9
100
AcDbLine
 10
-316.2518475506756
 20
235.1129026670714
 30
0.0
 11
-316.2518475506756
 21
329.1126313080659
 31
0.0
  0
LINE
  5
155
330
1F
100
AcDbEntity
  8
1-2ﾚｲﾔ
  6
Continuous
 62
     3
370
     9
100
AcDbLine
 10
-309.2516512484164
 20
235.1129026670714
 30
0.0
 11
-309.2516512484164
 21
329.1126313080659
 31
0.0
  0
LINE
  5
156
330
1F
100
AcDbEntity
  8
1-2ﾚｲﾔ
  6
Continuous
 62
     3
370
     9
100
AcDbLine
 10
-316.2518475506756
 20
135.1126964672193
 30
0.0
 11
-316.2518475506756
 21
229.1126106880807
 31
0.0
  0
LINE
  5
157
330
1F
100
AcDbEntity
  8
1-2ﾚｲﾔ
  6
Continuous
 62
     3
370
     9
100
AcDbLine
 10
-309.2516512484164
 20
135.1126964672193
 30
0.0
 11
-309.2516512484164
 21
229.1126106880807
 31
0.0
  0
LINE
  5
158
330
1F
100
AcDbEntity
  8
1-2ﾚｲﾔ
  6
Continuous
 62
     3
370
     9
100
AcDbLine
 10
-316.2518475506756
 20
-128.3875790157833
 30
0.0
 11
-316.2518475506756
 21
-70.8875130318306
 31
0.0
  0
LINE
  5
159
330
1F
100
AcDbEntity
  8
1-2ﾚｲﾔ
  6
Continuous
 62
     3
370
     9
100
AcDbLine
 10
-309.2516512484164
 20
-128.3875790157833
 30
0.0
 11
-309.2516512484164
 21
-70.8875130318306
 31
0.0
  0
LINE
  5
15A
330
1F
100
AcDbEntity
  8
1-2ﾚｲﾔ
  6
Continuous
 62
     3
370
     9
100
AcDbLine
 10
-301.3518874709671
 20
435.1126346072635
 30
0.0
 11
-301.3518874709671
 21
492.6119582717484
 31
0.0
  0
LINE
  5
15B
330
1F
100
AcDbEntity
  8
1-2ﾚｲﾔ
  6
Continuous
 62
     3
370
     9
100
AcDbLine
 10
-294.3516911687077
 20
435.1126346072635
 30
0.0
 11
-294.3516911687077
 21
492.6119582717484
 31
0.0
  0
LINE
  5
15C
330
1F
100
AcDbEntity
  8
1-2ﾚｲﾔ
  6
Continuous
 62
     3
370
     9
100
AcDbLine
 10
-301.3518874709671
 20
335.1127995671453
 30
0.0
 11
-301.3518874709671
 21
429.1127137880068
 31
0.0
  0
LINE
  5
15D
330
1F
100
AcDbEntity
  8
1-2ﾚｲﾔ
  6
Continuous
 62
     3
370
     9
100
AcDbLine
 10
-294.3516911687077
 20
335.1127995671453
 30
0.0
 11
-294.3516911687077
 21
429.1127137880068
 31
0.0
  0
LINE
  5
15E
330
1F
100
AcDbEntity
  8
1-2ﾚｲﾔ
  6
Continuous
 62
     3
370
     9
100
AcDbLine
 10
-301.3518874709671
 20
235.1129026670714
 30
0.0
 11
-301.3518874709671
 21
329.1126313080659
 31
0.0
  0
LINE
  5
15F
330
1F
100
AcDbEntity
  8
1-2ﾚｲﾔ
  6
Continuous
 62
     3
370
     9
100
AcDbLine
 10
-294.3516911687077
 20
235.1129026670714
 30
0.0
 11
-294.3516911687077
 21
329.1126313080659
 31
0.0
  0
LINE
  5
160
330
1F
100
AcDbEntity
  8
1-2ﾚｲﾔ
  6
Continuous
 62
     3
370
     9
100
AcDbLine
 10
-301.3518874709671
 20
135.1126964672193
 30
0.0
 11
-301.3518874709671
 21
229.1126106880807
 31
0.0
  0
LINE
  5
161
330
1F
100
AcDbEntity
  8
1-2ﾚｲﾔ
  6
Continuous
 62
     3
370
     9
100
AcDbLine
 10
-294.3516911687077
 20
135.1126964672193
 30
0.0
 11
-294.3516911687077
 21
229.1126106880807
 31
0.0
  0
LINE
  5
162
330
1F
100
AcDbEntity
  8
1-2ﾚｲﾔ
  6
Continuous
 62
     3
370
     9
100
AcDbLine
 10
-301.3518874709671
 20
-128.3875790157833
 30
0.0
 11
-301.3518874709671
 21
-70.8875130318306
 31
0.0
  0
LINE
  5
163
330
1F
100
AcDbEntity
  8
1-2ﾚｲﾔ
  6
Continuous
 62
     3
370
     9
100
AcDbLine
 10
-294.3516911687077
 20
-128.3875790157833
 30
0.0
 11
-294.3516911687077
 21
-70.8875130318306
 31
0.0
  0
LINE
  5
164
330
1F
100
AcDbEntity
  8
1-2ﾚｲﾔ
  6
Continuous
 62
     3
370
     9
100
AcDbLine
 10
-286.4519273912584
 20
435.1126346072635
 30
0.0
 11
-286.4519273912584
 21
492.6119582717484
 31
0.0
  0
LINE
  5
165
330
1F
100
AcDbEntity
  8
1-2ﾚｲﾔ
  6
Continuous
 62
     3
370
     9
100
AcDbLine
 10
-279.4517310889991
 20
435.1126346072635
 30
0.0
 11
-279.4517310889991
 21
492.6119582717484
 31
0.0
  0
LINE
  5
166
330
1F
100
AcDbEntity
  8
1-2ﾚｲﾔ
  6
Continuous
 62
     3
370
     9
100
AcDbLine
 10
-286.4519273912584
 20
335.1127995671453
 30
0.0
 11
-286.4519273912584
 21
429.1127137880068
 31
0.0
  0
LINE
  5
167
330
1F
100
AcDbEntity
  8
1-2ﾚｲﾔ
  6
Continuous
 62
     3
370
     9
100
AcDbLine
 10
-279.4517310889991
 20
335.1127995671453
 30
0.0
 11
-279.4517310889991
 21
429.1127137880068
 31
0.0
  0
LINE
  5
168
330
1F
100
AcDbEntity
  8
1-2ﾚｲﾔ
  6
Continuous
 62
     3
370
     9
100
AcDbLine
 10
-286.4519273912584
 20
235.1129026670714
 30
0.0
 11
-286.4519273912584
 21
329.1126313080659
 31
0.0
  0
LINE
  5
169
330
1F
100
AcDbEntity
  8
1-2ﾚｲﾔ
  6
Continuous
 62
     3
370
     9
100
AcDbLine
 10
-279.4517310889991
 20
235.1129026670714
 30
0.0
 11
-279.4517310889991
 21
329.1126313080659
 31
0.0
  0
LINE
  5
16A
330
1F
100
AcDbEntity
  8
1-2ﾚｲﾔ
  6
Continuous
 62
     3
370
     9
100
AcDbLine
 10
-286.4519273912584
 20
135.1126964672193
 30
0.0
 11
-286.4519273912584
 21
229.1126106880807
 31
0.0
  0
LINE
  5
16B
330
1F
100
AcDbEntity
  8
1-2ﾚｲﾔ
  6
Continuous
 62
     3
370
     9
100
AcDbLine
 10
-279.4517310889991
 20
135.1126964672193
 30
0.0
 11
-279.4517310889991
 21
229.1126106880807
 31
0.0
  0
LINE
  5
16C
330
1F
100
AcDbEntity
  8
1-2ﾚｲﾔ
  6
Continuous
 62
     3
370
     9
100
AcDbLine
 10
-286.4519273912584
 20
-128.3875790157833
 30
0.0
 11
-286.4519273912584
 21
-70.8875130318306
 31
0.0
  0
LINE
  5
16D
330
1F
100
AcDbEntity
  8
1-2ﾚｲﾔ
  6
Continuous
 62
     3
370
     9
100
AcDbLine
 10
-279.4517310889991
 20
-128.3875790157833
 30
0.0
 11
-279.4517310889991
 21
-70.8875130318306
 31
0.0
  0
LINE
  5
16E
330
1F
100
AcDbEntity
  8
1-2ﾚｲﾔ
  6
Continuous
 62
     3
370
     9
100
AcDbLine
 10
-271.5519054515942
 20
435.1126346072635
 30
0.0
 11
-271.5519054515942
 21
492.6119582717484
 31
0.0
  0
LINE
  5
16F
330
1F
100
AcDbEntity
  8
1-2ﾚｲﾔ
  6
Continuous
 62
     3
370
     9
100
AcDbLine
 10
-264.5517091493349
 20
435.1126346072635
 30
0.0
 11
-264.5517091493349
 21
492.6119582717484
 31
0.0
  0
LINE
  5
170
330
1F
100
AcDbEntity
  8
1-2ﾚｲﾔ
  6
Continuous
 62
     3
370
     9
100
AcDbLine
 10
-271.5519054515942
 20
335.1127995671453
 30
0.0
 11
-271.5519054515942
 21
429.1127137880068
 31
0.0
  0
LINE
  5
171
330
1F
100
AcDbEntity
  8
1-2ﾚｲﾔ
  6
Continuous
 62
     3
370
     9
100
AcDbLine
 10
-264.5517091493349
 20
335.1127995671453
 30
0.0
 11
-264.5517091493349
 21
429.1127137880068
 31
0.0
  0
LINE
  5
172
330
1F
100
AcDbEntity
  8
1-2ﾚｲﾔ
  6
Continuous
 62
     3
370
     9
100
AcDbLine
 10
-271.5519054515942
 20
235.1129026670714
 30
0.0
 11
-271.5519054515942
 21
329.1126313080659
 31
0.0
  0
LINE
  5
173
330
1F
100
AcDbEntity
  8
1-2ﾚｲﾔ
  6
Continuous
 62
     3
370
     9
100
AcDbLine
 10
-264.5517091493349
 20
235.1129026670714
 30
0.0
 11
-264.5517091493349
 21
329.1126313080659
 31
0.0
  0
LINE
  5
174
330
1F
100
AcDbEntity
  8
1-2ﾚｲﾔ
  6
Continuous
 62
     3
370
     9
100
AcDbLine
 10
-271.5519054515942
 20
135.1126964672193
 30
0.0
 11
-271.5519054515942
 21
229.1126106880807
 31
0.0
  0
LINE
  5
175
330
1F
100
AcDbEntity
  8
1-2ﾚｲﾔ
  6
Continuous
 62
     3
370
     9
100
AcDbLine
 10
-264.5517091493349
 20
135.1126964672193
 30
0.0
 11
-264.5517091493349
 21
229.1126106880807
 31
0.0
  0
LINE
  5
176
330
1F
100
AcDbEntity
  8
1-2ﾚｲﾔ
  6
Continuous
 62
     3
370
     9
100
AcDbLine
 10
-271.5519054515942
 20
-128.3875790157833
 30
0.0
 11
-271.5519054515942
 21
-70.8875130318306
 31
0.0
  0
LINE
  5
177
330
1F
100
AcDbEntity
  8
1-2ﾚｲﾔ
  6
Continuous
 62
     3
370
     9
100
AcDbLine
 10
-264.5517091493349
 20
-128.3875790157833
 30
0.0
 11
-264.5517091493349
 21
-70.8875130318306
 31
0.0
  0
LINE
  5
178
330
1F
100
AcDbEntity
  8
1-2ﾚｲﾔ
  6
Continuous
 62
     3
370
     9
100
AcDbLine
 10
-256.6518835119298
 20
435.1126346072635
 30
0.0
 11
-256.6518835119298
 21
492.6119582717484
 31
0.0
  0
LINE
  5
179
330
1F
100
AcDbEntity
  8
1-2ﾚｲﾔ
  6
Continuous
 62
     3
370
     9
100
AcDbLine
 10
-249.6516872096706
 20
435.1126346072635
 30
0.0
 11
-249.6516872096706
 21
492.6119582717484
 31
0.0
  0
LINE
  5
17A
330
1F
100
AcDbEntity
  8
1-2ﾚｲﾔ
  6
Continuous
 62
     3
370
     9
100
AcDbLine
 10
-256.6518835119298
 20
335.1127995671453
 30
0.0
 11
-256.6518835119298
 21
429.1127137880068
 31
0.0
  0
LINE
  5
17B
330
1F
100
AcDbEntity
  8
1-2ﾚｲﾔ
  6
Continuous
 62
     3
370
     9
100
AcDbLine
 10
-249.6516872096706
 20
335.1127995671453
 30
0.0
 11
-249.6516872096706
 21
429.1127137880068
 31
0.0
  0
LINE
  5
17C
330
1F
100
AcDbEntity
  8
1-2ﾚｲﾔ
  6
Continuous
 62
     3
370
     9
100
AcDbLine
 10
-256.6518835119298
 20
235.1129026670714
 30
0.0
 11
-256.6518835119298
 21
329.1126313080659
 31
0.0
  0
LINE
  5
17D
330
1F
100
AcDbEntity
  8
1-2ﾚｲﾔ
  6
Continuous
 62
     3
370
     9
100
AcDbLine
 10
-249.6516872096706
 20
235.1129026670714
 30
0.0
 11
-249.6516872096706
 21
329.1126313080659
 31
0.0
  0
LINE
  5
17E
330
1F
100
AcDbEntity
  8
1-2ﾚｲﾔ
  6
Continuous
 62
     3
370
     9
100
AcDbLine
 10
-256.6518835119298
 20
135.1126964672193
 30
0.0
 11
-256.6518835119298
 21
229.1126106880807
 31
0.0
  0
LINE
  5
17F
330
1F
100
AcDbEntity
  8
1-2ﾚｲﾔ
  6
Continuous
 62
     3
370
     9
100
AcDbLine
 10
-249.6516872096706
 20
135.1126964672193
 30
0.0
 11
-249.6516872096706
 21
229.1126106880807
 31
0.0
  0
LINE
  5
180
330
1F
100
AcDbEntity
  8
1-2ﾚｲﾔ
  6
Continuous
 62
     3
370
     9
100
AcDbLine
 10
-256.6518835119298
 20
-128.3875790157833
 30
0.0
 11
-256.6518835119298
 21
-70.8875130318306
 31
0.0
  0
LINE
  5
181
330
1F
100
AcDbEntity
  8
1-2ﾚｲﾔ
  6
Continuous
 62
     3
370
     9
100
AcDbLine
 10
-249.6516872096706
 20
-128.3875790157833
 30
0.0
 11
-249.6516872096706
 21
-70.8875130318306
 31
0.0
  0
LINE
  5
182
330
1F
100
AcDbEntity
  8
1-2ﾚｲﾔ
  6
Continuous
 62
     3
370
     9
100
AcDbLine
 10
-241.7519234322212
 20
435.1126346072635
 30
0.0
 11
-241.7519234322212
 21
492.6119582717484
 31
0.0
  0
LINE
  5
183
330
1F
100
AcDbEntity
  8
1-2ﾚｲﾔ
  6
Continuous
 62
     3
370
     9
100
AcDbLine
 10
-234.751727129962
 20
435.1126346072635
 30
0.0
 11
-234.751727129962
 21
492.6119582717484
 31
0.0
  0
LINE
  5
184
330
1F
100
AcDbEntity
  8
1-2ﾚｲﾔ
  6
Continuous
 62
     3
370
     9
100
AcDbLine
 10
-241.7519234322212
 20
335.1127995671453
 30
0.0
 11
-241.7519234322212
 21
429.1127137880068
 31
0.0
  0
LINE
  5
185
330
1F
100
AcDbEntity
  8
1-2ﾚｲﾔ
  6
Continuous
 62
     3
370
     9
100
AcDbLine
 10
-234.751727129962
 20
335.1127995671453
 30
0.0
 11
-234.751727129962
 21
429.1127137880068
 31
0.0
  0
LINE
  5
186
330
1F
100
AcDbEntity
  8
1-2ﾚｲﾔ
  6
Continuous
 62
     3
370
     9
100
AcDbLine
 10
-241.7519234322212
 20
235.1129026670714
 30
0.0
 11
-241.7519234322212
 21
329.1126313080659
 31
0.0
  0
LINE
  5
187
330
1F
100
AcDbEntity
  8
1-2ﾚｲﾔ
  6
Continuous
 62
     3
370
     9
100
AcDbLine
 10
-234.751727129962
 20
235.1129026670714
 30
0.0
 11
-234.751727129962
 21
329.1126313080659
 31
0.0
  0
LINE
  5
188
330
1F
100
AcDbEntity
  8
1-2ﾚｲﾔ
  6
Continuous
 62
     3
370
     9
100
AcDbLine
 10
-241.7519234322212
 20
135.1126964672193
 30
0.0
 11
-241.7519234322212
 21
229.1126106880807
 31
0.0
  0
LINE
  5
189
330
1F
100
AcDbEntity
  8
1-2ﾚｲﾔ
  6
Continuous
 62
     3
370
     9
100
AcDbLine
 10
-234.751727129962
 20
135.1126964672193
 30
0.0
 11
-234.751727129962
 21
229.1126106880807
 31
0.0
  0
LINE
  5
18A
330
1F
100
AcDbEntity
  8
1-2ﾚｲﾔ
  6
Continuous
 62
     3
370
     9
100
AcDbLine
 10
-241.7519234322212
 20
-128.3875790157833
 30
0.0
 11
-241.7519234322212
 21
-70.8875130318306
 31
0.0
  0
LINE
  5
18B
330
1F
100
AcDbEntity
  8
1-2ﾚｲﾔ
  6
Continuous
 62
     3
370
     9
100
AcDbLine
 10
-234.751727129962
 20
-128.3875790157833
 30
0.0
 11
-234.751727129962
 21
-70.8875130318306
 31
0.0
  0
LINE
  5
18C
330
1F
100
AcDbEntity
  8
1-2ﾚｲﾔ
  6
Continuous
 62
     3
370
     9
100
AcDbLine
 10
-226.8519633525126
 20
435.1126346072635
 30
0.0
 11
-226.8519633525126
 21
492.6119582717484
 31
0.0
  0
LINE
  5
18D
330
1F
100
AcDbEntity
  8
1-2ﾚｲﾔ
  6
Continuous
 62
     3
370
     9
100
AcDbLine
 10
-219.8517670502534
 20
435.1126346072635
 30
0.0
 11
-219.8517670502534
 21
492.6119582717484
 31
0.0
  0
LINE
  5
18E
330
1F
100
AcDbEntity
  8
1-2ﾚｲﾔ
  6
Continuous
 62
     3
370
     9
100
AcDbLine
 10
-226.8519633525126
 20
335.1127995671453
 30
0.0
 11
-226.8519633525126
 21
429.1127137880068
 31
0.0
  0
LINE
  5
18F
330
1F
100
AcDbEntity
  8
1-2ﾚｲﾔ
  6
Continuous
 62
     3
370
     9
100
AcDbLine
 10
-219.8517670502534
 20
335.1127995671453
 30
0.0
 11
-219.8517670502534
 21
429.1127137880068
 31
0.0
  0
LINE
  5
190
330
1F
100
AcDbEntity
  8
1-2ﾚｲﾔ
  6
Continuous
 62
     3
370
     9
100
AcDbLine
 10
-226.8519633525126
 20
235.1129026670714
 30
0.0
 11
-226.8519633525126
 21
329.1126313080659
 31
0.0
  0
LINE
  5
191
330
1F
100
AcDbEntity
  8
1-2ﾚｲﾔ
  6
Continuous
 62
     3
370
     9
100
AcDbLine
 10
-219.8517670502534
 20
235.1129026670714
 30
0.0
 11
-219.8517670502534
 21
329.1126313080659
 31
0.0
  0
LINE
  5
192
330
1F
100
AcDbEntity
  8
1-2ﾚｲﾔ
  6
Continuous
 62
     3
370
     9
100
AcDbLine
 10
-226.8519633525126
 20
135.1126964672193
 30
0.0
 11
-226.8519633525126
 21
229.1126106880807
 31
0.0
  0
LINE
  5
193
330
1F
100
AcDbEntity
  8
1-2ﾚｲﾔ
  6
Continuous
 62
     3
370
     9
100
AcDbLine
 10
-219.8517670502534
 20
135.1126964672193
 30
0.0
 11
-219.8517670502534
 21
229.1126106880807
 31
0.0
  0
LINE
  5
194
330
1F
100
AcDbEntity
  8
1-2ﾚｲﾔ
  6
Continuous
 62
     3
370
     9
100
AcDbLine
 10
-226.8519633525126
 20
-128.3875790157833
 30
0.0
 11
-226.8519633525126
 21
-70.8875130318306
 31
0.0
  0
LINE
  5
195
330
1F
100
AcDbEntity
  8
1-2ﾚｲﾔ
  6
Continuous
 62
     3
370
     9
100
AcDbLine
 10
-219.8517670502534
 20
-128.3875790157833
 30
0.0
 11
-219.8517670502534
 21
-70.8875130318306
 31
0.0
  0
LINE
  5
196
330
1F
100
AcDbEntity
  8
1-2ﾚｲﾔ
  6
Continuous
 62
     3
370
     9
100
AcDbLine
 10
-211.9519414128483
 20
435.1126346072635
 30
0.0
 11
-211.9519414128483
 21
492.6119582717484
 31
0.0
  0
LINE
  5
197
330
1F
100
AcDbEntity
  8
1-2ﾚｲﾔ
  6
Continuous
 62
     3
370
     9
100
AcDbLine
 10
-204.9517451105891
 20
435.1126346072635
 30
0.0
 11
-204.9517451105891
 21
492.6119582717484
 31
0.0
  0
LINE
  5
198
330
1F
100
AcDbEntity
  8
1-2ﾚｲﾔ
  6
Continuous
 62
     3
370
     9
100
AcDbLine
 10
-211.9519414128483
 20
335.1127995671453
 30
0.0
 11
-211.9519414128483
 21
429.1127137880068
 31
0.0
  0
LINE
  5
199
330
1F
100
AcDbEntity
  8
1-2ﾚｲﾔ
  6
Continuous
 62
     3
370
     9
100
AcDbLine
 10
-204.9517451105891
 20
335.1127995671453
 30
0.0
 11
-204.9517451105891
 21
429.1127137880068
 31
0.0
  0
LINE
  5
19A
330
1F
100
AcDbEntity
  8
1-2ﾚｲﾔ
  6
Continuous
 62
     3
370
     9
100
AcDbLine
 10
-211.9519414128483
 20
235.1129026670714
 30
0.0
 11
-211.9519414128483
 21
329.1126313080659
 31
0.0
  0
LINE
  5
19B
330
1F
100
AcDbEntity
  8
1-2ﾚｲﾔ
  6
Continuous
 62
     3
370
     9
100
AcDbLine
 10
-204.9517451105891
 20
235.1129026670714
 30
0.0
 11
-204.9517451105891
 21
329.1126313080659
 31
0.0
  0
LINE
  5
19C
330
1F
100
AcDbEntity
  8
1-2ﾚｲﾔ
  6
Continuous
 62
     3
370
     9
100
AcDbLine
 10
-211.9519414128483
 20
135.1126964672193
 30
0.0
 11
-211.9519414128483
 21
229.1126106880807
 31
0.0
  0
LINE
  5
19D
330
1F
100
AcDbEntity
  8
1-2ﾚｲﾔ
  6
Continuous
 62
     3
370
     9
100
AcDbLine
 10
-204.9517451105891
 20
135.1126964672193
 30
0.0
 11
-204.9517451105891
 21
229.1126106880807
 31
0.0
  0
LINE
  5
19E
330
1F
100
AcDbEntity
  8
1-2ﾚｲﾔ
  6
Continuous
 62
     3
370
     9
100
AcDbLine
 10
-211.9519414128483
 20
-128.3875790157833
 30
0.0
 11
-211.9519414128483
 21
-70.8875130318306
 31
0.0
  0
LINE
  5
19F
330
1F
100
AcDbEntity
  8
1-2ﾚｲﾔ
  6
Continuous
 62
     3
370
     9
100
AcDbLine
 10
-204.9517451105891
 20
-128.3875790157833
 30
0.0
 11
-204.9517451105891
 21
-70.8875130318306
 31
0.0
  0
LINE
  5
1A0
330
1F
100
AcDbEntity
  8
1-2ﾚｲﾔ
  6
Continuous
 62
     3
370
     9
100
AcDbLine
 10
-197.0519194731841
 20
435.1126346072635
 30
0.0
 11
-197.0519194731841
 21
492.6119582717484
 31
0.0
  0
LINE
  5
1A1
330
1F
100
AcDbEntity
  8
1-2ﾚｲﾔ
  6
Continuous
 62
     3
370
     9
100
AcDbLine
 10
-190.0517231709247
 20
435.1126346072635
 30
0.0
 11
-190.0517231709247
 21
492.6119582717484
 31
0.0
  0
LINE
  5
1A2
330
1F
100
AcDbEntity
  8
1-2ﾚｲﾔ
  6
Continuous
 62
     3
370
     9
100
AcDbLine
 10
-197.0519194731841
 20
335.1127995671453
 30
0.0
 11
-197.0519194731841
 21
429.1127137880068
 31
0.0
  0
LINE
  5
1A3
330
1F
100
AcDbEntity
  8
1-2ﾚｲﾔ
  6
Continuous
 62
     3
370
     9
100
AcDbLine
 10
-190.0517231709247
 20
335.1127995671453
 30
0.0
 11
-190.0517231709247
 21
429.1127137880068
 31
0.0
  0
LINE
  5
1A4
330
1F
100
AcDbEntity
  8
1-2ﾚｲﾔ
  6
Continuous
 62
     3
370
     9
100
AcDbLine
 10
-197.0519194731841
 20
235.1129026670714
 30
0.0
 11
-197.0519194731841
 21
329.1126313080659
 31
0.0
  0
LINE
  5
1A5
330
1F
100
AcDbEntity
  8
1-2ﾚｲﾔ
  6
Continuous
 62
     3
370
     9
100
AcDbLine
 10
-190.0517231709247
 20
235.1129026670714
 30
0.0
 11
-190.0517231709247
 21
329.1126313080659
 31
0.0
  0
LINE
  5
1A6
330
1F
100
AcDbEntity
  8
1-2ﾚｲﾔ
  6
Continuous
 62
     3
370
     9
100
AcDbLine
 10
-197.0519194731841
 20
135.1126964672193
 30
0.0
 11
-197.0519194731841
 21
229.1126106880807
 31
0.0
  0
LINE
  5
1A7
330
1F
100
AcDbEntity
  8
1-2ﾚｲﾔ
  6
Continuous
 62
     3
370
     9
100
AcDbLine
 10
-190.0517231709247
 20
135.1126964672193
 30
0.0
 11
-190.0517231709247
 21
229.1126106880807
 31
0.0
  0
LINE
  5
1A8
330
1F
100
AcDbEntity
  8
1-2ﾚｲﾔ
  6
Continuous
 62
     3
370
     9
100
AcDbLine
 10
-197.0519194731841
 20
-128.3875790157833
 30
0.0
 11
-197.0519194731841
 21
-70.8875130318306
 31
0.0
  0
LINE
  5
1A9
330
1F
100
AcDbEntity
  8
1-2ﾚｲﾔ
  6
Continuous
 62
     3
370
     9
100
AcDbLine
 10
-190.0517231709247
 20
-128.3875790157833
 30
0.0
 11
-190.0517231709247
 21
-70.8875130318306
 31
0.0
  0
LINE
  5
1AA
330
1F
100
AcDbEntity
  8
1-2ﾚｲﾔ
  6
Continuous
 62
     3
370
     9
100
AcDbLine
 10
-182.1519593934755
 20
435.1126346072635
 30
0.0
 11
-182.1519593934755
 21
492.6119582717484
 31
0.0
  0
LINE
  5
1AB
330
1F
100
AcDbEntity
  8
1-2ﾚｲﾔ
  6
Continuous
 62
     3
370
     9
100
AcDbLine
 10
-175.1517630912161
 20
435.1126346072635
 30
0.0
 11
-175.1517630912161
 21
492.6119582717484
 31
0.0
  0
LINE
  5
1AC
330
1F
100
AcDbEntity
  8
1-2ﾚｲﾔ
  6
Continuous
 62
     3
370
     9
100
AcDbLine
 10
-182.1519593934755
 20
335.1127995671453
 30
0.0
 11
-182.1519593934755
 21
429.1127137880068
 31
0.0
  0
LINE
  5
1AD
330
1F
100
AcDbEntity
  8
1-2ﾚｲﾔ
  6
Continuous
 62
     3
370
     9
100
AcDbLine
 10
-175.1517630912161
 20
335.1127995671453
 30
0.0
 11
-175.1517630912161
 21
429.1127137880068
 31
0.0
  0
LINE
  5
1AE
330
1F
100
AcDbEntity
  8
1-2ﾚｲﾔ
  6
Continuous
 62
     3
370
     9
100
AcDbLine
 10
-182.1519593934755
 20
235.1129026670714
 30
0.0
 11
-182.1519593934755
 21
329.1126313080659
 31
0.0
  0
LINE
  5
1AF
330
1F
100
AcDbEntity
  8
1-2ﾚｲﾔ
  6
Continuous
 62
     3
370
     9
100
AcDbLine
 10
-175.1517630912161
 20
235.1129026670714
 30
0.0
 11
-175.1517630912161
 21
329.1126313080659
 31
0.0
  0
LINE
  5
1B0
330
1F
100
AcDbEntity
  8
1-2ﾚｲﾔ
  6
Continuous
 62
     3
370
     9
100
AcDbLine
 10
-182.1519593934755
 20
135.1126964672193
 30
0.0
 11
-182.1519593934755
 21
229.1126106880807
 31
0.0
  0
LINE
  5
1B1
330
1F
100
AcDbEntity
  8
1-2ﾚｲﾔ
  6
Continuous
 62
     3
370
     9
100
AcDbLine
 10
-175.1517630912161
 20
135.1126964672193
 30
0.0
 11
-175.1517630912161
 21
229.1126106880807
 31
0.0
  0
LINE
  5
1B2
330
1F
100
AcDbEntity
  8
1-2ﾚｲﾔ
  6
Continuous
 62
     3
370
     9
100
AcDbLine
 10
-182.1519593934755
 20
-128.3875790157833
 30
0.0
 11
-182.1519593934755
 21
-70.8875130318306
 31
0.0
  0
LINE
  5
1B3
330
1F
100
AcDbEntity
  8
1-2ﾚｲﾔ
  6
Continuous
 62
     3
370
     9
100
AcDbLine
 10
-175.1517630912161
 20
-128.3875790157833
 30
0.0
 11
-175.1517630912161
 21
-70.8875130318306
 31
0.0
  0
LINE
  5
1B4
330
1F
100
AcDbEntity
  8
1-2ﾚｲﾔ
  6
Continuous
 62
     3
370
     9
100
AcDbLine
 10
-167.2519993137668
 20
435.1126346072635
 30
0.0
 11
-167.2519993137668
 21
492.6119582717484
 31
0.0
  0
LINE
  5
1B5
330
1F
100
AcDbEntity
  8
1-2ﾚｲﾔ
  6
Continuous
 62
     3
370
     9
100
AcDbLine
 10
-160.2518030115075
 20
435.1126346072635
 30
0.0
 11
-160.2518030115075
 21
492.6119582717484
 31
0.0
  0
LINE
  5
1B6
330
1F
100
AcDbEntity
  8
1-2ﾚｲﾔ
  6
Continuous
 62
     3
370
     9
100
AcDbLine
 10
-167.2519993137668
 20
335.1127995671453
 30
0.0
 11
-167.2519993137668
 21
429.1127137880068
 31
0.0
  0
LINE
  5
1B7
330
1F
100
AcDbEntity
  8
1-2ﾚｲﾔ
  6
Continuous
 62
     3
370
     9
100
AcDbLine
 10
-160.2518030115075
 20
335.1127995671453
 30
0.0
 11
-160.2518030115075
 21
429.1127137880068
 31
0.0
  0
LINE
  5
1B8
330
1F
100
AcDbEntity
  8
1-2ﾚｲﾔ
  6
Continuous
 62
     3
370
     9
100
AcDbLine
 10
-167.2519993137668
 20
235.1129026670714
 30
0.0
 11
-167.2519993137668
 21
329.1126313080659
 31
0.0
  0
LINE
  5
1B9
330
1F
100
AcDbEntity
  8
1-2ﾚｲﾔ
  6
Continuous
 62
     3
370
     9
100
AcDbLine
 10
-160.2518030115075
 20
235.1129026670714
 30
0.0
 11
-160.2518030115075
 21
329.1126313080659
 31
0.0
  0
LINE
  5
1BA
330
1F
100
AcDbEntity
  8
1-2ﾚｲﾔ
  6
Continuous
 62
     3
370
     9
100
AcDbLine
 10
-167.2519993137668
 20
135.1126964672193
 30
0.0
 11
-167.2519993137668
 21
229.1126106880807
 31
0.0
  0
LINE
  5
1BB
330
1F
100
AcDbEntity
  8
1-2ﾚｲﾔ
  6
Continuous
 62
     3
370
     9
100
AcDbLine
 10
-160.2518030115075
 20
135.1126964672193
 30
0.0
 11
-160.2518030115075
 21
229.1126106880807
 31
0.0
  0
LINE
  5
1BC
330
1F
100
AcDbEntity
  8
1-2ﾚｲﾔ
  6
Continuous
 62
     3
370
     9
100
AcDbLine
 10
-167.2519993137668
 20
-128.3875790157833
 30
0.0
 11
-167.2519993137668
 21
-70.8875130318306
 31
0.0
  0
LINE
  5
1BD
330
1F
100
AcDbEntity
  8
1-2ﾚｲﾔ
  6
Continuous
 62
     3
370
     9
100
AcDbLine
 10
-160.2518030115075
 20
-128.3875790157833
 30
0.0
 11
-160.2518030115075
 21
-70.8875130318306
 31
0.0
  0
LINE
  5
1BE
330
1F
100
AcDbEntity
  8
1-2ﾚｲﾔ
  6
Continuous
 62
     3
370
     9
100
AcDbLine
 10
-152.3519773741026
 20
435.1126346072635
 30
0.0
 11
-152.3519773741026
 21
492.6119582717484
 31
0.0
  0
LINE
  5
1BF
330
1F
100
AcDbEntity
  8
1-2ﾚｲﾔ
  6
Continuous
 62
     3
370
     9
100
AcDbLine
 10
-145.3517810718432
 20
435.1126346072635
 30
0.0
 11
-145.3517810718432
 21
492.6119582717484
 31
0.0
  0
LINE
  5
1C0
330
1F
100
AcDbEntity
  8
1-2ﾚｲﾔ
  6
Continuous
 62
     3
370
     9
100
AcDbLine
 10
-152.3519773741026
 20
335.1127995671453
 30
0.0
 11
-152.3519773741026
 21
429.1127137880068
 31
0.0
  0
LINE
  5
1C1
330
1F
100
AcDbEntity
  8
1-2ﾚｲﾔ
  6
Continuous
 62
     3
370
     9
100
AcDbLine
 10
-145.3517810718432
 20
335.1127995671453
 30
0.0
 11
-145.3517810718432
 21
429.1127137880068
 31
0.0
  0
LINE
  5
1C2
330
1F
100
AcDbEntity
  8
1-2ﾚｲﾔ
  6
Continuous
 62
     3
370
     9
100
AcDbLine
 10
-152.3519773741026
 20
235.1129026670714
 30
0.0
 11
-152.3519773741026
 21
329.1126313080659
 31
0.0
  0
LINE
  5
1C3
330
1F
100
AcDbEntity
  8
1-2ﾚｲﾔ
  6
Continuous
 62
     3
370
     9
100
AcDbLine
 10
-145.3517810718432
 20
235.1129026670714
 30
0.0
 11
-145.3517810718432
 21
329.1126313080659
 31
0.0
  0
LINE
  5
1C4
330
1F
100
AcDbEntity
  8
1-2ﾚｲﾔ
  6
Continuous
 62
     3
370
     9
100
AcDbLine
 10
-152.3519773741026
 20
135.1126964672193
 30
0.0
 11
-152.3519773741026
 21
229.1126106880807
 31
0.0
  0
LINE
  5
1C5
330
1F
100
AcDbEntity
  8
1-2ﾚｲﾔ
  6
Continuous
 62
     3
370
     9
100
AcDbLine
 10
-145.3517810718432
 20
135.1126964672193
 30
0.0
 11
-145.3517810718432
 21
229.1126106880807
 31
0.0
  0
LINE
  5
1C6
330
1F
100
AcDbEntity
  8
1-2ﾚｲﾔ
  6
Continuous
 62
     3
370
     9
100
AcDbLine
 10
-152.3519773741026
 20
-128.3875790157833
 30
0.0
 11
-152.3519773741026
 21
-70.8875130318306
 31
0.0
  0
LINE
  5
1C7
330
1F
100
AcDbEntity
  8
1-2ﾚｲﾔ
  6
Continuous
 62
     3
370
     9
100
AcDbLine
 10
-145.3517810718432
 20
-128.3875790157833
 30
0.0
 11
-145.3517810718432
 21
-70.8875130318306
 31
0.0
  0
LINE
  5
1C8
330
1F
100
AcDbEntity
  8
1-2ﾚｲﾔ
  6
Continuous
 62
     3
370
     9
100
AcDbLine
 10
-137.4519554344383
 20
435.1126346072635
 30
0.0
 11
-137.4519554344383
 21
492.6119582717484
 31
0.0
  0
LINE
  5
1C9
330
1F
100
AcDbEntity
  8
1-2ﾚｲﾔ
  6
Continuous
 62
     3
370
     9
100
AcDbLine
 10
-130.451759132179
 20
435.1126346072635
 30
0.0
 11
-130.451759132179
 21
492.6119582717484
 31
0.0
  0
LINE
  5
1CA
330
1F
100
AcDbEntity
  8
1-2ﾚｲﾔ
  6
Continuous
 62
     3
370
     9
100
AcDbLine
 10
-137.4519554344383
 20
335.1127995671453
 30
0.0
 11
-137.4519554344383
 21
429.1127137880068
 31
0.0
  0
LINE
  5
1CB
330
1F
100
AcDbEntity
  8
1-2ﾚｲﾔ
  6
Continuous
 62
     3
370
     9
100
AcDbLine
 10
-130.451759132179
 20
335.1127995671453
 30
0.0
 11
-130.451759132179
 21
429.1127137880068
 31
0.0
  0
LINE
  5
1CC
330
1F
100
AcDbEntity
  8
1-2ﾚｲﾔ
  6
Continuous
 62
     3
370
     9
100
AcDbLine
 10
-137.4519554344383
 20
235.1129026670714
 30
0.0
 11
-137.4519554344383
 21
329.1126313080659
 31
0.0
  0
LINE
  5
1CD
330
1F
100
AcDbEntity
  8
1-2ﾚｲﾔ
  6
Continuous
 62
     3
370
     9
100
AcDbLine
 10
-130.451759132179
 20
235.1129026670714
 30
0.0
 11
-130.451759132179
 21
329.1126313080659
 31
0.0
  0
LINE
  5
1CE
330
1F
100
AcDbEntity
  8
1-2ﾚｲﾔ
  6
Continuous
 62
     3
370
     9
100
AcDbLine
 10
-137.4519554344383
 20
135.1126964672193
 30
0.0
 11
-137.4519554344383
 21
229.1126106880807
 31
0.0
  0
LINE
  5
1CF
330
1F
100
AcDbEntity
  8
1-2ﾚｲﾔ
  6
Continuous
 62
     3
370
     9
100
AcDbLine
 10
-130.451759132179
 20
135.1126964672193
 30
0.0
 11
-130.451759132179
 21
229.1126106880807
 31
0.0
  0
LINE
  5
1D0
330
1F
100
AcDbEntity
  8
1-2ﾚｲﾔ
  6
Continuous
 62
     3
370
     9
100
AcDbLine
 10
-137.4519554344383
 20
-128.3875790157833
 30
0.0
 11
-137.4519554344383
 21
-70.8875130318306
 31
0.0
  0
LINE
  5
1D1
330
1F
100
AcDbEntity
  8
1-2ﾚｲﾔ
  6
Continuous
 62
     3
370
     9
100
AcDbLine
 10
-130.451759132179
 20
-128.3875790157833
 30
0.0
 11
-130.451759132179
 21
-70.8875130318306
 31
0.0
  0
LINE
  5
1D2
330
1F
100
AcDbEntity
  8
1-2ﾚｲﾔ
  6
Continuous
 62
     3
370
     9
100
AcDbLine
 10
-122.5519953547297
 20
435.1126346072635
 30
0.0
 11
-122.5519953547297
 21
492.6119582717484
 31
0.0
  0
LINE
  5
1D3
330
1F
100
AcDbEntity
  8
1-2ﾚｲﾔ
  6
Continuous
 62
     3
370
     9
100
AcDbLine
 10
-115.5517990524704
 20
435.1126346072635
 30
0.0
 11
-115.5517990524704
 21
492.6119582717484
 31
0.0
  0
LINE
  5
1D4
330
1F
100
AcDbEntity
  8
1-2ﾚｲﾔ
  6
Continuous
 62
     3
370
     9
100
AcDbLine
 10
-122.5519953547297
 20
335.1127995671453
 30
0.0
 11
-122.5519953547297
 21
429.1127137880068
 31
0.0
  0
LINE
  5
1D5
330
1F
100
AcDbEntity
  8
1-2ﾚｲﾔ
  6
Continuous
 62
     3
370
     9
100
AcDbLine
 10
-115.5517990524704
 20
335.1127995671453
 30
0.0
 11
-115.5517990524704
 21
429.1127137880068
 31
0.0
  0
LINE
  5
1D6
330
1F
100
AcDbEntity
  8
1-2ﾚｲﾔ
  6
Continuous
 62
     3
370
     9
100
AcDbLine
 10
-122.5519953547297
 20
235.1129026670714
 30
0.0
 11
-122.5519953547297
 21
329.1126313080659
 31
0.0
  0
LINE
  5
1D7
330
1F
100
AcDbEntity
  8
1-2ﾚｲﾔ
  6
Continuous
 62
     3
370
     9
100
AcDbLine
 10
-115.5517990524704
 20
235.1129026670714
 30
0.0
 11
-115.5517990524704
 21
329.1126313080659
 31
0.0
  0
LINE
  5
1D8
330
1F
100
AcDbEntity
  8
1-2ﾚｲﾔ
  6
Continuous
 62
     3
370
     9
100
AcDbLine
 10
-122.5519953547297
 20
135.1126964672193
 30
0.0
 11
-122.5519953547297
 21
229.1126106880807
 31
0.0
  0
LINE
  5
1D9
330
1F
100
AcDbEntity
  8
1-2ﾚｲﾔ
  6
Continuous
 62
     3
370
     9
100
AcDbLine
 10
-115.5517990524704
 20
135.1126964672193
 30
0.0
 11
-115.5517990524704
 21
229.1126106880807
 31
0.0
  0
LINE
  5
1DA
330
1F
100
AcDbEntity
  8
1-2ﾚｲﾔ
  6
Continuous
 62
     3
370
     9
100
AcDbLine
 10
-122.5519953547297
 20
-128.3875790157833
 30
0.0
 11
-122.5519953547297
 21
-70.8875130318306
 31
0.0
  0
LINE
  5
1DB
330
1F
100
AcDbEntity
  8
1-2ﾚｲﾔ
  6
Continuous
 62
     3
370
     9
100
AcDbLine
 10
-115.5517990524704
 20
-128.3875790157833
 30
0.0
 11
-115.5517990524704
 21
-70.8875130318306
 31
0.0
  0
LINE
  5
1DC
330
1F
100
AcDbEntity
  8
1-2ﾚｲﾔ
  6
Continuous
 62
     3
370
     9
100
AcDbLine
 10
-360.9518515097128
 20
435.1126346072635
 30
0.0
 11
-360.9518515097128
 21
492.6119582717484
 31
0.0
  0
LINE
  5
1DD
330
1F
100
AcDbEntity
  8
1-1ﾚｲﾔ
  6
Continuous
 62
     2
370
     9
100
AcDbLine
 10
439.4437222867398
 20
450.1125603753168
 30
0.0
 11
372.2438915355787
 21
450.1125603753168
 31
0.0
  0
LINE
  5
1DE
330
1F
100
AcDbEntity
  8
1-1ﾚｲﾔ
  6
Continuous
 62
     2
370
     9
100
AcDbLine
 10
365.8438605231208
 20
456.5125913877746
 30
0.0
 11
365.8438605231208
 21
483.7126613307645
 31
0.0
  0
LINE
  5
1DF
330
1F
100
AcDbEntity
  8
1-1ﾚｲﾔ
  6
Continuous
 62
     2
370
     9
100
AcDbLine
 10
439.4437222867398
 20
486.912553117082
 30
0.0
 11
372.2437678156672
 21
486.912553117082
 31
0.0
  0
LINE
  5
1E0
330
1F
100
AcDbEntity
  8
1-1ﾚｲﾔ
  6
Continuous
 62
     2
370
     9
100
AcDbLine
 10
442.6438615128802
 20
456.5125913877746
 30
0.0
 11
442.6438615128802
 21
483.7124138909418
 31
0.0
  0
LINE
  5
1E1
330
1F
100
AcDbEntity
  8
1-1ﾚｲﾔ
  6
Continuous
 62
     2
370
     9
100
AcDbLine
 10
439.4437222867398
 20
490.1125686233109
 30
0.0
 11
372.2438915355787
 21
490.1125686233109
 31
0.0
  0
LINE
  5
1E2
330
1F
100
AcDbEntity
  8
1-1ﾚｲﾔ
  6
Continuous
 62
     2
370
     9
100
AcDbLine
 10
445.8437532991977
 20
456.5125913877746
 30
0.0
 11
445.8437532991977
 21
483.7126613307645
 31
0.0
  0
LINE
  5
1E3
330
1F
100
AcDbEntity
  8
1-1ﾚｲﾔ
  6
Continuous
 62
     2
370
     9
100
AcDbLine
 10
372.2438915355787
 20
453.312699601457
 30
0.0
 11
439.4437222867398
 21
453.312699601457
 31
0.0
  0
LINE
  5
1E4
330
1F
100
AcDbEntity
  8
1-1ﾚｲﾔ
  6
Continuous
 62
     2
370
     9
100
AcDbLine
 10
369.0437523094386
 20
456.5125913877746
 30
0.0
 11
369.0437523094386
 21
483.7124138909418
 31
0.0
  0
LINE
  5
1E5
330
1F
100
AcDbEntity
  8
1-1ﾚｲﾔ
  6
Continuous
 62
     2
370
     9
100
AcDbLine
 10
439.4437222867398
 20
-85.88750065983945
 30
0.0
 11
372.2438915355787
 21
-85.88750065983945
 31
0.0
  0
LINE
  5
1E6
330
1F
100
AcDbEntity
  8
1-1ﾚｲﾔ
  6
Continuous
 62
     2
370
     9
100
AcDbLine
 10
365.8438605231208
 20
-92.28753167229726
 30
0.0
 11
365.8438605231208
 21
-119.4876016152871
 31
0.0
  0
LINE
  5
1E7
330
1F
100
AcDbEntity
  8
1-1ﾚｲﾔ
  6
Continuous
 62
     2
370
     9
100
AcDbLine
 10
439.4437222867398
 20
-122.6874934016047
 30
0.0
 11
372.2437678156672
 21
-122.6874934016047
 31
0.0
  0
LINE
  5
1E8
330
1F
100
AcDbEntity
  8
1-1ﾚｲﾔ
  6
Continuous
 62
     2
370
     9
100
AcDbLine
 10
442.6438615128802
 20
-92.28753167229726
 30
0.0
 11
442.6438615128802
 21
-119.4873541754645
 31
0.0
  0
LINE
  5
1E9
330
1F
100
AcDbEntity
  8
1-1ﾚｲﾔ
  6
Continuous
 62
     2
370
     9
100
AcDbLine
 10
439.4437222867398
 20
-125.8875089078336
 30
0.0
 11
372.2438915355787
 21
-125.8875089078336
 31
0.0
  0
LINE
  5
1EA
330
1F
100
AcDbEntity
  8
1-1ﾚｲﾔ
  6
Continuous
 62
     2
370
     9
100
AcDbLine
 10
445.8437532991977
 20
-92.28753167229726
 30
0.0
 11
445.8437532991977
 21
-119.4876016152871
 31
0.0
  0
LINE
  5
1EB
330
1F
100
AcDbEntity
  8
1-1ﾚｲﾔ
  6
Continuous
 62
     2
370
     9
100
AcDbLine
 10
372.2438915355787
 20
-89.08763988597968
 30
0.0
 11
439.4437222867398
 21
-89.08763988597968
 31
0.0
  0
LINE
  5
1EC
330
1F
100
AcDbEntity
  8
1-1ﾚｲﾔ
  6
Continuous
 62
     2
370
     9
100
AcDbLine
 10
369.0437523094386
 20
-92.28753167229726
 30
0.0
 11
369.0437523094386
 21
-119.4873541754645
 31
0.0
  0
LINE
  5
1ED
330
1F
100
AcDbEntity
  8
1-4ﾚｲﾔ
  6
Continuous
 62
     7
370
     9
100
AcDbLine
 10
-599.351336504962
 20
-191.689180941195
 30
0.0
 11
-101.3513513513513
 21
-191.689180941195
 31
0.0
  0
LINE
  5
1EE
330
1F
100
AcDbEntity
  8
1-4ﾚｲﾔ
  6
Continuous
 62
     7
370
     9
100
AcDbLine
 10
-599.351336504962
 20
-140.3874206542969
 30
0.0
 11
-599.351336504962
 21
-193.1891611460092
 31
0.0
  0
LINE
  5
1EF
330
1F
100
AcDbEntity
  8
1-4ﾚｲﾔ
  6
Continuous
 62
     7
370
     9
100
AcDbLine
 10
-101.3513513513513
 20
-140.3874206542969
 30
0.0
 11
-101.3513513513513
 21
-193.1891611460092
 31
0.0
  0
LINE
  5
1F0
330
1F
100
AcDbEntity
  8
1-4ﾚｲﾔ
  6
Continuous
 62
     7
370
     9
100
AcDbLine
 10
315.8439430030617
 20
-191.689180941195
 30
0.0
 11
365.8438605231208
 21
-191.689180941195
 31
0.0
  0
LINE
  5
1F1
330
1F
100
AcDbEntity
  8
1-4ﾚｲﾔ
  6
Continuous
 62
     7
370
     9
100
AcDbLine
 10
315.8439430030617
 20
-140.3874206542969
 30
0.0
 11
315.8439430030617
 21
-237.783724810626
 31
0.0
  0
LINE
  5
1F2
330
1F
100
AcDbEntity
  8
1-4ﾚｲﾔ
  6
Continuous
 62
     7
370
     9
100
AcDbLine
 10
365.8438605231208
 20
-140.3874206542969
 30
0.0
 11
365.8438605231208
 21
-193.1891611460092
 31
0.0
  0
LINE
  5
1F3
330
1F
100
AcDbEntity
  8
1-4ﾚｲﾔ
  6
Continuous
 62
     7
370
     9
100
AcDbLine
 10
365.8438605231208
 20
-191.689180941195
 30
0.0
 11
445.8437532991977
 21
-191.689180941195
 31
0.0
  0
LINE
  5
1F4
330
1F
100
AcDbEntity
  8
1-4ﾚｲﾔ
  6
Continuous
 62
     7
370
     9
100
AcDbLine
 10
315.8439430030617
 20
-236.2837446058118
 30
0.0
 11
445.8437532991977
 21
-236.2837446058118
 31
0.0
  0
LINE
  5
1F5
330
1F
100
AcDbEntity
  8
1-4ﾚｲﾔ
  6
Continuous
 62
     7
370
     9
100
AcDbLine
 10
445.8437532991977
 20
-126.9876263592694
 30
0.0
 11
445.8437532991977
 21
-237.783724810626
 31
0.0
  0
LINE
  5
1F6
330
1F
100
AcDbEntity
  8
1-4ﾚｲﾔ
  6
Continuous
 62
     7
370
     9
100
AcDbLine
 10
259.4594594594597
 20
-132.8873959103146
 30
0.0
 11
259.4594594594597
 21
497.1125174857475
 31
0.0
  0
LINE
  5
1F7
330
1F
100
AcDbEntity
  8
1-4ﾚｲﾔ
  6
Continuous
 62
     7
370
     9
100
AcDbLine
 10
308.3439182590794
 20
-132.8873959103146
 30
0.0
 11
257.9594792546453
 21
-132.8873959103146
 31
0.0
  0
LINE
  5
1F8
330
1F
100
AcDbEntity
  8
1-4ﾚｲﾔ
  6
Continuous
 62
     7
370
     9
100
AcDbLine
 10
308.3439182590794
 20
497.1125174857475
 30
0.0
 11
257.9594792546453
 21
497.1125174857475
 31
0.0
  0
LINE
  5
1F9
330
1F
100
AcDbEntity
  8
1-4ﾚｲﾔ
  6
Continuous
 62
     7
370
     9
100
AcDbLine
 10
498.3784443623313
 20
-132.8873959103146
 30
0.0
 11
498.3784443623313
 21
-147.1845307221283
 31
0.0
  0
LINE
  5
1FA
330
1F
100
AcDbEntity
  8
1-4ﾚｲﾔ
  6
Continuous
 62
     7
370
     9
100
AcDbLine
 10
373.3438852671031
 20
-132.8873959103146
 30
0.0
 11
499.8784245671453
 21
-132.8873959103146
 31
0.0
  0
LINE
  5
1FB
330
1F
100
AcDbEntity
  8
1-4ﾚｲﾔ
  6
Continuous
 62
     7
370
     9
100
AcDbLine
 10
446.9437470307221
 20
-125.8875707677893
 30
0.0
 11
499.8784245671453
 21
-125.8875707677893
 31
0.0
  0
LINE
  5
1FC
330
1F
100
AcDbEntity
  8
1-4ﾚｲﾔ
  6
Continuous
 62
     7
370
     9
100
AcDbLine
 10
498.3784443623313
 20
-125.8875707677893
 30
0.0
 11
498.3784443623313
 21
-75.88759138777448
 31
0.0
  0
LINE
  5
1FD
330
1F
100
AcDbEntity
  8
1-4ﾚｲﾔ
  6
Continuous
 62
     7
370
     9
100
AcDbLine
 10
446.9437470307221
 20
-85.88756251979518
 30
0.0
 11
499.8784245671453
 21
-85.88756251979518
 31
0.0
  0
LINE
  5
1FE
330
1F
100
AcDbEntity
  8
1-4ﾚｲﾔ
  6
Continuous
 62
     7
370
     9
100
AcDbLine
 10
498.3784443623313
 20
-75.88759138777448
 30
0.0
 11
498.3784443623313
 21
440.1125273833405
 31
0.0
  0
LINE
  5
1FF
330
1F
100
AcDbEntity
  8
1-4ﾚｲﾔ
  6
Continuous
 62
     7
370
     9
100
AcDbLine
 10
446.9437470307221
 20
450.1125603753168
 30
0.0
 11
499.8784245671453
 21
450.1125603753168
 31
0.0
  0
LINE
  5
200
330
1F
100
AcDbEntity
  8
1-4ﾚｲﾔ
  6
Continuous
 62
     7
370
     9
100
AcDbLine
 10
498.3784443623313
 20
440.1125273833405
 30
0.0
 11
498.3784443623313
 21
510.40807775549
 31
0.0
  0
LINE
  5
201
330
1F
100
AcDbEntity
  8
1-4ﾚｲﾔ
  6
Continuous
 62
     7
370
     9
100
AcDbLine
 10
446.9437470307221
 20
490.1125686233109
 30
0.0
 11
499.8784245671453
 21
490.1125686233109
 31
0.0
  0
LINE
  5
202
330
1F
100
AcDbEntity
  8
1-4ﾚｲﾔ
  6
Continuous
 62
     7
370
     9
100
AcDbLine
 10
373.3438852671031
 20
497.1125174857475
 30
0.0
 11
499.8784245671453
 21
497.1125174857475
 31
0.0
  0
LINE
  5
203
330
1F
100
AcDbEntity
  8
1-2ﾚｲﾔ
  6
Continuous
 62
     3
370
     9
100
AcDbLine
 10
315.8439430030617
 20
497.1125174857475
 30
0.0
 11
359.8439397038641
 21
497.1125174857475
 31
0.0
  0
LINE
  5
204
330
1F
100
AcDbEntity
  8
1-2ﾚｲﾔ
  6
Continuous
 62
     3
370
     9
100
AcDbLine
 10
359.8439397038641
 20
497.1125174857475
 30
0.0
 11
359.8439397038641
 21
492.612576871305
 31
0.0
  0
LINE
  5
205
330
1F
100
AcDbEntity
  8
1-2ﾚｲﾔ
  6
Continuous
 62
     3
370
     9
100
AcDbLine
 10
315.8439430030617
 20
492.612576871305
 30
0.0
 11
365.8438605231208
 21
492.612576871305
 31
0.0
  0
LINE
  5
206
330
1F
100
AcDbEntity
  8
1-2ﾚｲﾔ
  6
Continuous
 62
     3
370
     9
100
AcDbLine
 10
315.8439430030617
 20
-132.8873959103146
 30
0.0
 11
359.8439397038641
 21
-132.8873959103146
 31
0.0
  0
LINE
  5
207
330
1F
100
AcDbEntity
  8
1-2ﾚｲﾔ
  6
Continuous
 62
     3
370
     9
100
AcDbLine
 10
359.8439397038641
 20
-132.8873959103146
 30
0.0
 11
359.8439397038641
 21
-128.387455295872
 31
0.0
  0
LINE
  5
208
330
1F
100
AcDbEntity
  8
1-2ﾚｲﾔ
  6
Continuous
 62
     3
370
     9
100
AcDbLine
 10
365.8438605231208
 20
492.612576871305
 30
0.0
 11
365.8438605231208
 21
-128.387455295872
 31
0.0
  0
LINE
  5
209
330
1F
100
AcDbEntity
  8
1-1ﾚｲﾔ
  6
JWW_DASHED1
 62
     2
370
     9
100
AcDbLine
 10
-594.3513200089737
 20
490.112197463577
 30
0.0
 11
-106.3513678473394
 21
490.112197463577
 31
0.0
  0
LINE
  5
20A
330
1F
100
AcDbEntity
  8
1-1ﾚｲﾔ
  6
JWW_DASHED1
 62
     2
370
     9
100
AcDbLine
 10
-106.3513678473394
 20
-125.8873851879223
 30
0.0
 11
-594.3513200089737
 21
-125.8873851879223
 31
0.0
  0
LINE
  5
20B
330
1F
100
AcDbEntity
  8
1-1ﾚｲﾔ
  6
JWW_DASHED1
 62
     2
370
     9
100
AcDbLine
 10
-594.3513200089737
 20
450.1121892155828
 30
0.0
 11
-106.3513678473394
 21
450.1121892155828
 31
0.0
  0
LINE
  5
20C
330
1F
100
AcDbEntity
  8
1-1ﾚｲﾔ
  6
JWW_DASHED1
 62
     2
370
     9
100
AcDbLine
 10
-106.3513678473394
 20
-85.88737693992812
 30
0.0
 11
-594.3513200089737
 21
-85.88737693992812
 31
0.0
  0
LINE
  5
20D
330
1F
100
AcDbEntity
  8
1-1ﾚｲﾔ
  6
JWW_DASHED1
 62
     2
370
     9
100
AcDbLine
 10
-594.3513200089737
 20
-125.8873851879223
 30
0.0
 11
-594.3513200089737
 21
-85.88737693992812
 31
0.0
  0
LINE
  5
20E
330
1F
100
AcDbEntity
  8
1-1ﾚｲﾔ
  6
JWW_DASHED1
 62
     2
370
     9
100
AcDbLine
 10
-594.3513200089737
 20
450.1121892155828
 30
0.0
 11
-594.3513200089737
 21
490.112197463577
 31
0.0
  0
LINE
  5
20F
330
1F
100
AcDbEntity
  8
1-1ﾚｲﾔ
  6
JWW_DASHED1
 62
     2
370
     9
100
AcDbLine
 10
-106.3513678473394
 20
490.112197463577
 30
0.0
 11
-106.3513678473394
 21
450.1121892155828
 31
0.0
  0
LINE
  5
210
330
1F
100
AcDbEntity
  8
1-1ﾚｲﾔ
  6
JWW_DASHED1
 62
     2
370
     9
100
AcDbLine
 10
-106.3513678473394
 20
-85.88737693992812
 30
0.0
 11
-106.3513678473394
 21
-125.8873851879223
 31
0.0
  0
LINE
  5
211
330
1F
100
AcDbEntity
  8
1-2ﾚｲﾔ
  6
Continuous
 62
     3
370
     9
100
AcDbLine
 10
-599.351336504962
 20
29.11263130806589
 30
0.0
 11
-101.3513513513513
 21
29.11263130806589
 31
0.0
  0
LINE
  5
212
330
1F
100
AcDbEntity
  8
1-2ﾚｲﾔ
  6
Continuous
 62
     3
370
     9
100
AcDbLine
 10
-599.351336504962
 20
35.11267584723399
 30
0.0
 11
-101.3513513513513
 21
35.11267584723399
 31
0.0
  0
LINE
  5
213
330
1F
100
AcDbEntity
  8
1-2ﾚｲﾔ
  6
Continuous
 62
     3
370
     9
100
AcDbLine
 10
-592.3515113624367
 20
-64.88715919288424
 30
0.0
 11
-592.3515113624367
 21
29.11263130806589
 31
0.0
  0
LINE
  5
214
330
1F
100
AcDbEntity
  8
1-2ﾚｲﾔ
  6
Continuous
 62
     3
370
     9
100
AcDbLine
 10
-592.3515113624367
 20
35.11267584723399
 30
0.0
 11
-592.3515113624367
 21
129.1126519280512
 31
0.0
  0
LINE
  5
215
330
1F
100
AcDbEntity
  8
1-2ﾚｲﾔ
  6
Continuous
 62
     3
370
     9
100
AcDbLine
 10
-584.4517475849873
 20
-64.88715919288424
 30
0.0
 11
-584.4517475849873
 21
29.11263130806589
 31
0.0
  0
LINE
  5
216
330
1F
100
AcDbEntity
  8
1-2ﾚｲﾔ
  6
Continuous
 62
     3
370
     9
100
AcDbLine
 10
-584.4517475849873
 20
35.11267584723399
 30
0.0
 11
-584.4517475849873
 21
129.1126519280512
 31
0.0
  0
LINE
  5
217
330
1F
100
AcDbEntity
  8
1-2ﾚｲﾔ
  6
Continuous
 62
     3
370
     9
100
AcDbLine
 10
-577.451551282728
 20
-64.88715919288424
 30
0.0
 11
-577.451551282728
 21
29.11263130806589
 31
0.0
  0
LINE
  5
218
330
1F
100
AcDbEntity
  8
1-2ﾚｲﾔ
  6
Continuous
 62
     3
370
     9
100
AcDbLine
 10
-577.451551282728
 20
35.11267584723399
 30
0.0
 11
-577.451551282728
 21
129.1126519280512
 31
0.0
  0
LINE
  5
219
330
1F
100
AcDbEntity
  8
1-2ﾚｲﾔ
  6
Continuous
 62
     3
370
     9
100
AcDbLine
 10
-108.3514239336992
 20
129.1126519280512
 30
0.0
 11
-108.3514239336992
 21
35.11267584723399
 31
0.0
  0
LINE
  5
21A
330
1F
100
AcDbEntity
  8
1-2ﾚｲﾔ
  6
Continuous
 62
     3
370
     9
100
AcDbLine
 10
-108.3514239336992
 20
29.11263130806589
 30
0.0
 11
-108.3514239336992
 21
-64.88715919288424
 31
0.0
  0
LINE
  5
21B
330
1F
100
AcDbEntity
  8
1-2ﾚｲﾔ
  6
Continuous
 62
     3
370
     9
100
AcDbLine
 10
-569.5517875052788
 20
-64.88715919288424
 30
0.0
 11
-569.5517875052788
 21
29.11263130806589
 31
0.0
  0
LINE
  5
21C
330
1F
100
AcDbEntity
  8
1-2ﾚｲﾔ
  6
Continuous
 62
     3
370
     9
100
AcDbLine
 10
-569.5517875052788
 20
35.11267584723399
 30
0.0
 11
-569.5517875052788
 21
129.1126519280512
 31
0.0
  0
LINE
  5
21D
330
1F
100
AcDbEntity
  8
1-2ﾚｲﾔ
  6
Continuous
 62
     3
370
     9
100
AcDbLine
 10
-562.5514674831081
 20
-64.88715919288424
 30
0.0
 11
-562.5514674831081
 21
29.11263130806589
 31
0.0
  0
LINE
  5
21E
330
1F
100
AcDbEntity
  8
1-2ﾚｲﾔ
  6
Continuous
 62
     3
370
     9
100
AcDbLine
 10
-562.5514674831081
 20
35.11267584723399
 30
0.0
 11
-562.5514674831081
 21
129.1126519280512
 31
0.0
  0
LINE
  5
21F
330
1F
100
AcDbEntity
  8
1-2ﾚｲﾔ
  6
Continuous
 62
     3
370
     9
100
AcDbLine
 10
-554.6517037056587
 20
-64.88715919288424
 30
0.0
 11
-554.6517037056587
 21
29.11263130806589
 31
0.0
  0
LINE
  5
220
330
1F
100
AcDbEntity
  8
1-2ﾚｲﾔ
  6
Continuous
 62
     3
370
     9
100
AcDbLine
 10
-554.6517037056587
 20
35.11267584723399
 30
0.0
 11
-554.6517037056587
 21
129.1126519280512
 31
0.0
  0
LINE
  5
221
330
1F
100
AcDbEntity
  8
1-2ﾚｲﾔ
  6
Continuous
 62
     3
370
     9
100
AcDbLine
 10
-547.6515074033995
 20
-64.88715919288424
 30
0.0
 11
-547.6515074033995
 21
29.11263130806589
 31
0.0
  0
LINE
  5
222
330
1F
100
AcDbEntity
  8
1-2ﾚｲﾔ
  6
Continuous
 62
     3
370
     9
100
AcDbLine
 10
-547.6515074033995
 20
35.11267584723399
 30
0.0
 11
-547.6515074033995
 21
129.1126519280512
 31
0.0
  0
LINE
  5
223
330
1F
100
AcDbEntity
  8
1-2ﾚｲﾔ
  6
Continuous
 62
     3
370
     9
100
AcDbLine
 10
-539.7517436259501
 20
-64.88715919288424
 30
0.0
 11
-539.7517436259501
 21
29.11263130806589
 31
0.0
  0
LINE
  5
224
330
1F
100
AcDbEntity
  8
1-2ﾚｲﾔ
  6
Continuous
 62
     3
370
     9
100
AcDbLine
 10
-539.7517436259501
 20
35.11267584723399
 30
0.0
 11
-539.7517436259501
 21
129.1126519280512
 31
0.0
  0
LINE
  5
225
330
1F
100
AcDbEntity
  8
1-2ﾚｲﾔ
  6
Continuous
 62
     3
370
     9
100
AcDbLine
 10
-532.7515473236908
 20
-64.88715919288424
 30
0.0
 11
-532.7515473236908
 21
29.11263130806589
 31
0.0
  0
LINE
  5
226
330
1F
100
AcDbEntity
  8
1-2ﾚｲﾔ
  6
Continuous
 62
     3
370
     9
100
AcDbLine
 10
-532.7515473236908
 20
35.11267584723399
 30
0.0
 11
-532.7515473236908
 21
129.1126519280512
 31
0.0
  0
LINE
  5
227
330
1F
100
AcDbEntity
  8
1-2ﾚｲﾔ
  6
Continuous
 62
     3
370
     9
100
AcDbLine
 10
-524.8517835462416
 20
-64.88715919288424
 30
0.0
 11
-524.8517835462416
 21
29.11263130806589
 31
0.0
  0
LINE
  5
228
330
1F
100
AcDbEntity
  8
1-2ﾚｲﾔ
  6
Continuous
 62
     3
370
     9
100
AcDbLine
 10
-524.8517835462416
 20
35.11267584723399
 30
0.0
 11
-524.8517835462416
 21
129.1126519280512
 31
0.0
  0
LINE
  5
229
330
1F
100
AcDbEntity
  8
1-2ﾚｲﾔ
  6
Continuous
 62
     3
370
     9
100
AcDbLine
 10
-517.8515872439822
 20
-64.88715919288424
 30
0.0
 11
-517.8515872439822
 21
29.11263130806589
 31
0.0
  0
LINE
  5
22A
330
1F
100
AcDbEntity
  8
1-2ﾚｲﾔ
  6
Continuous
 62
     3
370
     9
100
AcDbLine
 10
-517.8515872439822
 20
35.11267584723399
 30
0.0
 11
-517.8515872439822
 21
129.1126519280512
 31
0.0
  0
LINE
  5
22B
330
1F
100
AcDbEntity
  8
1-2ﾚｲﾔ
  6
Continuous
 62
     3
370
     9
100
AcDbLine
 10
-509.9516997466216
 20
-64.88715919288424
 30
0.0
 11
-509.9516997466216
 21
29.11263130806589
 31
0.0
  0
LINE
  5
22C
330
1F
100
AcDbEntity
  8
1-2ﾚｲﾔ
  6
Continuous
 62
     3
370
     9
100
AcDbLine
 10
-509.9516997466216
 20
35.11267584723399
 30
0.0
 11
-509.9516997466216
 21
129.1126519280512
 31
0.0
  0
LINE
  5
22D
330
1F
100
AcDbEntity
  8
1-2ﾚｲﾔ
  6
Continuous
 62
     3
370
     9
100
AcDbLine
 10
-502.9516271642736
 20
-64.88715919288424
 30
0.0
 11
-502.9516271642736
 21
29.11263130806589
 31
0.0
  0
LINE
  5
22E
330
1F
100
AcDbEntity
  8
1-2ﾚｲﾔ
  6
Continuous
 62
     3
370
     9
100
AcDbLine
 10
-502.9516271642736
 20
35.11267584723399
 30
0.0
 11
-502.9516271642736
 21
129.1126519280512
 31
0.0
  0
LINE
  5
22F
330
1F
100
AcDbEntity
  8
1-2ﾚｲﾔ
  6
Continuous
 62
     3
370
     9
100
AcDbLine
 10
-495.051739666913
 20
-64.88715919288424
 30
0.0
 11
-495.051739666913
 21
29.11263130806589
 31
0.0
  0
LINE
  5
230
330
1F
100
AcDbEntity
  8
1-2ﾚｲﾔ
  6
Continuous
 62
     3
370
     9
100
AcDbLine
 10
-495.051739666913
 20
35.11267584723399
 30
0.0
 11
-495.051739666913
 21
129.1126519280512
 31
0.0
  0
LINE
  5
231
330
1F
100
AcDbEntity
  8
1-2ﾚｲﾔ
  6
Continuous
 62
     3
370
     9
100
AcDbLine
 10
-488.0515433646537
 20
-64.88715919288424
 30
0.0
 11
-488.0515433646537
 21
29.11263130806589
 31
0.0
  0
LINE
  5
232
330
1F
100
AcDbEntity
  8
1-2ﾚｲﾔ
  6
Continuous
 62
     3
370
     9
100
AcDbLine
 10
-488.0515433646537
 20
35.11267584723399
 30
0.0
 11
-488.0515433646537
 21
129.1126519280512
 31
0.0
  0
LINE
  5
233
330
1F
100
AcDbEntity
  8
1-2ﾚｲﾔ
  6
Continuous
 62
     3
370
     9
100
AcDbLine
 10
-480.1517795872044
 20
-64.88715919288424
 30
0.0
 11
-480.1517795872044
 21
29.11263130806589
 31
0.0
  0
LINE
  5
234
330
1F
100
AcDbEntity
  8
1-2ﾚｲﾔ
  6
Continuous
 62
     3
370
     9
100
AcDbLine
 10
-480.1517795872044
 20
35.11267584723399
 30
0.0
 11
-480.1517795872044
 21
129.1126519280512
 31
0.0
  0
LINE
  5
235
330
1F
100
AcDbEntity
  8
1-2ﾚｲﾔ
  6
Continuous
 62
     3
370
     9
100
AcDbLine
 10
-473.151583284945
 20
-64.88715919288424
 30
0.0
 11
-473.151583284945
 21
29.11263130806589
 31
0.0
  0
LINE
  5
236
330
1F
100
AcDbEntity
  8
1-2ﾚｲﾔ
  6
Continuous
 62
     3
370
     9
100
AcDbLine
 10
-473.151583284945
 20
35.11267584723399
 30
0.0
 11
-473.151583284945
 21
129.1126519280512
 31
0.0
  0
LINE
  5
237
330
1F
100
AcDbEntity
  8
1-2ﾚｲﾔ
  6
Continuous
 62
     3
370
     9
100
AcDbLine
 10
-465.2518195074958
 20
-64.88715919288424
 30
0.0
 11
-465.2518195074958
 21
29.11263130806589
 31
0.0
  0
LINE
  5
238
330
1F
100
AcDbEntity
  8
1-2ﾚｲﾔ
  6
Continuous
 62
     3
370
     9
100
AcDbLine
 10
-465.2518195074958
 20
35.11267584723399
 30
0.0
 11
-465.2518195074958
 21
129.1126519280512
 31
0.0
  0
LINE
  5
239
330
1F
100
AcDbEntity
  8
1-2ﾚｲﾔ
  6
Continuous
 62
     3
370
     9
100
AcDbLine
 10
-458.2516232052365
 20
-64.88715919288424
 30
0.0
 11
-458.2516232052365
 21
29.11263130806589
 31
0.0
  0
LINE
  5
23A
330
1F
100
AcDbEntity
  8
1-2ﾚｲﾔ
  6
Continuous
 62
     3
370
     9
100
AcDbLine
 10
-458.2516232052365
 20
35.11267584723399
 30
0.0
 11
-458.2516232052365
 21
129.1126519280512
 31
0.0
  0
LINE
  5
23B
330
1F
100
AcDbEntity
  8
1-2ﾚｲﾔ
  6
Continuous
 62
     3
370
     9
100
AcDbLine
 10
-450.3517975678315
 20
-64.88715919288424
 30
0.0
 11
-450.3517975678315
 21
29.11263130806589
 31
0.0
  0
LINE
  5
23C
330
1F
100
AcDbEntity
  8
1-2ﾚｲﾔ
  6
Continuous
 62
     3
370
     9
100
AcDbLine
 10
-450.3517975678315
 20
35.11267584723399
 30
0.0
 11
-450.3517975678315
 21
129.1126519280512
 31
0.0
  0
LINE
  5
23D
330
1F
100
AcDbEntity
  8
1-2ﾚｲﾔ
  6
Continuous
 62
     3
370
     9
100
AcDbLine
 10
-443.3516012655722
 20
-64.88715919288424
 30
0.0
 11
-443.3516012655722
 21
29.11263130806589
 31
0.0
  0
LINE
  5
23E
330
1F
100
AcDbEntity
  8
1-2ﾚｲﾔ
  6
Continuous
 62
     3
370
     9
100
AcDbLine
 10
-443.3516012655722
 20
35.11267584723399
 30
0.0
 11
-443.3516012655722
 21
129.1126519280512
 31
0.0
  0
LINE
  5
23F
330
1F
100
AcDbEntity
  8
1-2ﾚｲﾔ
  6
Continuous
 62
     3
370
     9
100
AcDbLine
 10
-435.4517756281672
 20
-64.88715919288424
 30
0.0
 11
-435.4517756281672
 21
29.11263130806589
 31
0.0
  0
LINE
  5
240
330
1F
100
AcDbEntity
  8
1-2ﾚｲﾔ
  6
Continuous
 62
     3
370
     9
100
AcDbLine
 10
-435.4517756281672
 20
35.11267584723399
 30
0.0
 11
-435.4517756281672
 21
129.1126519280512
 31
0.0
  0
LINE
  5
241
330
1F
100
AcDbEntity
  8
1-2ﾚｲﾔ
  6
Continuous
 62
     3
370
     9
100
AcDbLine
 10
-428.4515793259079
 20
-64.88715919288424
 30
0.0
 11
-428.4515793259079
 21
29.11263130806589
 31
0.0
  0
LINE
  5
242
330
1F
100
AcDbEntity
  8
1-2ﾚｲﾔ
  6
Continuous
 62
     3
370
     9
100
AcDbLine
 10
-428.4515793259079
 20
35.11267584723399
 30
0.0
 11
-428.4515793259079
 21
129.1126519280512
 31
0.0
  0
LINE
  5
243
330
1F
100
AcDbEntity
  8
1-2ﾚｲﾔ
  6
Continuous
 62
     3
370
     9
100
AcDbLine
 10
-420.5518155484586
 20
-64.88715919288424
 30
0.0
 11
-420.5518155484586
 21
29.11263130806589
 31
0.0
  0
LINE
  5
244
330
1F
100
AcDbEntity
  8
1-2ﾚｲﾔ
  6
Continuous
 62
     3
370
     9
100
AcDbLine
 10
-420.5518155484586
 20
35.11267584723399
 30
0.0
 11
-420.5518155484586
 21
129.1126519280512
 31
0.0
  0
LINE
  5
245
330
1F
100
AcDbEntity
  8
1-2ﾚｲﾔ
  6
Continuous
 62
     3
370
     9
100
AcDbLine
 10
-413.5516192461993
 20
-64.88715919288424
 30
0.0
 11
-413.5516192461993
 21
29.11263130806589
 31
0.0
  0
LINE
  5
246
330
1F
100
AcDbEntity
  8
1-2ﾚｲﾔ
  6
Continuous
 62
     3
370
     9
100
AcDbLine
 10
-413.5516192461993
 20
35.11267584723399
 30
0.0
 11
-413.5516192461993
 21
129.1126519280512
 31
0.0
  0
LINE
  5
247
330
1F
100
AcDbEntity
  8
1-2ﾚｲﾔ
  6
Continuous
 62
     3
370
     9
100
AcDbLine
 10
-405.65185546875
 20
-64.88715919288424
 30
0.0
 11
-405.65185546875
 21
29.11263130806589
 31
0.0
  0
LINE
  5
248
330
1F
100
AcDbEntity
  8
1-2ﾚｲﾔ
  6
Continuous
 62
     3
370
     9
100
AcDbLine
 10
-405.65185546875
 20
35.11267584723399
 30
0.0
 11
-405.65185546875
 21
129.1126519280512
 31
0.0
  0
LINE
  5
249
330
1F
100
AcDbEntity
  8
1-2ﾚｲﾔ
  6
Continuous
 62
     3
370
     9
100
AcDbLine
 10
-398.6516591664906
 20
-64.88715919288424
 30
0.0
 11
-398.6516591664906
 21
29.11263130806589
 31
0.0
  0
LINE
  5
24A
330
1F
100
AcDbEntity
  8
1-2ﾚｲﾔ
  6
Continuous
 62
     3
370
     9
100
AcDbLine
 10
-398.6516591664906
 20
35.11267584723399
 30
0.0
 11
-398.6516591664906
 21
129.1126519280512
 31
0.0
  0
LINE
  5
24B
330
1F
100
AcDbEntity
  8
1-2ﾚｲﾔ
  6
Continuous
 62
     3
370
     9
100
AcDbLine
 10
-390.7518335290857
 20
-64.88715919288424
 30
0.0
 11
-390.7518335290857
 21
29.11263130806589
 31
0.0
  0
LINE
  5
24C
330
1F
100
AcDbEntity
  8
1-2ﾚｲﾔ
  6
Continuous
 62
     3
370
     9
100
AcDbLine
 10
-390.7518335290857
 20
35.11267584723399
 30
0.0
 11
-390.7518335290857
 21
129.1126519280512
 31
0.0
  0
LINE
  5
24D
330
1F
100
AcDbEntity
  8
1-2ﾚｲﾔ
  6
Continuous
 62
     3
370
     9
100
AcDbLine
 10
-383.7516372268265
 20
-64.88715919288424
 30
0.0
 11
-383.7516372268265
 21
29.11263130806589
 31
0.0
  0
LINE
  5
24E
330
1F
100
AcDbEntity
  8
1-2ﾚｲﾔ
  6
Continuous
 62
     3
370
     9
100
AcDbLine
 10
-383.7516372268265
 20
35.11267584723399
 30
0.0
 11
-383.7516372268265
 21
129.1126519280512
 31
0.0
  0
LINE
  5
24F
330
1F
100
AcDbEntity
  8
1-2ﾚｲﾔ
  6
Continuous
 62
     3
370
     9
100
AcDbLine
 10
-375.8518115894213
 20
-64.88715919288424
 30
0.0
 11
-375.8518115894213
 21
29.11263130806589
 31
0.0
  0
LINE
  5
250
330
1F
100
AcDbEntity
  8
1-2ﾚｲﾔ
  6
Continuous
 62
     3
370
     9
100
AcDbLine
 10
-375.8518115894213
 20
35.11267584723399
 30
0.0
 11
-375.8518115894213
 21
129.1126519280512
 31
0.0
  0
LINE
  5
251
330
1F
100
AcDbEntity
  8
1-2ﾚｲﾔ
  6
Continuous
 62
     3
370
     9
100
AcDbLine
 10
-368.8516152871621
 20
-64.88715919288424
 30
0.0
 11
-368.8516152871621
 21
29.11263130806589
 31
0.0
  0
LINE
  5
252
330
1F
100
AcDbEntity
  8
1-2ﾚｲﾔ
  6
Continuous
 62
     3
370
     9
100
AcDbLine
 10
-368.8516152871621
 20
35.11267584723399
 30
0.0
 11
-368.8516152871621
 21
129.1126519280512
 31
0.0
  0
LINE
  5
253
330
1F
100
AcDbEntity
  8
1-2ﾚｲﾔ
  6
Continuous
 62
     3
370
     9
100
AcDbLine
 10
-360.9518515097128
 20
-64.88715919288424
 30
0.0
 11
-360.9518515097128
 21
29.11263130806589
 31
0.0
  0
LINE
  5
254
330
1F
100
AcDbEntity
  8
1-2ﾚｲﾔ
  6
Continuous
 62
     3
370
     9
100
AcDbLine
 10
-360.9518515097128
 20
35.11267584723399
 30
0.0
 11
-360.9518515097128
 21
129.1126519280512
 31
0.0
  0
LINE
  5
255
330
1F
100
AcDbEntity
  8
1-2ﾚｲﾔ
  6
Continuous
 62
     3
370
     9
100
AcDbLine
 10
-353.9516552074535
 20
-64.88715919288424
 30
0.0
 11
-353.9516552074535
 21
29.11263130806589
 31
0.0
  0
LINE
  5
256
330
1F
100
AcDbEntity
  8
1-2ﾚｲﾔ
  6
Continuous
 62
     3
370
     9
100
AcDbLine
 10
-353.9516552074535
 20
35.11267584723399
 30
0.0
 11
-353.9516552074535
 21
129.1126519280512
 31
0.0
  0
LINE
  5
257
330
1F
100
AcDbEntity
  8
1-2ﾚｲﾔ
  6
Continuous
 62
     3
370
     9
100
AcDbLine
 10
-346.0518914300042
 20
-64.88715919288424
 30
0.0
 11
-346.0518914300042
 21
29.11263130806589
 31
0.0
  0
LINE
  5
258
330
1F
100
AcDbEntity
  8
1-2ﾚｲﾔ
  6
Continuous
 62
     3
370
     9
100
AcDbLine
 10
-346.0518914300042
 20
35.11267584723399
 30
0.0
 11
-346.0518914300042
 21
129.1126519280512
 31
0.0
  0
LINE
  5
259
330
1F
100
AcDbEntity
  8
1-2ﾚｲﾔ
  6
Continuous
 62
     3
370
     9
100
AcDbLine
 10
-339.0516951277449
 20
-64.88715919288424
 30
0.0
 11
-339.0516951277449
 21
29.11263130806589
 31
0.0
  0
LINE
  5
25A
330
1F
100
AcDbEntity
  8
1-2ﾚｲﾔ
  6
Continuous
 62
     3
370
     9
100
AcDbLine
 10
-339.0516951277449
 20
35.11267584723399
 30
0.0
 11
-339.0516951277449
 21
129.1126519280512
 31
0.0
  0
LINE
  5
25B
330
1F
100
AcDbEntity
  8
1-2ﾚｲﾔ
  6
Continuous
 62
     3
370
     9
100
AcDbLine
 10
-331.15186949034
 20
-64.88715919288424
 30
0.0
 11
-331.15186949034
 21
29.11263130806589
 31
0.0
  0
LINE
  5
25C
330
1F
100
AcDbEntity
  8
1-2ﾚｲﾔ
  6
Continuous
 62
     3
370
     9
100
AcDbLine
 10
-331.15186949034
 20
35.11267584723399
 30
0.0
 11
-331.15186949034
 21
129.1126519280512
 31
0.0
  0
LINE
  5
25D
330
1F
100
AcDbEntity
  8
1-2ﾚｲﾔ
  6
Continuous
 62
     3
370
     9
100
AcDbLine
 10
-324.1516731880806
 20
-64.88715919288424
 30
0.0
 11
-324.1516731880806
 21
29.11263130806589
 31
0.0
  0
LINE
  5
25E
330
1F
100
AcDbEntity
  8
1-2ﾚｲﾔ
  6
Continuous
 62
     3
370
     9
100
AcDbLine
 10
-324.1516731880806
 20
35.11267584723399
 30
0.0
 11
-324.1516731880806
 21
129.1126519280512
 31
0.0
  0
LINE
  5
25F
330
1F
100
AcDbEntity
  8
1-2ﾚｲﾔ
  6
Continuous
 62
     3
370
     9
100
AcDbLine
 10
-316.2518475506756
 20
-64.88715919288424
 30
0.0
 11
-316.2518475506756
 21
29.11263130806589
 31
0.0
  0
LINE
  5
260
330
1F
100
AcDbEntity
  8
1-2ﾚｲﾔ
  6
Continuous
 62
     3
370
     9
100
AcDbLine
 10
-316.2518475506756
 20
35.11267584723399
 30
0.0
 11
-316.2518475506756
 21
129.1126519280512
 31
0.0
  0
LINE
  5
261
330
1F
100
AcDbEntity
  8
1-2ﾚｲﾔ
  6
Continuous
 62
     3
370
     9
100
AcDbLine
 10
-309.2516512484164
 20
-64.88715919288424
 30
0.0
 11
-309.2516512484164
 21
29.11263130806589
 31
0.0
  0
LINE
  5
262
330
1F
100
AcDbEntity
  8
1-2ﾚｲﾔ
  6
Continuous
 62
     3
370
     9
100
AcDbLine
 10
-309.2516512484164
 20
35.11267584723399
 30
0.0
 11
-309.2516512484164
 21
129.1126519280512
 31
0.0
  0
LINE
  5
263
330
1F
100
AcDbEntity
  8
1-2ﾚｲﾔ
  6
Continuous
 62
     3
370
     9
100
AcDbLine
 10
-301.3518874709671
 20
-64.88715919288424
 30
0.0
 11
-301.3518874709671
 21
29.11263130806589
 31
0.0
  0
LINE
  5
264
330
1F
100
AcDbEntity
  8
1-2ﾚｲﾔ
  6
Continuous
 62
     3
370
     9
100
AcDbLine
 10
-301.3518874709671
 20
35.11267584723399
 30
0.0
 11
-301.3518874709671
 21
129.1126519280512
 31
0.0
  0
LINE
  5
265
330
1F
100
AcDbEntity
  8
1-2ﾚｲﾔ
  6
Continuous
 62
     3
370
     9
100
AcDbLine
 10
-294.3516911687077
 20
-64.88715919288424
 30
0.0
 11
-294.3516911687077
 21
29.11263130806589
 31
0.0
  0
LINE
  5
266
330
1F
100
AcDbEntity
  8
1-2ﾚｲﾔ
  6
Continuous
 62
     3
370
     9
100
AcDbLine
 10
-294.3516911687077
 20
35.11267584723399
 30
0.0
 11
-294.3516911687077
 21
129.1126519280512
 31
0.0
  0
LINE
  5
267
330
1F
100
AcDbEntity
  8
1-2ﾚｲﾔ
  6
Continuous
 62
     3
370
     9
100
AcDbLine
 10
-286.4519273912584
 20
-64.88715919288424
 30
0.0
 11
-286.4519273912584
 21
29.11263130806589
 31
0.0
  0
LINE
  5
268
330
1F
100
AcDbEntity
  8
1-2ﾚｲﾔ
  6
Continuous
 62
     3
370
     9
100
AcDbLine
 10
-286.4519273912584
 20
35.11267584723399
 30
0.0
 11
-286.4519273912584
 21
129.1126519280512
 31
0.0
  0
LINE
  5
269
330
1F
100
AcDbEntity
  8
1-2ﾚｲﾔ
  6
Continuous
 62
     3
370
     9
100
AcDbLine
 10
-279.4517310889991
 20
-64.88715919288424
 30
0.0
 11
-279.4517310889991
 21
29.11263130806589
 31
0.0
  0
LINE
  5
26A
330
1F
100
AcDbEntity
  8
1-2ﾚｲﾔ
  6
Continuous
 62
     3
370
     9
100
AcDbLine
 10
-279.4517310889991
 20
35.11267584723399
 30
0.0
 11
-279.4517310889991
 21
129.1126519280512
 31
0.0
  0
LINE
  5
26B
330
1F
100
AcDbEntity
  8
1-2ﾚｲﾔ
  6
Continuous
 62
     3
370
     9
100
AcDbLine
 10
-271.5519054515942
 20
-64.88715919288424
 30
0.0
 11
-271.5519054515942
 21
29.11263130806589
 31
0.0
  0
LINE
  5
26C
330
1F
100
AcDbEntity
  8
1-2ﾚｲﾔ
  6
Continuous
 62
     3
370
     9
100
AcDbLine
 10
-271.5519054515942
 20
35.11267584723399
 30
0.0
 11
-271.5519054515942
 21
129.1126519280512
 31
0.0
  0
LINE
  5
26D
330
1F
100
AcDbEntity
  8
1-2ﾚｲﾔ
  6
Continuous
 62
     3
370
     9
100
AcDbLine
 10
-264.5517091493349
 20
-64.88715919288424
 30
0.0
 11
-264.5517091493349
 21
29.11263130806589
 31
0.0
  0
LINE
  5
26E
330
1F
100
AcDbEntity
  8
1-2ﾚｲﾔ
  6
Continuous
 62
     3
370
     9
100
AcDbLine
 10
-264.5517091493349
 20
35.11267584723399
 30
0.0
 11
-264.5517091493349
 21
129.1126519280512
 31
0.0
  0
LINE
  5
26F
330
1F
100
AcDbEntity
  8
1-2ﾚｲﾔ
  6
Continuous
 62
     3
370
     9
100
AcDbLine
 10
-256.6518835119298
 20
-64.88715919288424
 30
0.0
 11
-256.6518835119298
 21
29.11263130806589
 31
0.0
  0
LINE
  5
270
330
1F
100
AcDbEntity
  8
1-2ﾚｲﾔ
  6
Continuous
 62
     3
370
     9
100
AcDbLine
 10
-256.6518835119298
 20
35.11267584723399
 30
0.0
 11
-256.6518835119298
 21
129.1126519280512
 31
0.0
  0
LINE
  5
271
330
1F
100
AcDbEntity
  8
1-2ﾚｲﾔ
  6
Continuous
 62
     3
370
     9
100
AcDbLine
 10
-249.6516872096706
 20
-64.88715919288424
 30
0.0
 11
-249.6516872096706
 21
29.11263130806589
 31
0.0
  0
LINE
  5
272
330
1F
100
AcDbEntity
  8
1-2ﾚｲﾔ
  6
Continuous
 62
     3
370
     9
100
AcDbLine
 10
-249.6516872096706
 20
35.11267584723399
 30
0.0
 11
-249.6516872096706
 21
129.1126519280512
 31
0.0
  0
LINE
  5
273
330
1F
100
AcDbEntity
  8
1-2ﾚｲﾔ
  6
Continuous
 62
     3
370
     9
100
AcDbLine
 10
-241.7519234322212
 20
-64.88715919288424
 30
0.0
 11
-241.7519234322212
 21
29.11263130806589
 31
0.0
  0
LINE
  5
274
330
1F
100
AcDbEntity
  8
1-2ﾚｲﾔ
  6
Continuous
 62
     3
370
     9
100
AcDbLine
 10
-241.7519234322212
 20
35.11267584723399
 30
0.0
 11
-241.7519234322212
 21
129.1126519280512
 31
0.0
  0
LINE
  5
275
330
1F
100
AcDbEntity
  8
1-2ﾚｲﾔ
  6
Continuous
 62
     3
370
     9
100
AcDbLine
 10
-234.751727129962
 20
-64.88715919288424
 30
0.0
 11
-234.751727129962
 21
29.11263130806589
 31
0.0
  0
LINE
  5
276
330
1F
100
AcDbEntity
  8
1-2ﾚｲﾔ
  6
Continuous
 62
     3
370
     9
100
AcDbLine
 10
-234.751727129962
 20
35.11267584723399
 30
0.0
 11
-234.751727129962
 21
129.1126519280512
 31
0.0
  0
LINE
  5
277
330
1F
100
AcDbEntity
  8
1-2ﾚｲﾔ
  6
Continuous
 62
     3
370
     9
100
AcDbLine
 10
-226.8519633525126
 20
-64.88715919288424
 30
0.0
 11
-226.8519633525126
 21
29.11263130806589
 31
0.0
  0
LINE
  5
278
330
1F
100
AcDbEntity
  8
1-2ﾚｲﾔ
  6
Continuous
 62
     3
370
     9
100
AcDbLine
 10
-226.8519633525126
 20
35.11267584723399
 30
0.0
 11
-226.8519633525126
 21
129.1126519280512
 31
0.0
  0
LINE
  5
279
330
1F
100
AcDbEntity
  8
1-2ﾚｲﾔ
  6
Continuous
 62
     3
370
     9
100
AcDbLine
 10
-219.8517670502534
 20
-64.88715919288424
 30
0.0
 11
-219.8517670502534
 21
29.11263130806589
 31
0.0
  0
LINE
  5
27A
330
1F
100
AcDbEntity
  8
1-2ﾚｲﾔ
  6
Continuous
 62
     3
370
     9
100
AcDbLine
 10
-219.8517670502534
 20
35.11267584723399
 30
0.0
 11
-219.8517670502534
 21
129.1126519280512
 31
0.0
  0
LINE
  5
27B
330
1F
100
AcDbEntity
  8
1-2ﾚｲﾔ
  6
Continuous
 62
     3
370
     9
100
AcDbLine
 10
-211.9519414128483
 20
-64.88715919288424
 30
0.0
 11
-211.9519414128483
 21
29.11263130806589
 31
0.0
  0
LINE
  5
27C
330
1F
100
AcDbEntity
  8
1-2ﾚｲﾔ
  6
Continuous
 62
     3
370
     9
100
AcDbLine
 10
-211.9519414128483
 20
35.11267584723399
 30
0.0
 11
-211.9519414128483
 21
129.1126519280512
 31
0.0
  0
LINE
  5
27D
330
1F
100
AcDbEntity
  8
1-2ﾚｲﾔ
  6
Continuous
 62
     3
370
     9
100
AcDbLine
 10
-204.9517451105891
 20
-64.88715919288424
 30
0.0
 11
-204.9517451105891
 21
29.11263130806589
 31
0.0
  0
LINE
  5
27E
330
1F
100
AcDbEntity
  8
1-2ﾚｲﾔ
  6
Continuous
 62
     3
370
     9
100
AcDbLine
 10
-204.9517451105891
 20
35.11267584723399
 30
0.0
 11
-204.9517451105891
 21
129.1126519280512
 31
0.0
  0
LINE
  5
27F
330
1F
100
AcDbEntity
  8
1-2ﾚｲﾔ
  6
Continuous
 62
     3
370
     9
100
AcDbLine
 10
-197.0519194731841
 20
-64.88715919288424
 30
0.0
 11
-197.0519194731841
 21
29.11263130806589
 31
0.0
  0
LINE
  5
280
330
1F
100
AcDbEntity
  8
1-2ﾚｲﾔ
  6
Continuous
 62
     3
370
     9
100
AcDbLine
 10
-197.0519194731841
 20
35.11267584723399
 30
0.0
 11
-197.0519194731841
 21
129.1126519280512
 31
0.0
  0
LINE
  5
281
330
1F
100
AcDbEntity
  8
1-2ﾚｲﾔ
  6
Continuous
 62
     3
370
     9
100
AcDbLine
 10
-190.0517231709247
 20
-64.88715919288424
 30
0.0
 11
-190.0517231709247
 21
29.11263130806589
 31
0.0
  0
LINE
  5
282
330
1F
100
AcDbEntity
  8
1-2ﾚｲﾔ
  6
Continuous
 62
     3
370
     9
100
AcDbLine
 10
-190.0517231709247
 20
35.11267584723399
 30
0.0
 11
-190.0517231709247
 21
129.1126519280512
 31
0.0
  0
LINE
  5
283
330
1F
100
AcDbEntity
  8
1-2ﾚｲﾔ
  6
Continuous
 62
     3
370
     9
100
AcDbLine
 10
-182.1519593934755
 20
-64.88715919288424
 30
0.0
 11
-182.1519593934755
 21
29.11263130806589
 31
0.0
  0
LINE
  5
284
330
1F
100
AcDbEntity
  8
1-2ﾚｲﾔ
  6
Continuous
 62
     3
370
     9
100
AcDbLine
 10
-182.1519593934755
 20
35.11267584723399
 30
0.0
 11
-182.1519593934755
 21
129.1126519280512
 31
0.0
  0
LINE
  5
285
330
1F
100
AcDbEntity
  8
1-2ﾚｲﾔ
  6
Continuous
 62
     3
370
     9
100
AcDbLine
 10
-175.1517630912161
 20
-64.88715919288424
 30
0.0
 11
-175.1517630912161
 21
29.11263130806589
 31
0.0
  0
LINE
  5
286
330
1F
100
AcDbEntity
  8
1-2ﾚｲﾔ
  6
Continuous
 62
     3
370
     9
100
AcDbLine
 10
-175.1517630912161
 20
35.11267584723399
 30
0.0
 11
-175.1517630912161
 21
129.1126519280512
 31
0.0
  0
LINE
  5
287
330
1F
100
AcDbEntity
  8
1-2ﾚｲﾔ
  6
Continuous
 62
     3
370
     9
100
AcDbLine
 10
-167.2519993137668
 20
-64.88715919288424
 30
0.0
 11
-167.2519993137668
 21
29.11263130806589
 31
0.0
  0
LINE
  5
288
330
1F
100
AcDbEntity
  8
1-2ﾚｲﾔ
  6
Continuous
 62
     3
370
     9
100
AcDbLine
 10
-167.2519993137668
 20
35.11267584723399
 30
0.0
 11
-167.2519993137668
 21
129.1126519280512
 31
0.0
  0
LINE
  5
289
330
1F
100
AcDbEntity
  8
1-2ﾚｲﾔ
  6
Continuous
 62
     3
370
     9
100
AcDbLine
 10
-160.2518030115075
 20
-64.88715919288424
 30
0.0
 11
-160.2518030115075
 21
29.11263130806589
 31
0.0
  0
LINE
  5
28A
330
1F
100
AcDbEntity
  8
1-2ﾚｲﾔ
  6
Continuous
 62
     3
370
     9
100
AcDbLine
 10
-160.2518030115075
 20
35.11267584723399
 30
0.0
 11
-160.2518030115075
 21
129.1126519280512
 31
0.0
  0
LINE
  5
28B
330
1F
100
AcDbEntity
  8
1-2ﾚｲﾔ
  6
Continuous
 62
     3
370
     9
100
AcDbLine
 10
-152.3519773741026
 20
-64.88715919288424
 30
0.0
 11
-152.3519773741026
 21
29.11263130806589
 31
0.0
  0
LINE
  5
28C
330
1F
100
AcDbEntity
  8
1-2ﾚｲﾔ
  6
Continuous
 62
     3
370
     9
100
AcDbLine
 10
-152.3519773741026
 20
35.11267584723399
 30
0.0
 11
-152.3519773741026
 21
129.1126519280512
 31
0.0
  0
LINE
  5
28D
330
1F
100
AcDbEntity
  8
1-2ﾚｲﾔ
  6
Continuous
 62
     3
370
     9
100
AcDbLine
 10
-145.3517810718432
 20
-64.88715919288424
 30
0.0
 11
-145.3517810718432
 21
29.11263130806589
 31
0.0
  0
LINE
  5
28E
330
1F
100
AcDbEntity
  8
1-2ﾚｲﾔ
  6
Continuous
 62
     3
370
     9
100
AcDbLine
 10
-145.3517810718432
 20
35.11267584723399
 30
0.0
 11
-145.3517810718432
 21
129.1126519280512
 31
0.0
  0
LINE
  5
28F
330
1F
100
AcDbEntity
  8
1-2ﾚｲﾔ
  6
Continuous
 62
     3
370
     9
100
AcDbLine
 10
-137.4519554344383
 20
-64.88715919288424
 30
0.0
 11
-137.4519554344383
 21
29.11263130806589
 31
0.0
  0
LINE
  5
290
330
1F
100
AcDbEntity
  8
1-2ﾚｲﾔ
  6
Continuous
 62
     3
370
     9
100
AcDbLine
 10
-137.4519554344383
 20
35.11267584723399
 30
0.0
 11
-137.4519554344383
 21
129.1126519280512
 31
0.0
  0
LINE
  5
291
330
1F
100
AcDbEntity
  8
1-2ﾚｲﾔ
  6
Continuous
 62
     3
370
     9
100
AcDbLine
 10
-130.451759132179
 20
-64.88715919288424
 30
0.0
 11
-130.451759132179
 21
29.11263130806589
 31
0.0
  0
LINE
  5
292
330
1F
100
AcDbEntity
  8
1-2ﾚｲﾔ
  6
Continuous
 62
     3
370
     9
100
AcDbLine
 10
-130.451759132179
 20
35.11267584723399
 30
0.0
 11
-130.451759132179
 21
129.1126519280512
 31
0.0
  0
LINE
  5
293
330
1F
100
AcDbEntity
  8
1-2ﾚｲﾔ
  6
Continuous
 62
     3
370
     9
100
AcDbLine
 10
-122.5519953547297
 20
-64.88715919288424
 30
0.0
 11
-122.5519953547297
 21
29.11263130806589
 31
0.0
  0
LINE
  5
294
330
1F
100
AcDbEntity
  8
1-2ﾚｲﾔ
  6
Continuous
 62
     3
370
     9
100
AcDbLine
 10
-122.5519953547297
 20
35.11267584723399
 30
0.0
 11
-122.5519953547297
 21
129.1126519280512
 31
0.0
  0
LINE
  5
295
330
1F
100
AcDbEntity
  8
1-2ﾚｲﾔ
  6
Continuous
 62
     3
370
     9
100
AcDbLine
 10
-115.5517990524704
 20
-64.88715919288424
 30
0.0
 11
-115.5517990524704
 21
29.11263130806589
 31
0.0
  0
LINE
  5
296
330
1F
100
AcDbEntity
  8
1-2ﾚｲﾔ
  6
Continuous
 62
     3
370
     9
100
AcDbLine
 10
-115.5517990524704
 20
35.11267584723399
 30
0.0
 11
-115.5517990524704
 21
129.1126519280512
 31
0.0
  0
CIRCLE
  5
297
330
1F
100
AcDbEntity
  8
1-2ﾚｲﾔ
  6
Continuous
 62
     3
370
     9
100
AcDbCircle
 10
318.8436559728675
 20
432.1124267578125
 30
0.0
 40
2.999999797022021
  0
CIRCLE
  5
298
330
1F
100
AcDbEntity
  8
1-2ﾚｲﾔ
  6
Continuous
 62
     3
370
     9
100
AcDbCircle
 10
318.8436559728675
 20
332.1124679977829
 30
0.0
 40
2.999999797022021
  0
CIRCLE
  5
299
330
1F
100
AcDbEntity
  8
1-2ﾚｲﾔ
  6
Continuous
 62
     3
370
     9
100
AcDbCircle
 10
318.8436559728675
 20
232.1125092377534
 30
0.0
 40
2.999999797022021
  0
CIRCLE
  5
29A
330
1F
100
AcDbEntity
  8
1-2ﾚｲﾔ
  6
Continuous
 62
     3
370
     9
100
AcDbCircle
 10
318.8436559728675
 20
132.1125504777238
 30
0.0
 40
2.999999797022021
  0
CIRCLE
  5
29B
330
1F
100
AcDbEntity
  8
1-2ﾚｲﾔ
  6
Continuous
 62
     3
370
     9
100
AcDbCircle
 10
318.8436559728675
 20
-67.88749076224661
 30
0.0
 40
2.999999797022021
  0
ARC
  5
29C
330
1F
100
AcDbEntity
  8
1-1ﾚｲﾔ
  6
Continuous
 62
     2
370
     9
100
AcDbCircle
 10
372.2438915355787
 20
456.5125913877746
 30
0.0
 40
6.399999599199038
100
AcDbArc
 50
180.0
 51
270.0
  0
ARC
  5
29D
330
1F
100
AcDbEntity
  8
1-1ﾚｲﾔ
  6
Continuous
 62
     2
370
     9
100
AcDbCircle
 10
439.4437222867398
 20
456.5125913877746
 30
0.0
 40
6.399999599199038
100
AcDbArc
 50
270.0
 51
0.0
  0
ARC
  5
29E
330
1F
100
AcDbEntity
  8
1-1ﾚｲﾔ
  6
Continuous
 62
     2
370
     9
100
AcDbCircle
 10
439.4437222867398
 20
456.5125913877746
 30
0.0
 40
3.199999799599519
100
AcDbArc
 50
270.0
 51
0.0
  0
ARC
  5
29F
330
1F
100
AcDbEntity
  8
1-1ﾚｲﾔ
  6
Continuous
 62
     2
370
     9
100
AcDbCircle
 10
372.2438915355787
 20
483.7126613307645
 30
0.0
 40
6.399999599199038
100
AcDbArc
 50
90.0
 51
180.0
  0
ARC
  5
2A0
330
1F
100
AcDbEntity
  8
1-1ﾚｲﾔ
  6
Continuous
 62
     2
370
     9
100
AcDbCircle
 10
372.2437678156672
 20
483.7124138909418
 30
0.0
 40
3.199999799599519
100
AcDbArc
 50
90.0
 51
180.0
  0
ARC
  5
2A1
330
1F
100
AcDbEntity
  8
1-1ﾚｲﾔ
  6
Continuous
 62
     2
370
     9
100
AcDbCircle
 10
439.4437222867398
 20
483.7124138909418
 30
0.0
 40
3.199999799599519
100
AcDbArc
 50
0.0
 51
90.0
  0
ARC
  5
2A2
330
1F
100
AcDbEntity
  8
1-1ﾚｲﾔ
  6
Continuous
 62
     2
370
     9
100
AcDbCircle
 10
439.4437222867398
 20
483.7126613307645
 30
0.0
 40
6.399999599199038
100
AcDbArc
 50
0.0
 51
90.0
  0
ARC
  5
2A3
330
1F
100
AcDbEntity
  8
1-1ﾚｲﾔ
  6
Continuous
 62
     2
370
     9
100
AcDbCircle
 10
372.2438915355787
 20
456.5125913877746
 30
0.0
 40
3.199999799599519
100
AcDbArc
 50
180.0
 51
270.0
  0
ARC
  5
2A4
330
1F
100
AcDbEntity
  8
1-1ﾚｲﾔ
  6
Continuous
 62
     2
370
     9
100
AcDbCircle
 10
372.2438915355787
 20
-92.28753167229726
 30
0.0
 40
6.399999599199038
100
AcDbArc
 50
90.0
 51
180.0
  0
ARC
  5
2A5
330
1F
100
AcDbEntity
  8
1-1ﾚｲﾔ
  6
Continuous
 62
     2
370
     9
100
AcDbCircle
 10
439.4437222867398
 20
-92.28753167229726
 30
0.0
 40
6.399999599199038
100
AcDbArc
 50
0.0
 51
90.0
  0
ARC
  5
2A6
330
1F
100
AcDbEntity
  8
1-1ﾚｲﾔ
  6
Continuous
 62
     2
370
     9
100
AcDbCircle
 10
439.4437222867398
 20
-92.28753167229726
 30
0.0
 40
3.199999799599519
100
AcDbArc
 50
0.0
 51
90.0
  0
ARC
  5
2A7
330
1F
100
AcDbEntity
  8
1-1ﾚｲﾔ
  6
Continuous
 62
     2
370
     9
100
AcDbCircle
 10
372.2438915355787
 20
-119.4876016152871
 30
0.0
 40
6.399999599199038
100
AcDbArc
 50
180.0
 51
270.0
  0
ARC
  5
2A8
330
1F
100
AcDbEntity
  8
1-1ﾚｲﾔ
  6
Continuous
 62
     2
370
     9
100
AcDbCircle
 10
372.2437678156672
 20
-119.4873541754645
 30
0.0
 40
3.199999799599519
100
AcDbArc
 50
180.0
 51
270.0
  0
ARC
  5
2A9
330
1F
100
AcDbEntity
  8
1-1ﾚｲﾔ
  6
Continuous
 62
     2
370
     9
100
AcDbCircle
 10
439.4437222867398
 20
-119.4873541754645
 30
0.0
 40
3.199999799599519
100
AcDbArc
 50
270.0
 51
0.0
  0
ARC
  5
2AA
330
1F
100
AcDbEntity
  8
1-1ﾚｲﾔ
  6
Continuous
 62
     2
370
     9
100
AcDbCircle
 10
439.4437222867398
 20
-119.4876016152871
 30
0.0
 40
6.399999599199038
100
AcDbArc
 50
270.0
 51
0.0
  0
ARC
  5
2AB
330
1F
100
AcDbEntity
  8
1-1ﾚｲﾔ
  6
Continuous
 62
     2
370
     9
100
AcDbCircle
 10
372.2438915355787
 20
-92.28753167229726
 30
0.0
 40
3.199999799599519
100
AcDbArc
 50
90.0
 51
180.0
  0
CIRCLE
  5
2AC
330
1F
100
AcDbEntity
  8
1-2ﾚｲﾔ
  6
Continuous
 62
     3
370
     9
100
AcDbCircle
 10
318.8436559728675
 20
32.11252985773868
 30
0.0
 40
2.999999797022021
  0
TEXT
  5
2AD
330
1F
100
AcDbEntity
  8
1-4ﾚｲﾔ
  6
Continuous
 62
     2
370
     9
100
AcDbText
 10
-213.3686539933487
 20
523.100184359164
 30
0.0
 40
15.24
  1
15
 41
1.0625
  7
ＭＳ ゴシック
100
AcDbText
  0
TEXT
  5
2AE
330
1F
100
AcDbEntity
  8
1-4ﾚｲﾔ
  6
Continuous
 62
     2
370
     9
100
AcDbText
 10
-366.6013439281567
 20
-185.8691586716111
 30
0.0
 40
15.24
  1
498
 41
1.083333333333333
  7
ＭＳ ゴシック
100
AcDbText
  0
TEXT
  5
2AF
330
1F
100
AcDbEntity
  8
1-4ﾚｲﾔ
  6
Continuous
 62
     2
370
     9
100
AcDbText
 10
330.218963623047
 20
-185.8691586716111
 30
0.0
 40
15.24
  1
50
 41
1.0625
  7
ＭＳ ゴシック
100
AcDbText
  0
TEXT
  5
2B0
330
1F
100
AcDbEntity
  8
1-4ﾚｲﾔ
  6
Continuous
 62
     2
370
     9
100
AcDbText
 10
492.5584839527029
 20
-147.184545156118
 30
0.0
 40
15.24
  1
7
 50
90.0
 41
0.9999999999999998
  7
ＭＳ ゴシック
100
AcDbText
  0
TEXT
  5
2B1
330
1F
100
AcDbEntity
  8
1-4ﾚｲﾔ
  6
Continuous
 62
     2
370
     9
100
AcDbText
 10
492.5584839527029
 20
-116.5125666437922
 30
0.0
 40
15.24
  1
40
 50
90.0
 41
1.0625
  7
ＭＳ ゴシック
100
AcDbText
  0
TEXT
  5
2B2
330
1F
100
AcDbEntity
  8
1-4ﾚｲﾔ
  6
Continuous
 62
     2
370
     9
100
AcDbText
 10
492.5584839527029
 20
459.4875644993139
 30
0.0
 40
15.24
  1
40
 50
90.0
 41
1.0625
  7
ＭＳ ゴシック
100
AcDbText
  0
TEXT
  5
2B3
330
1F
100
AcDbEntity
  8
1-4ﾚｲﾔ
  6
Continuous
 62
     2
370
     9
100
AcDbText
 10
492.5584839527029
 20
500.26516476193
 30
0.0
 40
15.24
  1
7
 50
90.0
 41
0.9999999999999998
  7
ＭＳ ゴシック
100
AcDbText
  0
TEXT
  5
2B4
330
1F
100
AcDbEntity
  8
1-4ﾚｲﾔ
  6
Continuous
 62
     2
370
     9
100
AcDbText
 10
253.6394990498313
 20
165.8625917176943
 30
0.0
 40
15.24
  1
630
 50
90.0
 41
1.083333333333333
  7
ＭＳ ゴシック
100
AcDbText
  0
TEXT
  5
2B5
330
1F
100
AcDbEntity
  8
1-4ﾚｲﾔ
  6
Continuous
 62
     2
370
     9
100
AcDbText
 10
492.5584839527029
 20
165.862467997783
 30
0.0
 40
15.24
  1
536
 50
90.0
 41
1.083333333333333
  7
ＭＳ ゴシック
100
AcDbText
  0
TEXT
  5
2B6
330
1F
100
AcDbEntity
  8
1-4ﾚｲﾔ
  6
Continuous
 62
     2
370
     9
100
AcDbText
 10
395.2188069111593
 20
-185.8691586716111
 30
0.0
 40
15.24
  1
80
 41
1.0625
  7
ＭＳ ゴシック
100
AcDbText
  0
TEXT
  5
2B7
330
1F
100
AcDbEntity
  8
1-4ﾚｲﾔ
  6
Continuous
 62
     2
370
     9
100
AcDbText
 10
364.5937862911741
 20
-230.4637532662057
 30
0.0
 40
15.24
  1
130
 41
1.083333333333333
  7
ＭＳ ゴシック
100
AcDbText
  0
LWPOLYLINE
  5
2B8
330
1F
100
AcDbEntity
  8
1-4ﾚｲﾔ
  6
Continuous
 62
     7
370
     9
100
AcDbPolyline
 90
        4
 70
     1
 43
1.0
 10
-207.941265209301
 20
514.2803872598186
 42
0.4142135623731
 10
-208.441265209301
 20
514.7803872598184
 42
0.4142135623731
 10
-208.941265209301
 20
514.2803872598186
 42
0.4142135623731
 10
-208.441265209301
 20
513.7803872598186
 42
0.4142135623731
  0
LWPOLYLINE
  5
2B9
330
1F
100
AcDbEntity
  8
1-4ﾚｲﾔ
  6
Continuous
 62
     7
370
     9
100
AcDbPolyline
 90
        4
 70
     1
 43
1.0
 10
-193.0623375145164
 20
514.2803872598186
 42
0.4142135623731
 10
-193.5623375145164
 20
514.7803872598184
 42
0.4142135623731
 10
-194.0623375145164
 20
514.2803872598186
 42
0.4142135623731
 10
-193.5623375145164
 20
513.7803872598186
 42
0.4142135623731
  0
LWPOLYLINE
  5
2BA
330
1F
100
AcDbEntity
  8
1-4ﾚｲﾔ
  6
Continuous
 62
     7
370
     9
100
AcDbPolyline
 90
        4
 70
     1
 43
1.0
 10
-598.851336504962
 20
-191.689180941195
 42
0.4142135623731
 10
-599.351336504962
 20
-191.189180941195
 42
0.4142135623731
 10
-599.851336504962
 20
-191.689180941195
 42
0.4142135623731
 10
-599.351336504962
 20
-192.189180941195
 42
0.4142135623731
  0
LWPOLYLINE
  5
2BB
330
1F
100
AcDbEntity
  8
1-4ﾚｲﾔ
  6
Continuous
 62
     7
370
     9
100
AcDbPolyline
 90
        4
 70
     1
 43
1.0
 10
-100.8513513513513
 20
-191.689180941195
 42
0.4142135623731
 10
-101.3513513513513
 20
-191.189180941195
 42
0.4142135623731
 10
-101.8513513513513
 20
-191.689180941195
 42
0.4142135623731
 10
-101.3513513513513
 20
-192.189180941195
 42
0.4142135623731
  0
LWPOLYLINE
  5
2BC
330
1F
100
AcDbEntity
  8
1-4ﾚｲﾔ
  6
Continuous
 62
     7
370
     9
100
AcDbPolyline
 90
        4
 70
     1
 43
1.0
 10
316.3439430030617
 20
-191.689180941195
 42
0.4142135623731
 10
315.8439430030617
 20
-191.189180941195
 42
0.4142135623731
 10
315.3439430030617
 20
-191.689180941195
 42
0.4142135623731
 10
315.8439430030617
 20
-192.189180941195
 42
0.4142135623731
  0
LWPOLYLINE
  5
2BD
330
1F
100
AcDbEntity
  8
1-4ﾚｲﾔ
  6
Continuous
 62
     7
370
     9
100
AcDbPolyline
 90
        4
 70
     1
 43
1.0
 10
366.3438605231208
 20
-191.689180941195
 42
0.4142135623731
 10
365.8438605231208
 20
-191.189180941195
 42
0.4142135623731
 10
365.3438605231208
 20
-191.689180941195
 42
0.4142135623731
 10
365.8438605231208
 20
-192.189180941195
 42
0.4142135623731
  0
LWPOLYLINE
  5
2BE
330
1F
100
AcDbEntity
  8
1-4ﾚｲﾔ
  6
Continuous
 62
     7
370
     9
100
AcDbPolyline
 90
        4
 70
     1
 43
1.0
 10
446.3437532991976
 20
-191.689180941195
 42
0.4142135623731
 10
445.8437532991977
 20
-191.189180941195
 42
0.4142135623731
 10
445.3437532991977
 20
-191.689180941195
 42
0.4142135623731
 10
445.8437532991977
 20
-192.189180941195
 42
0.4142135623731
  0
LWPOLYLINE
  5
2BF
330
1F
100
AcDbEntity
  8
1-4ﾚｲﾔ
  6
Continuous
 62
     7
370
     9
100
AcDbPolyline
 90
        4
 70
     1
 43
1.0
 10
316.3439430030617
 20
-236.2837446058118
 42
0.4142135623731
 10
315.8439430030617
 20
-235.7837446058118
 42
0.4142135623731
 10
315.3439430030617
 20
-236.2837446058118
 42
0.4142135623731
 10
315.8439430030617
 20
-236.7837446058118
 42
0.4142135623731
  0
LWPOLYLINE
  5
2C0
330
1F
100
AcDbEntity
  8
1-4ﾚｲﾔ
  6
Continuous
 62
     7
370
     9
100
AcDbPolyline
 90
        4
 70
     1
 43
1.0
 10
446.3437532991976
 20
-236.2837446058118
 42
0.4142135623731
 10
445.8437532991977
 20
-235.7837446058118
 42
0.4142135623731
 10
445.3437532991977
 20
-236.2837446058118
 42
0.4142135623731
 10
445.8437532991977
 20
-236.7837446058118
 42
0.4142135623731
  0
LWPOLYLINE
  5
2C1
330
1F
100
AcDbEntity
  8
1-4ﾚｲﾔ
  6
Continuous
 62
     7
370
     9
100
AcDbPolyline
 90
        4
 70
     1
 43
1.0
 10
259.9594594594597
 20
-132.8873959103146
 42
0.4142135623731
 10
259.4594594594597
 20
-132.3873959103146
 42
0.4142135623731
 10
258.9594594594597
 20
-132.8873959103146
 42
0.4142135623731
 10
259.4594594594597
 20
-133.3873959103146
 42
0.4142135623731
  0
LWPOLYLINE
  5
2C2
330
1F
100
AcDbEntity
  8
1-4ﾚｲﾔ
  6
Continuous
 62
     7
370
     9
100
AcDbPolyline
 90
        4
 70
     1
 43
1.0
 10
259.9594594594597
 20
497.1125174857475
 42
0.4142135623731
 10
259.4594594594597
 20
497.6125174857475
 42
0.4142135623731
 10
258.9594594594597
 20
497.1125174857475
 42
0.4142135623731
 10
259.4594594594597
 20
496.6125174857476
 42
0.4142135623731
  0
LWPOLYLINE
  5
2C3
330
1F
100
AcDbEntity
  8
1-4ﾚｲﾔ
  6
Continuous
 62
     7
370
     9
100
AcDbPolyline
 90
        4
 70
     1
 43
1.0
 10
498.8784443623313
 20
-132.8873959103146
 42
0.4142135623731
 10
498.3784443623313
 20
-132.3873959103146
 42
0.4142135623731
 10
497.8784443623313
 20
-132.8873959103146
 42
0.4142135623731
 10
498.3784443623313
 20
-133.3873959103146
 42
0.4142135623731
  0
LWPOLYLINE
  5
2C4
330
1F
100
AcDbEntity
  8
1-4ﾚｲﾔ
  6
Continuous
 62
     7
370
     9
100
AcDbPolyline
 90
        4
 70
     1
 43
1.0
 10
498.8784443623313
 20
-125.8875707677893
 42
0.4142135623731
 10
498.3784443623313
 20
-125.3875707677892
 42
0.4142135623731
 10
497.8784443623313
 20
-125.8875707677893
 42
0.4142135623731
 10
498.3784443623313
 20
-126.3875707677893
 42
0.4142135623731
  0
LWPOLYLINE
  5
2C5
330
1F
100
AcDbEntity
  8
1-4ﾚｲﾔ
  6
Continuous
 62
     7
370
     9
100
AcDbPolyline
 90
        4
 70
     1
 43
1.0
 10
498.8784443623313
 20
-85.88756251979518
 42
0.4142135623731
 10
498.3784443623313
 20
-85.38756251979518
 42
0.4142135623731
 10
497.8784443623313
 20
-85.88756251979518
 42
0.4142135623731
 10
498.3784443623313
 20
-86.38756251979518
 42
0.4142135623731
  0
LWPOLYLINE
  5
2C6
330
1F
100
AcDbEntity
  8
1-4ﾚｲﾔ
  6
Continuous
 62
     7
370
     9
100
AcDbPolyline
 90
        4
 70
     1
 43
1.0
 10
498.8784443623313
 20
450.1125603753168
 42
0.4142135623731
 10
498.3784443623313
 20
450.6125603753168
 42
0.4142135623731
 10
497.8784443623313
 20
450.1125603753168
 42
0.4142135623731
 10
498.3784443623313
 20
449.6125603753168
 42
0.4142135623731
  0
LWPOLYLINE
  5
2C7
330
1F
100
AcDbEntity
  8
1-4ﾚｲﾔ
  6
Continuous
 62
     7
370
     9
100
AcDbPolyline
 90
        4
 70
     1
 43
1.0
 10
498.8784443623313
 20
490.1125686233109
 42
0.4142135623731
 10
498.3784443623313
 20
490.6125686233109
 42
0.4142135623731
 10
497.8784443623313
 20
490.1125686233109
 42
0.4142135623731
 10
498.3784443623313
 20
489.6125686233109
 42
0.4142135623731
  0
LWPOLYLINE
  5
2C8
330
1F
100
AcDbEntity
  8
1-4ﾚｲﾔ
  6
Continuous
 62
     7
370
     9
100
AcDbPolyline
 90
        4
 70
     1
 43
1.0
 10
498.8784443623313
 20
497.1125174857475
 42
0.4142135623731
 10
498.3784443623313
 20
497.6125174857475
 42
0.4142135623731
 10
497.8784443623313
 20
497.1125174857475
 42
0.4142135623731
 10
498.3784443623313
 20
496.6125174857476
 42
0.4142135623731
  0
LINE
  5
2C9
330
1F
100
AcDbEntity
  8
1-5ﾚｲﾔ
  6
Continuous
 62
     7
370
     9
100
AcDbLine
 10
-348.7147769412479
 20
602.9273120777029
 30
0.0
 11
-152.727158005173
 21
602.9273120777029
 31
0.0
  0
LINE
  5
2CA
330
1F
100
AcDbEntity
  8
1-5ﾚｲﾔ
  6
Continuous
 62
     7
370
     9
100
AcDbLine
 10
-438.7369104333825
 20
494.8961989944047
 30
0.0
 11
-376.764493375211
 21
643.2487446553
 31
0.0
  0
LINE
  5
2CB
330
1F
100
AcDbEntity
  8
1-5ﾚｲﾔ
  6
Continuous
 62
     7
370
     9
100
AcDbLine
 10
-438.7369104333825
 20
494.8961989944047
 30
0.0
 11
-435.4653848184121
 21
506.9604987067146
 31
0.0
  0
LINE
  5
2CC
330
1F
100
AcDbEntity
  8
1-5ﾚｲﾔ
  6
Continuous
 62
     7
370
     9
100
AcDbLine
 10
-438.7369104333825
 20
494.8961989944047
 30
0.0
 11
-432.4544133366765
 21
505.7026383683489
 31
0.0
  0
LINE
  5
2CD
330
1F
100
AcDbEntity
  8
1-5ﾚｲﾔ
  6
Continuous
 62
     7
370
     9
100
AcDbLine
 10
418.7217506202492
 20
489.9890961518159
 30
0.0
 11
422.2633568016261
 21
501.9769369589317
 31
0.0
  0
LINE
  5
2CE
330
1F
100
AcDbEntity
  8
1-5ﾚｲﾔ
  6
Continuous
 62
     7
370
     9
100
AcDbLine
 10
418.7217506202492
 20
489.9890961518159
 30
0.0
 11
425.2452541042018
 21
500.6517729888093
 31
0.0
  0
TEXT
  5
2CF
330
1F
100
AcDbEntity
  8
1-5ﾚｲﾔ
  6
Continuous
 62
     7
370
     9
100
AcDbText
 10
-345.5242342562289
 20
607.5125038270693
 30
0.0
 40
11.43
  1
クロスバー φ６ ＠100
 41
1.158730158730159
  7
ＭＳ ゴシック
100
AcDbText
  0
LINE
  5
2D0
330
1F
100
AcDbEntity
  8
1-5ﾚｲﾔ
  6
Continuous
 62
     7
370
     9
100
AcDbLine
 10
473.4447994747677
 20
613.137668918919
 30
0.0
 11
418.7217506202492
 21
489.9890961518159
 31
0.0
  0
LINE
  5
2D1
330
1F
100
AcDbEntity
  8
1-5ﾚｲﾔ
  6
Continuous
 62
     7
370
     9
100
AcDbLine
 10
473.4447994747677
 20
613.137668918919
 30
0.0
 11
752.8272474134292
 21
613.137668918919
 31
0.0
  0
TEXT
  5
2D2
330
1F
100
AcDbEntity
  8
1-5ﾚｲﾔ
  6
Continuous
 62
     7
370
     9
100
AcDbText
 10
482.6426119417758
 20
624.062021484375
 30
0.0
 40
11.43
  1
かさ上げ材　□８０×４０×３.２
 41
1.155913978494624
  7
ＭＳ ゴシック
100
AcDbText
  0
TEXT
  5
2D3
330
1F
100
AcDbEntity
  8
1-5ﾚｲﾔ
  6
Continuous
 62
     7
370
     9
100
AcDbText
 10
549.1794606801627
 20
594.6669128747887
 30
0.0
 40
11.43
  1
（Ｌ＝４８８）
 41
1.142857142857143
  7
ＭＳ ゴシック
100
AcDbText
  0
TEXT
  5
2D4
330
1F
100
AcDbEntity
  8
1-5ﾚｲﾔ
  6
Continuous
 62
     7
370
     9
100
AcDbText
 10
-374.6790911700274
 20
649.9234419869089
 30
0.0
 40
11.43
  1
エンドプレート ＦＢ4.5×44
 41
1.16025641025641
  7
ＭＳ ゴシック
100
AcDbText
  0
LINE
  5
2D5
330
1F
100
AcDbEntity
  8
1-5ﾚｲﾔ
  6
Continuous
 62
     7
370
     9
100
AcDbLine
 10
-376.764493375211
 20
643.2487446553
 30
0.0
 11
-140.230024213075
 21
643.2487446553
 31
0.0
  0
LINE
  5
2D6
330
1F
100
AcDbEntity
  8
F-4ﾚｲﾔ
  6
Continuous
 62
     2
370
     9
100
AcDbLine
 10
175.2920875771946
 20
-391.2116321674034
 30
0.0
 11
175.2920875771946
 21
-366.2112403876843
 31
0.0
  0
LINE
  5
2D7
330
1F
100
AcDbEntity
  8
F-4ﾚｲﾔ
  6
Continuous
 62
     2
370
     9
100
AcDbLine
 10
175.2920875771946
 20
-366.2112403876843
 30
0.0
 11
287.7920875771947
 21
-366.2112403876843
 31
0.0
  0
LINE
  5
2D8
330
1F
100
AcDbEntity
  8
F-4ﾚｲﾔ
  6
Continuous
 62
     2
370
     9
100
AcDbLine
 10
287.7920875771947
 20
-366.2112403876843
 30
0.0
 11
287.7920875771947
 21
-391.2116321674034
 31
0.0
  0
LINE
  5
2D9
330
1F
100
AcDbEntity
  8
F-4ﾚｲﾔ
  6
Continuous
 62
     2
370
     9
100
AcDbLine
 10
287.7920875771947
 20
-391.2116321674034
 30
0.0
 11
175.2920875771946
 21
-391.2116321674034
 31
0.0
  0
TEXT
  5
2DA
330
1F
100
AcDbEntity
  8
F-4ﾚｲﾔ
  6
Continuous
 62
     2
370
     9
100
AcDbText
 10
199.0422112971059
 20
-385.891500199498
 30
0.0
 40
15.24
  1
仕　様
 41
1.083333333333333
  7
ＭＳ ゴシック
100
AcDbText
  0
TEXT
  5
2DB
330
1F
100
AcDbEntity
  8
F-4ﾚｲﾔ
  6
Continuous
 62
     2
370
     9
100
AcDbText
 10
226.3368197483307
 20
-421.7320140990177
 30
0.0
 40
15.24
  1
スチール製グレーチング　かさあげ型　細目滑り止め模様付
 41
1.12037037037037
  7
ＭＳ ゴシック
100
AcDbText
  0
TEXT
  5
2DC
330
1F
100
AcDbEntity
  8
F-4ﾚｲﾔ
  6
Continuous
 62
     2
370
     9
100
AcDbText
 10
256.1930664353007
 20
-472.3506858255654
 30
0.0
 40
15.24
  1
材質：ＳＳ４００＋ＳＴＫＲ４００
 50
359.9999801716714
 41
1.1171875
  7
ＭＳ ゴシック
100
AcDbText
  0
TEXT
  5
2DD
330
1F
100
AcDbEntity
  8
F-4ﾚｲﾔ
  6
Continuous
 62
     2
370
     9
100
AcDbText
 10
256.1930283434003
 20
-499.8512714331341
 30
0.0
 40
15.24
  1
処理：溶融亜鉛めっき
 41
1.1125
  7
ＭＳ ゴシック
100
AcDbText
  0
TEXT
  5
2DE
330
1F
100
AcDbEntity
  8
F-5ﾚｲﾔ
  6
Continuous
 62
     2
370
     9
100
AcDbText
 10
-428.8464962790334
 20
-663.9456608462041
 30
0.0
 40
15.24
  1
スチール製グレーチング　かさあげ型　細目滑り止め模様付
 41
0.899074074074074
  7
ＭＳ ゴシック
100
AcDbText
  0
TEXT
  5
2DF
330
1F
100
AcDbEntity
  8
F-5ﾚｲﾔ
  6
Continuous
 62
     2
370
     9
100
AcDbText
 10
-173.9803557124148
 20
-687.9309913192584
 30
0.0
 40
15.24
  1
国土交通省型側溝用　ＱＸＹ－Ｋ　６３５０Ａ
 41
0.8988095238095238
  7
ＭＳ ゴシック
100
AcDbText
  0
TEXT
  5
2E0
330
1F
100
AcDbEntity
  8
F-4ﾚｲﾔ
  6
Continuous
 62
     2
370
     9
100
AcDbText
 10
226.3368197483307
 20
-446.8761039352493
 30
0.0
 40
15.24
  1
国土交通省型側溝用　ＱＸＹ－Ｋ　６３５０Ａ
 41
1.119047619047619
  7
ＭＳ ゴシック
100
AcDbText
  0
TEXT
  5
2E1
330
1F
100
AcDbEntity
  8
F-4ﾚｲﾔ
  6
Continuous
 62
     2
370
     9
100
AcDbText
 10
256.1930654593737
 20
-527.3518570407142
 30
0.0
 40
15.24
  1
定尺：４９８
 41
1.104166666666667
  7
ＭＳ ゴシック
100
AcDbText
  0
TEXT
  5
2E2
330
1F
100
AcDbEntity
  8
F-5ﾚｲﾔ
  6
Continuous
 62
     3
370
     9
100
AcDbText
 10
312.7920875771947
 20
-387.6866321674034
 30
0.0
 40
19.05
  1
※適用荷重：Ｔ－２０，Ｔ－１４
 41
1.093333333333333
  7
ＭＳ ゴシック
100
AcDbText
  0
LINE
  5
2E3
330
1F
100
AcDbEntity
  8
1-5ﾚｲﾔ
  6
Continuous
 62
     7
370
     9
100
AcDbLine
 10
-331.1837273675042
 20
566.1122255067568
 30
0.0
 11
-368.8516152871621
 21
457.7525291333841
 31
0.0
  0
LINE
  5
2E4
330
1F
100
AcDbEntity
  8
1-5ﾚｲﾔ
  6
Continuous
 62
     7
370
     9
100
AcDbLine
 10
-368.8516152871621
 20
457.7525291333841
 30
0.0
 11
-366.3235205805443
 21
469.9942094573581
 31
0.0
  0
LINE
  5
2E5
330
1F
100
AcDbEntity
  8
1-5ﾚｲﾔ
  6
Continuous
 62
     7
370
     9
100
AcDbLine
 10
-368.8516152871621
 20
457.7525291333841
 30
0.0
 11
-363.2412833068339
 21
468.9227652575897
 31
0.0
  0
LINE
  5
2E6
330
1F
100
AcDbEntity
  8
1-5ﾚｲﾔ
  6
Continuous
 62
     7
370
     9
100
AcDbLine
 10
-348.7147769412479
 20
602.9273120777029
 30
0.0
 11
-410.5742477924645
 21
435.1126346072635
 31
0.0
  0
LINE
  5
2E7
330
1F
100
AcDbEntity
  8
1-5ﾚｲﾔ
  6
Continuous
 62
     7
370
     9
100
AcDbLine
 10
-410.5742477924645
 20
435.1126346072635
 30
0.0
 11
-407.8187680457394
 21
447.305145889415
 31
0.0
  0
LINE
  5
2E8
330
1F
100
AcDbEntity
  8
1-5ﾚｲﾔ
  6
Continuous
 62
     7
370
     9
100
AcDbLine
 10
-410.5742477924645
 20
435.1126346072635
 30
0.0
 11
-404.7570046138381
 21
446.1765255051677
 31
0.0
  0
TEXT
  5
2E9
330
1F
100
AcDbEntity
  8
1-5ﾚｲﾔ
  6
Continuous
 62
     7
370
     9
100
AcDbText
 10
-329.9108329979148
 20
574.2426113149284
 30
0.0
 40
11.43
  1
メインバー ＮＳⅠ－５０ ＠15
 41
1.160714285714286
  7
ＭＳ ゴシック
100
AcDbText
  0
LINE
  5
2EA
330
1F
100
AcDbEntity
  8
1-5ﾚｲﾔ
  6
Continuous
 62
     7
370
     9
100
AcDbLine
 10
-331.1837273675042
 20
566.1122255067568
 30
0.0
 11
-87.08133753786228
 21
566.1122255067568
 31
0.0
  0
LINE
  5
2EB
330
1F
100
AcDbEntity
  8
1-2ﾚｲﾔ
  6
Continuous
 62
     3
370
     9
100
AcDbLine
 10
315.0439429911408
 20
428.8612281180718
 30
0.0
 11
315.8439430030617
 21
429.378867278228
 31
0.0
  0
LINE
  5
2EC
330
1F
100
AcDbEntity
  8
1-2ﾚｲﾔ
  6
Continuous
 62
     3
370
     9
100
AcDbLine
 10
315.8439430030617
 20
421.6275473929741
 30
0.0
 11
315.0439429911408
 21
422.1451865531304
 31
0.0
  0
LINE
  5
2ED
330
1F
100
AcDbEntity
  8
1-2ﾚｲﾔ
  6
Continuous
 62
     3
370
     9
100
AcDbLine
 10
315.0439429911408
 20
443.8612281180718
 30
0.0
 11
315.8439430030617
 21
444.378867278228
 31
0.0
  0
LINE
  5
2EE
330
1F
100
AcDbEntity
  8
1-2ﾚｲﾔ
  6
Continuous
 62
     3
370
     9
100
AcDbLine
 10
315.0439429911408
 20
439.02084268106
 30
0.0
 11
315.8439430030617
 21
438.503207335601
 31
0.0
  0
LINE
  5
2EF
330
1F
100
AcDbEntity
  8
1-2ﾚｲﾔ
  6
Continuous
 62
     3
370
     9
100
AcDbLine
 10
315.0439429911408
 20
428.8612281180718
 30
0.0
 11
315.0439429911408
 21
422.1451865531304
 31
0.0
  0
LINE
  5
2F0
330
1F
100
AcDbEntity
  8
1-2ﾚｲﾔ
  6
Continuous
 62
     3
370
     9
100
AcDbLine
 10
315.8439430030617
 20
453.503207335601
 30
0.0
 11
315.0439429911408
 21
454.02084268106
 31
0.0
  0
LINE
  5
2F1
330
1F
100
AcDbEntity
  8
1-2ﾚｲﾔ
  6
Continuous
 62
     3
370
     9
100
AcDbLine
 10
315.0439429911408
 20
456.9855681754448
 30
0.0
 11
315.8439430030617
 21
457.503207335601
 31
0.0
  0
LINE
  5
2F2
330
1F
100
AcDbEntity
  8
1-2ﾚｲﾔ
  6
Continuous
 62
     3
370
     9
100
AcDbLine
 10
315.0439429911408
 20
482.1451836921074
 30
0.0
 11
315.8439430030617
 21
481.6275454856254
 31
0.0
  0
LINE
  5
2F3
330
1F
100
AcDbEntity
  8
1-2ﾚｲﾔ
  6
Continuous
 62
     3
370
     9
100
AcDbLine
 10
315.8439430030617
 20
489.3788668013909
 30
0.0
 11
315.0439429911408
 21
488.8612290717461
 31
0.0
  0
LINE
  5
2F4
330
1F
100
AcDbEntity
  8
1-2ﾚｲﾔ
  6
Continuous
 62
     3
370
     9
100
AcDbLine
 10
315.0439429911408
 20
467.1451827384331
 30
0.0
 11
315.8439430030617
 21
466.6275454856254
 31
0.0
  0
LINE
  5
2F5
330
1F
100
AcDbEntity
  8
1-2ﾚｲﾔ
  6
Continuous
 62
     3
370
     9
100
AcDbLine
 10
315.0439429911408
 20
471.9855681754448
 30
0.0
 11
315.8439430030617
 21
472.5032054282524
 31
0.0
  0
LINE
  5
2F6
330
1F
100
AcDbEntity
  8
1-2ﾚｲﾔ
  6
Continuous
 62
     3
370
     9
100
AcDbLine
 10
315.0439429911408
 20
482.1451836921074
 30
0.0
 11
315.0439429911408
 21
488.8612290717461
 31
0.0
  0
LINE
  5
2F7
330
1F
100
AcDbEntity
  8
1-2ﾚｲﾔ
  6
Continuous
 62
     3
370
     9
100
AcDbLine
 10
315.8439430030617
 20
481.6275454856254
 30
0.0
 11
315.8439430030617
 21
472.5032054282524
 31
0.0
  0
LINE
  5
2F8
330
1F
100
AcDbEntity
  8
1-2ﾚｲﾔ
  6
Continuous
 62
     3
370
     9
100
AcDbLine
 10
315.8439430030617
 20
466.6275454856254
 30
0.0
 11
315.8439430030617
 21
457.503207335601
 31
0.0
  0
LINE
  5
2F9
330
1F
100
AcDbEntity
  8
1-2ﾚｲﾔ
  6
Continuous
 62
     3
370
     9
100
AcDbLine
 10
315.8439430030617
 20
453.503207335601
 30
0.0
 11
315.8439430030617
 21
444.378867278228
 31
0.0
  0
LINE
  5
2FA
330
1F
100
AcDbEntity
  8
1-2ﾚｲﾔ
  6
Continuous
 62
     3
370
     9
100
AcDbLine
 10
315.8439430030617
 20
438.503207335601
 30
0.0
 11
315.8439430030617
 21
429.378867278228
 31
0.0
  0
LINE
  5
2FB
330
1F
100
AcDbEntity
  8
1-2ﾚｲﾔ
  6
Continuous
 62
     3
370
     9
100
AcDbLine
 10
315.0439429911408
 20
467.1451827384331
 30
0.0
 11
315.0439429911408
 21
471.9855681754448
 31
0.0
  0
LINE
  5
2FC
330
1F
100
AcDbEntity
  8
1-2ﾚｲﾔ
  6
Continuous
 62
     3
370
     9
100
AcDbLine
 10
315.0439429911408
 20
456.9855681754448
 30
0.0
 11
315.0439429911408
 21
454.02084268106
 31
0.0
  0
LINE
  5
2FD
330
1F
100
AcDbEntity
  8
1-2ﾚｲﾔ
  6
Continuous
 62
     3
370
     9
100
AcDbLine
 10
315.0439429911408
 20
443.8612281180718
 30
0.0
 11
315.0439429911408
 21
439.02084268106
 31
0.0
  0
LINE
  5
2FE
330
1F
100
AcDbEntity
  8
1-2ﾚｲﾔ
  6
Continuous
 62
     3
370
     9
100
AcDbLine
 10
315.0439429911408
 20
368.8612357474663
 30
0.0
 11
315.8439430030617
 21
369.378867278228
 31
0.0
  0
LINE
  5
2FF
330
1F
100
AcDbEntity
  8
1-2ﾚｲﾔ
  6
Continuous
 62
     3
370
     9
100
AcDbLine
 10
315.0439429911408
 20
383.8612281180718
 30
0.0
 11
315.8439430030617
 21
384.378867278228
 31
0.0
  0
LINE
  5
300
330
1F
100
AcDbEntity
  8
1-2ﾚｲﾔ
  6
Continuous
 62
     3
370
     9
100
AcDbLine
 10
315.0439429911408
 20
379.02084268106
 30
0.0
 11
315.8439430030617
 21
378.5032035209038
 31
0.0
  0
LINE
  5
301
330
1F
100
AcDbEntity
  8
1-2ﾚｲﾔ
  6
Continuous
 62
     3
370
     9
100
AcDbLine
 10
315.0439429911408
 20
368.8612357474663
 30
0.0
 11
315.0439429911408
 21
362.1451865531304
 31
0.0
  0
LINE
  5
302
330
1F
100
AcDbEntity
  8
1-2ﾚｲﾔ
  6
Continuous
 62
     3
370
     9
100
AcDbLine
 10
315.8439430030617
 20
393.5032035209038
 30
0.0
 11
315.0439429911408
 21
394.02084268106
 31
0.0
  0
LINE
  5
303
330
1F
100
AcDbEntity
  8
1-2ﾚｲﾔ
  6
Continuous
 62
     3
370
     9
100
AcDbLine
 10
315.0439429911408
 20
396.9855643607475
 30
0.0
 11
315.8439430030617
 21
397.5032035209038
 31
0.0
  0
LINE
  5
304
330
1F
100
AcDbEntity
  8
1-2ﾚｲﾔ
  6
Continuous
 62
     3
370
     9
100
AcDbLine
 10
315.0439429911408
 20
407.1451865531304
 30
0.0
 11
315.8439430030617
 21
406.6275473929741
 31
0.0
  0
LINE
  5
305
330
1F
100
AcDbEntity
  8
1-2ﾚｲﾔ
  6
Continuous
 62
     3
370
     9
100
AcDbLine
 10
315.0439429911408
 20
411.9855643607475
 30
0.0
 11
315.8439430030617
 21
412.5032035209038
 31
0.0
  0
LINE
  5
306
330
1F
100
AcDbEntity
  8
1-2ﾚｲﾔ
  6
Continuous
 62
     3
370
     9
100
AcDbLine
 10
315.8439430030617
 20
406.6275473929741
 30
0.0
 11
315.8439430030617
 21
397.5032035209038
 31
0.0
  0
LINE
  5
307
330
1F
100
AcDbEntity
  8
1-2ﾚｲﾔ
  6
Continuous
 62
     3
370
     9
100
AcDbLine
 10
315.8439430030617
 20
393.5032035209038
 30
0.0
 11
315.8439430030617
 21
384.378867278228
 31
0.0
  0
LINE
  5
308
330
1F
100
AcDbEntity
  8
1-2ﾚｲﾔ
  6
Continuous
 62
     3
370
     9
100
AcDbLine
 10
315.8439430030617
 20
378.5032035209038
 30
0.0
 11
315.8439430030617
 21
369.378867278228
 31
0.0
  0
LINE
  5
309
330
1F
100
AcDbEntity
  8
1-2ﾚｲﾔ
  6
Continuous
 62
     3
370
     9
100
AcDbLine
 10
315.0439429911408
 20
407.1451865531304
 30
0.0
 11
315.0439429911408
 21
411.9855643607475
 31
0.0
  0
LINE
  5
30A
330
1F
100
AcDbEntity
  8
1-2ﾚｲﾔ
  6
Continuous
 62
     3
370
     9
100
AcDbLine
 10
315.0439429911408
 20
396.9855643607475
 30
0.0
 11
315.0439429911408
 21
394.02084268106
 31
0.0
  0
LINE
  5
30B
330
1F
100
AcDbEntity
  8
1-2ﾚｲﾔ
  6
Continuous
 62
     3
370
     9
100
AcDbLine
 10
315.0439429911408
 20
383.8612281180718
 30
0.0
 11
315.0439429911408
 21
379.02084268106
 31
0.0
  0
LINE
  5
30C
330
1F
100
AcDbEntity
  8
1-2ﾚｲﾔ
  6
Continuous
 62
     3
370
     9
100
AcDbLine
 10
315.8439430030617
 20
421.6275473929741
 30
0.0
 11
315.8439430030617
 21
412.5032035209038
 31
0.0
  0
LINE
  5
30D
330
1F
100
AcDbEntity
  8
1-2ﾚｲﾔ
  6
Continuous
 62
     3
370
     9
100
AcDbLine
 10
315.8439430030617
 20
489.3788668013909
 30
0.0
 11
315.8439430030617
 21
497.1125174857475
 31
0.0
  0
LINE
  5
30E
330
1F
100
AcDbEntity
  8
1-2ﾚｲﾔ
  6
Continuous
 62
     3
370
     9
100
AcDbLine
 10
315.8439430030617
 20
361.6275473929741
 30
0.0
 11
315.0439429911408
 21
362.1451865531304
 31
0.0
  0
LINE
  5
30F
330
1F
100
AcDbEntity
  8
1-2ﾚｲﾔ
  6
Continuous
 62
     3
370
     9
100
AcDbLine
 10
315.0439429911408
 20
308.8612357474663
 30
0.0
 11
315.8439430030617
 21
309.3788596488334
 31
0.0
  0
LINE
  5
310
330
1F
100
AcDbEntity
  8
1-2ﾚｲﾔ
  6
Continuous
 62
     3
370
     9
100
AcDbLine
 10
315.0439429911408
 20
323.8612357474663
 30
0.0
 11
315.8439430030617
 21
324.3788596488335
 31
0.0
  0
LINE
  5
311
330
1F
100
AcDbEntity
  8
1-2ﾚｲﾔ
  6
Continuous
 62
     3
370
     9
100
AcDbLine
 10
315.0439429911408
 20
319.02084268106
 30
0.0
 11
315.8439430030617
 21
318.5032035209038
 31
0.0
  0
LINE
  5
312
330
1F
100
AcDbEntity
  8
1-2ﾚｲﾔ
  6
Continuous
 62
     3
370
     9
100
AcDbLine
 10
315.0439429911408
 20
308.8612357474663
 30
0.0
 11
315.0439429911408
 21
302.1451865531303
 31
0.0
  0
LINE
  5
313
330
1F
100
AcDbEntity
  8
1-2ﾚｲﾔ
  6
Continuous
 62
     3
370
     9
100
AcDbLine
 10
315.8439430030617
 20
333.5032035209038
 30
0.0
 11
315.0439429911408
 21
334.02084268106
 31
0.0
  0
LINE
  5
314
330
1F
100
AcDbEntity
  8
1-2ﾚｲﾔ
  6
Continuous
 62
     3
370
     9
100
AcDbLine
 10
315.0439429911408
 20
336.9855643607475
 30
0.0
 11
315.8439430030617
 21
337.5032035209038
 31
0.0
  0
LINE
  5
315
330
1F
100
AcDbEntity
  8
1-2ﾚｲﾔ
  6
Continuous
 62
     3
370
     9
100
AcDbLine
 10
315.0439429911408
 20
347.1451865531304
 30
0.0
 11
315.8439430030617
 21
346.6275473929741
 31
0.0
  0
LINE
  5
316
330
1F
100
AcDbEntity
  8
1-2ﾚｲﾔ
  6
Continuous
 62
     3
370
     9
100
AcDbLine
 10
315.0439429911408
 20
351.9855643607475
 30
0.0
 11
315.8439430030617
 21
352.5032035209038
 31
0.0
  0
LINE
  5
317
330
1F
100
AcDbEntity
  8
1-2ﾚｲﾔ
  6
Continuous
 62
     3
370
     9
100
AcDbLine
 10
315.8439430030617
 20
346.6275473929741
 30
0.0
 11
315.8439430030617
 21
337.5032035209038
 31
0.0
  0
LINE
  5
318
330
1F
100
AcDbEntity
  8
1-2ﾚｲﾔ
  6
Continuous
 62
     3
370
     9
100
AcDbLine
 10
315.8439430030617
 20
333.5032035209038
 30
0.0
 11
315.8439430030617
 21
324.3788596488335
 31
0.0
  0
LINE
  5
319
330
1F
100
AcDbEntity
  8
1-2ﾚｲﾔ
  6
Continuous
 62
     3
370
     9
100
AcDbLine
 10
315.8439430030617
 20
318.5032035209038
 30
0.0
 11
315.8439430030617
 21
309.3788596488334
 31
0.0
  0
LINE
  5
31A
330
1F
100
AcDbEntity
  8
1-2ﾚｲﾔ
  6
Continuous
 62
     3
370
     9
100
AcDbLine
 10
315.0439429911408
 20
347.1451865531304
 30
0.0
 11
315.0439429911408
 21
351.9855643607475
 31
0.0
  0
LINE
  5
31B
330
1F
100
AcDbEntity
  8
1-2ﾚｲﾔ
  6
Continuous
 62
     3
370
     9
100
AcDbLine
 10
315.0439429911408
 20
336.9855643607475
 30
0.0
 11
315.0439429911408
 21
334.02084268106
 31
0.0
  0
LINE
  5
31C
330
1F
100
AcDbEntity
  8
1-2ﾚｲﾔ
  6
Continuous
 62
     3
370
     9
100
AcDbLine
 10
315.0439429911408
 20
323.8612357474663
 30
0.0
 11
315.0439429911408
 21
319.02084268106
 31
0.0
  0
LINE
  5
31D
330
1F
100
AcDbEntity
  8
1-2ﾚｲﾔ
  6
Continuous
 62
     3
370
     9
100
AcDbLine
 10
315.8439430030617
 20
361.6275473929741
 30
0.0
 11
315.8439430030617
 21
352.5032035209038
 31
0.0
  0
LINE
  5
31E
330
1F
100
AcDbEntity
  8
1-2ﾚｲﾔ
  6
Continuous
 62
     3
370
     9
100
AcDbLine
 10
315.8439430030617
 20
301.6275473929741
 30
0.0
 11
315.0439429911408
 21
302.1451865531303
 31
0.0
  0
LINE
  5
31F
330
1F
100
AcDbEntity
  8
1-2ﾚｲﾔ
  6
Continuous
 62
     3
370
     9
100
AcDbLine
 10
315.0439429911408
 20
248.8612357474663
 30
0.0
 11
315.8439430030617
 21
249.3788596488335
 31
0.0
  0
LINE
  5
320
330
1F
100
AcDbEntity
  8
1-2ﾚｲﾔ
  6
Continuous
 62
     3
370
     9
100
AcDbLine
 10
315.0439429911408
 20
263.8612357474663
 30
0.0
 11
315.8439430030617
 21
264.3788596488334
 31
0.0
  0
LINE
  5
321
330
1F
100
AcDbEntity
  8
1-2ﾚｲﾔ
  6
Continuous
 62
     3
370
     9
100
AcDbLine
 10
315.0439429911408
 20
259.02084268106
 30
0.0
 11
315.8439430030617
 21
258.5032035209038
 31
0.0
  0
LINE
  5
322
330
1F
100
AcDbEntity
  8
1-2ﾚｲﾔ
  6
Continuous
 62
     3
370
     9
100
AcDbLine
 10
315.0439429911408
 20
248.8612357474663
 30
0.0
 11
315.0439429911408
 21
242.1451865531303
 31
0.0
  0
LINE
  5
323
330
1F
100
AcDbEntity
  8
1-2ﾚｲﾔ
  6
Continuous
 62
     3
370
     9
100
AcDbLine
 10
315.8439430030617
 20
273.5032035209038
 30
0.0
 11
315.0439429911408
 21
274.02084268106
 31
0.0
  0
LINE
  5
324
330
1F
100
AcDbEntity
  8
1-2ﾚｲﾔ
  6
Continuous
 62
     3
370
     9
100
AcDbLine
 10
315.0439429911408
 20
276.9855643607475
 30
0.0
 11
315.8439430030617
 21
277.5032035209038
 31
0.0
  0
LINE
  5
325
330
1F
100
AcDbEntity
  8
1-2ﾚｲﾔ
  6
Continuous
 62
     3
370
     9
100
AcDbLine
 10
315.0439429911408
 20
287.1451865531303
 30
0.0
 11
315.8439430030617
 21
286.6275473929741
 31
0.0
  0
LINE
  5
326
330
1F
100
AcDbEntity
  8
1-2ﾚｲﾔ
  6
Continuous
 62
     3
370
     9
100
AcDbLine
 10
315.0439429911408
 20
291.9855643607475
 30
0.0
 11
315.8439430030617
 21
292.5032035209038
 31
0.0
  0
LINE
  5
327
330
1F
100
AcDbEntity
  8
1-2ﾚｲﾔ
  6
Continuous
 62
     3
370
     9
100
AcDbLine
 10
315.8439430030617
 20
286.6275473929741
 30
0.0
 11
315.8439430030617
 21
277.5032035209038
 31
0.0
  0
LINE
  5
328
330
1F
100
AcDbEntity
  8
1-2ﾚｲﾔ
  6
Continuous
 62
     3
370
     9
100
AcDbLine
 10
315.8439430030617
 20
273.5032035209038
 30
0.0
 11
315.8439430030617
 21
264.3788596488334
 31
0.0
  0
LINE
  5
329
330
1F
100
AcDbEntity
  8
1-2ﾚｲﾔ
  6
Continuous
 62
     3
370
     9
100
AcDbLine
 10
315.8439430030617
 20
258.5032035209038
 30
0.0
 11
315.8439430030617
 21
249.3788596488335
 31
0.0
  0
LINE
  5
32A
330
1F
100
AcDbEntity
  8
1-2ﾚｲﾔ
  6
Continuous
 62
     3
370
     9
100
AcDbLine
 10
315.0439429911408
 20
287.1451865531303
 30
0.0
 11
315.0439429911408
 21
291.9855643607475
 31
0.0
  0
LINE
  5
32B
330
1F
100
AcDbEntity
  8
1-2ﾚｲﾔ
  6
Continuous
 62
     3
370
     9
100
AcDbLine
 10
315.0439429911408
 20
276.9855643607475
 30
0.0
 11
315.0439429911408
 21
274.02084268106
 31
0.0
  0
LINE
  5
32C
330
1F
100
AcDbEntity
  8
1-2ﾚｲﾔ
  6
Continuous
 62
     3
370
     9
100
AcDbLine
 10
315.0439429911408
 20
263.8612357474663
 30
0.0
 11
315.0439429911408
 21
259.02084268106
 31
0.0
  0
LINE
  5
32D
330
1F
100
AcDbEntity
  8
1-2ﾚｲﾔ
  6
Continuous
 62
     3
370
     9
100
AcDbLine
 10
315.8439430030617
 20
301.6275473929741
 30
0.0
 11
315.8439430030617
 21
292.5032035209038
 31
0.0
  0
LINE
  5
32E
330
1F
100
AcDbEntity
  8
1-2ﾚｲﾔ
  6
Continuous
 62
     3
370
     9
100
AcDbLine
 10
315.8439430030617
 20
241.6275473929741
 30
0.0
 11
315.0439429911408
 21
242.1451865531303
 31
0.0
  0
LINE
  5
32F
330
1F
100
AcDbEntity
  8
1-2ﾚｲﾔ
  6
Continuous
 62
     3
370
     9
100
AcDbLine
 10
315.0439429911408
 20
188.8612357474663
 30
0.0
 11
315.8439430030617
 21
189.3788749076225
 31
0.0
  0
LINE
  5
330
330
1F
100
AcDbEntity
  8
1-2ﾚｲﾔ
  6
Continuous
 62
     3
370
     9
100
AcDbLine
 10
315.0439429911408
 20
203.8612357474663
 30
0.0
 11
315.8439430030617
 21
204.3788749076225
 31
0.0
  0
LINE
  5
331
330
1F
100
AcDbEntity
  8
1-2ﾚｲﾔ
  6
Continuous
 62
     3
370
     9
100
AcDbLine
 10
315.0439429911408
 20
199.02084268106
 30
0.0
 11
315.8439430030617
 21
198.5032035209038
 31
0.0
  0
LINE
  5
332
330
1F
100
AcDbEntity
  8
1-2ﾚｲﾔ
  6
Continuous
 62
     3
370
     9
100
AcDbLine
 10
315.0439429911408
 20
188.8612357474663
 30
0.0
 11
315.0439429911408
 21
182.1451712943413
 31
0.0
  0
LINE
  5
333
330
1F
100
AcDbEntity
  8
1-2ﾚｲﾔ
  6
Continuous
 62
     3
370
     9
100
AcDbLine
 10
315.8439430030617
 20
213.5032035209038
 30
0.0
 11
315.0439429911408
 21
214.02084268106
 31
0.0
  0
LINE
  5
334
330
1F
100
AcDbEntity
  8
1-2ﾚｲﾔ
  6
Continuous
 62
     3
370
     9
100
AcDbLine
 10
315.0439429911408
 20
216.9855643607475
 30
0.0
 11
315.8439430030617
 21
217.5032035209038
 31
0.0
  0
LINE
  5
335
330
1F
100
AcDbEntity
  8
1-2ﾚｲﾔ
  6
Continuous
 62
     3
370
     9
100
AcDbLine
 10
315.0439429911408
 20
227.1451712943413
 30
0.0
 11
315.8439430030617
 21
226.627532134185
 31
0.0
  0
LINE
  5
336
330
1F
100
AcDbEntity
  8
1-2ﾚｲﾔ
  6
Continuous
 62
     3
370
     9
100
AcDbLine
 10
315.0439429911408
 20
231.9855643607475
 30
0.0
 11
315.8439430030617
 21
232.5032035209038
 31
0.0
  0
LINE
  5
337
330
1F
100
AcDbEntity
  8
1-2ﾚｲﾔ
  6
Continuous
 62
     3
370
     9
100
AcDbLine
 10
315.8439430030617
 20
226.627532134185
 30
0.0
 11
315.8439430030617
 21
217.5032035209038
 31
0.0
  0
LINE
  5
338
330
1F
100
AcDbEntity
  8
1-2ﾚｲﾔ
  6
Continuous
 62
     3
370
     9
100
AcDbLine
 10
315.8439430030617
 20
213.5032035209038
 30
0.0
 11
315.8439430030617
 21
204.3788749076225
 31
0.0
  0
LINE
  5
339
330
1F
100
AcDbEntity
  8
1-2ﾚｲﾔ
  6
Continuous
 62
     3
370
     9
100
AcDbLine
 10
315.8439430030617
 20
198.5032035209038
 30
0.0
 11
315.8439430030617
 21
189.3788749076225
 31
0.0
  0
LINE
  5
33A
330
1F
100
AcDbEntity
  8
1-2ﾚｲﾔ
  6
Continuous
 62
     3
370
     9
100
AcDbLine
 10
315.0439429911408
 20
227.1451712943413
 30
0.0
 11
315.0439429911408
 21
231.9855643607475
 31
0.0
  0
LINE
  5
33B
330
1F
100
AcDbEntity
  8
1-2ﾚｲﾔ
  6
Continuous
 62
     3
370
     9
100
AcDbLine
 10
315.0439429911408
 20
216.9855643607475
 30
0.0
 11
315.0439429911408
 21
214.02084268106
 31
0.0
  0
LINE
  5
33C
330
1F
100
AcDbEntity
  8
1-2ﾚｲﾔ
  6
Continuous
 62
     3
370
     9
100
AcDbLine
 10
315.0439429911408
 20
203.8612357474663
 30
0.0
 11
315.0439429911408
 21
199.02084268106
 31
0.0
  0
LINE
  5
33D
330
1F
100
AcDbEntity
  8
1-2ﾚｲﾔ
  6
Continuous
 62
     3
370
     9
100
AcDbLine
 10
315.8439430030617
 20
241.6275473929741
 30
0.0
 11
315.8439430030617
 21
232.5032035209038
 31
0.0
  0
LINE
  5
33E
330
1F
100
AcDbEntity
  8
1-2ﾚｲﾔ
  6
Continuous
 62
     3
370
     9
100
AcDbLine
 10
315.8439430030617
 20
181.627532134185
 30
0.0
 11
315.0439429911408
 21
182.1451712943413
 31
0.0
  0
LINE
  5
33F
330
1F
100
AcDbEntity
  8
1-2ﾚｲﾔ
  6
Continuous
 62
     3
370
     9
100
AcDbLine
 10
315.0439429911408
 20
128.8612357474663
 30
0.0
 11
315.8439430030617
 21
129.3788749076225
 31
0.0
  0
LINE
  5
340
330
1F
100
AcDbEntity
  8
1-2ﾚｲﾔ
  6
Continuous
 62
     3
370
     9
100
AcDbLine
 10
315.0439429911408
 20
143.8612357474663
 30
0.0
 11
315.8439430030617
 21
144.3788749076225
 31
0.0
  0
LINE
  5
341
330
1F
100
AcDbEntity
  8
1-2ﾚｲﾔ
  6
Continuous
 62
     3
370
     9
100
AcDbLine
 10
315.0439429911408
 20
139.02084268106
 30
0.0
 11
315.8439430030617
 21
138.5032035209038
 31
0.0
  0
LINE
  5
342
330
1F
100
AcDbEntity
  8
1-2ﾚｲﾔ
  6
Continuous
 62
     3
370
     9
100
AcDbLine
 10
315.0439429911408
 20
128.8612357474663
 30
0.0
 11
315.0439429911408
 21
122.1451712943413
 31
0.0
  0
LINE
  5
343
330
1F
100
AcDbEntity
  8
1-2ﾚｲﾔ
  6
Continuous
 62
     3
370
     9
100
AcDbLine
 10
315.8439430030617
 20
153.5032035209038
 30
0.0
 11
315.0439429911408
 21
154.02084268106
 31
0.0
  0
LINE
  5
344
330
1F
100
AcDbEntity
  8
1-2ﾚｲﾔ
  6
Continuous
 62
     3
370
     9
100
AcDbLine
 10
315.0439429911408
 20
156.9855643607475
 30
0.0
 11
315.8439430030617
 21
157.5032035209038
 31
0.0
  0
LINE
  5
345
330
1F
100
AcDbEntity
  8
1-2ﾚｲﾔ
  6
Continuous
 62
     3
370
     9
100
AcDbLine
 10
315.0439429911408
 20
167.1451712943413
 30
0.0
 11
315.8439430030617
 21
166.6275321341851
 31
0.0
  0
LINE
  5
346
330
1F
100
AcDbEntity
  8
1-2ﾚｲﾔ
  6
Continuous
 62
     3
370
     9
100
AcDbLine
 10
315.0439429911408
 20
171.9855643607475
 30
0.0
 11
315.8439430030617
 21
172.5032035209038
 31
0.0
  0
LINE
  5
347
330
1F
100
AcDbEntity
  8
1-2ﾚｲﾔ
  6
Continuous
 62
     3
370
     9
100
AcDbLine
 10
315.8439430030617
 20
166.6275321341851
 30
0.0
 11
315.8439430030617
 21
157.5032035209038
 31
0.0
  0
LINE
  5
348
330
1F
100
AcDbEntity
  8
1-2ﾚｲﾔ
  6
Continuous
 62
     3
370
     9
100
AcDbLine
 10
315.8439430030617
 20
153.5032035209038
 30
0.0
 11
315.8439430030617
 21
144.3788749076225
 31
0.0
  0
LINE
  5
349
330
1F
100
AcDbEntity
  8
1-2ﾚｲﾔ
  6
Continuous
 62
     3
370
     9
100
AcDbLine
 10
315.8439430030617
 20
138.5032035209038
 30
0.0
 11
315.8439430030617
 21
129.3788749076225
 31
0.0
  0
LINE
  5
34A
330
1F
100
AcDbEntity
  8
1-2ﾚｲﾔ
  6
Continuous
 62
     3
370
     9
100
AcDbLine
 10
315.0439429911408
 20
167.1451712943413
 30
0.0
 11
315.0439429911408
 21
171.9855643607475
 31
0.0
  0
LINE
  5
34B
330
1F
100
AcDbEntity
  8
1-2ﾚｲﾔ
  6
Continuous
 62
     3
370
     9
100
AcDbLine
 10
315.0439429911408
 20
156.9855643607475
 30
0.0
 11
315.0439429911408
 21
154.02084268106
 31
0.0
  0
LINE
  5
34C
330
1F
100
AcDbEntity
  8
1-2ﾚｲﾔ
  6
Continuous
 62
     3
370
     9
100
AcDbLine
 10
315.0439429911408
 20
143.8612357474663
 30
0.0
 11
315.0439429911408
 21
139.02084268106
 31
0.0
  0
LINE
  5
34D
330
1F
100
AcDbEntity
  8
1-2ﾚｲﾔ
  6
Continuous
 62
     3
370
     9
100
AcDbLine
 10
315.8439430030617
 20
181.627532134185
 30
0.0
 11
315.8439430030617
 21
172.5032035209038
 31
0.0
  0
LINE
  5
34E
330
1F
100
AcDbEntity
  8
1-2ﾚｲﾔ
  6
Continuous
 62
     3
370
     9
100
AcDbLine
 10
315.8439430030617
 20
121.627532134185
 30
0.0
 11
315.0439429911408
 21
122.1451712943413
 31
0.0
  0
LINE
  5
34F
330
1F
100
AcDbEntity
  8
1-2ﾚｲﾔ
  6
Continuous
 62
     3
370
     9
100
AcDbLine
 10
315.0439429911408
 20
68.86123574746627
 30
0.0
 11
315.8439430030617
 21
69.3788749076225
 31
0.0
  0
LINE
  5
350
330
1F
100
AcDbEntity
  8
1-2ﾚｲﾔ
  6
Continuous
 62
     3
370
     9
100
AcDbLine
 10
315.0439429911408
 20
83.86123574746627
 30
0.0
 11
315.8439430030617
 21
84.3788749076225
 31
0.0
  0
LINE
  5
351
330
1F
100
AcDbEntity
  8
1-2ﾚｲﾔ
  6
Continuous
 62
     3
370
     9
100
AcDbLine
 10
315.0439429911408
 20
79.02084268106002
 30
0.0
 11
315.8439430030617
 21
78.50320352090378
 31
0.0
  0
LINE
  5
352
330
1F
100
AcDbEntity
  8
1-2ﾚｲﾔ
  6
Continuous
 62
     3
370
     9
100
AcDbLine
 10
315.0439429911408
 20
68.86123574746627
 30
0.0
 11
315.0439429911408
 21
62.14517129434128
 31
0.0
  0
LINE
  5
353
330
1F
100
AcDbEntity
  8
1-2ﾚｲﾔ
  6
Continuous
 62
     3
370
     9
100
AcDbLine
 10
315.8439430030617
 20
93.50320352090378
 30
0.0
 11
315.0439429911408
 21
94.02084268106002
 31
0.0
  0
LINE
  5
354
330
1F
100
AcDbEntity
  8
1-2ﾚｲﾔ
  6
Continuous
 62
     3
370
     9
100
AcDbLine
 10
315.0439429911408
 20
96.98556436074753
 30
0.0
 11
315.8439430030617
 21
97.50320352090377
 31
0.0
  0
LINE
  5
355
330
1F
100
AcDbEntity
  8
1-2ﾚｲﾔ
  6
Continuous
 62
     3
370
     9
100
AcDbLine
 10
315.0439429911408
 20
107.1451712943413
 30
0.0
 11
315.8439430030617
 21
106.627532134185
 31
0.0
  0
LINE
  5
356
330
1F
100
AcDbEntity
  8
1-2ﾚｲﾔ
  6
Continuous
 62
     3
370
     9
100
AcDbLine
 10
315.0439429911408
 20
111.9855643607475
 30
0.0
 11
315.8439430030617
 21
112.5032035209038
 31
0.0
  0
LINE
  5
357
330
1F
100
AcDbEntity
  8
1-2ﾚｲﾔ
  6
Continuous
 62
     3
370
     9
100
AcDbLine
 10
315.8439430030617
 20
106.627532134185
 30
0.0
 11
315.8439430030617
 21
97.50320352090377
 31
0.0
  0
LINE
  5
358
330
1F
100
AcDbEntity
  8
1-2ﾚｲﾔ
  6
Continuous
 62
     3
370
     9
100
AcDbLine
 10
315.8439430030617
 20
93.50320352090378
 30
0.0
 11
315.8439430030617
 21
84.3788749076225
 31
0.0
  0
LINE
  5
359
330
1F
100
AcDbEntity
  8
1-2ﾚｲﾔ
  6
Continuous
 62
     3
370
     9
100
AcDbLine
 10
315.8439430030617
 20
78.50320352090378
 30
0.0
 11
315.8439430030617
 21
69.3788749076225
 31
0.0
  0
LINE
  5
35A
330
1F
100
AcDbEntity
  8
1-2ﾚｲﾔ
  6
Continuous
 62
     3
370
     9
100
AcDbLine
 10
315.0439429911408
 20
107.1451712943413
 30
0.0
 11
315.0439429911408
 21
111.9855643607475
 31
0.0
  0
LINE
  5
35B
330
1F
100
AcDbEntity
  8
1-2ﾚｲﾔ
  6
Continuous
 62
     3
370
     9
100
AcDbLine
 10
315.0439429911408
 20
96.98556436074753
 30
0.0
 11
315.0439429911408
 21
94.02084268106002
 31
0.0
  0
LINE
  5
35C
330
1F
100
AcDbEntity
  8
1-2ﾚｲﾔ
  6
Continuous
 62
     3
370
     9
100
AcDbLine
 10
315.0439429911408
 20
83.86123574746627
 30
0.0
 11
315.0439429911408
 21
79.02084268106002
 31
0.0
  0
LINE
  5
35D
330
1F
100
AcDbEntity
  8
1-2ﾚｲﾔ
  6
Continuous
 62
     3
370
     9
100
AcDbLine
 10
315.8439430030617
 20
121.627532134185
 30
0.0
 11
315.8439430030617
 21
112.5032035209038
 31
0.0
  0
LINE
  5
35E
330
1F
100
AcDbEntity
  8
1-2ﾚｲﾔ
  6
Continuous
 62
     3
370
     9
100
AcDbLine
 10
315.8439430030617
 20
61.62753213418497
 30
0.0
 11
315.0439429911408
 21
62.14517129434128
 31
0.0
  0
LINE
  5
35F
330
1F
100
AcDbEntity
  8
1-2ﾚｲﾔ
  6
Continuous
 62
     3
370
     9
100
AcDbLine
 10
315.0439429911408
 20
8.861235747466267
 30
0.0
 11
315.8439430030617
 21
9.378874907622503
 31
0.0
  0
LINE
  5
360
330
1F
100
AcDbEntity
  8
1-2ﾚｲﾔ
  6
Continuous
 62
     3
370
     9
100
AcDbLine
 10
315.0439429911408
 20
23.86123574746627
 30
0.0
 11
315.8439430030617
 21
24.3788749076225
 31
0.0
  0
LINE
  5
361
330
1F
100
AcDbEntity
  8
1-2ﾚｲﾔ
  6
Continuous
 62
     3
370
     9
100
AcDbLine
 10
315.0439429911408
 20
19.02084268106002
 30
0.0
 11
315.8439430030617
 21
18.50320352090378
 31
0.0
  0
LINE
  5
362
330
1F
100
AcDbEntity
  8
1-2ﾚｲﾔ
  6
Continuous
 62
     3
370
     9
100
AcDbLine
 10
315.0439429911408
 20
8.861235747466267
 30
0.0
 11
315.0439429911408
 21
2.145171294341282
 31
0.0
  0
LINE
  5
363
330
1F
100
AcDbEntity
  8
1-2ﾚｲﾔ
  6
Continuous
 62
     3
370
     9
100
AcDbLine
 10
315.8439430030617
 20
33.50320352090378
 30
0.0
 11
315.0439429911408
 21
34.02084268106002
 31
0.0
  0
LINE
  5
364
330
1F
100
AcDbEntity
  8
1-2ﾚｲﾔ
  6
Continuous
 62
     3
370
     9
100
AcDbLine
 10
315.0439429911408
 20
36.98556436074753
 30
0.0
 11
315.8439430030617
 21
37.50320352090377
 31
0.0
  0
LINE
  5
365
330
1F
100
AcDbEntity
  8
1-2ﾚｲﾔ
  6
Continuous
 62
     3
370
     9
100
AcDbLine
 10
315.0439429911408
 20
47.14517129434128
 30
0.0
 11
315.8439430030617
 21
46.62753213418497
 31
0.0
  0
LINE
  5
366
330
1F
100
AcDbEntity
  8
1-2ﾚｲﾔ
  6
Continuous
 62
     3
370
     9
100
AcDbLine
 10
315.0439429911408
 20
51.98556436074753
 30
0.0
 11
315.8439430030617
 21
52.50320352090377
 31
0.0
  0
LINE
  5
367
330
1F
100
AcDbEntity
  8
1-2ﾚｲﾔ
  6
Continuous
 62
     3
370
     9
100
AcDbLine
 10
315.8439430030617
 20
46.62753213418497
 30
0.0
 11
315.8439430030617
 21
37.50320352090377
 31
0.0
  0
LINE
  5
368
330
1F
100
AcDbEntity
  8
1-2ﾚｲﾔ
  6
Continuous
 62
     3
370
     9
100
AcDbLine
 10
315.8439430030617
 20
33.50320352090378
 30
0.0
 11
315.8439430030617
 21
24.3788749076225
 31
0.0
  0
LINE
  5
369
330
1F
100
AcDbEntity
  8
1-2ﾚｲﾔ
  6
Continuous
 62
     3
370
     9
100
AcDbLine
 10
315.8439430030617
 20
18.50320352090378
 30
0.0
 11
315.8439430030617
 21
9.378874907622503
 31
0.0
  0
LINE
  5
36A
330
1F
100
AcDbEntity
  8
1-2ﾚｲﾔ
  6
Continuous
 62
     3
370
     9
100
AcDbLine
 10
315.0439429911408
 20
47.14517129434128
 30
0.0
 11
315.0439429911408
 21
51.98556436074753
 31
0.0
  0
LINE
  5
36B
330
1F
100
AcDbEntity
  8
1-2ﾚｲﾔ
  6
Continuous
 62
     3
370
     9
100
AcDbLine
 10
315.0439429911408
 20
36.98556436074753
 30
0.0
 11
315.0439429911408
 21
34.02084268106002
 31
0.0
  0
LINE
  5
36C
330
1F
100
AcDbEntity
  8
1-2ﾚｲﾔ
  6
Continuous
 62
     3
370
     9
100
AcDbLine
 10
315.0439429911408
 20
23.86123574746627
 30
0.0
 11
315.0439429911408
 21
19.02084268106002
 31
0.0
  0
LINE
  5
36D
330
1F
100
AcDbEntity
  8
1-2ﾚｲﾔ
  6
Continuous
 62
     3
370
     9
100
AcDbLine
 10
315.8439430030617
 20
61.62753213418497
 30
0.0
 11
315.8439430030617
 21
52.50320352090377
 31
0.0
  0
LINE
  5
36E
330
1F
100
AcDbEntity
  8
1-2ﾚｲﾔ
  6
Continuous
 62
     3
370
     9
100
AcDbLine
 10
315.8439430030617
 20
1.627532134184975
 30
0.0
 11
315.0439429911408
 21
2.145171294341282
 31
0.0
  0
LINE
  5
36F
330
1F
100
AcDbEntity
  8
1-2ﾚｲﾔ
  6
Continuous
 62
     3
370
     9
100
AcDbLine
 10
315.0439429911408
 20
-51.13876425253373
 30
0.0
 11
315.8439430030617
 21
-50.6211250923775
 31
0.0
  0
LINE
  5
370
330
1F
100
AcDbEntity
  8
1-2ﾚｲﾔ
  6
Continuous
 62
     3
370
     9
100
AcDbLine
 10
315.0439429911408
 20
-36.13876425253373
 30
0.0
 11
315.8439430030617
 21
-35.6211250923775
 31
0.0
  0
LINE
  5
371
330
1F
100
AcDbEntity
  8
1-2ﾚｲﾔ
  6
Continuous
 62
     3
370
     9
100
AcDbLine
 10
315.0439429911408
 20
-40.97915731893998
 30
0.0
 11
315.8439430030617
 21
-41.49679647909622
 31
0.0
  0
LINE
  5
372
330
1F
100
AcDbEntity
  8
1-2ﾚｲﾔ
  6
Continuous
 62
     3
370
     9
100
AcDbLine
 10
315.0439429911408
 20
-51.13876425253373
 30
0.0
 11
315.0439429911408
 21
-57.85482870565872
 31
0.0
  0
LINE
  5
373
330
1F
100
AcDbEntity
  8
1-2ﾚｲﾔ
  6
Continuous
 62
     3
370
     9
100
AcDbLine
 10
315.8439430030617
 20
-26.49679647909622
 30
0.0
 11
315.0439429911408
 21
-25.97915731893998
 31
0.0
  0
LINE
  5
374
330
1F
100
AcDbEntity
  8
1-2ﾚｲﾔ
  6
Continuous
 62
     3
370
     9
100
AcDbLine
 10
315.0439429911408
 20
-23.01443563925247
 30
0.0
 11
315.8439430030617
 21
-22.49679647909623
 31
0.0
  0
LINE
  5
375
330
1F
100
AcDbEntity
  8
1-2ﾚｲﾔ
  6
Continuous
 62
     3
370
     9
100
AcDbLine
 10
315.0439429911408
 20
-12.85482870565872
 30
0.0
 11
315.8439430030617
 21
-13.37246786581503
 31
0.0
  0
LINE
  5
376
330
1F
100
AcDbEntity
  8
1-2ﾚｲﾔ
  6
Continuous
 62
     3
370
     9
100
AcDbLine
 10
315.0439429911408
 20
-8.014435639252468
 30
0.0
 11
315.8439430030617
 21
-7.496796479096233
 31
0.0
  0
LINE
  5
377
330
1F
100
AcDbEntity
  8
1-2ﾚｲﾔ
  6
Continuous
 62
     3
370
     9
100
AcDbLine
 10
315.8439430030617
 20
-13.37246786581503
 30
0.0
 11
315.8439430030617
 21
-22.49679647909623
 31
0.0
  0
LINE
  5
378
330
1F
100
AcDbEntity
  8
1-2ﾚｲﾔ
  6
Continuous
 62
     3
370
     9
100
AcDbLine
 10
315.8439430030617
 20
-26.49679647909622
 30
0.0
 11
315.8439430030617
 21
-35.6211250923775
 31
0.0
  0
LINE
  5
379
330
1F
100
AcDbEntity
  8
1-2ﾚｲﾔ
  6
Continuous
 62
     3
370
     9
100
AcDbLine
 10
315.8439430030617
 20
-41.49679647909622
 30
0.0
 11
315.8439430030617
 21
-50.6211250923775
 31
0.0
  0
LINE
  5
37A
330
1F
100
AcDbEntity
  8
1-2ﾚｲﾔ
  6
Continuous
 62
     3
370
     9
100
AcDbLine
 10
315.0439429911408
 20
-12.85482870565872
 30
0.0
 11
315.0439429911408
 21
-8.014435639252468
 31
0.0
  0
LINE
  5
37B
330
1F
100
AcDbEntity
  8
1-2ﾚｲﾔ
  6
Continuous
 62
     3
370
     9
100
AcDbLine
 10
315.0439429911408
 20
-23.01443563925247
 30
0.0
 11
315.0439429911408
 21
-25.97915731893998
 31
0.0
  0
LINE
  5
37C
330
1F
100
AcDbEntity
  8
1-2ﾚｲﾔ
  6
Continuous
 62
     3
370
     9
100
AcDbLine
 10
315.0439429911408
 20
-36.13876425253373
 30
0.0
 11
315.0439429911408
 21
-40.97915731893998
 31
0.0
  0
LINE
  5
37D
330
1F
100
AcDbEntity
  8
1-2ﾚｲﾔ
  6
Continuous
 62
     3
370
     9
100
AcDbLine
 10
315.8439430030617
 20
1.627532134184975
 30
0.0
 11
315.8439430030617
 21
-7.496796479096233
 31
0.0
  0
LINE
  5
37E
330
1F
100
AcDbEntity
  8
1-2ﾚｲﾔ
  6
Continuous
 62
     3
370
     9
100
AcDbLine
 10
315.8439430030617
 20
-58.37246786581503
 30
0.0
 11
315.0439429911408
 21
-57.85482870565872
 31
0.0
  0
LINE
  5
37F
330
1F
100
AcDbEntity
  8
1-2ﾚｲﾔ
  6
Continuous
 62
     3
370
     9
100
AcDbLine
 10
315.0439429911408
 20
-111.1387642525337
 30
0.0
 11
315.8439430030617
 21
-110.6211250923775
 31
0.0
  0
LINE
  5
380
330
1F
100
AcDbEntity
  8
1-2ﾚｲﾔ
  6
Continuous
 62
     3
370
     9
100
AcDbLine
 10
315.0439429911408
 20
-96.13876425253373
 30
0.0
 11
315.8439430030617
 21
-95.6211250923775
 31
0.0
  0
LINE
  5
381
330
1F
100
AcDbEntity
  8
1-2ﾚｲﾔ
  6
Continuous
 62
     3
370
     9
100
AcDbLine
 10
315.0439429911408
 20
-100.97915731894
 30
0.0
 11
315.8439430030617
 21
-101.4967964790962
 31
0.0
  0
LINE
  5
382
330
1F
100
AcDbEntity
  8
1-2ﾚｲﾔ
  6
Continuous
 62
     3
370
     9
100
AcDbLine
 10
315.0439429911408
 20
-111.1387642525337
 30
0.0
 11
315.0439429911408
 21
-117.8548287056587
 31
0.0
  0
LINE
  5
383
330
1F
100
AcDbEntity
  8
1-2ﾚｲﾔ
  6
Continuous
 62
     3
370
     9
100
AcDbLine
 10
315.8439430030617
 20
-86.49679647909622
 30
0.0
 11
315.0439429911408
 21
-85.97915731893998
 31
0.0
  0
LINE
  5
384
330
1F
100
AcDbEntity
  8
1-2ﾚｲﾔ
  6
Continuous
 62
     3
370
     9
100
AcDbLine
 10
315.0439429911408
 20
-83.01443563925247
 30
0.0
 11
315.8439430030617
 21
-82.49679647909623
 31
0.0
  0
LINE
  5
385
330
1F
100
AcDbEntity
  8
1-2ﾚｲﾔ
  6
Continuous
 62
     3
370
     9
100
AcDbLine
 10
315.0439429911408
 20
-72.85482870565872
 30
0.0
 11
315.8439430030617
 21
-73.37246786581503
 31
0.0
  0
LINE
  5
386
330
1F
100
AcDbEntity
  8
1-2ﾚｲﾔ
  6
Continuous
 62
     3
370
     9
100
AcDbLine
 10
315.0439429911408
 20
-68.01443563925247
 30
0.0
 11
315.8439430030617
 21
-67.49679647909623
 31
0.0
  0
LINE
  5
387
330
1F
100
AcDbEntity
  8
1-2ﾚｲﾔ
  6
Continuous
 62
     3
370
     9
100
AcDbLine
 10
315.8439430030617
 20
-73.37246786581503
 30
0.0
 11
315.8439430030617
 21
-82.49679647909623
 31
0.0
  0
LINE
  5
388
330
1F
100
AcDbEntity
  8
1-2ﾚｲﾔ
  6
Continuous
 62
     3
370
     9
100
AcDbLine
 10
315.8439430030617
 20
-86.49679647909622
 30
0.0
 11
315.8439430030617
 21
-95.6211250923775
 31
0.0
  0
LINE
  5
389
330
1F
100
AcDbEntity
  8
1-2ﾚｲﾔ
  6
Continuous
 62
     3
370
     9
100
AcDbLine
 10
315.8439430030617
 20
-101.4967964790962
 30
0.0
 11
315.8439430030617
 21
-110.6211250923775
 31
0.0
  0
LINE
  5
38A
330
1F
100
AcDbEntity
  8
1-2ﾚｲﾔ
  6
Continuous
 62
     3
370
     9
100
AcDbLine
 10
315.0439429911408
 20
-72.85482870565872
 30
0.0
 11
315.0439429911408
 21
-68.01443563925247
 31
0.0
  0
LINE
  5
38B
330
1F
100
AcDbEntity
  8
1-2ﾚｲﾔ
  6
Continuous
 62
     3
370
     9
100
AcDbLine
 10
315.0439429911408
 20
-83.01443563925247
 30
0.0
 11
315.0439429911408
 21
-85.97915731893998
 31
0.0
  0
LINE
  5
38C
330
1F
100
AcDbEntity
  8
1-2ﾚｲﾔ
  6
Continuous
 62
     3
370
     9
100
AcDbLine
 10
315.0439429911408
 20
-96.13876425253373
 30
0.0
 11
315.0439429911408
 21
-100.97915731894
 31
0.0
  0
LINE
  5
38D
330
1F
100
AcDbEntity
  8
1-2ﾚｲﾔ
  6
Continuous
 62
     3
370
     9
100
AcDbLine
 10
315.8439430030617
 20
-58.37246786581503
 30
0.0
 11
315.8439430030617
 21
-67.49679647909623
 31
0.0
  0
LINE
  5
38E
330
1F
100
AcDbEntity
  8
1-2ﾚｲﾔ
  6
Continuous
 62
     3
370
     9
100
AcDbLine
 10
315.8439430030617
 20
-118.372467865815
 30
0.0
 11
315.0439429911408
 21
-117.8548287056587
 31
0.0
  0
LINE
  5
38F
330
1F
100
AcDbEntity
  8
1-2ﾚｲﾔ
  6
Continuous
 62
     3
370
     9
100
AcDbLine
 10
315.0439429911408
 20
-128.0144356392525
 30
0.0
 11
315.8439430030617
 21
-127.4967964790962
 31
0.0
  0
LINE
  5
390
330
1F
100
AcDbEntity
  8
1-2ﾚｲﾔ
  6
Continuous
 62
     3
370
     9
100
AcDbLine
 10
315.8439430030617
 20
-118.372467865815
 30
0.0
 11
315.8439430030617
 21
-127.4967964790962
 31
0.0
  0
LINE
  5
391
330
1F
100
AcDbEntity
  8
1-2ﾚｲﾔ
  6
Continuous
 62
     3
370
     9
100
AcDbLine
 10
315.0439429911408
 20
-128.387455295872
 30
0.0
 11
365.8438605231208
 21
-128.387455295872
 31
0.0
  0
LINE
  5
392
330
1F
100
AcDbEntity
  8
1-2ﾚｲﾔ
  6
Continuous
 62
     3
370
     9
100
AcDbLine
 10
315.0439429911408
 20
-128.387455295872
 30
0.0
 11
315.0439429911408
 21
-128.0144356392525
 31
0.0
  0
LINE
  5
393
330
1F
100
AcDbEntity
  8
1-2ﾚｲﾔ
  6
Continuous
 62
     3
370
     9
100
AcDbLine
 10
315.8439430030617
 20
-132.8873959103146
 30
0.0
 11
315.8439430030617
 21
-128.387455295872
 31
0.0
  0
LINE
  5
394
330
1F
100
AcDbEntity
  8
D-4
  6
Continuous
 62
     7
370
     9
100
AcDbLine
 10
-157.9647278774175
 20
-330.5990188896811
 30
0.0
 11
-170.3577828395757
 21
-328.9674537956869
 31
0.0
  0
LINE
  5
395
330
1F
100
AcDbEntity
  8
D-4
  6
Continuous
 62
     7
370
     9
100
AcDbLine
 10
-157.9647278774175
 20
-330.5990188896811
 30
0.0
 11
-170.3577828395757
 21
-332.2306030571615
 31
0.0
  0
LINE
  5
396
330
1F
100
AcDbEntity
  8
D-4
  6
Continuous
 62
     7
370
     9
100
AcDbLine
 10
-157.9647278774175
 20
-329.0990227043783
 30
0.0
 11
-157.9647278774175
 21
-343.0990188896811
 31
0.0
  0
LINE
  5
397
330
1F
100
AcDbEntity
  8
D-4
  6
Continuous
 62
     7
370
     9
100
AcDbLine
 10
-157.9647278774175
 20
-330.5990188896811
 30
0.0
 11
-172.9647278774175
 21
-330.5990188896811
 31
0.0
  0
LINE
  5
398
330
1F
100
AcDbEntity
  8
D-4
  6
Continuous
 62
     7
370
     9
100
AcDbLine
 10
-92.9648041713628
 20
-481.8489425957358
 30
0.0
 11
-94.59638833884327
 21
-469.4558876335776
 31
0.0
  0
LINE
  5
399
330
1F
100
AcDbEntity
  8
D-4
  6
Continuous
 62
     7
370
     9
100
AcDbLine
 10
-92.9648041713628
 20
-481.8489425957358
 30
0.0
 11
-91.33322000388233
 21
-469.4558876335776
 31
0.0
  0
LINE
  5
39A
330
1F
100
AcDbEntity
  8
D-4
  6
Continuous
 62
     7
370
     9
100
AcDbLine
 10
-91.46478891257374
 20
-481.8489425957358
 30
0.0
 11
-130.4648041713628
 21
-481.8489425957358
 31
0.0
  0
LINE
  5
39B
330
1F
100
AcDbEntity
  8
D-4
  6
Continuous
 62
     7
370
     9
100
AcDbLine
 10
-140.4648041713628
 20
-330.5990188896811
 30
0.0
 11
-128.0717301357183
 21
-328.9674537956869
 31
0.0
  0
LINE
  5
39C
330
1F
100
AcDbEntity
  8
D-4
  6
Continuous
 62
     7
370
     9
100
AcDbLine
 10
-140.4648041713628
 20
-330.5990188896811
 30
0.0
 11
-128.0717301357183
 21
-332.2306030571615
 31
0.0
  0
LINE
  5
39D
330
1F
100
AcDbEntity
  8
D-4
  6
Continuous
 62
     7
370
     9
100
AcDbLine
 10
-140.4648041713628
 20
-329.0990227043783
 30
0.0
 11
-140.4648041713628
 21
-343.0990188896811
 31
0.0
  0
LINE
  5
39E
330
1F
100
AcDbEntity
  8
D-4
  6
Continuous
 62
     7
370
     9
100
AcDbLine
 10
-140.4648041713628
 20
-330.5990188896811
 30
0.0
 11
-125.4648041713628
 21
-330.5990188896811
 31
0.0
  0
LINE
  5
39F
330
1F
100
AcDbEntity
  8
D-4
  6
Continuous
 62
     7
370
     9
100
AcDbLine
 10
-92.9648041713628
 20
-356.8487327873862
 30
0.0
 11
-94.59638833884327
 21
-369.2417877495444
 31
0.0
  0
LINE
  5
3A0
330
1F
100
AcDbEntity
  8
D-4
  6
Continuous
 62
     7
370
     9
100
AcDbLine
 10
-92.9648041713628
 20
-356.8487327873862
 30
0.0
 11
-91.33322000388233
 21
-369.2417877495444
 31
0.0
  0
LINE
  5
3A1
330
1F
100
AcDbEntity
  8
D-4
  6
Continuous
 62
     7
370
     9
100
AcDbLine
 10
-91.46478891257374
 20
-356.8487327873862
 30
0.0
 11
-130.4648041713628
 21
-356.8487327873862
 31
0.0
  0
LINE
  5
3A2
330
1F
100
AcDbEntity
  8
D-4
  6
Continuous
 62
     7
370
     9
100
AcDbLine
 10
-92.9648041713628
 20
-481.8489425957358
 30
0.0
 11
-92.9648041713628
 21
-356.8487327873862
 31
0.0
  0
LINE
  5
3A3
330
1F
100
AcDbEntity
  8
D-4
  6
Continuous
 62
     7
370
     9
100
AcDbLine
 10
-140.4648041713628
 20
-330.5990188896811
 30
0.0
 11
-157.9647278774175
 21
-330.5990188896811
 31
0.0
  0
LINE
  5
3A4
330
1F
100
AcDbEntity
  8
D-4
  6
Continuous
 62
     7
370
     9
100
AcDbLine
 10
-154.2148423183355
 20
-431.8487137138998
 30
0.0
 11
-167.8578972804937
 21
-430.2171390831625
 31
0.0
  0
LINE
  5
3A5
330
1F
100
AcDbEntity
  8
D-4
  6
Continuous
 62
     7
370
     9
100
AcDbLine
 10
-154.2148423183355
 20
-431.8487137138998
 30
0.0
 11
-167.8578972804937
 21
-433.4802978813803
 31
0.0
  0
LINE
  5
3A6
330
1F
100
AcDbEntity
  8
D-4
  6
Continuous
 62
     7
370
     9
100
AcDbLine
 10
-154.2148423183355
 20
-431.8487137138998
 30
0.0
 11
-170.4648423183355
 21
-431.8487137138998
 31
0.0
  0
LINE
  5
3A7
330
1F
100
AcDbEntity
  8
D-4
  6
Continuous
 62
     7
370
     9
100
AcDbLine
 10
-144.2149186122808
 20
-431.8487137138998
 30
0.0
 11
-130.5718827236089
 21
-430.2171390831625
 31
0.0
  0
LINE
  5
3A8
330
1F
100
AcDbEntity
  8
D-4
  6
Continuous
 62
     7
370
     9
100
AcDbLine
 10
-144.2149186122808
 20
-431.8487137138998
 30
0.0
 11
-130.5718827236089
 21
-433.4802978813803
 31
0.0
  0
LINE
  5
3A9
330
1F
100
AcDbEntity
  8
D-4
  6
Continuous
 62
     7
370
     9
100
AcDbLine
 10
-144.2149186122808
 20
-431.8487137138998
 30
0.0
 11
-122.9649186122808
 21
-431.8487137138998
 31
0.0
  0
LINE
  5
3AA
330
1F
100
AcDbEntity
  8
D-4
  6
Continuous
 62
     7
370
     9
100
AcDbLine
 10
-144.2149186122808
 20
-431.8487137138998
 30
0.0
 11
-154.2148423183355
 21
-431.8487137138998
 31
0.0
  0
LINE
  5
3AB
330
1F
100
AcDbEntity
  8
D-4
  6
Continuous
 62
     7
370
     9
100
AcDbLine
 10
-430.4647231090459
 20
-292.348744231478
 30
0.0
 11
-432.0963025081548
 21
-304.7418182671225
 31
0.0
  0
LINE
  5
3AC
330
1F
100
AcDbEntity
  8
D-4
  6
Continuous
 62
     7
370
     9
100
AcDbLine
 10
-430.4647231090459
 20
-292.348744231478
 30
0.0
 11
-428.833143709937
 21
-304.7418182671225
 31
0.0
  0
LINE
  5
3AD
330
1F
100
AcDbEntity
  8
D-4
  6
Continuous
 62
     7
370
     9
100
AcDbLine
 10
-431.9647240627202
 20
-292.348744231478
 30
0.0
 11
-417.9647231090459
 21
-292.348744231478
 31
0.0
  0
LINE
  5
3AE
330
1F
100
AcDbEntity
  8
D-4
  6
Continuous
 62
     7
370
     9
100
AcDbLine
 10
-430.4647231090459
 20
-292.348744231478
 30
0.0
 11
-430.4647231090459
 21
-307.348744231478
 31
0.0
  0
LINE
  5
3AF
330
1F
100
AcDbEntity
  8
D-4
  6
Continuous
 62
     7
370
     9
100
AcDbLine
 10
-430.4647231090459
 20
-274.8485916435873
 30
0.0
 11
-432.0963025081548
 21
-262.4555176079428
 31
0.0
  0
LINE
  5
3B0
330
1F
100
AcDbEntity
  8
D-4
  6
Continuous
 62
     7
370
     9
100
AcDbLine
 10
-430.4647231090459
 20
-274.8485916435873
 30
0.0
 11
-428.833143709937
 21
-262.4555176079428
 31
0.0
  0
LINE
  5
3B1
330
1F
100
AcDbEntity
  8
D-4
  6
Continuous
 62
     7
370
     9
100
AcDbLine
 10
-431.9647240627202
 20
-274.8485916435873
 30
0.0
 11
-417.9647231090459
 21
-274.8485916435873
 31
0.0
  0
LINE
  5
3B2
330
1F
100
AcDbEntity
  8
D-4
  6
Continuous
 62
     7
370
     9
100
AcDbLine
 10
-430.4647231090459
 20
-274.8485916435873
 30
0.0
 11
-430.4647231090459
 21
-259.8485916435873
 31
0.0
  0
LINE
  5
3B3
330
1F
100
AcDbEntity
  8
D-4
  6
Continuous
 62
     7
370
     9
100
AcDbLine
 10
-430.4647231090459
 20
-274.8485916435873
 30
0.0
 11
-430.4647231090459
 21
-292.348744231478
 31
0.0
  0
LINE
  5
3B4
330
1F
100
AcDbEntity
  8
D-4
  6
Continuous
 62
     7
370
     9
100
AcDbLine
 10
-388.8221287715825
 20
-252.3485916435873
 30
0.0
 11
-378.8221287715825
 21
-252.3485916435873
 31
0.0
  0
LINE
  5
3B5
330
1F
100
AcDbEntity
  8
D-4
  6
Continuous
 62
     7
370
     9
100
AcDbLine
 10
-318.5112786281499
 20
-252.3485916435873
 30
0.0
 11
-299.1329789150151
 21
-252.3485916435873
 31
0.0
  0
LINE
  5
3B6
330
1F
100
AcDbEntity
  8
D-4
  6
Continuous
 62
     7
370
     9
100
AcDbLine
 10
-378.8221287715825
 20
-252.3485916435873
 30
0.0
 11
-366.429054735938
 21
-250.7170074761069
 31
0.0
  0
LINE
  5
3B7
330
1F
100
AcDbEntity
  8
D-4
  6
Continuous
 62
     7
370
     9
100
AcDbLine
 10
-378.8221287715825
 20
-252.3485916435873
 30
0.0
 11
-366.429054735938
 21
-253.9801758110678
 31
0.0
  0
LINE
  5
3B8
330
1F
100
AcDbEntity
  8
D-4
  6
Continuous
 62
     7
370
     9
100
AcDbLine
 10
-378.8221287715825
 20
-252.3485916435873
 30
0.0
 11
-363.8221287715825
 21
-252.3485916435873
 31
0.0
  0
LINE
  5
3B9
330
1F
100
AcDbEntity
  8
D-4
  6
Continuous
 62
     7
370
     9
100
AcDbLine
 10
-299.1329789150151
 20
-252.3485916435873
 30
0.0
 11
-286.7399048793706
 21
-250.7170074761069
 31
0.0
  0
LINE
  5
3BA
330
1F
100
AcDbEntity
  8
D-4
  6
Continuous
 62
     7
370
     9
100
AcDbLine
 10
-299.1329789150151
 20
-252.3485916435873
 30
0.0
 11
-286.7399048793706
 21
-253.9801758110678
 31
0.0
  0
LINE
  5
3BB
330
1F
100
AcDbEntity
  8
D-4
  6
Continuous
 62
     7
370
     9
100
AcDbLine
 10
-299.1329789150151
 20
-252.3485916435873
 30
0.0
 11
-284.1329789150151
 21
-252.3485916435873
 31
0.0
  0
LINE
  5
3BC
330
1F
100
AcDbEntity
  8
D-4
  6
Continuous
 62
     7
370
     9
100
AcDbLine
 10
-388.8221287715825
 20
-252.3485916435873
 30
0.0
 11
-401.2152028072271
 21
-253.9801758110678
 31
0.0
  0
LINE
  5
3BD
330
1F
100
AcDbEntity
  8
D-4
  6
Continuous
 62
     7
370
     9
100
AcDbLine
 10
-388.8221287715825
 20
-252.3485916435873
 30
0.0
 11
-401.2152028072271
 21
-250.7170074761069
 31
0.0
  0
LINE
  5
3BE
330
1F
100
AcDbEntity
  8
D-4
  6
Continuous
 62
     7
370
     9
100
AcDbLine
 10
-388.8221287715825
 20
-252.3485916435873
 30
0.0
 11
-403.8221287715825
 21
-252.3485916435873
 31
0.0
  0
LINE
  5
3BF
330
1F
100
AcDbEntity
  8
D-4
  6
Continuous
 62
     7
370
     9
100
AcDbLine
 10
-318.5112786281499
 20
-252.3485916435873
 30
0.0
 11
-330.9043622005376
 21
-250.7170074761069
 31
0.0
  0
LINE
  5
3C0
330
1F
100
AcDbEntity
  8
D-4
  6
Continuous
 62
     7
370
     9
100
AcDbLine
 10
-318.5112786281499
 20
-252.3485916435873
 30
0.0
 11
-330.9043622005376
 21
-253.9801758110678
 31
0.0
  0
LINE
  5
3C1
330
1F
100
AcDbEntity
  8
D-4
  6
Continuous
 62
     7
370
     9
100
AcDbLine
 10
-318.5112786281499
 20
-252.3485916435873
 30
0.0
 11
-333.5112881648931
 21
-252.3485916435873
 31
0.0
  0
LINE
  5
3C2
330
1F
100
AcDbEntity
  8
D-4
  6
Continuous
 62
     7
370
     9
100
AcDbLine
 10
-388.8221287715825
 20
-250.8485954582846
 30
0.0
 11
-388.8221287715825
 21
-264.8485916435873
 31
0.0
  0
LINE
  5
3C3
330
1F
100
AcDbEntity
  8
D-4
  6
Continuous
 62
     7
370
     9
100
AcDbLine
 10
-378.8221287715825
 20
-250.8485954582846
 30
0.0
 11
-378.8221287715825
 21
-264.8485916435873
 31
0.0
  0
LINE
  5
3C4
330
1F
100
AcDbEntity
  8
D-4
  6
Continuous
 62
     7
370
     9
100
AcDbLine
 10
-318.5112786281499
 20
-250.8485954582846
 30
0.0
 11
-318.5112786281499
 21
-264.8485916435873
 31
0.0
  0
LINE
  5
3C5
330
1F
100
AcDbEntity
  8
D-4
  6
Continuous
 62
     7
370
     9
100
AcDbLine
 10
-299.1329789150151
 20
-250.8485954582846
 30
0.0
 11
-299.1329789150151
 21
-264.8485916435873
 31
0.0
  0
LINE
  5
3C6
330
1F
100
AcDbEntity
  8
D-4
  6
Continuous
 62
     7
370
     9
100
AcDbLine
 10
-351.3221287715825
 20
-314.848744231478
 30
0.0
 11
-336.6329789150151
 21
-314.848744231478
 31
0.0
  0
LINE
  5
3C7
330
1F
100
AcDbEntity
  8
D-4
  6
Continuous
 62
     7
370
     9
100
AcDbLine
 10
-336.6329789150151
 20
-314.848744231478
 30
0.0
 11
-324.2399048793706
 21
-313.2171600639975
 31
0.0
  0
LINE
  5
3C8
330
1F
100
AcDbEntity
  8
D-4
  6
Continuous
 62
     7
370
     9
100
AcDbLine
 10
-336.6329789150151
 20
-314.848744231478
 30
0.0
 11
-324.2399048793706
 21
-316.4803283989584
 31
0.0
  0
LINE
  5
3C9
330
1F
100
AcDbEntity
  8
D-4
  6
Continuous
 62
     7
370
     9
100
AcDbLine
 10
-336.6329789150151
 20
-314.848744231478
 30
0.0
 11
-321.6329789150151
 21
-314.848744231478
 31
0.0
  0
LINE
  5
3CA
330
1F
100
AcDbEntity
  8
D-4
  6
Continuous
 62
     7
370
     9
100
AcDbLine
 10
-351.3221287715825
 20
-314.848744231478
 30
0.0
 11
-363.7152028072271
 21
-316.4803283989584
 31
0.0
  0
LINE
  5
3CB
330
1F
100
AcDbEntity
  8
D-4
  6
Continuous
 62
     7
370
     9
100
AcDbLine
 10
-351.3221287715825
 20
-314.848744231478
 30
0.0
 11
-363.7152028072271
 21
-313.2171600639975
 31
0.0
  0
LINE
  5
3CC
330
1F
100
AcDbEntity
  8
D-4
  6
Continuous
 62
     7
370
     9
100
AcDbLine
 10
-351.3221287715825
 20
-314.848744231478
 30
0.0
 11
-366.3221287715825
 21
-314.848744231478
 31
0.0
  0
LINE
  5
3CD
330
1F
100
AcDbEntity
  8
D-4
  6
Continuous
 62
     7
370
     9
100
AcDbLine
 10
-351.3221287715825
 20
-316.3487404167807
 30
0.0
 11
-351.3221287715825
 21
-302.348744231478
 31
0.0
  0
LINE
  5
3CE
330
1F
100
AcDbEntity
  8
D-4
  6
Continuous
 62
     7
370
     9
100
AcDbLine
 10
-336.6329789150151
 20
-316.3487404167807
 30
0.0
 11
-336.6329789150151
 21
-302.348744231478
 31
0.0
  0
LINE
  5
3CF
330
1F
100
AcDbEntity
  8
D-0
  6
Continuous
 62
     7
370
     9
100
AcDbLine
 10
-485.0417160976323
 20
-531.8489425957357
 30
0.0
 11
-485.0417160976323
 21
-565.0745433151876
 31
0.0
  0
LINE
  5
3D0
330
1F
100
AcDbEntity
  8
D-0
  6
Continuous
 62
     7
370
     9
100
AcDbLine
 10
-485.0417160976323
 20
-565.0745433151876
 30
0.0
 11
-43.38781595114796
 21
-565.0745433151876
 31
0.0
  0
LINE
  5
3D1
330
1F
100
AcDbEntity
  8
D-0
  6
Continuous
 62
     7
370
     9
100
AcDbLine
 10
-43.38781595114796
 20
-565.0745433151876
 30
0.0
 11
-43.38781595114796
 21
-531.8489425957357
 31
0.0
  0
LINE
  5
3D2
330
1F
100
AcDbEntity
  8
D-0
  6
Continuous
 62
     7
370
     9
100
AcDbLine
 10
-43.38781595114796
 20
-531.8489425957357
 30
0.0
 11
-485.0417160976323
 21
-531.8489425957357
 31
0.0
  0
LINE
  5
3D3
330
1F
100
AcDbEntity
  8
D-2
  6
Continuous
 62
     3
370
     9
100
AcDbLine
 10
-207.9647278774175
 20
-481.8489425957358
 30
0.0
 11
-407.9647231090459
 21
-481.8489425957358
 31
0.0
  0
LINE
  5
3D4
330
1F
100
AcDbEntity
  8
D-2
  6
Continuous
 62
     3
370
     9
100
AcDbLine
 10
-140.4648041713628
 20
-481.8489425957358
 30
0.0
 11
-157.9647278774175
 21
-481.8489425957358
 31
0.0
  0
LINE
  5
3D5
330
1F
100
AcDbEntity
  8
D-2
  6
Continuous
 62
     3
370
     9
100
AcDbLine
 10
-207.9647278774175
 20
-376.8487423241293
 30
0.0
 11
-407.9647231090459
 21
-376.8487423241293
 31
0.0
  0
LINE
  5
3D6
330
1F
100
AcDbEntity
  8
D-2
  6
Continuous
 62
     3
370
     9
100
AcDbLine
 10
-157.9647278774175
 20
-376.8487423241293
 30
0.0
 11
-157.9647278774175
 21
-356.8487327873862
 31
0.0
  0
LINE
  5
3D7
330
1F
100
AcDbEntity
  8
D-2
  6
Continuous
 62
     3
370
     9
100
AcDbLine
 10
-140.4648041713628
 20
-356.8487327873862
 30
0.0
 11
-140.4648041713628
 21
-376.8487423241293
 31
0.0
  0
LINE
  5
3D8
330
1F
100
AcDbEntity
  8
D-2
  6
Continuous
 62
     3
370
     9
100
AcDbLine
 10
-207.9647278774175
 20
-461.8489425957358
 30
0.0
 11
-407.9647231090459
 21
-461.8489425957358
 31
0.0
  0
LINE
  5
3D9
330
1F
100
AcDbEntity
  8
D-2
  6
Continuous
 62
     3
370
     9
100
AcDbLine
 10
-157.9647278774175
 20
-481.8489425957358
 30
0.0
 11
-157.9647278774175
 21
-461.8489425957358
 31
0.0
  0
LINE
  5
3DA
330
1F
100
AcDbEntity
  8
D-2
  6
Continuous
 62
     3
370
     9
100
AcDbLine
 10
-140.4648041713628
 20
-461.8489425957358
 30
0.0
 11
-140.4648041713628
 21
-481.8489425957358
 31
0.0
  0
LINE
  5
3DB
330
1F
100
AcDbEntity
  8
D-2
  6
Continuous
 62
     3
370
     9
100
AcDbLine
 10
-207.9647278774175
 20
-458.0989425957358
 30
0.0
 11
-407.9647231090459
 21
-458.0989425957358
 31
0.0
  0
LINE
  5
3DC
330
1F
100
AcDbEntity
  8
D-2
  6
Continuous
 62
     3
370
     9
100
AcDbLine
 10
-207.9647278774175
 20
-380.5987423241293
 30
0.0
 11
-407.9647231090459
 21
-380.5987423241293
 31
0.0
  0
LINE
  5
3DD
330
1F
100
AcDbEntity
  8
D-2
  6
Continuous
 62
     3
370
     9
100
AcDbLine
 10
-157.9647278774175
 20
-376.8487423241293
 30
0.0
 11
-154.2148423183355
 21
-380.5987423241293
 31
0.0
  0
LINE
  5
3DE
330
1F
100
AcDbEntity
  8
D-2
  6
Continuous
 62
     3
370
     9
100
AcDbLine
 10
-144.2149186122808
 20
-380.5987423241293
 30
0.0
 11
-140.4648041713628
 21
-376.8487423241293
 31
0.0
  0
LINE
  5
3DF
330
1F
100
AcDbEntity
  8
D-2
  6
Continuous
 62
     3
370
     9
100
AcDbLine
 10
-157.9647278774175
 20
-461.8489425957358
 30
0.0
 11
-154.2148423183355
 21
-458.0989425957358
 31
0.0
  0
LINE
  5
3E0
330
1F
100
AcDbEntity
  8
D-2
  6
Continuous
 62
     3
370
     9
100
AcDbLine
 10
-144.2149186122808
 20
-458.0989425957358
 30
0.0
 11
-140.4648041713628
 21
-461.8489425957358
 31
0.0
  0
LINE
  5
3E1
330
1F
100
AcDbEntity
  8
D-2
  6
Continuous
 62
     3
370
     9
100
AcDbLine
 10
-154.2148423183355
 20
-458.0989425957358
 30
0.0
 11
-154.2148423183355
 21
-380.5987423241293
 31
0.0
  0
LINE
  5
3E2
330
1F
100
AcDbEntity
  8
D-2
  6
Continuous
 62
     3
370
     9
100
AcDbLine
 10
-144.2149186122808
 20
-380.5987423241293
 30
0.0
 11
-144.2149186122808
 21
-458.0989425957358
 31
0.0
  0
LINE
  5
3E3
330
1F
100
AcDbEntity
  8
D-2
  6
Continuous
 62
     3
370
     9
100
AcDbLine
 10
-157.9647278774175
 20
-354.848744231478
 30
0.0
 11
-157.9647278774175
 21
-356.8487327873862
 31
0.0
  0
LINE
  5
3E4
330
1F
100
AcDbEntity
  8
D-2
  6
Continuous
 62
     3
370
     9
100
AcDbLine
 10
-157.9647278774175
 20
-354.848744231478
 30
0.0
 11
-140.4648041713628
 21
-354.848744231478
 31
0.0
  0
LINE
  5
3E5
330
1F
100
AcDbEntity
  8
D-2
  6
Continuous
 62
     3
370
     9
100
AcDbLine
 10
-140.4648041713628
 20
-354.848744231478
 30
0.0
 11
-140.4648041713628
 21
-356.8487327873862
 31
0.0
  0
LINE
  5
3E6
330
1F
100
AcDbEntity
  8
D-2
  6
Continuous
 62
     3
370
     9
100
AcDbLine
 10
-157.9647278774175
 20
-356.8487327873862
 30
0.0
 11
-150.4647660243901
 21
-356.8487327873862
 31
0.0
  0
LINE
  5
3E7
330
1F
100
AcDbEntity
  8
D-2
  6
Continuous
 62
     3
370
     9
100
AcDbLine
 10
-147.9647660243901
 20
-356.8487327873862
 30
0.0
 11
-140.4648041713628
 21
-356.8487327873862
 31
0.0
  0
LINE
  5
3E8
330
1F
100
AcDbEntity
  8
D-2
  6
Continuous
 62
     3
370
     9
100
AcDbLine
 10
-375.4270768154058
 20
-354.848744231478
 30
0.0
 11
-374.1329789150151
 21
-356.8487327873862
 31
0.0
  0
LINE
  5
3E9
330
1F
100
AcDbEntity
  8
D-2
  6
Continuous
 62
     3
370
     9
100
AcDbLine
 10
-393.5112881648931
 20
-356.8487327873862
 30
0.0
 11
-392.2171902645024
 21
-354.848744231478
 31
0.0
  0
LINE
  5
3EA
330
1F
100
AcDbEntity
  8
D-2
  6
Continuous
 62
     3
370
     9
100
AcDbLine
 10
-392.8642392146978
 20
-355.8487480461752
 30
0.0
 11
-407.9647231090459
 21
-355.8487480461752
 31
0.0
  0
LINE
  5
3EB
330
1F
100
AcDbEntity
  8
D-2
  6
Continuous
 62
     3
370
     9
100
AcDbLine
 10
-393.5112881648931
 20
-356.8487327873862
 30
0.0
 11
-407.9647231090459
 21
-356.8487327873862
 31
0.0
  0
LINE
  5
3EC
330
1F
100
AcDbEntity
  8
D-2
  6
Continuous
 62
     3
370
     9
100
AcDbLine
 10
-337.9270768154058
 20
-354.848744231478
 30
0.0
 11
-336.6329789150151
 21
-356.8487327873862
 31
0.0
  0
LINE
  5
3ED
330
1F
100
AcDbEntity
  8
D-2
  6
Continuous
 62
     3
370
     9
100
AcDbLine
 10
-350.0280404079351
 20
-354.848744231478
 30
0.0
 11
-351.3221287715825
 21
-356.8487327873862
 31
0.0
  0
LINE
  5
3EE
330
1F
100
AcDbEntity
  8
D-2
  6
Continuous
 62
     3
370
     9
100
AcDbLine
 10
-353.3317685115728
 20
-355.8487480461752
 30
0.0
 11
-374.7800278652105
 21
-355.8487480461752
 31
0.0
  0
LINE
  5
3EF
330
1F
100
AcDbEntity
  8
D-2
  6
Continuous
 62
     3
370
     9
100
AcDbLine
 10
-353.3317685115728
 20
-355.8487480461752
 30
0.0
 11
-353.3317685115728
 21
-356.8487327873862
 31
0.0
  0
LINE
  5
3F0
330
1F
100
AcDbEntity
  8
D-2
  6
Continuous
 62
     3
370
     9
100
AcDbLine
 10
-354.7171902645024
 20
-354.848744231478
 30
0.0
 11
-355.3642392146978
 21
-355.8487480461752
 31
0.0
  0
LINE
  5
3F1
330
1F
100
AcDbEntity
  8
D-2
  6
Continuous
 62
     3
370
     9
100
AcDbLine
 10
-375.4270768154058
 20
-354.848744231478
 30
0.0
 11
-392.2171902645024
 21
-354.848744231478
 31
0.0
  0
LINE
  5
3F2
330
1F
100
AcDbEntity
  8
D-2
  6
Continuous
 62
     3
370
     9
100
AcDbLine
 10
-149.2400193202886
 20
-355.8487480461752
 30
0.0
 11
-149.1895127284917
 21
-355.8487480461752
 31
0.0
  0
LINE
  5
3F3
330
1F
100
AcDbEntity
  8
D-2
  6
Continuous
 62
     3
370
     9
100
AcDbLine
 10
-313.8221383083257
 20
-356.8487327873862
 30
0.0
 11
-312.5280404079351
 21
-354.848744231478
 31
0.0
  0
LINE
  5
3F4
330
1F
100
AcDbEntity
  8
D-2
  6
Continuous
 62
     3
370
     9
100
AcDbLine
 10
-305.1162362087163
 20
-354.848744231478
 30
0.0
 11
-303.8221383083257
 21
-356.8487327873862
 31
0.0
  0
LINE
  5
3F5
330
1F
100
AcDbEntity
  8
D-2
  6
Continuous
 62
     3
370
     9
100
AcDbLine
 10
-315.8317780483159
 20
-355.8487480461752
 30
0.0
 11
-337.2800278652105
 21
-355.8487480461752
 31
0.0
  0
LINE
  5
3F6
330
1F
100
AcDbEntity
  8
D-2
  6
Continuous
 62
     3
370
     9
100
AcDbLine
 10
-315.8317780483159
 20
-355.8487480461752
 30
0.0
 11
-315.8317780483159
 21
-356.8487327873862
 31
0.0
  0
LINE
  5
3F7
330
1F
100
AcDbEntity
  8
D-2
  6
Continuous
 62
     3
370
     9
100
AcDbLine
 10
-317.8642296779546
 20
-355.8487480461752
 30
0.0
 11
-317.2171807277593
 21
-354.848744231478
 31
0.0
  0
LINE
  5
3F8
330
1F
100
AcDbEntity
  8
D-2
  6
Continuous
 62
     3
370
     9
100
AcDbLine
 10
-337.9270768154058
 20
-354.848744231478
 30
0.0
 11
-354.7171902645024
 21
-354.848744231478
 31
0.0
  0
LINE
  5
3F9
330
1F
100
AcDbEntity
  8
D-2
  6
Continuous
 62
     3
370
     9
100
AcDbLine
 10
-301.8124985683355
 20
-355.8487480461752
 30
0.0
 11
-301.8124985683355
 21
-356.8487327873862
 31
0.0
  0
LINE
  5
3FA
330
1F
100
AcDbEntity
  8
D-2
  6
Continuous
 62
     3
370
     9
100
AcDbLine
 10
-299.7800278652105
 20
-355.8487480461752
 30
0.0
 11
-300.4270768154058
 21
-354.848744231478
 31
0.0
  0
LINE
  5
3FB
330
1F
100
AcDbEntity
  8
D-2
  6
Continuous
 62
     3
370
     9
100
AcDbLine
 10
-242.2171807277593
 20
-354.848744231478
 30
0.0
 11
-243.5112786281499
 21
-356.8487327873862
 31
0.0
  0
LINE
  5
3FC
330
1F
100
AcDbEntity
  8
D-2
  6
Continuous
 62
     3
370
     9
100
AcDbLine
 10
-224.1329789150151
 20
-356.8487327873862
 30
0.0
 11
-225.4270768154058
 21
-354.848744231478
 31
0.0
  0
LINE
  5
3FD
330
1F
100
AcDbEntity
  8
D-2
  6
Continuous
 62
     3
370
     9
100
AcDbLine
 10
-224.7800278652105
 20
-355.8487480461752
 30
0.0
 11
-207.9647278774175
 21
-355.8487480461752
 31
0.0
  0
LINE
  5
3FE
330
1F
100
AcDbEntity
  8
D-2
  6
Continuous
 62
     3
370
     9
100
AcDbLine
 10
-224.1329789150151
 20
-356.8487327873862
 30
0.0
 11
-207.9647278774175
 21
-356.8487327873862
 31
0.0
  0
LINE
  5
3FF
330
1F
100
AcDbEntity
  8
D-2
  6
Continuous
 62
     3
370
     9
100
AcDbLine
 10
-279.7171807277593
 20
-354.848744231478
 30
0.0
 11
-281.0112786281499
 21
-356.8487327873862
 31
0.0
  0
LINE
  5
400
330
1F
100
AcDbEntity
  8
D-2
  6
Continuous
 62
     3
370
     9
100
AcDbLine
 10
-267.6162362087163
 20
-354.848744231478
 30
0.0
 11
-266.3221383083257
 21
-356.8487327873862
 31
0.0
  0
LINE
  5
401
330
1F
100
AcDbEntity
  8
D-2
  6
Continuous
 62
     3
370
     9
100
AcDbLine
 10
-264.3124985683355
 20
-355.8487480461752
 30
0.0
 11
-242.8642296779546
 21
-355.8487480461752
 31
0.0
  0
LINE
  5
402
330
1F
100
AcDbEntity
  8
D-2
  6
Continuous
 62
     3
370
     9
100
AcDbLine
 10
-264.3124985683355
 20
-355.8487480461752
 30
0.0
 11
-264.3124985683355
 21
-356.8487327873862
 31
0.0
  0
LINE
  5
403
330
1F
100
AcDbEntity
  8
D-2
  6
Continuous
 62
     3
370
     9
100
AcDbLine
 10
-262.9270768154058
 20
-354.848744231478
 30
0.0
 11
-262.2800278652105
 21
-355.8487480461752
 31
0.0
  0
LINE
  5
404
330
1F
100
AcDbEntity
  8
D-2
  6
Continuous
 62
     3
370
     9
100
AcDbLine
 10
-242.2171807277593
 20
-354.848744231478
 30
0.0
 11
-225.4270768154058
 21
-354.848744231478
 31
0.0
  0
LINE
  5
405
330
1F
100
AcDbEntity
  8
D-2
  6
Continuous
 62
     3
370
     9
100
AcDbLine
 10
-279.7171807277593
 20
-354.848744231478
 30
0.0
 11
-262.9270768154058
 21
-354.848744231478
 31
0.0
  0
LINE
  5
406
330
1F
100
AcDbEntity
  8
D-2
  6
Continuous
 62
     3
370
     9
100
AcDbLine
 10
-300.4270768154058
 20
-354.848744231478
 30
0.0
 11
-317.2171807277593
 21
-354.848744231478
 31
0.0
  0
LINE
  5
407
330
1F
100
AcDbEntity
  8
D-2
  6
Continuous
 62
     3
370
     9
100
AcDbLine
 10
-280.3642296779546
 20
-355.8487480461752
 30
0.0
 11
-301.8124985683355
 21
-355.8487480461752
 31
0.0
  0
LINE
  5
408
330
1F
100
AcDbEntity
  8
D-2
  6
Continuous
 62
     3
370
     9
100
AcDbLine
 10
-243.5112786281499
 20
-356.8487327873862
 30
0.0
 11
-266.3221383083257
 21
-356.8487327873862
 31
0.0
  0
LINE
  5
409
330
1F
100
AcDbEntity
  8
D-2
  6
Continuous
 62
     3
370
     9
100
AcDbLine
 10
-281.0112786281499
 20
-356.8487327873862
 30
0.0
 11
-303.8221383083257
 21
-356.8487327873862
 31
0.0
  0
LINE
  5
40A
330
1F
100
AcDbEntity
  8
D-2
  6
Continuous
 62
     3
370
     9
100
AcDbLine
 10
-313.8221383083257
 20
-356.8487327873862
 30
0.0
 11
-336.6329789150151
 21
-356.8487327873862
 31
0.0
  0
LINE
  5
40B
330
1F
100
AcDbEntity
  8
D-2
  6
Continuous
 62
     3
370
     9
100
AcDbLine
 10
-351.3221287715825
 20
-356.8487327873862
 30
0.0
 11
-374.1329789150151
 21
-356.8487327873862
 31
0.0
  0
LINE
  5
40C
330
1F
100
AcDbEntity
  8
D-2
  6
Continuous
 62
     3
370
     9
100
AcDbLine
 10
-207.9647278774175
 20
-292.348744231478
 30
0.0
 11
-407.9647231090459
 21
-292.348744231478
 31
0.0
  0
LINE
  5
40D
330
1F
100
AcDbEntity
  8
D-2
  6
Continuous
 62
     3
370
     9
100
AcDbLine
 10
-207.9647278774175
 20
-274.8485916435873
 30
0.0
 11
-407.9647231090459
 21
-274.8485916435873
 31
0.0
  0
LINE
  5
40E
330
1F
100
AcDbEntity
  8
D-2
  6
Continuous
 62
     3
370
     9
100
AcDbLine
 10
-374.1329789150151
 20
-292.348744231478
 30
0.0
 11
-378.8221287715825
 21
-274.8485916435873
 31
0.0
  0
LINE
  5
40F
330
1F
100
AcDbEntity
  8
D-2
  6
Continuous
 62
     3
370
     9
100
AcDbLine
 10
-393.5112881648931
 20
-292.348744231478
 30
0.0
 11
-388.8221287715825
 21
-274.8485916435873
 31
0.0
  0
LINE
  5
410
330
1F
100
AcDbEntity
  8
D-2
  6
Continuous
 62
     3
370
     9
100
AcDbLine
 10
-392.2171902645024
 20
-292.348744231478
 30
0.0
 11
-387.5280404079351
 21
-274.8485916435873
 31
0.0
  0
LINE
  5
411
330
1F
100
AcDbEntity
  8
D-2
  6
Continuous
 62
     3
370
     9
100
AcDbLine
 10
-375.4270768154058
 20
-292.348744231478
 30
0.0
 11
-380.1162266719732
 21
-274.8485916435873
 31
0.0
  0
LINE
  5
412
330
1F
100
AcDbEntity
  8
D-2
  6
Continuous
 62
     3
370
     9
100
AcDbLine
 10
-318.5112786281499
 20
-274.8485916435873
 30
0.0
 11
-313.8221383083257
 21
-292.348744231478
 31
0.0
  0
LINE
  5
413
330
1F
100
AcDbEntity
  8
D-2
  6
Continuous
 62
     3
370
     9
100
AcDbLine
 10
-299.1329789150151
 20
-274.8485916435873
 30
0.0
 11
-303.8221383083257
 21
-292.348744231478
 31
0.0
  0
LINE
  5
414
330
1F
100
AcDbEntity
  8
D-2
  6
Continuous
 62
     3
370
     9
100
AcDbLine
 10
-300.4270768154058
 20
-274.8485916435873
 30
0.0
 11
-305.1162362087163
 21
-292.348744231478
 31
0.0
  0
LINE
  5
415
330
1F
100
AcDbEntity
  8
D-2
  6
Continuous
 62
     3
370
     9
100
AcDbLine
 10
-317.2171807277593
 20
-274.8485916435873
 30
0.0
 11
-312.5280404079351
 21
-292.348744231478
 31
0.0
  0
LINE
  5
416
330
1F
100
AcDbEntity
  8
D-2
  6
Continuous
 62
     3
370
     9
100
AcDbLine
 10
-336.6329789150151
 20
-292.348744231478
 30
0.0
 11
-341.3221287715825
 21
-274.8485916435873
 31
0.0
  0
LINE
  5
417
330
1F
100
AcDbEntity
  8
D-2
  6
Continuous
 62
     3
370
     9
100
AcDbLine
 10
-337.9270768154058
 20
-292.348744231478
 30
0.0
 11
-342.6162266719732
 21
-274.8485916435873
 31
0.0
  0
LINE
  5
418
330
1F
100
AcDbEntity
  8
D-2
  6
Continuous
 62
     3
370
     9
100
AcDbLine
 10
-356.0112881648931
 20
-274.8485916435873
 30
0.0
 11
-351.3221287715825
 21
-292.348744231478
 31
0.0
  0
LINE
  5
419
330
1F
100
AcDbEntity
  8
D-2
  6
Continuous
 62
     3
370
     9
100
AcDbLine
 10
-354.7171902645024
 20
-274.8485916435873
 30
0.0
 11
-350.0280404079351
 21
-292.348744231478
 31
0.0
  0
LINE
  5
41A
330
1F
100
AcDbEntity
  8
D-2
  6
Continuous
 62
     3
370
     9
100
AcDbLine
 10
-243.5112786281499
 20
-292.348744231478
 30
0.0
 11
-238.8221383083257
 21
-274.8485916435873
 31
0.0
  0
LINE
  5
41B
330
1F
100
AcDbEntity
  8
D-2
  6
Continuous
 62
     3
370
     9
100
AcDbLine
 10
-224.1329789150151
 20
-292.348744231478
 30
0.0
 11
-228.8221383083257
 21
-274.8485916435873
 31
0.0
  0
LINE
  5
41C
330
1F
100
AcDbEntity
  8
D-2
  6
Continuous
 62
     3
370
     9
100
AcDbLine
 10
-225.4270768154058
 20
-292.348744231478
 30
0.0
 11
-230.1162362087163
 21
-274.8485916435873
 31
0.0
  0
LINE
  5
41D
330
1F
100
AcDbEntity
  8
D-2
  6
Continuous
 62
     3
370
     9
100
AcDbLine
 10
-242.2171807277593
 20
-292.348744231478
 30
0.0
 11
-237.5280404079351
 21
-274.8485916435873
 31
0.0
  0
LINE
  5
41E
330
1F
100
AcDbEntity
  8
D-2
  6
Continuous
 62
     3
370
     9
100
AcDbLine
 10
-281.0112786281499
 20
-292.348744231478
 30
0.0
 11
-276.3221383083257
 21
-274.8485916435873
 31
0.0
  0
LINE
  5
41F
330
1F
100
AcDbEntity
  8
D-2
  6
Continuous
 62
     3
370
     9
100
AcDbLine
 10
-279.7171807277593
 20
-292.348744231478
 30
0.0
 11
-275.0280404079351
 21
-274.8485916435873
 31
0.0
  0
LINE
  5
420
330
1F
100
AcDbEntity
  8
D-2
  6
Continuous
 62
     3
370
     9
100
AcDbLine
 10
-261.6329789150151
 20
-274.8485916435873
 30
0.0
 11
-266.3221383083257
 21
-292.348744231478
 31
0.0
  0
LINE
  5
421
330
1F
100
AcDbEntity
  8
D-2
  6
Continuous
 62
     3
370
     9
100
AcDbLine
 10
-262.9270768154058
 20
-274.8485916435873
 30
0.0
 11
-267.6162362087163
 21
-292.348744231478
 31
0.0
  0
LINE
  5
422
330
1F
100
AcDbEntity
  8
D-2
  6
Continuous
 62
     3
370
     9
100
AcDbLine
 10
-407.9647231090459
 20
-282.3486679375326
 30
0.0
 11
-390.8317685115728
 21
-282.3486679375326
 31
0.0
  0
LINE
  5
423
330
1F
100
AcDbEntity
  8
D-2
  6
Continuous
 62
     3
370
     9
100
AcDbLine
 10
-407.9647231090459
 20
-284.8486679375326
 30
0.0
 11
-391.5016484249028
 21
-284.8486679375326
 31
0.0
  0
LINE
  5
424
330
1F
100
AcDbEntity
  8
D-2
  6
Continuous
 62
     3
370
     9
100
AcDbLine
 10
-376.8124890315923
 20
-282.3486679375326
 30
0.0
 11
-354.0016484249028
 21
-282.3486679375326
 31
0.0
  0
LINE
  5
425
330
1F
100
AcDbEntity
  8
D-2
  6
Continuous
 62
     3
370
     9
100
AcDbLine
 10
-376.1426186550054
 20
-284.8486679375326
 30
0.0
 11
-353.3317685115728
 21
-284.8486679375326
 31
0.0
  0
LINE
  5
426
330
1F
100
AcDbEntity
  8
D-2
  6
Continuous
 62
     3
370
     9
100
AcDbLine
 10
-339.3124890315923
 20
-282.3486679375326
 30
0.0
 11
-316.5016388881597
 21
-282.3486679375326
 31
0.0
  0
LINE
  5
427
330
1F
100
AcDbEntity
  8
D-2
  6
Continuous
 62
     3
370
     9
100
AcDbLine
 10
-338.6426186550054
 20
-284.8486679375326
 30
0.0
 11
-315.8317780483159
 21
-284.8486679375326
 31
0.0
  0
LINE
  5
428
330
1F
100
AcDbEntity
  8
D-2
  6
Continuous
 62
     3
370
     9
100
AcDbLine
 10
-301.1426186550054
 20
-282.3486679375326
 30
0.0
 11
-278.3317780483159
 21
-282.3486679375326
 31
0.0
  0
LINE
  5
429
330
1F
100
AcDbEntity
  8
D-2
  6
Continuous
 62
     3
370
     9
100
AcDbLine
 10
-301.8124985683355
 20
-284.8486679375326
 30
0.0
 11
-279.0016388881597
 21
-284.8486679375326
 31
0.0
  0
LINE
  5
42A
330
1F
100
AcDbEntity
  8
D-2
  6
Continuous
 62
     3
370
     9
100
AcDbLine
 10
-263.6426186550054
 20
-282.3486679375326
 30
0.0
 11
-240.8317780483159
 21
-282.3486679375326
 31
0.0
  0
LINE
  5
42B
330
1F
100
AcDbEntity
  8
D-2
  6
Continuous
 62
     3
370
     9
100
AcDbLine
 10
-226.8124985683355
 20
-282.3486679375326
 30
0.0
 11
-207.9647278774175
 21
-282.3486679375326
 31
0.0
  0
LINE
  5
42C
330
1F
100
AcDbEntity
  8
D-2
  6
Continuous
 62
     3
370
     9
100
AcDbLine
 10
-264.3124985683355
 20
-284.8486679375326
 30
0.0
 11
-241.5016388881597
 21
-284.8486679375326
 31
0.0
  0
LINE
  5
42D
330
1F
100
AcDbEntity
  8
D-2
  6
Continuous
 62
     3
370
     9
100
AcDbLine
 10
-226.1426186550054
 20
-284.8486679375326
 30
0.0
 11
-207.9647278774175
 21
-284.8486679375326
 31
0.0
  0
ARC
  5
42E
330
1F
100
AcDbEntity
  8
D-2
  6
Continuous
 62
     3
370
     9
100
AcDbCircle
 10
-149.2400193202886
 20
-357.0987480461752
 30
0.0
 40
1.25
100
AcDbArc
 50
90.0
 51
168.4630279541016
  0
ARC
  5
42F
330
1F
100
AcDbEntity
  8
D-2
  6
Continuous
 62
     3
370
     9
100
AcDbCircle
 10
-149.1895127284917
 20
-357.0987480461752
 30
0.0
 40
1.25
100
AcDbArc
 50
11.53695678710939
 51
90.00000000000001
  0
TEXT
  5
430
330
1F
100
AcDbEntity
  8
D-4
  6
Continuous
 62
     2
370
     9
100
AcDbText
 10
-98.78479654196826
 20
-429.9738378148271
 30
0.0
 40
15.24
  1
50
 50
90.00000250447829
 41
1.062499999999997
  7
ＭＳ ゴシック
100
AcDbText
  0
TEXT
  5
431
330
1F
100
AcDbEntity
  8
D-4
  6
Continuous
 62
     2
370
     9
100
AcDbText
 10
-154.2147660243901
 20
-324.7790265190756
 30
0.0
 40
15.24
  1
7
 41
0.9999999999999998
  7
ＭＳ ゴシック
100
AcDbText
  0
TEXT
  5
432
330
1F
100
AcDbEntity
  8
D-4
  6
Continuous
 62
     2
370
     9
100
AcDbText
 10
-140.4648804653081
 20
-426.0287213432944
 30
0.0
 40
15.24
  1
4
 41
0.9999999999999998
  7
ＭＳ ゴシック
100
AcDbText
  0
TEXT
  5
433
330
1F
100
AcDbEntity
  8
D-4
  6
Continuous
 62
     2
370
     9
100
AcDbText
 10
-436.2847250163945
 20
-288.5986680607988
 30
0.0
 40
15.24
  1
7
 50
90.00000250447816
 41
1.000000000000001
  7
ＭＳ ゴシック
100
AcDbText
  0
TEXT
  5
434
330
1F
100
AcDbEntity
  8
D-4
  6
Continuous
 62
     2
370
     9
100
AcDbText
 10
-388.8221287715825
 20
-246.5285801994955
 30
0.0
 40
15.24
  1
4
 41
0.9999999999999998
  7
ＭＳ ゴシック
100
AcDbText
  0
TEXT
  5
435
330
1F
100
AcDbEntity
  8
D-4
  6
Continuous
 62
     2
370
     9
100
AcDbText
 10
-325.0721287715825
 20
-246.5285801994955
 30
0.0
 40
15.24
  1
7.8
 41
1.083333333333333
  7
ＭＳ ゴシック
100
AcDbText
  0
TEXT
  5
436
330
1F
100
AcDbEntity
  8
D-4
  6
Continuous
 62
     2
370
     9
100
AcDbText
 10
-360.2275586116704
 20
-335.0287366020834
 30
0.0
 40
15.24
  1
5.9
 41
1.083333333333333
  7
ＭＳ ゴシック
100
AcDbText
  0
TEXT
  5
437
330
1F
100
AcDbEntity
  8
D-0
  6
Continuous
 62
     2
370
     9
100
AcDbText
 10
-476.7147642362508
 20
-555.6417441475545
 30
0.0
 40
15.24
  1
ＮＳＩ－５０　バー形状詳細　Ｓ＝１：２
 41
1.118421052631579
  7
ＭＳ ゴシック
100
AcDbText
  0
TEXT
  5
438
330
1F
100
AcDbEntity
  8
F-0ﾚｲﾔ
  6
Continuous
 62
     9
370
     5
100
AcDbText
 10
0.0
 20
-4997.885
 30
0.0
 40
11.43
  1
Printer_Orientation = 2
 41
0.0
  7
ＭＳ ゴシック
100
AcDbText
  0
TEXT
  5
439
330
1F
100
AcDbEntity
  8
F-0ﾚｲﾔ
  6
Continuous
 62
     9
370
     5
100
AcDbText
 10
0.0
 20
-4997.885
 30
0.0
 40
11.43
  1
Printer_PaperSize = 8
 41
0.0
  7
ＭＳ ゴシック
100
AcDbText
  0
TEXT
  5
43A
330
1F
100
AcDbEntity
  8
F-0ﾚｲﾔ
  6
Continuous
 62
     9
370
     5
100
AcDbText
 10
0.0
 20
-4997.885
 30
0.0
 40
11.43
  1
Printer_D2dBMP = 0
 41
0.0
  7
ＭＳ ゴシック
100
AcDbText
  0
TEXT
  5
43B
330
1F
100
AcDbEntity
  8
F-0ﾚｲﾔ
  6
Continuous
 62
     9
370
     5
100
AcDbText
 10
0.0
 20
-4997.885
 30
0.0
 40
11.43
  1
Printer_BmpZENTAI = 0
 41
0.0
  7
ＭＳ ゴシック
100
AcDbText
  0
TEXT
  5
43C
330
1F
100
AcDbEntity
  8
F-0ﾚｲﾔ
  6
Continuous
 62
     9
370
     5
100
AcDbText
 10
0.0
 20
-4997.885
 30
0.0
 40
11.43
  1
View_Direct2d = 1
 41
0.0
  7
ＭＳ ゴシック
100
AcDbText
  0
TEXT
  5
43D
330
1F
100
AcDbEntity
  8
F-0ﾚｲﾔ
  6
Continuous
 62
     9
370
     5
100
AcDbText
 10
0.0
 20
-4997.885
 30
0.0
 40
11.43
  1
Draw_BmpTOUKA = 1
 41
0.0
  7
ＭＳ ゴシック
100
AcDbText
  0
ENDSEC
  0
SECTION
  2
OBJECTS
  0
DICTIONARY
  5
C
330
0
100
AcDbDictionary
281
     1
  3
ACAD_DETAILVIEWSTYLE
350
483
  3
ACAD_GROUP
350
D
  3
ACAD_LAYOUT
350
1A
  3
ACAD_MATERIAL
350
43
  3
ACAD_MLEADERSTYLE
350
6B
  3
ACAD_MLINESTYLE
350
17
  3
ACAD_PLOTSETTINGS
350
19
  3
ACAD_PLOTSTYLENAME
350
E
  3
ACAD_SCALELIST
350
47
  3
ACAD_SECTIONVIEWSTYLE
350
484
  3
ACAD_TABLESTYLE
350
69
  3
ACAD_VISUALSTYLE
350
2A
  3
ACDB_RECOMPOSE_DATA
350
480
  3
AcDbVariableDictionary
350
440
  0
DICTIONARY
  5
43E
330
8
100
AcDbDictionary
280
     1
281
     1
  3
ACAD_XREC_ROUNDTRIP
360
43F
  0
DICTIONARY
  5
483
102
{ACAD_REACTORS
330
C
102
}
330
C
100
AcDbDictionary
281
     1
  0
DICTIONARY
  5
D
102
{ACAD_REACTORS
330
C
102
}
330
C
100
AcDbDictionary
281
     1
  0
DICTIONARY
  5
1A
102
{ACAD_REACTORS
330
C
102
}
330
C
100
AcDbDictionary
281
     1
  3
Layout1
350
1E
  3
Layout2
350
26
  3
Model
350
22
  0
DICTIONARY
  5
43
102
{ACAD_REACTORS
330
C
102
}
330
C
100
AcDbDictionary
281
     1
  3
ByBlock
350
45
  3
ByLayer
350
44
  3
Global
350
46
  0
DICTIONARY
  5
6B
102
{ACAD_REACTORS
330
C
102
}
330
C
100
AcDbDictionary
281
     1
  3
Standard
350
6C
  0
DICTIONARY
  5
17
102
{ACAD_REACTORS
330
C
102
}
330
C
100
AcDbDictionary
281
     1
  3
Standard
350
18
  0
DICTIONARY
  5
19
102
{ACAD_REACTORS
330
C
102
}
330
C
100
AcDbDictionary
281
     1
  0
ACDBDICTIONARYWDFLT
  5
E
102
{ACAD_REACTORS
330
C
102
}
330
C
100
AcDbDictionary
281
     1
  3
Normal
350
F
100
AcDbDictionaryWithDefault
340
F
  0
DICTIONARY
  5
47
102
{ACAD_REACTORS
330
C
102
}
330
C
100
AcDbDictionary
281
     1
  3
A0
350
48
  3
A1
350
49
  3
A2
350
4A
  3
A3
350
4B
  3
A4
350
4C
  3
A5
350
4D
  3
A6
350
4E
  3
A7
350
4F
  3
A8
350
50
  3
A9
350
51
  3
B0
350
52
  3
B1
350
53
  3
B2
350
54
  3
B3
350
55
  3
B4
350
56
  3
B5
350
57
  3
B6
350
58
  3
B7
350
59
  3
B8
350
5A
  3
B9
350
5B
  3
C0
350
5C
  3
C1
350
5D
  3
C2
350
5E
  3
C3
350
5F
  3
C4
350
60
  3
C5
350
61
  3
C6
350
62
  3
C7
350
63
  3
C8
350
64
  3
C9
350
65
  3
D0
350
66
  3
D1
350
67
  3
D2
350
68
  0
DICTIONARY
  5
484
102
{ACAD_REACTORS
330
C
102
}
330
C
100
AcDbDictionary
281
     1
  0
DICTIONARY
  5
69
102
{ACAD_REACTORS
330
C
102
}
330
C
100
AcDbDictionary
281
     1
  3
Standard
350
6A
  0
DICTIONARY
  5
2A
102
{ACAD_REACTORS
330
C
102
}
330
C
100
AcDbDictionary
281
     1
  3
2dWireframe
350
2F
  3
Basic
350
32
  3
Brighten
350
36
  3
ColorChange
350
3A
  3
Conceptual
350
34
  3
Dim
350
35
  3
EdgeColorOff
350
3D
  3
Facepattern
350
39
  3
Flat
350
2B
  3
FlatWithEdges
350
2C
  3
Gouraud
350
2D
  3
GouraudWithEdges
350
2E
  3
Hidden
350
31
  3
JitterOff
350
3B
  3
Linepattern
350
38
  3
OverhangOff
350
3C
  3
Realistic
350
33
  3
Shaded
350
42
  3
Shaded with edges
350
41
  3
Shades of Gray
350
3E
  3
Sketchy
350
3F
  3
Thicken
350
37
  3
Wireframe
350
30
  3
X-Ray
350
40
  0
XRECORD
  5
480
102
{ACAD_REACTORS
330
C
102
}
330
C
100
AcDbXrecord
280
     1
 90
        1
330
6A
  0
DICTIONARY
  5
440
102
{ACAD_REACTORS
330
C
102
}
330
C
100
AcDbDictionary
281
     1
  3
CANNOSCALE
350
441
  3
CENTEREXE
350
485
  3
CENTERLTYPEFILE
350
486
  3
CMLEADERSTYLE
350
482
  3
CTABLESTYLE
350
481
  3
MSLTSCALE
350
442
  3
XCLIPFRAME
350
443
  0
XRECORD
  5
43F
102
{ACAD_REACTORS
330
43E
102
}
330
43E
100
AcDbXrecord
280
     1
102
VTR_0.000_0.000_1.000_1.000_VISUALSTYLE
340
2F
102
VTR_0.000_0.000_1.000_1.000_GRIDDISPLAY
 70
     3
102
VTR_0.000_0.000_1.000_1.000_GRIDMAJOR
 70
     5
102
VTR_0.000_0.000_1.000_1.000_DEFAULTLIGHTING
280
     1
102
VTR_0.000_0.000_1.000_1.000_DEFAULTLIGHTINGTYPE
 70
     1
102
VTR_0.000_0.000_1.000_1.000_BRIGHTNESS
141
0.0
102
VTR_0.000_0.000_1.000_1.000_CONTRAST
142
0.0
  0
LAYOUT
  5
1E
102
{ACAD_REACTORS
330
1A
102
}
330
1A
100
AcDbPlotSettings
  1

  2
none_device
  4

  6

 40
0.0
 41
0.0
 42
0.0
 43
0.0
 44
0.0
 45
0.0
 46
0.0
 47
0.0
 48
0.0
 49
0.0
140
0.0
141
0.0
142
1.0
143
1.0
 70
   688
 72
     1
 73
     0
 74
     5
  7

 75
    16
 76
     0
 77
     5
 78
   300
147
1.0
148
0.0
149
0.0
100
AcDbLayout
  1
Layout1
 70
     1
 71
     1
 10
0.0
 20
0.0
 11
420.0
 21
297.0
 12
0.0
 22
0.0
 32
0.0
 14
1.000000000000000E+20
 24
1.000000000000000E+20
 34
1.000000000000000E+20
 15
-1.000000000000000E+20
 25
-1.000000000000000E+20
 35
-1.000000000000000E+20
146
0.0
 13
0.0
 23
0.0
 33
0.0
 16
1.0
 26
0.0
 36
0.0
 17
0.0
 27
1.0
 37
0.0
 76
     0
330
1B
  0
LAYOUT
  5
26
102
{ACAD_REACTORS
330
1A
102
}
330
1A
100
AcDbPlotSettings
  1

  2
none_device
  4

  6

 40
0.0
 41
0.0
 42
0.0
 43
0.0
 44
0.0
 45
0.0
 46
0.0
 47
0.0
 48
0.0
 49
0.0
140
0.0
141
0.0
142
1.0
143
1.0
 70
   688
 72
     1
 73
     0
 74
     5
  7

 75
    16
 76
     0
 77
     5
 78
   300
147
1.0
148
0.0
149
0.0
100
AcDbLayout
  1
Layout2
 70
     1
 71
     2
 10
0.0
 20
0.0
 11
0.0
 21
0.0
 12
0.0
 22
0.0
 32
0.0
 14
0.0
 24
0.0
 34
0.0
 15
0.0
 25
0.0
 35
0.0
146
0.0
 13
0.0
 23
0.0
 33
0.0
 16
1.0
 26
0.0
 36
0.0
 17
0.0
 27
1.0
 37
0.0
 76
     0
330
23
  0
LAYOUT
  5
22
102
{ACAD_REACTORS
330
1A
102
}
330
1A
100
AcDbPlotSettings
  1

  2
none_device
  4
Letter_(8.50_x_11.00_Inches)
  6

 40
6.35
 41
6.35
 42
6.35000508
 43
6.35000508
 44
215.9
 45
279.4
 46
0.0
 47
0.0
 48
0.0
 49
0.0
140
0.0
141
0.0
142
1.0
143
1.0
 70
  1712
 72
     1
 73
     0
 74
     0
  7

 75
     0
 76
     0
 77
     5
 78
   300
147
1.0
148
0.0
149
0.0
100
AcDbLayout
  1
Model
 70
     1
 71
     0
 10
-1050.0
 20
-742.5
 11
1050.0
 21
742.5
 12
0.0
 22
0.0
 32
0.0
 14
-1050.0
 24
-742.5
 34
0.0
 15
1050.0
 25
742.5
 35
0.0
146
0.0
 13
0.0
 23
0.0
 33
0.0
 16
1.0
 26
0.0
 36
0.0
 17
0.0
 27
1.0
 37
0.0
 76
     0
330
1F
331
29
  0
MATERIAL
  5
45
102
{ACAD_REACTORS
330
43
102
}
102
{ACAD_XDICTIONARY
360
476
102
}
330
43
100
AcDbMaterial
  1
ByBlock
  0
MATERIAL
  5
44
102
{ACAD_REACTORS
330
43
102
}
102
{ACAD_XDICTIONARY
360
474
102
}
330
43
100
AcDbMaterial
  1
ByLayer
  0
MATERIAL
  5
46
102
{ACAD_REACTORS
330
43
102
}
102
{ACAD_XDICTIONARY
360
478
102
}
330
43
100
AcDbMaterial
  1
Global
  0
MLEADERSTYLE
  5
6C
102
{ACAD_REACTORS
330
6B
102
}
102
{ACAD_XDICTIONARY
360
47E
102
}
330
6B
100
AcDbMLeaderStyle
170
     2
171
     1
172
     0
 90
        2
 40
0.0
 41
0.0
173
     1
 91
-1056964608
340
14
 92
       -2
290
     1
 42
2.0
291
     1
 43
8.0
  3
Standard
341
0
 44
4.0
300

342
11
174
     1
178
     6
175
     1
176
     0
 93
-1056964608
 45
4.0
292
     0
297
     0
 46
4.0
343
0
 94
-1056964608
 47
1.0
 49
1.0
140
1.0
293
     1
141
0.0
294
     1
177
     0
142
1.0
295
     0
296
     0
143
3.75
1001
ACAD_MLEADERVER
1070
     2
  0
MLINESTYLE
  5
18
102
{ACAD_REACTORS
330
17
102
}
330
17
100
AcDbMlineStyle
  2
Standard
 70
     0
  3

 62
   256
 51
90.0
 52
90.0
 71
     2
 49
0.5
 62
   256
  6
BYLAYER
 49
-0.5
 62
   256
  6
BYLAYER
  0
ACDBPLACEHOLDER
  5
F
102
{ACAD_REACTORS
330
E
102
}
330
E
  0
SCALE
  5
48
102
{ACAD_REACTORS
330
47
102
}
330
47
100
AcDbScale
 70
     0
300
1:1
140
1.0
141
1.0
290
     1
  0
SCALE
  5
49
102
{ACAD_REACTORS
330
47
102
}
330
47
100
AcDbScale
 70
     0
300
1:2
140
1.0
141
2.0
290
     0
  0
SCALE
  5
4A
102
{ACAD_REACTORS
330
47
102
}
330
47
100
AcDbScale
 70
     0
300
1:4
140
1.0
141
4.0
290
     0
  0
SCALE
  5
4B
102
{ACAD_REACTORS
330
47
102
}
330
47
100
AcDbScale
 70
     0
300
1:5
140
1.0
141
5.0
290
     0
  0
SCALE
  5
4C
102
{ACAD_REACTORS
330
47
102
}
330
47
100
AcDbScale
 70
     0
300
1:8
140
1.0
141
8.0
290
     0
  0
SCALE
  5
4D
102
{ACAD_REACTORS
330
47
102
}
330
47
100
AcDbScale
 70
     0
300
1:10
140
1.0
141
10.0
290
     0
  0
SCALE
  5
4E
102
{ACAD_REACTORS
330
47
102
}
330
47
100
AcDbScale
 70
     0
300
1:16
140
1.0
141
16.0
290
     0
  0
SCALE
  5
4F
102
{ACAD_REACTORS
330
47
102
}
330
47
100
AcDbScale
 70
     0
300
1:20
140
1.0
141
20.0
290
     0
  0
SCALE
  5
50
102
{ACAD_REACTORS
330
47
102
}
330
47
100
AcDbScale
 70
     0
300
1:30
140
1.0
141
30.0
290
     0
  0
SCALE
  5
51
102
{ACAD_REACTORS
330
47
102
}
330
47
100
AcDbScale
 70
     0
300
1:40
140
1.0
141
40.0
290
     0
  0
SCALE
  5
52
102
{ACAD_REACTORS
330
47
102
}
330
47
100
AcDbScale
 70
     0
300
1:50
140
1.0
141
50.0
290
     0
  0
SCALE
  5
53
102
{ACAD_REACTORS
330
47
102
}
330
47
100
AcDbScale
 70
     0
300
1:100
140
1.0
141
100.0
290
     0
  0
SCALE
  5
54
102
{ACAD_REACTORS
330
47
102
}
330
47
100
AcDbScale
 70
     0
300
2:1
140
2.0
141
1.0
290
     0
  0
SCALE
  5
55
102
{ACAD_REACTORS
330
47
102
}
330
47
100
AcDbScale
 70
     0
300
4:1
140
4.0
141
1.0
290
     0
  0
SCALE
  5
56
102
{ACAD_REACTORS
330
47
102
}
330
47
100
AcDbScale
 70
     0
300
8:1
140
8.0
141
1.0
290
     0
  0
SCALE
  5
57
102
{ACAD_REACTORS
330
47
102
}
330
47
100
AcDbScale
 70
     0
300
10:1
140
10.0
141
1.0
290
     0
  0
SCALE
  5
58
102
{ACAD_REACTORS
330
47
102
}
330
47
100
AcDbScale
 70
     0
300
100:1
140
100.0
141
1.0
290
     0
  0
SCALE
  5
59
102
{ACAD_REACTORS
330
47
102
}
330
47
100
AcDbScale
 70
     0
300
1/128" = 1'-0"
140
0.0078125
141
12.0
290
     0
  0
SCALE
  5
5A
102
{ACAD_REACTORS
330
47
102
}
330
47
100
AcDbScale
 70
     0
300
1/64" = 1'-0"
140
0.015625
141
12.0
290
     0
  0
SCALE
  5
5B
102
{ACAD_REACTORS
330
47
102
}
330
47
100
AcDbScale
 70
     0
300
1/32" = 1'-0"
140
0.03125
141
12.0
290
     0
  0
SCALE
  5
5C
102
{ACAD_REACTORS
330
47
102
}
330
47
100
AcDbScale
 70
     0
300
1/16" = 1'-0"
140
0.0625
141
12.0
290
     0
  0
SCALE
  5
5D
102
{ACAD_REACTORS
330
47
102
}
330
47
100
AcDbScale
 70
     0
300
3/32" = 1'-0"
140
0.09375
141
12.0
290
     0
  0
SCALE
  5
5E
102
{ACAD_REACTORS
330
47
102
}
330
47
100
AcDbScale
 70
     0
300
1/8" = 1'-0"
140
0.125
141
12.0
290
     0
  0
SCALE
  5
5F
102
{ACAD_REACTORS
330
47
102
}
330
47
100
AcDbScale
 70
     0
300
3/16" = 1'-0"
140
0.1875
141
12.0
290
     0
  0
SCALE
  5
60
102
{ACAD_REACTORS
330
47
102
}
330
47
100
AcDbScale
 70
     0
300
1/4" = 1'-0"
140
0.25
141
12.0
290
     0
  0
SCALE
  5
61
102
{ACAD_REACTORS
330
47
102
}
330
47
100
AcDbScale
 70
     0
300
3/8" = 1'-0"
140
0.375
141
12.0
290
     0
  0
SCALE
  5
62
102
{ACAD_REACTORS
330
47
102
}
330
47
100
AcDbScale
 70
     0
300
1/2" = 1'-0"
140
0.5
141
12.0
290
     0
  0
SCALE
  5
63
102
{ACAD_REACTORS
330
47
102
}
330
47
100
AcDbScale
 70
     0
300
3/4" = 1'-0"
140
0.75
141
12.0
290
     0
  0
SCALE
  5
64
102
{ACAD_REACTORS
330
47
102
}
330
47
100
AcDbScale
 70
     0
300
1" = 1'-0"
140
1.0
141
12.0
290
     0
  0
SCALE
  5
65
102
{ACAD_REACTORS
330
47
102
}
330
47
100
AcDbScale
 70
     0
300
1-1/2" = 1'-0"
140
1.5
141
12.0
290
     0
  0
SCALE
  5
66
102
{ACAD_REACTORS
330
47
102
}
330
47
100
AcDbScale
 70
     0
300
3" = 1'-0"
140
3.0
141
12.0
290
     0
  0
SCALE
  5
67
102
{ACAD_REACTORS
330
47
102
}
330
47
100
AcDbScale
 70
     0
300
6" = 1'-0"
140
6.0
141
12.0
290
     0
  0
SCALE
  5
68
102
{ACAD_REACTORS
330
47
102
}
330
47
100
AcDbScale
 70
     0
300
1'-0" = 1'-0"
140
12.0
141
12.0
290
     0
  0
TABLESTYLE
  5
6A
102
{ACAD_REACTORS
330
69
102
}
102
{ACAD_XDICTIONARY
360
47A
102
}
330
69
100
AcDbTableStyle
  3
Standard
 70
     0
 71
     0
 40
0.06
 41
0.06
280
     0
281
     0
  7
Standard
140
4.5
170
     2
 62
     0
 63
   257
283
     0
274
    -2
284
     1
 64
     0
275
    -2
285
     1
 65
     0
276
    -2
286
     1
 66
     0
277
    -2
287
     1
 67
     0
278
    -2
288
     1
 68
     0
279
    -2
289
     1
 69
     0
  7
Standard
140
6.0
170
     5
 62
     0
 63
   257
283
     0
274
    -2
284
     1
 64
     0
275
    -2
285
     1
 65
     0
276
    -2
286
     1
 66
     0
277
    -2
287
     1
 67
     0
278
    -2
288
     1
 68
     0
279
    -2
289
     1
 69
     0
  7
Standard
140
4.5
170
     5
 62
     0
 63
   257
283
     0
274
    -2
284
     1
 64
     0
275
    -2
285
     1
 65
     0
276
    -2
286
     1
 66
     0
277
    -2
287
     1
 67
     0
278
    -2
288
     1
 68
     0
279
    -2
289
     1
 69
     0
  0
VISUALSTYLE
  5
2F
102
{ACAD_REACTORS
330
2A
102
}
102
{ACAD_XDICTIONARY
360
44C
102
}
330
2A
100
AcDbVisualStyle
  2
2dWireframe
 70
     4
 71
     0
 72
     2
 73
     0
 90
        0
 40
0.6
 41
30.0
 62
     5
 63
     7
421
 16777215
 74
     1
 91
        4
 64
     7
 65
   257
 75
     1
175
     1
 42
1.0
 92
        0
 66
   257
 43
1.0
 76
     1
 77
     6
 78
     2
 67
     7
 79
     5
170
     0
171
     0
290
     0
174
     0
 93
        1
 44
0.0
173
     0
291
     0
 45
0.0
1001
ACAD
1000
AcDbSavedByObjectVersion
1070
     0
  0
VISUALSTYLE
  5
32
102
{ACAD_REACTORS
330
2A
102
}
102
{ACAD_XDICTIONARY
360
452
102
}
330
2A
100
AcDbVisualStyle
  2
Basic
 70
     7
 71
     1
 72
     0
 73
     1
 90
        0
 40
0.6
 41
30.0
 62
     5
 63
     7
421
 16777215
 74
     0
 91
        4
 64
     7
 65
   257
 75
     1
175
     1
 42
1.0
 92
        8
 66
     7
 43
1.0
 76
     1
 77
     6
 78
     2
 67
     7
 79
     5
170
     0
171
     0
290
     0
174
     0
 93
        1
 44
0.0
173
     0
291
     1
 45
0.0
1001
ACAD
1000
AcDbSavedByObjectVersion
1070
     0
  0
VISUALSTYLE
  5
36
102
{ACAD_REACTORS
330
2A
102
}
102
{ACAD_XDICTIONARY
360
45A
102
}
330
2A
100
AcDbVisualStyle
  2
Brighten
 70
    12
 71
     2
 72
     2
 73
     0
 90
        0
 40
0.6
 41
30.0
 62
     5
 63
     7
421
 16777215
 74
     1
 91
        4
 64
     7
 65
   257
 75
     1
175
     1
 42
1.0
 92
        8
 66
     7
 43
1.0
 76
     1
 77
     6
 78
     2
 67
     7
 79
     5
170
     0
171
     0
290
     0
174
     0
 93
        1
 44
50.0
173
     0
291
     1
 45
0.0
1001
ACAD
1000
AcDbSavedByObjectVersion
1070
     0
  0
VISUALSTYLE
  5
3A
102
{ACAD_REACTORS
330
2A
102
}
102
{ACAD_XDICTIONARY
360
462
102
}
330
2A
100
AcDbVisualStyle
  2
ColorChange
 70
    16
 71
     2
 72
     2
 73
     3
 90
        0
 40
0.6
 41
30.0
 62
     5
 63
     8
421
  8421504
 74
     1
 91
        4
 64
     7
 65
   257
 75
     1
175
     1
 42
1.0
 92
        8
 66
     8
424
  8421504
 43
1.0
 76
     1
 77
     6
 78
     2
 67
     7
 79
     5
170
     0
171
     0
290
     0
174
     0
 93
        1
 44
0.0
173
     0
291
     1
 45
0.0
1001
ACAD
1000
AcDbSavedByObjectVersion
1070
     0
  0
VISUALSTYLE
  5
34
102
{ACAD_REACTORS
330
2A
102
}
102
{ACAD_XDICTIONARY
360
456
102
}
330
2A
100
AcDbVisualStyle
  2
Conceptual
 70
     9
 71
     3
 72
     2
 73
     0
 90
        0
 40
0.6
 41
30.0
 62
     5
 63
     7
421
 16777215
 74
     2
 91
        2
 64
     7
 65
   257
 75
     1
175
     1
 42
179.0
 92
        8
 66
     7
 43
1.0
 76
     1
 77
     6
 78
     2
 67
     7
 79
     3
170
     0
171
     0
290
     0
174
     0
 93
        1
 44
0.0
173
     0
291
     0
 45
0.0
1001
ACAD
1000
AcDbSavedByObjectVersion
1070
     0
  0
VISUALSTYLE
  5
35
102
{ACAD_REACTORS
330
2A
102
}
102
{ACAD_XDICTIONARY
360
458
102
}
330
2A
100
AcDbVisualStyle
  2
Dim
 70
    11
 71
     2
 72
     2
 73
     0
 90
        0
 40
0.6
 41
30.0
 62
     5
 63
     7
421
 16777215
 74
     1
 91
        4
 64
     7
 65
   257
 75
     1
175
     1
 42
1.0
 92
        8
 66
     7
 43
1.0
 76
     1
 77
     6
 78
     2
 67
     7
 79
     5
170
     0
171
     0
290
     0
174
     0
 93
        1
 44
-50.0
173
     0
291
     1
 45
0.0
1001
ACAD
1000
AcDbSavedByObjectVersion
1070
     0
  0
VISUALSTYLE
  5
3D
102
{ACAD_REACTORS
330
2A
102
}
102
{ACAD_XDICTIONARY
360
468
102
}
330
2A
100
AcDbVisualStyle
  2
EdgeColorOff
 70
    22
 71
     2
 72
     2
 73
     0
 90
        0
 40
0.6
 41
30.0
 62
     5
 63
     7
421
 16777215
 74
     1
 91
        4
 64
     7
 65
   257
 75
     1
175
     1
 42
1.0
 92
        8
 66
     7
 43
1.0
 76
     1
 77
     6
 78
     2
 67
     7
 79
     5
170
     0
171
     0
290
     0
174
     0
 93
        1
 44
0.0
173
     0
291
     1
 45
0.0
1001
ACAD
1000
AcDbSavedByObjectVersion
1070
     0
  0
VISUALSTYLE
  5
39
102
{ACAD_REACTORS
330
2A
102
}
102
{ACAD_XDICTIONARY
360
460
102
}
330
2A
100
AcDbVisualStyle
  2
Facepattern
 70
    15
 71
     2
 72
     2
 73
     0
 90
        0
 40
0.6
 41
30.0
 62
     5
 63
     7
421
 16777215
 74
     1
 91
        4
 64
     7
 65
   257
 75
     1
175
     1
 42
1.0
 92
        8
 66
     7
 43
1.0
 76
     1
 77
     6
 78
     2
 67
     7
 79
     5
170
     0
171
     0
290
     0
174
     0
 93
        1
 44
0.0
173
     0
291
     1
 45
0.0
1001
ACAD
1000
AcDbSavedByObjectVersion
1070
     0
  0
VISUALSTYLE
  5
2B
102
{ACAD_REACTORS
330
2A
102
}
102
{ACAD_XDICTIONARY
360
444
102
}
330
2A
100
AcDbVisualStyle
  2
Flat
 70
     0
 71
     2
 72
     1
 73
     1
 90
        2
 40
0.6
 41
30.0
 62
     5
 63
     7
421
 16777215
 74
     0
 91
        0
 64
     7
 65
   257
 75
     1
175
     1
 42
1.0
 92
        8
 66
     7
 43
1.0
 76
     1
 77
     6
 78
     2
 67
     7
 79
     5
170
     0
171
     0
290
     0
174
     0
 93
       13
 44
0.0
173
     0
291
     1
 45
0.0
1001
ACAD
1000
AcDbSavedByObjectVersion
1070
     0
  0
VISUALSTYLE
  5
2C
102
{ACAD_REACTORS
330
2A
102
}
102
{ACAD_XDICTIONARY
360
446
102
}
330
2A
100
AcDbVisualStyle
  2
FlatWithEdges
 70
     1
 71
     2
 72
     1
 73
     1
 90
        2
 40
0.6
 41
30.0
 62
     5
 63
     7
421
 16777215
 74
     1
 91
        0
 64
     7
 65
   257
 75
     1
175
     1
 42
1.0
 92
        0
 66
   257
 43
1.0
 76
     1
 77
     6
 78
     2
 67
     7
 79
     5
170
     0
171
     0
290
     0
174
     0
 93
       13
 44
0.0
173
     0
291
     1
 45
0.0
1001
ACAD
1000
AcDbSavedByObjectVersion
1070
     0
  0
VISUALSTYLE
  5
2D
102
{ACAD_REACTORS
330
2A
102
}
102
{ACAD_XDICTIONARY
360
448
102
}
330
2A
100
AcDbVisualStyle
  2
Gouraud
 70
     2
 71
     2
 72
     2
 73
     1
 90
        2
 40
0.6
 41
30.0
 62
     5
 63
     7
421
 16777215
 74
     0
 91
        0
 64
     7
 65
   257
 75
     1
175
     1
 42
1.0
 92
        0
 66
     7
 43
1.0
 76
     1
 77
     6
 78
     2
 67
     7
 79
     5
170
     0
171
     0
290
     0
174
     0
 93
       13
 44
0.0
173
     0
291
     1
 45
0.0
1001
ACAD
1000
AcDbSavedByObjectVersion
1070
     0
  0
VISUALSTYLE
  5
2E
102
{ACAD_REACTORS
330
2A
102
}
102
{ACAD_XDICTIONARY
360
44A
102
}
330
2A
100
AcDbVisualStyle
  2
GouraudWithEdges
 70
     3
 71
     2
 72
     2
 73
     1
 90
        2
 40
0.6
 41
30.0
 62
     5
 63
     7
421
 16777215
 74
     1
 91
        0
 64
     7
 65
   257
 75
     1
175
     1
 42
1.0
 92
        0
 66
   257
 43
1.0
 76
     1
 77
     6
 78
     2
 67
     7
 79
     5
170
     0
171
     0
290
     0
174
     0
 93
       13
 44
0.0
173
     0
291
     1
 45
0.0
1001
ACAD
1000
AcDbSavedByObjectVersion
1070
     0
  0
VISUALSTYLE
  5
31
102
{ACAD_REACTORS
330
2A
102
}
102
{ACAD_XDICTIONARY
360
450
102
}
330
2A
100
AcDbVisualStyle
  2
Hidden
 70
     6
 71
     1
 72
     2
 73
     2
 90
        0
 40
0.6
 41
30.0
 62
     5
 63
     7
421
 16777215
 74
     2
 91
        2
 64
     7
 65
   257
 75
     2
175
     1
 42
40.0
 92
        0
 66
   257
 43
1.0
 76
     1
 77
     6
 78
     2
 67
     7
 79
     3
170
     0
171
     0
290
     0
174
     0
 93
        1
 44
0.0
173
     0
291
     0
 45
0.0
1001
ACAD
1000
AcDbSavedByObjectVersion
1070
     0
  0
VISUALSTYLE
  5
3B
102
{ACAD_REACTORS
330
2A
102
}
102
{ACAD_XDICTIONARY
360
464
102
}
330
2A
100
AcDbVisualStyle
  2
JitterOff
 70
    20
 71
     2
 72
     2
 73
     0
 90
        0
 40
0.6
 41
30.0
 62
     5
 63
     7
421
 16777215
 74
     1
 91
        4
 64
     7
 65
   257
 75
     1
175
     1
 42
1.0
 92
       10
 66
     7
 43
1.0
 76
     1
 77
     6
 78
     2
 67
     7
 79
     5
170
     0
171
     0
290
     0
174
     0
 93
        1
 44
0.0
173
     0
291
     1
 45
0.0
1001
ACAD
1000
AcDbSavedByObjectVersion
1070
     0
  0
VISUALSTYLE
  5
38
102
{ACAD_REACTORS
330
2A
102
}
102
{ACAD_XDICTIONARY
360
45E
102
}
330
2A
100
AcDbVisualStyle
  2
Linepattern
 70
    14
 71
     2
 72
     2
 73
     0
 90
        0
 40
0.6
 41
30.0
 62
     5
 63
     7
421
 16777215
 74
     1
 91
        4
 64
     7
 65
   257
 75
     7
175
     7
 42
1.0
 92
        8
 66
     7
 43
1.0
 76
     1
 77
     6
 78
     2
 67
     7
 79
     5
170
     0
171
     0
290
     0
174
     0
 93
        1
 44
0.0
173
     0
291
     1
 45
0.0
1001
ACAD
1000
AcDbSavedByObjectVersion
1070
     0
  0
VISUALSTYLE
  5
3C
102
{ACAD_REACTORS
330
2A
102
}
102
{ACAD_XDICTIONARY
360
466
102
}
330
2A
100
AcDbVisualStyle
  2
OverhangOff
 70
    21
 71
     2
 72
     2
 73
     0
 90
        0
 40
0.6
 41
30.0
 62
     5
 63
     7
421
 16777215
 74
     1
 91
        4
 64
     7
 65
   257
 75
     1
175
     1
 42
1.0
 92
        9
 66
     7
 43
1.0
 76
     1
 77
     6
 78
     2
 67
     7
 79
     5
170
     0
171
     0
290
     0
174
     0
 93
        1
 44
0.0
173
     0
291
     1
 45
0.0
1001
ACAD
1000
AcDbSavedByObjectVersion
1070
     0
  0
VISUALSTYLE
  5
33
102
{ACAD_REACTORS
330
2A
102
}
102
{ACAD_XDICTIONARY
360
454
102
}
330
2A
100
AcDbVisualStyle
  2
Realistic
 70
     8
 71
     2
 72
     3
 73
     0
 90
        2
 40
0.6
 41
30.0
 62
     5
 63
     7
421
 16777215
 74
     0
 91
        0
 64
     7
 65
   257
 75
     1
175
     1
 42
1.0
 92
        8
 66
   257
 43
1.0
 76
     1
 77
     6
 78
     2
 67
     7
 79
     3
170
     0
171
     0
290
     0
174
     0
 93
       13
 44
0.0
173
     0
291
     0
 45
0.0
1001
ACAD
1000
AcDbSavedByObjectVersion
1070
     0
  0
VISUALSTYLE
  5
42
102
{ACAD_REACTORS
330
2A
102
}
102
{ACAD_XDICTIONARY
360
472
102
}
330
2A
100
AcDbVisualStyle
  2
Shaded
 70
    27
 71
     2
 72
     2
 73
     1
 90
        2
 40
0.6
 41
30.0
 62
     5
 63
     7
421
 16777215
 74
     0
 91
        4
 64
     7
 65
   257
 75
     1
175
     1
 42
1.0
 92
        8
 66
   257
 43
1.0
 76
     1
 77
     6
 78
     2
 67
     8
425
  7895160
 79
     3
170
     0
171
     0
290
     0
174
     0
 93
        5
 44
0.0
173
     0
291
     0
 45
0.0
1001
ACAD
1000
AcDbSavedByObjectVersion
1070
     0
  0
VISUALSTYLE
  5
41
102
{ACAD_REACTORS
330
2A
102
}
102
{ACAD_XDICTIONARY
360
470
102
}
330
2A
100
AcDbVisualStyle
  2
Shaded with edges
 70
    26
 71
     2
 72
     2
 73
     1
 90
        2
 40
0.6
 41
30.0
 62
     5
 63
     7
421
 16777215
 74
     1
 91
       10
 64
     7
 65
   257
 75
     2
175
     1
 42
1.0
 92
        8
 66
   257
 43
1.0
 76
     1
 77
     6
 78
     2
 67
     7
 79
     3
170
     0
171
     0
290
     0
174
     0
 93
        5
 44
0.0
173
     0
291
     0
 45
0.0
1001
ACAD
1000
AcDbSavedByObjectVersion
1070
     0
  0
VISUALSTYLE
  5
3E
102
{ACAD_REACTORS
330
2A
102
}
102
{ACAD_XDICTIONARY
360
46A
102
}
330
2A
100
AcDbVisualStyle
  2
Shades of Gray
 70
    23
 71
     2
 72
     2
 73
     3
 90
        0
 40
0.6
 41
30.0
 62
     5
 63
     7
421
 16777215
 74
     2
 91
        2
 64
     7
 65
     7
 75
     1
175
     1
 42
40.0
 92
        8
 66
     7
 43
1.0
 76
     1
 77
     6
 78
     2
 67
     7
 79
     3
170
     0
171
     0
290
     0
174
     0
 93
        1
 44
0.0
173
     0
291
     0
 45
0.0
1001
ACAD
1000
AcDbSavedByObjectVersion
1070
     0
  0
VISUALSTYLE
  5
3F
102
{ACAD_REACTORS
330
2A
102
}
102
{ACAD_XDICTIONARY
360
46C
102
}
330
2A
100
AcDbVisualStyle
  2
Sketchy
 70
    24
 71
     1
 72
     2
 73
     2
 90
        0
 40
0.6
 41
30.0
 62
     5
 63
     7
421
 16777215
 74
     2
 91
        2
 64
     7
 65
     7
 75
     1
175
     1
 42
40.0
 92
       11
 66
     7
 43
1.0
 76
     1
 77
     6
 78
     2
 67
     7
 79
     6
170
     0
171
     0
290
     0
174
     0
 93
        1
 44
0.0
173
     0
291
     0
 45
0.0
1001
ACAD
1000
AcDbSavedByObjectVersion
1070
     0
  0
VISUALSTYLE
  5
37
102
{ACAD_REACTORS
330
2A
102
}
102
{ACAD_XDICTIONARY
360
45C
102
}
330
2A
100
AcDbVisualStyle
  2
Thicken
 70
    13
 71
     2
 72
     2
 73
     0
 90
        0
 40
0.6
 41
30.0
 62
     5
 63
     7
421
 16777215
 74
     1
 91
        4
 64
     7
 65
   257
 75
     1
175
     1
 42
1.0
 92
       12
 66
     7
 43
1.0
 76
     1
 77
     6
 78
     2
 67
     7
 79
     5
170
     0
171
     0
290
     0
174
     0
 93
        1
 44
0.0
173
     0
291
     1
 45
0.0
1001
ACAD
1000
AcDbSavedByObjectVersion
1070
     0
  0
VISUALSTYLE
  5
30
102
{ACAD_REACTORS
330
2A
102
}
102
{ACAD_XDICTIONARY
360
44E
102
}
330
2A
100
AcDbVisualStyle
  2
Wireframe
 70
     5
 71
     0
 72
     2
 73
     0
 90
        0
 40
0.6
 41
30.0
 62
     5
 63
     7
421
 16777215
 74
     1
 91
        4
 64
     7
 65
   257
 75
     1
175
     1
 42
1.0
 92
        0
 66
   257
 43
1.0
 76
     1
 77
     6
 78
     2
 67
     7
 79
     3
170
     0
171
     0
290
     0
174
     0
 93
        1
 44
0.0
173
     0
291
     0
 45
0.0
1001
ACAD
1000
AcDbSavedByObjectVersion
1070
     0
  0
VISUALSTYLE
  5
40
102
{ACAD_REACTORS
330
2A
102
}
102
{ACAD_XDICTIONARY
360
46E
102
}
330
2A
100
AcDbVisualStyle
  2
X-Ray
 70
    25
 71
     2
 72
     2
 73
     1
 90
        1
 40
0.5
 41
30.0
 62
     5
 63
     7
421
 16777215
 74
     1
 91
        0
 64
     7
 65
   257
 75
     1
175
     1
 42
1.0
 92
        8
 66
     7
 43
1.0
 76
     1
 77
     6
 78
     2
 67
     7
 79
     3
170
     0
171
     0
290
     0
174
     0
 93
       13
 44
0.0
173
     0
291
     0
 45
0.0
1001
ACAD
1000
AcDbSavedByObjectVersion
1070
     0
  0
DICTIONARYVAR
  5
441
102
{ACAD_REACTORS
330
440
102
}
330
440
100
DictionaryVariables
280
     0
  1
1:1
  0
DICTIONARYVAR
  5
485
102
{ACAD_REACTORS
330
440
102
}
330
440
100
DictionaryVariables
280
     0
  1
3.500000
  0
DICTIONARYVAR
  5
486
102
{ACAD_REACTORS
330
440
102
}
330
440
100
DictionaryVariables
280
     0
  1
acadiso.lin
  0
DICTIONARYVAR
  5
482
102
{ACAD_REACTORS
330
440
102
}
330
440
100
DictionaryVariables
280
     0
  1
Standard
  0
DICTIONARYVAR
  5
481
102
{ACAD_REACTORS
330
440
102
}
330
440
100
DictionaryVariables
280
     0
  1
Standard
  0
DICTIONARYVAR
  5
442
102
{ACAD_REACTORS
330
440
102
}
330
440
100
DictionaryVariables
280
     0
  1
1
  0
DICTIONARYVAR
  5
443
102
{ACAD_REACTORS
330
440
102
}
330
440
100
DictionaryVariables
280
     0
  1
2
  0
DICTIONARY
  5
476
330
45
100
AcDbDictionary
280
     1
281
     1
  3
ACAD_XREC_ROUNDTRIP
360
477
  0
DICTIONARY
  5
474
330
44
100
AcDbDictionary
280
     1
281
     1
  3
ACAD_XREC_ROUNDTRIP
360
475
  0
DICTIONARY
  5
478
330
46
100
AcDbDictionary
280
     1
281
     1
  3
ACAD_XREC_ROUNDTRIP
360
479
  0
DICTIONARY
  5
47E
330
6C
100
AcDbDictionary
280
     1
281
     1
  3
ACAD_XREC_ROUNDTRIP
360
47F
  0
DICTIONARY
  5
47A
330
6A
100
AcDbDictionary
280
     1
281
     1
  3
ACAD_ROUNDTRIP_2008_TABLESTYLE_CELLSTYLEMAP
360
47C
  3
ACAD_XREC_ROUNDTRIP
360
47B
  0
DICTIONARY
  5
44C
330
2F
100
AcDbDictionary
280
     1
281
     1
  3
ACAD_XREC_ROUNDTRIP
360
44D
  0
DICTIONARY
  5
452
330
32
100
AcDbDictionary
280
     1
281
     1
  3
ACAD_XREC_ROUNDTRIP
360
453
  0
DICTIONARY
  5
45A
330
36
100
AcDbDictionary
280
     1
281
     1
  3
ACAD_XREC_ROUNDTRIP
360
45B
  0
DICTIONARY
  5
462
330
3A
100
AcDbDictionary
280
     1
281
     1
  3
ACAD_XREC_ROUNDTRIP
360
463
  0
DICTIONARY
  5
456
330
34
100
AcDbDictionary
280
     1
281
     1
  3
ACAD_XREC_ROUNDTRIP
360
457
  0
DICTIONARY
  5
458
330
35
100
AcDbDictionary
280
     1
281
     1
  3
ACAD_XREC_ROUNDTRIP
360
459
  0
DICTIONARY
  5
468
330
3D
100
AcDbDictionary
280
     1
281
     1
  3
ACAD_XREC_ROUNDTRIP
360
469
  0
DICTIONARY
  5
460
330
39
100
AcDbDictionary
280
     1
281
     1
  3
ACAD_XREC_ROUNDTRIP
360
461
  0
DICTIONARY
  5
444
330
2B
100
AcDbDictionary
280
     1
281
     1
  3
ACAD_XREC_ROUNDTRIP
360
445
  0
DICTIONARY
  5
446
330
2C
100
AcDbDictionary
280
     1
281
     1
  3
ACAD_XREC_ROUNDTRIP
360
447
  0
DICTIONARY
  5
448
330
2D
100
AcDbDictionary
280
     1
281
     1
  3
ACAD_XREC_ROUNDTRIP
360
449
  0
DICTIONARY
  5
44A
330
2E
100
AcDbDictionary
280
     1
281
     1
  3
ACAD_XREC_ROUNDTRIP
360
44B
  0
DICTIONARY
  5
450
330
31
100
AcDbDictionary
280
     1
281
     1
  3
ACAD_XREC_ROUNDTRIP
360
451
  0
DICTIONARY
  5
464
330
3B
100
AcDbDictionary
280
     1
281
     1
  3
ACAD_XREC_ROUNDTRIP
360
465
  0
DICTIONARY
  5
45E
330
38
100
AcDbDictionary
280
     1
281
     1
  3
ACAD_XREC_ROUNDTRIP
360
45F
  0
DICTIONARY
  5
466
330
3C
100
AcDbDictionary
280
     1
281
     1
  3
ACAD_XREC_ROUNDTRIP
360
467
  0
DICTIONARY
  5
454
330
33
100
AcDbDictionary
280
     1
281
     1
  3
ACAD_XREC_ROUNDTRIP
360
455
  0
DICTIONARY
  5
472
330
42
100
AcDbDictionary
280
     1
281
     1
  3
ACAD_XREC_ROUNDTRIP
360
473
  0
DICTIONARY
  5
470
330
41
100
AcDbDictionary
280
     1
281
     1
  3
ACAD_XREC_ROUNDTRIP
360
471
  0
DICTIONARY
  5
46A
330
3E
100
AcDbDictionary
280
     1
281
     1
  3
ACAD_XREC_ROUNDTRIP
360
46B
  0
DICTIONARY
  5
46C
330
3F
100
AcDbDictionary
280
     1
281
     1
  3
ACAD_XREC_ROUNDTRIP
360
46D
  0
DICTIONARY
  5
45C
330
37
100
AcDbDictionary
280
     1
281
     1
  3
ACAD_XREC_ROUNDTRIP
360
45D
  0
DICTIONARY
  5
44E
330
30
100
AcDbDictionary
280
     1
281
     1
  3
ACAD_XREC_ROUNDTRIP
360
44F
  0
DICTIONARY
  5
46E
330
40
100
AcDbDictionary
280
     1
281
     1
  3
ACAD_XREC_ROUNDTRIP
360
46F
  0
XRECORD
  5
477
102
{ACAD_REACTORS
330
476
102
}
330
476
100
AcDbXrecord
280
     1
102
MATERIAL
148
0.0
149
0.0
149
0.0
 93
        0
 94
      127
282
     0
 72
     1
 77
     1
171
     1
175
     1
179
     1
273
     0
  0
XRECORD
  5
475
102
{ACAD_REACTORS
330
474
102
}
330
474
100
AcDbXrecord
280
     1
102
MATERIAL
148
0.0
149
0.0
149
0.0
 93
        0
 94
      127
282
     0
 72
     1
 77
     1
171
     1
175
     1
179
     1
273
     0
  0
XRECORD
  5
479
102
{ACAD_REACTORS
330
478
102
}
330
478
100
AcDbXrecord
280
     1
102
MATERIAL
148
0.0
149
0.0
149
0.0
 93
        0
 94
      127
282
     0
 72
     1
 77
     1
171
     1
175
     1
179
     1
273
     0
  0
XRECORD
  5
47F
102
{ACAD_REACTORS
330
47E
102
}
330
47E
100
AcDbXrecord
280
     1
102
ACAD_ROUNDTRIP_2010_MLEADER_STYLE
  0
CELLSTYLEMAP
  5
47C
102
{ACAD_REACTORS
330
47A
102
}
330
47A
100
AcDbCellStyleMap
 90
        3
300
CELLSTYLE
  1
TABLEFORMAT_BEGIN
 90
        5
170
     1
 91
        0
 92
    32768
 62
   257
 93
        1
300
CONTENTFORMAT
  1
CONTENTFORMAT_BEGIN
 90
        0
 91
        0
 92
        4
 93
        0
300

 40
0.0
140
1.0
 94
        5
 62
     0
340
11
144
6.0
309
CONTENTFORMAT_END
171
     1
301
MARGIN
  1
CELLMARGIN_BEGIN
 40
1.5
 40
1.5
 40
1.5
 40
1.5
 40
1.5
 40
1.5
309
CELLMARGIN_END
 94
        6
 95
        1
302
GRIDFORMAT
  1
GRIDFORMAT_BEGIN
 90
        0
 91
        1
 62
     0
 92
       -2
340
14
 93
        0
 40
0.045
309
GRIDFORMAT_END
 95
        2
302
GRIDFORMAT
  1
GRIDFORMAT_BEGIN
 90
        0
 91
        1
 62
     0
 92
       -2
340
14
 93
        0
 40
0.045
309
GRIDFORMAT_END
 95
        4
302
GRIDFORMAT
  1
GRIDFORMAT_BEGIN
 90
        0
 91
        1
 62
     0
 92
       -2
340
14
 93
        0
 40
0.045
309
GRIDFORMAT_END
 95
        8
302
GRIDFORMAT
  1
GRIDFORMAT_BEGIN
 90
        0
 91
        1
 62
     0
 92
       -2
340
14
 93
        0
 40
0.045
309
GRIDFORMAT_END
 95
       16
302
GRIDFORMAT
  1
GRIDFORMAT_BEGIN
 90
        0
 91
        1
 62
     0
 92
       -2
340
14
 93
        0
 40
0.045
309
GRIDFORMAT_END
 95
       32
302
GRIDFORMAT
  1
GRIDFORMAT_BEGIN
 90
        0
 91
        1
 62
     0
 92
       -2
340
14
 93
        0
 40
0.045
309
GRIDFORMAT_END
309
TABLEFORMAT_END
  1
CELLSTYLE_BEGIN
 90
        1
 91
        1
300
_TITLE
309
CELLSTYLE_END
300
CELLSTYLE
  1
TABLEFORMAT_BEGIN
 90
        5
170
     1
 91
        0
 92
        0
 62
   257
 93
        1
300
CONTENTFORMAT
  1
CONTENTFORMAT_BEGIN
 90
        0
 91
        0
 92
        4
 93
        0
300

 40
0.0
140
1.0
 94
        5
 62
     0
340
11
144
4.5
309
CONTENTFORMAT_END
171
     1
301
MARGIN
  1
CELLMARGIN_BEGIN
 40
1.5
 40
1.5
 40
1.5
 40
1.5
 40
1.5
 40
1.5
309
CELLMARGIN_END
 94
        6
 95
        1
302
GRIDFORMAT
  1
GRIDFORMAT_BEGIN
 90
        0
 91
        1
 62
     0
 92
       -2
340
14
 93
        0
 40
0.045
309
GRIDFORMAT_END
 95
        2
302
GRIDFORMAT
  1
GRIDFORMAT_BEGIN
 90
        0
 91
        1
 62
     0
 92
       -2
340
14
 93
        0
 40
0.045
309
GRIDFORMAT_END
 95
        4
302
GRIDFORMAT
  1
GRIDFORMAT_BEGIN
 90
        0
 91
        1
 62
     0
 92
       -2
340
14
 93
        0
 40
0.045
309
GRIDFORMAT_END
 95
        8
302
GRIDFORMAT
  1
GRIDFORMAT_BEGIN
 90
        0
 91
        1
 62
     0
 92
       -2
340
14
 93
        0
 40
0.045
309
GRIDFORMAT_END
 95
       16
302
GRIDFORMAT
  1
GRIDFORMAT_BEGIN
 90
        0
 91
        1
 62
     0
 92
       -2
340
14
 93
        0
 40
0.045
309
GRIDFORMAT_END
 95
       32
302
GRIDFORMAT
  1
GRIDFORMAT_BEGIN
 90
        0
 91
        1
 62
     0
 92
       -2
340
14
 93
        0
 40
0.045
309
GRIDFORMAT_END
309
TABLEFORMAT_END
  1
CELLSTYLE_BEGIN
 90
        2
 91
        1
300
_HEADER
309
CELLSTYLE_END
300
CELLSTYLE
  1
TABLEFORMAT_BEGIN
 90
        5
170
     1
 91
        0
 92
        0
 62
   257
 93
        1
300
CONTENTFORMAT
  1
CONTENTFORMAT_BEGIN
 90
        0
 91
        0
 92
        4
 93
        0
300

 40
0.0
140
1.0
 94
        2
 62
     0
340
11
144
4.5
309
CONTENTFORMAT_END
171
     1
301
MARGIN
  1
CELLMARGIN_BEGIN
 40
1.5
 40
1.5
 40
1.5
 40
1.5
 40
1.5
 40
1.5
309
CELLMARGIN_END
 94
        6
 95
        1
302
GRIDFORMAT
  1
GRIDFORMAT_BEGIN
 90
        0
 91
        1
 62
     0
 92
       -2
340
14
 93
        0
 40
0.045
309
GRIDFORMAT_END
 95
        2
302
GRIDFORMAT
  1
GRIDFORMAT_BEGIN
 90
        0
 91
        1
 62
     0
 92
       -2
340
14
 93
        0
 40
0.045
309
GRIDFORMAT_END
 95
        4
302
GRIDFORMAT
  1
GRIDFORMAT_BEGIN
 90
        0
 91
        1
 62
     0
 92
       -2
340
14
 93
        0
 40
0.045
309
GRIDFORMAT_END
 95
        8
302
GRIDFORMAT
  1
GRIDFORMAT_BEGIN
 90
        0
 91
        1
 62
     0
 92
       -2
340
14
 93
        0
 40
0.045
309
GRIDFORMAT_END
 95
       16
302
GRIDFORMAT
  1
GRIDFORMAT_BEGIN
 90
        0
 91
        1
 62
     0
 92
       -2
340
14
 93
        0
 40
0.045
309
GRIDFORMAT_END
 95
       32
302
GRIDFORMAT
  1
GRIDFORMAT_BEGIN
 90
        0
 91
        1
 62
     0
 92
       -2
340
14
 93
        0
 40
0.045
309
GRIDFORMAT_END
309
TABLEFORMAT_END
  1
CELLSTYLE_BEGIN
 90
        3
 91
        2
300
_DATA
309
CELLSTYLE_END
  0
XRECORD
  5
47B
102
{ACAD_REACTORS
330
47A
102
}
330
47A
100
AcDbXrecord
280
     1
102
ACAD_ROUNDTRIP_PRE2007_TABLESTYLE
 90
        4
 91
        0
  1

 92
        4
 93
        0
  2

 94
        4
 95
        0
  3

  0
XRECORD
  5
44D
102
{ACAD_REACTORS
330
44C
102
}
330
44C
100
AcDbXrecord
280
     1
102
RTVSPropertyOp0
 70
     1
102
RTVSPropertyOp1
 70
     1
102
RTVSPropertyOp2
 70
     1
102
RTVSPropertyOp3
 70
     1
102
RTVSPropertyOp4
 70
     1
102
RTVSPropertyOp5
 70
     1
102
RTVSPropertyOp6
 70
     1
102
RTVSPropertyOp7
 70
     1
102
RTVSPropertyOp8
 70
     1
102
RTVSPropertyOp9
 70
     1
102
RTVSPropertyOp10
 70
     1
102
RTVSPropertyOp11
 70
     1
102
RTVSPropertyOp12
 70
     1
102
RTVSPropertyOp13
 70
     1
102
RTVSPropertyOp14
 70
     1
102
RTVSPropertyOp15
 70
     1
102
RTVSPropertyOp16
 70
     1
102
RTVSPropertyOp17
 70
     1
102
RTVSPropertyOp18
 70
     1
102
RTVSPropertyOp19
 70
     1
102
RTVSPropertyOp20
 70
     1
102
RTVSPropertyOp21
 70
     1
102
RTVSPropertyOp22
 70
     1
102
RTVSPropertyOp23
 70
     1
102
RTVSPropertyOp24
 70
     1
102
RTVSPropertyOp25
 70
     1
102
RTVSPropertyOp26
 70
     1
102
RTVSPropertyOp27
 70
     1
102
RTVSPropertyOp28
 70
     1
102
RTVSPropertyOp29
 70
     1
102
RTVSPropertyOp30
 70
     1
102
RTVSPropertyOp31
 70
     1
102
RTVSPropertyOp32
 70
     1
102
RTVSPropertyOp33
 70
     1
102
RTVSPropertyOp34
 70
     1
102
RTVSPropertyOp35
 70
     1
102
RTVSPropertyOp36
 70
     1
102
RTVSPropertyOp37
 70
     1
102
RTVSPropertyOp38
 70
     1
102
RTVSPropertyOp39
 70
     1
102
RTVSPropertyOp40
 70
     1
102
RTVSPropertyOp41
 70
     1
102
RTVSPropertyOp42
 70
     1
102
RTVSPropertyOp43
 70
     1
102
RTVSPropertyOp44
 70
     1
102
RTVSPropertyOp45
 70
     1
102
RTVSPropertyOp46
 70
     1
102
RTVSPropertyOp47
 70
     1
102
RTVSPropertyOp48
 70
     1
102
RTVSPropertyOp49
 70
     1
102
RTVSPropertyOp50
 70
     1
102
RTVSPropertyOp51
 70
     0
102
RTVSPropertyOp52
 70
     0
102
RTVSPropertyOp53
 70
     1
102
RTVSPropertyOp54
 70
     1
102
RTVSPropertyOp55
 70
     1
102
RTVSPropertyOp56
 70
     1
102
RTVSPropertyOp57
 70
     1
102
RTVSPost2010Prop28
280
     1
102
RTVSPost2010PropOp28
 70
     1
102
RTVSPost2010Prop29
280
     1
102
RTVSPost2010PropOp29
 70
     1
102
RTVSPost2010Prop30
280
     0
102
RTVSPost2010PropOp30
 70
     1
102
RTVSPost2010Prop31
280
     0
102
RTVSPost2010PropOp31
 70
     1
102
RTVSPost2010Prop32
280
     0
102
RTVSPost2010PropOp32
 70
     1
102
RTVSPost2010Prop33
280
     0
102
RTVSPost2010PropOp33
 70
     1
102
RTVSPost2010Prop34
280
     0
102
RTVSPost2010PropOp34
 70
     1
102
RTVSPost2010Prop35
280
     0
102
RTVSPost2010PropOp35
 70
     1
102
RTVSPost2010Prop36
280
     0
102
RTVSPost2010PropOp36
 70
     1
102
RTVSPost2010Prop37
 90
       50
102
RTVSPost2010PropOp37
 70
     1
102
RTVSPost2010Prop38
140
0.0
102
RTVSPost2010PropOp38
 70
     1
102
RTVSPost2010Prop39
140
1.0
102
RTVSPost2010PropOp39
 70
     1
102
RTVSPost2010Prop40
 90
        0
102
RTVSPost2010PropOp40
 70
     1
102
RTVSPost2010Prop41ColorIndex
 90
       18
102
RTVSPost2010Prop41ColorRGB
 90
        0
102
RTVSPost2010PropOp41
 70
     1
102
RTVSPost2010Prop42
 90
       50
102
RTVSPost2010PropOp42
 70
     1
102
RTVSPost2010Prop43
 90
        3
102
RTVSPost2010PropOp43
 70
     1
102
RTVSPost2010Prop44ColorIndex
 90
        5
102
RTVSPost2010Prop44ColorRGB
 90
      255
102
RTVSPost2010PropOp44
 70
     1
102
RTVSPost2010Prop45
280
     0
102
RTVSPost2010PropOp45
 70
     1
102
RTVSPost2010Prop46
 90
       50
102
RTVSPost2010PropOp46
 70
     1
102
RTVSPost2010Prop47
 90
       50
102
RTVSPost2010PropOp47
 70
     1
102
RTVSPost2010Prop48
 90
       50
102
RTVSPost2010PropOp48
 70
     1
102
RTVSPost2010Prop49
280
     0
102
RTVSPost2010PropOp49
 70
     1
102
RTVSPost2010Prop50
 90
       50
102
RTVSPost2010PropOp50
 70
     1
102
RTVSPost2010Prop51ColorIndex
 90
      256
102
RTVSPost2010Prop51ColorRGB
 90
-16777216
102
RTVSPost2010PropOp51
 70
     0
102
RTVSPost2010Prop52
140
1.0
102
RTVSPost2010PropOp52
 70
     0
102
RTVSPost2010Prop53
 90
        2
102
RTVSPost2010PropOp53
 70
     1
102
RTVSPost2010Prop54
  1
strokes_ogs.tif
102
RTVSPost2010PropOp54
 70
     1
102
RTVSPost2010Prop55
280
     0
102
RTVSPost2010PropOp55
 70
     1
102
RTVSPost2010Prop56
140
1.0
102
RTVSPost2010PropOp56
 70
     1
102
RTVSPost2010Prop57
140
1.0
102
RTVSPost2010PropOp57
 70
     1
  0
XRECORD
  5
453
102
{ACAD_REACTORS
330
452
102
}
330
452
100
AcDbXrecord
280
     1
102
RTVSPropertyOp0
 70
     1
102
RTVSPropertyOp1
 70
     1
102
RTVSPropertyOp2
 70
     1
102
RTVSPropertyOp3
 70
     1
102
RTVSPropertyOp4
 70
     1
102
RTVSPropertyOp5
 70
     1
102
RTVSPropertyOp6
 70
     1
102
RTVSPropertyOp7
 70
     1
102
RTVSPropertyOp8
 70
     1
102
RTVSPropertyOp9
 70
     1
102
RTVSPropertyOp10
 70
     1
102
RTVSPropertyOp11
 70
     1
102
RTVSPropertyOp12
 70
     1
102
RTVSPropertyOp13
 70
     1
102
RTVSPropertyOp14
 70
     1
102
RTVSPropertyOp15
 70
     1
102
RTVSPropertyOp16
 70
     1
102
RTVSPropertyOp17
 70
     1
102
RTVSPropertyOp18
 70
     1
102
RTVSPropertyOp19
 70
     1
102
RTVSPropertyOp20
 70
     1
102
RTVSPropertyOp21
 70
     1
102
RTVSPropertyOp22
 70
     1
102
RTVSPropertyOp23
 70
     1
102
RTVSPropertyOp24
 70
     1
102
RTVSPropertyOp25
 70
     1
102
RTVSPropertyOp26
 70
     1
102
RTVSPropertyOp27
 70
     1
102
RTVSPropertyOp28
 70
     1
102
RTVSPropertyOp29
 70
     1
102
RTVSPropertyOp30
 70
     1
102
RTVSPropertyOp31
 70
     1
102
RTVSPropertyOp32
 70
     1
102
RTVSPropertyOp33
 70
     1
102
RTVSPropertyOp34
 70
     1
102
RTVSPropertyOp35
 70
     1
102
RTVSPropertyOp36
 70
     1
102
RTVSPropertyOp37
 70
     1
102
RTVSPropertyOp38
 70
     1
102
RTVSPropertyOp39
 70
     1
102
RTVSPropertyOp40
 70
     1
102
RTVSPropertyOp41
 70
     1
102
RTVSPropertyOp42
 70
     1
102
RTVSPropertyOp43
 70
     1
102
RTVSPropertyOp44
 70
     1
102
RTVSPropertyOp45
 70
     1
102
RTVSPropertyOp46
 70
     1
102
RTVSPropertyOp47
 70
     1
102
RTVSPropertyOp48
 70
     1
102
RTVSPropertyOp49
 70
     1
102
RTVSPropertyOp50
 70
     1
102
RTVSPropertyOp51
 70
     0
102
RTVSPropertyOp52
 70
     0
102
RTVSPropertyOp53
 70
     1
102
RTVSPropertyOp54
 70
     1
102
RTVSPropertyOp55
 70
     1
102
RTVSPropertyOp56
 70
     1
102
RTVSPropertyOp57
 70
     1
102
RTVSPost2010Prop28
280
     0
102
RTVSPost2010PropOp28
 70
     1
102
RTVSPost2010Prop29
280
     1
102
RTVSPost2010PropOp29
 70
     1
102
RTVSPost2010Prop30
280
     1
102
RTVSPost2010PropOp30
 70
     1
102
RTVSPost2010Prop31
280
     0
102
RTVSPost2010PropOp31
 70
     1
102
RTVSPost2010Prop32
280
     0
102
RTVSPost2010PropOp32
 70
     1
102
RTVSPost2010Prop33
280
     0
102
RTVSPost2010PropOp33
 70
     1
102
RTVSPost2010Prop34
280
     0
102
RTVSPost2010PropOp34
 70
     1
102
RTVSPost2010Prop35
280
     0
102
RTVSPost2010PropOp35
 70
     1
102
RTVSPost2010Prop36
280
     0
102
RTVSPost2010PropOp36
 70
     1
102
RTVSPost2010Prop37
 90
       50
102
RTVSPost2010PropOp37
 70
     1
102
RTVSPost2010Prop38
140
0.0
102
RTVSPost2010PropOp38
 70
     1
102
RTVSPost2010Prop39
140
1.0
102
RTVSPost2010PropOp39
 70
     1
102
RTVSPost2010Prop40
 90
        0
102
RTVSPost2010PropOp40
 70
     1
102
RTVSPost2010Prop41ColorIndex
 90
       18
102
RTVSPost2010Prop41ColorRGB
 90
        0
102
RTVSPost2010PropOp41
 70
     1
102
RTVSPost2010Prop42
 90
       50
102
RTVSPost2010PropOp42
 70
     1
102
RTVSPost2010Prop43
 90
        3
102
RTVSPost2010PropOp43
 70
     1
102
RTVSPost2010Prop44ColorIndex
 90
        5
102
RTVSPost2010Prop44ColorRGB
 90
      255
102
RTVSPost2010PropOp44
 70
     1
102
RTVSPost2010Prop45
280
     0
102
RTVSPost2010PropOp45
 70
     1
102
RTVSPost2010Prop46
 90
       50
102
RTVSPost2010PropOp46
 70
     1
102
RTVSPost2010Prop47
 90
       50
102
RTVSPost2010PropOp47
 70
     1
102
RTVSPost2010Prop48
 90
       50
102
RTVSPost2010PropOp48
 70
     1
102
RTVSPost2010Prop49
280
     0
102
RTVSPost2010PropOp49
 70
     1
102
RTVSPost2010Prop50
 90
       50
102
RTVSPost2010PropOp50
 70
     1
102
RTVSPost2010Prop51ColorIndex
 90
      256
102
RTVSPost2010Prop51ColorRGB
 90
-16777216
102
RTVSPost2010PropOp51
 70
     0
102
RTVSPost2010Prop52
140
1.0
102
RTVSPost2010PropOp52
 70
     0
102
RTVSPost2010Prop53
 90
        2
102
RTVSPost2010PropOp53
 70
     1
102
RTVSPost2010Prop54
  1
strokes_ogs.tif
102
RTVSPost2010PropOp54
 70
     1
102
RTVSPost2010Prop55
280
     0
102
RTVSPost2010PropOp55
 70
     1
102
RTVSPost2010Prop56
140
1.0
102
RTVSPost2010PropOp56
 70
     1
102
RTVSPost2010Prop57
140
1.0
102
RTVSPost2010PropOp57
 70
     1
  0
XRECORD
  5
45B
102
{ACAD_REACTORS
330
45A
102
}
330
45A
100
AcDbXrecord
280
     1
102
RTVSPropertyOp0
 70
     1
102
RTVSPropertyOp1
 70
     1
102
RTVSPropertyOp2
 70
     1
102
RTVSPropertyOp3
 70
     1
102
RTVSPropertyOp4
 70
     1
102
RTVSPropertyOp5
 70
     1
102
RTVSPropertyOp6
 70
     1
102
RTVSPropertyOp7
 70
     1
102
RTVSPropertyOp8
 70
     1
102
RTVSPropertyOp9
 70
     1
102
RTVSPropertyOp10
 70
     1
102
RTVSPropertyOp11
 70
     1
102
RTVSPropertyOp12
 70
     1
102
RTVSPropertyOp13
 70
     1
102
RTVSPropertyOp14
 70
     1
102
RTVSPropertyOp15
 70
     1
102
RTVSPropertyOp16
 70
     1
102
RTVSPropertyOp17
 70
     1
102
RTVSPropertyOp18
 70
     1
102
RTVSPropertyOp19
 70
     1
102
RTVSPropertyOp20
 70
     1
102
RTVSPropertyOp21
 70
     1
102
RTVSPropertyOp22
 70
     1
102
RTVSPropertyOp23
 70
     1
102
RTVSPropertyOp24
 70
     1
102
RTVSPropertyOp25
 70
     1
102
RTVSPropertyOp26
 70
     1
102
RTVSPropertyOp27
 70
     1
102
RTVSPropertyOp28
 70
     1
102
RTVSPropertyOp29
 70
     1
102
RTVSPropertyOp30
 70
     1
102
RTVSPropertyOp31
 70
     1
102
RTVSPropertyOp32
 70
     1
102
RTVSPropertyOp33
 70
     1
102
RTVSPropertyOp34
 70
     1
102
RTVSPropertyOp35
 70
     1
102
RTVSPropertyOp36
 70
     1
102
RTVSPropertyOp37
 70
     1
102
RTVSPropertyOp38
 70
     1
102
RTVSPropertyOp39
 70
     1
102
RTVSPropertyOp40
 70
     1
102
RTVSPropertyOp41
 70
     1
102
RTVSPropertyOp42
 70
     1
102
RTVSPropertyOp43
 70
     1
102
RTVSPropertyOp44
 70
     1
102
RTVSPropertyOp45
 70
     1
102
RTVSPropertyOp46
 70
     1
102
RTVSPropertyOp47
 70
     1
102
RTVSPropertyOp48
 70
     1
102
RTVSPropertyOp49
 70
     1
102
RTVSPropertyOp50
 70
     1
102
RTVSPropertyOp51
 70
     0
102
RTVSPropertyOp52
 70
     0
102
RTVSPropertyOp53
 70
     1
102
RTVSPropertyOp54
 70
     1
102
RTVSPropertyOp55
 70
     1
102
RTVSPropertyOp56
 70
     1
102
RTVSPropertyOp57
 70
     1
102
RTVSPost2010Prop28
280
     0
102
RTVSPost2010PropOp28
 70
     1
102
RTVSPost2010Prop29
280
     1
102
RTVSPost2010PropOp29
 70
     1
102
RTVSPost2010Prop30
280
     1
102
RTVSPost2010PropOp30
 70
     1
102
RTVSPost2010Prop31
280
     0
102
RTVSPost2010PropOp31
 70
     1
102
RTVSPost2010Prop32
280
     0
102
RTVSPost2010PropOp32
 70
     1
102
RTVSPost2010Prop33
280
     0
102
RTVSPost2010PropOp33
 70
     1
102
RTVSPost2010Prop34
280
     0
102
RTVSPost2010PropOp34
 70
     1
102
RTVSPost2010Prop35
280
     0
102
RTVSPost2010PropOp35
 70
     1
102
RTVSPost2010Prop36
280
     0
102
RTVSPost2010PropOp36
 70
     1
102
RTVSPost2010Prop37
 90
       50
102
RTVSPost2010PropOp37
 70
     1
102
RTVSPost2010Prop38
140
0.0
102
RTVSPost2010PropOp38
 70
     1
102
RTVSPost2010Prop39
140
1.0
102
RTVSPost2010PropOp39
 70
     1
102
RTVSPost2010Prop40
 90
        0
102
RTVSPost2010PropOp40
 70
     1
102
RTVSPost2010Prop41ColorIndex
 90
       18
102
RTVSPost2010Prop41ColorRGB
 90
        0
102
RTVSPost2010PropOp41
 70
     1
102
RTVSPost2010Prop42
 90
       50
102
RTVSPost2010PropOp42
 70
     1
102
RTVSPost2010Prop43
 90
        3
102
RTVSPost2010PropOp43
 70
     1
102
RTVSPost2010Prop44ColorIndex
 90
        5
102
RTVSPost2010Prop44ColorRGB
 90
      255
102
RTVSPost2010PropOp44
 70
     1
102
RTVSPost2010Prop45
280
     0
102
RTVSPost2010PropOp45
 70
     1
102
RTVSPost2010Prop46
 90
       50
102
RTVSPost2010PropOp46
 70
     1
102
RTVSPost2010Prop47
 90
       50
102
RTVSPost2010PropOp47
 70
     1
102
RTVSPost2010Prop48
 90
       50
102
RTVSPost2010PropOp48
 70
     1
102
RTVSPost2010Prop49
280
     0
102
RTVSPost2010PropOp49
 70
     1
102
RTVSPost2010Prop50
 90
       50
102
RTVSPost2010PropOp50
 70
     1
102
RTVSPost2010Prop51ColorIndex
 90
      256
102
RTVSPost2010Prop51ColorRGB
 90
-16777216
102
RTVSPost2010PropOp51
 70
     0
102
RTVSPost2010Prop52
140
1.0
102
RTVSPost2010PropOp52
 70
     0
102
RTVSPost2010Prop53
 90
        2
102
RTVSPost2010PropOp53
 70
     1
102
RTVSPost2010Prop54
  1
strokes_ogs.tif
102
RTVSPost2010PropOp54
 70
     1
102
RTVSPost2010Prop55
280
     0
102
RTVSPost2010PropOp55
 70
     1
102
RTVSPost2010Prop56
140
1.0
102
RTVSPost2010PropOp56
 70
     1
102
RTVSPost2010Prop57
140
1.0
102
RTVSPost2010PropOp57
 70
     1
  0
XRECORD
  5
463
102
{ACAD_REACTORS
330
462
102
}
330
462
100
AcDbXrecord
280
     1
102
RTVSPropertyOp0
 70
     1
102
RTVSPropertyOp1
 70
     1
102
RTVSPropertyOp2
 70
     1
102
RTVSPropertyOp3
 70
     1
102
RTVSPropertyOp4
 70
     1
102
RTVSPropertyOp5
 70
     1
102
RTVSPropertyOp6
 70
     1
102
RTVSPropertyOp7
 70
     1
102
RTVSPropertyOp8
 70
     1
102
RTVSPropertyOp9
 70
     1
102
RTVSPropertyOp10
 70
     1
102
RTVSPropertyOp11
 70
     1
102
RTVSPropertyOp12
 70
     1
102
RTVSPropertyOp13
 70
     1
102
RTVSPropertyOp14
 70
     1
102
RTVSPropertyOp15
 70
     1
102
RTVSPropertyOp16
 70
     1
102
RTVSPropertyOp17
 70
     1
102
RTVSPropertyOp18
 70
     1
102
RTVSPropertyOp19
 70
     1
102
RTVSPropertyOp20
 70
     1
102
RTVSPropertyOp21
 70
     1
102
RTVSPropertyOp22
 70
     1
102
RTVSPropertyOp23
 70
     1
102
RTVSPropertyOp24
 70
     1
102
RTVSPropertyOp25
 70
     1
102
RTVSPropertyOp26
 70
     1
102
RTVSPropertyOp27
 70
     1
102
RTVSPropertyOp28
 70
     1
102
RTVSPropertyOp29
 70
     1
102
RTVSPropertyOp30
 70
     1
102
RTVSPropertyOp31
 70
     1
102
RTVSPropertyOp32
 70
     1
102
RTVSPropertyOp33
 70
     1
102
RTVSPropertyOp34
 70
     1
102
RTVSPropertyOp35
 70
     1
102
RTVSPropertyOp36
 70
     1
102
RTVSPropertyOp37
 70
     1
102
RTVSPropertyOp38
 70
     1
102
RTVSPropertyOp39
 70
     1
102
RTVSPropertyOp40
 70
     1
102
RTVSPropertyOp41
 70
     1
102
RTVSPropertyOp42
 70
     1
102
RTVSPropertyOp43
 70
     1
102
RTVSPropertyOp44
 70
     1
102
RTVSPropertyOp45
 70
     1
102
RTVSPropertyOp46
 70
     1
102
RTVSPropertyOp47
 70
     1
102
RTVSPropertyOp48
 70
     1
102
RTVSPropertyOp49
 70
     1
102
RTVSPropertyOp50
 70
     1
102
RTVSPropertyOp51
 70
     0
102
RTVSPropertyOp52
 70
     0
102
RTVSPropertyOp53
 70
     1
102
RTVSPropertyOp54
 70
     1
102
RTVSPropertyOp55
 70
     1
102
RTVSPropertyOp56
 70
     1
102
RTVSPropertyOp57
 70
     1
102
RTVSPost2010Prop28
280
     0
102
RTVSPost2010PropOp28
 70
     1
102
RTVSPost2010Prop29
280
     1
102
RTVSPost2010PropOp29
 70
     1
102
RTVSPost2010Prop30
280
     1
102
RTVSPost2010PropOp30
 70
     1
102
RTVSPost2010Prop31
280
     0
102
RTVSPost2010PropOp31
 70
     1
102
RTVSPost2010Prop32
280
     0
102
RTVSPost2010PropOp32
 70
     1
102
RTVSPost2010Prop33
280
     0
102
RTVSPost2010PropOp33
 70
     1
102
RTVSPost2010Prop34
280
     0
102
RTVSPost2010PropOp34
 70
     1
102
RTVSPost2010Prop35
280
     0
102
RTVSPost2010PropOp35
 70
     1
102
RTVSPost2010Prop36
280
     0
102
RTVSPost2010PropOp36
 70
     1
102
RTVSPost2010Prop37
 90
       50
102
RTVSPost2010PropOp37
 70
     1
102
RTVSPost2010Prop38
140
0.0
102
RTVSPost2010PropOp38
 70
     1
102
RTVSPost2010Prop39
140
1.0
102
RTVSPost2010PropOp39
 70
     1
102
RTVSPost2010Prop40
 90
        0
102
RTVSPost2010PropOp40
 70
     1
102
RTVSPost2010Prop41ColorIndex
 90
       18
102
RTVSPost2010Prop41ColorRGB
 90
        0
102
RTVSPost2010PropOp41
 70
     1
102
RTVSPost2010Prop42
 90
       50
102
RTVSPost2010PropOp42
 70
     1
102
RTVSPost2010Prop43
 90
        3
102
RTVSPost2010PropOp43
 70
     1
102
RTVSPost2010Prop44ColorIndex
 90
        5
102
RTVSPost2010Prop44ColorRGB
 90
      255
102
RTVSPost2010PropOp44
 70
     1
102
RTVSPost2010Prop45
280
     0
102
RTVSPost2010PropOp45
 70
     1
102
RTVSPost2010Prop46
 90
       50
102
RTVSPost2010PropOp46
 70
     1
102
RTVSPost2010Prop47
 90
       50
102
RTVSPost2010PropOp47
 70
     1
102
RTVSPost2010Prop48
 90
       50
102
RTVSPost2010PropOp48
 70
     1
102
RTVSPost2010Prop49
280
     0
102
RTVSPost2010PropOp49
 70
     1
102
RTVSPost2010Prop50
 90
       50
102
RTVSPost2010PropOp50
 70
     1
102
RTVSPost2010Prop51ColorIndex
 90
      256
102
RTVSPost2010Prop51ColorRGB
 90
-16777216
102
RTVSPost2010PropOp51
 70
     0
102
RTVSPost2010Prop52
140
1.0
102
RTVSPost2010PropOp52
 70
     0
102
RTVSPost2010Prop53
 90
        2
102
RTVSPost2010PropOp53
 70
     1
102
RTVSPost2010Prop54
  1
strokes_ogs.tif
102
RTVSPost2010PropOp54
 70
     1
102
RTVSPost2010Prop55
280
     0
102
RTVSPost2010PropOp55
 70
     1
102
RTVSPost2010Prop56
140
1.0
102
RTVSPost2010PropOp56
 70
     1
102
RTVSPost2010Prop57
140
1.0
102
RTVSPost2010PropOp57
 70
     1
  0
XRECORD
  5
457
102
{ACAD_REACTORS
330
456
102
}
330
456
100
AcDbXrecord
280
     1
102
RTVSPropertyOp0
 70
     1
102
RTVSPropertyOp1
 70
     1
102
RTVSPropertyOp2
 70
     1
102
RTVSPropertyOp3
 70
     1
102
RTVSPropertyOp4
 70
     1
102
RTVSPropertyOp5
 70
     1
102
RTVSPropertyOp6
 70
     1
102
RTVSPropertyOp7
 70
     1
102
RTVSPropertyOp8
 70
     1
102
RTVSPropertyOp9
 70
     1
102
RTVSPropertyOp10
 70
     1
102
RTVSPropertyOp11
 70
     1
102
RTVSPropertyOp12
 70
     1
102
RTVSPropertyOp13
 70
     1
102
RTVSPropertyOp14
 70
     1
102
RTVSPropertyOp15
 70
     1
102
RTVSPropertyOp16
 70
     1
102
RTVSPropertyOp17
 70
     1
102
RTVSPropertyOp18
 70
     1
102
RTVSPropertyOp19
 70
     1
102
RTVSPropertyOp20
 70
     1
102
RTVSPropertyOp21
 70
     1
102
RTVSPropertyOp22
 70
     1
102
RTVSPropertyOp23
 70
     1
102
RTVSPropertyOp24
 70
     1
102
RTVSPropertyOp25
 70
     1
102
RTVSPropertyOp26
 70
     1
102
RTVSPropertyOp27
 70
     1
102
RTVSPropertyOp28
 70
     1
102
RTVSPropertyOp29
 70
     1
102
RTVSPropertyOp30
 70
     1
102
RTVSPropertyOp31
 70
     1
102
RTVSPropertyOp32
 70
     1
102
RTVSPropertyOp33
 70
     1
102
RTVSPropertyOp34
 70
     1
102
RTVSPropertyOp35
 70
     1
102
RTVSPropertyOp36
 70
     1
102
RTVSPropertyOp37
 70
     1
102
RTVSPropertyOp38
 70
     1
102
RTVSPropertyOp39
 70
     1
102
RTVSPropertyOp40
 70
     1
102
RTVSPropertyOp41
 70
     1
102
RTVSPropertyOp42
 70
     1
102
RTVSPropertyOp43
 70
     1
102
RTVSPropertyOp44
 70
     1
102
RTVSPropertyOp45
 70
     1
102
RTVSPropertyOp46
 70
     1
102
RTVSPropertyOp47
 70
     1
102
RTVSPropertyOp48
 70
     1
102
RTVSPropertyOp49
 70
     1
102
RTVSPropertyOp50
 70
     1
102
RTVSPropertyOp51
 70
     0
102
RTVSPropertyOp52
 70
     0
102
RTVSPropertyOp53
 70
     1
102
RTVSPropertyOp54
 70
     1
102
RTVSPropertyOp55
 70
     1
102
RTVSPropertyOp56
 70
     1
102
RTVSPropertyOp57
 70
     1
102
RTVSPost2010Prop28
280
     0
102
RTVSPost2010PropOp28
 70
     1
102
RTVSPost2010Prop29
280
     1
102
RTVSPost2010PropOp29
 70
     1
102
RTVSPost2010Prop30
280
     1
102
RTVSPost2010PropOp30
 70
     1
102
RTVSPost2010Prop31
280
     0
102
RTVSPost2010PropOp31
 70
     1
102
RTVSPost2010Prop32
280
     0
102
RTVSPost2010PropOp32
 70
     1
102
RTVSPost2010Prop33
280
     0
102
RTVSPost2010PropOp33
 70
     1
102
RTVSPost2010Prop34
280
     0
102
RTVSPost2010PropOp34
 70
     1
102
RTVSPost2010Prop35
280
     0
102
RTVSPost2010PropOp35
 70
     1
102
RTVSPost2010Prop36
280
     0
102
RTVSPost2010PropOp36
 70
     1
102
RTVSPost2010Prop37
 90
       50
102
RTVSPost2010PropOp37
 70
     1
102
RTVSPost2010Prop38
140
0.0
102
RTVSPost2010PropOp38
 70
     1
102
RTVSPost2010Prop39
140
1.0
102
RTVSPost2010PropOp39
 70
     1
102
RTVSPost2010Prop40
 90
        0
102
RTVSPost2010PropOp40
 70
     1
102
RTVSPost2010Prop41ColorIndex
 90
       18
102
RTVSPost2010Prop41ColorRGB
 90
        0
102
RTVSPost2010PropOp41
 70
     1
102
RTVSPost2010Prop42
 90
       50
102
RTVSPost2010PropOp42
 70
     1
102
RTVSPost2010Prop43
 90
        3
102
RTVSPost2010PropOp43
 70
     1
102
RTVSPost2010Prop44ColorIndex
 90
        5
102
RTVSPost2010Prop44ColorRGB
 90
      255
102
RTVSPost2010PropOp44
 70
     1
102
RTVSPost2010Prop45
280
     0
102
RTVSPost2010PropOp45
 70
     1
102
RTVSPost2010Prop46
 90
       50
102
RTVSPost2010PropOp46
 70
     1
102
RTVSPost2010Prop47
 90
       50
102
RTVSPost2010PropOp47
 70
     1
102
RTVSPost2010Prop48
 90
       50
102
RTVSPost2010PropOp48
 70
     1
102
RTVSPost2010Prop49
280
     0
102
RTVSPost2010PropOp49
 70
     1
102
RTVSPost2010Prop50
 90
       50
102
RTVSPost2010PropOp50
 70
     1
102
RTVSPost2010Prop51ColorIndex
 90
      256
102
RTVSPost2010Prop51ColorRGB
 90
-16777216
102
RTVSPost2010PropOp51
 70
     0
102
RTVSPost2010Prop52
140
1.0
102
RTVSPost2010PropOp52
 70
     0
102
RTVSPost2010Prop53
 90
        2
102
RTVSPost2010PropOp53
 70
     1
102
RTVSPost2010Prop54
  1
strokes_ogs.tif
102
RTVSPost2010PropOp54
 70
     1
102
RTVSPost2010Prop55
280
     0
102
RTVSPost2010PropOp55
 70
     1
102
RTVSPost2010Prop56
140
1.0
102
RTVSPost2010PropOp56
 70
     1
102
RTVSPost2010Prop57
140
1.0
102
RTVSPost2010PropOp57
 70
     1
  0
XRECORD
  5
459
102
{ACAD_REACTORS
330
458
102
}
330
458
100
AcDbXrecord
280
     1
102
RTVSPropertyOp0
 70
     1
102
RTVSPropertyOp1
 70
     1
102
RTVSPropertyOp2
 70
     1
102
RTVSPropertyOp3
 70
     1
102
RTVSPropertyOp4
 70
     1
102
RTVSPropertyOp5
 70
     1
102
RTVSPropertyOp6
 70
     1
102
RTVSPropertyOp7
 70
     1
102
RTVSPropertyOp8
 70
     1
102
RTVSPropertyOp9
 70
     1
102
RTVSPropertyOp10
 70
     1
102
RTVSPropertyOp11
 70
     1
102
RTVSPropertyOp12
 70
     1
102
RTVSPropertyOp13
 70
     1
102
RTVSPropertyOp14
 70
     1
102
RTVSPropertyOp15
 70
     1
102
RTVSPropertyOp16
 70
     1
102
RTVSPropertyOp17
 70
     1
102
RTVSPropertyOp18
 70
     1
102
RTVSPropertyOp19
 70
     1
102
RTVSPropertyOp20
 70
     1
102
RTVSPropertyOp21
 70
     1
102
RTVSPropertyOp22
 70
     1
102
RTVSPropertyOp23
 70
     1
102
RTVSPropertyOp24
 70
     1
102
RTVSPropertyOp25
 70
     1
102
RTVSPropertyOp26
 70
     1
102
RTVSPropertyOp27
 70
     1
102
RTVSPropertyOp28
 70
     1
102
RTVSPropertyOp29
 70
     1
102
RTVSPropertyOp30
 70
     1
102
RTVSPropertyOp31
 70
     1
102
RTVSPropertyOp32
 70
     1
102
RTVSPropertyOp33
 70
     1
102
RTVSPropertyOp34
 70
     1
102
RTVSPropertyOp35
 70
     1
102
RTVSPropertyOp36
 70
     1
102
RTVSPropertyOp37
 70
     1
102
RTVSPropertyOp38
 70
     1
102
RTVSPropertyOp39
 70
     1
102
RTVSPropertyOp40
 70
     1
102
RTVSPropertyOp41
 70
     1
102
RTVSPropertyOp42
 70
     1
102
RTVSPropertyOp43
 70
     1
102
RTVSPropertyOp44
 70
     1
102
RTVSPropertyOp45
 70
     1
102
RTVSPropertyOp46
 70
     1
102
RTVSPropertyOp47
 70
     1
102
RTVSPropertyOp48
 70
     1
102
RTVSPropertyOp49
 70
     1
102
RTVSPropertyOp50
 70
     1
102
RTVSPropertyOp51
 70
     0
102
RTVSPropertyOp52
 70
     0
102
RTVSPropertyOp53
 70
     1
102
RTVSPropertyOp54
 70
     1
102
RTVSPropertyOp55
 70
     1
102
RTVSPropertyOp56
 70
     1
102
RTVSPropertyOp57
 70
     1
102
RTVSPost2010Prop28
280
     0
102
RTVSPost2010PropOp28
 70
     1
102
RTVSPost2010Prop29
280
     1
102
RTVSPost2010PropOp29
 70
     1
102
RTVSPost2010Prop30
280
     1
102
RTVSPost2010PropOp30
 70
     1
102
RTVSPost2010Prop31
280
     0
102
RTVSPost2010PropOp31
 70
     1
102
RTVSPost2010Prop32
280
     0
102
RTVSPost2010PropOp32
 70
     1
102
RTVSPost2010Prop33
280
     0
102
RTVSPost2010PropOp33
 70
     1
102
RTVSPost2010Prop34
280
     0
102
RTVSPost2010PropOp34
 70
     1
102
RTVSPost2010Prop35
280
     0
102
RTVSPost2010PropOp35
 70
     1
102
RTVSPost2010Prop36
280
     0
102
RTVSPost2010PropOp36
 70
     1
102
RTVSPost2010Prop37
 90
       50
102
RTVSPost2010PropOp37
 70
     1
102
RTVSPost2010Prop38
140
0.0
102
RTVSPost2010PropOp38
 70
     1
102
RTVSPost2010Prop39
140
1.0
102
RTVSPost2010PropOp39
 70
     1
102
RTVSPost2010Prop40
 90
        0
102
RTVSPost2010PropOp40
 70
     1
102
RTVSPost2010Prop41ColorIndex
 90
       18
102
RTVSPost2010Prop41ColorRGB
 90
        0
102
RTVSPost2010PropOp41
 70
     1
102
RTVSPost2010Prop42
 90
       50
102
RTVSPost2010PropOp42
 70
     1
102
RTVSPost2010Prop43
 90
        3
102
RTVSPost2010PropOp43
 70
     1
102
RTVSPost2010Prop44ColorIndex
 90
        5
102
RTVSPost2010Prop44ColorRGB
 90
      255
102
RTVSPost2010PropOp44
 70
     1
102
RTVSPost2010Prop45
280
     0
102
RTVSPost2010PropOp45
 70
     1
102
RTVSPost2010Prop46
 90
       50
102
RTVSPost2010PropOp46
 70
     1
102
RTVSPost2010Prop47
 90
       50
102
RTVSPost2010PropOp47
 70
     1
102
RTVSPost2010Prop48
 90
       50
102
RTVSPost2010PropOp48
 70
     1
102
RTVSPost2010Prop49
280
     0
102
RTVSPost2010PropOp49
 70
     1
102
RTVSPost2010Prop50
 90
       50
102
RTVSPost2010PropOp50
 70
     1
102
RTVSPost2010Prop51ColorIndex
 90
      256
102
RTVSPost2010Prop51ColorRGB
 90
-16777216
102
RTVSPost2010PropOp51
 70
     0
102
RTVSPost2010Prop52
140
1.0
102
RTVSPost2010PropOp52
 70
     0
102
RTVSPost2010Prop53
 90
        2
102
RTVSPost2010PropOp53
 70
     1
102
RTVSPost2010Prop54
  1
strokes_ogs.tif
102
RTVSPost2010PropOp54
 70
     1
102
RTVSPost2010Prop55
280
     0
102
RTVSPost2010PropOp55
 70
     1
102
RTVSPost2010Prop56
140
1.0
102
RTVSPost2010PropOp56
 70
     1
102
RTVSPost2010Prop57
140
1.0
102
RTVSPost2010PropOp57
 70
     1
  0
XRECORD
  5
469
102
{ACAD_REACTORS
330
468
102
}
330
468
100
AcDbXrecord
280
     1
102
RTVSPropertyOp0
 70
     0
102
RTVSPropertyOp1
 70
     0
102
RTVSPropertyOp2
 70
     0
102
RTVSPropertyOp3
 70
     0
102
RTVSPropertyOp4
 70
     0
102
RTVSPropertyOp5
 70
     0
102
RTVSPropertyOp6
 70
     0
102
RTVSPropertyOp7
 70
     0
102
RTVSPropertyOp8
 70
     0
102
RTVSPropertyOp9
 70
     0
102
RTVSPropertyOp10
 70
     0
102
RTVSPropertyOp11
 70
     0
102
RTVSPropertyOp12
 70
     0
102
RTVSPropertyOp13
 70
     0
102
RTVSPropertyOp14
 70
     2
102
RTVSPropertyOp15
 70
     0
102
RTVSPropertyOp16
 70
     0
102
RTVSPropertyOp17
 70
     0
102
RTVSPropertyOp18
 70
     0
102
RTVSPropertyOp19
 70
     0
102
RTVSPropertyOp20
 70
     0
102
RTVSPropertyOp21
 70
     0
102
RTVSPropertyOp22
 70
     0
102
RTVSPropertyOp23
 70
     0
102
RTVSPropertyOp24
 70
     0
102
RTVSPropertyOp25
 70
     0
102
RTVSPropertyOp26
 70
     0
102
RTVSPropertyOp27
 70
     0
102
RTVSPropertyOp28
 70
     0
102
RTVSPropertyOp29
 70
     0
102
RTVSPropertyOp30
 70
     0
102
RTVSPropertyOp31
 70
     0
102
RTVSPropertyOp32
 70
     0
102
RTVSPropertyOp33
 70
     0
102
RTVSPropertyOp34
 70
     0
102
RTVSPropertyOp35
 70
     0
102
RTVSPropertyOp36
 70
     0
102
RTVSPropertyOp37
 70
     0
102
RTVSPropertyOp38
 70
     0
102
RTVSPropertyOp39
 70
     0
102
RTVSPropertyOp40
 70
     0
102
RTVSPropertyOp41
 70
     0
102
RTVSPropertyOp42
 70
     0
102
RTVSPropertyOp43
 70
     0
102
RTVSPropertyOp44
 70
     0
102
RTVSPropertyOp45
 70
     0
102
RTVSPropertyOp46
 70
     0
102
RTVSPropertyOp47
 70
     0
102
RTVSPropertyOp48
 70
     0
102
RTVSPropertyOp49
 70
     0
102
RTVSPropertyOp50
 70
     0
102
RTVSPropertyOp51
 70
     0
102
RTVSPropertyOp52
 70
     0
102
RTVSPropertyOp53
 70
     0
102
RTVSPropertyOp54
 70
     0
102
RTVSPropertyOp55
 70
     0
102
RTVSPropertyOp56
 70
     0
102
RTVSPropertyOp57
 70
     0
102
RTVSPost2010Prop28
280
     0
102
RTVSPost2010PropOp28
 70
     0
102
RTVSPost2010Prop29
280
     1
102
RTVSPost2010PropOp29
 70
     0
102
RTVSPost2010Prop30
280
     1
102
RTVSPost2010PropOp30
 70
     0
102
RTVSPost2010Prop31
280
     0
102
RTVSPost2010PropOp31
 70
     0
102
RTVSPost2010Prop32
280
     0
102
RTVSPost2010PropOp32
 70
     0
102
RTVSPost2010Prop33
280
     0
102
RTVSPost2010PropOp33
 70
     0
102
RTVSPost2010Prop34
280
     0
102
RTVSPost2010PropOp34
 70
     0
102
RTVSPost2010Prop35
280
     0
102
RTVSPost2010PropOp35
 70
     0
102
RTVSPost2010Prop36
280
     0
102
RTVSPost2010PropOp36
 70
     0
102
RTVSPost2010Prop37
 90
       50
102
RTVSPost2010PropOp37
 70
     0
102
RTVSPost2010Prop38
140
0.0
102
RTVSPost2010PropOp38
 70
     0
102
RTVSPost2010Prop39
140
1.0
102
RTVSPost2010PropOp39
 70
     0
102
RTVSPost2010Prop40
 90
        0
102
RTVSPost2010PropOp40
 70
     0
102
RTVSPost2010Prop41ColorIndex
 90
       18
102
RTVSPost2010Prop41ColorRGB
 90
        0
102
RTVSPost2010PropOp41
 70
     0
102
RTVSPost2010Prop42
 90
       50
102
RTVSPost2010PropOp42
 70
     0
102
RTVSPost2010Prop43
 90
        3
102
RTVSPost2010PropOp43
 70
     0
102
RTVSPost2010Prop44ColorIndex
 90
        5
102
RTVSPost2010Prop44ColorRGB
 90
      255
102
RTVSPost2010PropOp44
 70
     0
102
RTVSPost2010Prop45
280
     0
102
RTVSPost2010PropOp45
 70
     0
102
RTVSPost2010Prop46
 90
       50
102
RTVSPost2010PropOp46
 70
     0
102
RTVSPost2010Prop47
 90
       50
102
RTVSPost2010PropOp47
 70
     0
102
RTVSPost2010Prop48
 90
       50
102
RTVSPost2010PropOp48
 70
     0
102
RTVSPost2010Prop49
280
     0
102
RTVSPost2010PropOp49
 70
     0
102
RTVSPost2010Prop50
 90
       50
102
RTVSPost2010PropOp50
 70
     0
102
RTVSPost2010Prop51ColorIndex
 90
      256
102
RTVSPost2010Prop51ColorRGB
 90
-16777216
102
RTVSPost2010PropOp51
 70
     0
102
RTVSPost2010Prop52
140
1.0
102
RTVSPost2010PropOp52
 70
     0
102
RTVSPost2010Prop53
 90
        2
102
RTVSPost2010PropOp53
 70
     0
102
RTVSPost2010Prop54
  1
strokes_ogs.tif
102
RTVSPost2010PropOp54
 70
     0
102
RTVSPost2010Prop55
280
     0
102
RTVSPost2010PropOp55
 70
     0
102
RTVSPost2010Prop56
140
1.0
102
RTVSPost2010PropOp56
 70
     0
102
RTVSPost2010Prop57
140
1.0
102
RTVSPost2010PropOp57
 70
     0
  0
XRECORD
  5
461
102
{ACAD_REACTORS
330
460
102
}
330
460
100
AcDbXrecord
280
     1
102
RTVSPropertyOp0
 70
     1
102
RTVSPropertyOp1
 70
     1
102
RTVSPropertyOp2
 70
     1
102
RTVSPropertyOp3
 70
     1
102
RTVSPropertyOp4
 70
     1
102
RTVSPropertyOp5
 70
     1
102
RTVSPropertyOp6
 70
     1
102
RTVSPropertyOp7
 70
     1
102
RTVSPropertyOp8
 70
     1
102
RTVSPropertyOp9
 70
     1
102
RTVSPropertyOp10
 70
     1
102
RTVSPropertyOp11
 70
     1
102
RTVSPropertyOp12
 70
     1
102
RTVSPropertyOp13
 70
     1
102
RTVSPropertyOp14
 70
     1
102
RTVSPropertyOp15
 70
     1
102
RTVSPropertyOp16
 70
     1
102
RTVSPropertyOp17
 70
     1
102
RTVSPropertyOp18
 70
     1
102
RTVSPropertyOp19
 70
     1
102
RTVSPropertyOp20
 70
     1
102
RTVSPropertyOp21
 70
     1
102
RTVSPropertyOp22
 70
     1
102
RTVSPropertyOp23
 70
     1
102
RTVSPropertyOp24
 70
     1
102
RTVSPropertyOp25
 70
     1
102
RTVSPropertyOp26
 70
     1
102
RTVSPropertyOp27
 70
     1
102
RTVSPropertyOp28
 70
     1
102
RTVSPropertyOp29
 70
     1
102
RTVSPropertyOp30
 70
     1
102
RTVSPropertyOp31
 70
     1
102
RTVSPropertyOp32
 70
     1
102
RTVSPropertyOp33
 70
     1
102
RTVSPropertyOp34
 70
     1
102
RTVSPropertyOp35
 70
     1
102
RTVSPropertyOp36
 70
     1
102
RTVSPropertyOp37
 70
     1
102
RTVSPropertyOp38
 70
     1
102
RTVSPropertyOp39
 70
     1
102
RTVSPropertyOp40
 70
     1
102
RTVSPropertyOp41
 70
     1
102
RTVSPropertyOp42
 70
     1
102
RTVSPropertyOp43
 70
     1
102
RTVSPropertyOp44
 70
     1
102
RTVSPropertyOp45
 70
     1
102
RTVSPropertyOp46
 70
     1
102
RTVSPropertyOp47
 70
     1
102
RTVSPropertyOp48
 70
     1
102
RTVSPropertyOp49
 70
     1
102
RTVSPropertyOp50
 70
     1
102
RTVSPropertyOp51
 70
     0
102
RTVSPropertyOp52
 70
     0
102
RTVSPropertyOp53
 70
     1
102
RTVSPropertyOp54
 70
     1
102
RTVSPropertyOp55
 70
     1
102
RTVSPropertyOp56
 70
     1
102
RTVSPropertyOp57
 70
     1
102
RTVSPost2010Prop28
280
     0
102
RTVSPost2010PropOp28
 70
     1
102
RTVSPost2010Prop29
280
     1
102
RTVSPost2010PropOp29
 70
     1
102
RTVSPost2010Prop30
280
     1
102
RTVSPost2010PropOp30
 70
     1
102
RTVSPost2010Prop31
280
     0
102
RTVSPost2010PropOp31
 70
     1
102
RTVSPost2010Prop32
280
     0
102
RTVSPost2010PropOp32
 70
     1
102
RTVSPost2010Prop33
280
     0
102
RTVSPost2010PropOp33
 70
     1
102
RTVSPost2010Prop34
280
     0
102
RTVSPost2010PropOp34
 70
     1
102
RTVSPost2010Prop35
280
     0
102
RTVSPost2010PropOp35
 70
     1
102
RTVSPost2010Prop36
280
     0
102
RTVSPost2010PropOp36
 70
     1
102
RTVSPost2010Prop37
 90
       50
102
RTVSPost2010PropOp37
 70
     1
102
RTVSPost2010Prop38
140
0.0
102
RTVSPost2010PropOp38
 70
     1
102
RTVSPost2010Prop39
140
1.0
102
RTVSPost2010PropOp39
 70
     1
102
RTVSPost2010Prop40
 90
        0
102
RTVSPost2010PropOp40
 70
     1
102
RTVSPost2010Prop41ColorIndex
 90
       18
102
RTVSPost2010Prop41ColorRGB
 90
        0
102
RTVSPost2010PropOp41
 70
     1
102
RTVSPost2010Prop42
 90
       50
102
RTVSPost2010PropOp42
 70
     1
102
RTVSPost2010Prop43
 90
        3
102
RTVSPost2010PropOp43
 70
     1
102
RTVSPost2010Prop44ColorIndex
 90
        5
102
RTVSPost2010Prop44ColorRGB
 90
      255
102
RTVSPost2010PropOp44
 70
     1
102
RTVSPost2010Prop45
280
     0
102
RTVSPost2010PropOp45
 70
     1
102
RTVSPost2010Prop46
 90
       50
102
RTVSPost2010PropOp46
 70
     1
102
RTVSPost2010Prop47
 90
       50
102
RTVSPost2010PropOp47
 70
     1
102
RTVSPost2010Prop48
 90
       50
102
RTVSPost2010PropOp48
 70
     1
102
RTVSPost2010Prop49
280
     0
102
RTVSPost2010PropOp49
 70
     1
102
RTVSPost2010Prop50
 90
       50
102
RTVSPost2010PropOp50
 70
     1
102
RTVSPost2010Prop51ColorIndex
 90
      256
102
RTVSPost2010Prop51ColorRGB
 90
-16777216
102
RTVSPost2010PropOp51
 70
     0
102
RTVSPost2010Prop52
140
1.0
102
RTVSPost2010PropOp52
 70
     0
102
RTVSPost2010Prop53
 90
        2
102
RTVSPost2010PropOp53
 70
     1
102
RTVSPost2010Prop54
  1
strokes_ogs.tif
102
RTVSPost2010PropOp54
 70
     1
102
RTVSPost2010Prop55
280
     0
102
RTVSPost2010PropOp55
 70
     1
102
RTVSPost2010Prop56
140
1.0
102
RTVSPost2010PropOp56
 70
     1
102
RTVSPost2010Prop57
140
1.0
102
RTVSPost2010PropOp57
 70
     1
  0
XRECORD
  5
445
102
{ACAD_REACTORS
330
444
102
}
330
444
100
AcDbXrecord
280
     1
102
RTVSPropertyOp0
 70
     1
102
RTVSPropertyOp1
 70
     1
102
RTVSPropertyOp2
 70
     1
102
RTVSPropertyOp3
 70
     1
102
RTVSPropertyOp4
 70
     1
102
RTVSPropertyOp5
 70
     1
102
RTVSPropertyOp6
 70
     1
102
RTVSPropertyOp7
 70
     1
102
RTVSPropertyOp8
 70
     1
102
RTVSPropertyOp9
 70
     1
102
RTVSPropertyOp10
 70
     1
102
RTVSPropertyOp11
 70
     1
102
RTVSPropertyOp12
 70
     1
102
RTVSPropertyOp13
 70
     1
102
RTVSPropertyOp14
 70
     1
102
RTVSPropertyOp15
 70
     1
102
RTVSPropertyOp16
 70
     1
102
RTVSPropertyOp17
 70
     1
102
RTVSPropertyOp18
 70
     1
102
RTVSPropertyOp19
 70
     1
102
RTVSPropertyOp20
 70
     1
102
RTVSPropertyOp21
 70
     1
102
RTVSPropertyOp22
 70
     1
102
RTVSPropertyOp23
 70
     1
102
RTVSPropertyOp24
 70
     1
102
RTVSPropertyOp25
 70
     1
102
RTVSPropertyOp26
 70
     1
102
RTVSPropertyOp27
 70
     1
102
RTVSPropertyOp28
 70
     1
102
RTVSPropertyOp29
 70
     1
102
RTVSPropertyOp30
 70
     1
102
RTVSPropertyOp31
 70
     1
102
RTVSPropertyOp32
 70
     1
102
RTVSPropertyOp33
 70
     1
102
RTVSPropertyOp34
 70
     1
102
RTVSPropertyOp35
 70
     1
102
RTVSPropertyOp36
 70
     1
102
RTVSPropertyOp37
 70
     1
102
RTVSPropertyOp38
 70
     1
102
RTVSPropertyOp39
 70
     1
102
RTVSPropertyOp40
 70
     1
102
RTVSPropertyOp41
 70
     1
102
RTVSPropertyOp42
 70
     1
102
RTVSPropertyOp43
 70
     1
102
RTVSPropertyOp44
 70
     1
102
RTVSPropertyOp45
 70
     1
102
RTVSPropertyOp46
 70
     1
102
RTVSPropertyOp47
 70
     1
102
RTVSPropertyOp48
 70
     1
102
RTVSPropertyOp49
 70
     1
102
RTVSPropertyOp50
 70
     1
102
RTVSPropertyOp51
 70
     0
102
RTVSPropertyOp52
 70
     0
102
RTVSPropertyOp53
 70
     1
102
RTVSPropertyOp54
 70
     1
102
RTVSPropertyOp55
 70
     1
102
RTVSPropertyOp56
 70
     1
102
RTVSPropertyOp57
 70
     1
102
RTVSPost2010Prop28
280
     0
102
RTVSPost2010PropOp28
 70
     1
102
RTVSPost2010Prop29
280
     1
102
RTVSPost2010PropOp29
 70
     1
102
RTVSPost2010Prop30
280
     1
102
RTVSPost2010PropOp30
 70
     1
102
RTVSPost2010Prop31
280
     0
102
RTVSPost2010PropOp31
 70
     1
102
RTVSPost2010Prop32
280
     0
102
RTVSPost2010PropOp32
 70
     1
102
RTVSPost2010Prop33
280
     0
102
RTVSPost2010PropOp33
 70
     1
102
RTVSPost2010Prop34
280
     0
102
RTVSPost2010PropOp34
 70
     1
102
RTVSPost2010Prop35
280
     0
102
RTVSPost2010PropOp35
 70
     1
102
RTVSPost2010Prop36
280
     0
102
RTVSPost2010PropOp36
 70
     1
102
RTVSPost2010Prop37
 90
       50
102
RTVSPost2010PropOp37
 70
     1
102
RTVSPost2010Prop38
140
0.0
102
RTVSPost2010PropOp38
 70
     1
102
RTVSPost2010Prop39
140
1.0
102
RTVSPost2010PropOp39
 70
     1
102
RTVSPost2010Prop40
 90
        0
102
RTVSPost2010PropOp40
 70
     1
102
RTVSPost2010Prop41ColorIndex
 90
       18
102
RTVSPost2010Prop41ColorRGB
 90
        0
102
RTVSPost2010PropOp41
 70
     1
102
RTVSPost2010Prop42
 90
       50
102
RTVSPost2010PropOp42
 70
     1
102
RTVSPost2010Prop43
 90
        3
102
RTVSPost2010PropOp43
 70
     1
102
RTVSPost2010Prop44ColorIndex
 90
        5
102
RTVSPost2010Prop44ColorRGB
 90
      255
102
RTVSPost2010PropOp44
 70
     1
102
RTVSPost2010Prop45
280
     0
102
RTVSPost2010PropOp45
 70
     1
102
RTVSPost2010Prop46
 90
       50
102
RTVSPost2010PropOp46
 70
     1
102
RTVSPost2010Prop47
 90
       50
102
RTVSPost2010PropOp47
 70
     1
102
RTVSPost2010Prop48
 90
       50
102
RTVSPost2010PropOp48
 70
     1
102
RTVSPost2010Prop49
280
     0
102
RTVSPost2010PropOp49
 70
     1
102
RTVSPost2010Prop50
 90
       50
102
RTVSPost2010PropOp50
 70
     1
102
RTVSPost2010Prop51ColorIndex
 90
      256
102
RTVSPost2010Prop51ColorRGB
 90
-16777216
102
RTVSPost2010PropOp51
 70
     0
102
RTVSPost2010Prop52
140
1.0
102
RTVSPost2010PropOp52
 70
     0
102
RTVSPost2010Prop53
 90
        2
102
RTVSPost2010PropOp53
 70
     1
102
RTVSPost2010Prop54
  1
strokes_ogs.tif
102
RTVSPost2010PropOp54
 70
     1
102
RTVSPost2010Prop55
280
     0
102
RTVSPost2010PropOp55
 70
     1
102
RTVSPost2010Prop56
140
1.0
102
RTVSPost2010PropOp56
 70
     1
102
RTVSPost2010Prop57
140
1.0
102
RTVSPost2010PropOp57
 70
     1
  0
XRECORD
  5
447
102
{ACAD_REACTORS
330
446
102
}
330
446
100
AcDbXrecord
280
     1
102
RTVSPropertyOp0
 70
     1
102
RTVSPropertyOp1
 70
     1
102
RTVSPropertyOp2
 70
     1
102
RTVSPropertyOp3
 70
     1
102
RTVSPropertyOp4
 70
     1
102
RTVSPropertyOp5
 70
     1
102
RTVSPropertyOp6
 70
     1
102
RTVSPropertyOp7
 70
     1
102
RTVSPropertyOp8
 70
     1
102
RTVSPropertyOp9
 70
     1
102
RTVSPropertyOp10
 70
     1
102
RTVSPropertyOp11
 70
     1
102
RTVSPropertyOp12
 70
     1
102
RTVSPropertyOp13
 70
     1
102
RTVSPropertyOp14
 70
     1
102
RTVSPropertyOp15
 70
     1
102
RTVSPropertyOp16
 70
     1
102
RTVSPropertyOp17
 70
     1
102
RTVSPropertyOp18
 70
     1
102
RTVSPropertyOp19
 70
     1
102
RTVSPropertyOp20
 70
     1
102
RTVSPropertyOp21
 70
     1
102
RTVSPropertyOp22
 70
     1
102
RTVSPropertyOp23
 70
     1
102
RTVSPropertyOp24
 70
     1
102
RTVSPropertyOp25
 70
     1
102
RTVSPropertyOp26
 70
     1
102
RTVSPropertyOp27
 70
     1
102
RTVSPropertyOp28
 70
     1
102
RTVSPropertyOp29
 70
     1
102
RTVSPropertyOp30
 70
     1
102
RTVSPropertyOp31
 70
     1
102
RTVSPropertyOp32
 70
     1
102
RTVSPropertyOp33
 70
     1
102
RTVSPropertyOp34
 70
     1
102
RTVSPropertyOp35
 70
     1
102
RTVSPropertyOp36
 70
     1
102
RTVSPropertyOp37
 70
     1
102
RTVSPropertyOp38
 70
     1
102
RTVSPropertyOp39
 70
     1
102
RTVSPropertyOp40
 70
     1
102
RTVSPropertyOp41
 70
     1
102
RTVSPropertyOp42
 70
     1
102
RTVSPropertyOp43
 70
     1
102
RTVSPropertyOp44
 70
     1
102
RTVSPropertyOp45
 70
     1
102
RTVSPropertyOp46
 70
     1
102
RTVSPropertyOp47
 70
     1
102
RTVSPropertyOp48
 70
     1
102
RTVSPropertyOp49
 70
     1
102
RTVSPropertyOp50
 70
     1
102
RTVSPropertyOp51
 70
     0
102
RTVSPropertyOp52
 70
     0
102
RTVSPropertyOp53
 70
     1
102
RTVSPropertyOp54
 70
     1
102
RTVSPropertyOp55
 70
     1
102
RTVSPropertyOp56
 70
     1
102
RTVSPropertyOp57
 70
     1
102
RTVSPost2010Prop28
280
     0
102
RTVSPost2010PropOp28
 70
     1
102
RTVSPost2010Prop29
280
     1
102
RTVSPost2010PropOp29
 70
     1
102
RTVSPost2010Prop30
280
     1
102
RTVSPost2010PropOp30
 70
     1
102
RTVSPost2010Prop31
280
     0
102
RTVSPost2010PropOp31
 70
     1
102
RTVSPost2010Prop32
280
     0
102
RTVSPost2010PropOp32
 70
     1
102
RTVSPost2010Prop33
280
     0
102
RTVSPost2010PropOp33
 70
     1
102
RTVSPost2010Prop34
280
     0
102
RTVSPost2010PropOp34
 70
     1
102
RTVSPost2010Prop35
280
     0
102
RTVSPost2010PropOp35
 70
     1
102
RTVSPost2010Prop36
280
     0
102
RTVSPost2010PropOp36
 70
     1
102
RTVSPost2010Prop37
 90
       50
102
RTVSPost2010PropOp37
 70
     1
102
RTVSPost2010Prop38
140
0.0
102
RTVSPost2010PropOp38
 70
     1
102
RTVSPost2010Prop39
140
1.0
102
RTVSPost2010PropOp39
 70
     1
102
RTVSPost2010Prop40
 90
        0
102
RTVSPost2010PropOp40
 70
     1
102
RTVSPost2010Prop41ColorIndex
 90
       18
102
RTVSPost2010Prop41ColorRGB
 90
        0
102
RTVSPost2010PropOp41
 70
     1
102
RTVSPost2010Prop42
 90
       50
102
RTVSPost2010PropOp42
 70
     1
102
RTVSPost2010Prop43
 90
        3
102
RTVSPost2010PropOp43
 70
     1
102
RTVSPost2010Prop44ColorIndex
 90
        5
102
RTVSPost2010Prop44ColorRGB
 90
      255
102
RTVSPost2010PropOp44
 70
     1
102
RTVSPost2010Prop45
280
     0
102
RTVSPost2010PropOp45
 70
     1
102
RTVSPost2010Prop46
 90
       50
102
RTVSPost2010PropOp46
 70
     1
102
RTVSPost2010Prop47
 90
       50
102
RTVSPost2010PropOp47
 70
     1
102
RTVSPost2010Prop48
 90
       50
102
RTVSPost2010PropOp48
 70
     1
102
RTVSPost2010Prop49
280
     0
102
RTVSPost2010PropOp49
 70
     1
102
RTVSPost2010Prop50
 90
       50
102
RTVSPost2010PropOp50
 70
     1
102
RTVSPost2010Prop51ColorIndex
 90
      256
102
RTVSPost2010Prop51ColorRGB
 90
-16777216
102
RTVSPost2010PropOp51
 70
     0
102
RTVSPost2010Prop52
140
1.0
102
RTVSPost2010PropOp52
 70
     0
102
RTVSPost2010Prop53
 90
        2
102
RTVSPost2010PropOp53
 70
     1
102
RTVSPost2010Prop54
  1
strokes_ogs.tif
102
RTVSPost2010PropOp54
 70
     1
102
RTVSPost2010Prop55
280
     0
102
RTVSPost2010PropOp55
 70
     1
102
RTVSPost2010Prop56
140
1.0
102
RTVSPost2010PropOp56
 70
     1
102
RTVSPost2010Prop57
140
1.0
102
RTVSPost2010PropOp57
 70
     1
  0
XRECORD
  5
449
102
{ACAD_REACTORS
330
448
102
}
330
448
100
AcDbXrecord
280
     1
102
RTVSPropertyOp0
 70
     1
102
RTVSPropertyOp1
 70
     1
102
RTVSPropertyOp2
 70
     1
102
RTVSPropertyOp3
 70
     1
102
RTVSPropertyOp4
 70
     1
102
RTVSPropertyOp5
 70
     1
102
RTVSPropertyOp6
 70
     1
102
RTVSPropertyOp7
 70
     1
102
RTVSPropertyOp8
 70
     1
102
RTVSPropertyOp9
 70
     1
102
RTVSPropertyOp10
 70
     1
102
RTVSPropertyOp11
 70
     1
102
RTVSPropertyOp12
 70
     1
102
RTVSPropertyOp13
 70
     1
102
RTVSPropertyOp14
 70
     1
102
RTVSPropertyOp15
 70
     1
102
RTVSPropertyOp16
 70
     1
102
RTVSPropertyOp17
 70
     1
102
RTVSPropertyOp18
 70
     1
102
RTVSPropertyOp19
 70
     1
102
RTVSPropertyOp20
 70
     1
102
RTVSPropertyOp21
 70
     1
102
RTVSPropertyOp22
 70
     1
102
RTVSPropertyOp23
 70
     1
102
RTVSPropertyOp24
 70
     1
102
RTVSPropertyOp25
 70
     1
102
RTVSPropertyOp26
 70
     1
102
RTVSPropertyOp27
 70
     1
102
RTVSPropertyOp28
 70
     1
102
RTVSPropertyOp29
 70
     1
102
RTVSPropertyOp30
 70
     1
102
RTVSPropertyOp31
 70
     1
102
RTVSPropertyOp32
 70
     1
102
RTVSPropertyOp33
 70
     1
102
RTVSPropertyOp34
 70
     1
102
RTVSPropertyOp35
 70
     1
102
RTVSPropertyOp36
 70
     1
102
RTVSPropertyOp37
 70
     1
102
RTVSPropertyOp38
 70
     1
102
RTVSPropertyOp39
 70
     1
102
RTVSPropertyOp40
 70
     1
102
RTVSPropertyOp41
 70
     1
102
RTVSPropertyOp42
 70
     1
102
RTVSPropertyOp43
 70
     1
102
RTVSPropertyOp44
 70
     1
102
RTVSPropertyOp45
 70
     1
102
RTVSPropertyOp46
 70
     1
102
RTVSPropertyOp47
 70
     1
102
RTVSPropertyOp48
 70
     1
102
RTVSPropertyOp49
 70
     1
102
RTVSPropertyOp50
 70
     1
102
RTVSPropertyOp51
 70
     0
102
RTVSPropertyOp52
 70
     0
102
RTVSPropertyOp53
 70
     1
102
RTVSPropertyOp54
 70
     1
102
RTVSPropertyOp55
 70
     1
102
RTVSPropertyOp56
 70
     1
102
RTVSPropertyOp57
 70
     1
102
RTVSPost2010Prop28
280
     0
102
RTVSPost2010PropOp28
 70
     1
102
RTVSPost2010Prop29
280
     1
102
RTVSPost2010PropOp29
 70
     1
102
RTVSPost2010Prop30
280
     1
102
RTVSPost2010PropOp30
 70
     1
102
RTVSPost2010Prop31
280
     0
102
RTVSPost2010PropOp31
 70
     1
102
RTVSPost2010Prop32
280
     0
102
RTVSPost2010PropOp32
 70
     1
102
RTVSPost2010Prop33
280
     0
102
RTVSPost2010PropOp33
 70
     1
102
RTVSPost2010Prop34
280
     0
102
RTVSPost2010PropOp34
 70
     1
102
RTVSPost2010Prop35
280
     0
102
RTVSPost2010PropOp35
 70
     1
102
RTVSPost2010Prop36
280
     0
102
RTVSPost2010PropOp36
 70
     1
102
RTVSPost2010Prop37
 90
       50
102
RTVSPost2010PropOp37
 70
     1
102
RTVSPost2010Prop38
140
0.0
102
RTVSPost2010PropOp38
 70
     1
102
RTVSPost2010Prop39
140
1.0
102
RTVSPost2010PropOp39
 70
     1
102
RTVSPost2010Prop40
 90
        0
102
RTVSPost2010PropOp40
 70
     1
102
RTVSPost2010Prop41ColorIndex
 90
       18
102
RTVSPost2010Prop41ColorRGB
 90
        0
102
RTVSPost2010PropOp41
 70
     1
102
RTVSPost2010Prop42
 90
       50
102
RTVSPost2010PropOp42
 70
     1
102
RTVSPost2010Prop43
 90
        3
102
RTVSPost2010PropOp43
 70
     1
102
RTVSPost2010Prop44ColorIndex
 90
        5
102
RTVSPost2010Prop44ColorRGB
 90
      255
102
RTVSPost2010PropOp44
 70
     1
102
RTVSPost2010Prop45
280
     0
102
RTVSPost2010PropOp45
 70
     1
102
RTVSPost2010Prop46
 90
       50
102
RTVSPost2010PropOp46
 70
     1
102
RTVSPost2010Prop47
 90
       50
102
RTVSPost2010PropOp47
 70
     1
102
RTVSPost2010Prop48
 90
       50
102
RTVSPost2010PropOp48
 70
     1
102
RTVSPost2010Prop49
280
     0
102
RTVSPost2010PropOp49
 70
     1
102
RTVSPost2010Prop50
 90
       50
102
RTVSPost2010PropOp50
 70
     1
102
RTVSPost2010Prop51ColorIndex
 90
      256
102
RTVSPost2010Prop51ColorRGB
 90
-16777216
102
RTVSPost2010PropOp51
 70
     0
102
RTVSPost2010Prop52
140
1.0
102
RTVSPost2010PropOp52
 70
     0
102
RTVSPost2010Prop53
 90
        2
102
RTVSPost2010PropOp53
 70
     1
102
RTVSPost2010Prop54
  1
strokes_ogs.tif
102
RTVSPost2010PropOp54
 70
     1
102
RTVSPost2010Prop55
280
     0
102
RTVSPost2010PropOp55
 70
     1
102
RTVSPost2010Prop56
140
1.0
102
RTVSPost2010PropOp56
 70
     1
102
RTVSPost2010Prop57
140
1.0
102
RTVSPost2010PropOp57
 70
     1
  0
XRECORD
  5
44B
102
{ACAD_REACTORS
330
44A
102
}
330
44A
100
AcDbXrecord
280
     1
102
RTVSPropertyOp0
 70
     1
102
RTVSPropertyOp1
 70
     1
102
RTVSPropertyOp2
 70
     1
102
RTVSPropertyOp3
 70
     1
102
RTVSPropertyOp4
 70
     1
102
RTVSPropertyOp5
 70
     1
102
RTVSPropertyOp6
 70
     1
102
RTVSPropertyOp7
 70
     1
102
RTVSPropertyOp8
 70
     1
102
RTVSPropertyOp9
 70
     1
102
RTVSPropertyOp10
 70
     1
102
RTVSPropertyOp11
 70
     1
102
RTVSPropertyOp12
 70
     1
102
RTVSPropertyOp13
 70
     1
102
RTVSPropertyOp14
 70
     1
102
RTVSPropertyOp15
 70
     1
102
RTVSPropertyOp16
 70
     1
102
RTVSPropertyOp17
 70
     1
102
RTVSPropertyOp18
 70
     1
102
RTVSPropertyOp19
 70
     1
102
RTVSPropertyOp20
 70
     1
102
RTVSPropertyOp21
 70
     1
102
RTVSPropertyOp22
 70
     1
102
RTVSPropertyOp23
 70
     1
102
RTVSPropertyOp24
 70
     1
102
RTVSPropertyOp25
 70
     1
102
RTVSPropertyOp26
 70
     1
102
RTVSPropertyOp27
 70
     1
102
RTVSPropertyOp28
 70
     1
102
RTVSPropertyOp29
 70
     1
102
RTVSPropertyOp30
 70
     1
102
RTVSPropertyOp31
 70
     1
102
RTVSPropertyOp32
 70
     1
102
RTVSPropertyOp33
 70
     1
102
RTVSPropertyOp34
 70
     1
102
RTVSPropertyOp35
 70
     1
102
RTVSPropertyOp36
 70
     1
102
RTVSPropertyOp37
 70
     1
102
RTVSPropertyOp38
 70
     1
102
RTVSPropertyOp39
 70
     1
102
RTVSPropertyOp40
 70
     1
102
RTVSPropertyOp41
 70
     1
102
RTVSPropertyOp42
 70
     1
102
RTVSPropertyOp43
 70
     1
102
RTVSPropertyOp44
 70
     1
102
RTVSPropertyOp45
 70
     1
102
RTVSPropertyOp46
 70
     1
102
RTVSPropertyOp47
 70
     1
102
RTVSPropertyOp48
 70
     1
102
RTVSPropertyOp49
 70
     1
102
RTVSPropertyOp50
 70
     1
102
RTVSPropertyOp51
 70
     0
102
RTVSPropertyOp52
 70
     0
102
RTVSPropertyOp53
 70
     1
102
RTVSPropertyOp54
 70
     1
102
RTVSPropertyOp55
 70
     1
102
RTVSPropertyOp56
 70
     1
102
RTVSPropertyOp57
 70
     1
102
RTVSPost2010Prop28
280
     0
102
RTVSPost2010PropOp28
 70
     1
102
RTVSPost2010Prop29
280
     1
102
RTVSPost2010PropOp29
 70
     1
102
RTVSPost2010Prop30
280
     1
102
RTVSPost2010PropOp30
 70
     1
102
RTVSPost2010Prop31
280
     0
102
RTVSPost2010PropOp31
 70
     1
102
RTVSPost2010Prop32
280
     0
102
RTVSPost2010PropOp32
 70
     1
102
RTVSPost2010Prop33
280
     0
102
RTVSPost2010PropOp33
 70
     1
102
RTVSPost2010Prop34
280
     0
102
RTVSPost2010PropOp34
 70
     1
102
RTVSPost2010Prop35
280
     0
102
RTVSPost2010PropOp35
 70
     1
102
RTVSPost2010Prop36
280
     0
102
RTVSPost2010PropOp36
 70
     1
102
RTVSPost2010Prop37
 90
       50
102
RTVSPost2010PropOp37
 70
     1
102
RTVSPost2010Prop38
140
0.0
102
RTVSPost2010PropOp38
 70
     1
102
RTVSPost2010Prop39
140
1.0
102
RTVSPost2010PropOp39
 70
     1
102
RTVSPost2010Prop40
 90
        0
102
RTVSPost2010PropOp40
 70
     1
102
RTVSPost2010Prop41ColorIndex
 90
       18
102
RTVSPost2010Prop41ColorRGB
 90
        0
102
RTVSPost2010PropOp41
 70
     1
102
RTVSPost2010Prop42
 90
       50
102
RTVSPost2010PropOp42
 70
     1
102
RTVSPost2010Prop43
 90
        3
102
RTVSPost2010PropOp43
 70
     1
102
RTVSPost2010Prop44ColorIndex
 90
        5
102
RTVSPost2010Prop44ColorRGB
 90
      255
102
RTVSPost2010PropOp44
 70
     1
102
RTVSPost2010Prop45
280
     0
102
RTVSPost2010PropOp45
 70
     1
102
RTVSPost2010Prop46
 90
       50
102
RTVSPost2010PropOp46
 70
     1
102
RTVSPost2010Prop47
 90
       50
102
RTVSPost2010PropOp47
 70
     1
102
RTVSPost2010Prop48
 90
       50
102
RTVSPost2010PropOp48
 70
     1
102
RTVSPost2010Prop49
280
     0
102
RTVSPost2010PropOp49
 70
     1
102
RTVSPost2010Prop50
 90
       50
102
RTVSPost2010PropOp50
 70
     1
102
RTVSPost2010Prop51ColorIndex
 90
      256
102
RTVSPost2010Prop51ColorRGB
 90
-16777216
102
RTVSPost2010PropOp51
 70
     0
102
RTVSPost2010Prop52
140
1.0
102
RTVSPost2010PropOp52
 70
     0
102
RTVSPost2010Prop53
 90
        2
102
RTVSPost2010PropOp53
 70
     1
102
RTVSPost2010Prop54
  1
strokes_ogs.tif
102
RTVSPost2010PropOp54
 70
     1
102
RTVSPost2010Prop55
280
     0
102
RTVSPost2010PropOp55
 70
     1
102
RTVSPost2010Prop56
140
1.0
102
RTVSPost2010PropOp56
 70
     1
102
RTVSPost2010Prop57
140
1.0
102
RTVSPost2010PropOp57
 70
     1
  0
XRECORD
  5
451
102
{ACAD_REACTORS
330
450
102
}
330
450
100
AcDbXrecord
280
     1
102
RTVSPropertyOp0
 70
     1
102
RTVSPropertyOp1
 70
     1
102
RTVSPropertyOp2
 70
     1
102
RTVSPropertyOp3
 70
     1
102
RTVSPropertyOp4
 70
     1
102
RTVSPropertyOp5
 70
     1
102
RTVSPropertyOp6
 70
     1
102
RTVSPropertyOp7
 70
     1
102
RTVSPropertyOp8
 70
     1
102
RTVSPropertyOp9
 70
     1
102
RTVSPropertyOp10
 70
     1
102
RTVSPropertyOp11
 70
     1
102
RTVSPropertyOp12
 70
     1
102
RTVSPropertyOp13
 70
     1
102
RTVSPropertyOp14
 70
     1
102
RTVSPropertyOp15
 70
     1
102
RTVSPropertyOp16
 70
     1
102
RTVSPropertyOp17
 70
     1
102
RTVSPropertyOp18
 70
     1
102
RTVSPropertyOp19
 70
     1
102
RTVSPropertyOp20
 70
     1
102
RTVSPropertyOp21
 70
     1
102
RTVSPropertyOp22
 70
     1
102
RTVSPropertyOp23
 70
     1
102
RTVSPropertyOp24
 70
     1
102
RTVSPropertyOp25
 70
     1
102
RTVSPropertyOp26
 70
     1
102
RTVSPropertyOp27
 70
     1
102
RTVSPropertyOp28
 70
     1
102
RTVSPropertyOp29
 70
     1
102
RTVSPropertyOp30
 70
     1
102
RTVSPropertyOp31
 70
     1
102
RTVSPropertyOp32
 70
     1
102
RTVSPropertyOp33
 70
     1
102
RTVSPropertyOp34
 70
     1
102
RTVSPropertyOp35
 70
     1
102
RTVSPropertyOp36
 70
     1
102
RTVSPropertyOp37
 70
     1
102
RTVSPropertyOp38
 70
     1
102
RTVSPropertyOp39
 70
     1
102
RTVSPropertyOp40
 70
     1
102
RTVSPropertyOp41
 70
     1
102
RTVSPropertyOp42
 70
     1
102
RTVSPropertyOp43
 70
     1
102
RTVSPropertyOp44
 70
     1
102
RTVSPropertyOp45
 70
     1
102
RTVSPropertyOp46
 70
     1
102
RTVSPropertyOp47
 70
     1
102
RTVSPropertyOp48
 70
     1
102
RTVSPropertyOp49
 70
     1
102
RTVSPropertyOp50
 70
     1
102
RTVSPropertyOp51
 70
     0
102
RTVSPropertyOp52
 70
     0
102
RTVSPropertyOp53
 70
     1
102
RTVSPropertyOp54
 70
     1
102
RTVSPropertyOp55
 70
     1
102
RTVSPropertyOp56
 70
     1
102
RTVSPropertyOp57
 70
     1
102
RTVSPost2010Prop28
280
     0
102
RTVSPost2010PropOp28
 70
     1
102
RTVSPost2010Prop29
280
     1
102
RTVSPost2010PropOp29
 70
     1
102
RTVSPost2010Prop30
280
     1
102
RTVSPost2010PropOp30
 70
     1
102
RTVSPost2010Prop31
280
     0
102
RTVSPost2010PropOp31
 70
     1
102
RTVSPost2010Prop32
280
     0
102
RTVSPost2010PropOp32
 70
     1
102
RTVSPost2010Prop33
280
     0
102
RTVSPost2010PropOp33
 70
     1
102
RTVSPost2010Prop34
280
     0
102
RTVSPost2010PropOp34
 70
     1
102
RTVSPost2010Prop35
280
     0
102
RTVSPost2010PropOp35
 70
     1
102
RTVSPost2010Prop36
280
     0
102
RTVSPost2010PropOp36
 70
     1
102
RTVSPost2010Prop37
 90
       50
102
RTVSPost2010PropOp37
 70
     1
102
RTVSPost2010Prop38
140
0.0
102
RTVSPost2010PropOp38
 70
     1
102
RTVSPost2010Prop39
140
1.0
102
RTVSPost2010PropOp39
 70
     1
102
RTVSPost2010Prop40
 90
        0
102
RTVSPost2010PropOp40
 70
     1
102
RTVSPost2010Prop41ColorIndex
 90
       18
102
RTVSPost2010Prop41ColorRGB
 90
        0
102
RTVSPost2010PropOp41
 70
     1
102
RTVSPost2010Prop42
 90
       50
102
RTVSPost2010PropOp42
 70
     1
102
RTVSPost2010Prop43
 90
        3
102
RTVSPost2010PropOp43
 70
     1
102
RTVSPost2010Prop44ColorIndex
 90
        5
102
RTVSPost2010Prop44ColorRGB
 90
      255
102
RTVSPost2010PropOp44
 70
     1
102
RTVSPost2010Prop45
280
     0
102
RTVSPost2010PropOp45
 70
     1
102
RTVSPost2010Prop46
 90
       50
102
RTVSPost2010PropOp46
 70
     1
102
RTVSPost2010Prop47
 90
       50
102
RTVSPost2010PropOp47
 70
     1
102
RTVSPost2010Prop48
 90
       50
102
RTVSPost2010PropOp48
 70
     1
102
RTVSPost2010Prop49
280
     0
102
RTVSPost2010PropOp49
 70
     1
102
RTVSPost2010Prop50
 90
       50
102
RTVSPost2010PropOp50
 70
     1
102
RTVSPost2010Prop51ColorIndex
 90
      256
102
RTVSPost2010Prop51ColorRGB
 90
-16777216
102
RTVSPost2010PropOp51
 70
     0
102
RTVSPost2010Prop52
140
1.0
102
RTVSPost2010PropOp52
 70
     0
102
RTVSPost2010Prop53
 90
        2
102
RTVSPost2010PropOp53
 70
     1
102
RTVSPost2010Prop54
  1
strokes_ogs.tif
102
RTVSPost2010PropOp54
 70
     1
102
RTVSPost2010Prop55
280
     0
102
RTVSPost2010PropOp55
 70
     1
102
RTVSPost2010Prop56
140
1.0
102
RTVSPost2010PropOp56
 70
     1
102
RTVSPost2010Prop57
140
1.0
102
RTVSPost2010PropOp57
 70
     1
  0
XRECORD
  5
465
102
{ACAD_REACTORS
330
464
102
}
330
464
100
AcDbXrecord
280
     1
102
RTVSPropertyOp0
 70
     0
102
RTVSPropertyOp1
 70
     0
102
RTVSPropertyOp2
 70
     0
102
RTVSPropertyOp3
 70
     0
102
RTVSPropertyOp4
 70
     0
102
RTVSPropertyOp5
 70
     0
102
RTVSPropertyOp6
 70
     0
102
RTVSPropertyOp7
 70
     0
102
RTVSPropertyOp8
 70
     0
102
RTVSPropertyOp9
 70
     0
102
RTVSPropertyOp10
 70
     0
102
RTVSPropertyOp11
 70
     0
102
RTVSPropertyOp12
 70
     0
102
RTVSPropertyOp13
 70
     0
102
RTVSPropertyOp14
 70
     2
102
RTVSPropertyOp15
 70
     0
102
RTVSPropertyOp16
 70
     0
102
RTVSPropertyOp17
 70
     0
102
RTVSPropertyOp18
 70
     0
102
RTVSPropertyOp19
 70
     0
102
RTVSPropertyOp20
 70
     0
102
RTVSPropertyOp21
 70
     0
102
RTVSPropertyOp22
 70
     0
102
RTVSPropertyOp23
 70
     0
102
RTVSPropertyOp24
 70
     0
102
RTVSPropertyOp25
 70
     0
102
RTVSPropertyOp26
 70
     0
102
RTVSPropertyOp27
 70
     0
102
RTVSPropertyOp28
 70
     0
102
RTVSPropertyOp29
 70
     0
102
RTVSPropertyOp30
 70
     0
102
RTVSPropertyOp31
 70
     0
102
RTVSPropertyOp32
 70
     0
102
RTVSPropertyOp33
 70
     0
102
RTVSPropertyOp34
 70
     0
102
RTVSPropertyOp35
 70
     0
102
RTVSPropertyOp36
 70
     0
102
RTVSPropertyOp37
 70
     0
102
RTVSPropertyOp38
 70
     0
102
RTVSPropertyOp39
 70
     0
102
RTVSPropertyOp40
 70
     0
102
RTVSPropertyOp41
 70
     0
102
RTVSPropertyOp42
 70
     0
102
RTVSPropertyOp43
 70
     0
102
RTVSPropertyOp44
 70
     0
102
RTVSPropertyOp45
 70
     0
102
RTVSPropertyOp46
 70
     0
102
RTVSPropertyOp47
 70
     0
102
RTVSPropertyOp48
 70
     0
102
RTVSPropertyOp49
 70
     0
102
RTVSPropertyOp50
 70
     0
102
RTVSPropertyOp51
 70
     0
102
RTVSPropertyOp52
 70
     0
102
RTVSPropertyOp53
 70
     0
102
RTVSPropertyOp54
 70
     0
102
RTVSPropertyOp55
 70
     0
102
RTVSPropertyOp56
 70
     0
102
RTVSPropertyOp57
 70
     0
102
RTVSPost2010Prop28
280
     0
102
RTVSPost2010PropOp28
 70
     0
102
RTVSPost2010Prop29
280
     1
102
RTVSPost2010PropOp29
 70
     0
102
RTVSPost2010Prop30
280
     1
102
RTVSPost2010PropOp30
 70
     0
102
RTVSPost2010Prop31
280
     0
102
RTVSPost2010PropOp31
 70
     0
102
RTVSPost2010Prop32
280
     0
102
RTVSPost2010PropOp32
 70
     0
102
RTVSPost2010Prop33
280
     0
102
RTVSPost2010PropOp33
 70
     0
102
RTVSPost2010Prop34
280
     0
102
RTVSPost2010PropOp34
 70
     0
102
RTVSPost2010Prop35
280
     0
102
RTVSPost2010PropOp35
 70
     0
102
RTVSPost2010Prop36
280
     0
102
RTVSPost2010PropOp36
 70
     0
102
RTVSPost2010Prop37
 90
       50
102
RTVSPost2010PropOp37
 70
     0
102
RTVSPost2010Prop38
140
0.0
102
RTVSPost2010PropOp38
 70
     0
102
RTVSPost2010Prop39
140
1.0
102
RTVSPost2010PropOp39
 70
     0
102
RTVSPost2010Prop40
 90
        0
102
RTVSPost2010PropOp40
 70
     0
102
RTVSPost2010Prop41ColorIndex
 90
       18
102
RTVSPost2010Prop41ColorRGB
 90
        0
102
RTVSPost2010PropOp41
 70
     0
102
RTVSPost2010Prop42
 90
       50
102
RTVSPost2010PropOp42
 70
     0
102
RTVSPost2010Prop43
 90
        3
102
RTVSPost2010PropOp43
 70
     0
102
RTVSPost2010Prop44ColorIndex
 90
        5
102
RTVSPost2010Prop44ColorRGB
 90
      255
102
RTVSPost2010PropOp44
 70
     0
102
RTVSPost2010Prop45
280
     0
102
RTVSPost2010PropOp45
 70
     0
102
RTVSPost2010Prop46
 90
       50
102
RTVSPost2010PropOp46
 70
     0
102
RTVSPost2010Prop47
 90
       50
102
RTVSPost2010PropOp47
 70
     0
102
RTVSPost2010Prop48
 90
       50
102
RTVSPost2010PropOp48
 70
     0
102
RTVSPost2010Prop49
280
     0
102
RTVSPost2010PropOp49
 70
     0
102
RTVSPost2010Prop50
 90
       50
102
RTVSPost2010PropOp50
 70
     0
102
RTVSPost2010Prop51ColorIndex
 90
      256
102
RTVSPost2010Prop51ColorRGB
 90
-16777216
102
RTVSPost2010PropOp51
 70
     0
102
RTVSPost2010Prop52
140
1.0
102
RTVSPost2010PropOp52
 70
     0
102
RTVSPost2010Prop53
 90
        2
102
RTVSPost2010PropOp53
 70
     0
102
RTVSPost2010Prop54
  1
strokes_ogs.tif
102
RTVSPost2010PropOp54
 70
     0
102
RTVSPost2010Prop55
280
     0
102
RTVSPost2010PropOp55
 70
     0
102
RTVSPost2010Prop56
140
1.0
102
RTVSPost2010PropOp56
 70
     0
102
RTVSPost2010Prop57
140
1.0
102
RTVSPost2010PropOp57
 70
     0
  0
XRECORD
  5
45F
102
{ACAD_REACTORS
330
45E
102
}
330
45E
100
AcDbXrecord
280
     1
102
RTVSPropertyOp0
 70
     1
102
RTVSPropertyOp1
 70
     1
102
RTVSPropertyOp2
 70
     1
102
RTVSPropertyOp3
 70
     1
102
RTVSPropertyOp4
 70
     1
102
RTVSPropertyOp5
 70
     1
102
RTVSPropertyOp6
 70
     1
102
RTVSPropertyOp7
 70
     1
102
RTVSPropertyOp8
 70
     1
102
RTVSPropertyOp9
 70
     1
102
RTVSPropertyOp10
 70
     1
102
RTVSPropertyOp11
 70
     1
102
RTVSPropertyOp12
 70
     1
102
RTVSPropertyOp13
 70
     1
102
RTVSPropertyOp14
 70
     1
102
RTVSPropertyOp15
 70
     1
102
RTVSPropertyOp16
 70
     1
102
RTVSPropertyOp17
 70
     1
102
RTVSPropertyOp18
 70
     1
102
RTVSPropertyOp19
 70
     1
102
RTVSPropertyOp20
 70
     1
102
RTVSPropertyOp21
 70
     1
102
RTVSPropertyOp22
 70
     1
102
RTVSPropertyOp23
 70
     1
102
RTVSPropertyOp24
 70
     1
102
RTVSPropertyOp25
 70
     1
102
RTVSPropertyOp26
 70
     1
102
RTVSPropertyOp27
 70
     1
102
RTVSPropertyOp28
 70
     1
102
RTVSPropertyOp29
 70
     1
102
RTVSPropertyOp30
 70
     1
102
RTVSPropertyOp31
 70
     1
102
RTVSPropertyOp32
 70
     1
102
RTVSPropertyOp33
 70
     1
102
RTVSPropertyOp34
 70
     1
102
RTVSPropertyOp35
 70
     1
102
RTVSPropertyOp36
 70
     1
102
RTVSPropertyOp37
 70
     1
102
RTVSPropertyOp38
 70
     1
102
RTVSPropertyOp39
 70
     1
102
RTVSPropertyOp40
 70
     1
102
RTVSPropertyOp41
 70
     1
102
RTVSPropertyOp42
 70
     1
102
RTVSPropertyOp43
 70
     1
102
RTVSPropertyOp44
 70
     1
102
RTVSPropertyOp45
 70
     1
102
RTVSPropertyOp46
 70
     1
102
RTVSPropertyOp47
 70
     1
102
RTVSPropertyOp48
 70
     1
102
RTVSPropertyOp49
 70
     1
102
RTVSPropertyOp50
 70
     1
102
RTVSPropertyOp51
 70
     0
102
RTVSPropertyOp52
 70
     0
102
RTVSPropertyOp53
 70
     1
102
RTVSPropertyOp54
 70
     1
102
RTVSPropertyOp55
 70
     1
102
RTVSPropertyOp56
 70
     1
102
RTVSPropertyOp57
 70
     1
102
RTVSPost2010Prop28
280
     0
102
RTVSPost2010PropOp28
 70
     1
102
RTVSPost2010Prop29
280
     1
102
RTVSPost2010PropOp29
 70
     1
102
RTVSPost2010Prop30
280
     1
102
RTVSPost2010PropOp30
 70
     1
102
RTVSPost2010Prop31
280
     0
102
RTVSPost2010PropOp31
 70
     1
102
RTVSPost2010Prop32
280
     0
102
RTVSPost2010PropOp32
 70
     1
102
RTVSPost2010Prop33
280
     0
102
RTVSPost2010PropOp33
 70
     1
102
RTVSPost2010Prop34
280
     0
102
RTVSPost2010PropOp34
 70
     1
102
RTVSPost2010Prop35
280
     0
102
RTVSPost2010PropOp35
 70
     1
102
RTVSPost2010Prop36
280
     0
102
RTVSPost2010PropOp36
 70
     1
102
RTVSPost2010Prop37
 90
       50
102
RTVSPost2010PropOp37
 70
     1
102
RTVSPost2010Prop38
140
0.0
102
RTVSPost2010PropOp38
 70
     1
102
RTVSPost2010Prop39
140
1.0
102
RTVSPost2010PropOp39
 70
     1
102
RTVSPost2010Prop40
 90
        0
102
RTVSPost2010PropOp40
 70
     1
102
RTVSPost2010Prop41ColorIndex
 90
       18
102
RTVSPost2010Prop41ColorRGB
 90
        0
102
RTVSPost2010PropOp41
 70
     1
102
RTVSPost2010Prop42
 90
       50
102
RTVSPost2010PropOp42
 70
     1
102
RTVSPost2010Prop43
 90
        3
102
RTVSPost2010PropOp43
 70
     1
102
RTVSPost2010Prop44ColorIndex
 90
        5
102
RTVSPost2010Prop44ColorRGB
 90
      255
102
RTVSPost2010PropOp44
 70
     1
102
RTVSPost2010Prop45
280
     0
102
RTVSPost2010PropOp45
 70
     1
102
RTVSPost2010Prop46
 90
       50
102
RTVSPost2010PropOp46
 70
     1
102
RTVSPost2010Prop47
 90
       50
102
RTVSPost2010PropOp47
 70
     1
102
RTVSPost2010Prop48
 90
       50
102
RTVSPost2010PropOp48
 70
     1
102
RTVSPost2010Prop49
280
     0
102
RTVSPost2010PropOp49
 70
     1
102
RTVSPost2010Prop50
 90
       50
102
RTVSPost2010PropOp50
 70
     1
102
RTVSPost2010Prop51ColorIndex
 90
      256
102
RTVSPost2010Prop51ColorRGB
 90
-16777216
102
RTVSPost2010PropOp51
 70
     0
102
RTVSPost2010Prop52
140
1.0
102
RTVSPost2010PropOp52
 70
     0
102
RTVSPost2010Prop53
 90
        2
102
RTVSPost2010PropOp53
 70
     1
102
RTVSPost2010Prop54
  1
strokes_ogs.tif
102
RTVSPost2010PropOp54
 70
     1
102
RTVSPost2010Prop55
280
     0
102
RTVSPost2010PropOp55
 70
     1
102
RTVSPost2010Prop56
140
1.0
102
RTVSPost2010PropOp56
 70
     1
102
RTVSPost2010Prop57
140
1.0
102
RTVSPost2010PropOp57
 70
     1
  0
XRECORD
  5
467
102
{ACAD_REACTORS
330
466
102
}
330
466
100
AcDbXrecord
280
     1
102
RTVSPropertyOp0
 70
     0
102
RTVSPropertyOp1
 70
     0
102
RTVSPropertyOp2
 70
     0
102
RTVSPropertyOp3
 70
     0
102
RTVSPropertyOp4
 70
     0
102
RTVSPropertyOp5
 70
     0
102
RTVSPropertyOp6
 70
     0
102
RTVSPropertyOp7
 70
     0
102
RTVSPropertyOp8
 70
     0
102
RTVSPropertyOp9
 70
     0
102
RTVSPropertyOp10
 70
     0
102
RTVSPropertyOp11
 70
     0
102
RTVSPropertyOp12
 70
     0
102
RTVSPropertyOp13
 70
     0
102
RTVSPropertyOp14
 70
     2
102
RTVSPropertyOp15
 70
     0
102
RTVSPropertyOp16
 70
     0
102
RTVSPropertyOp17
 70
     0
102
RTVSPropertyOp18
 70
     0
102
RTVSPropertyOp19
 70
     0
102
RTVSPropertyOp20
 70
     0
102
RTVSPropertyOp21
 70
     0
102
RTVSPropertyOp22
 70
     0
102
RTVSPropertyOp23
 70
     0
102
RTVSPropertyOp24
 70
     0
102
RTVSPropertyOp25
 70
     0
102
RTVSPropertyOp26
 70
     0
102
RTVSPropertyOp27
 70
     0
102
RTVSPropertyOp28
 70
     0
102
RTVSPropertyOp29
 70
     0
102
RTVSPropertyOp30
 70
     0
102
RTVSPropertyOp31
 70
     0
102
RTVSPropertyOp32
 70
     0
102
RTVSPropertyOp33
 70
     0
102
RTVSPropertyOp34
 70
     0
102
RTVSPropertyOp35
 70
     0
102
RTVSPropertyOp36
 70
     0
102
RTVSPropertyOp37
 70
     0
102
RTVSPropertyOp38
 70
     0
102
RTVSPropertyOp39
 70
     0
102
RTVSPropertyOp40
 70
     0
102
RTVSPropertyOp41
 70
     0
102
RTVSPropertyOp42
 70
     0
102
RTVSPropertyOp43
 70
     0
102
RTVSPropertyOp44
 70
     0
102
RTVSPropertyOp45
 70
     0
102
RTVSPropertyOp46
 70
     0
102
RTVSPropertyOp47
 70
     0
102
RTVSPropertyOp48
 70
     0
102
RTVSPropertyOp49
 70
     0
102
RTVSPropertyOp50
 70
     0
102
RTVSPropertyOp51
 70
     0
102
RTVSPropertyOp52
 70
     0
102
RTVSPropertyOp53
 70
     0
102
RTVSPropertyOp54
 70
     0
102
RTVSPropertyOp55
 70
     0
102
RTVSPropertyOp56
 70
     0
102
RTVSPropertyOp57
 70
     0
102
RTVSPost2010Prop28
280
     0
102
RTVSPost2010PropOp28
 70
     0
102
RTVSPost2010Prop29
280
     1
102
RTVSPost2010PropOp29
 70
     0
102
RTVSPost2010Prop30
280
     1
102
RTVSPost2010PropOp30
 70
     0
102
RTVSPost2010Prop31
280
     0
102
RTVSPost2010PropOp31
 70
     0
102
RTVSPost2010Prop32
280
     0
102
RTVSPost2010PropOp32
 70
     0
102
RTVSPost2010Prop33
280
     0
102
RTVSPost2010PropOp33
 70
     0
102
RTVSPost2010Prop34
280
     0
102
RTVSPost2010PropOp34
 70
     0
102
RTVSPost2010Prop35
280
     0
102
RTVSPost2010PropOp35
 70
     0
102
RTVSPost2010Prop36
280
     0
102
RTVSPost2010PropOp36
 70
     0
102
RTVSPost2010Prop37
 90
       50
102
RTVSPost2010PropOp37
 70
     0
102
RTVSPost2010Prop38
140
0.0
102
RTVSPost2010PropOp38
 70
     0
102
RTVSPost2010Prop39
140
1.0
102
RTVSPost2010PropOp39
 70
     0
102
RTVSPost2010Prop40
 90
        0
102
RTVSPost2010PropOp40
 70
     0
102
RTVSPost2010Prop41ColorIndex
 90
       18
102
RTVSPost2010Prop41ColorRGB
 90
        0
102
RTVSPost2010PropOp41
 70
     0
102
RTVSPost2010Prop42
 90
       50
102
RTVSPost2010PropOp42
 70
     0
102
RTVSPost2010Prop43
 90
        3
102
RTVSPost2010PropOp43
 70
     0
102
RTVSPost2010Prop44ColorIndex
 90
        5
102
RTVSPost2010Prop44ColorRGB
 90
      255
102
RTVSPost2010PropOp44
 70
     0
102
RTVSPost2010Prop45
280
     0
102
RTVSPost2010PropOp45
 70
     0
102
RTVSPost2010Prop46
 90
       50
102
RTVSPost2010PropOp46
 70
     0
102
RTVSPost2010Prop47
 90
       50
102
RTVSPost2010PropOp47
 70
     0
102
RTVSPost2010Prop48
 90
       50
102
RTVSPost2010PropOp48
 70
     0
102
RTVSPost2010Prop49
280
     0
102
RTVSPost2010PropOp49
 70
     0
102
RTVSPost2010Prop50
 90
       50
102
RTVSPost2010PropOp50
 70
     0
102
RTVSPost2010Prop51ColorIndex
 90
      256
102
RTVSPost2010Prop51ColorRGB
 90
-16777216
102
RTVSPost2010PropOp51
 70
     0
102
RTVSPost2010Prop52
140
1.0
102
RTVSPost2010PropOp52
 70
     0
102
RTVSPost2010Prop53
 90
        2
102
RTVSPost2010PropOp53
 70
     0
102
RTVSPost2010Prop54
  1
strokes_ogs.tif
102
RTVSPost2010PropOp54
 70
     0
102
RTVSPost2010Prop55
280
     0
102
RTVSPost2010PropOp55
 70
     0
102
RTVSPost2010Prop56
140
1.0
102
RTVSPost2010PropOp56
 70
     0
102
RTVSPost2010Prop57
140
1.0
102
RTVSPost2010PropOp57
 70
     0
  0
XRECORD
  5
455
102
{ACAD_REACTORS
330
454
102
}
330
454
100
AcDbXrecord
280
     1
102
RTVSPropertyOp0
 70
     1
102
RTVSPropertyOp1
 70
     1
102
RTVSPropertyOp2
 70
     1
102
RTVSPropertyOp3
 70
     1
102
RTVSPropertyOp4
 70
     1
102
RTVSPropertyOp5
 70
     1
102
RTVSPropertyOp6
 70
     1
102
RTVSPropertyOp7
 70
     1
102
RTVSPropertyOp8
 70
     1
102
RTVSPropertyOp9
 70
     1
102
RTVSPropertyOp10
 70
     1
102
RTVSPropertyOp11
 70
     1
102
RTVSPropertyOp12
 70
     1
102
RTVSPropertyOp13
 70
     1
102
RTVSPropertyOp14
 70
     1
102
RTVSPropertyOp15
 70
     1
102
RTVSPropertyOp16
 70
     1
102
RTVSPropertyOp17
 70
     1
102
RTVSPropertyOp18
 70
     1
102
RTVSPropertyOp19
 70
     1
102
RTVSPropertyOp20
 70
     1
102
RTVSPropertyOp21
 70
     1
102
RTVSPropertyOp22
 70
     1
102
RTVSPropertyOp23
 70
     1
102
RTVSPropertyOp24
 70
     1
102
RTVSPropertyOp25
 70
     1
102
RTVSPropertyOp26
 70
     1
102
RTVSPropertyOp27
 70
     1
102
RTVSPropertyOp28
 70
     1
102
RTVSPropertyOp29
 70
     1
102
RTVSPropertyOp30
 70
     1
102
RTVSPropertyOp31
 70
     1
102
RTVSPropertyOp32
 70
     1
102
RTVSPropertyOp33
 70
     1
102
RTVSPropertyOp34
 70
     1
102
RTVSPropertyOp35
 70
     1
102
RTVSPropertyOp36
 70
     1
102
RTVSPropertyOp37
 70
     1
102
RTVSPropertyOp38
 70
     1
102
RTVSPropertyOp39
 70
     1
102
RTVSPropertyOp40
 70
     1
102
RTVSPropertyOp41
 70
     1
102
RTVSPropertyOp42
 70
     1
102
RTVSPropertyOp43
 70
     1
102
RTVSPropertyOp44
 70
     1
102
RTVSPropertyOp45
 70
     1
102
RTVSPropertyOp46
 70
     1
102
RTVSPropertyOp47
 70
     1
102
RTVSPropertyOp48
 70
     1
102
RTVSPropertyOp49
 70
     1
102
RTVSPropertyOp50
 70
     1
102
RTVSPropertyOp51
 70
     0
102
RTVSPropertyOp52
 70
     0
102
RTVSPropertyOp53
 70
     1
102
RTVSPropertyOp54
 70
     1
102
RTVSPropertyOp55
 70
     1
102
RTVSPropertyOp56
 70
     1
102
RTVSPropertyOp57
 70
     1
102
RTVSPost2010Prop28
280
     0
102
RTVSPost2010PropOp28
 70
     1
102
RTVSPost2010Prop29
280
     1
102
RTVSPost2010PropOp29
 70
     1
102
RTVSPost2010Prop30
280
     1
102
RTVSPost2010PropOp30
 70
     1
102
RTVSPost2010Prop31
280
     0
102
RTVSPost2010PropOp31
 70
     1
102
RTVSPost2010Prop32
280
     0
102
RTVSPost2010PropOp32
 70
     1
102
RTVSPost2010Prop33
280
     0
102
RTVSPost2010PropOp33
 70
     1
102
RTVSPost2010Prop34
280
     0
102
RTVSPost2010PropOp34
 70
     1
102
RTVSPost2010Prop35
280
     0
102
RTVSPost2010PropOp35
 70
     1
102
RTVSPost2010Prop36
280
     0
102
RTVSPost2010PropOp36
 70
     1
102
RTVSPost2010Prop37
 90
       50
102
RTVSPost2010PropOp37
 70
     1
102
RTVSPost2010Prop38
140
0.0
102
RTVSPost2010PropOp38
 70
     1
102
RTVSPost2010Prop39
140
1.0
102
RTVSPost2010PropOp39
 70
     1
102
RTVSPost2010Prop40
 90
        0
102
RTVSPost2010PropOp40
 70
     1
102
RTVSPost2010Prop41ColorIndex
 90
       18
102
RTVSPost2010Prop41ColorRGB
 90
        0
102
RTVSPost2010PropOp41
 70
     1
102
RTVSPost2010Prop42
 90
       50
102
RTVSPost2010PropOp42
 70
     1
102
RTVSPost2010Prop43
 90
        3
102
RTVSPost2010PropOp43
 70
     1
102
RTVSPost2010Prop44ColorIndex
 90
        5
102
RTVSPost2010Prop44ColorRGB
 90
      255
102
RTVSPost2010PropOp44
 70
     1
102
RTVSPost2010Prop45
280
     0
102
RTVSPost2010PropOp45
 70
     1
102
RTVSPost2010Prop46
 90
       50
102
RTVSPost2010PropOp46
 70
     1
102
RTVSPost2010Prop47
 90
       50
102
RTVSPost2010PropOp47
 70
     1
102
RTVSPost2010Prop48
 90
       50
102
RTVSPost2010PropOp48
 70
     1
102
RTVSPost2010Prop49
280
     0
102
RTVSPost2010PropOp49
 70
     1
102
RTVSPost2010Prop50
 90
       50
102
RTVSPost2010PropOp50
 70
     1
102
RTVSPost2010Prop51ColorIndex
 90
      256
102
RTVSPost2010Prop51ColorRGB
 90
-16777216
102
RTVSPost2010PropOp51
 70
     0
102
RTVSPost2010Prop52
140
1.0
102
RTVSPost2010PropOp52
 70
     0
102
RTVSPost2010Prop53
 90
        2
102
RTVSPost2010PropOp53
 70
     1
102
RTVSPost2010Prop54
  1
strokes_ogs.tif
102
RTVSPost2010PropOp54
 70
     1
102
RTVSPost2010Prop55
280
     0
102
RTVSPost2010PropOp55
 70
     1
102
RTVSPost2010Prop56
140
1.0
102
RTVSPost2010PropOp56
 70
     1
102
RTVSPost2010Prop57
140
1.0
102
RTVSPost2010PropOp57
 70
     1
  0
XRECORD
  5
473
102
{ACAD_REACTORS
330
472
102
}
330
472
100
AcDbXrecord
280
     1
102
RTVSPropertyOp0
 70
     1
102
RTVSPropertyOp1
 70
     1
102
RTVSPropertyOp2
 70
     1
102
RTVSPropertyOp3
 70
     1
102
RTVSPropertyOp4
 70
     1
102
RTVSPropertyOp5
 70
     1
102
RTVSPropertyOp6
 70
     1
102
RTVSPropertyOp7
 70
     1
102
RTVSPropertyOp8
 70
     1
102
RTVSPropertyOp9
 70
     1
102
RTVSPropertyOp10
 70
     1
102
RTVSPropertyOp11
 70
     1
102
RTVSPropertyOp12
 70
     1
102
RTVSPropertyOp13
 70
     1
102
RTVSPropertyOp14
 70
     1
102
RTVSPropertyOp15
 70
     1
102
RTVSPropertyOp16
 70
     1
102
RTVSPropertyOp17
 70
     1
102
RTVSPropertyOp18
 70
     1
102
RTVSPropertyOp19
 70
     1
102
RTVSPropertyOp20
 70
     1
102
RTVSPropertyOp21
 70
     1
102
RTVSPropertyOp22
 70
     1
102
RTVSPropertyOp23
 70
     1
102
RTVSPropertyOp24
 70
     1
102
RTVSPropertyOp25
 70
     1
102
RTVSPropertyOp26
 70
     1
102
RTVSPropertyOp27
 70
     1
102
RTVSPropertyOp28
 70
     1
102
RTVSPropertyOp29
 70
     1
102
RTVSPropertyOp30
 70
     1
102
RTVSPropertyOp31
 70
     1
102
RTVSPropertyOp32
 70
     1
102
RTVSPropertyOp33
 70
     1
102
RTVSPropertyOp34
 70
     1
102
RTVSPropertyOp35
 70
     1
102
RTVSPropertyOp36
 70
     1
102
RTVSPropertyOp37
 70
     1
102
RTVSPropertyOp38
 70
     1
102
RTVSPropertyOp39
 70
     1
102
RTVSPropertyOp40
 70
     1
102
RTVSPropertyOp41
 70
     1
102
RTVSPropertyOp42
 70
     1
102
RTVSPropertyOp43
 70
     1
102
RTVSPropertyOp44
 70
     1
102
RTVSPropertyOp45
 70
     1
102
RTVSPropertyOp46
 70
     1
102
RTVSPropertyOp47
 70
     1
102
RTVSPropertyOp48
 70
     1
102
RTVSPropertyOp49
 70
     1
102
RTVSPropertyOp50
 70
     1
102
RTVSPropertyOp51
 70
     0
102
RTVSPropertyOp52
 70
     0
102
RTVSPropertyOp53
 70
     1
102
RTVSPropertyOp54
 70
     1
102
RTVSPropertyOp55
 70
     1
102
RTVSPropertyOp56
 70
     1
102
RTVSPropertyOp57
 70
     1
102
RTVSPost2010Prop28
280
     0
102
RTVSPost2010PropOp28
 70
     1
102
RTVSPost2010Prop29
280
     1
102
RTVSPost2010PropOp29
 70
     1
102
RTVSPost2010Prop30
280
     1
102
RTVSPost2010PropOp30
 70
     1
102
RTVSPost2010Prop31
280
     0
102
RTVSPost2010PropOp31
 70
     1
102
RTVSPost2010Prop32
280
     0
102
RTVSPost2010PropOp32
 70
     1
102
RTVSPost2010Prop33
280
     0
102
RTVSPost2010PropOp33
 70
     1
102
RTVSPost2010Prop34
280
     0
102
RTVSPost2010PropOp34
 70
     1
102
RTVSPost2010Prop35
280
     0
102
RTVSPost2010PropOp35
 70
     1
102
RTVSPost2010Prop36
280
     0
102
RTVSPost2010PropOp36
 70
     1
102
RTVSPost2010Prop37
 90
       50
102
RTVSPost2010PropOp37
 70
     1
102
RTVSPost2010Prop38
140
0.0
102
RTVSPost2010PropOp38
 70
     1
102
RTVSPost2010Prop39
140
1.0
102
RTVSPost2010PropOp39
 70
     1
102
RTVSPost2010Prop40
 90
        0
102
RTVSPost2010PropOp40
 70
     1
102
RTVSPost2010Prop41ColorIndex
 90
       18
102
RTVSPost2010Prop41ColorRGB
 90
        0
102
RTVSPost2010PropOp41
 70
     1
102
RTVSPost2010Prop42
 90
       50
102
RTVSPost2010PropOp42
 70
     1
102
RTVSPost2010Prop43
 90
        3
102
RTVSPost2010PropOp43
 70
     1
102
RTVSPost2010Prop44ColorIndex
 90
        5
102
RTVSPost2010Prop44ColorRGB
 90
      255
102
RTVSPost2010PropOp44
 70
     1
102
RTVSPost2010Prop45
280
     0
102
RTVSPost2010PropOp45
 70
     1
102
RTVSPost2010Prop46
 90
       50
102
RTVSPost2010PropOp46
 70
     1
102
RTVSPost2010Prop47
 90
       50
102
RTVSPost2010PropOp47
 70
     1
102
RTVSPost2010Prop48
 90
       50
102
RTVSPost2010PropOp48
 70
     1
102
RTVSPost2010Prop49
280
     0
102
RTVSPost2010PropOp49
 70
     1
102
RTVSPost2010Prop50
 90
       50
102
RTVSPost2010PropOp50
 70
     1
102
RTVSPost2010Prop51ColorIndex
 90
      256
102
RTVSPost2010Prop51ColorRGB
 90
-16777216
102
RTVSPost2010PropOp51
 70
     0
102
RTVSPost2010Prop52
140
1.0
102
RTVSPost2010PropOp52
 70
     0
102
RTVSPost2010Prop53
 90
        2
102
RTVSPost2010PropOp53
 70
     1
102
RTVSPost2010Prop54
  1
strokes_ogs.tif
102
RTVSPost2010PropOp54
 70
     1
102
RTVSPost2010Prop55
280
     0
102
RTVSPost2010PropOp55
 70
     1
102
RTVSPost2010Prop56
140
1.0
102
RTVSPost2010PropOp56
 70
     1
102
RTVSPost2010Prop57
140
1.0
102
RTVSPost2010PropOp57
 70
     1
  0
XRECORD
  5
471
102
{ACAD_REACTORS
330
470
102
}
330
470
100
AcDbXrecord
280
     1
102
RTVSPropertyOp0
 70
     1
102
RTVSPropertyOp1
 70
     1
102
RTVSPropertyOp2
 70
     1
102
RTVSPropertyOp3
 70
     1
102
RTVSPropertyOp4
 70
     1
102
RTVSPropertyOp5
 70
     1
102
RTVSPropertyOp6
 70
     1
102
RTVSPropertyOp7
 70
     1
102
RTVSPropertyOp8
 70
     1
102
RTVSPropertyOp9
 70
     1
102
RTVSPropertyOp10
 70
     1
102
RTVSPropertyOp11
 70
     1
102
RTVSPropertyOp12
 70
     1
102
RTVSPropertyOp13
 70
     1
102
RTVSPropertyOp14
 70
     1
102
RTVSPropertyOp15
 70
     1
102
RTVSPropertyOp16
 70
     1
102
RTVSPropertyOp17
 70
     1
102
RTVSPropertyOp18
 70
     1
102
RTVSPropertyOp19
 70
     1
102
RTVSPropertyOp20
 70
     1
102
RTVSPropertyOp21
 70
     1
102
RTVSPropertyOp22
 70
     1
102
RTVSPropertyOp23
 70
     1
102
RTVSPropertyOp24
 70
     1
102
RTVSPropertyOp25
 70
     1
102
RTVSPropertyOp26
 70
     1
102
RTVSPropertyOp27
 70
     1
102
RTVSPropertyOp28
 70
     1
102
RTVSPropertyOp29
 70
     1
102
RTVSPropertyOp30
 70
     1
102
RTVSPropertyOp31
 70
     1
102
RTVSPropertyOp32
 70
     1
102
RTVSPropertyOp33
 70
     1
102
RTVSPropertyOp34
 70
     1
102
RTVSPropertyOp35
 70
     1
102
RTVSPropertyOp36
 70
     1
102
RTVSPropertyOp37
 70
     1
102
RTVSPropertyOp38
 70
     1
102
RTVSPropertyOp39
 70
     1
102
RTVSPropertyOp40
 70
     1
102
RTVSPropertyOp41
 70
     1
102
RTVSPropertyOp42
 70
     1
102
RTVSPropertyOp43
 70
     1
102
RTVSPropertyOp44
 70
     1
102
RTVSPropertyOp45
 70
     1
102
RTVSPropertyOp46
 70
     1
102
RTVSPropertyOp47
 70
     1
102
RTVSPropertyOp48
 70
     1
102
RTVSPropertyOp49
 70
     1
102
RTVSPropertyOp50
 70
     1
102
RTVSPropertyOp51
 70
     0
102
RTVSPropertyOp52
 70
     0
102
RTVSPropertyOp53
 70
     1
102
RTVSPropertyOp54
 70
     1
102
RTVSPropertyOp55
 70
     1
102
RTVSPropertyOp56
 70
     1
102
RTVSPropertyOp57
 70
     1
102
RTVSPost2010Prop28
280
     0
102
RTVSPost2010PropOp28
 70
     1
102
RTVSPost2010Prop29
280
     1
102
RTVSPost2010PropOp29
 70
     1
102
RTVSPost2010Prop30
280
     1
102
RTVSPost2010PropOp30
 70
     1
102
RTVSPost2010Prop31
280
     0
102
RTVSPost2010PropOp31
 70
     1
102
RTVSPost2010Prop32
280
     0
102
RTVSPost2010PropOp32
 70
     1
102
RTVSPost2010Prop33
280
     0
102
RTVSPost2010PropOp33
 70
     1
102
RTVSPost2010Prop34
280
     0
102
RTVSPost2010PropOp34
 70
     1
102
RTVSPost2010Prop35
280
     0
102
RTVSPost2010PropOp35
 70
     1
102
RTVSPost2010Prop36
280
     0
102
RTVSPost2010PropOp36
 70
     1
102
RTVSPost2010Prop37
 90
       50
102
RTVSPost2010PropOp37
 70
     1
102
RTVSPost2010Prop38
140
0.0
102
RTVSPost2010PropOp38
 70
     1
102
RTVSPost2010Prop39
140
1.0
102
RTVSPost2010PropOp39
 70
     1
102
RTVSPost2010Prop40
 90
        0
102
RTVSPost2010PropOp40
 70
     1
102
RTVSPost2010Prop41ColorIndex
 90
       18
102
RTVSPost2010Prop41ColorRGB
 90
        0
102
RTVSPost2010PropOp41
 70
     1
102
RTVSPost2010Prop42
 90
       50
102
RTVSPost2010PropOp42
 70
     1
102
RTVSPost2010Prop43
 90
        3
102
RTVSPost2010PropOp43
 70
     1
102
RTVSPost2010Prop44ColorIndex
 90
        5
102
RTVSPost2010Prop44ColorRGB
 90
      255
102
RTVSPost2010PropOp44
 70
     1
102
RTVSPost2010Prop45
280
     0
102
RTVSPost2010PropOp45
 70
     1
102
RTVSPost2010Prop46
 90
       50
102
RTVSPost2010PropOp46
 70
     1
102
RTVSPost2010Prop47
 90
       50
102
RTVSPost2010PropOp47
 70
     1
102
RTVSPost2010Prop48
 90
       50
102
RTVSPost2010PropOp48
 70
     1
102
RTVSPost2010Prop49
280
     0
102
RTVSPost2010PropOp49
 70
     1
102
RTVSPost2010Prop50
 90
       50
102
RTVSPost2010PropOp50
 70
     1
102
RTVSPost2010Prop51ColorIndex
 90
      256
102
RTVSPost2010Prop51ColorRGB
 90
-16777216
102
RTVSPost2010PropOp51
 70
     0
102
RTVSPost2010Prop52
140
1.0
102
RTVSPost2010PropOp52
 70
     0
102
RTVSPost2010Prop53
 90
        2
102
RTVSPost2010PropOp53
 70
     1
102
RTVSPost2010Prop54
  1
strokes_ogs.tif
102
RTVSPost2010PropOp54
 70
     1
102
RTVSPost2010Prop55
280
     0
102
RTVSPost2010PropOp55
 70
     1
102
RTVSPost2010Prop56
140
1.0
102
RTVSPost2010PropOp56
 70
     1
102
RTVSPost2010Prop57
140
1.0
102
RTVSPost2010PropOp57
 70
     1
  0
XRECORD
  5
46B
102
{ACAD_REACTORS
330
46A
102
}
330
46A
100
AcDbXrecord
280
     1
102
RTVSPropertyOp0
 70
     1
102
RTVSPropertyOp1
 70
     1
102
RTVSPropertyOp2
 70
     1
102
RTVSPropertyOp3
 70
     1
102
RTVSPropertyOp4
 70
     1
102
RTVSPropertyOp5
 70
     1
102
RTVSPropertyOp6
 70
     1
102
RTVSPropertyOp7
 70
     1
102
RTVSPropertyOp8
 70
     1
102
RTVSPropertyOp9
 70
     1
102
RTVSPropertyOp10
 70
     1
102
RTVSPropertyOp11
 70
     1
102
RTVSPropertyOp12
 70
     1
102
RTVSPropertyOp13
 70
     1
102
RTVSPropertyOp14
 70
     1
102
RTVSPropertyOp15
 70
     1
102
RTVSPropertyOp16
 70
     1
102
RTVSPropertyOp17
 70
     1
102
RTVSPropertyOp18
 70
     1
102
RTVSPropertyOp19
 70
     1
102
RTVSPropertyOp20
 70
     1
102
RTVSPropertyOp21
 70
     1
102
RTVSPropertyOp22
 70
     1
102
RTVSPropertyOp23
 70
     1
102
RTVSPropertyOp24
 70
     1
102
RTVSPropertyOp25
 70
     1
102
RTVSPropertyOp26
 70
     1
102
RTVSPropertyOp27
 70
     1
102
RTVSPropertyOp28
 70
     1
102
RTVSPropertyOp29
 70
     1
102
RTVSPropertyOp30
 70
     1
102
RTVSPropertyOp31
 70
     1
102
RTVSPropertyOp32
 70
     1
102
RTVSPropertyOp33
 70
     1
102
RTVSPropertyOp34
 70
     1
102
RTVSPropertyOp35
 70
     1
102
RTVSPropertyOp36
 70
     1
102
RTVSPropertyOp37
 70
     1
102
RTVSPropertyOp38
 70
     1
102
RTVSPropertyOp39
 70
     1
102
RTVSPropertyOp40
 70
     1
102
RTVSPropertyOp41
 70
     1
102
RTVSPropertyOp42
 70
     1
102
RTVSPropertyOp43
 70
     1
102
RTVSPropertyOp44
 70
     1
102
RTVSPropertyOp45
 70
     1
102
RTVSPropertyOp46
 70
     1
102
RTVSPropertyOp47
 70
     1
102
RTVSPropertyOp48
 70
     1
102
RTVSPropertyOp49
 70
     1
102
RTVSPropertyOp50
 70
     1
102
RTVSPropertyOp51
 70
     0
102
RTVSPropertyOp52
 70
     0
102
RTVSPropertyOp53
 70
     1
102
RTVSPropertyOp54
 70
     1
102
RTVSPropertyOp55
 70
     1
102
RTVSPropertyOp56
 70
     1
102
RTVSPropertyOp57
 70
     1
102
RTVSPost2010Prop28
280
     0
102
RTVSPost2010PropOp28
 70
     1
102
RTVSPost2010Prop29
280
     1
102
RTVSPost2010PropOp29
 70
     1
102
RTVSPost2010Prop30
280
     1
102
RTVSPost2010PropOp30
 70
     1
102
RTVSPost2010Prop31
280
     0
102
RTVSPost2010PropOp31
 70
     1
102
RTVSPost2010Prop32
280
     0
102
RTVSPost2010PropOp32
 70
     1
102
RTVSPost2010Prop33
280
     0
102
RTVSPost2010PropOp33
 70
     1
102
RTVSPost2010Prop34
280
     0
102
RTVSPost2010PropOp34
 70
     1
102
RTVSPost2010Prop35
280
     0
102
RTVSPost2010PropOp35
 70
     1
102
RTVSPost2010Prop36
280
     0
102
RTVSPost2010PropOp36
 70
     1
102
RTVSPost2010Prop37
 90
       50
102
RTVSPost2010PropOp37
 70
     1
102
RTVSPost2010Prop38
140
0.0
102
RTVSPost2010PropOp38
 70
     1
102
RTVSPost2010Prop39
140
1.0
102
RTVSPost2010PropOp39
 70
     1
102
RTVSPost2010Prop40
 90
        0
102
RTVSPost2010PropOp40
 70
     1
102
RTVSPost2010Prop41ColorIndex
 90
       18
102
RTVSPost2010Prop41ColorRGB
 90
        0
102
RTVSPost2010PropOp41
 70
     1
102
RTVSPost2010Prop42
 90
       50
102
RTVSPost2010PropOp42
 70
     1
102
RTVSPost2010Prop43
 90
        3
102
RTVSPost2010PropOp43
 70
     1
102
RTVSPost2010Prop44ColorIndex
 90
        5
102
RTVSPost2010Prop44ColorRGB
 90
      255
102
RTVSPost2010PropOp44
 70
     1
102
RTVSPost2010Prop45
280
     0
102
RTVSPost2010PropOp45
 70
     1
102
RTVSPost2010Prop46
 90
       50
102
RTVSPost2010PropOp46
 70
     1
102
RTVSPost2010Prop47
 90
       50
102
RTVSPost2010PropOp47
 70
     1
102
RTVSPost2010Prop48
 90
       50
102
RTVSPost2010PropOp48
 70
     1
102
RTVSPost2010Prop49
280
     0
102
RTVSPost2010PropOp49
 70
     1
102
RTVSPost2010Prop50
 90
       50
102
RTVSPost2010PropOp50
 70
     1
102
RTVSPost2010Prop51ColorIndex
 90
      256
102
RTVSPost2010Prop51ColorRGB
 90
-16777216
102
RTVSPost2010PropOp51
 70
     0
102
RTVSPost2010Prop52
140
1.0
102
RTVSPost2010PropOp52
 70
     0
102
RTVSPost2010Prop53
 90
        2
102
RTVSPost2010PropOp53
 70
     1
102
RTVSPost2010Prop54
  1
strokes_ogs.tif
102
RTVSPost2010PropOp54
 70
     1
102
RTVSPost2010Prop55
280
     0
102
RTVSPost2010PropOp55
 70
     1
102
RTVSPost2010Prop56
140
1.0
102
RTVSPost2010PropOp56
 70
     1
102
RTVSPost2010Prop57
140
1.0
102
RTVSPost2010PropOp57
 70
     1
  0
XRECORD
  5
46D
102
{ACAD_REACTORS
330
46C
102
}
330
46C
100
AcDbXrecord
280
     1
102
RTVSPropertyOp0
 70
     1
102
RTVSPropertyOp1
 70
     1
102
RTVSPropertyOp2
 70
     1
102
RTVSPropertyOp3
 70
     1
102
RTVSPropertyOp4
 70
     1
102
RTVSPropertyOp5
 70
     1
102
RTVSPropertyOp6
 70
     1
102
RTVSPropertyOp7
 70
     1
102
RTVSPropertyOp8
 70
     1
102
RTVSPropertyOp9
 70
     1
102
RTVSPropertyOp10
 70
     1
102
RTVSPropertyOp11
 70
     1
102
RTVSPropertyOp12
 70
     1
102
RTVSPropertyOp13
 70
     1
102
RTVSPropertyOp14
 70
     1
102
RTVSPropertyOp15
 70
     1
102
RTVSPropertyOp16
 70
     1
102
RTVSPropertyOp17
 70
     1
102
RTVSPropertyOp18
 70
     1
102
RTVSPropertyOp19
 70
     1
102
RTVSPropertyOp20
 70
     1
102
RTVSPropertyOp21
 70
     1
102
RTVSPropertyOp22
 70
     1
102
RTVSPropertyOp23
 70
     1
102
RTVSPropertyOp24
 70
     1
102
RTVSPropertyOp25
 70
     1
102
RTVSPropertyOp26
 70
     1
102
RTVSPropertyOp27
 70
     1
102
RTVSPropertyOp28
 70
     1
102
RTVSPropertyOp29
 70
     1
102
RTVSPropertyOp30
 70
     1
102
RTVSPropertyOp31
 70
     1
102
RTVSPropertyOp32
 70
     1
102
RTVSPropertyOp33
 70
     1
102
RTVSPropertyOp34
 70
     1
102
RTVSPropertyOp35
 70
     1
102
RTVSPropertyOp36
 70
     1
102
RTVSPropertyOp37
 70
     1
102
RTVSPropertyOp38
 70
     1
102
RTVSPropertyOp39
 70
     1
102
RTVSPropertyOp40
 70
     1
102
RTVSPropertyOp41
 70
     1
102
RTVSPropertyOp42
 70
     1
102
RTVSPropertyOp43
 70
     1
102
RTVSPropertyOp44
 70
     1
102
RTVSPropertyOp45
 70
     1
102
RTVSPropertyOp46
 70
     1
102
RTVSPropertyOp47
 70
     1
102
RTVSPropertyOp48
 70
     1
102
RTVSPropertyOp49
 70
     1
102
RTVSPropertyOp50
 70
     1
102
RTVSPropertyOp51
 70
     0
102
RTVSPropertyOp52
 70
     0
102
RTVSPropertyOp53
 70
     1
102
RTVSPropertyOp54
 70
     1
102
RTVSPropertyOp55
 70
     1
102
RTVSPropertyOp56
 70
     1
102
RTVSPropertyOp57
 70
     1
102
RTVSPost2010Prop28
280
     0
102
RTVSPost2010PropOp28
 70
     1
102
RTVSPost2010Prop29
280
     1
102
RTVSPost2010PropOp29
 70
     1
102
RTVSPost2010Prop30
280
     1
102
RTVSPost2010PropOp30
 70
     1
102
RTVSPost2010Prop31
280
     0
102
RTVSPost2010PropOp31
 70
     1
102
RTVSPost2010Prop32
280
     0
102
RTVSPost2010PropOp32
 70
     1
102
RTVSPost2010Prop33
280
     0
102
RTVSPost2010PropOp33
 70
     1
102
RTVSPost2010Prop34
280
     0
102
RTVSPost2010PropOp34
 70
     1
102
RTVSPost2010Prop35
280
     0
102
RTVSPost2010PropOp35
 70
     1
102
RTVSPost2010Prop36
280
     0
102
RTVSPost2010PropOp36
 70
     1
102
RTVSPost2010Prop37
 90
       50
102
RTVSPost2010PropOp37
 70
     1
102
RTVSPost2010Prop38
140
0.0
102
RTVSPost2010PropOp38
 70
     1
102
RTVSPost2010Prop39
140
1.0
102
RTVSPost2010PropOp39
 70
     1
102
RTVSPost2010Prop40
 90
        0
102
RTVSPost2010PropOp40
 70
     1
102
RTVSPost2010Prop41ColorIndex
 90
       18
102
RTVSPost2010Prop41ColorRGB
 90
        0
102
RTVSPost2010PropOp41
 70
     1
102
RTVSPost2010Prop42
 90
       50
102
RTVSPost2010PropOp42
 70
     1
102
RTVSPost2010Prop43
 90
        3
102
RTVSPost2010PropOp43
 70
     1
102
RTVSPost2010Prop44ColorIndex
 90
        5
102
RTVSPost2010Prop44ColorRGB
 90
      255
102
RTVSPost2010PropOp44
 70
     1
102
RTVSPost2010Prop45
280
     0
102
RTVSPost2010PropOp45
 70
     1
102
RTVSPost2010Prop46
 90
       50
102
RTVSPost2010PropOp46
 70
     1
102
RTVSPost2010Prop47
 90
       50
102
RTVSPost2010PropOp47
 70
     1
102
RTVSPost2010Prop48
 90
       50
102
RTVSPost2010PropOp48
 70
     1
102
RTVSPost2010Prop49
280
     0
102
RTVSPost2010PropOp49
 70
     1
102
RTVSPost2010Prop50
 90
       50
102
RTVSPost2010PropOp50
 70
     1
102
RTVSPost2010Prop51ColorIndex
 90
      256
102
RTVSPost2010Prop51ColorRGB
 90
-16777216
102
RTVSPost2010PropOp51
 70
     0
102
RTVSPost2010Prop52
140
1.0
102
RTVSPost2010PropOp52
 70
     0
102
RTVSPost2010Prop53
 90
        2
102
RTVSPost2010PropOp53
 70
     1
102
RTVSPost2010Prop54
  1
strokes_ogs.tif
102
RTVSPost2010PropOp54
 70
     1
102
RTVSPost2010Prop55
280
     0
102
RTVSPost2010PropOp55
 70
     1
102
RTVSPost2010Prop56
140
1.0
102
RTVSPost2010PropOp56
 70
     1
102
RTVSPost2010Prop57
140
1.0
102
RTVSPost2010PropOp57
 70
     1
  0
XRECORD
  5
45D
102
{ACAD_REACTORS
330
45C
102
}
330
45C
100
AcDbXrecord
280
     1
102
RTVSPropertyOp0
 70
     1
102
RTVSPropertyOp1
 70
     1
102
RTVSPropertyOp2
 70
     1
102
RTVSPropertyOp3
 70
     1
102
RTVSPropertyOp4
 70
     1
102
RTVSPropertyOp5
 70
     1
102
RTVSPropertyOp6
 70
     1
102
RTVSPropertyOp7
 70
     1
102
RTVSPropertyOp8
 70
     1
102
RTVSPropertyOp9
 70
     1
102
RTVSPropertyOp10
 70
     1
102
RTVSPropertyOp11
 70
     1
102
RTVSPropertyOp12
 70
     1
102
RTVSPropertyOp13
 70
     1
102
RTVSPropertyOp14
 70
     1
102
RTVSPropertyOp15
 70
     1
102
RTVSPropertyOp16
 70
     1
102
RTVSPropertyOp17
 70
     1
102
RTVSPropertyOp18
 70
     1
102
RTVSPropertyOp19
 70
     1
102
RTVSPropertyOp20
 70
     1
102
RTVSPropertyOp21
 70
     1
102
RTVSPropertyOp22
 70
     1
102
RTVSPropertyOp23
 70
     1
102
RTVSPropertyOp24
 70
     1
102
RTVSPropertyOp25
 70
     1
102
RTVSPropertyOp26
 70
     1
102
RTVSPropertyOp27
 70
     1
102
RTVSPropertyOp28
 70
     1
102
RTVSPropertyOp29
 70
     1
102
RTVSPropertyOp30
 70
     1
102
RTVSPropertyOp31
 70
     1
102
RTVSPropertyOp32
 70
     1
102
RTVSPropertyOp33
 70
     1
102
RTVSPropertyOp34
 70
     1
102
RTVSPropertyOp35
 70
     1
102
RTVSPropertyOp36
 70
     1
102
RTVSPropertyOp37
 70
     1
102
RTVSPropertyOp38
 70
     1
102
RTVSPropertyOp39
 70
     1
102
RTVSPropertyOp40
 70
     1
102
RTVSPropertyOp41
 70
     1
102
RTVSPropertyOp42
 70
     1
102
RTVSPropertyOp43
 70
     1
102
RTVSPropertyOp44
 70
     1
102
RTVSPropertyOp45
 70
     1
102
RTVSPropertyOp46
 70
     1
102
RTVSPropertyOp47
 70
     1
102
RTVSPropertyOp48
 70
     1
102
RTVSPropertyOp49
 70
     1
102
RTVSPropertyOp50
 70
     1
102
RTVSPropertyOp51
 70
     0
102
RTVSPropertyOp52
 70
     0
102
RTVSPropertyOp53
 70
     1
102
RTVSPropertyOp54
 70
     1
102
RTVSPropertyOp55
 70
     1
102
RTVSPropertyOp56
 70
     1
102
RTVSPropertyOp57
 70
     1
102
RTVSPost2010Prop28
280
     0
102
RTVSPost2010PropOp28
 70
     1
102
RTVSPost2010Prop29
280
     1
102
RTVSPost2010PropOp29
 70
     1
102
RTVSPost2010Prop30
280
     1
102
RTVSPost2010PropOp30
 70
     1
102
RTVSPost2010Prop31
280
     0
102
RTVSPost2010PropOp31
 70
     1
102
RTVSPost2010Prop32
280
     0
102
RTVSPost2010PropOp32
 70
     1
102
RTVSPost2010Prop33
280
     0
102
RTVSPost2010PropOp33
 70
     1
102
RTVSPost2010Prop34
280
     0
102
RTVSPost2010PropOp34
 70
     1
102
RTVSPost2010Prop35
280
     0
102
RTVSPost2010PropOp35
 70
     1
102
RTVSPost2010Prop36
280
     0
102
RTVSPost2010PropOp36
 70
     1
102
RTVSPost2010Prop37
 90
       50
102
RTVSPost2010PropOp37
 70
     1
102
RTVSPost2010Prop38
140
0.0
102
RTVSPost2010PropOp38
 70
     1
102
RTVSPost2010Prop39
140
1.0
102
RTVSPost2010PropOp39
 70
     1
102
RTVSPost2010Prop40
 90
        0
102
RTVSPost2010PropOp40
 70
     1
102
RTVSPost2010Prop41ColorIndex
 90
       18
102
RTVSPost2010Prop41ColorRGB
 90
        0
102
RTVSPost2010PropOp41
 70
     1
102
RTVSPost2010Prop42
 90
       50
102
RTVSPost2010PropOp42
 70
     1
102
RTVSPost2010Prop43
 90
        3
102
RTVSPost2010PropOp43
 70
     1
102
RTVSPost2010Prop44ColorIndex
 90
        5
102
RTVSPost2010Prop44ColorRGB
 90
      255
102
RTVSPost2010PropOp44
 70
     1
102
RTVSPost2010Prop45
280
     0
102
RTVSPost2010PropOp45
 70
     1
102
RTVSPost2010Prop46
 90
       50
102
RTVSPost2010PropOp46
 70
     1
102
RTVSPost2010Prop47
 90
       50
102
RTVSPost2010PropOp47
 70
     1
102
RTVSPost2010Prop48
 90
       50
102
RTVSPost2010PropOp48
 70
     1
102
RTVSPost2010Prop49
280
     0
102
RTVSPost2010PropOp49
 70
     1
102
RTVSPost2010Prop50
 90
       50
102
RTVSPost2010PropOp50
 70
     1
102
RTVSPost2010Prop51ColorIndex
 90
      256
102
RTVSPost2010Prop51ColorRGB
 90
-16777216
102
RTVSPost2010PropOp51
 70
     0
102
RTVSPost2010Prop52
140
1.0
102
RTVSPost2010PropOp52
 70
     0
102
RTVSPost2010Prop53
 90
        2
102
RTVSPost2010PropOp53
 70
     1
102
RTVSPost2010Prop54
  1
strokes_ogs.tif
102
RTVSPost2010PropOp54
 70
     1
102
RTVSPost2010Prop55
280
     0
102
RTVSPost2010PropOp55
 70
     1
102
RTVSPost2010Prop56
140
1.0
102
RTVSPost2010PropOp56
 70
     1
102
RTVSPost2010Prop57
140
1.0
102
RTVSPost2010PropOp57
 70
     1
  0
XRECORD
  5
44F
102
{ACAD_REACTORS
330
44E
102
}
330
44E
100
AcDbXrecord
280
     1
102
RTVSPropertyOp0
 70
     1
102
RTVSPropertyOp1
 70
     1
102
RTVSPropertyOp2
 70
     1
102
RTVSPropertyOp3
 70
     1
102
RTVSPropertyOp4
 70
     1
102
RTVSPropertyOp5
 70
     1
102
RTVSPropertyOp6
 70
     1
102
RTVSPropertyOp7
 70
     1
102
RTVSPropertyOp8
 70
     1
102
RTVSPropertyOp9
 70
     1
102
RTVSPropertyOp10
 70
     1
102
RTVSPropertyOp11
 70
     1
102
RTVSPropertyOp12
 70
     1
102
RTVSPropertyOp13
 70
     1
102
RTVSPropertyOp14
 70
     1
102
RTVSPropertyOp15
 70
     1
102
RTVSPropertyOp16
 70
     1
102
RTVSPropertyOp17
 70
     1
102
RTVSPropertyOp18
 70
     1
102
RTVSPropertyOp19
 70
     1
102
RTVSPropertyOp20
 70
     1
102
RTVSPropertyOp21
 70
     1
102
RTVSPropertyOp22
 70
     1
102
RTVSPropertyOp23
 70
     1
102
RTVSPropertyOp24
 70
     1
102
RTVSPropertyOp25
 70
     1
102
RTVSPropertyOp26
 70
     1
102
RTVSPropertyOp27
 70
     1
102
RTVSPropertyOp28
 70
     1
102
RTVSPropertyOp29
 70
     1
102
RTVSPropertyOp30
 70
     1
102
RTVSPropertyOp31
 70
     1
102
RTVSPropertyOp32
 70
     1
102
RTVSPropertyOp33
 70
     1
102
RTVSPropertyOp34
 70
     1
102
RTVSPropertyOp35
 70
     1
102
RTVSPropertyOp36
 70
     1
102
RTVSPropertyOp37
 70
     1
102
RTVSPropertyOp38
 70
     1
102
RTVSPropertyOp39
 70
     1
102
RTVSPropertyOp40
 70
     1
102
RTVSPropertyOp41
 70
     1
102
RTVSPropertyOp42
 70
     1
102
RTVSPropertyOp43
 70
     1
102
RTVSPropertyOp44
 70
     1
102
RTVSPropertyOp45
 70
     1
102
RTVSPropertyOp46
 70
     1
102
RTVSPropertyOp47
 70
     1
102
RTVSPropertyOp48
 70
     1
102
RTVSPropertyOp49
 70
     1
102
RTVSPropertyOp50
 70
     1
102
RTVSPropertyOp51
 70
     0
102
RTVSPropertyOp52
 70
     0
102
RTVSPropertyOp53
 70
     1
102
RTVSPropertyOp54
 70
     1
102
RTVSPropertyOp55
 70
     1
102
RTVSPropertyOp56
 70
     1
102
RTVSPropertyOp57
 70
     1
102
RTVSPost2010Prop28
280
     0
102
RTVSPost2010PropOp28
 70
     1
102
RTVSPost2010Prop29
280
     1
102
RTVSPost2010PropOp29
 70
     1
102
RTVSPost2010Prop30
280
     1
102
RTVSPost2010PropOp30
 70
     1
102
RTVSPost2010Prop31
280
     0
102
RTVSPost2010PropOp31
 70
     1
102
RTVSPost2010Prop32
280
     0
102
RTVSPost2010PropOp32
 70
     1
102
RTVSPost2010Prop33
280
     0
102
RTVSPost2010PropOp33
 70
     1
102
RTVSPost2010Prop34
280
     0
102
RTVSPost2010PropOp34
 70
     1
102
RTVSPost2010Prop35
280
     0
102
RTVSPost2010PropOp35
 70
     1
102
RTVSPost2010Prop36
280
     0
102
RTVSPost2010PropOp36
 70
     1
102
RTVSPost2010Prop37
 90
       50
102
RTVSPost2010PropOp37
 70
     1
102
RTVSPost2010Prop38
140
0.0
102
RTVSPost2010PropOp38
 70
     1
102
RTVSPost2010Prop39
140
1.0
102
RTVSPost2010PropOp39
 70
     1
102
RTVSPost2010Prop40
 90
        0
102
RTVSPost2010PropOp40
 70
     1
102
RTVSPost2010Prop41ColorIndex
 90
       18
102
RTVSPost2010Prop41ColorRGB
 90
        0
102
RTVSPost2010PropOp41
 70
     1
102
RTVSPost2010Prop42
 90
       50
102
RTVSPost2010PropOp42
 70
     1
102
RTVSPost2010Prop43
 90
        3
102
RTVSPost2010PropOp43
 70
     1
102
RTVSPost2010Prop44ColorIndex
 90
        5
102
RTVSPost2010Prop44ColorRGB
 90
      255
102
RTVSPost2010PropOp44
 70
     1
102
RTVSPost2010Prop45
280
     0
102
RTVSPost2010PropOp45
 70
     1
102
RTVSPost2010Prop46
 90
       50
102
RTVSPost2010PropOp46
 70
     1
102
RTVSPost2010Prop47
 90
       50
102
RTVSPost2010PropOp47
 70
     1
102
RTVSPost2010Prop48
 90
       50
102
RTVSPost2010PropOp48
 70
     1
102
RTVSPost2010Prop49
280
     0
102
RTVSPost2010PropOp49
 70
     1
102
RTVSPost2010Prop50
 90
       50
102
RTVSPost2010PropOp50
 70
     1
102
RTVSPost2010Prop51ColorIndex
 90
      256
102
RTVSPost2010Prop51ColorRGB
 90
-16777216
102
RTVSPost2010PropOp51
 70
     0
102
RTVSPost2010Prop52
140
1.0
102
RTVSPost2010PropOp52
 70
     0
102
RTVSPost2010Prop53
 90
        2
102
RTVSPost2010PropOp53
 70
     1
102
RTVSPost2010Prop54
  1
strokes_ogs.tif
102
RTVSPost2010PropOp54
 70
     1
102
RTVSPost2010Prop55
280
     0
102
RTVSPost2010PropOp55
 70
     1
102
RTVSPost2010Prop56
140
1.0
102
RTVSPost2010PropOp56
 70
     1
102
RTVSPost2010Prop57
140
1.0
102
RTVSPost2010PropOp57
 70
     1
  0
XRECORD
  5
46F
102
{ACAD_REACTORS
330
46E
102
}
330
46E
100
AcDbXrecord
280
     1
102
RTVSPropertyOp0
 70
     1
102
RTVSPropertyOp1
 70
     1
102
RTVSPropertyOp2
 70
     1
102
RTVSPropertyOp3
 70
     1
102
RTVSPropertyOp4
 70
     1
102
RTVSPropertyOp5
 70
     1
102
RTVSPropertyOp6
 70
     1
102
RTVSPropertyOp7
 70
     1
102
RTVSPropertyOp8
 70
     1
102
RTVSPropertyOp9
 70
     1
102
RTVSPropertyOp10
 70
     1
102
RTVSPropertyOp11
 70
     1
102
RTVSPropertyOp12
 70
     1
102
RTVSPropertyOp13
 70
     1
102
RTVSPropertyOp14
 70
     1
102
RTVSPropertyOp15
 70
     1
102
RTVSPropertyOp16
 70
     1
102
RTVSPropertyOp17
 70
     1
102
RTVSPropertyOp18
 70
     1
102
RTVSPropertyOp19
 70
     1
102
RTVSPropertyOp20
 70
     1
102
RTVSPropertyOp21
 70
     1
102
RTVSPropertyOp22
 70
     1
102
RTVSPropertyOp23
 70
     1
102
RTVSPropertyOp24
 70
     1
102
RTVSPropertyOp25
 70
     1
102
RTVSPropertyOp26
 70
     1
102
RTVSPropertyOp27
 70
     1
102
RTVSPropertyOp28
 70
     1
102
RTVSPropertyOp29
 70
     1
102
RTVSPropertyOp30
 70
     1
102
RTVSPropertyOp31
 70
     1
102
RTVSPropertyOp32
 70
     1
102
RTVSPropertyOp33
 70
     1
102
RTVSPropertyOp34
 70
     1
102
RTVSPropertyOp35
 70
     1
102
RTVSPropertyOp36
 70
     1
102
RTVSPropertyOp37
 70
     1
102
RTVSPropertyOp38
 70
     1
102
RTVSPropertyOp39
 70
     1
102
RTVSPropertyOp40
 70
     1
102
RTVSPropertyOp41
 70
     1
102
RTVSPropertyOp42
 70
     1
102
RTVSPropertyOp43
 70
     1
102
RTVSPropertyOp44
 70
     1
102
RTVSPropertyOp45
 70
     1
102
RTVSPropertyOp46
 70
     1
102
RTVSPropertyOp47
 70
     1
102
RTVSPropertyOp48
 70
     1
102
RTVSPropertyOp49
 70
     1
102
RTVSPropertyOp50
 70
     1
102
RTVSPropertyOp51
 70
     0
102
RTVSPropertyOp52
 70
     0
102
RTVSPropertyOp53
 70
     1
102
RTVSPropertyOp54
 70
     1
102
RTVSPropertyOp55
 70
     1
102
RTVSPropertyOp56
 70
     1
102
RTVSPropertyOp57
 70
     1
102
RTVSPost2010Prop28
280
     0
102
RTVSPost2010PropOp28
 70
     1
102
RTVSPost2010Prop29
280
     1
102
RTVSPost2010PropOp29
 70
     1
102
RTVSPost2010Prop30
280
     1
102
RTVSPost2010PropOp30
 70
     1
102
RTVSPost2010Prop31
280
     0
102
RTVSPost2010PropOp31
 70
     1
102
RTVSPost2010Prop32
280
     0
102
RTVSPost2010PropOp32
 70
     1
102
RTVSPost2010Prop33
280
     0
102
RTVSPost2010PropOp33
 70
     1
102
RTVSPost2010Prop34
280
     0
102
RTVSPost2010PropOp34
 70
     1
102
RTVSPost2010Prop35
280
     0
102
RTVSPost2010PropOp35
 70
     1
102
RTVSPost2010Prop36
280
     0
102
RTVSPost2010PropOp36
 70
     1
102
RTVSPost2010Prop37
 90
       50
102
RTVSPost2010PropOp37
 70
     1
102
RTVSPost2010Prop38
140
0.0
102
RTVSPost2010PropOp38
 70
     1
102
RTVSPost2010Prop39
140
1.0
102
RTVSPost2010PropOp39
 70
     1
102
RTVSPost2010Prop40
 90
        0
102
RTVSPost2010PropOp40
 70
     1
102
RTVSPost2010Prop41ColorIndex
 90
       18
102
RTVSPost2010Prop41ColorRGB
 90
        0
102
RTVSPost2010PropOp41
 70
     1
102
RTVSPost2010Prop42
 90
       50
102
RTVSPost2010PropOp42
 70
     1
102
RTVSPost2010Prop43
 90
        3
102
RTVSPost2010PropOp43
 70
     1
102
RTVSPost2010Prop44ColorIndex
 90
        5
102
RTVSPost2010Prop44ColorRGB
 90
      255
102
RTVSPost2010PropOp44
 70
     1
102
RTVSPost2010Prop45
280
     0
102
RTVSPost2010PropOp45
 70
     1
102
RTVSPost2010Prop46
 90
       50
102
RTVSPost2010PropOp46
 70
     1
102
RTVSPost2010Prop47
 90
       50
102
RTVSPost2010PropOp47
 70
     1
102
RTVSPost2010Prop48
 90
       50
102
RTVSPost2010PropOp48
 70
     1
102
RTVSPost2010Prop49
280
     0
102
RTVSPost2010PropOp49
 70
     1
102
RTVSPost2010Prop50
 90
       50
102
RTVSPost2010PropOp50
 70
     1
102
RTVSPost2010Prop51ColorIndex
 90
      256
102
RTVSPost2010Prop51ColorRGB
 90
-16777216
102
RTVSPost2010PropOp51
 70
     0
102
RTVSPost2010Prop52
140
1.0
102
RTVSPost2010PropOp52
 70
     0
102
RTVSPost2010Prop53
 90
        2
102
RTVSPost2010PropOp53
 70
     1
102
RTVSPost2010Prop54
  1
strokes_ogs.tif
102
RTVSPost2010PropOp54
 70
     1
102
RTVSPost2010Prop55
280
     0
102
RTVSPost2010PropOp55
 70
     1
102
RTVSPost2010Prop56
140
1.0
102
RTVSPost2010PropOp56
 70
     1
102
RTVSPost2010Prop57
140
1.0
102
RTVSPost2010PropOp57
 70
     1
  0
ENDSEC
  0
EOF
