  0
SECTION
  2
HEADER
  9
$ACADVER
  1
AC1018
  9
$ACADMAINTVER
 70
     0
  9
$DWGCODEPAGE
  3
ANSI_932
  9
$INSBASE
 10
0.0
 20
0.0
 30
0.0
  9
$EXTMIN
 10
-2100.0
 20
-1485.0
 30
0.0
  9
$EXTMAX
 10
2100.0
 20
1485.0
 30
0.0
  9
$LIMMIN
 10
-2100.0
 20
-1485.0
  9
$LIMMAX
 10
2100.0
 20
1485.0
  9
$ORTHOMODE
 70
     0
  9
$REGENMODE
 70
     1
  9
$FILLMODE
 70
     1
  9
$QTEXTMODE
 70
     0
  9
$MIRRTEXT
 70
     1
  9
$LTSCALE
 40
10.0
  9
$ATTMODE
 70
     1
  9
$TEXTSIZE
 40
2.5
  9
$TRACEWID
 40
1.0
  9
$TEXTSTYLE
  7
Standard
  9
$CLAYER
  8
0
  9
$CELTYPE
  6
ByLayer
  9
$CECOLOR
 62
   256
  9
$CELTSCALE
 40
1.0
  9
$DISPSILH
 70
     0
  9
$DIMSCALE
 40
1.0
  9
$DIMASZ
 40
2.5
  9
$DIMEXO
 40
0.625
  9
$DIMDLI
 40
3.75
  9
$DIMRND
 40
0.0
  9
$DIMDLE
 40
0.0
  9
$DIMEXE
 40
1.25
  9
$DIMTP
 40
0.0
  9
$DIMTM
 40
0.0
  9
$DIMTXT
 40
2.5
  9
$DIMCEN
 40
2.5
  9
$DIMTSZ
 40
0.0
  9
$DIMTOL
 70
     0
  9
$DIMLIM
 70
     0
  9
$DIMTIH
 70
     0
  9
$DIMTOH
 70
     0
  9
$DIMSE1
 70
     0
  9
$DIMSE2
 70
     0
  9
$DIMTAD
 70
     1
  9
$DIMZIN
 70
     8
  9
$DIMBLK
  1

  9
$DIMASO
 70
     1
  9
$DIMSHO
 70
     1
  9
$DIMPOST
  1

  9
$DIMAPOST
  1

  9
$DIMALT
 70
     0
  9
$DIMALTD
 70
     3
  9
$DIMALTF
 40
0.03937007874016
  9
$DIMLFAC
 40
1.0
  9
$DIMTOFL
 70
     1
  9
$DIMTVP
 40
0.0
  9
$DIMTIX
 70
     0
  9
$DIMSOXD
 70
     0
  9
$DIMSAH
 70
     0
  9
$DIMBLK1
  1

  9
$DIMBLK2
  1

  9
$DIMSTYLE
  2
ISO-25
  9
$DIMCLRD
 70
     0
  9
$DIMCLRE
 70
     0
  9
$DIMCLRT
 70
     0
  9
$DIMTFAC
 40
1.0
  9
$DIMGAP
 40
0.625
  9
$DIMJUST
 70
     0
  9
$DIMSD1
 70
     0
  9
$DIMSD2
 70
     0
  9
$DIMTOLJ
 70
     0
  9
$DIMTZIN
 70
     8
  9
$DIMALTZ
 70
     0
  9
$DIMALTTZ
 70
     0
  9
$DIMUPT
 70
     0
  9
$DIMDEC
 70
     2
  9
$DIMTDEC
 70
     2
  9
$DIMALTU
 70
     2
  9
$DIMALTTD
 70
     3
  9
$DIMTXSTY
  7
Standard
  9
$DIMAUNIT
 70
     0
  9
$DIMADEC
 70
     0
  9
$DIMALTRND
 40
0.0
  9
$DIMAZIN
 70
     0
  9
$DIMDSEP
 70
    44
  9
$DIMATFIT
 70
     3
  9
$DIMFRAC
 70
     0
  9
$DIMLDRBLK
  1

  9
$DIMLUNIT
 70
     2
  9
$DIMLWD
 70
    -2
  9
$DIMLWE
 70
    -2
  9
$DIMTMOVE
 70
     0
  9
$LUNITS
 70
     2
  9
$LUPREC
 70
     4
  9
$SKETCHINC
 40
1.0
  9
$FILLETRAD
 40
10.0
  9
$AUNITS
 70
     0
  9
$AUPREC
 70
     0
  9
$MENU
  1
.
  9
$ELEVATION
 40
0.0
  9
$PELEVATION
 40
0.0
  9
$THICKNESS
 40
0.0
  9
$LIMCHECK
 70
     0
  9
$CHAMFERA
 40
0.0
  9
$CHAMFERB
 40
0.0
  9
$CHAMFERC
 40
0.0
  9
$CHAMFERD
 40
0.0
  9
$SKPOLY
 70
     0
  9
$TDCREATE
 40
2459629.423876435
  9
$TDUCREATE
 40
2459629.048876435
  9
$TDUPDATE
 40
2459629.423876644
  9
$TDUUPDATE
 40
2459629.048876644
  9
$TDINDWG
 40
0.0000000116
  9
$TDUSRTIMER
 40
0.0000000116
  9
$USRTIMER
 70
     1
  9
$ANGBASE
 50
0.0
  9
$ANGDIR
 70
     0
  9
$PDMODE
 70
     0
  9
$PDSIZE
 40
0.0
  9
$PLINEWID
 40
0.0
  9
$SPLFRAME
 70
     0
  9
$SPLINETYPE
 70
     6
  9
$SPLINESEGS
 70
     8
  9
$HANDSEED
  5
3A5
  9
$SURFTAB1
 70
     6
  9
$SURFTAB2
 70
     6
  9
$SURFTYPE
 70
     6
  9
$SURFU
 70
     6
  9
$SURFV
 70
     6
  9
$UCSBASE
  2

  9
$UCSNAME
  2

  9
$UCSORG
 10
0.0
 20
0.0
 30
0.0
  9
$UCSXDIR
 10
1.0
 20
0.0
 30
0.0
  9
$UCSYDIR
 10
0.0
 20
1.0
 30
0.0
  9
$UCSORTHOREF
  2

  9
$UCSORTHOVIEW
 70
     0
  9
$UCSORGTOP
 10
0.0
 20
0.0
 30
0.0
  9
$UCSORGBOTTOM
 10
0.0
 20
0.0
 30
0.0
  9
$UCSORGLEFT
 10
0.0
 20
0.0
 30
0.0
  9
$UCSORGRIGHT
 10
0.0
 20
0.0
 30
0.0
  9
$UCSORGFRONT
 10
0.0
 20
0.0
 30
0.0
  9
$UCSORGBACK
 10
0.0
 20
0.0
 30
0.0
  9
$PUCSBASE
  2

  9
$PUCSNAME
  2

  9
$PUCSORG
 10
0.0
 20
0.0
 30
0.0
  9
$PUCSXDIR
 10
1.0
 20
0.0
 30
0.0
  9
$PUCSYDIR
 10
0.0
 20
1.0
 30
0.0
  9
$PUCSORTHOREF
  2

  9
$PUCSORTHOVIEW
 70
     0
  9
$PUCSORGTOP
 10
0.0
 20
0.0
 30
0.0
  9
$PUCSORGBOTTOM
 10
0.0
 20
0.0
 30
0.0
  9
$PUCSORGLEFT
 10
0.0
 20
0.0
 30
0.0
  9
$PUCSORGRIGHT
 10
0.0
 20
0.0
 30
0.0
  9
$PUCSORGFRONT
 10
0.0
 20
0.0
 30
0.0
  9
$PUCSORGBACK
 10
0.0
 20
0.0
 30
0.0
  9
$USERI1
 70
     0
  9
$USERI2
 70
     0
  9
$USERI3
 70
     0
  9
$USERI4
 70
     0
  9
$USERI5
 70
     0
  9
$USERR1
 40
0.0
  9
$USERR2
 40
0.0
  9
$USERR3
 40
0.0
  9
$USERR4
 40
0.0
  9
$USERR5
 40
0.0
  9
$WORLDVIEW
 70
     1
  9
$SHADEDGE
 70
     3
  9
$SHADEDIF
 70
    70
  9
$TILEMODE
 70
     1
  9
$MAXACTVP
 70
    64
  9
$PINSBASE
 10
0.0
 20
0.0
 30
0.0
  9
$PLIMCHECK
 70
     0
  9
$PEXTMIN
 10
1.000000000000000E+20
 20
1.000000000000000E+20
 30
1.000000000000000E+20
  9
$PEXTMAX
 10
-1.000000000000000E+20
 20
-1.000000000000000E+20
 30
-1.000000000000000E+20
  9
$PLIMMIN
 10
0.0
 20
0.0
  9
$PLIMMAX
 10
420.0
 20
297.0
  9
$UNITMODE
 70
     0
  9
$VISRETAIN
 70
     1
  9
$PLINEGEN
 70
     0
  9
$PSLTSCALE
 70
     1
  9
$TREEDEPTH
 70
  3020
  9
$CMLSTYLE
  2
Standard
  9
$CMLJUST
 70
     0
  9
$CMLSCALE
 40
20.0
  9
$PROXYGRAPHICS
 70
     1
  9
$MEASUREMENT
 70
     1
  9
$CELWEIGHT
370
    -1
  9
$ENDCAPS
280
     0
  9
$JOINSTYLE
280
     0
  9
$LWDISPLAY
290
     0
  9
$INSUNITS
 70
     4
  9
$HYPERLINKBASE
  1

  9
$STYLESHEET
  1

  9
$XEDIT
290
     1
  9
$CEPSNTYPE
380
     0
  9
$PSTYLEMODE
290
     1
  9
$FINGERPRINTGUID
  2
{08B5E3B7-2B67-47C4-85A2-794A6FEF6F33}
  9
$VERSIONGUID
  2
{FAEB1C32-E019-11D5-929B-00C0DF256EC4}
  9
$EXTNAMES
290
     1
  9
$PSVPSCALE
 40
0.0
  9
$OLESTARTUP
290
     0
  9
$SORTENTS
280
   127
  9
$INDEXCTL
280
     0
  9
$HIDETEXT
280
     1
  9
$XCLIPFRAME
290
     0
  9
$HALOGAP
280
     0
  9
$OBSCOLOR
 70
   257
  9
$OBSLTYPE
280
     0
  9
$INTERSECTIONDISPLAY
280
     0
  9
$INTERSECTIONCOLOR
 70
   257
  9
$DIMASSOC
280
     2
  9
$PROJECTNAME
  1

  0
ENDSEC
  0
SECTION
  2
CLASSES
  0
CLASS
  1
ACDBDICTIONARYWDFLT
  2
AcDbDictionaryWithDefault
  3
ObjectDBX Classes
 90
        0
 91
        4
280
     0
281
     0
  0
CLASS
  1
VISUALSTYLE
  2
AcDbVisualStyle
  3
ObjectDBX Classes
 90
     4095
 91
        4
280
     0
281
     0
  0
CLASS
  1
MATERIAL
  2
AcDbMaterial
  3
ObjectDBX Classes
 90
     1153
 91
        4
280
     0
281
     0
  0
CLASS
  1
SCALE
  2
AcDbScale
  3
ObjectDBX Classes
 90
     1153
 91
        4
280
     0
281
     0
  0
CLASS
  1
TABLESTYLE
  2
AcDbTableStyle
  3
ObjectDBX Classes
 90
     4095
 91
        4
280
     0
281
     0
  0
CLASS
  1
MLEADERSTYLE
  2
AcDbMLeaderStyle
  3
ACDB_MLEADERSTYLE_CLASS
 90
     4095
 91
        4
280
     0
281
     0
  0
CLASS
  1
SUN
  2
AcDbSun
  3
SCENEOE
 90
     1153
 91
        4
280
     0
281
     0
  0
CLASS
  1
DICTIONARYVAR
  2
AcDbDictionaryVar
  3
ObjectDBX Classes
 90
        0
 91
        4
280
     0
281
     0
  0
CLASS
  1
CELLSTYLEMAP
  2
AcDbCellStyleMap
  3
ObjectDBX Classes
 90
     1152
 91
        4
280
     0
281
     0
  0
ENDSEC
  0
SECTION
  2
TABLES
  0
TABLE
  2
VPORT
  5
8
102
{ACAD_XDICTIONARY
360
35C
102
}
330
0
100
AcDbSymbolTable
 70
     1
  0
VPORT
  5
29
330
8
100
AcDbSymbolTableRecord
100
AcDbViewportTableRecord
  2
*Active
 70
     0
 10
0.0
 20
0.0
 11
1.0
 21
1.0
 12
0.0
 22
0.0
 13
0.0
 23
0.0
 14
10.0
 24
10.0
 15
10.0
 25
10.0
 16
0.0
 26
0.0
 36
1.0
 17
0.0
 27
0.0
 37
0.0
 40
3267.0
 41
1.414141414141414
 42
50.0
 43
0.0
 44
0.0
 50
0.0
 51
0.0
 71
     0
 72
 10000
 73
     1
 74
     3
 75
     0
 76
     0
 77
     0
 78
     0
281
     0
 65
     1
110
0.0
120
0.0
130
0.0
111
1.0
121
0.0
131
0.0
112
0.0
122
1.0
132
0.0
 79
     0
146
0.0
  0
ENDTAB
  0
TABLE
  2
LTYPE
  5
5
330
0
100
AcDbSymbolTable
 70
     5
  0
LTYPE
  5
14
330
5
100
AcDbSymbolTableRecord
100
AcDbLinetypeTableRecord
  2
ByBlock
 70
     0
  3

 72
    65
 73
     0
 40
0.0
  0
LTYPE
  5
15
330
5
100
AcDbSymbolTableRecord
100
AcDbLinetypeTableRecord
  2
ByLayer
 70
     0
  3

 72
    65
 73
     0
 40
0.0
  0
LTYPE
  5
16
330
5
100
AcDbSymbolTableRecord
100
AcDbLinetypeTableRecord
  2
Continuous
 70
     0
  3
Solid line
 72
    65
 73
     0
 40
0.0
  0
LTYPE
  5
6F
330
5
100
AcDbSymbolTableRecord
100
AcDbLinetypeTableRecord
  2
JWW_CENTER1
 70
     0
  3
-----  --  ----------  --  -----
 72
    65
 73
     4
 40
6.773333333333333
 49
4.233333333333333
 74
     0
 49
-0.8466666666666667
 74
     0
 49
0.8466666666666667
 74
     0
 49
-0.8466666666666667
 74
     0
  0
LTYPE
  5
70
330
5
100
AcDbSymbolTableRecord
100
AcDbLinetypeTableRecord
  2
JWW_DASHED2
 70
     0
  3
--    ----    ----    ----    --
 72
    65
 73
     2
 40
3.386666666666667
 49
1.693333333333333
 74
     0
 49
-1.693333333333333
 74
     0
  0
LTYPE
  5
71
330
5
100
AcDbSymbolTableRecord
100
AcDbLinetypeTableRecord
  2
JWW_DASHED1
 70
     0
  3
-  --  --  --  --  --  --  --  -
 72
    65
 73
     2
 40
1.693333333333333
 49
0.8466666666666667
 74
     0
 49
-0.8466666666666667
 74
     0
  0
LTYPE
  5
72
330
5
100
AcDbSymbolTableRecord
100
AcDbLinetypeTableRecord
  2
JWW_HOJO
 70
     0
  3
  -   -   -   -   -   -   -   - 
 72
    65
 73
     2
 40
1.693333333333333
 49
-1.27
 74
     0
 49
0.4233333333333333
 74
     0
  0
ENDTAB
  0
TABLE
  2
LAYER
  5
2
330
0
100
AcDbSymbolTable
 70
    22
  0
LAYER
  5
10
330
2
100
AcDbSymbolTableRecord
100
AcDbLayerTableRecord
  2
0
 70
     0
 62
     7
  6
Continuous
370
    -3
390
F
  0
LAYER
  5
73
330
2
100
AcDbSymbolTableRecord
100
AcDbLayerTableRecord
  2
寸法
 70
     0
 62
     7
  6
Continuous
370
    -3
390
F
  0
LAYER
  5
74
330
2
100
AcDbSymbolTableRecord
100
AcDbLayerTableRecord
  2
F-5ﾚｲﾔ
 70
     0
 62
     7
  6
Continuous
370
    -3
390
F
  0
LAYER
  5
75
330
2
100
AcDbSymbolTableRecord
100
AcDbLayerTableRecord
  2
F-Fﾚｲﾔ
 70
     0
 62
     7
  6
Continuous
370
    -3
390
F
  0
LAYER
  5
76
330
2
100
AcDbSymbolTableRecord
100
AcDbLayerTableRecord
  2
0-E
 70
     0
 62
     7
  6
Continuous
370
    -3
390
F
  0
LAYER
  5
77
330
2
100
AcDbSymbolTableRecord
100
AcDbLayerTableRecord
  2
0-F
 70
     0
 62
     7
  6
Continuous
370
    -3
390
F
  0
LAYER
  5
78
330
2
100
AcDbSymbolTableRecord
100
AcDbLayerTableRecord
  2
建具
 70
     0
 62
     7
  6
Continuous
370
    -3
390
F
  0
LAYER
  5
79
330
2
100
AcDbSymbolTableRecord
100
AcDbLayerTableRecord
  2
躯体
 70
     0
 62
     7
  6
Continuous
370
    -3
390
F
  0
LAYER
  5
7A
330
2
100
AcDbSymbolTableRecord
100
AcDbLayerTableRecord
  2
仕上
 70
     0
 62
     7
  6
Continuous
370
    -3
390
F
  0
LAYER
  5
7B
330
2
100
AcDbSymbolTableRecord
100
AcDbLayerTableRecord
  2
D-E
 70
     0
 62
     7
  6
Continuous
370
    -3
390
F
  0
LAYER
  5
7C
330
2
100
AcDbSymbolTableRecord
100
AcDbLayerTableRecord
  2
D-7
 70
     0
 62
     7
  6
Continuous
370
    -3
390
F
  0
LAYER
  5
7D
330
2
100
AcDbSymbolTableRecord
100
AcDbLayerTableRecord
  2
D-5
 70
     0
 62
     7
  6
Continuous
370
    -3
390
F
  0
LAYER
  5
7E
330
2
100
AcDbSymbolTableRecord
100
AcDbLayerTableRecord
  2
D-6
 70
     0
 62
     7
  6
Continuous
370
    -3
390
F
  0
LAYER
  5
7F
330
2
100
AcDbSymbolTableRecord
100
AcDbLayerTableRecord
  2
D-8
 70
     0
 62
     7
  6
Continuous
370
    -3
390
F
  0
LAYER
  5
80
330
2
100
AcDbSymbolTableRecord
100
AcDbLayerTableRecord
  2
D-4
 70
     0
 62
     7
  6
Continuous
370
    -3
390
F
  0
LAYER
  5
81
330
2
100
AcDbSymbolTableRecord
100
AcDbLayerTableRecord
  2
D-9
 70
     0
 62
     7
  6
Continuous
370
    -3
390
F
  0
LAYER
  5
82
330
2
100
AcDbSymbolTableRecord
100
AcDbLayerTableRecord
  2
D-F
 70
     0
 62
     7
  6
Continuous
370
    -3
390
F
  0
LAYER
  5
83
330
2
100
AcDbSymbolTableRecord
100
AcDbLayerTableRecord
  2
D-1
 70
     0
 62
     7
  6
Continuous
370
    -3
390
F
  0
LAYER
  5
84
330
2
100
AcDbSymbolTableRecord
100
AcDbLayerTableRecord
  2
D-2
 70
     0
 62
     7
  6
Continuous
370
    -3
390
F
  0
LAYER
  5
85
330
2
100
AcDbSymbolTableRecord
100
AcDbLayerTableRecord
  2
D-3
 70
     0
 62
     7
  6
Continuous
370
    -3
390
F
  0
LAYER
  5
86
330
2
100
AcDbSymbolTableRecord
100
AcDbLayerTableRecord
  2
D-C
 70
     0
 62
     7
  6
Continuous
370
    -3
390
F
  0
LAYER
  5
87
330
2
100
AcDbSymbolTableRecord
100
AcDbLayerTableRecord
  2
0-C
 70
     0
 62
     7
  6
Continuous
370
    -3
390
F
  0
ENDTAB
  0
TABLE
  2
STYLE
  5
3
330
0
100
AcDbSymbolTable
 70
     2
  0
STYLE
  5
11
330
3
100
AcDbSymbolTableRecord
100
AcDbTextStyleTableRecord
  2
Standard
 70
     0
 40
0.0
 41
1.0
 50
0.0
 71
     0
 42
2.5
  3
txt
  4

  0
STYLE
  5
6E
330
3
100
AcDbSymbolTableRecord
100
AcDbTextStyleTableRecord
  2
ＭＳ ゴシック
 70
     0
 40
1.0
 41
1.0
 50
0.0
 71
     0
 42
2.5
  3

  4

1001
ACAD
1000
MS Gothic
1071
    32817
  0
ENDTAB
  0
TABLE
  2
VIEW
  5
6
330
0
100
AcDbSymbolTable
 70
     0
  0
ENDTAB
  0
TABLE
  2
UCS
  5
7
330
0
100
AcDbSymbolTable
 70
     0
  0
ENDTAB
  0
TABLE
  2
APPID
  5
9
330
0
100
AcDbSymbolTable
 70
     2
  0
APPID
  5
12
330
9
100
AcDbSymbolTableRecord
100
AcDbRegAppTableRecord
  2
ACAD
 70
     0
  0
APPID
  5
39B
330
9
100
AcDbSymbolTableRecord
100
AcDbRegAppTableRecord
  2
ACAD_MLEADERVER
 70
     0
  0
ENDTAB
  0
TABLE
  2
DIMSTYLE
  5
A
330
0
100
AcDbSymbolTable
 70
     1
100
AcDbDimStyleTable
  0
DIMSTYLE
105
27
330
A
100
AcDbSymbolTableRecord
100
AcDbDimStyleTableRecord
  2
ISO-25
 70
     0
 41
2.5
 42
0.625
 43
3.75
 44
1.25
 73
     0
 74
     0
 77
     1
 78
     8
140
2.5
141
2.5
143
0.03937007874016
147
0.625
171
     3
172
     1
178
     0
271
     2
272
     2
274
     3
278
    44
283
     0
284
     8
340
11
  0
ENDTAB
  0
TABLE
  2
BLOCK_RECORD
  5
1
330
0
100
AcDbSymbolTable
 70
     1
  0
BLOCK_RECORD
  5
1F
330
1
100
AcDbSymbolTableRecord
100
AcDbBlockTableRecord
  2
*Model_Space
340
22
  0
BLOCK_RECORD
  5
1B
330
1
100
AcDbSymbolTableRecord
100
AcDbBlockTableRecord
  2
*Paper_Space
340
1E
  0
BLOCK_RECORD
  5
23
330
1
100
AcDbSymbolTableRecord
100
AcDbBlockTableRecord
  2
*Paper_Space0
340
26
  0
ENDTAB
  0
ENDSEC
  0
SECTION
  2
BLOCKS
  0
BLOCK
  5
20
330
1F
100
AcDbEntity
  8
0
100
AcDbBlockBegin
  2
*Model_Space
 70
     0
 10
0.0
 20
0.0
 30
0.0
  3
*Model_Space
  1

  0
ENDBLK
  5
21
330
1F
100
AcDbEntity
  8
0
100
AcDbBlockEnd
  0
BLOCK
  5
1C
330
1B
100
AcDbEntity
 67
     1
  8
0
100
AcDbBlockBegin
  2
*Paper_Space
 70
     0
 10
0.0
 20
0.0
 30
0.0
  3
*Paper_Space
  1

  0
ENDBLK
  5
1D
330
1B
100
AcDbEntity
 67
     1
  8
0
100
AcDbBlockEnd
  0
BLOCK
  5
24
330
23
100
AcDbEntity
  8
0
100
AcDbBlockBegin
  2
*Paper_Space0
 70
     0
 10
0.0
 20
0.0
 30
0.0
  3
*Paper_Space0
  1

  0
ENDBLK
  5
25
330
23
100
AcDbEntity
  8
0
100
AcDbBlockEnd
  0
ENDSEC
  0
SECTION
  2
ENTITIES
  0
SOLID
  5
88
330
1F
100
AcDbEntity
  8
寸法
  6
Continuous
 62
     4
370
     9
100
AcDbTrace
 10
-583.6496162446389
 20
720.9637835433176
 30
0.0
 11
-583.6496162446389
 21
760.9637835433176
 31
0.0
 12
-587.6496162446398
 22
720.9637835433176
 32
0.0
 13
-587.6496162446398
 23
760.9637835433176
 33
0.0
  0
SOLID
  5
89
330
1F
100
AcDbEntity
  8
寸法
  6
Continuous
 62
     4
370
     9
100
AcDbTrace
 10
-583.6496162446383
 20
1096.087796007136
 30
0.0
 11
-583.6496162446383
 21
1056.087796007136
 31
0.0
 12
-587.6496162446392
 22
1096.087796007136
 32
0.0
 13
-587.6496162446392
 23
1056.087796007136
 33
0.0
  0
LINE
  5
8A
330
1F
100
AcDbEntity
  8
F-5ﾚｲﾔ
  6
Continuous
 62
     7
370
     9
100
AcDbLine
 10
-1762.999968915371
 20
-337.998683001544
 30
0.0
 11
-242.9999689153713
 21
-337.998683001544
 31
0.0
  0
LINE
  5
8B
330
1F
100
AcDbEntity
  8
F-Fﾚｲﾔ
  6
Continuous
 62
     7
370
     9
100
AcDbLine
 10
-1762.999968915371
 20
-137.9982896108874
 30
0.0
 11
-242.9999689153713
 21
-137.9982896108874
 31
0.0
  0
TEXT
  5
8C
330
1F
100
AcDbEntity
  8
F-Fﾚｲﾔ
  6
Continuous
 62
     2
370
     9
100
AcDbText
 10
-1732.999968915371
 20
-304.8585602159746
 30
0.0
 40
30.48
  1
強度
 41
1.0625
  7
ＭＳ ゴシック
100
AcDbText
  0
TEXT
  5
8D
330
1F
100
AcDbEntity
  8
F-Fﾚｲﾔ
  6
Continuous
 62
     2
370
     9
100
AcDbText
 10
-1732.999968915371
 20
-204.9262175710001
 30
0.0
 40
30.48
  1
強度性能・質量
 41
1.107142857142857
  7
ＭＳ ゴシック
100
AcDbText
  0
TEXT
  5
8E
330
1F
100
AcDbEntity
  8
F-Fﾚｲﾔ
  6
Continuous
 62
     2
370
     9
100
AcDbText
 10
-1732.999968915371
 20
-394.8585602159752
 30
0.0
 40
30.48
  1
主な設置場所
 41
1.104166666666667
  7
ＭＳ ゴシック
100
AcDbText
  0
TEXT
  5
8F
330
1F
100
AcDbEntity
  8
F-Fﾚｲﾔ
  6
Continuous
 62
     2
370
     9
100
AcDbText
 10
-1732.999968915371
 20
-577.3585685606266
 30
0.0
 40
30.48
  1
後輪一輪荷重
 41
1.104166666666667
  7
ＭＳ ゴシック
100
AcDbText
  0
TEXT
  5
90
330
1F
100
AcDbEntity
  8
F-Fﾚｲﾔ
  6
Continuous
 62
     2
370
     9
100
AcDbText
 10
-1732.999968915371
 20
-757.358883273151
 30
0.0
 40
30.48
  1
荷重条件
 41
1.09375
  7
ＭＳ ゴシック
100
AcDbText
  0
TEXT
  5
91
330
1F
100
AcDbEntity
  8
F-Fﾚｲﾔ
  6
Continuous
 62
     2
370
     9
100
AcDbText
 10
-1732.999968915371
 20
-847.359169375446
 30
0.0
 40
30.48
  1
許容応力
 41
1.09375
  7
ＭＳ ゴシック
100
AcDbText
  0
TEXT
  5
92
330
1F
100
AcDbEntity
  8
F-Fﾚｲﾔ
  6
Continuous
 62
     2
370
     9
100
AcDbText
 10
-1732.999968915371
 20
-667.3583396787907
 30
0.0
 40
30.48
  1
衝撃係数
 41
1.09375
  7
ＭＳ ゴシック
100
AcDbText
  0
TEXT
  5
93
330
1F
100
AcDbEntity
  8
F-Fﾚｲﾔ
  6
Continuous
 62
     2
370
     9
100
AcDbText
 10
-1732.999968915371
 20
-937.3594554777409
 30
0.0
 40
30.48
  1
質量
 41
1.0625
  7
ＭＳ ゴシック
100
AcDbText
  0
TEXT
  5
94
330
1F
100
AcDbEntity
  8
F-Fﾚｲﾔ
  6
Continuous
 62
     2
370
     9
100
AcDbText
 10
-1732.999968915371
 20
-1027.359741580036
 30
0.0
 40
30.48
  1
充填時の蓋質量
 41
1.107142857142857
  7
ＭＳ ゴシック
100
AcDbText
  0
TEXT
  5
95
330
1F
100
AcDbEntity
  8
F-Fﾚｲﾔ
  6
Continuous
 62
     2
370
     9
100
AcDbText
 10
-1351.665067021346
 20
-667.3583396787907
 30
0.0
 40
30.48
  1
0
 41
0.9999999999999998
  7
ＭＳ ゴシック
100
AcDbText
  0
LINE
  5
96
330
1F
100
AcDbEntity
  8
F-Fﾚｲﾔ
  6
Continuous
 62
     7
370
     9
100
AcDbLine
 10
-1762.999968915371
 20
-137.9982896108874
 30
0.0
 11
-1762.999968915371
 21
-1057.999884631183
 31
0.0
  0
LINE
  5
97
330
1F
100
AcDbEntity
  8
F-Fﾚｲﾔ
  6
Continuous
 62
     7
370
     9
100
AcDbLine
 10
-242.9999689153713
 20
-1057.999884631183
 30
0.0
 11
-1762.999968915371
 21
-1057.999884631183
 31
0.0
  0
LINE
  5
98
330
1F
100
AcDbEntity
  8
F-Fﾚｲﾔ
  6
Continuous
 62
     7
370
     9
100
AcDbLine
 10
-1762.999968915371
 20
-237.998396899248
 30
0.0
 11
-242.9999689153713
 21
-237.998396899248
 31
0.0
  0
LINE
  5
99
330
1F
100
AcDbEntity
  8
F-Fﾚｲﾔ
  6
Continuous
 62
     7
370
     9
100
AcDbLine
 10
-1762.999968915371
 20
-247.998396899248
 30
0.0
 11
-242.9999689153713
 21
-247.998396899248
 31
0.0
  0
LINE
  5
9A
330
1F
100
AcDbEntity
  8
F-Fﾚｲﾔ
  6
Continuous
 62
     7
370
     9
100
AcDbLine
 10
-1762.999968915371
 20
-337.998683001544
 30
0.0
 11
-242.9999689153713
 21
-337.998683001544
 31
0.0
  0
LINE
  5
9B
330
1F
100
AcDbEntity
  8
F-5ﾚｲﾔ
  6
Continuous
 62
     7
370
     9
100
AcDbLine
 10
-1762.999968915371
 20
-517.9986830015446
 30
0.0
 11
-242.9999689153713
 21
-517.9986830015446
 31
0.0
  0
LINE
  5
9C
330
1F
100
AcDbEntity
  8
F-Fﾚｲﾔ
  6
Continuous
 62
     7
370
     9
100
AcDbLine
 10
-1762.999968915371
 20
-607.9984541197086
 30
0.0
 11
-242.9999689153713
 21
-607.9984541197086
 31
0.0
  0
LINE
  5
9D
330
1F
100
AcDbEntity
  8
F-Fﾚｲﾔ
  6
Continuous
 62
     7
370
     9
100
AcDbLine
 10
-242.9999689153713
 20
-787.9990263242985
 30
0.0
 11
-1762.999968915371
 21
-787.9990263242985
 31
0.0
  0
LINE
  5
9E
330
1F
100
AcDbEntity
  8
F-Fﾚｲﾔ
  6
Continuous
 62
     7
370
     9
100
AcDbLine
 10
-242.9999689153713
 20
-877.9993124265934
 30
0.0
 11
-1762.999968915371
 21
-877.9993124265934
 31
0.0
  0
LINE
  5
9F
330
1F
100
AcDbEntity
  8
F-Fﾚｲﾔ
  6
Continuous
 62
     7
370
     9
100
AcDbLine
 10
-1762.999968915371
 20
-697.9982252378727
 30
0.0
 11
-242.9999689153713
 21
-697.9982252378727
 31
0.0
  0
LINE
  5
A0
330
1F
100
AcDbEntity
  8
F-Fﾚｲﾔ
  6
Continuous
 62
     7
370
     9
100
AcDbLine
 10
-242.9999689153713
 20
-967.9995985288883
 30
0.0
 11
-1762.999968915371
 21
-967.9995985288883
 31
0.0
  0
LINE
  5
A1
330
1F
100
AcDbEntity
  8
F-Fﾚｲﾔ
  6
Continuous
 62
     7
370
     9
100
AcDbLine
 10
-1762.999968915371
 20
-517.9986830015446
 30
0.0
 11
-242.9999689153713
 21
-517.9986830015446
 31
0.0
  0
TEXT
  5
A2
330
1F
100
AcDbEntity
  8
F-Fﾚｲﾔ
  6
Continuous
 62
     2
370
     9
100
AcDbText
 10
-1351.665067021346
 20
-388.4284324816391
 30
0.0
 40
30.48
  1
車道以外で、車両が走行することはまれで、走行する
 41
1.119791666666667
  7
ＭＳ ゴシック
100
AcDbText
  0
TEXT
  5
A3
330
1F
100
AcDbEntity
  8
F-Fﾚｲﾔ
  6
Continuous
 62
     2
370
     9
100
AcDbText
 10
-1351.665067021346
 20
-442.9119068287056
 30
0.0
 40
30.48
  1
ことがあっても一時的な通過などで低速で走行するよ
 41
1.119791666666667
  7
ＭＳ ゴシック
100
AcDbText
  0
TEXT
  5
A4
330
1F
100
AcDbEntity
  8
F-Fﾚｲﾔ
  6
Continuous
 62
     2
370
     9
100
AcDbText
 10
-1351.665067021346
 20
-497.3953811757721
 30
0.0
 40
30.48
  1
うな、車両が乗り入れる可能性のある建物内
 41
1.11875
  7
ＭＳ ゴシック
100
AcDbText
  0
LINE
  5
A5
330
1F
100
AcDbEntity
  8
F-5ﾚｲﾔ
  6
Continuous
 62
     7
370
     9
100
AcDbLine
 10
-242.9999689153713
 20
-137.9982896108874
 30
0.0
 11
-242.9999689153713
 21
-1057.999884631183
 31
0.0
  0
LINE
  5
A6
330
1F
100
AcDbEntity
  8
F-Fﾚｲﾔ
  6
Continuous
 62
     7
370
     9
100
AcDbLine
 10
-1392.999968915371
 20
-237.998396899248
 30
0.0
 11
-1392.999968915371
 21
-1057.999884631183
 31
0.0
  0
TEXT
  5
A7
330
1F
100
AcDbEntity
  8
F-Fﾚｲﾔ
  6
Continuous
 62
     2
370
     9
100
AcDbText
 10
-1351.665067021346
 20
-304.8585602159746
 30
0.0
 40
30.48
  1
T-14：総重量14,000kgfまでの車両の乗り入れが可能
 41
1.119680851063829
  7
ＭＳ ゴシック
100
AcDbText
  0
TEXT
  5
A8
330
1F
100
AcDbEntity
  8
F-Fﾚｲﾔ
  6
Continuous
 62
     2
370
     9
100
AcDbText
 10
-1351.665067021346
 20
-757.3591407652165
 30
0.0
 40
30.48
  1
載荷板寸法：200×500 mm
 41
1.119565217391304
  7
ＭＳ ゴシック
100
AcDbText
  0
TEXT
  5
A9
330
1F
100
AcDbEntity
  8
F-Fﾚｲﾔ
  6
Continuous
 62
     2
370
     9
100
AcDbText
 10
-1351.665067021346
 20
-847.3594268675114
 30
0.0
 40
30.48
  1
約235N/mm
 41
1.11111111111111
  7
ＭＳ ゴシック
100
AcDbText
  0
TEXT
  5
AA
330
1F
100
AcDbEntity
  8
F-Fﾚｲﾔ
  6
Continuous
 62
     2
370
     9
100
AcDbText
 10
-1351.665067021346
 20
-577.3585685606266
 30
0.0
 40
30.48
  1
54.9kN（5,600kgf）
 41
1.111111111111111
  7
ＭＳ ゴシック
100
AcDbText
  0
TEXT
  5
AB
330
1F
100
AcDbEntity
  8
F-5ﾚｲﾔ
  6
Continuous
 62
     6
370
     9
100
AcDbText
 10
-1148.941757066602
 20
-820.9573724632074
 30
0.0
 40
15.24
  1
2
 41
0.9999999999999998
  7
ＭＳ ゴシック
100
AcDbText
  0
TEXT
  5
AC
330
1F
100
AcDbEntity
  8
F-5ﾚｲﾔ
  6
Continuous
 62
     2
370
     9
100
AcDbText
 10
-792.7244917797611
 20
-1304.096534808358
 30
0.0
 40
30.48
  1
充填用（充填深さ：３０ｍｍ）　屋内用　一般形　スチール製　ステンレス目地
 41
0.7743055555555555
  7
ＭＳ ゴシック
100
AcDbText
  0
TEXT
  5
AD
330
1F
100
AcDbEntity
  8
F-5ﾚｲﾔ
  6
Continuous
 62
     2
370
     9
100
AcDbText
 10
-777.224491779761
 20
-1353.302309529875
 30
0.0
 40
30.48
  1
大口径マシンハッチ　Ｓ－１４Ｅ－７００×１１００
 41
0.7739583333333334
  7
ＭＳ ゴシック
100
AcDbText
  0
LINE
  5
AE
330
1F
100
AcDbEntity
  8
0-E
  6
Continuous
 62
     3
370
     9
100
AcDbLine
 10
-919.649680578998
 20
1039.471111500719
 30
0.0
 11
-879.649680578998
 21
1039.471111500719
 31
0.0
  0
LINE
  5
AF
330
1F
100
AcDbEntity
  8
0-E
  6
Continuous
 62
     3
370
     9
100
AcDbLine
 10
-919.649680578998
 20
1039.471111500719
 30
0.0
 11
-919.649680578998
 21
1005.271156452285
 31
0.0
  0
LINE
  5
B0
330
1F
100
AcDbEntity
  8
0-E
  6
Continuous
 62
     3
370
     9
100
AcDbLine
 10
-879.649680578998
 20
1039.471111500719
 30
0.0
 11
-879.649680578998
 21
1005.271156452285
 31
0.0
  0
CIRCLE
  5
B1
330
1F
100
AcDbEntity
  8
0-E
  6
Continuous
 62
     3
370
     9
100
AcDbCircle
 10
-899.649680578998
 20
1024.471111500719
 30
0.0
 40
6.999999999998181
  0
LINE
  5
B2
330
1F
100
AcDbEntity
  8
0-E
  6
JWW_CENTER1
 62
     3
370
     9
100
AcDbLine
 10
-899.649680578998
 20
1046.44411052699
 30
0.0
 11
-899.649680578998
 21
1005.271156452285
 31
0.0
  0
LINE
  5
B3
330
1F
100
AcDbEntity
  8
0-E
  6
JWW_CENTER1
 62
     3
370
     9
100
AcDbLine
 10
-875.2724391157903
 20
1024.471111500719
 30
0.0
 11
-924.0269220422056
 21
1024.471111500719
 31
0.0
  0
LINE
  5
B4
330
1F
100
AcDbEntity
  8
0-E
  6
Continuous
 62
     3
370
     9
100
AcDbLine
 10
-1529.849564694684
 20
885.2712183122358
 30
0.0
 11
-1529.849564694684
 21
925.2712183122358
 31
0.0
  0
LINE
  5
B5
330
1F
100
AcDbEntity
  8
0-E
  6
Continuous
 62
     3
370
     9
100
AcDbLine
 10
-1529.849564694684
 20
885.2712183122358
 30
0.0
 11
-1495.64960964625
 21
885.2712183122358
 31
0.0
  0
LINE
  5
B6
330
1F
100
AcDbEntity
  8
0-E
  6
Continuous
 62
     3
370
     9
100
AcDbLine
 10
-1529.849564694684
 20
925.2712183122358
 30
0.0
 11
-1495.64960964625
 21
925.2712183122358
 31
0.0
  0
CIRCLE
  5
B7
330
1F
100
AcDbEntity
  8
0-E
  6
Continuous
 62
     3
370
     9
100
AcDbCircle
 10
-1514.849564694684
 20
905.2712183122358
 30
0.0
 40
6.999999999998181
  0
LINE
  5
B8
330
1F
100
AcDbEntity
  8
0-E
  6
JWW_CENTER1
 62
     3
370
     9
100
AcDbLine
 10
-1536.822563720955
 20
905.2712183122358
 30
0.0
 11
-1495.64960964625
 21
905.2712183122358
 31
0.0
  0
LINE
  5
B9
330
1F
100
AcDbEntity
  8
0-E
  6
JWW_CENTER1
 62
     3
370
     9
100
AcDbLine
 10
-1514.849564694684
 20
929.6484597754434
 30
0.0
 11
-1514.849564694684
 21
880.8939768490293
 31
0.0
  0
LINE
  5
BA
330
1F
100
AcDbEntity
  8
0-E
  6
Continuous
 62
     3
370
     9
100
AcDbLine
 10
-1415.649671506205
 20
1039.471111500719
 30
0.0
 11
-1375.649671506205
 21
1039.471111500719
 31
0.0
  0
LINE
  5
BB
330
1F
100
AcDbEntity
  8
0-E
  6
Continuous
 62
     3
370
     9
100
AcDbLine
 10
-1415.649671506205
 20
1039.471111500719
 30
0.0
 11
-1415.649671506205
 21
1005.271156452285
 31
0.0
  0
LINE
  5
BC
330
1F
100
AcDbEntity
  8
0-E
  6
Continuous
 62
     3
370
     9
100
AcDbLine
 10
-1375.649671506205
 20
1039.471111500719
 30
0.0
 11
-1375.649671506205
 21
1005.271156452285
 31
0.0
  0
CIRCLE
  5
BD
330
1F
100
AcDbEntity
  8
0-E
  6
Continuous
 62
     3
370
     9
100
AcDbCircle
 10
-1395.649671506205
 20
1024.471111500719
 30
0.0
 40
6.999999999998181
  0
LINE
  5
BE
330
1F
100
AcDbEntity
  8
0-E
  6
JWW_CENTER1
 62
     3
370
     9
100
AcDbLine
 10
-1395.649671506205
 20
1046.44411052699
 30
0.0
 11
-1395.649671506205
 21
1005.271156452285
 31
0.0
  0
LINE
  5
BF
330
1F
100
AcDbEntity
  8
0-E
  6
JWW_CENTER1
 62
     3
370
     9
100
AcDbLine
 10
-1371.272430042998
 20
1024.471111500719
 30
0.0
 11
-1420.026912969413
 21
1024.471111500719
 31
0.0
  0
LINE
  5
C0
330
1F
100
AcDbEntity
  8
0-F
  6
Continuous
 62
     7
370
     9
100
AcDbLine
 10
-1495.64973336616
 20
1020.271205940249
 30
0.0
 11
-1495.64973336616
 21
1300.271449256075
 31
0.0
  0
LINE
  5
C1
330
1F
100
AcDbEntity
  8
0-F
  6
Continuous
 62
     7
370
     9
100
AcDbLine
 10
-1482.649739964555
 20
1007.271212538644
 30
0.0
 11
-1482.649739964555
 21
1210.271152328287
 31
0.0
  0
LINE
  5
C2
330
1F
100
AcDbEntity
  8
0-F
  6
Continuous
 62
     7
370
     9
100
AcDbLine
 10
-1449.649680578998
 20
974.2711531530872
 30
0.0
 11
-1449.649680578998
 21
1120.270360520855
 31
0.0
  0
LWPOLYLINE
  5
C3
330
1F
100
AcDbEntity
  8
0-F
  6
Continuous
 62
     7
370
     9
100
AcDbPolyline
 90
        4
 70
     1
 43
2.0
 10
-1448.649680578998
 20
1115.270344024867
 42
0.4142135623731
 10
-1449.649680578998
 20
1116.270344024867
 42
0.4142135623731
 10
-1450.649680578998
 20
1115.270344024867
 42
0.4142135623731
 10
-1449.649680578998
 20
1114.270344024867
 42
0.4142135623731
  0
LWPOLYLINE
  5
C4
330
1F
100
AcDbEntity
  8
0-F
  6
Continuous
 62
     7
370
     9
100
AcDbPolyline
 90
        4
 70
     1
 43
2.0
 10
-1481.649739964555
 20
1205.2711358323
 42
0.4142135623731
 10
-1482.649739964555
 20
1206.2711358323
 42
0.4142135623731
 10
-1483.649739964555
 20
1205.2711358323
 42
0.4142135623731
 10
-1482.649739964555
 20
1204.2711358323
 42
0.4142135623731
  0
LWPOLYLINE
  5
C5
330
1F
100
AcDbEntity
  8
0-F
  6
Continuous
 62
     7
370
     9
100
AcDbPolyline
 90
        4
 70
     1
 43
2.0
 10
-1494.64973336616
 20
1295.271432760086
 42
0.4142135623731
 10
-1495.64973336616
 20
1296.271432760086
 42
0.4142135623731
 10
-1496.64973336616
 20
1295.271432760086
 42
0.4142135623731
 10
-1495.64973336616
 20
1294.271432760086
 42
0.4142135623731
  0
LINE
  5
C6
330
1F
100
AcDbEntity
  8
0-F
  6
Continuous
 62
     7
370
     9
100
AcDbLine
 10
-1464.649730066963
 20
959.2711655250778
 30
0.0
 11
-1571.273571888275
 21
959.2711655250778
 31
0.0
  0
LWPOLYLINE
  5
C7
330
1F
100
AcDbEntity
  8
0-F
  6
Continuous
 62
     7
370
     9
100
AcDbPolyline
 90
        4
 70
     1
 43
2.0
 10
-1565.273555392286
 20
959.2711655250778
 42
0.4142135623731
 10
-1566.273555392286
 20
960.2711655250778
 42
0.4142135623731
 10
-1567.273555392286
 20
959.2711655250778
 42
0.4142135623731
 10
-1566.273555392286
 20
958.2711655250779
 42
0.4142135623731
  0
LINE
  5
C8
330
1F
100
AcDbEntity
  8
0-F
  6
Continuous
 62
     7
370
     9
100
AcDbLine
 10
-1497.64978945252
 20
992.271224910635
 30
0.0
 11
-1657.442919202704
 21
992.271224910635
 31
0.0
  0
LWPOLYLINE
  5
C9
330
1F
100
AcDbEntity
  8
0-F
  6
Continuous
 62
     7
370
     9
100
AcDbPolyline
 90
        4
 70
     1
 43
2.0
 10
-1651.442902706715
 20
992.271224910635
 42
0.4142135623731
 10
-1652.442902706715
 20
993.271224910635
 42
0.4142135623731
 10
-1653.442902706715
 20
992.271224910635
 42
0.4142135623731
 10
-1652.442902706715
 20
991.2712249106352
 42
0.4142135623731
  0
LINE
  5
CA
330
1F
100
AcDbEntity
  8
0-F
  6
Continuous
 62
     7
370
     9
100
AcDbLine
 10
-1510.649782854125
 20
1005.27121831224
 30
0.0
 11
-1739.906141752044
 21
1005.27121831224
 31
0.0
  0
LWPOLYLINE
  5
CB
330
1F
100
AcDbEntity
  8
0-F
  6
Continuous
 62
     7
370
     9
100
AcDbPolyline
 90
        4
 70
     1
 43
2.0
 10
-1733.906125256056
 20
1005.27121831224
 42
0.4142135623731
 10
-1734.906125256056
 20
1006.27121831224
 42
0.4142135623731
 10
-1735.906125256056
 20
1005.27121831224
 42
0.4142135623731
 10
-1734.906125256056
 20
1004.27121831224
 42
0.4142135623731
  0
LINE
  5
CC
330
1F
100
AcDbEntity
  8
建具
  6
Continuous
 62
     2
370
     9
100
AcDbLine
 10
-1495.64960964625
 20
1005.271218312236
 30
0.0
 11
-1483.649644287823
 21
993.2713766737234
 31
0.0
  0
LINE
  5
CD
330
1F
100
AcDbEntity
  8
0-E
  6
Continuous
 62
     3
370
     9
100
AcDbLine
 10
-269.4496727434011
 20
925.2712183122403
 30
0.0
 11
-269.4496727434011
 21
885.2712183122403
 31
0.0
  0
LINE
  5
CE
330
1F
100
AcDbEntity
  8
0-E
  6
Continuous
 62
     3
370
     9
100
AcDbLine
 10
-269.4496727434011
 20
925.2712183122403
 30
0.0
 11
-303.6496277918354
 21
925.2712183122403
 31
0.0
  0
LINE
  5
CF
330
1F
100
AcDbEntity
  8
0-E
  6
Continuous
 62
     3
370
     9
100
AcDbLine
 10
-269.4496727434011
 20
885.2712183122403
 30
0.0
 11
-303.6496277918354
 21
885.2712183122403
 31
0.0
  0
CIRCLE
  5
D0
330
1F
100
AcDbEntity
  8
0-E
  6
Continuous
 62
     3
370
     9
100
AcDbCircle
 10
-284.4496727434011
 20
905.2712183122403
 30
0.0
 40
6.999999999998181
  0
LINE
  5
D1
330
1F
100
AcDbEntity
  8
0-E
  6
JWW_CENTER1
 62
     3
370
     9
100
AcDbLine
 10
-262.4766737171307
 20
905.2712183122403
 30
0.0
 11
-303.6496277918354
 21
905.2712183122403
 31
0.0
  0
LINE
  5
D2
330
1F
100
AcDbEntity
  8
0-E
  6
JWW_CENTER1
 62
     3
370
     9
100
AcDbLine
 10
-284.4496727434011
 20
880.8939768490327
 30
0.0
 11
-284.4496727434011
 21
929.6484597754468
 31
0.0
  0
LINE
  5
D3
330
1F
100
AcDbEntity
  8
0-E
  6
Continuous
 62
     3
370
     9
100
AcDbLine
 10
-423.6495659318848
 20
1039.471111500719
 30
0.0
 11
-383.6495659318848
 21
1039.471111500719
 31
0.0
  0
LINE
  5
D4
330
1F
100
AcDbEntity
  8
0-E
  6
Continuous
 62
     3
370
     9
100
AcDbLine
 10
-423.6495659318848
 20
1039.471111500719
 30
0.0
 11
-423.6495659318848
 21
1005.271156452285
 31
0.0
  0
LINE
  5
D5
330
1F
100
AcDbEntity
  8
0-E
  6
Continuous
 62
     3
370
     9
100
AcDbLine
 10
-383.6495659318848
 20
1039.471111500719
 30
0.0
 11
-383.6495659318848
 21
1005.271156452285
 31
0.0
  0
CIRCLE
  5
D6
330
1F
100
AcDbEntity
  8
0-E
  6
Continuous
 62
     3
370
     9
100
AcDbCircle
 10
-403.6495659318848
 20
1024.471111500719
 30
0.0
 40
6.999999999998181
  0
LINE
  5
D7
330
1F
100
AcDbEntity
  8
0-E
  6
JWW_CENTER1
 62
     3
370
     9
100
AcDbLine
 10
-403.6495659318848
 20
1046.44411052699
 30
0.0
 11
-403.6495659318848
 21
1005.271156452285
 31
0.0
  0
LINE
  5
D8
330
1F
100
AcDbEntity
  8
0-E
  6
JWW_CENTER1
 62
     3
370
     9
100
AcDbLine
 10
-379.2723244686771
 20
1024.471111500719
 30
0.0
 11
-428.0268073950924
 21
1024.471111500719
 31
0.0
  0
LINE
  5
D9
330
1F
100
AcDbEntity
  8
0-F
  6
Continuous
 62
     7
370
     9
100
AcDbLine
 10
-303.6496277918359
 20
1020.271205940249
 30
0.0
 11
-303.6496277918359
 21
1300.271449256075
 31
0.0
  0
LINE
  5
DA
330
1F
100
AcDbEntity
  8
0-F
  6
Continuous
 62
     7
370
     9
100
AcDbLine
 10
-316.6496211934406
 20
1007.271212538644
 30
0.0
 11
-316.6496211934406
 21
1210.271152328287
 31
0.0
  0
LINE
  5
DB
330
1F
100
AcDbEntity
  8
0-F
  6
Continuous
 62
     7
370
     9
100
AcDbLine
 10
-349.6496805789985
 20
974.2711531530872
 30
0.0
 11
-349.6496805789985
 21
1120.270360520855
 31
0.0
  0
LWPOLYLINE
  5
DC
330
1F
100
AcDbEntity
  8
0-F
  6
Continuous
 62
     7
370
     9
100
AcDbPolyline
 90
        4
 70
     1
 43
2.0
 10
-348.6496805789984
 20
1115.270344024867
 42
0.4142135623731
 10
-349.6496805789985
 20
1116.270344024867
 42
0.4142135623731
 10
-350.6496805789985
 20
1115.270344024867
 42
0.4142135623731
 10
-349.6496805789985
 20
1114.270344024867
 42
0.4142135623731
  0
LWPOLYLINE
  5
DD
330
1F
100
AcDbEntity
  8
0-F
  6
Continuous
 62
     7
370
     9
100
AcDbPolyline
 90
        4
 70
     1
 43
2.0
 10
-315.6496211934406
 20
1205.2711358323
 42
0.4142135623731
 10
-316.6496211934406
 20
1206.2711358323
 42
0.4142135623731
 10
-317.6496211934406
 20
1205.2711358323
 42
0.4142135623731
 10
-316.6496211934406
 20
1204.2711358323
 42
0.4142135623731
  0
LWPOLYLINE
  5
DE
330
1F
100
AcDbEntity
  8
0-F
  6
Continuous
 62
     7
370
     9
100
AcDbPolyline
 90
        4
 70
     1
 43
2.0
 10
-302.6496277918359
 20
1295.271432760086
 42
0.4142135623731
 10
-303.6496277918359
 20
1296.271432760086
 42
0.4142135623731
 10
-304.6496277918359
 20
1295.271432760086
 42
0.4142135623731
 10
-303.6496277918359
 20
1294.271432760086
 42
0.4142135623731
  0
LINE
  5
DF
330
1F
100
AcDbEntity
  8
0-F
  6
Continuous
 62
     7
370
     9
100
AcDbLine
 10
-254.7229186425009
 20
905.2711358322997
 30
0.0
 11
-160.5615760286807
 21
905.2711358322997
 31
0.0
  0
LINE
  5
E0
330
1F
100
AcDbEntity
  8
0-F
  6
Continuous
 62
     7
370
     9
100
AcDbLine
 10
-165.5615925246693
 20
905.2711358322997
 30
0.0
 11
-165.5615925246693
 21
1005.27121831224
 31
0.0
  0
LINE
  5
E1
330
1F
100
AcDbEntity
  8
0-F
  6
Continuous
 62
     7
370
     9
100
AcDbLine
 10
-288.6496401638271
 20
1005.27121831224
 30
0.0
 11
-160.5615760286807
 21
1005.27121831224
 31
0.0
  0
TEXT
  5
E2
330
1F
100
AcDbEntity
  8
0-F
  6
Continuous
 62
     2
370
     9
100
AcDbText
 10
-177.2015752038818
 20
922.7711770722694
 30
0.0
 40
30.48
  1
100
 50
90.0
 41
1.083333333333333
  7
ＭＳ ゴシック
100
AcDbText
  0
LWPOLYLINE
  5
E3
330
1F
100
AcDbEntity
  8
0-F
  6
Continuous
 62
     7
370
     9
100
AcDbPolyline
 90
        4
 70
     1
 43
2.0
 10
-164.5615925246693
 20
905.2711358322997
 42
0.4142135623731
 10
-165.5615925246693
 20
906.2711358322997
 42
0.4142135623731
 10
-166.5615925246693
 20
905.2711358322997
 42
0.4142135623731
 10
-165.5615925246693
 20
904.2711358322998
 42
0.4142135623731
  0
LWPOLYLINE
  5
E4
330
1F
100
AcDbEntity
  8
0-F
  6
Continuous
 62
     7
370
     9
100
AcDbPolyline
 90
        4
 70
     1
 43
2.0
 10
-164.5615925246693
 20
1005.27121831224
 42
0.4142135623731
 10
-165.5615925246693
 20
1006.27121831224
 42
0.4142135623731
 10
-166.5615925246693
 20
1005.27121831224
 42
0.4142135623731
 10
-165.5615925246693
 20
1004.27121831224
 42
0.4142135623731
  0
LINE
  5
E5
330
1F
100
AcDbEntity
  8
0-F
  6
Continuous
 62
     7
370
     9
100
AcDbLine
 10
-165.5615925246693
 20
1005.27121831224
 30
0.0
 11
-165.5615925246693
 21
1039.471961139472
 31
0.0
  0
LWPOLYLINE
  5
E6
330
1F
100
AcDbEntity
  8
0-F
  6
Continuous
 62
     7
370
     9
100
AcDbPolyline
 90
        4
 70
     1
 43
2.0
 10
-164.5615925246693
 20
1039.471961139472
 42
0.4142135623731
 10
-165.5615925246693
 20
1040.471961139472
 42
0.4142135623731
 10
-166.5615925246693
 20
1039.471961139472
 42
0.4142135623731
 10
-165.5615925246693
 20
1038.471961139472
 42
0.4142135623731
  0
LINE
  5
E7
330
1F
100
AcDbEntity
  8
0-F
  6
Continuous
 62
     7
370
     9
100
AcDbLine
 10
-160.5615925246693
 20
1039.471961139472
 30
0.0
 11
-363.6495865518668
 21
1039.471961139472
 31
0.0
  0
TEXT
  5
E8
330
1F
100
AcDbEntity
  8
0-F
  6
Continuous
 62
     2
370
   211
100
AcDbText
 10
-177.2015752038818
 20
1052.149807998622
 30
0.0
 40
30.48
  1
34
 50
90.0
 41
1.0625
  7
ＭＳ ゴシック
100
AcDbText
  0
LINE
  5
E9
330
1F
100
AcDbEntity
  8
0-F
  6
Continuous
 62
     7
370
     9
100
AcDbLine
 10
-165.5615925246693
 20
1039.471961139472
 30
0.0
 11
-165.5615925246693
 21
1094.649807998622
 31
0.0
  0
LINE
  5
EA
330
1F
100
AcDbEntity
  8
建具
  6
Continuous
 62
     2
370
     9
100
AcDbLine
 10
-315.6494694303478
 20
993.2713766737234
 30
0.0
 11
-303.6496277918354
 21
1005.271218312236
 31
0.0
  0
LINE
  5
EB
330
1F
100
AcDbEntity
  8
躯体
  6
JWW_DASHED2
 62
     2
370
     9
100
AcDbLine
 10
-1449.649680578998
 20
959.2711655250778
 30
0.0
 11
-349.6495568590876
 21
959.2711655250778
 31
0.0
  0
LINE
  5
EC
330
1F
100
AcDbEntity
  8
建具
  6
Continuous
 62
     2
370
     9
100
AcDbLine
 10
-1483.649644287823
 20
993.2713766737234
 30
0.0
 11
-315.6494694303478
 21
993.2713766737234
 31
0.0
  0
LINE
  5
ED
330
1F
100
AcDbEntity
  8
建具
  6
Continuous
 62
     2
370
     9
100
AcDbLine
 10
-1495.64960964625
 20
1005.271218312236
 30
0.0
 11
-303.6497515117457
 21
1005.271218312236
 31
0.0
  0
LINE
  5
EE
330
1F
100
AcDbEntity
  8
仕上
  6
Continuous
 62
     4
370
     9
100
AcDbLine
 10
-1470.649739964554
 20
980.2712249106353
 30
0.0
 11
-1482.649739964555
 21
992.271224910635
 31
0.0
  0
LINE
  5
EF
330
1F
100
AcDbEntity
  8
仕上
  6
Continuous
 62
     4
370
     9
100
AcDbLine
 10
-1482.649739964555
 20
992.271224910635
 30
0.0
 11
-1094.649739964544
 21
992.271224910635
 31
0.0
  0
LINE
  5
F0
330
1F
100
AcDbEntity
  8
仕上
  6
Continuous
 62
     4
370
     9
100
AcDbLine
 10
-1470.649739964555
 20
980.2712249106349
 30
0.0
 11
-1106.649739964544
 21
980.2712249106349
 31
0.0
  0
LINE
  5
F1
330
1F
100
AcDbEntity
  8
仕上
  6
Continuous
 62
     4
370
     9
100
AcDbLine
 10
-1106.649739964545
 20
980.2712249106353
 30
0.0
 11
-1094.649739964544
 21
992.271224910635
 31
0.0
  0
LINE
  5
F2
330
1F
100
AcDbEntity
  8
仕上
  6
Continuous
 62
     4
370
     9
100
AcDbLine
 10
-1081.649739964554
 20
980.2712249106353
 30
0.0
 11
-1093.649739964555
 21
992.271224910635
 31
0.0
  0
LINE
  5
F3
330
1F
100
AcDbEntity
  8
仕上
  6
Continuous
 62
     4
370
     9
100
AcDbLine
 10
-1093.649739964555
 20
992.271224910635
 30
0.0
 11
-705.6497399645443
 21
992.271224910635
 31
0.0
  0
LINE
  5
F4
330
1F
100
AcDbEntity
  8
仕上
  6
Continuous
 62
     4
370
     9
100
AcDbLine
 10
-1081.649739964555
 20
980.2712249106349
 30
0.0
 11
-717.6497399645441
 21
980.2712249106349
 31
0.0
  0
LINE
  5
F5
330
1F
100
AcDbEntity
  8
仕上
  6
Continuous
 62
     4
370
     9
100
AcDbLine
 10
-717.6497399645452
 20
980.2712249106353
 30
0.0
 11
-705.6497399645443
 21
992.271224910635
 31
0.0
  0
LINE
  5
F6
330
1F
100
AcDbEntity
  8
仕上
  6
Continuous
 62
     4
370
     9
100
AcDbLine
 10
-692.6497399645541
 20
980.2712249106353
 30
0.0
 11
-704.6497399645551
 21
992.271224910635
 31
0.0
  0
LINE
  5
F7
330
1F
100
AcDbEntity
  8
仕上
  6
Continuous
 62
     4
370
     9
100
AcDbLine
 10
-704.6497399645551
 20
992.271224910635
 30
0.0
 11
-316.6497399645442
 21
992.271224910635
 31
0.0
  0
LINE
  5
F8
330
1F
100
AcDbEntity
  8
仕上
  6
Continuous
 62
     4
370
     9
100
AcDbLine
 10
-692.6497399645552
 20
980.2712249106349
 30
0.0
 11
-328.6497399645441
 21
980.2712249106349
 31
0.0
  0
LINE
  5
F9
330
1F
100
AcDbEntity
  8
仕上
  6
Continuous
 62
     4
370
     9
100
AcDbLine
 10
-328.6497399645452
 20
980.2712249106353
 30
0.0
 11
-316.6497399645442
 21
992.271224910635
 31
0.0
  0
LINE
  5
FA
330
1F
100
AcDbEntity
  8
0-F
  6
Continuous
 62
     7
370
     9
100
AcDbLine
 10
-1482.649739964555
 20
1205.2711358323
 30
0.0
 11
-1094.649739964544
 21
1205.2711358323
 31
0.0
  0
LWPOLYLINE
  5
FB
330
1F
100
AcDbEntity
  8
0-F
  6
Continuous
 62
     7
370
     9
100
AcDbPolyline
 90
        4
 70
     1
 43
2.0
 10
-1093.649739964544
 20
1205.2711358323
 42
0.4142135623731
 10
-1094.649739964544
 20
1206.2711358323
 42
0.4142135623731
 10
-1095.649739964544
 20
1205.2711358323
 42
0.4142135623731
 10
-1094.649739964544
 20
1204.2711358323
 42
0.4142135623731
  0
TEXT
  5
FC
330
1F
100
AcDbEntity
  8
0-F
  6
Continuous
 62
     2
370
   211
100
AcDbText
 10
-1321.14973996455
 20
1215.9111358323
 30
0.0
 40
30.48
  1
388
 41
1.083333333333333
  7
ＭＳ ゴシック
100
AcDbText
  0
LINE
  5
FD
330
1F
100
AcDbEntity
  8
0-F
  6
Continuous
 62
     7
370
     9
100
AcDbLine
 10
-1094.649739964544
 20
1205.2711358323
 30
0.0
 11
-1093.649739964555
 21
1205.2711358323
 31
0.0
  0
LWPOLYLINE
  5
FE
330
1F
100
AcDbEntity
  8
0-F
  6
Continuous
 62
     7
370
     9
100
AcDbPolyline
 90
        4
 70
     1
 43
2.0
 10
-1092.649739964555
 20
1205.2711358323
 42
0.4142135623731
 10
-1093.649739964555
 20
1206.2711358323
 42
0.4142135623731
 10
-1094.649739964555
 20
1205.2711358323
 42
0.4142135623731
 10
-1093.649739964555
 20
1204.2711358323
 42
0.4142135623731
  0
TEXT
  5
FF
330
1F
100
AcDbEntity
  8
0-F
  6
Continuous
 62
     2
370
   211
100
AcDbText
 10
-1104.14973996455
 20
1215.9111358323
 30
0.0
 40
30.48
  1
1
 41
0.9999999999999998
  7
ＭＳ ゴシック
100
AcDbText
  0
LINE
  5
100
330
1F
100
AcDbEntity
  8
0-F
  6
Continuous
 62
     7
370
     9
100
AcDbLine
 10
-1093.649739964555
 20
1205.2711358323
 30
0.0
 11
-705.6497399645443
 21
1205.2711358323
 31
0.0
  0
LWPOLYLINE
  5
101
330
1F
100
AcDbEntity
  8
0-F
  6
Continuous
 62
     7
370
     9
100
AcDbPolyline
 90
        4
 70
     1
 43
2.0
 10
-704.6497399645443
 20
1205.2711358323
 42
0.4142135623731
 10
-705.6497399645443
 20
1206.2711358323
 42
0.4142135623731
 10
-706.6497399645442
 20
1205.2711358323
 42
0.4142135623731
 10
-705.6497399645443
 20
1204.2711358323
 42
0.4142135623731
  0
TEXT
  5
102
330
1F
100
AcDbEntity
  8
0-F
  6
Continuous
 62
     2
370
   211
100
AcDbText
 10
-932.1497399645498
 20
1215.9111358323
 30
0.0
 40
30.48
  1
388
 41
1.083333333333333
  7
ＭＳ ゴシック
100
AcDbText
  0
LINE
  5
103
330
1F
100
AcDbEntity
  8
0-F
  6
Continuous
 62
     7
370
     9
100
AcDbLine
 10
-705.6497399645443
 20
1205.2711358323
 30
0.0
 11
-704.6497399645551
 21
1205.2711358323
 31
0.0
  0
LWPOLYLINE
  5
104
330
1F
100
AcDbEntity
  8
0-F
  6
Continuous
 62
     7
370
     9
100
AcDbPolyline
 90
        4
 70
     1
 43
2.0
 10
-703.6497399645552
 20
1205.2711358323
 42
0.4142135623731
 10
-704.6497399645551
 20
1206.2711358323
 42
0.4142135623731
 10
-705.649739964555
 20
1205.2711358323
 42
0.4142135623731
 10
-704.6497399645551
 20
1204.2711358323
 42
0.4142135623731
  0
TEXT
  5
105
330
1F
100
AcDbEntity
  8
0-F
  6
Continuous
 62
     2
370
   211
100
AcDbText
 10
-715.1497399645497
 20
1215.9111358323
 30
0.0
 40
30.48
  1
1
 41
0.9999999999999998
  7
ＭＳ ゴシック
100
AcDbText
  0
LINE
  5
106
330
1F
100
AcDbEntity
  8
0-F
  6
Continuous
 62
     7
370
     9
100
AcDbLine
 10
-704.6497399645551
 20
1205.2711358323
 30
0.0
 11
-316.6496211934407
 21
1205.2711358323
 31
0.0
  0
TEXT
  5
107
330
1F
100
AcDbEntity
  8
0-F
  6
Continuous
 62
     2
370
   211
100
AcDbText
 10
-543.149680578998
 20
1215.9111358323
 30
0.0
 40
30.48
  1
388
 41
1.083333333333333
  7
ＭＳ ゴシック
100
AcDbText
  0
LINE
  5
108
330
1F
100
AcDbEntity
  8
0-F
  6
Continuous
 62
     7
370
     9
100
AcDbLine
 10
-1094.649739964544
 20
1208.271135832299
 30
0.0
 11
-1094.649739964544
 21
1138.154305504617
 31
0.0
  0
LINE
  5
109
330
1F
100
AcDbEntity
  8
0-F
  6
Continuous
 62
     7
370
     9
100
AcDbLine
 10
-1093.649739964555
 20
1208.271135832299
 30
0.0
 11
-1093.649739964555
 21
1138.154305504617
 31
0.0
  0
LINE
  5
10A
330
1F
100
AcDbEntity
  8
0-F
  6
Continuous
 62
     7
370
     9
100
AcDbLine
 10
-705.6497399645443
 20
1208.271135832299
 30
0.0
 11
-705.6497399645443
 21
1138.154305504617
 31
0.0
  0
LINE
  5
10B
330
1F
100
AcDbEntity
  8
0-F
  6
Continuous
 62
     7
370
     9
100
AcDbLine
 10
-704.6497399645551
 20
1208.271135832299
 30
0.0
 11
-704.6497399645551
 21
1138.154305504617
 31
0.0
  0
LINE
  5
10C
330
1F
100
AcDbEntity
  8
0-F
  6
Continuous
 62
     7
370
     9
100
AcDbLine
 10
-1276.347005515263
 20
1005.271066549148
 30
0.0
 11
-1276.347005515263
 21
905.2714377088779
 31
0.0
  0
LWPOLYLINE
  5
10D
330
1F
100
AcDbEntity
  8
0-F
  6
Continuous
 62
     7
370
     9
100
AcDbPolyline
 90
        4
 70
     1
 43
2.0
 10
-1275.347005515263
 20
1005.271066549148
 42
0.4142135623731
 10
-1276.347005515263
 20
1006.271066549148
 42
0.4142135623731
 10
-1277.347005515263
 20
1005.271066549148
 42
0.4142135623731
 10
-1276.347005515263
 20
1004.271066549148
 42
0.4142135623731
  0
LWPOLYLINE
  5
10E
330
1F
100
AcDbEntity
  8
0-F
  6
Continuous
 62
     7
370
     9
100
AcDbPolyline
 90
        4
 70
     1
 43
2.0
 10
-1275.347005515263
 20
905.2714377088779
 42
0.4142135623731
 10
-1276.347005515263
 20
906.2714377088778
 42
0.4142135623731
 10
-1277.347005515263
 20
905.2714377088779
 42
0.4142135623731
 10
-1276.347005515263
 20
904.271437708878
 42
0.4142135623731
  0
TEXT
  5
10F
330
1F
100
AcDbEntity
  8
0-F
  6
Continuous
 62
     2
370
   211
100
AcDbText
 10
-1286.987005515263
 20
909.2825308244022
 30
0.0
 40
30.48
  1
100
 50
90.0
 41
1.083333333333333
  7
ＭＳ ゴシック
100
AcDbText
  0
LINE
  5
110
330
1F
100
AcDbEntity
  8
寸法
  6
Continuous
 62
     7
370
     9
100
AcDbLine
 10
-1182.176200349026
 20
-70.14077803820436
 30
0.0
 11
-617.1231162590769
 21
-70.14077803820436
 31
0.0
  0
TEXT
  5
111
330
1F
100
AcDbEntity
  8
寸法
  6
Continuous
 62
     2
370
     9
100
AcDbText
 10
-1167.149658304051
 20
-54.69622250610954
 30
0.0
 40
30.48
  1
平面詳細図　Ｓ＝１：１０
 41
1.114583333333333
  7
ＭＳ ゴシック
100
AcDbText
  0
LINE
  5
112
330
1F
100
AcDbEntity
  8
0-E
  6
Continuous
 62
     3
370
     9
100
AcDbLine
 10
-879.6496187190428
 20
179.0712195494362
 30
0.0
 11
-919.6496187190428
 21
179.0712195494362
 31
0.0
  0
LINE
  5
113
330
1F
100
AcDbEntity
  8
0-E
  6
Continuous
 62
     3
370
     9
100
AcDbLine
 10
-879.6496187190428
 20
179.0712195494362
 30
0.0
 11
-879.6496187190428
 21
213.2711745978705
 31
0.0
  0
LINE
  5
114
330
1F
100
AcDbEntity
  8
0-E
  6
Continuous
 62
     3
370
     9
100
AcDbLine
 10
-919.6496187190428
 20
179.0712195494362
 30
0.0
 11
-919.6496187190428
 21
213.2711745978705
 31
0.0
  0
CIRCLE
  5
115
330
1F
100
AcDbEntity
  8
0-E
  6
Continuous
 62
     3
370
     9
100
AcDbCircle
 10
-899.6496187190428
 20
194.0712195494362
 30
0.0
 40
6.999999999998181
  0
LINE
  5
116
330
1F
100
AcDbEntity
  8
0-E
  6
JWW_CENTER1
 62
     3
370
     9
100
AcDbLine
 10
-899.6496187190428
 20
172.0982205231658
 30
0.0
 11
-899.6496187190428
 21
213.2711745978705
 31
0.0
  0
LINE
  5
117
330
1F
100
AcDbEntity
  8
0-E
  6
JWW_CENTER1
 62
     3
370
     9
100
AcDbLine
 10
-924.0268601822504
 20
194.0712195494362
 30
0.0
 11
-875.2723772558352
 21
194.0712195494362
 31
0.0
  0
LWPOLYLINE
  5
118
330
1F
100
AcDbEntity
  8
0-F
  6
Continuous
 62
     7
370
     9
100
AcDbPolyline
 90
        4
 70
     1
 43
2.0
 10
-898.6496187190428
 20
51.90434718683974
 42
0.4142135623731
 10
-899.6496187190428
 20
52.90434718683973
 42
0.4142135623731
 10
-900.6496187190428
 20
51.90434718683974
 42
0.4142135623731
 10
-899.6496187190428
 20
50.90434718683974
 42
0.4142135623731
  0
LINE
  5
119
330
1F
100
AcDbEntity
  8
0-F
  6
Continuous
 62
     7
370
     9
100
AcDbLine
 10
-899.6496187190428
 20
48.90434718683973
 30
0.0
 11
-899.6496187190428
 21
152.0982205231658
 31
0.0
  0
LINE
  5
11A
330
1F
100
AcDbEntity
  8
0-E
  6
Continuous
 62
     3
370
     9
100
AcDbLine
 10
-1529.849564694684
 20
293.2711127379153
 30
0.0
 11
-1529.849564694684
 21
333.2711127379153
 31
0.0
  0
LINE
  5
11B
330
1F
100
AcDbEntity
  8
0-E
  6
Continuous
 62
     3
370
     9
100
AcDbLine
 10
-1529.849564694684
 20
293.2711127379153
 30
0.0
 11
-1495.64960964625
 21
293.2711127379153
 31
0.0
  0
LINE
  5
11C
330
1F
100
AcDbEntity
  8
0-E
  6
Continuous
 62
     3
370
     9
100
AcDbLine
 10
-1529.849564694684
 20
333.2711127379153
 30
0.0
 11
-1495.64960964625
 21
333.2711127379153
 31
0.0
  0
CIRCLE
  5
11D
330
1F
100
AcDbEntity
  8
0-E
  6
Continuous
 62
     3
370
     9
100
AcDbCircle
 10
-1514.849564694684
 20
313.2711127379153
 30
0.0
 40
6.999999999998181
  0
LINE
  5
11E
330
1F
100
AcDbEntity
  8
0-E
  6
JWW_CENTER1
 62
     3
370
     9
100
AcDbLine
 10
-1536.822563720955
 20
313.2711127379153
 30
0.0
 11
-1495.64960964625
 21
313.2711127379153
 31
0.0
  0
LINE
  5
11F
330
1F
100
AcDbEntity
  8
0-E
  6
JWW_CENTER1
 62
     3
370
     9
100
AcDbLine
 10
-1514.849564694684
 20
337.6483542011229
 30
0.0
 11
-1514.849564694684
 21
288.8938712747088
 31
0.0
  0
LINE
  5
120
330
1F
100
AcDbEntity
  8
0-E
  6
Continuous
 62
     3
370
     9
100
AcDbLine
 10
-1375.649671506201
 20
179.0712195494362
 30
0.0
 11
-1415.649671506201
 21
179.0712195494362
 31
0.0
  0
LINE
  5
121
330
1F
100
AcDbEntity
  8
0-E
  6
Continuous
 62
     3
370
     9
100
AcDbLine
 10
-1375.649671506201
 20
179.0712195494362
 30
0.0
 11
-1375.649671506201
 21
213.2711745978705
 31
0.0
  0
LINE
  5
122
330
1F
100
AcDbEntity
  8
0-E
  6
Continuous
 62
     3
370
     9
100
AcDbLine
 10
-1415.649671506201
 20
179.0712195494362
 30
0.0
 11
-1415.649671506201
 21
213.2711745978705
 31
0.0
  0
CIRCLE
  5
123
330
1F
100
AcDbEntity
  8
0-E
  6
Continuous
 62
     3
370
     9
100
AcDbCircle
 10
-1395.649671506201
 20
194.0712195494362
 30
0.0
 40
6.999999999998181
  0
LINE
  5
124
330
1F
100
AcDbEntity
  8
0-E
  6
JWW_CENTER1
 62
     3
370
     9
100
AcDbLine
 10
-1395.649671506201
 20
172.0982205231658
 30
0.0
 11
-1395.649671506201
 21
213.2711745978705
 31
0.0
  0
LINE
  5
125
330
1F
100
AcDbEntity
  8
0-E
  6
JWW_CENTER1
 62
     3
370
     9
100
AcDbLine
 10
-1420.026912969408
 20
194.0712195494362
 30
0.0
 11
-1371.272430042993
 21
194.0712195494362
 31
0.0
  0
LINE
  5
126
330
1F
100
AcDbEntity
  8
0-F
  6
Continuous
 62
     7
370
     9
100
AcDbLine
 10
-1395.649257451539
 20
149.76061104347
 30
0.0
 11
-1395.649257451539
 21
46.9043306908523
 31
0.0
  0
LINE
  5
127
330
1F
100
AcDbEntity
  8
0-F
  6
Continuous
 62
     7
370
     9
100
AcDbLine
 10
-1495.649587371303
 20
187.0601847871356
 30
0.0
 11
-1495.649587371303
 21
46.9043306908523
 31
0.0
  0
LWPOLYLINE
  5
128
330
1F
100
AcDbEntity
  8
0-F
  6
Continuous
 62
     7
370
     9
100
AcDbPolyline
 90
        4
 70
     1
 43
2.0
 10
-1494.649587371303
 20
51.90434718683974
 42
0.4142135623731
 10
-1495.649587371303
 20
52.90434718683973
 42
0.4142135623731
 10
-1496.649587371303
 20
51.90434718683974
 42
0.4142135623731
 10
-1495.649587371303
 20
50.90434718683974
 42
0.4142135623731
  0
LINE
  5
129
330
1F
100
AcDbEntity
  8
0-F
  6
Continuous
 62
     7
370
     9
100
AcDbLine
 10
-1529.849835318888
 20
46.90434718683974
 30
0.0
 11
-1529.849835318888
 21
262.0603167550408
 31
0.0
  0
LINE
  5
12A
330
1F
100
AcDbEntity
  8
0-F
  6
Continuous
 62
     7
370
     9
100
AcDbLine
 10
-1529.849835318888
 20
51.90434718683974
 30
0.0
 11
-1495.649587371303
 21
51.90434718683974
 31
0.0
  0
LWPOLYLINE
  5
12B
330
1F
100
AcDbEntity
  8
0-F
  6
Continuous
 62
     7
370
     9
100
AcDbPolyline
 90
        4
 70
     1
 43
2.0
 10
-1528.849835318888
 20
51.90434718683974
 42
0.4142135623731
 10
-1529.849835318888
 20
52.90434718683973
 42
0.4142135623731
 10
-1530.849835318888
 20
51.90434718683974
 42
0.4142135623731
 10
-1529.849835318888
 20
50.90434718683974
 42
0.4142135623731
  0
LINE
  5
12C
330
1F
100
AcDbEntity
  8
0-F
  6
Continuous
 62
     7
370
     9
100
AcDbLine
 10
-1495.649587371303
 20
51.90434718683974
 30
0.0
 11
-1395.649257451539
 21
51.90434718683974
 31
0.0
  0
LWPOLYLINE
  5
12D
330
1F
100
AcDbEntity
  8
0-F
  6
Continuous
 62
     7
370
     9
100
AcDbPolyline
 90
        4
 70
     1
 43
2.0
 10
-1394.649257451539
 20
51.90434718683974
 42
0.4142135623731
 10
-1395.649257451539
 20
52.90434718683973
 42
0.4142135623731
 10
-1396.649257451539
 20
51.90434718683974
 42
0.4142135623731
 10
-1395.649257451539
 20
50.90434718683974
 42
0.4142135623731
  0
TEXT
  5
12E
330
1F
100
AcDbEntity
  8
0-F
  6
Continuous
 62
     2
370
   211
100
AcDbText
 10
-1478.149422411421
 20
63.54434718683996
 30
0.0
 40
30.48
  1
100
 41
1.083333333333333
  7
ＭＳ ゴシック
100
AcDbText
  0
TEXT
  5
12F
330
1F
100
AcDbEntity
  8
0-F
  6
Continuous
 62
     2
370
   211
100
AcDbText
 10
-1533.999711345095
 20
-6.677228272351892
 30
0.0
 40
30.48
  1
34
 41
1.0625
  7
ＭＳ ゴシック
100
AcDbText
  0
LINE
  5
130
330
1F
100
AcDbEntity
  8
0-F
  6
Continuous
 62
     7
370
     9
100
AcDbLine
 10
-1464.649730066963
 20
259.2711655250778
 30
0.0
 11
-1571.273571888275
 21
259.2711655250778
 31
0.0
  0
LWPOLYLINE
  5
131
330
1F
100
AcDbEntity
  8
0-F
  6
Continuous
 62
     7
370
     9
100
AcDbPolyline
 90
        4
 70
     1
 43
2.0
 10
-1565.273555392286
 20
259.2711655250778
 42
0.4142135623731
 10
-1566.273555392286
 20
260.2711655250778
 42
0.4142135623731
 10
-1567.273555392286
 20
259.2711655250778
 42
0.4142135623731
 10
-1566.273555392286
 20
258.2711655250778
 42
0.4142135623731
  0
LINE
  5
132
330
1F
100
AcDbEntity
  8
0-F
  6
Continuous
 62
     7
370
     9
100
AcDbLine
 10
-1497.64978945252
 20
226.2711061395206
 30
0.0
 11
-1657.442919202704
 21
226.2711061395206
 31
0.0
  0
LWPOLYLINE
  5
133
330
1F
100
AcDbEntity
  8
0-F
  6
Continuous
 62
     7
370
     9
100
AcDbPolyline
 90
        4
 70
     1
 43
2.0
 10
-1651.442902706715
 20
226.2711061395206
 42
0.4142135623731
 10
-1652.442902706715
 20
227.2711061395206
 42
0.4142135623731
 10
-1653.442902706715
 20
226.2711061395206
 42
0.4142135623731
 10
-1652.442902706715
 20
225.2711061395206
 42
0.4142135623731
  0
LINE
  5
134
330
1F
100
AcDbEntity
  8
0-F
  6
Continuous
 62
     7
370
     9
100
AcDbLine
 10
-1510.649782854125
 20
213.2711127379153
 30
0.0
 11
-1739.906141752044
 21
213.2711127379153
 31
0.0
  0
LWPOLYLINE
  5
135
330
1F
100
AcDbEntity
  8
0-F
  6
Continuous
 62
     7
370
     9
100
AcDbPolyline
 90
        4
 70
     1
 43
2.0
 10
-1733.906125256056
 20
213.2711127379153
 42
0.4142135623731
 10
-1734.906125256056
 20
214.2711127379153
 42
0.4142135623731
 10
-1735.906125256056
 20
213.2711127379153
 42
0.4142135623731
 10
-1734.906125256056
 20
212.2711127379153
 42
0.4142135623731
  0
LINE
  5
136
330
1F
100
AcDbEntity
  8
建具
  6
Continuous
 62
     2
370
     9
100
AcDbLine
 10
-1483.649644287823
 20
225.2712018162484
 30
0.0
 11
-1495.64960964625
 21
213.2711127379153
 31
0.0
  0
LINE
  5
137
330
1F
100
AcDbEntity
  8
0-E
  6
Continuous
 62
     3
370
     9
100
AcDbLine
 10
-383.6495659318802
 20
179.0712195494362
 30
0.0
 11
-423.6495659318803
 21
179.0712195494362
 31
0.0
  0
LINE
  5
138
330
1F
100
AcDbEntity
  8
0-E
  6
Continuous
 62
     3
370
     9
100
AcDbLine
 10
-383.6495659318802
 20
179.0712195494362
 30
0.0
 11
-383.6495659318802
 21
213.2711745978705
 31
0.0
  0
LINE
  5
139
330
1F
100
AcDbEntity
  8
0-E
  6
Continuous
 62
     3
370
     9
100
AcDbLine
 10
-423.6495659318803
 20
179.0712195494362
 30
0.0
 11
-423.6495659318803
 21
213.2711745978705
 31
0.0
  0
CIRCLE
  5
13A
330
1F
100
AcDbEntity
  8
0-E
  6
Continuous
 62
     3
370
     9
100
AcDbCircle
 10
-403.6495659318803
 20
194.0712195494362
 30
0.0
 40
6.999999999998181
  0
LINE
  5
13B
330
1F
100
AcDbEntity
  8
0-E
  6
JWW_CENTER1
 62
     3
370
     9
100
AcDbLine
 10
-403.6495659318803
 20
172.0982205231658
 30
0.0
 11
-403.6495659318803
 21
213.2711745978705
 31
0.0
  0
LINE
  5
13C
330
1F
100
AcDbEntity
  8
0-E
  6
JWW_CENTER1
 62
     3
370
     9
100
AcDbLine
 10
-428.0268073950879
 20
194.0712195494362
 30
0.0
 11
-379.2723244686726
 21
194.0712195494362
 31
0.0
  0
LINE
  5
13D
330
1F
100
AcDbEntity
  8
0-E
  6
Continuous
 62
     3
370
     9
100
AcDbLine
 10
-269.4496727434011
 20
333.2711127379199
 30
0.0
 11
-269.4496727434011
 21
293.2711127379199
 31
0.0
  0
LINE
  5
13E
330
1F
100
AcDbEntity
  8
0-E
  6
Continuous
 62
     3
370
     9
100
AcDbLine
 10
-269.4496727434011
 20
333.2711127379199
 30
0.0
 11
-303.6496277918354
 21
333.2711127379199
 31
0.0
  0
LINE
  5
13F
330
1F
100
AcDbEntity
  8
0-E
  6
Continuous
 62
     3
370
     9
100
AcDbLine
 10
-269.4496727434011
 20
293.2711127379199
 30
0.0
 11
-303.6496277918354
 21
293.2711127379199
 31
0.0
  0
CIRCLE
  5
140
330
1F
100
AcDbEntity
  8
0-E
  6
Continuous
 62
     3
370
     9
100
AcDbCircle
 10
-284.4496727434011
 20
313.2711127379199
 30
0.0
 40
6.999999999998181
  0
LINE
  5
141
330
1F
100
AcDbEntity
  8
0-E
  6
JWW_CENTER1
 62
     3
370
     9
100
AcDbLine
 10
-262.4766737171307
 20
313.2711127379199
 30
0.0
 11
-303.6496277918354
 21
313.2711127379199
 31
0.0
  0
LINE
  5
142
330
1F
100
AcDbEntity
  8
0-E
  6
JWW_CENTER1
 62
     3
370
     9
100
AcDbLine
 10
-284.4496727434011
 20
288.8938712747122
 30
0.0
 11
-284.4496727434011
 21
337.6483542011263
 31
0.0
  0
LINE
  5
143
330
1F
100
AcDbEntity
  8
0-F
  6
Continuous
 62
     7
370
     9
100
AcDbLine
 10
-403.649069397274
 20
153.1324735065189
 30
0.0
 11
-403.6479559180719
 21
46.9043306908523
 31
0.0
  0
LWPOLYLINE
  5
144
330
1F
100
AcDbEntity
  8
0-F
  6
Continuous
 62
     7
370
     9
100
AcDbPolyline
 90
        4
 70
     1
 43
2.0
 10
-302.6479971580421
 20
51.90533694613037
 42
0.4142135623731
 10
-303.6479971580422
 20
52.90533694613036
 42
0.4142135623731
 10
-304.6479971580422
 20
51.90533694613037
 42
0.4142135623731
 10
-303.6479971580422
 20
50.90533694613037
 42
0.4142135623731
  0
LINE
  5
145
330
1F
100
AcDbEntity
  8
0-F
  6
Continuous
 62
     7
370
     9
100
AcDbLine
 10
-269.4494812892152
 20
46.90533694613037
 30
0.0
 11
-269.4494812892152
 21
262.0603167550408
 31
0.0
  0
LWPOLYLINE
  5
146
330
1F
100
AcDbEntity
  8
0-F
  6
Continuous
 62
     7
370
     9
100
AcDbPolyline
 90
        4
 70
     1
 43
2.0
 10
-402.6479559180719
 20
51.90434718683974
 42
0.4142135623731
 10
-403.6479559180719
 20
52.90434718683973
 42
0.4142135623731
 10
-404.6479559180719
 20
51.90434718683974
 42
0.4142135623731
 10
-403.6479559180719
 20
50.90434718683974
 42
0.4142135623731
  0
LINE
  5
147
330
1F
100
AcDbEntity
  8
0-F
  6
Continuous
 62
     7
370
     9
100
AcDbLine
 10
-403.6479559180719
 20
51.90434718683974
 30
0.0
 11
-303.6479971580422
 21
51.90434718683974
 31
0.0
  0
TEXT
  5
148
330
1F
100
AcDbEntity
  8
0-F
  6
Continuous
 62
     2
370
   211
100
AcDbText
 10
-386.147976538057
 20
63.54434718683996
 30
0.0
 40
30.48
  1
100
 41
1.083333333333333
  7
ＭＳ ゴシック
100
AcDbText
  0
LINE
  5
149
330
1F
100
AcDbEntity
  8
0-F
  6
Continuous
 62
     7
370
     9
100
AcDbLine
 10
-303.6479971580422
 20
51.90434718683974
 30
0.0
 11
-269.4494812892149
 21
51.90434718683974
 31
0.0
  0
LWPOLYLINE
  5
14A
330
1F
100
AcDbEntity
  8
0-F
  6
Continuous
 62
     7
370
     9
100
AcDbPolyline
 90
        4
 70
     1
 43
2.0
 10
-268.4494812892149
 20
51.90434718683974
 42
0.4142135623731
 10
-269.4494812892149
 20
52.90434718683973
 42
0.4142135623731
 10
-270.4494812892149
 20
51.90434718683974
 42
0.4142135623731
 10
-269.4494812892149
 20
50.90434718683974
 42
0.4142135623731
  0
LINE
  5
14B
330
1F
100
AcDbEntity
  8
0-F
  6
Continuous
 62
     7
370
     9
100
AcDbLine
 10
-303.6493580770667
 20
187.0603085070471
 30
0.0
 11
-303.647873438868
 21
46.90538997542063
 31
0.0
  0
TEXT
  5
14C
330
1F
100
AcDbEntity
  8
0-F
  6
Continuous
 62
     2
370
   211
100
AcDbText
 10
-307.7987392236286
 20
-6.677228272351892
 30
0.0
 40
30.48
  1
34
 41
1.0625
  7
ＭＳ ゴシック
100
AcDbText
  0
LINE
  5
14D
330
1F
100
AcDbEntity
  8
0-F
  6
Continuous
 62
     7
370
     9
100
AcDbLine
 10
-165.5615925246693
 20
213.2711127379153
 30
0.0
 11
-165.5615925246693
 21
313.2714426576788
 31
0.0
  0
LINE
  5
14E
330
1F
100
AcDbEntity
  8
0-F
  6
Continuous
 62
     7
370
     9
100
AcDbLine
 10
-288.6496401638271
 20
213.2711127379153
 30
0.0
 11
-160.5615760286807
 21
213.2711127379153
 31
0.0
  0
LINE
  5
14F
330
1F
100
AcDbEntity
  8
0-F
  6
Continuous
 62
     7
370
     9
100
AcDbLine
 10
-248.1337198856384
 20
313.2714426576788
 30
0.0
 11
-160.5615760286807
 21
313.2714426576788
 31
0.0
  0
TEXT
  5
150
330
1F
100
AcDbEntity
  8
0-F
  6
Continuous
 62
     2
370
     9
100
AcDbText
 10
-177.2015752038818
 20
230.7713086277752
 30
0.0
 40
30.48
  1
100
 50
90.0
 41
1.083333333333333
  7
ＭＳ ゴシック
100
AcDbText
  0
LWPOLYLINE
  5
151
330
1F
100
AcDbEntity
  8
0-F
  6
Continuous
 62
     7
370
     9
100
AcDbPolyline
 90
        4
 70
     1
 43
2.0
 10
-164.5615925246693
 20
213.2711127379153
 42
0.4142135623731
 10
-165.5615925246693
 20
214.2711127379153
 42
0.4142135623731
 10
-166.5615925246693
 20
213.2711127379153
 42
0.4142135623731
 10
-165.5615925246693
 20
212.2711127379153
 42
0.4142135623731
  0
LWPOLYLINE
  5
152
330
1F
100
AcDbEntity
  8
0-F
  6
Continuous
 62
     7
370
     9
100
AcDbPolyline
 90
        4
 70
     1
 43
2.0
 10
-164.5615925246693
 20
313.2714426576788
 42
0.4142135623731
 10
-165.5615925246693
 20
314.2714426576788
 42
0.4142135623731
 10
-166.5615925246693
 20
313.2714426576788
 42
0.4142135623731
 10
-165.5615925246693
 20
312.2714426576788
 42
0.4142135623731
  0
LINE
  5
153
330
1F
100
AcDbEntity
  8
0-F
  6
Continuous
 62
     7
370
     9
100
AcDbLine
 10
-165.5615925246693
 20
213.2711127379153
 30
0.0
 11
-165.5615925246693
 21
179.0708647903287
 31
0.0
  0
LWPOLYLINE
  5
154
330
1F
100
AcDbEntity
  8
0-F
  6
Continuous
 62
     7
370
     9
100
AcDbPolyline
 90
        4
 70
     1
 43
2.0
 10
-164.5615925246693
 20
179.0708647903287
 42
0.4142135623731
 10
-165.5615925246693
 20
180.0708647903287
 42
0.4142135623731
 10
-166.5615925246693
 20
179.0708647903287
 42
0.4142135623731
 10
-165.5615925246693
 20
178.0708647903287
 42
0.4142135623731
  0
LINE
  5
155
330
1F
100
AcDbEntity
  8
0-F
  6
Continuous
 62
     7
370
     9
100
AcDbLine
 10
-160.5615925246693
 20
179.0708647903287
 30
0.0
 11
-363.6495865518668
 21
179.0708647903287
 31
0.0
  0
TEXT
  5
156
330
1F
100
AcDbEntity
  8
0-F
  6
Continuous
 62
     2
370
   211
100
AcDbText
 10
-177.2015752038818
 20
121.1191604463281
 30
0.0
 40
30.48
  1
34
 50
90.0
 41
1.0625
  7
ＭＳ ゴシック
100
AcDbText
  0
LINE
  5
157
330
1F
100
AcDbEntity
  8
0-F
  6
Continuous
 62
     7
370
     9
100
AcDbLine
 10
-165.5615925246693
 20
179.0708647903287
 30
0.0
 11
-165.5615925246693
 21
121.1191604463281
 31
0.0
  0
LINE
  5
158
330
1F
100
AcDbEntity
  8
建具
  6
Continuous
 62
     2
370
     9
100
AcDbLine
 10
-315.6494694303478
 20
225.2712018162484
 30
0.0
 11
-303.6496277918354
 21
213.2711127379153
 31
0.0
  0
LINE
  5
159
330
1F
100
AcDbEntity
  8
躯体
  6
JWW_DASHED2
 62
     2
370
     9
100
AcDbLine
 10
-349.6495568590876
 20
259.2711655250778
 30
0.0
 11
-1449.649680578998
 21
259.2711655250778
 31
0.0
  0
LINE
  5
15A
330
1F
100
AcDbEntity
  8
建具
  6
Continuous
 62
     2
370
     9
100
AcDbLine
 10
-315.6494694303478
 20
225.2712018162484
 30
0.0
 11
-1483.649644287823
 21
225.2712018162484
 31
0.0
  0
LINE
  5
15B
330
1F
100
AcDbEntity
  8
建具
  6
Continuous
 62
     2
370
     9
100
AcDbLine
 10
-303.6496277918354
 20
213.2711127379153
 30
0.0
 11
-1495.64960964625
 21
213.2711127379153
 31
0.0
  0
LINE
  5
15C
330
1F
100
AcDbEntity
  8
仕上
  6
Continuous
 62
     4
370
     9
100
AcDbLine
 10
-1470.649739964555
 20
238.2714228624936
 30
0.0
 11
-1482.649739964555
 21
226.2714228624934
 31
0.0
  0
LINE
  5
15D
330
1F
100
AcDbEntity
  8
仕上
  6
Continuous
 62
     4
370
     9
100
AcDbLine
 10
-1482.649739964555
 20
226.2714228624935
 30
0.0
 11
-1094.649739964544
 21
226.2714228624935
 31
0.0
  0
LINE
  5
15E
330
1F
100
AcDbEntity
  8
仕上
  6
Continuous
 62
     4
370
     9
100
AcDbLine
 10
-1470.649739964555
 20
238.2714228624935
 30
0.0
 11
-1106.649739964544
 21
238.2714228624935
 31
0.0
  0
LINE
  5
15F
330
1F
100
AcDbEntity
  8
仕上
  6
Continuous
 62
     4
370
     9
100
AcDbLine
 10
-1106.649739964544
 20
238.2714228624934
 30
0.0
 11
-1094.649739964544
 21
226.2714228624934
 31
0.0
  0
LINE
  5
160
330
1F
100
AcDbEntity
  8
仕上
  6
Continuous
 62
     4
370
     9
100
AcDbLine
 10
-1081.649739964555
 20
238.2714228624936
 30
0.0
 11
-1093.649739964555
 21
226.2714228624934
 31
0.0
  0
LINE
  5
161
330
1F
100
AcDbEntity
  8
仕上
  6
Continuous
 62
     4
370
     9
100
AcDbLine
 10
-1093.649739964555
 20
226.2714228624935
 30
0.0
 11
-705.6497399645443
 21
226.2714228624935
 31
0.0
  0
LINE
  5
162
330
1F
100
AcDbEntity
  8
仕上
  6
Continuous
 62
     4
370
     9
100
AcDbLine
 10
-1081.649739964555
 20
238.2714228624935
 30
0.0
 11
-717.6497399645441
 21
238.2714228624935
 31
0.0
  0
LINE
  5
163
330
1F
100
AcDbEntity
  8
仕上
  6
Continuous
 62
     4
370
     9
100
AcDbLine
 10
-717.6497399645441
 20
238.2714228624934
 30
0.0
 11
-705.6497399645443
 21
226.2714228624934
 31
0.0
  0
LINE
  5
164
330
1F
100
AcDbEntity
  8
仕上
  6
Continuous
 62
     4
370
     9
100
AcDbLine
 10
-692.6497399645547
 20
238.2714228624936
 30
0.0
 11
-704.6497399645551
 21
226.2714228624934
 31
0.0
  0
LINE
  5
165
330
1F
100
AcDbEntity
  8
仕上
  6
Continuous
 62
     4
370
     9
100
AcDbLine
 10
-704.6497399645551
 20
226.2714228624935
 30
0.0
 11
-316.6497399645442
 21
226.2714228624935
 31
0.0
  0
LINE
  5
166
330
1F
100
AcDbEntity
  8
仕上
  6
Continuous
 62
     4
370
     9
100
AcDbLine
 10
-692.6497399645552
 20
238.2714228624935
 30
0.0
 11
-328.6497399645441
 21
238.2714228624935
 31
0.0
  0
LINE
  5
167
330
1F
100
AcDbEntity
  8
仕上
  6
Continuous
 62
     4
370
     9
100
AcDbLine
 10
-328.6497399645441
 20
238.2714228624934
 30
0.0
 11
-316.6497399645442
 21
226.2714228624934
 31
0.0
  0
LINE
  5
168
330
1F
100
AcDbEntity
  8
躯体
  6
JWW_DASHED2
 62
     2
370
     9
100
AcDbLine
 10
-1449.649680578998
 20
259.2711655250778
 30
0.0
 11
-1449.649680578998
 21
959.2711655250778
 31
0.0
  0
LINE
  5
169
330
1F
100
AcDbEntity
  8
建具
  6
Continuous
 62
     2
370
     9
100
AcDbLine
 10
-1483.649644287823
 20
225.2712018162484
 30
0.0
 11
-1483.649644287823
 21
993.2713766737234
 31
0.0
  0
LINE
  5
16A
330
1F
100
AcDbEntity
  8
建具
  6
Continuous
 62
     2
370
     9
100
AcDbLine
 10
-1495.64960964625
 20
213.2711127379153
 30
0.0
 11
-1495.64960964625
 21
1005.271218312236
 31
0.0
  0
LINE
  5
16B
330
1F
100
AcDbEntity
  8
躯体
  6
JWW_DASHED2
 62
     2
370
     9
100
AcDbLine
 10
-349.6495568590876
 20
959.2711655250778
 30
0.0
 11
-349.6495568590876
 21
259.2711655250778
 31
0.0
  0
LINE
  5
16C
330
1F
100
AcDbEntity
  8
建具
  6
Continuous
 62
     2
370
     9
100
AcDbLine
 10
-315.6495931502627
 20
225.2712018162484
 30
0.0
 11
-315.6495931502627
 21
993.2713766737234
 31
0.0
  0
LINE
  5
16D
330
1F
100
AcDbEntity
  8
建具
  6
Continuous
 62
     2
370
     9
100
AcDbLine
 10
-303.6496277918354
 20
1005.271218312236
 30
0.0
 11
-303.6496277918354
 21
213.2711127379153
 31
0.0
  0
LINE
  5
16E
330
1F
100
AcDbEntity
  8
仕上
  6
Continuous
 62
     4
370
     9
100
AcDbLine
 10
-1482.649739964555
 20
226.2714228624934
 30
0.0
 11
-1482.649739964555
 21
992.271224910635
 31
0.0
  0
LINE
  5
16F
330
1F
100
AcDbEntity
  8
仕上
  6
Continuous
 62
     4
370
     9
100
AcDbLine
 10
-1470.649739964555
 20
238.2714228624934
 30
0.0
 11
-1470.649739964555
 21
980.2712249106349
 31
0.0
  0
LINE
  5
170
330
1F
100
AcDbEntity
  8
仕上
  6
Continuous
 62
     4
370
     9
100
AcDbLine
 10
-1094.649739964544
 20
226.2714228624934
 30
0.0
 11
-1094.649739964544
 21
992.271224910635
 31
0.0
  0
LINE
  5
171
330
1F
100
AcDbEntity
  8
仕上
  6
Continuous
 62
     4
370
     9
100
AcDbLine
 10
-1106.649739964544
 20
238.2714228624934
 30
0.0
 11
-1106.649739964544
 21
980.2712249106349
 31
0.0
  0
LINE
  5
172
330
1F
100
AcDbEntity
  8
仕上
  6
Continuous
 62
     4
370
     9
100
AcDbLine
 10
-1093.649739964555
 20
226.2714228624934
 30
0.0
 11
-1093.649739964555
 21
992.271224910635
 31
0.0
  0
LINE
  5
173
330
1F
100
AcDbEntity
  8
仕上
  6
Continuous
 62
     4
370
     9
100
AcDbLine
 10
-1081.649739964555
 20
238.2714228624934
 30
0.0
 11
-1081.649739964555
 21
980.2712249106349
 31
0.0
  0
LINE
  5
174
330
1F
100
AcDbEntity
  8
仕上
  6
Continuous
 62
     4
370
     9
100
AcDbLine
 10
-705.6497399645443
 20
226.2714228624934
 30
0.0
 11
-705.6497399645443
 21
992.271224910635
 31
0.0
  0
LINE
  5
175
330
1F
100
AcDbEntity
  8
仕上
  6
Continuous
 62
     4
370
     9
100
AcDbLine
 10
-717.6497399645441
 20
238.2714228624934
 30
0.0
 11
-717.6497399645441
 21
980.2712249106349
 31
0.0
  0
LINE
  5
176
330
1F
100
AcDbEntity
  8
仕上
  6
Continuous
 62
     4
370
     9
100
AcDbLine
 10
-704.6497399645551
 20
226.2714228624934
 30
0.0
 11
-704.6497399645551
 21
992.271224910635
 31
0.0
  0
LINE
  5
177
330
1F
100
AcDbEntity
  8
仕上
  6
Continuous
 62
     4
370
     9
100
AcDbLine
 10
-692.6497399645552
 20
238.2714228624934
 30
0.0
 11
-692.6497399645552
 21
980.2712249106349
 31
0.0
  0
LINE
  5
178
330
1F
100
AcDbEntity
  8
仕上
  6
Continuous
 62
     4
370
     9
100
AcDbLine
 10
-316.6497399645442
 20
226.2714228624934
 30
0.0
 11
-316.6497399645442
 21
992.271224910635
 31
0.0
  0
LINE
  5
179
330
1F
100
AcDbEntity
  8
仕上
  6
Continuous
 62
     4
370
     9
100
AcDbLine
 10
-328.6497399645441
 20
238.2714228624934
 30
0.0
 11
-328.6497399645441
 21
980.2712249106349
 31
0.0
  0
TEXT
  5
17A
330
1F
100
AcDbEntity
  8
F-Fﾚｲﾔ
  6
Continuous
 62
     2
370
     9
100
AcDbText
 10
-1351.665067021346
 20
-1027.359999072101
 30
0.0
 40
30.48
  1
約66kg/枚
 41
1.097222222222222
  7
ＭＳ ゴシック
100
AcDbText
  0
TEXT
  5
17B
330
1F
100
AcDbEntity
  8
F-Fﾚｲﾔ
  6
Continuous
 62
     2
370
     9
100
AcDbText
 10
-1362.915067021346
 20
-937.3597129698063
 30
0.0
 40
30.48
  1
132kg/組
 41
1.09375
  7
ＭＳ ゴシック
100
AcDbText
  0
LINE
  5
17C
330
1F
100
AcDbEntity
  8
D-E
  6
Continuous
 62
     3
370
     9
100
AcDbLine
 10
1386.686644016677
 20
138.6416512814941
 30
0.0
 11
1376.686734615756
 21
138.6416512814941
 31
0.0
  0
LINE
  5
17D
330
1F
100
AcDbEntity
  8
D-E
  6
Continuous
 62
     3
370
     9
100
AcDbLine
 10
1401.686694084597
 20
-13.85836302361149
 30
0.0
 11
1401.686694084597
 21
123.6415940610352
 31
0.0
  0
ARC
  5
17E
330
1F
100
AcDbEntity
  8
D-E
  6
Continuous
 62
     3
370
     9
100
AcDbCircle
 10
1386.686644016677
 20
123.6415940610352
 30
0.0
 40
15.00000000000001
100
AcDbArc
 50
0.0
 51
90.0
  0
LINE
  5
17F
330
1F
100
AcDbEntity
  8
D-E
  6
Continuous
 62
     3
370
     9
100
AcDbLine
 10
1376.686734615756
 20
-61.35827242456052
 30
0.0
 11
1376.686734615756
 21
138.6416512814941
 31
0.0
  0
ARC
  5
180
330
1F
100
AcDbEntity
  8
D-E
  6
Continuous
 62
     3
370
     9
100
AcDbCircle
 10
1424.186644016677
 20
-13.85836302361149
 30
0.0
 40
22.5
100
AcDbArc
 50
180.0
 51
270.0
  0
LINE
  5
181
330
1F
100
AcDbEntity
  8
D-E
  6
Continuous
 62
     3
370
     9
100
AcDbLine
 10
1576.68665832181
 20
-61.35827242456052
 30
0.0
 11
1376.686734615756
 21
-61.35827242456052
 31
0.0
  0
LINE
  5
182
330
1F
100
AcDbEntity
  8
D-E
  6
Continuous
 62
     3
370
     9
100
AcDbLine
 10
1424.186644016677
 20
-36.35831295571897
 30
0.0
 11
1561.686601101351
 21
-36.35831295571897
 31
0.0
  0
ARC
  5
183
330
1F
100
AcDbEntity
  8
D-E
  6
Continuous
 62
     3
370
     9
100
AcDbCircle
 10
1561.686601101351
 20
-51.35836302361149
 30
0.0
 40
15.00000000000001
100
AcDbArc
 50
0.0
 51
90.0
  0
LINE
  5
184
330
1F
100
AcDbEntity
  8
D-E
  6
Continuous
 62
     3
370
     9
100
AcDbLine
 10
1576.68665832181
 20
-51.35836302361149
 30
0.0
 11
1576.68665832181
 21
-61.35827242456052
 31
0.0
  0
LINE
  5
185
330
1F
100
AcDbEntity
  8
D-E
  6
JWW_DASHED1
 62
     3
370
     9
100
AcDbLine
 10
1536.68665832181
 20
-36.35831295571897
 30
0.0
 11
1536.68665832181
 21
-61.35827242456052
 31
0.0
  0
LINE
  5
186
330
1F
100
AcDbEntity
  8
D-E
  6
JWW_DASHED1
 62
     3
370
     9
100
AcDbLine
 10
1466.686658321828
 20
-36.35831295571897
 30
0.0
 11
1466.686658321828
 21
-61.35827242456052
 31
0.0
  0
LINE
  5
187
330
1F
100
AcDbEntity
  8
D-7
  6
JWW_CENTER1
 62
     4
370
     9
100
AcDbLine
 10
1501.68665832181
 20
-20.31153279679863
 30
0.0
 11
1501.68665832181
 21
-78.77903672144548
 31
0.0
  0
TEXT
  5
188
330
1F
100
AcDbEntity
  8
D-5
  6
Continuous
 62
     7
370
     9
100
AcDbText
 10
1559.212947701528
 20
-126.1163144997664
 30
0.0
 40
22.86
  1
Φ１４
 41
1.111111111111111
  7
ＭＳ ゴシック
100
AcDbText
  0
LINE
  5
189
330
1F
100
AcDbEntity
  8
D-5
  6
Continuous
 62
     7
370
     9
100
AcDbLine
 10
1501.68665832181
 20
-61.35827242456052
 30
0.0
 11
1512.903600361506
 21
-89.1823856002366
 31
0.0
  0
LINE
  5
18A
330
1F
100
AcDbEntity
  8
D-5
  6
Continuous
 62
     7
370
     9
100
AcDbLine
 10
1501.68665832181
 20
-61.35827242456052
 30
0.0
 11
1519.722794433507
 21
-85.33123220074337
 31
0.0
  0
LINE
  5
18B
330
1F
100
AcDbEntity
  8
D-5
  6
Continuous
 62
     7
370
     9
100
AcDbLine
 10
1544.015354136861
 20
-136.3076781159162
 30
0.0
 11
1501.68665832181
 21
-61.35827242456052
 31
0.0
  0
LINE
  5
18C
330
1F
100
AcDbEntity
  8
D-5
  6
Continuous
 62
     7
370
     9
100
AcDbLine
 10
1544.015354136861
 20
-136.3076781159162
 30
0.0
 11
1660.159839782261
 21
-136.3076781159162
 31
0.0
  0
LINE
  5
18D
330
1F
100
AcDbEntity
  8
D-6
  6
Continuous
 62
     6
370
     9
100
AcDbLine
 10
1289.574261669185
 20
-45.3580711735048
 30
0.0
 11
1300.686536663906
 21
-34.24604361860581
 31
0.0
  0
LINE
  5
18E
330
1F
100
AcDbEntity
  8
D-6
  6
Continuous
 62
     6
370
     9
100
AcDbLine
 10
1275.432580925942
 20
-45.3580711735048
 30
0.0
 11
1290.432433956453
 21
-30.3580711735048
 31
0.0
  0
LINE
  5
18F
330
1F
100
AcDbEntity
  8
D-6
  6
Continuous
 62
     6
370
     9
100
AcDbLine
 10
1261.290157863231
 20
-45.3580711735048
 30
0.0
 11
1276.290405304278
 21
-30.3580711735048
 31
0.0
  0
LINE
  5
190
330
1F
100
AcDbEntity
  8
D-6
  6
Continuous
 62
     6
370
     9
100
AcDbLine
 10
1247.147982240342
 20
-45.3580711735048
 30
0.0
 11
1262.147858519819
 21
-30.3580711735048
 31
0.0
  0
LINE
  5
191
330
1F
100
AcDbEntity
  8
D-6
  6
Continuous
 62
     6
370
     9
100
AcDbLine
 10
1233.005559177631
 20
-45.3580711735048
 30
0.0
 11
1248.005930339202
 21
-30.3580711735048
 31
0.0
  0
LINE
  5
192
330
1F
100
AcDbEntity
  8
D-6
  6
Continuous
 62
     6
370
     9
100
AcDbLine
 10
1218.863630994565
 20
-45.3580711735048
 30
0.0
 11
1233.863630994565
 21
-30.3580711735048
 31
0.0
  0
LINE
  5
193
330
1F
100
AcDbEntity
  8
D-6
  6
Continuous
 62
     6
370
     9
100
AcDbLine
 10
1204.721455371676
 20
-45.3580711735048
 30
0.0
 11
1219.721826533248
 21
-30.3580711735048
 31
0.0
  0
LINE
  5
194
330
1F
100
AcDbEntity
  8
D-6
  6
Continuous
 62
     6
370
     9
100
AcDbLine
 10
1190.579279748788
 20
-45.3580711735048
 30
0.0
 11
1205.579403469312
 21
-30.3580711735048
 31
0.0
  0
LINE
  5
195
330
1F
100
AcDbEntity
  8
D-6
  6
Continuous
 62
     6
370
     9
100
AcDbLine
 10
1176.437846445368
 20
-45.3580711735048
 30
0.0
 11
1191.437970165891
 21
-30.3580711735048
 31
0.0
  0
LINE
  5
196
330
1F
100
AcDbEntity
  8
D-6
  6
Continuous
 62
     6
370
     9
100
AcDbLine
 10
1175.687114023493
 20
-31.96724657204804
 30
0.0
 11
1177.296253462006
 21
-30.3580711735048
 31
0.0
  0
LINE
  5
197
330
1F
100
AcDbEntity
  8
D-6
  6
Continuous
 62
     6
370
     9
100
AcDbLine
 10
1300.686289224084
 20
-30.3580711735048
 30
0.0
 11
1300.686289224084
 21
-45.3580711735048
 31
0.0
  0
LINE
  5
198
330
1F
100
AcDbEntity
  8
D-6
  6
Continuous
 62
     6
370
     9
100
AcDbLine
 10
1175.68686658367
 20
-30.3580711735048
 30
0.0
 11
1300.686289224084
 21
-30.3580711735048
 31
0.0
  0
LINE
  5
199
330
1F
100
AcDbEntity
  8
D-6
  6
Continuous
 62
     6
370
     9
100
AcDbLine
 10
1175.68686658367
 20
-30.3580711735048
 30
0.0
 11
1175.68686658367
 21
-45.3580711735048
 31
0.0
  0
LINE
  5
19A
330
1F
100
AcDbEntity
  8
D-5
  6
Continuous
 62
     7
370
     9
100
AcDbLine
 10
1156.222674576718
 20
-226.7876187508335
 30
0.0
 11
1266.193169903718
 21
-45.87055016795709
 31
0.0
  0
LINE
  5
19B
330
1F
100
AcDbEntity
  8
D-5
  6
Continuous
 62
     7
370
     9
100
AcDbLine
 10
1266.193169903718
 20
-45.87055016795709
 30
0.0
 11
1256.107196858518
 21
-68.74571459865585
 31
0.0
  0
LINE
  5
19C
330
1F
100
AcDbEntity
  8
D-5
  6
Continuous
 62
     7
370
     9
100
AcDbLine
 10
1266.193169903718
 20
-45.87055016795709
 30
0.0
 11
1250.530339841588
 21
-65.3558203596895
 31
0.0
  0
TEXT
  5
19D
330
1F
100
AcDbEntity
  8
D-5
  6
Continuous
 62
     7
370
     9
100
AcDbText
 10
805.0570237176629
 20
-210.8418499764542
 30
0.0
 40
22.86
  1
クッション：３×２５
 41
1.15
  7
ＭＳ ゴシック
100
AcDbText
  0
TEXT
  5
19E
330
1F
100
AcDbEntity
  8
D-5
  6
Continuous
 62
     7
370
     9
100
AcDbText
 10
792.0997953315026
 20
-259.1188320637559
 30
0.0
 40
22.86
  1
（クロロプレンゴム）
 41
1.15
  7
ＭＳ ゴシック
100
AcDbText
  0
LINE
  5
19F
330
1F
100
AcDbEntity
  8
D-5
  6
Continuous
 62
     7
370
     9
100
AcDbLine
 10
1156.222674576718
 20
-226.7876187508335
 30
0.0
 11
798.0841320025928
 21
-226.7876187508335
 31
0.0
  0
LINE
  5
1A0
330
1F
100
AcDbEntity
  8
D-8
  6
Continuous
 62
    30
370
     5
100
AcDbLine
 10
1253.187130519505
 20
-30.3580711735048
 30
0.0
 11
1283.187130519496
 21
-30.3580711735048
 31
0.0
  0
TEXT
  5
1A1
330
1F
100
AcDbEntity
  8
D-4
  6
Continuous
 62
     2
370
     9
100
AcDbText
 10
512.856898320519
 20
-663.9408966899148
 30
0.0
 40
30.48
  1
A-A断面詳細図　Ｓ＝１：２
 41
1.115
  7
ＭＳ ゴシック
100
AcDbText
  0
LINE
  5
1A2
330
1F
100
AcDbEntity
  8
D-4
  6
Continuous
 62
     7
370
     9
100
AcDbLine
 10
1070.356898320519
 20
-680.2090556716502
 30
0.0
 11
512.856898320519
 21
-680.2090556716502
 31
0.0
  0
LINE
  5
1A3
330
1F
100
AcDbEntity
  8
D-5
  6
Continuous
 62
     7
370
     9
100
AcDbLine
 10
1403.967811388357
 20
-61.35827242456052
 30
0.0
 11
1422.003947500054
 21
-85.33123220074337
 31
0.0
  0
LINE
  5
1A4
330
1F
100
AcDbEntity
  8
D-5
  6
Continuous
 62
     7
370
     9
100
AcDbLine
 10
1403.967811388357
 20
-61.35827242456052
 30
0.0
 11
1415.184753428053
 21
-89.1823856002366
 31
0.0
  0
LINE
  5
1A5
330
1F
100
AcDbEntity
  8
D-5
  6
Continuous
 62
     7
370
     9
100
AcDbLine
 10
1495.279446724787
 20
-223.0394362164776
 30
0.0
 11
1403.967811388357
 21
-61.35827242456052
 31
0.0
  0
TEXT
  5
1A6
330
1F
100
AcDbEntity
  8
D-5
  6
Continuous
 62
     7
370
     9
100
AcDbText
 10
1499.060327334742
 20
-253.0861613669213
 30
0.0
 40
22.86
  1
（ＳＳ４００）
 41
1.142857142857143
  7
ＭＳ ゴシック
100
AcDbText
  0
LINE
  5
1A7
330
1F
100
AcDbEntity
  8
D-9
  6
Continuous
 62
   211
370
     5
100
AcDbLine
 10
1253.187130519505
 20
-0.3581230295093718
 30
0.0
 11
240.6869325676195
 21
-0.3581230295093718
 31
0.0
  0
LINE
  5
1A8
330
1F
100
AcDbEntity
  8
D-9
  6
Continuous
 62
   211
370
     5
100
AcDbLine
 10
1253.187130519505
 20
-30.3580711735048
 30
0.0
 11
240.6869325676195
 21
-30.3580711735048
 31
0.0
  0
TEXT
  5
1A9
330
1F
100
AcDbEntity
  8
D-4
  6
Continuous
 62
     7
370
     9
100
AcDbText
 10
223.6484384299285
 20
-732.1096659572282
 30
0.0
 40
22.86
  1
表面処理：下塗り＋焼付塗装（但し目地、把手、クッション材を除く）
 41
1.161458333333333
  7
ＭＳ ゴシック
100
AcDbText
  0
TEXT
  5
1AA
330
1F
100
AcDbEntity
  8
D-F
  6
Continuous
 62
     2
370
   211
100
AcDbText
 10
1517.93665832181
 20
66.77148130745465
 30
0.0
 40
30.48
  1
15
 41
1.0625
  7
ＭＳ ゴシック
100
AcDbText
  0
LWPOLYLINE
  5
1AB
330
1F
100
AcDbEntity
  8
D-F
  6
Continuous
 62
     7
370
     9
100
AcDbPolyline
 90
        4
 70
     1
 43
2.0
 10
1675.377217129337
 20
-61.35873444110466
 42
0.4142135623731
 10
1674.377217129338
 20
-60.35873444110466
 42
0.4142135623731
 10
1673.377217129338
 20
-61.35873444110466
 42
0.4142135623731
 10
1674.377217129338
 20
-62.35873444110466
 42
0.4142135623731
  0
LINE
  5
1AC
330
1F
100
AcDbEntity
  8
D-F
  6
Continuous
 62
     7
370
     9
100
AcDbLine
 10
1501.68665832181
 20
55.13148130745442
 30
0.0
 11
1576.68665832181
 21
55.13148130745442
 31
0.0
  0
LWPOLYLINE
  5
1AD
330
1F
100
AcDbEntity
  8
D-F
  6
Continuous
 62
     7
370
     9
100
AcDbPolyline
 90
        4
 70
     1
 43
2.0
 10
1502.68665832181
 20
55.13148130745442
 42
0.4142135623731
 10
1501.68665832181
 20
56.13148130745442
 42
0.4142135623731
 10
1500.68665832181
 20
55.13148130745442
 42
0.4142135623731
 10
1501.68665832181
 20
54.13148130745442
 42
0.4142135623731
  0
LWPOLYLINE
  5
1AE
330
1F
100
AcDbEntity
  8
D-F
  6
Continuous
 62
     7
370
     9
100
AcDbPolyline
 90
        4
 70
     1
 43
2.0
 10
1577.68665832181
 20
55.13148130745442
 42
0.4142135623731
 10
1576.68665832181
 20
56.13148130745442
 42
0.4142135623731
 10
1575.68665832181
 20
55.13148130745442
 42
0.4142135623731
 10
1576.68665832181
 20
54.13148130745442
 42
0.4142135623731
  0
LINE
  5
1AF
330
1F
100
AcDbEntity
  8
D-F
  6
Continuous
 62
     7
370
     9
100
AcDbLine
 10
1501.68665832181
 20
58.13148130745454
 30
0.0
 11
1501.68665832181
 21
-0.3115327968031778
 31
0.0
  0
LINE
  5
1B0
330
1F
100
AcDbEntity
  8
D-F
  6
Continuous
 62
     7
370
     9
100
AcDbLine
 10
1576.68665832181
 20
58.13148130745454
 30
0.0
 11
1576.68665832181
 21
-41.35827242456052
 31
0.0
  0
LINE
  5
1B1
330
1F
100
AcDbEntity
  8
D-F
  6
Continuous
 62
     7
370
     9
100
AcDbLine
 10
1175.68686658367
 20
-76.35819819261364
 30
0.0
 11
1175.68686658367
 21
-547.8360118775975
 31
0.0
  0
LWPOLYLINE
  5
1B2
330
1F
100
AcDbEntity
  8
D-F
  6
Continuous
 62
     7
370
     9
100
AcDbPolyline
 90
        4
 70
     1
 43
2.0
 10
1176.68686658367
 20
-542.8359953816095
 42
0.4142135623731
 10
1175.68686658367
 20
-541.8359953816095
 42
0.4142135623731
 10
1174.68686658367
 20
-542.8359953816095
 42
0.4142135623731
 10
1175.68686658367
 20
-543.8359953816096
 42
0.4142135623731
  0
LWPOLYLINE
  5
1B3
330
1F
100
AcDbEntity
  8
D-F
  6
Continuous
 62
     7
370
     9
100
AcDbPolyline
 90
        4
 70
     1
 43
2.0
 10
1377.686440987175
 20
-542.8359953816095
 42
0.4142135623731
 10
1376.686440987175
 20
-541.8359953816095
 42
0.4142135623731
 10
1375.686440987175
 20
-542.8359953816095
 42
0.4142135623731
 10
1376.686440987175
 20
-543.8359953816096
 42
0.4142135623731
  0
LINE
  5
1B4
330
1F
100
AcDbEntity
  8
D-F
  6
Continuous
 62
     7
370
     9
100
AcDbLine
 10
1376.686440987175
 20
-82.74034772238501
 30
0.0
 11
1376.686440987175
 21
-547.8360118775975
 31
0.0
  0
LINE
  5
1B5
330
1F
100
AcDbEntity
  8
D-F
  6
Continuous
 62
     7
370
     9
100
AcDbLine
 10
1376.686440987175
 20
-542.8359953816095
 30
0.0
 11
1175.68686658367
 21
-542.8359953816095
 31
0.0
  0
TEXT
  5
1B6
330
1F
100
AcDbEntity
  8
D-F
  6
Continuous
 62
     2
370
   211
100
AcDbText
 10
1232.436653785422
 20
-531.1959508424412
 30
0.0
 40
30.48
  1
40.2
 41
1.09375
  7
ＭＳ ゴシック
100
AcDbText
  0
LWPOLYLINE
  5
1B7
330
1F
100
AcDbEntity
  8
D-F
  6
Continuous
 62
     7
370
     9
100
AcDbPolyline
 90
        4
 70
     1
 43
2.0
 10
93.29782700792072
 20
-30.3580711735048
 42
0.4142135623731
 10
92.29782700792072
 20
-29.3580711735048
 42
0.4142135623731
 10
91.29782700792072
 20
-30.3580711735048
 42
0.4142135623731
 10
92.29782700792072
 20
-31.3580711735048
 42
0.4142135623731
  0
LINE
  5
1B8
330
1F
100
AcDbEntity
  8
D-F
  6
Continuous
 62
     7
370
     9
100
AcDbLine
 10
1175.68686658367
 20
-542.8359953816095
 30
0.0
 11
240.6869325676195
 21
-542.8359953816095
 31
0.0
  0
LINE
  5
1B9
330
1F
100
AcDbEntity
  8
D-F
  6
Continuous
 62
     7
370
     9
100
AcDbLine
 10
1679.377233625326
 20
-61.35873444110466
 30
0.0
 11
1582.703151781038
 21
-61.35873444110466
 31
0.0
  0
ARC
  5
1BA
330
1F
100
AcDbEntity
  8
D-1
  6
Continuous
 62
     2
370
     9
100
AcDbCircle
 10
1338.186734615752
 20
-22.85827242456598
 30
0.0
 40
22.5
100
AcDbArc
 50
270.0
 51
0.0
  0
LINE
  5
1BB
330
1F
100
AcDbEntity
  8
D-1
  6
Continuous
 62
     2
370
     9
100
AcDbLine
 10
1175.68686658367
 20
-45.35827242455689
 30
0.0
 11
1338.186734615752
 21
-45.35827242455689
 31
0.0
  0
ARC
  5
1BC
330
1F
100
AcDbEntity
  8
D-1
  6
Continuous
 62
     2
370
     9
100
AcDbCircle
 10
1338.186734615752
 20
-22.85827242456598
 30
0.0
 40
38.5
100
AcDbArc
 50
270.0
 51
0.0
  0
LINE
  5
1BD
330
1F
100
AcDbEntity
  8
D-1
  6
Continuous
 62
     2
370
     9
100
AcDbLine
 10
1175.68686658367
 20
-45.35827242455689
 30
0.0
 11
1175.68686658367
 21
-61.35827242456052
 31
0.0
  0
LINE
  5
1BE
330
1F
100
AcDbEntity
  8
D-1
  6
Continuous
 62
     2
370
     9
100
AcDbLine
 10
1175.68686658367
 20
-61.35827242456052
 30
0.0
 11
1338.186734615752
 21
-61.35827242456052
 31
0.0
  0
LWPOLYLINE
  5
1BF
330
1F
100
AcDbEntity
  8
D-F
  6
Continuous
 62
     7
370
     9
100
AcDbPolyline
 90
        4
 70
     1
 43
2.0
 10
-8.38929797808072
 20
-30.3580711735048
 42
0.4142135623731
 10
-9.38929797808072
 20
-29.3580711735048
 42
0.4142135623731
 10
-10.38929797808072
 20
-30.3580711735048
 42
0.4142135623731
 10
-9.38929797808072
 20
-31.3580711735048
 42
0.4142135623731
  0
LINE
  5
1C0
330
1F
100
AcDbEntity
  8
D-F
  6
Continuous
 62
     7
370
     9
100
AcDbLine
 10
-12.38929797808055
 20
-30.3580711735048
 30
0.0
 11
220.6869325676195
 21
-30.3580711735048
 31
0.0
  0
LINE
  5
1C1
330
1F
100
AcDbEntity
  8
D-5
  6
Continuous
 62
     7
370
     9
100
AcDbLine
 10
1495.279446724787
 20
-223.0394362164776
 30
0.0
 11
1949.060327334742
 21
-223.0394362164776
 31
0.0
  0
TEXT
  5
1C2
330
1F
100
AcDbEntity
  8
D-5
  6
Continuous
 62
     7
370
     9
100
AcDbText
 10
1499.060327334742
 20
-212.8480726003278
 30
0.0
 40
22.86
  1
アンカー：Ｌ４０×４０×５
 41
1.153846153846154
  7
ＭＳ ゴシック
100
AcDbText
  0
LINE
  5
1C3
330
1F
100
AcDbEntity
  8
D-5
  6
Continuous
 62
     7
370
     9
100
AcDbLine
 10
1321.897807558048
 20
524.641727575425
 30
0.0
 11
1342.904458740481
 21
538.1959861797322
 31
0.0
  0
LINE
  5
1C4
330
1F
100
AcDbEntity
  8
D-5
  6
Continuous
 62
     7
370
     9
100
AcDbLine
 10
1321.897807558048
 20
524.641727575425
 30
0.0
 11
1338.680660968099
 21
543.1710112536343
 31
0.0
  0
LINE
  5
1C5
330
1F
100
AcDbEntity
  8
D-5
  6
Continuous
 62
     7
370
     9
100
AcDbLine
 10
1362.813212159066
 20
524.641727575425
 30
0.0
 11
1382.511648999226
 21
540.0357012610244
 31
0.0
  0
LINE
  5
1C6
330
1F
100
AcDbEntity
  8
D-5
  6
Continuous
 62
     7
370
     9
100
AcDbLine
 10
1362.813212159066
 20
524.641727575425
 30
0.0
 11
1377.856068736346
 21
544.6093789426125
 31
0.0
  0
LINE
  5
1C7
330
1F
100
AcDbEntity
  8
D-5
  6
Continuous
 62
     7
370
     9
100
AcDbLine
 10
1568.551032018626
 20
734.0535136290566
 30
0.0
 11
1362.813212159066
 21
524.641727575425
 31
0.0
  0
LINE
  5
1C8
330
1F
100
AcDbEntity
  8
D-5
  6
Continuous
 62
     7
370
     9
100
AcDbLine
 10
1568.551032018626
 20
734.0535136290566
 30
0.0
 11
1321.897807558048
 21
524.641727575425
 31
0.0
  0
LINE
  5
1C9
330
1F
100
AcDbEntity
  8
D-F
  6
Continuous
 62
     7
370
     9
100
AcDbLine
 10
-12.38929797808055
 20
524.6419288265134
 30
0.0
 11
220.6869325676195
 21
524.6419288265134
 31
0.0
  0
LWPOLYLINE
  5
1CA
330
1F
100
AcDbEntity
  8
D-F
  6
Continuous
 62
     7
370
     9
100
AcDbPolyline
 90
        4
 70
     1
 43
2.0
 10
-8.38929797808072
 20
524.6419288265134
 42
0.4142135623731
 10
-9.38929797808072
 20
525.6419288265134
 42
0.4142135623731
 10
-10.38929797808072
 20
524.6419288265134
 42
0.4142135623731
 10
-9.38929797808072
 20
523.6419288265133
 42
0.4142135623731
  0
LINE
  5
1CB
330
1F
100
AcDbEntity
  8
D-2
  6
Continuous
 62
     3
370
     9
100
AcDbLine
 10
865.687542919182
 20
324.6419288265134
 30
0.0
 11
240.6869325676195
 21
324.6419288265134
 31
0.0
  0
LINE
  5
1CC
330
1F
100
AcDbEntity
  8
D-2
  6
Continuous
 62
     3
370
     9
100
AcDbLine
 10
1265.687130519505
 20
324.6419288265134
 30
0.0
 11
945.6873119753487
 21
324.6419288265134
 31
0.0
  0
LINE
  5
1CD
330
1F
100
AcDbEntity
  8
D-2
  6
Continuous
 62
     3
370
     9
100
AcDbLine
 10
1325.687130519496
 20
354.6419288265316
 30
0.0
 11
1325.687130519496
 21
509.6421267783444
 31
0.0
  0
LINE
  5
1CE
330
1F
100
AcDbEntity
  8
D-2
  6
Continuous
 62
     3
370
     9
100
AcDbLine
 10
1325.687130519496
 20
509.6421267783444
 30
0.0
 11
1295.687130519505
 21
509.6421267783444
 31
0.0
  0
LINE
  5
1CF
330
1F
100
AcDbEntity
  8
D-2
  6
Continuous
 62
     3
370
     9
100
AcDbLine
 10
1295.687130519505
 20
354.6419288265316
 30
0.0
 11
1295.687130519505
 21
509.6421267783444
 31
0.0
  0
ARC
  5
1D0
330
1F
100
AcDbEntity
  8
D-2
  6
Continuous
 62
     3
370
     9
100
AcDbCircle
 10
1265.687130519505
 20
354.6419288265316
 30
0.0
 40
60.00000000000001
100
AcDbArc
 50
270.0
 51
0.0
  0
ARC
  5
1D1
330
1F
100
AcDbEntity
  8
D-2
  6
Continuous
 62
     3
370
     9
100
AcDbCircle
 10
1265.687130519505
 20
354.6419288265316
 30
0.0
 40
30.0
100
AcDbArc
 50
270.0
 51
0.0
  0
LINE
  5
1D2
330
1F
100
AcDbEntity
  8
D-1
  6
Continuous
 62
     2
370
     9
100
AcDbLine
 10
1376.686734615756
 20
-22.85827242456598
 30
0.0
 11
1376.686734615756
 21
509.6419255272787
 31
0.0
  0
LINE
  5
1D3
330
1F
100
AcDbEntity
  8
D-1
  6
Continuous
 62
     2
370
     9
100
AcDbLine
 10
1360.686734615752
 20
-22.85827242456598
 30
0.0
 11
1360.686734615752
 21
509.6419255272787
 31
0.0
  0
LINE
  5
1D4
330
1F
100
AcDbEntity
  8
D-5
  6
Continuous
 62
     7
370
     9
100
AcDbLine
 10
346.6969824297652
 20
622.4375245581895
 30
0.0
 11
465.9504854515967
 21
374.6417308746277
 31
0.0
  0
LINE
  5
1D5
330
1F
100
AcDbEntity
  8
D-5
  6
Continuous
 62
     7
370
     9
100
AcDbLine
 10
-72.23672918739936
 20
622.4375245581895
 30
0.0
 11
346.6969824297652
 21
622.4375245581895
 31
0.0
  0
LINE
  5
1D6
330
1F
100
AcDbEntity
  8
D-F
  6
Continuous
 62
     7
370
     9
100
AcDbLine
 10
905.6864706799439
 20
716.9294369795659
 30
0.0
 11
905.6864706799439
 21
781.8453263636513
 31
0.0
  0
TEXT
  5
1D7
330
1F
100
AcDbEntity
  8
D-F
  6
Continuous
 62
     2
370
     9
100
AcDbText
 10
1123.186800599708
 20
788.4852306869195
 30
0.0
 40
30.48
  1
100
 41
1.083333333333333
  7
ＭＳ ゴシック
100
AcDbText
  0
LWPOLYLINE
  5
1D8
330
1F
100
AcDbEntity
  8
D-F
  6
Continuous
 62
     7
370
     9
100
AcDbPolyline
 90
        4
 70
     1
 43
2.0
 10
906.6864706799438
 20
776.8453098676633
 42
0.4142135623731
 10
905.6864706799439
 20
777.8453098676632
 42
0.4142135623731
 10
904.686470679944
 20
776.8453098676633
 42
0.4142135623731
 10
905.6864706799439
 20
775.8453098676634
 42
0.4142135623731
  0
LWPOLYLINE
  5
1D9
330
1F
100
AcDbEntity
  8
D-F
  6
Continuous
 62
     7
370
     9
100
AcDbPolyline
 90
        4
 70
     1
 43
2.0
 10
1406.687130519471
 20
776.8453098676633
 42
0.4142135623731
 10
1405.687130519471
 20
777.8453098676632
 42
0.4142135623731
 10
1404.687130519471
 20
776.8453098676633
 42
0.4142135623731
 10
1405.687130519471
 20
775.8453098676634
 42
0.4142135623731
  0
LINE
  5
1DA
330
1F
100
AcDbEntity
  8
D-F
  6
Continuous
 62
     7
370
     9
100
AcDbLine
 10
1405.687130519471
 20
776.6661156174384
 30
0.0
 11
1405.687130519471
 21
771.8452933716748
 31
0.0
  0
LINE
  5
1DB
330
1F
100
AcDbEntity
  8
D-F
  6
Continuous
 62
     7
370
     9
100
AcDbLine
 10
1405.687130519471
 20
776.8453098676633
 30
0.0
 11
905.6864706799439
 21
776.8453098676633
 31
0.0
  0
LINE
  5
1DC
330
1F
100
AcDbEntity
  8
D-F
  6
Continuous
 62
     7
370
     9
100
AcDbLine
 10
1405.686883079648
 20
884.6662575451192
 30
0.0
 11
240.6869325676195
 21
884.6662575451192
 31
0.0
  0
LWPOLYLINE
  5
1DD
330
1F
100
AcDbEntity
  8
D-F
  6
Continuous
 62
     7
370
     9
100
AcDbPolyline
 90
        4
 70
     1
 43
2.0
 10
1406.686883079648
 20
884.6662575451192
 42
0.4142135623731
 10
1405.686883079648
 20
885.666257545119
 42
0.4142135623731
 10
1404.686883079648
 20
884.6662575451192
 42
0.4142135623731
 10
1405.686883079648
 20
883.6662575451192
 42
0.4142135623731
  0
LINE
  5
1DE
330
1F
100
AcDbEntity
  8
D-F
  6
Continuous
 62
     7
370
     9
100
AcDbLine
 10
1405.686883079648
 20
539.6417770633896
 30
0.0
 11
1405.686883079648
 21
889.6662740411077
 31
0.0
  0
LINE
  5
1DF
330
1F
100
AcDbEntity
  8
D-F
  6
Continuous
 62
     7
370
     9
100
AcDbLine
 10
185.6563475635019
 20
374.6417308746277
 30
0.0
 11
310.6869325676195
 21
374.6417308746277
 31
0.0
  0
TEXT
  5
1E0
330
1F
100
AcDbEntity
  8
D-F
  6
Continuous
 62
     2
370
   211
100
AcDbText
 10
81.65782700792072
 20
403.3919288265134
 30
0.0
 40
30.48
  1
40
 50
90.0
 41
1.0625
  7
ＭＳ ゴシック
100
AcDbText
  0
LWPOLYLINE
  5
1E1
330
1F
100
AcDbEntity
  8
D-F
  6
Continuous
 62
     7
370
     9
100
AcDbPolyline
 90
        4
 70
     1
 43
2.0
 10
93.29782700792072
 20
524.6419288265134
 42
0.4142135623731
 10
92.29782700792072
 20
525.6419288265134
 42
0.4142135623731
 10
91.29782700792072
 20
524.6419288265134
 42
0.4142135623731
 10
92.29782700792072
 20
523.6419288265133
 42
0.4142135623731
  0
LINE
  5
1E2
330
1F
100
AcDbEntity
  8
D-F
  6
Continuous
 62
     7
370
     9
100
AcDbLine
 10
92.29782700792072
 20
324.6419288265134
 30
0.0
 11
92.29782700792072
 21
524.6419288265134
 31
0.0
  0
TEXT
  5
1E3
330
1F
100
AcDbEntity
  8
D-F
  6
Continuous
 62
     2
370
   211
100
AcDbText
 10
81.65782700792072
 20
299.6419288265043
 30
0.0
 40
30.48
  1
6
 50
90.0
 41
0.9999999999999998
  7
ＭＳ ゴシック
100
AcDbText
  0
LINE
  5
1E4
330
1F
100
AcDbEntity
  8
D-F
  6
Continuous
 62
     7
370
     9
100
AcDbLine
 10
89.29782700792089
 20
324.6419288265134
 30
0.0
 11
220.6869325676195
 21
324.6419288265134
 31
0.0
  0
LWPOLYLINE
  5
1E5
330
1F
100
AcDbEntity
  8
D-F
  6
Continuous
 62
     7
370
     9
100
AcDbPolyline
 90
        4
 70
     1
 43
2.0
 10
93.29782700792072
 20
324.6419288265134
 42
0.4142135623731
 10
92.29782700792072
 20
325.6419288265134
 42
0.4142135623731
 10
91.29782700792072
 20
324.6419288265134
 42
0.4142135623731
 10
92.29782700792072
 20
323.6419288265134
 42
0.4142135623731
  0
LINE
  5
1E6
330
1F
100
AcDbEntity
  8
D-F
  6
Continuous
 62
     7
370
     9
100
AcDbLine
 10
92.29782700792072
 20
294.6419288264952
 30
0.0
 11
92.29782700792072
 21
324.6419288265134
 31
0.0
  0
LWPOLYLINE
  5
1E7
330
1F
100
AcDbEntity
  8
D-F
  6
Continuous
 62
     7
370
     9
100
AcDbPolyline
 90
        4
 70
     1
 43
2.0
 10
93.29782700792072
 20
294.6419288264952
 42
0.4142135623731
 10
92.29782700792072
 20
295.6419288264952
 42
0.4142135623731
 10
91.29782700792072
 20
294.6419288264952
 42
0.4142135623731
 10
92.29782700792072
 20
293.6419288264952
 42
0.4142135623731
  0
TEXT
  5
1E8
330
1F
100
AcDbEntity
  8
D-F
  6
Continuous
 62
     2
370
   211
100
AcDbText
 10
178.0163475635018
 20
428.3918298505706
 30
0.0
 40
30.48
  1
30
 50
90.0
 41
1.0625
  7
ＭＳ ゴシック
100
AcDbText
  0
LWPOLYLINE
  5
1E9
330
1F
100
AcDbEntity
  8
D-F
  6
Continuous
 62
     7
370
     9
100
AcDbPolyline
 90
        4
 70
     1
 43
2.0
 10
189.6563475635018
 20
524.6419288265134
 42
0.4142135623731
 10
188.6563475635018
 20
525.6419288265134
 42
0.4142135623731
 10
187.6563475635018
 20
524.6419288265134
 42
0.4142135623731
 10
188.6563475635018
 20
523.6419288265133
 42
0.4142135623731
  0
LINE
  5
1EA
330
1F
100
AcDbEntity
  8
D-F
  6
Continuous
 62
     7
370
     9
100
AcDbLine
 10
188.6563475635018
 20
374.6417308746277
 30
0.0
 11
188.6563475635018
 21
524.6419288265134
 31
0.0
  0
LWPOLYLINE
  5
1EB
330
1F
100
AcDbEntity
  8
D-F
  6
Continuous
 62
     7
370
     9
100
AcDbPolyline
 90
        4
 70
     1
 43
2.0
 10
189.6563475635018
 20
374.6417308746277
 42
0.4142135623731
 10
188.6563475635018
 20
375.6417308746278
 42
0.4142135623731
 10
187.6563475635018
 20
374.6417308746277
 42
0.4142135623731
 10
188.6563475635018
 20
373.6417308746277
 42
0.4142135623731
  0
LWPOLYLINE
  5
1EC
330
1F
100
AcDbEntity
  8
D-F
  6
Continuous
 62
     7
370
     9
100
AcDbPolyline
 90
        4
 70
     1
 43
2.0
 10
189.6563475635018
 20
324.6419288265134
 42
0.4142135623731
 10
188.6563475635018
 20
325.6419288265134
 42
0.4142135623731
 10
187.6563475635018
 20
324.6419288265134
 42
0.4142135623731
 10
188.6563475635018
 20
323.6419288265134
 42
0.4142135623731
  0
TEXT
  5
1ED
330
1F
100
AcDbEntity
  8
D-F
  6
Continuous
 62
     2
370
   211
100
AcDbText
 10
178.0163475635018
 20
328.3918298505706
 30
0.0
 40
30.48
  1
10
 50
90.0
 41
1.0625
  7
ＭＳ ゴシック
100
AcDbText
  0
LINE
  5
1EE
330
1F
100
AcDbEntity
  8
D-F
  6
Continuous
 62
     7
370
     9
100
AcDbLine
 10
188.6563475635018
 20
324.6419288265134
 30
0.0
 11
188.6563475635018
 21
374.6417308746277
 31
0.0
  0
LWPOLYLINE
  5
1EF
330
1F
100
AcDbEntity
  8
D-F
  6
Continuous
 62
     7
370
     9
100
AcDbPolyline
 90
        4
 70
     1
 43
2.0
 10
826.6864541839556
 20
650.2145135871177
 42
0.4142135623731
 10
825.6864541839557
 20
651.2145135871176
 42
0.4142135623731
 10
824.6864541839557
 20
650.2145135871177
 42
0.4142135623731
 10
825.6864541839557
 20
649.2145135871178
 42
0.4142135623731
  0
LWPOLYLINE
  5
1F0
330
1F
100
AcDbEntity
  8
D-F
  6
Continuous
 62
     7
370
     9
100
AcDbPolyline
 90
        4
 70
     1
 43
2.0
 10
986.6874769352222
 20
650.2145135871177
 42
0.4142135623731
 10
985.6874769352223
 20
651.2145135871176
 42
0.4142135623731
 10
984.6874769352223
 20
650.2145135871177
 42
0.4142135623731
 10
985.6874769352223
 20
649.2145135871178
 42
0.4142135623731
  0
LINE
  5
1F1
330
1F
100
AcDbEntity
  8
D-F
  6
Continuous
 62
     7
370
     9
100
AcDbLine
 10
825.6864541839557
 20
539.641777063389
 30
0.0
 11
825.6864541839557
 21
655.2145300831057
 31
0.0
  0
LINE
  5
1F2
330
1F
100
AcDbEntity
  8
D-F
  6
Continuous
 62
     7
370
     9
100
AcDbLine
 10
985.6874769352223
 20
539.641777063389
 30
0.0
 11
985.6874769352223
 21
655.2145300831057
 31
0.0
  0
LINE
  5
1F3
330
1F
100
AcDbEntity
  8
D-F
  6
Continuous
 62
     7
370
     9
100
AcDbLine
 10
985.6874769352223
 20
650.2145135871177
 30
0.0
 11
825.6864541839557
 21
650.2145135871177
 31
0.0
  0
LWPOLYLINE
  5
1F4
330
1F
100
AcDbEntity
  8
D-F
  6
Continuous
 62
     7
370
     9
100
AcDbPolyline
 90
        4
 70
     1
 43
2.0
 10
1281.686470679944
 20
650.2145135871177
 42
0.4142135623731
 10
1280.686470679944
 20
651.2145135871176
 42
0.4142135623731
 10
1279.686470679944
 20
650.2145135871177
 42
0.4142135623731
 10
1280.686470679944
 20
649.2145135871178
 42
0.4142135623731
  0
LWPOLYLINE
  5
1F5
330
1F
100
AcDbEntity
  8
D-F
  6
Continuous
 62
     7
370
     9
100
AcDbPolyline
 90
        4
 70
     1
 43
2.0
 10
1341.686173752157
 20
650.2145135871177
 42
0.4142135623731
 10
1340.686173752157
 20
651.2145135871176
 42
0.4142135623731
 10
1339.686173752157
 20
650.2145135871177
 42
0.4142135623731
 10
1340.686173752157
 20
649.2145135871178
 42
0.4142135623731
  0
LWPOLYLINE
  5
1F6
330
1F
100
AcDbEntity
  8
D-F
  6
Continuous
 62
     7
370
     9
100
AcDbPolyline
 90
        4
 70
     1
 43
2.0
 10
1346.686932567612
 20
650.2145135871177
 42
0.4142135623731
 10
1345.686932567612
 20
651.2145135871176
 42
0.4142135623731
 10
1344.686932567613
 20
650.2145135871177
 42
0.4142135623731
 10
1345.686932567612
 20
649.2145135871178
 42
0.4142135623731
  0
LWPOLYLINE
  5
1F7
330
1F
100
AcDbEntity
  8
D-F
  6
Continuous
 62
     7
370
     9
100
AcDbPolyline
 90
        4
 70
     1
 43
2.0
 10
1406.686883079648
 20
650.2145135871177
 42
0.4142135623731
 10
1405.686883079648
 20
651.2145135871176
 42
0.4142135623731
 10
1404.686883079648
 20
650.2145135871177
 42
0.4142135623731
 10
1405.686883079648
 20
649.2145135871178
 42
0.4142135623731
  0
LINE
  5
1F8
330
1F
100
AcDbEntity
  8
D-F
  6
Continuous
 62
     7
370
     9
100
AcDbLine
 10
1280.686470679944
 20
539.641777063389
 30
0.0
 11
1280.686470679944
 21
655.2145300831057
 31
0.0
  0
LINE
  5
1F9
330
1F
100
AcDbEntity
  8
D-F
  6
Continuous
 62
     7
370
     9
100
AcDbLine
 10
1340.686173752157
 20
650.2145135871177
 30
0.0
 11
1226.076749264192
 21
650.2145135871177
 31
0.0
  0
LINE
  5
1FA
330
1F
100
AcDbEntity
  8
D-F
  6
Continuous
 62
     7
370
     9
100
AcDbLine
 10
1340.686173752157
 20
539.641777063389
 30
0.0
 11
1340.686173752157
 21
655.2145300831057
 31
0.0
  0
LINE
  5
1FB
330
1F
100
AcDbEntity
  8
D-F
  6
Continuous
 62
     7
370
     9
100
AcDbLine
 10
1345.686932567612
 20
650.2145135871177
 30
0.0
 11
1340.686173752157
 21
650.2145135871177
 31
0.0
  0
LINE
  5
1FC
330
1F
100
AcDbEntity
  8
D-F
  6
Continuous
 62
     7
370
     9
100
AcDbLine
 10
1345.686932567612
 20
539.641777063389
 30
0.0
 11
1345.686932567612
 21
655.2145300831057
 31
0.0
  0
LINE
  5
1FD
330
1F
100
AcDbEntity
  8
D-F
  6
Continuous
 62
     7
370
     9
100
AcDbLine
 10
1454.930377061911
 20
650.2145135871177
 30
0.0
 11
1345.686932567612
 21
650.2145135871177
 31
0.0
  0
TEXT
  5
1FE
330
1F
100
AcDbEntity
  8
D-F
  6
Continuous
 62
     2
370
     9
100
AcDbText
 10
1412.332135204331
 20
661.8544344063745
 30
0.0
 40
30.48
  1
12
 41
1.0625
  7
ＭＳ ゴシック
100
AcDbText
  0
TEXT
  5
1FF
330
1F
100
AcDbEntity
  8
D-F
  6
Continuous
 62
     2
370
     9
100
AcDbText
 10
1333.186553159885
 20
661.8544344063745
 30
0.0
 40
30.48
  1
1
 41
0.9999999999999998
  7
ＭＳ ゴシック
100
AcDbText
  0
TEXT
  5
200
330
1F
100
AcDbEntity
  8
D-F
  6
Continuous
 62
     2
370
     9
100
AcDbText
 10
1234.714386840734
 20
661.8544344063745
 30
0.0
 40
30.48
  1
12
 41
1.0625
  7
ＭＳ ゴシック
100
AcDbText
  0
TEXT
  5
201
330
1F
100
AcDbEntity
  8
D-F
  6
Continuous
 62
     2
370
     9
100
AcDbText
 10
861.936965559589
 20
661.8544344063745
 30
0.0
 40
30.48
  1
φ32
 41
1.09375
  7
ＭＳ ゴシック
100
AcDbText
  0
LWPOLYLINE
  5
202
330
1F
100
AcDbEntity
  8
D-F
  6
Continuous
 62
     7
370
     9
100
AcDbPolyline
 90
        4
 70
     1
 43
2.0
 10
1675.377217129337
 20
524.641727575425
 42
0.4142135623731
 10
1674.377217129338
 20
525.641727575425
 42
0.4142135623731
 10
1673.377217129338
 20
524.641727575425
 42
0.4142135623731
 10
1674.377217129338
 20
523.641727575425
 42
0.4142135623731
  0
LINE
  5
203
330
1F
100
AcDbEntity
  8
D-F
  6
Continuous
 62
     7
370
     9
100
AcDbLine
 10
1420.687226196203
 20
524.641727575425
 30
0.0
 11
1679.377233625326
 21
524.641727575425
 31
0.0
  0
TEXT
  5
204
330
1F
100
AcDbEntity
  8
D-5
  6
Continuous
 62
     7
370
     9
100
AcDbText
 10
1612.155192742435
 20
638.0950111534265
 30
0.0
 40
22.86
  1
受枠：ｔ＝３．２
 41
1.145833333333333
  7
ＭＳ ゴシック
100
AcDbText
  0
TEXT
  5
205
330
1F
100
AcDbEntity
  8
D-5
  6
Continuous
 62
     7
370
     9
100
AcDbText
 10
-86.19528872414008
 20
590.7625216548935
 30
0.0
 40
22.86
  1
（ＳＵＳ３０４）
 41
1.145833333333333
  7
ＭＳ ゴシック
100
AcDbText
  0
TEXT
  5
206
330
1F
100
AcDbEntity
  8
D-5
  6
Continuous
 62
     7
370
     9
100
AcDbText
 10
-72.63479543552563
 20
635.6717517905203
 30
0.0
 40
22.86
  1
モルタル止め：ｔ＝１．０
 41
1.152777777777778
  7
ＭＳ ゴシック
100
AcDbText
  0
LINE
  5
207
330
1F
100
AcDbEntity
  8
D-5
  6
Continuous
 62
     7
370
     9
100
AcDbLine
 10
465.9504854515967
 20
374.6417308746277
 30
0.0
 11
456.5806816878722
 21
403.1411073262746
 31
0.0
  0
LINE
  5
208
330
1F
100
AcDbEntity
  8
D-5
  6
Continuous
 62
     7
370
     9
100
AcDbLine
 10
465.9504854515967
 20
374.6417308746277
 30
0.0
 11
449.523945386141
 21
399.744748320785
 31
0.0
  0
LINE
  5
209
330
1F
100
AcDbEntity
  8
D-5
  6
Continuous
 62
     7
370
     9
100
AcDbLine
 10
741.6391671032437
 20
622.4375245581895
 30
0.0
 11
825.6864211919998
 21
447.7964825249453
 31
0.0
  0
LINE
  5
20A
330
1F
100
AcDbEntity
  8
D-5
  6
Continuous
 62
     7
370
     9
100
AcDbLine
 10
825.6864211919998
 20
447.7964825249453
 30
0.0
 11
816.3166174282753
 21
476.2958589765922
 31
0.0
  0
LINE
  5
20B
330
1F
100
AcDbEntity
  8
D-5
  6
Continuous
 62
     7
370
     9
100
AcDbLine
 10
825.6864211919998
 20
447.7964825249453
 30
0.0
 11
809.2598811265441
 21
472.8994999711026
 31
0.0
  0
LINE
  5
20C
330
1F
100
AcDbEntity
  8
D-5
  6
Continuous
 62
     7
370
     9
100
AcDbLine
 10
741.6391671032437
 20
622.4375245581895
 30
0.0
 11
468.3844426522296
 21
622.4375245581895
 31
0.0
  0
TEXT
  5
20D
330
1F
100
AcDbEntity
  8
D-5
  6
Continuous
 62
     7
370
     9
100
AcDbText
 10
483.8875113319176
 20
636.5062267858077
 30
0.0
 40
22.86
  1
把手
 41
1.083333333333333
  7
ＭＳ ゴシック
100
AcDbText
  0
TEXT
  5
20E
330
1F
100
AcDbEntity
  8
D-5
  6
Continuous
 62
     7
370
     9
100
AcDbText
 10
463.4437704737033
 20
593.4294280632566
 30
0.0
 40
22.86
  1
（ＳＵＳ３０４）
 41
1.145833333333338
  7
ＭＳ ゴシック
100
AcDbText
  0
LINE
  5
20F
330
1F
100
AcDbEntity
  8
D-3
  6
JWW_DASHED1
 62
     4
370
     9
100
AcDbLine
 10
480.6869325676195
 20
370.3116038557073
 30
0.0
 11
330.6869325676195
 21
370.3116038557073
 31
0.0
  0
LINE
  5
210
330
1F
100
AcDbEntity
  8
D-3
  6
Continuous
 62
     4
370
     9
100
AcDbLine
 10
480.6869325676195
 20
329.6419288265134
 30
0.0
 11
330.6869325676195
 21
329.6419288265134
 31
0.0
  0
LINE
  5
211
330
1F
100
AcDbEntity
  8
D-3
  6
Continuous
 62
     4
370
     9
100
AcDbLine
 10
480.6869325676195
 20
324.6419288265134
 30
0.0
 11
330.6869325676195
 21
324.6419288265134
 31
0.0
  0
LINE
  5
212
330
1F
100
AcDbEntity
  8
D-3
  6
Continuous
 62
     4
370
     9
100
AcDbLine
 10
480.6869325676195
 20
374.6417308746277
 30
0.0
 11
480.6869325676195
 21
324.6419288265134
 31
0.0
  0
LINE
  5
213
330
1F
100
AcDbEntity
  8
D-3
  6
Continuous
 62
     4
370
     9
100
AcDbLine
 10
480.6869325676195
 20
374.6417308746277
 30
0.0
 11
330.6869325676195
 21
374.6417308746277
 31
0.0
  0
LINE
  5
214
330
1F
100
AcDbEntity
  8
D-3
  6
Continuous
 62
     4
370
     9
100
AcDbLine
 10
330.6869325676195
 20
374.6417308746277
 30
0.0
 11
330.6869325676195
 21
324.6419288265134
 31
0.0
  0
LINE
  5
215
330
1F
100
AcDbEntity
  8
D-9
  6
Continuous
 62
   211
370
     5
100
AcDbLine
 10
1253.187130519505
 20
294.6419288264952
 30
0.0
 11
247.5336679284058
 21
294.6419288264952
 31
0.0
  0
LINE
  5
216
330
1F
100
AcDbEntity
  8
D-3
  6
Continuous
 62
     4
370
     9
100
AcDbLine
 10
1280.687229495411
 20
524.6419288265134
 30
0.0
 11
240.6869325676195
 21
524.6419288265134
 31
0.0
  0
LINE
  5
217
330
1F
100
AcDbEntity
  8
D-5
  6
Continuous
 62
     7
370
     9
100
AcDbLine
 10
1376.686734615756
 20
404.209676362402
 30
0.0
 11
1394.738211996456
 21
428.1708827470093
 31
0.0
  0
LINE
  5
218
330
1F
100
AcDbEntity
  8
D-5
  6
Continuous
 62
     7
370
     9
100
AcDbLine
 10
1376.686734615756
 20
404.209676362402
 30
0.0
 11
1400.324660872089
 21
422.6825437610504
 31
0.0
  0
LINE
  5
219
330
1F
100
AcDbEntity
  8
D-5
  6
Continuous
 62
     7
370
     9
100
AcDbLine
 10
1590.209548673074
 20
621.5454772640682
 30
0.0
 11
1376.686734615756
 21
404.209676362402
 31
0.0
  0
TEXT
  5
21A
330
1F
100
AcDbEntity
  8
D-5
  6
Continuous
 62
     7
370
     9
100
AcDbText
 10
1598.541859376318
 20
589.9308496774973
 30
0.0
 40
22.86
  1
（ＳＰＨＣ）
 41
1.138888888888889
  7
ＭＳ ゴシック
100
AcDbText
  0
LINE
  5
21B
330
1F
100
AcDbEntity
  8
D-5
  6
Continuous
 62
     7
370
     9
100
AcDbLine
 10
1891.773120912305
 20
621.5454772640682
 30
0.0
 11
1590.209548673074
 21
621.5454772640682
 31
0.0
  0
LINE
  5
21C
330
1F
100
AcDbEntity
  8
D-5
  6
Continuous
 62
     7
370
     9
100
AcDbLine
 10
1850.004754724256
 20
734.0535136290566
 30
0.0
 11
1568.551032018626
 21
734.0535136290566
 31
0.0
  0
TEXT
  5
21D
330
1F
100
AcDbEntity
  8
D-5
  6
Continuous
 62
     7
370
     9
100
AcDbText
 10
1572.884185295705
 20
746.2773045391071
 30
0.0
 40
22.86
  1
Ｌ１２×１５×３
 41
1.145833333333333
  7
ＭＳ ゴシック
100
AcDbText
  0
TEXT
  5
21E
330
1F
100
AcDbEntity
  8
D-5
  6
Continuous
 62
     7
370
     9
100
AcDbText
 10
1572.884185295705
 20
787.6034124294142
 30
0.0
 40
22.86
  1
ステンレス目地
 41
1.142857142857143
  7
ＭＳ ゴシック
100
AcDbText
  0
TEXT
  5
21F
330
1F
100
AcDbEntity
  8
D-5
  6
Continuous
 62
     7
370
     9
100
AcDbText
 10
1567.135457620025
 20
703.4358210878827
 30
0.0
 40
22.86
  1
（ＳＵＳ３０４）
 41
1.145833333333333
  7
ＭＳ ゴシック
100
AcDbText
  0
ARC
  5
220
330
1F
100
AcDbEntity
  8
D-3
  6
Continuous
 62
     4
370
     9
100
AcDbCircle
 10
1355.686932567619
 20
514.641727575425
 30
0.0
 40
10.0
100
AcDbArc
 50
90.0
 51
180.0
  0
LINE
  5
221
330
1F
100
AcDbEntity
  8
D-3
  6
Continuous
 62
     4
370
     9
100
AcDbLine
 10
1345.686932567619
 20
514.641727575425
 30
0.0
 11
1345.686932567619
 21
449.6414801355906
 31
0.0
  0
LINE
  5
222
330
1F
100
AcDbEntity
  8
D-3
  6
Continuous
 62
     4
370
     9
100
AcDbLine
 10
1355.686932567619
 20
524.641727575425
 30
0.0
 11
1405.686883079648
 21
524.641727575425
 31
0.0
  0
LINE
  5
223
330
1F
100
AcDbEntity
  8
D-3
  6
Continuous
 62
     4
370
     9
100
AcDbLine
 10
1360.686734615752
 20
449.6414801355906
 30
0.0
 11
1345.686932567619
 21
449.6414801355906
 31
0.0
  0
LINE
  5
224
330
1F
100
AcDbEntity
  8
D-3
  6
Continuous
 62
     4
370
     9
100
AcDbLine
 10
1360.686734615752
 20
449.6414801355906
 30
0.0
 11
1360.686734615752
 21
509.6419255272787
 31
0.0
  0
LINE
  5
225
330
1F
100
AcDbEntity
  8
D-3
  6
Continuous
 62
     4
370
     9
100
AcDbLine
 10
1405.686883079648
 20
509.6419255272787
 30
0.0
 11
1360.686734615752
 21
509.6419255272787
 31
0.0
  0
LINE
  5
226
330
1F
100
AcDbEntity
  8
D-3
  6
Continuous
 62
     4
370
     9
100
AcDbLine
 10
1405.686883079648
 20
524.641727575425
 30
0.0
 11
1405.686883079648
 21
509.6419255272787
 31
0.0
  0
LINE
  5
227
330
1F
100
AcDbEntity
  8
D-9
  6
Continuous
 62
   211
370
     5
100
AcDbLine
 10
1253.187130519505
 20
-30.3580711735048
 30
0.0
 11
1253.187130519505
 21
294.6419288264952
 31
0.0
  0
LINE
  5
228
330
1F
100
AcDbEntity
  8
D-8
  6
Continuous
 62
    30
370
     5
100
AcDbLine
 10
1283.187130519505
 20
294.6419288264952
 30
0.0
 11
1283.187130519496
 21
-30.3580711735048
 31
0.0
  0
LINE
  5
229
330
1F
100
AcDbEntity
  8
D-8
  6
Continuous
 62
    30
370
     5
100
AcDbLine
 10
1253.187130519505
 20
294.6419288264952
 30
0.0
 11
1253.187130519505
 21
-30.3580711735048
 31
0.0
  0
LINE
  5
22A
330
1F
100
AcDbEntity
  8
D-C
  6
Continuous
 62
     2
370
     9
100
AcDbLine
 10
985.6874439432664
 20
324.6419288265134
 30
0.0
 11
940.6865531598902
 21
324.6419288265134
 31
0.0
  0
LINE
  5
22B
330
1F
100
AcDbEntity
  8
D-C
  6
Continuous
 62
     2
370
     9
100
AcDbLine
 10
825.6864211919998
 20
324.6419288265134
 30
0.0
 11
870.6873119753487
 21
324.6419288265134
 31
0.0
  0
LINE
  5
22C
330
1F
100
AcDbEntity
  8
D-2
  6
Continuous
 62
     3
370
     9
100
AcDbLine
 10
950.6861902481666
 20
324.6419288265134
 30
0.0
 11
950.6861902481666
 21
294.6419288265179
 31
0.0
  0
LINE
  5
22D
330
1F
100
AcDbEntity
  8
D-2
  6
Continuous
 62
     3
370
     9
100
AcDbLine
 10
860.6861902481575
 20
324.6419288265134
 30
0.0
 11
860.6861902481575
 21
294.6419288265179
 31
0.0
  0
LINE
  5
22E
330
1F
100
AcDbEntity
  8
D-C
  6
Continuous
 62
     2
370
     9
100
AcDbLine
 10
940.6865531598902
 20
399.6417308746277
 30
0.0
 11
870.6873119753487
 21
399.6417308746277
 31
0.0
  0
LINE
  5
22F
330
1F
100
AcDbEntity
  8
D-C
  6
Continuous
 62
     2
370
     9
100
AcDbLine
 10
945.6873119753487
 20
394.6414669388151
 30
0.0
 11
865.687542919182
 21
394.6414669388151
 31
0.0
  0
LINE
  5
230
330
1F
100
AcDbEntity
  8
D-C
  6
Continuous
 62
     2
370
     9
100
AcDbLine
 10
945.6873119753487
 20
394.6414669388151
 30
0.0
 11
940.6865531598902
 21
399.6417308746277
 31
0.0
  0
LINE
  5
231
330
1F
100
AcDbEntity
  8
D-C
  6
Continuous
 62
     2
370
     9
100
AcDbLine
 10
870.6873119753487
 20
399.6417308746277
 30
0.0
 11
865.687542919182
 21
394.6414669388151
 31
0.0
  0
LINE
  5
232
330
1F
100
AcDbEntity
  8
D-9
  6
Continuous
 62
   211
370
     5
100
AcDbLine
 10
845.7295417050733
 20
224.7613267888983
 30
0.0
 11
836.1862826256817
 21
230.2698321204071
 31
0.0
  0
LINE
  5
233
330
1F
100
AcDbEntity
  8
D-9
  6
Continuous
 62
   211
370
     5
100
AcDbLine
 10
836.1862826256817
 20
274.6417308746277
 30
0.0
 11
836.1862826256817
 21
230.2698321204071
 31
0.0
  0
LINE
  5
234
330
1F
100
AcDbEntity
  8
D-9
  6
Continuous
 62
   211
370
     5
100
AcDbLine
 10
965.6868830796662
 20
224.6405761554525
 30
0.0
 11
975.1870876299068
 21
230.1263170232733
 31
0.0
  0
LINE
  5
235
330
1F
100
AcDbEntity
  8
D-9
  6
Continuous
 62
   211
370
     5
100
AcDbLine
 10
975.1870876299068
 20
274.6417308746277
 30
0.0
 11
975.1870876299068
 21
230.1263170232733
 31
0.0
  0
LINE
  5
236
330
1F
100
AcDbEntity
  8
D-9
  6
Continuous
 62
   211
370
     5
100
AcDbLine
 10
965.6868830796662
 20
224.6405761554525
 30
0.0
 11
845.9364013968076
 21
224.6405761554525
 31
0.0
  0
LINE
  5
237
330
1F
100
AcDbEntity
  8
D-9
  6
Continuous
 62
   211
370
     5
100
AcDbLine
 10
945.6873119753487
 20
230.1263170232733
 30
0.0
 11
945.6873119753487
 21
274.6417308746277
 31
0.0
  0
LINE
  5
238
330
1F
100
AcDbEntity
  8
D-9
  6
Continuous
 62
   211
370
     5
100
AcDbLine
 10
865.687542919182
 20
230.1263170232733
 30
0.0
 11
865.687542919182
 21
274.6417308746277
 31
0.0
  0
ARC
  5
239
330
1F
100
AcDbEntity
  8
D-9
  6
Continuous
 62
   211
370
     5
100
AcDbCircle
 10
905.6861902481575
 20
373.2390770000484
 30
0.0
 40
148.5985781695392
100
AcDbArc
 50
254.3844604492188
 51
285.6155395507812
  0
ARC
  5
23A
330
1F
100
AcDbEntity
  8
D-9
  6
Continuous
 62
   211
370
     5
100
AcDbCircle
 10
964.3977216037234
 20
259.148038940507
 30
0.0
 40
34.53062160595044
100
AcDbArc
 50
237.1890563964843
 51
272.1394500732421
  0
ARC
  5
23B
330
1F
100
AcDbEntity
  8
D-9
  6
Continuous
 62
   211
370
     5
100
AcDbCircle
 10
846.9756486518742
 20
259.148038940507
 30
0.0
 40
34.53062160595044
100
AcDbArc
 50
267.8605499267578
 51
302.8109436035156
  0
LINE
  5
23C
330
1F
100
AcDbEntity
  8
D-C
  6
Continuous
 62
     2
370
     9
100
AcDbLine
 10
940.6865531598902
 20
294.6419288265179
 30
0.0
 11
940.6865531598902
 21
509.6422917382507
 31
0.0
  0
LINE
  5
23D
330
1F
100
AcDbEntity
  8
D-C
  6
Continuous
 62
     2
370
     9
100
AcDbLine
 10
945.6873119753487
 20
294.6419288265179
 30
0.0
 11
945.6873119753487
 21
483.4201039743176
 31
0.0
  0
LINE
  5
23E
330
1F
100
AcDbEntity
  8
D-C
  6
Continuous
 62
     2
370
     9
100
AcDbLine
 10
865.687542919182
 20
294.6419288265179
 30
0.0
 11
865.687542919182
 21
509.6422917382507
 31
0.0
  0
LINE
  5
23F
330
1F
100
AcDbEntity
  8
D-C
  6
Continuous
 62
     2
370
     9
100
AcDbLine
 10
870.6873119753487
 20
294.6419288265179
 30
0.0
 11
870.6873119753487
 21
509.6422917382507
 31
0.0
  0
LINE
  5
240
330
1F
100
AcDbEntity
  8
D-C
  6
Continuous
 62
     2
370
     9
100
AcDbLine
 10
963.1867511117485
 20
509.6422917382507
 30
0.0
 11
848.186619143849
 21
509.6422917382507
 31
0.0
  0
LINE
  5
241
330
1F
100
AcDbEntity
  8
D-C
  6
Continuous
 62
     2
370
     9
100
AcDbLine
 10
945.6873119753487
 20
483.4201039743176
 30
0.0
 11
945.6873119753487
 21
509.6422917382507
 31
0.0
  0
LINE
  5
242
330
1F
100
AcDbEntity
  8
D-C
  6
Continuous
 62
     2
370
     9
100
AcDbLine
 10
945.6873119753487
 20
464.6423907141844
 30
0.0
 11
865.687542919182
 21
464.6423907141844
 31
0.0
  0
LINE
  5
243
330
1F
100
AcDbEntity
  8
D-C
  6
Continuous
 62
     2
370
     9
100
AcDbLine
 10
945.6873119753487
 20
464.9135847597927
 30
0.0
 11
940.6865531598902
 21
459.6416318987258
 31
0.0
  0
LINE
  5
244
330
1F
100
AcDbEntity
  8
D-C
  6
Continuous
 62
     2
370
     9
100
AcDbLine
 10
870.6873119753487
 20
459.6416318987258
 30
0.0
 11
865.687542919182
 21
464.6423907141844
 31
0.0
  0
LINE
  5
245
330
1F
100
AcDbEntity
  8
D-C
  6
Continuous
 62
     2
370
     9
100
AcDbLine
 10
940.6865531598902
 20
459.6416318987258
 30
0.0
 11
870.6873119753487
 21
459.6416318987258
 31
0.0
  0
LINE
  5
246
330
1F
100
AcDbEntity
  8
D-C
  6
Continuous
 62
     2
370
     9
100
AcDbLine
 10
963.1867511117485
 20
499.6417638666299
 30
0.0
 11
945.6873119753487
 21
499.6417638666299
 31
0.0
  0
LINE
  5
247
330
1F
100
AcDbEntity
  8
D-C
  6
Continuous
 62
     2
370
     9
100
AcDbLine
 10
865.687542919182
 20
499.6417638666299
 30
0.0
 11
848.186619143849
 21
499.6417638666299
 31
0.0
  0
LINE
  5
248
330
1F
100
AcDbEntity
  8
D-C
  6
Continuous
 62
     2
370
     9
100
AcDbLine
 10
863.6921881894483
 20
499.6417638666299
 30
0.0
 11
853.6921551974734
 21
509.6422917382507
 31
0.0
  0
LINE
  5
249
330
1F
100
AcDbEntity
  8
D-C
  6
Continuous
 62
     2
370
     9
100
AcDbLine
 10
948.5447470471405
 20
499.6417638666299
 30
0.0
 11
945.6873119753487
 21
502.4996938180676
 31
0.0
  0
LINE
  5
24A
330
1F
100
AcDbEntity
  8
D-C
  6
Continuous
 62
     2
370
     9
100
AcDbLine
 10
963.1867511117485
 20
506.2132706761759
 30
0.0
 11
959.7577300496829
 21
509.6422917382507
 31
0.0
  0
LINE
  5
24B
330
1F
100
AcDbEntity
  8
D-C
  6
Continuous
 62
     2
370
     9
100
AcDbLine
 10
853.0859276320149
 20
499.6417638666299
 30
0.0
 11
848.186619143849
 21
504.540577475159
 31
0.0
  0
LINE
  5
24C
330
1F
100
AcDbEntity
  8
D-C
  6
Continuous
 62
     2
370
     9
100
AcDbLine
 10
865.687542919182
 20
508.253659453626
 30
0.0
 11
864.2989106345573
 21
509.6422917382507
 31
0.0
  0
LINE
  5
24D
330
1F
100
AcDbEntity
  8
D-C
  6
Continuous
 62
     2
370
     9
100
AcDbLine
 10
959.1519973638748
 20
499.6417638666299
 30
0.0
 11
949.1524592515412
 21
509.6422917382507
 31
0.0
  0
LINE
  5
24E
330
1F
100
AcDbEntity
  8
D-C
  6
Continuous
 62
     2
370
     9
100
AcDbLine
 10
825.6864211919998
 20
324.6419288265134
 30
0.0
 11
825.6864211919998
 21
524.6425886660428
 31
0.0
  0
LINE
  5
24F
330
1F
100
AcDbEntity
  8
D-C
  6
Continuous
 62
     2
370
     9
100
AcDbLine
 10
848.186619143849
 20
522.1424566981342
 30
0.0
 11
845.6859921983374
 21
524.6425886660428
 31
0.0
  0
LINE
  5
250
330
1F
100
AcDbEntity
  8
D-C
  6
Continuous
 62
     2
370
     9
100
AcDbLine
 10
848.186619143849
 20
499.6417638666299
 30
0.0
 11
848.186619143849
 21
524.6425886660428
 31
0.0
  0
LINE
  5
251
330
1F
100
AcDbEntity
  8
D-C
  6
Continuous
 62
     2
370
     9
100
AcDbLine
 10
963.1867511117485
 20
499.6417638666299
 30
0.0
 11
963.1867511117485
 21
524.6425886660428
 31
0.0
  0
LINE
  5
252
330
1F
100
AcDbEntity
  8
D-C
  6
Continuous
 62
     2
370
     9
100
AcDbLine
 10
965.6873780572784
 20
524.6425886660428
 30
0.0
 11
963.1867511117485
 21
522.1424566981342
 31
0.0
  0
LINE
  5
253
330
1F
100
AcDbEntity
  8
D-C
  6
Continuous
 62
     2
370
     9
100
AcDbLine
 10
985.6874439432664
 20
324.6419288265134
 30
0.0
 11
985.6874439432664
 21
524.6425886660428
 31
0.0
  0
LINE
  5
254
330
1F
100
AcDbEntity
  8
D-C
  6
Continuous
 62
     2
370
     9
100
AcDbLine
 10
985.6874439432664
 20
524.6425886660428
 30
0.0
 11
965.6873780572784
 21
524.6425886660428
 31
0.0
  0
LINE
  5
255
330
1F
100
AcDbEntity
  8
D-C
  6
Continuous
 62
     2
370
     9
100
AcDbLine
 10
825.6864211919998
 20
524.6425886660428
 30
0.0
 11
845.6859921983374
 21
524.6425886660428
 31
0.0
  0
LINE
  5
256
330
1F
100
AcDbEntity
  8
D-C
  6
JWW_HOJO
 62
   211
370
     5
100
AcDbLine
 10
946.1861902481866
 20
294.6417308746232
 30
0.0
 11
946.1861902481866
 21
274.6417308746277
 31
0.0
  0
LINE
  5
257
330
1F
100
AcDbEntity
  8
D-C
  6
JWW_HOJO
 62
   211
370
     5
100
AcDbLine
 10
865.1861902481829
 20
294.6417308746232
 30
0.0
 11
865.1861902481829
 21
274.6417308746277
 31
0.0
  0
LINE
  5
258
330
1F
100
AcDbEntity
  8
D-C
  6
Continuous
 62
   211
370
     5
100
AcDbLine
 10
975.6861902481938
 20
294.6417308746232
 30
0.0
 11
975.6861902481938
 21
274.6417308746277
 31
0.0
  0
LINE
  5
259
330
1F
100
AcDbEntity
  8
D-C
  6
Continuous
 62
   211
370
     5
100
AcDbLine
 10
835.6861902481756
 20
274.6417308746277
 30
0.0
 11
975.6861902481938
 21
274.6417308746277
 31
0.0
  0
LINE
  5
25A
330
1F
100
AcDbEntity
  8
D-C
  6
Continuous
 62
   211
370
     5
100
AcDbLine
 10
835.6861902481756
 20
294.6417308746232
 30
0.0
 11
835.6861902481756
 21
274.6417308746277
 31
0.0
  0
LINE
  5
25B
330
1F
100
AcDbEntity
  8
D-C
  6
Continuous
 62
   211
370
     5
100
AcDbLine
 10
835.6861902481756
 20
294.6417308746232
 30
0.0
 11
975.6861902481938
 21
294.6417308746232
 31
0.0
  0
LINE
  5
25C
330
1F
100
AcDbEntity
  8
D-C
  6
JWW_CENTER1
 62
     2
370
     9
100
AcDbLine
 10
905.6869325676195
 20
552.317835491108
 30
0.0
 11
905.6869325676195
 21
199.0107356764793
 31
0.0
  0
LINE
  5
25D
330
1F
100
AcDbEntity
  8
D-8
  6
Continuous
 62
    30
370
     5
100
AcDbLine
 10
1253.187130519505
 20
294.6419288264952
 30
0.0
 11
1283.187130519505
 21
294.6419288264952
 31
0.0
  0
LINE
  5
25E
330
1F
100
AcDbEntity
  8
D-3
  6
Continuous
 62
     4
370
     9
100
AcDbLine
 10
1280.687229495411
 20
509.6421267783444
 30
0.0
 11
1325.687130519496
 21
509.6421267783444
 31
0.0
  0
LINE
  5
25F
330
1F
100
AcDbEntity
  8
D-3
  6
Continuous
 62
     4
370
     9
100
AcDbLine
 10
1325.687130519496
 20
449.6416813866563
 30
0.0
 11
1340.686932567619
 21
449.6416813866563
 31
0.0
  0
LINE
  5
260
330
1F
100
AcDbEntity
  8
D-3
  6
Continuous
 62
     4
370
     9
100
AcDbLine
 10
1280.687229495411
 20
524.6419288265134
 30
0.0
 11
1280.687229495411
 21
509.6421267783444
 31
0.0
  0
LINE
  5
261
330
1F
100
AcDbEntity
  8
D-3
  6
Continuous
 62
     4
370
     9
100
AcDbLine
 10
1330.686932567628
 20
524.6419288265134
 30
0.0
 11
1280.687229495411
 21
524.6419288265134
 31
0.0
  0
LINE
  5
262
330
1F
100
AcDbEntity
  8
D-3
  6
Continuous
 62
     4
370
     9
100
AcDbLine
 10
1340.686932567619
 20
514.641928826477
 30
0.0
 11
1340.686932567619
 21
449.6416813866563
 31
0.0
  0
ARC
  5
263
330
1F
100
AcDbEntity
  8
D-3
  6
Continuous
 62
     4
370
     9
100
AcDbCircle
 10
1330.686932567628
 20
514.641928826477
 30
0.0
 40
10.0
100
AcDbArc
 50
0.0
 51
90.0
  0
LINE
  5
264
330
1F
100
AcDbEntity
  8
D-3
  6
Continuous
 62
     4
370
     9
100
AcDbLine
 10
1325.687130519496
 20
509.6421267783444
 30
0.0
 11
1325.687130519496
 21
449.6416813866563
 31
0.0
  0
LINE
  5
265
330
1F
100
AcDbEntity
  8
D-C
  6
Continuous
 62
     2
370
     9
100
AcDbLine
 10
963.1867511117485
 20
524.6420937863969
 30
0.0
 11
848.186619143849
 21
524.6420937863969
 31
0.0
  0
LINE
  5
266
330
1F
100
AcDbEntity
  8
D-5
  6
Continuous
 62
     7
370
     9
100
AcDbLine
 10
370.4039047229645
 20
-145.1803192507253
 30
0.0
 11
-29.26396325853489
 21
-145.1803192507253
 31
0.0
  0
TEXT
  5
267
330
1F
100
AcDbEntity
  8
D-5
  6
Continuous
 62
     7
370
     9
100
AcDbText
 10
-35.79470681425164
 20
-177.067254362106
 30
0.0
 40
22.86
  1
（ＳＰＨＣ）
 41
1.138888888888889
  7
ＭＳ ゴシック
100
AcDbText
  0
TEXT
  5
268
330
1F
100
AcDbEntity
  8
D-5
  6
Continuous
 62
     7
370
     9
100
AcDbText
 10
-25.74674818824803
 20
-131.7084418753029
 30
0.0
 40
22.86
  1
蓋プレート：ｔ＝６．０
 41
1.151515151515152
  7
ＭＳ ゴシック
100
AcDbText
  0
LINE
  5
269
330
1F
100
AcDbEntity
  8
D-5
  6
Continuous
 62
     7
370
     9
100
AcDbLine
 10
458.3236834660815
 20
-269.56270901646
 30
0.0
 11
569.8666379584447
 21
-30.3580711735048
 31
0.0
  0
LINE
  5
26A
330
1F
100
AcDbEntity
  8
D-5
  6
Continuous
 62
     7
370
     9
100
AcDbLine
 10
569.8666379584447
 20
-30.3580711735048
 30
0.0
 11
556.4341477497737
 21
-51.44285731882682
 31
0.0
  0
LINE
  5
26B
330
1F
100
AcDbEntity
  8
D-5
  6
Continuous
 62
     7
370
     9
100
AcDbLine
 10
569.8666379584447
 20
-30.3580711735048
 30
0.0
 11
562.3489929708378
 21
-54.20099494221056
 31
0.0
  0
TEXT
  5
26C
330
1F
100
AcDbEntity
  8
D-5
  6
Continuous
 62
     7
370
     9
100
AcDbText
 10
212.1067147363536
 20
-304.378836748196
 30
0.0
 40
22.86
  1
（ＳＳ４００）
 41
1.142857142857148
  7
ＭＳ ゴシック
100
AcDbText
  0
TEXT
  5
26D
330
1F
100
AcDbEntity
  8
D-5
  6
Continuous
 62
     7
370
     9
100
AcDbText
 10
222.3070846495932
 20
-253.8559551629976
 30
0.0
 40
22.86
  1
補強材
 41
1.111111111111111
  7
ＭＳ ゴシック
100
AcDbText
  0
LINE
  5
26E
330
1F
100
AcDbEntity
  8
D-5
  6
Continuous
 62
     7
370
     9
100
AcDbLine
 10
458.3236834660815
 20
-269.56270901646
 30
0.0
 11
222.3070846495932
 21
-269.56270901646
 31
0.0
  0
LINE
  5
26F
330
1F
100
AcDbEntity
  8
D-5
  6
Continuous
 62
     7
370
     9
100
AcDbLine
 10
598.233113869598
 20
-418.1420915012961
 30
0.0
 11
181.2479734619927
 21
-418.1420915012961
 31
0.0
  0
TEXT
  5
270
330
1F
100
AcDbEntity
  8
D-5
  6
Continuous
 62
     7
370
     9
100
AcDbText
 10
187.7762036465691
 20
-368.5589553409215
 30
0.0
 40
22.86
  1
六角ボルト：Ｍ１６×２５
 41
1.152777777777778
  7
ＭＳ ゴシック
100
AcDbText
  0
TEXT
  5
271
330
1F
100
AcDbEntity
  8
D-5
  6
Continuous
 62
     7
370
     9
100
AcDbText
 10
186.7290326971187
 20
-405.2805891902551
 30
0.0
 40
22.86
  1
ばね座金
 41
1.125
  7
ＭＳ ゴシック
100
AcDbText
  0
TEXT
  5
272
330
1F
100
AcDbEntity
  8
D-5
  6
Continuous
 62
     7
370
     9
100
AcDbText
 10
178.4671592323201
 20
-450.8398449118101
 30
0.0
 40
22.86
  1
（ＳＵＳ３０４）
 41
1.145833333333333
  7
ＭＳ ゴシック
100
AcDbText
  0
LINE
  5
273
330
1F
100
AcDbEntity
  8
D-5
  6
Continuous
 62
     7
370
     9
100
AcDbLine
 10
598.233113869598
 20
-418.1420915012961
 30
0.0
 11
897.9675943272391
 21
224.6405761554525
 31
0.0
  0
LINE
  5
274
330
1F
100
AcDbEntity
  8
D-5
  6
Continuous
 62
     7
370
     9
100
AcDbLine
 10
897.9675943272395
 20
224.640576155453
 30
0.0
 11
890.4499493396327
 21
200.7976523867472
 31
0.0
  0
LINE
  5
275
330
1F
100
AcDbEntity
  8
D-5
  6
Continuous
 62
     7
370
     9
100
AcDbLine
 10
897.9675943272395
 20
224.640576155453
 30
0.0
 11
884.5351041185686
 21
203.555790010131
 31
0.0
  0
LINE
  5
276
330
1F
100
AcDbEntity
  8
D-5
  6
Continuous
 62
     7
370
     9
100
AcDbLine
 10
370.4039047229645
 20
-145.1803192507253
 30
0.0
 11
575.4963872283201
 21
294.6419288264952
 31
0.0
  0
LINE
  5
277
330
1F
100
AcDbEntity
  8
D-5
  6
Continuous
 62
     7
370
     9
100
AcDbLine
 10
575.4963872283201
 20
294.6419288264952
 30
0.0
 11
562.0638970196495
 21
273.5571426811732
 31
0.0
  0
LINE
  5
278
330
1F
100
AcDbEntity
  8
D-5
  6
Continuous
 62
     7
370
     9
100
AcDbLine
 10
575.4963872283201
 20
294.6419288264952
 30
0.0
 11
567.9787422407134
 21
270.7990050577894
 31
0.0
  0
LINE
  5
279
330
1F
100
AcDbEntity
  8
D-F
  6
Continuous
 62
     7
370
     9
100
AcDbLine
 10
240.6869325676195
 20
212.734431729798
 30
0.0
 11
240.6869325676195
 21
-65.78161609175929
 31
0.0
  0
LINE
  5
27A
330
1F
100
AcDbEntity
  8
D-F
  6
Continuous
 62
     7
370
     9
100
AcDbLine
 10
240.6869325676195
 20
550.0831846481772
 30
0.0
 11
240.6869325676195
 21
281.5494259232105
 31
0.0
  0
LINE
  5
27B
330
1F
100
AcDbEntity
  8
D-F
  6
Continuous
 62
     7
370
     9
100
AcDbLine
 10
275.094924543971
 20
281.5494259232105
 30
0.0
 11
206.2799303505591
 21
212.734431729798
 31
0.0
  0
LINE
  5
27C
330
1F
100
AcDbEntity
  8
D-F
  6
Continuous
 62
     7
370
     9
100
AcDbLine
 10
240.6869325676195
 20
281.5494259232105
 30
0.0
 11
275.094924543971
 21
281.5494259232105
 31
0.0
  0
LINE
  5
27D
330
1F
100
AcDbEntity
  8
D-F
  6
Continuous
 62
     7
370
     9
100
AcDbLine
 10
240.6869325676195
 20
212.734431729798
 30
0.0
 11
206.2799303505591
 21
212.734431729798
 31
0.0
  0
LINE
  5
27E
330
1F
100
AcDbEntity
  8
D-2
  6
Continuous
 62
     3
370
     9
100
AcDbLine
 10
240.6869325676195
 20
294.6419288264952
 30
0.0
 11
1265.687130519505
 21
294.6419288264952
 31
0.0
  0
LINE
  5
27F
330
1F
100
AcDbEntity
  8
D-F
  6
Continuous
 62
     7
370
     9
100
AcDbLine
 10
89.29782700792089
 20
294.6419288264952
 30
0.0
 11
220.6869325676195
 21
294.6419288264952
 31
0.0
  0
TEXT
  5
280
330
1F
100
AcDbEntity
  8
D-F
  6
Continuous
 62
     2
370
     9
100
AcDbText
 10
240.6869160716315
 20
-531.1959508424418
 30
0.0
 40
30.48
  1
700
 41
1.083333333333333
  7
ＭＳ ゴシック
100
AcDbText
  0
TEXT
  5
281
330
1F
100
AcDbEntity
  8
D-F
  6
Continuous
 62
     2
370
     9
100
AcDbText
 10
240.6869160716315
 20
896.3061783643765
 30
0.0
 40
30.48
  1
792
 41
1.083333333333333
  7
ＭＳ ゴシック
100
AcDbText
  0
LINE
  5
282
330
1F
100
AcDbEntity
  8
建具
  6
Continuous
 62
     4
370
     9
100
AcDbLine
 10
-1371.14973996455
 20
820.2715614287928
 30
0.0
 11
-1371.14973996455
 21
790.2715614287928
 31
0.0
  0
LINE
  5
283
330
1F
100
AcDbEntity
  8
建具
  6
Continuous
 62
     4
370
     9
100
AcDbLine
 10
-1356.14973996455
 20
820.2715614287928
 30
0.0
 11
-1356.14973996455
 21
790.2715614287928
 31
0.0
  0
LINE
  5
284
330
1F
100
AcDbEntity
  8
建具
  6
Continuous
 62
     4
370
     9
100
AcDbLine
 10
-1386.738195164745
 20
820.2715614287928
 30
0.0
 11
-1386.738195164745
 21
790.2715614287928
 31
0.0
  0
LINE
  5
285
330
1F
100
AcDbEntity
  8
建具
  6
Continuous
 62
     4
370
     9
100
AcDbLine
 10
-1386.738195164745
 20
820.2715614287928
 30
0.0
 11
-1340.561284764354
 21
820.2715614287928
 31
0.0
  0
LINE
  5
286
330
1F
100
AcDbEntity
  8
建具
  6
Continuous
 62
     4
370
     9
100
AcDbLine
 10
-1386.738195164745
 20
790.2715614287928
 30
0.0
 11
-1340.561284764354
 21
790.2715614287928
 31
0.0
  0
LINE
  5
287
330
1F
100
AcDbEntity
  8
建具
  6
Continuous
 62
     4
370
     9
100
AcDbLine
 10
-1340.561284764354
 20
820.2715614287928
 30
0.0
 11
-1340.561284764354
 21
790.2715614287928
 31
0.0
  0
LINE
  5
288
330
1F
100
AcDbEntity
  8
建具
  6
JWW_CENTER1
 62
     4
370
     9
100
AcDbLine
 10
-1363.64973996455
 20
827.3889320342624
 30
0.0
 11
-1363.64973996455
 21
784.1498878448084
 31
0.0
  0
LINE
  5
289
330
1F
100
AcDbEntity
  8
0-C
  6
Continuous
 62
     2
370
     9
100
AcDbLine
 10
-1365.149720169358
 20
916.6733410159969
 30
0.0
 11
-1365.149720169358
 21
893.8697818415841
 31
0.0
  0
LINE
  5
28A
330
1F
100
AcDbEntity
  8
0-C
  6
Continuous
 62
     2
370
     9
100
AcDbLine
 10
-1362.149512319912
 20
916.6733410159969
 30
0.0
 11
-1362.149512319912
 21
893.8697818415841
 31
0.0
  0
CIRCLE
  5
28B
330
1F
100
AcDbEntity
  8
0-C
  6
Continuous
 62
     2
370
     9
100
AcDbCircle
 10
-1363.64973996455
 20
905.2715614287928
 30
0.0
 40
16.00000117276166
  0
CIRCLE
  5
28C
330
1F
100
AcDbEntity
  8
0-C
  6
Continuous
 62
     2
370
     9
100
AcDbCircle
 10
-1363.64973996455
 20
905.2715614287928
 30
0.0
 40
11.50000063148705
  0
CIRCLE
  5
28D
330
1F
100
AcDbEntity
  8
0-C
  6
Continuous
 62
     2
370
     9
100
AcDbCircle
 10
-1363.64973996455
 20
905.2715614287928
 30
0.0
 40
12.0000011212117
  0
LINE
  5
28E
330
1F
100
AcDbEntity
  8
0-C
  6
JWW_CENTER1
 62
     2
370
     9
100
AcDbLine
 10
-1363.649616244639
 20
874.2715581295971
 30
0.0
 11
-1363.649616244639
 21
936.2715647279884
 31
0.0
  0
LINE
  5
28F
330
1F
100
AcDbEntity
  8
0-C
  6
JWW_CENTER1
 62
     2
370
     9
100
AcDbLine
 10
-1394.649743263745
 20
905.2716851487077
 30
0.0
 11
-1332.649736665354
 21
905.2716851487077
 31
0.0
  0
LINE
  5
290
330
1F
100
AcDbEntity
  8
建具
  6
JWW_CENTER1
 62
     4
370
     9
100
AcDbLine
 10
-1393.058768397251
 20
805.2715614287928
 30
0.0
 11
-1334.240711531849
 21
805.2715614287928
 31
0.0
  0
LWPOLYLINE
  5
291
330
1F
100
AcDbEntity
  8
0-F
  6
Continuous
 62
     7
370
     9
100
AcDbPolyline
 90
        4
 70
     1
 43
2.0
 10
-1362.649616244639
 20
731.9697850123981
 42
0.4142135623731
 10
-1363.649616244639
 20
732.969785012398
 42
0.4142135623731
 10
-1364.649616244639
 20
731.9697850123981
 42
0.4142135623731
 10
-1363.649616244639
 20
730.9697850123982
 42
0.4142135623731
  0
LINE
  5
292
330
1F
100
AcDbEntity
  8
0-F
  6
Continuous
 62
     7
370
     9
100
AcDbLine
 10
-1363.649616244639
 20
728.9697850123986
 30
0.0
 11
-1363.649616244639
 21
854.2715581295971
 31
0.0
  0
LINE
  5
293
330
1F
100
AcDbEntity
  8
0-F
  6
Continuous
 62
     7
370
     9
100
AcDbLine
 10
-1273.347005515263
 20
905.2714377088779
 30
0.0
 11
-1317.472225980674
 21
905.2714377088779
 31
0.0
  0
LINE
  5
294
330
1F
100
AcDbEntity
  8
建具
  6
Continuous
 62
     4
370
     9
100
AcDbLine
 10
-1371.14973996455
 20
398.2710863443359
 30
0.0
 11
-1371.14973996455
 21
428.2710863443359
 31
0.0
  0
LINE
  5
295
330
1F
100
AcDbEntity
  8
建具
  6
Continuous
 62
     4
370
     9
100
AcDbLine
 10
-1356.14973996455
 20
398.2710863443359
 30
0.0
 11
-1356.14973996455
 21
428.2710863443359
 31
0.0
  0
LINE
  5
296
330
1F
100
AcDbEntity
  8
建具
  6
Continuous
 62
     4
370
     9
100
AcDbLine
 10
-1386.738195164745
 20
398.2710863443359
 30
0.0
 11
-1386.738195164745
 21
428.2710863443359
 31
0.0
  0
LINE
  5
297
330
1F
100
AcDbEntity
  8
建具
  6
Continuous
 62
     4
370
     9
100
AcDbLine
 10
-1386.738195164745
 20
398.2710863443359
 30
0.0
 11
-1340.561284764354
 21
398.2710863443359
 31
0.0
  0
LINE
  5
298
330
1F
100
AcDbEntity
  8
建具
  6
Continuous
 62
     4
370
     9
100
AcDbLine
 10
-1386.738195164745
 20
428.2710863443359
 30
0.0
 11
-1340.561284764354
 21
428.2710863443359
 31
0.0
  0
LINE
  5
299
330
1F
100
AcDbEntity
  8
建具
  6
Continuous
 62
     4
370
     9
100
AcDbLine
 10
-1340.561284764354
 20
398.2710863443359
 30
0.0
 11
-1340.561284764354
 21
428.2710863443359
 31
0.0
  0
LINE
  5
29A
330
1F
100
AcDbEntity
  8
建具
  6
JWW_CENTER1
 62
     4
370
     9
100
AcDbLine
 10
-1363.64973996455
 20
391.1537157388662
 30
0.0
 11
-1363.64973996455
 21
434.3927599283202
 31
0.0
  0
LINE
  5
29B
330
1F
100
AcDbEntity
  8
0-C
  6
Continuous
 62
     2
370
     9
100
AcDbLine
 10
-1365.149720169358
 20
301.8693067571317
 30
0.0
 11
-1365.149720169358
 21
324.6728659315445
 31
0.0
  0
LINE
  5
29C
330
1F
100
AcDbEntity
  8
0-C
  6
Continuous
 62
     2
370
     9
100
AcDbLine
 10
-1362.149512319912
 20
301.8693067571317
 30
0.0
 11
-1362.149512319912
 21
324.6728659315445
 31
0.0
  0
CIRCLE
  5
29D
330
1F
100
AcDbEntity
  8
0-C
  6
Continuous
 62
     2
370
     9
100
AcDbCircle
 10
-1363.64973996455
 20
313.2710863443359
 30
0.0
 40
16.00000117276166
  0
CIRCLE
  5
29E
330
1F
100
AcDbEntity
  8
0-C
  6
Continuous
 62
     2
370
     9
100
AcDbCircle
 10
-1363.64973996455
 20
313.2710863443359
 30
0.0
 40
11.50000063148704
  0
CIRCLE
  5
29F
330
1F
100
AcDbEntity
  8
0-C
  6
Continuous
 62
     2
370
     9
100
AcDbCircle
 10
-1363.64973996455
 20
313.2710863443359
 30
0.0
 40
12.00000112121169
  0
LINE
  5
2A0
330
1F
100
AcDbEntity
  8
0-C
  6
JWW_CENTER1
 62
     2
370
     9
100
AcDbLine
 10
-1363.649616244639
 20
344.2710896435315
 30
0.0
 11
-1363.649616244639
 21
282.2710830451402
 31
0.0
  0
LINE
  5
2A1
330
1F
100
AcDbEntity
  8
0-C
  6
JWW_CENTER1
 62
     2
370
     9
100
AcDbLine
 10
-1394.649743263745
 20
313.270962624421
 30
0.0
 11
-1332.649736665354
 21
313.270962624421
 31
0.0
  0
LINE
  5
2A2
330
1F
100
AcDbEntity
  8
建具
  6
JWW_CENTER1
 62
     4
370
     9
100
AcDbLine
 10
-1393.058768397251
 20
413.2710863443359
 30
0.0
 11
-1334.240711531849
 21
413.2710863443359
 31
0.0
  0
LINE
  5
2A3
330
1F
100
AcDbEntity
  8
建具
  6
Continuous
 62
     4
370
     9
100
AcDbLine
 10
-1221.14973996455
 20
820.2715614287928
 30
0.0
 11
-1221.14973996455
 21
790.2715614287928
 31
0.0
  0
LINE
  5
2A4
330
1F
100
AcDbEntity
  8
建具
  6
Continuous
 62
     4
370
     9
100
AcDbLine
 10
-1206.14973996455
 20
820.2715614287928
 30
0.0
 11
-1206.14973996455
 21
790.2715614287928
 31
0.0
  0
LINE
  5
2A5
330
1F
100
AcDbEntity
  8
建具
  6
Continuous
 62
     4
370
     9
100
AcDbLine
 10
-1236.738195164745
 20
820.2715614287928
 30
0.0
 11
-1236.738195164745
 21
790.2715614287928
 31
0.0
  0
LINE
  5
2A6
330
1F
100
AcDbEntity
  8
建具
  6
Continuous
 62
     4
370
     9
100
AcDbLine
 10
-1236.738195164745
 20
820.2715614287928
 30
0.0
 11
-1190.561284764354
 21
820.2715614287928
 31
0.0
  0
LINE
  5
2A7
330
1F
100
AcDbEntity
  8
建具
  6
Continuous
 62
     4
370
     9
100
AcDbLine
 10
-1236.738195164745
 20
790.2715614287928
 30
0.0
 11
-1190.561284764354
 21
790.2715614287928
 31
0.0
  0
LINE
  5
2A8
330
1F
100
AcDbEntity
  8
建具
  6
Continuous
 62
     4
370
     9
100
AcDbLine
 10
-1190.561284764354
 20
820.2715614287928
 30
0.0
 11
-1190.561284764354
 21
790.2715614287928
 31
0.0
  0
LINE
  5
2A9
330
1F
100
AcDbEntity
  8
建具
  6
JWW_CENTER1
 62
     4
370
     9
100
AcDbLine
 10
-1213.64973996455
 20
827.3889320342624
 30
0.0
 11
-1213.64973996455
 21
784.1498878448084
 31
0.0
  0
LINE
  5
2AA
330
1F
100
AcDbEntity
  8
0-C
  6
Continuous
 62
     2
370
     9
100
AcDbLine
 10
-1215.149720169358
 20
916.6733410159969
 30
0.0
 11
-1215.149720169358
 21
893.8697818415841
 31
0.0
  0
LINE
  5
2AB
330
1F
100
AcDbEntity
  8
0-C
  6
Continuous
 62
     2
370
     9
100
AcDbLine
 10
-1212.149512319912
 20
916.6733410159969
 30
0.0
 11
-1212.149512319912
 21
893.8697818415841
 31
0.0
  0
CIRCLE
  5
2AC
330
1F
100
AcDbEntity
  8
0-C
  6
Continuous
 62
     2
370
     9
100
AcDbCircle
 10
-1213.64973996455
 20
905.2715614287928
 30
0.0
 40
16.00000117276166
  0
CIRCLE
  5
2AD
330
1F
100
AcDbEntity
  8
0-C
  6
Continuous
 62
     2
370
     9
100
AcDbCircle
 10
-1213.64973996455
 20
905.2715614287928
 30
0.0
 40
11.50000063148705
  0
CIRCLE
  5
2AE
330
1F
100
AcDbEntity
  8
0-C
  6
Continuous
 62
     2
370
     9
100
AcDbCircle
 10
-1213.64973996455
 20
905.2715614287928
 30
0.0
 40
12.0000011212117
  0
LINE
  5
2AF
330
1F
100
AcDbEntity
  8
0-C
  6
JWW_CENTER1
 62
     2
370
     9
100
AcDbLine
 10
-1213.649616244639
 20
874.2715581295971
 30
0.0
 11
-1213.649616244639
 21
936.2715647279884
 31
0.0
  0
LINE
  5
2B0
330
1F
100
AcDbEntity
  8
0-C
  6
JWW_CENTER1
 62
     2
370
     9
100
AcDbLine
 10
-1244.649743263745
 20
905.2716851487077
 30
0.0
 11
-1182.649736665354
 21
905.2716851487077
 31
0.0
  0
LINE
  5
2B1
330
1F
100
AcDbEntity
  8
建具
  6
JWW_CENTER1
 62
     4
370
     9
100
AcDbLine
 10
-1243.058768397251
 20
805.2715614287928
 30
0.0
 11
-1184.240711531849
 21
805.2715614287928
 31
0.0
  0
LWPOLYLINE
  5
2B2
330
1F
100
AcDbEntity
  8
0-F
  6
Continuous
 62
     7
370
     9
100
AcDbPolyline
 90
        4
 70
     1
 43
2.0
 10
-1212.649616244639
 20
731.9697850123981
 42
0.4142135623731
 10
-1213.649616244639
 20
732.969785012398
 42
0.4142135623731
 10
-1214.649616244639
 20
731.9697850123981
 42
0.4142135623731
 10
-1213.649616244639
 20
730.9697850123982
 42
0.4142135623731
  0
LINE
  5
2B3
330
1F
100
AcDbEntity
  8
0-F
  6
Continuous
 62
     7
370
     9
100
AcDbLine
 10
-1213.649616244639
 20
728.9697850123986
 30
0.0
 11
-1213.649616244639
 21
854.2715581295971
 31
0.0
  0
LINE
  5
2B4
330
1F
100
AcDbEntity
  8
建具
  6
Continuous
 62
     4
370
     9
100
AcDbLine
 10
-1221.14973996455
 20
398.2710863443359
 30
0.0
 11
-1221.14973996455
 21
428.2710863443359
 31
0.0
  0
LINE
  5
2B5
330
1F
100
AcDbEntity
  8
建具
  6
Continuous
 62
     4
370
     9
100
AcDbLine
 10
-1206.14973996455
 20
398.2710863443359
 30
0.0
 11
-1206.14973996455
 21
428.2710863443359
 31
0.0
  0
LINE
  5
2B6
330
1F
100
AcDbEntity
  8
建具
  6
Continuous
 62
     4
370
     9
100
AcDbLine
 10
-1236.738195164745
 20
398.2710863443359
 30
0.0
 11
-1236.738195164745
 21
428.2710863443359
 31
0.0
  0
LINE
  5
2B7
330
1F
100
AcDbEntity
  8
建具
  6
Continuous
 62
     4
370
     9
100
AcDbLine
 10
-1236.738195164745
 20
398.2710863443359
 30
0.0
 11
-1190.561284764354
 21
398.2710863443359
 31
0.0
  0
LINE
  5
2B8
330
1F
100
AcDbEntity
  8
建具
  6
Continuous
 62
     4
370
     9
100
AcDbLine
 10
-1236.738195164745
 20
428.2710863443359
 30
0.0
 11
-1190.561284764354
 21
428.2710863443359
 31
0.0
  0
LINE
  5
2B9
330
1F
100
AcDbEntity
  8
建具
  6
Continuous
 62
     4
370
     9
100
AcDbLine
 10
-1190.561284764354
 20
398.2710863443359
 30
0.0
 11
-1190.561284764354
 21
428.2710863443359
 31
0.0
  0
LINE
  5
2BA
330
1F
100
AcDbEntity
  8
建具
  6
JWW_CENTER1
 62
     4
370
     9
100
AcDbLine
 10
-1213.64973996455
 20
391.1537157388662
 30
0.0
 11
-1213.64973996455
 21
434.3927599283202
 31
0.0
  0
LINE
  5
2BB
330
1F
100
AcDbEntity
  8
0-C
  6
Continuous
 62
     2
370
     9
100
AcDbLine
 10
-1215.149720169358
 20
301.8693067571317
 30
0.0
 11
-1215.149720169358
 21
324.6728659315445
 31
0.0
  0
LINE
  5
2BC
330
1F
100
AcDbEntity
  8
0-C
  6
Continuous
 62
     2
370
     9
100
AcDbLine
 10
-1212.149512319912
 20
301.8693067571317
 30
0.0
 11
-1212.149512319912
 21
324.6728659315445
 31
0.0
  0
CIRCLE
  5
2BD
330
1F
100
AcDbEntity
  8
0-C
  6
Continuous
 62
     2
370
     9
100
AcDbCircle
 10
-1213.64973996455
 20
313.2710863443359
 30
0.0
 40
16.00000117276166
  0
CIRCLE
  5
2BE
330
1F
100
AcDbEntity
  8
0-C
  6
Continuous
 62
     2
370
     9
100
AcDbCircle
 10
-1213.64973996455
 20
313.2710863443359
 30
0.0
 40
11.50000063148704
  0
CIRCLE
  5
2BF
330
1F
100
AcDbEntity
  8
0-C
  6
Continuous
 62
     2
370
     9
100
AcDbCircle
 10
-1213.64973996455
 20
313.2710863443359
 30
0.0
 40
12.00000112121169
  0
LINE
  5
2C0
330
1F
100
AcDbEntity
  8
0-C
  6
JWW_CENTER1
 62
     2
370
     9
100
AcDbLine
 10
-1213.649616244639
 20
344.2710896435315
 30
0.0
 11
-1213.649616244639
 21
282.2710830451402
 31
0.0
  0
LINE
  5
2C1
330
1F
100
AcDbEntity
  8
0-C
  6
JWW_CENTER1
 62
     2
370
     9
100
AcDbLine
 10
-1244.649743263745
 20
313.270962624421
 30
0.0
 11
-1182.649736665354
 21
313.270962624421
 31
0.0
  0
LINE
  5
2C2
330
1F
100
AcDbEntity
  8
建具
  6
JWW_CENTER1
 62
     4
370
     9
100
AcDbLine
 10
-1243.058768397251
 20
413.2710863443359
 30
0.0
 11
-1184.240711531849
 21
413.2710863443359
 31
0.0
  0
LINE
  5
2C3
330
1F
100
AcDbEntity
  8
建具
  6
Continuous
 62
     4
370
     9
100
AcDbLine
 10
-982.1497399645498
 20
820.2715614287928
 30
0.0
 11
-982.1497399645498
 21
790.2715614287928
 31
0.0
  0
LINE
  5
2C4
330
1F
100
AcDbEntity
  8
建具
  6
Continuous
 62
     4
370
     9
100
AcDbLine
 10
-967.1497399645498
 20
820.2715614287928
 30
0.0
 11
-967.1497399645498
 21
790.2715614287928
 31
0.0
  0
LINE
  5
2C5
330
1F
100
AcDbEntity
  8
建具
  6
Continuous
 62
     4
370
     9
100
AcDbLine
 10
-997.7381951647451
 20
820.2715614287928
 30
0.0
 11
-997.7381951647451
 21
790.2715614287928
 31
0.0
  0
LINE
  5
2C6
330
1F
100
AcDbEntity
  8
建具
  6
Continuous
 62
     4
370
     9
100
AcDbLine
 10
-997.7381951647451
 20
820.2715614287928
 30
0.0
 11
-951.5612847643545
 21
820.2715614287928
 31
0.0
  0
LINE
  5
2C7
330
1F
100
AcDbEntity
  8
建具
  6
Continuous
 62
     4
370
     9
100
AcDbLine
 10
-997.7381951647451
 20
790.2715614287928
 30
0.0
 11
-951.5612847643545
 21
790.2715614287928
 31
0.0
  0
LINE
  5
2C8
330
1F
100
AcDbEntity
  8
建具
  6
Continuous
 62
     4
370
     9
100
AcDbLine
 10
-951.5612847643545
 20
820.2715614287928
 30
0.0
 11
-951.5612847643545
 21
790.2715614287928
 31
0.0
  0
LINE
  5
2C9
330
1F
100
AcDbEntity
  8
建具
  6
JWW_CENTER1
 62
     4
370
     9
100
AcDbLine
 10
-974.6497399645498
 20
827.3889320342624
 30
0.0
 11
-974.6497399645498
 21
784.1498878448084
 31
0.0
  0
LINE
  5
2CA
330
1F
100
AcDbEntity
  8
0-C
  6
Continuous
 62
     2
370
     9
100
AcDbLine
 10
-976.1497201693576
 20
916.6733410159969
 30
0.0
 11
-976.1497201693576
 21
893.8697818415841
 31
0.0
  0
LINE
  5
2CB
330
1F
100
AcDbEntity
  8
0-C
  6
Continuous
 62
     2
370
     9
100
AcDbLine
 10
-973.1495123199122
 20
916.6733410159969
 30
0.0
 11
-973.1495123199122
 21
893.8697818415841
 31
0.0
  0
CIRCLE
  5
2CC
330
1F
100
AcDbEntity
  8
0-C
  6
Continuous
 62
     2
370
     9
100
AcDbCircle
 10
-974.6497399645498
 20
905.2715614287928
 30
0.0
 40
16.00000117276166
  0
CIRCLE
  5
2CD
330
1F
100
AcDbEntity
  8
0-C
  6
Continuous
 62
     2
370
     9
100
AcDbCircle
 10
-974.6497399645498
 20
905.2715614287928
 30
0.0
 40
11.50000063148705
  0
CIRCLE
  5
2CE
330
1F
100
AcDbEntity
  8
0-C
  6
Continuous
 62
     2
370
     9
100
AcDbCircle
 10
-974.6497399645498
 20
905.2715614287928
 30
0.0
 40
12.0000011212117
  0
LINE
  5
2CF
330
1F
100
AcDbEntity
  8
0-C
  6
JWW_CENTER1
 62
     2
370
     9
100
AcDbLine
 10
-974.6496162446394
 20
874.2715581295971
 30
0.0
 11
-974.6496162446394
 21
936.2715647279884
 31
0.0
  0
LINE
  5
2D0
330
1F
100
AcDbEntity
  8
0-C
  6
JWW_CENTER1
 62
     2
370
     9
100
AcDbLine
 10
-1005.649743263745
 20
905.2716851487077
 30
0.0
 11
-943.6497366653541
 21
905.2716851487077
 31
0.0
  0
LINE
  5
2D1
330
1F
100
AcDbEntity
  8
建具
  6
JWW_CENTER1
 62
     4
370
     9
100
AcDbLine
 10
-1004.058768397251
 20
805.2715614287928
 30
0.0
 11
-945.2407115318485
 21
805.2715614287928
 31
0.0
  0
LINE
  5
2D2
330
1F
100
AcDbEntity
  8
建具
  6
Continuous
 62
     4
370
     9
100
AcDbLine
 10
-982.1497399645498
 20
398.2710863443359
 30
0.0
 11
-982.1497399645498
 21
428.2710863443359
 31
0.0
  0
LINE
  5
2D3
330
1F
100
AcDbEntity
  8
建具
  6
Continuous
 62
     4
370
     9
100
AcDbLine
 10
-967.1497399645498
 20
398.2710863443359
 30
0.0
 11
-967.1497399645498
 21
428.2710863443359
 31
0.0
  0
LINE
  5
2D4
330
1F
100
AcDbEntity
  8
建具
  6
Continuous
 62
     4
370
     9
100
AcDbLine
 10
-997.7381951647451
 20
398.2710863443359
 30
0.0
 11
-997.7381951647451
 21
428.2710863443359
 31
0.0
  0
LINE
  5
2D5
330
1F
100
AcDbEntity
  8
建具
  6
Continuous
 62
     4
370
     9
100
AcDbLine
 10
-997.7381951647451
 20
398.2710863443359
 30
0.0
 11
-951.5612847643545
 21
398.2710863443359
 31
0.0
  0
LINE
  5
2D6
330
1F
100
AcDbEntity
  8
建具
  6
Continuous
 62
     4
370
     9
100
AcDbLine
 10
-997.7381951647451
 20
428.2710863443359
 30
0.0
 11
-951.5612847643545
 21
428.2710863443359
 31
0.0
  0
LINE
  5
2D7
330
1F
100
AcDbEntity
  8
建具
  6
Continuous
 62
     4
370
     9
100
AcDbLine
 10
-951.5612847643545
 20
398.2710863443359
 30
0.0
 11
-951.5612847643545
 21
428.2710863443359
 31
0.0
  0
LINE
  5
2D8
330
1F
100
AcDbEntity
  8
建具
  6
JWW_CENTER1
 62
     4
370
     9
100
AcDbLine
 10
-974.6497399645498
 20
391.1537157388662
 30
0.0
 11
-974.6497399645498
 21
434.3927599283202
 31
0.0
  0
LINE
  5
2D9
330
1F
100
AcDbEntity
  8
0-C
  6
Continuous
 62
     2
370
     9
100
AcDbLine
 10
-976.1497201693576
 20
301.8693067571317
 30
0.0
 11
-976.1497201693576
 21
324.6728659315445
 31
0.0
  0
LINE
  5
2DA
330
1F
100
AcDbEntity
  8
0-C
  6
Continuous
 62
     2
370
     9
100
AcDbLine
 10
-973.1495123199122
 20
301.8693067571317
 30
0.0
 11
-973.1495123199122
 21
324.6728659315445
 31
0.0
  0
CIRCLE
  5
2DB
330
1F
100
AcDbEntity
  8
0-C
  6
Continuous
 62
     2
370
     9
100
AcDbCircle
 10
-974.6497399645498
 20
313.2710863443359
 30
0.0
 40
16.00000117276166
  0
CIRCLE
  5
2DC
330
1F
100
AcDbEntity
  8
0-C
  6
Continuous
 62
     2
370
     9
100
AcDbCircle
 10
-974.6497399645498
 20
313.2710863443359
 30
0.0
 40
11.50000063148704
  0
CIRCLE
  5
2DD
330
1F
100
AcDbEntity
  8
0-C
  6
Continuous
 62
     2
370
     9
100
AcDbCircle
 10
-974.6497399645498
 20
313.2710863443359
 30
0.0
 40
12.00000112121169
  0
LINE
  5
2DE
330
1F
100
AcDbEntity
  8
0-C
  6
JWW_CENTER1
 62
     2
370
     9
100
AcDbLine
 10
-974.6496162446394
 20
344.2710896435315
 30
0.0
 11
-974.6496162446394
 21
282.2710830451402
 31
0.0
  0
LINE
  5
2DF
330
1F
100
AcDbEntity
  8
0-C
  6
JWW_CENTER1
 62
     2
370
     9
100
AcDbLine
 10
-1005.649743263745
 20
313.270962624421
 30
0.0
 11
-943.6497366653541
 21
313.270962624421
 31
0.0
  0
LINE
  5
2E0
330
1F
100
AcDbEntity
  8
建具
  6
JWW_CENTER1
 62
     4
370
     9
100
AcDbLine
 10
-1004.058768397251
 20
413.2710863443359
 30
0.0
 11
-945.2407115318485
 21
413.2710863443359
 31
0.0
  0
LINE
  5
2E1
330
1F
100
AcDbEntity
  8
建具
  6
Continuous
 62
     4
370
     9
100
AcDbLine
 10
-832.1497399645498
 20
820.2715614287928
 30
0.0
 11
-832.1497399645498
 21
790.2715614287928
 31
0.0
  0
LINE
  5
2E2
330
1F
100
AcDbEntity
  8
建具
  6
Continuous
 62
     4
370
     9
100
AcDbLine
 10
-817.1497399645498
 20
820.2715614287928
 30
0.0
 11
-817.1497399645498
 21
790.2715614287928
 31
0.0
  0
LINE
  5
2E3
330
1F
100
AcDbEntity
  8
建具
  6
Continuous
 62
     4
370
     9
100
AcDbLine
 10
-847.7381951647451
 20
820.2715614287928
 30
0.0
 11
-847.7381951647451
 21
790.2715614287928
 31
0.0
  0
LINE
  5
2E4
330
1F
100
AcDbEntity
  8
建具
  6
Continuous
 62
     4
370
     9
100
AcDbLine
 10
-847.7381951647451
 20
820.2715614287928
 30
0.0
 11
-801.5612847643545
 21
820.2715614287928
 31
0.0
  0
LINE
  5
2E5
330
1F
100
AcDbEntity
  8
建具
  6
Continuous
 62
     4
370
     9
100
AcDbLine
 10
-847.7381951647451
 20
790.2715614287928
 30
0.0
 11
-801.5612847643545
 21
790.2715614287928
 31
0.0
  0
LINE
  5
2E6
330
1F
100
AcDbEntity
  8
建具
  6
Continuous
 62
     4
370
     9
100
AcDbLine
 10
-801.5612847643545
 20
820.2715614287928
 30
0.0
 11
-801.5612847643545
 21
790.2715614287928
 31
0.0
  0
LINE
  5
2E7
330
1F
100
AcDbEntity
  8
建具
  6
JWW_CENTER1
 62
     4
370
     9
100
AcDbLine
 10
-824.6497399645498
 20
827.3889320342624
 30
0.0
 11
-824.6497399645498
 21
784.1498878448084
 31
0.0
  0
LINE
  5
2E8
330
1F
100
AcDbEntity
  8
0-C
  6
Continuous
 62
     2
370
     9
100
AcDbLine
 10
-826.1497201693576
 20
916.6733410159969
 30
0.0
 11
-826.1497201693576
 21
893.8697818415841
 31
0.0
  0
LINE
  5
2E9
330
1F
100
AcDbEntity
  8
0-C
  6
Continuous
 62
     2
370
     9
100
AcDbLine
 10
-823.1495123199122
 20
916.6733410159969
 30
0.0
 11
-823.1495123199122
 21
893.8697818415841
 31
0.0
  0
CIRCLE
  5
2EA
330
1F
100
AcDbEntity
  8
0-C
  6
Continuous
 62
     2
370
     9
100
AcDbCircle
 10
-824.6497399645498
 20
905.2715614287928
 30
0.0
 40
16.00000117276166
  0
CIRCLE
  5
2EB
330
1F
100
AcDbEntity
  8
0-C
  6
Continuous
 62
     2
370
     9
100
AcDbCircle
 10
-824.6497399645498
 20
905.2715614287928
 30
0.0
 40
11.50000063148705
  0
CIRCLE
  5
2EC
330
1F
100
AcDbEntity
  8
0-C
  6
Continuous
 62
     2
370
     9
100
AcDbCircle
 10
-824.6497399645498
 20
905.2715614287928
 30
0.0
 40
12.0000011212117
  0
LINE
  5
2ED
330
1F
100
AcDbEntity
  8
0-C
  6
JWW_CENTER1
 62
     2
370
     9
100
AcDbLine
 10
-824.6496162446394
 20
874.2715581295971
 30
0.0
 11
-824.6496162446394
 21
936.2715647279884
 31
0.0
  0
LINE
  5
2EE
330
1F
100
AcDbEntity
  8
0-C
  6
JWW_CENTER1
 62
     2
370
     9
100
AcDbLine
 10
-855.6497432637454
 20
905.2716851487077
 30
0.0
 11
-793.6497366653541
 21
905.2716851487077
 31
0.0
  0
LINE
  5
2EF
330
1F
100
AcDbEntity
  8
建具
  6
JWW_CENTER1
 62
     4
370
     9
100
AcDbLine
 10
-854.058768397251
 20
805.2715614287928
 30
0.0
 11
-795.2407115318485
 21
805.2715614287928
 31
0.0
  0
LINE
  5
2F0
330
1F
100
AcDbEntity
  8
建具
  6
Continuous
 62
     4
370
     9
100
AcDbLine
 10
-832.1497399645498
 20
398.2710863443359
 30
0.0
 11
-832.1497399645498
 21
428.2710863443359
 31
0.0
  0
LINE
  5
2F1
330
1F
100
AcDbEntity
  8
建具
  6
Continuous
 62
     4
370
     9
100
AcDbLine
 10
-817.1497399645498
 20
398.2710863443359
 30
0.0
 11
-817.1497399645498
 21
428.2710863443359
 31
0.0
  0
LINE
  5
2F2
330
1F
100
AcDbEntity
  8
建具
  6
Continuous
 62
     4
370
     9
100
AcDbLine
 10
-847.7381951647451
 20
398.2710863443359
 30
0.0
 11
-847.7381951647451
 21
428.2710863443359
 31
0.0
  0
LINE
  5
2F3
330
1F
100
AcDbEntity
  8
建具
  6
Continuous
 62
     4
370
     9
100
AcDbLine
 10
-847.7381951647451
 20
398.2710863443359
 30
0.0
 11
-801.5612847643545
 21
398.2710863443359
 31
0.0
  0
LINE
  5
2F4
330
1F
100
AcDbEntity
  8
建具
  6
Continuous
 62
     4
370
     9
100
AcDbLine
 10
-847.7381951647451
 20
428.2710863443359
 30
0.0
 11
-801.5612847643545
 21
428.2710863443359
 31
0.0
  0
LINE
  5
2F5
330
1F
100
AcDbEntity
  8
建具
  6
Continuous
 62
     4
370
     9
100
AcDbLine
 10
-801.5612847643545
 20
398.2710863443359
 30
0.0
 11
-801.5612847643545
 21
428.2710863443359
 31
0.0
  0
LINE
  5
2F6
330
1F
100
AcDbEntity
  8
建具
  6
JWW_CENTER1
 62
     4
370
     9
100
AcDbLine
 10
-824.6497399645498
 20
391.1537157388662
 30
0.0
 11
-824.6497399645498
 21
434.3927599283202
 31
0.0
  0
LINE
  5
2F7
330
1F
100
AcDbEntity
  8
0-C
  6
Continuous
 62
     2
370
     9
100
AcDbLine
 10
-826.1497201693576
 20
301.8693067571317
 30
0.0
 11
-826.1497201693576
 21
324.6728659315445
 31
0.0
  0
LINE
  5
2F8
330
1F
100
AcDbEntity
  8
0-C
  6
Continuous
 62
     2
370
     9
100
AcDbLine
 10
-823.1495123199122
 20
301.8693067571317
 30
0.0
 11
-823.1495123199122
 21
324.6728659315445
 31
0.0
  0
CIRCLE
  5
2F9
330
1F
100
AcDbEntity
  8
0-C
  6
Continuous
 62
     2
370
     9
100
AcDbCircle
 10
-824.6497399645498
 20
313.2710863443359
 30
0.0
 40
16.00000117276166
  0
CIRCLE
  5
2FA
330
1F
100
AcDbEntity
  8
0-C
  6
Continuous
 62
     2
370
     9
100
AcDbCircle
 10
-824.6497399645498
 20
313.2710863443359
 30
0.0
 40
11.50000063148704
  0
CIRCLE
  5
2FB
330
1F
100
AcDbEntity
  8
0-C
  6
Continuous
 62
     2
370
     9
100
AcDbCircle
 10
-824.6497399645498
 20
313.2710863443359
 30
0.0
 40
12.00000112121169
  0
LINE
  5
2FC
330
1F
100
AcDbEntity
  8
0-C
  6
JWW_CENTER1
 62
     2
370
     9
100
AcDbLine
 10
-824.6496162446394
 20
344.2710896435315
 30
0.0
 11
-824.6496162446394
 21
282.2710830451402
 31
0.0
  0
LINE
  5
2FD
330
1F
100
AcDbEntity
  8
0-C
  6
JWW_CENTER1
 62
     2
370
     9
100
AcDbLine
 10
-855.6497432637454
 20
313.270962624421
 30
0.0
 11
-793.6497366653541
 21
313.270962624421
 31
0.0
  0
LINE
  5
2FE
330
1F
100
AcDbEntity
  8
建具
  6
JWW_CENTER1
 62
     4
370
     9
100
AcDbLine
 10
-854.058768397251
 20
413.2710863443359
 30
0.0
 11
-795.2407115318485
 21
413.2710863443359
 31
0.0
  0
LINE
  5
2FF
330
1F
100
AcDbEntity
  8
建具
  6
Continuous
 62
     4
370
     9
100
AcDbLine
 10
-593.1497399645497
 20
820.2715614287928
 30
0.0
 11
-593.1497399645497
 21
790.2715614287928
 31
0.0
  0
LINE
  5
300
330
1F
100
AcDbEntity
  8
建具
  6
Continuous
 62
     4
370
     9
100
AcDbLine
 10
-578.1497399645497
 20
820.2715614287928
 30
0.0
 11
-578.1497399645497
 21
790.2715614287928
 31
0.0
  0
LINE
  5
301
330
1F
100
AcDbEntity
  8
建具
  6
Continuous
 62
     4
370
     9
100
AcDbLine
 10
-608.738195164745
 20
820.2715614287928
 30
0.0
 11
-608.738195164745
 21
790.2715614287928
 31
0.0
  0
LINE
  5
302
330
1F
100
AcDbEntity
  8
建具
  6
Continuous
 62
     4
370
     9
100
AcDbLine
 10
-608.738195164745
 20
820.2715614287928
 30
0.0
 11
-562.5612847643544
 21
820.2715614287928
 31
0.0
  0
LINE
  5
303
330
1F
100
AcDbEntity
  8
建具
  6
Continuous
 62
     4
370
     9
100
AcDbLine
 10
-608.738195164745
 20
790.2715614287928
 30
0.0
 11
-562.5612847643544
 21
790.2715614287928
 31
0.0
  0
LINE
  5
304
330
1F
100
AcDbEntity
  8
建具
  6
Continuous
 62
     4
370
     9
100
AcDbLine
 10
-562.5612847643544
 20
820.2715614287928
 30
0.0
 11
-562.5612847643544
 21
790.2715614287928
 31
0.0
  0
LINE
  5
305
330
1F
100
AcDbEntity
  8
建具
  6
JWW_CENTER1
 62
     4
370
     9
100
AcDbLine
 10
-585.6497399645497
 20
827.3889320342624
 30
0.0
 11
-585.6497399645497
 21
784.1498878448084
 31
0.0
  0
LINE
  5
306
330
1F
100
AcDbEntity
  8
0-C
  6
Continuous
 62
     2
370
     9
100
AcDbLine
 10
-587.1497201693575
 20
916.6733410159969
 30
0.0
 11
-587.1497201693575
 21
893.8697818415841
 31
0.0
  0
LINE
  5
307
330
1F
100
AcDbEntity
  8
0-C
  6
Continuous
 62
     2
370
     9
100
AcDbLine
 10
-584.1495123199121
 20
916.6733410159969
 30
0.0
 11
-584.1495123199121
 21
893.8697818415841
 31
0.0
  0
CIRCLE
  5
308
330
1F
100
AcDbEntity
  8
0-C
  6
Continuous
 62
     2
370
     9
100
AcDbCircle
 10
-585.6497399645497
 20
905.2715614287928
 30
0.0
 40
16.00000117276166
  0
CIRCLE
  5
309
330
1F
100
AcDbEntity
  8
0-C
  6
Continuous
 62
     2
370
     9
100
AcDbCircle
 10
-585.6497399645497
 20
905.2715614287928
 30
0.0
 40
11.50000063148705
  0
CIRCLE
  5
30A
330
1F
100
AcDbEntity
  8
0-C
  6
Continuous
 62
     2
370
     9
100
AcDbCircle
 10
-585.6497399645497
 20
905.2715614287928
 30
0.0
 40
12.0000011212117
  0
LINE
  5
30B
330
1F
100
AcDbEntity
  8
0-C
  6
JWW_CENTER1
 62
     2
370
     9
100
AcDbLine
 10
-585.6496162446393
 20
874.2715581295971
 30
0.0
 11
-585.6496162446393
 21
936.2715647279884
 31
0.0
  0
LINE
  5
30C
330
1F
100
AcDbEntity
  8
0-C
  6
JWW_CENTER1
 62
     2
370
     9
100
AcDbLine
 10
-616.6497432637453
 20
905.2716851487077
 30
0.0
 11
-554.649736665354
 21
905.2716851487077
 31
0.0
  0
LINE
  5
30D
330
1F
100
AcDbEntity
  8
建具
  6
JWW_CENTER1
 62
     4
370
     9
100
AcDbLine
 10
-615.0587683972509
 20
805.2715614287928
 30
0.0
 11
-556.2407115318484
 21
805.2715614287928
 31
0.0
  0
LINE
  5
30E
330
1F
100
AcDbEntity
  8
寸法
  6
Continuous
 62
     4
370
     9
100
AcDbLine
 10
-583.6496162446389
 20
740.9637835433176
 30
0.0
 11
-558.863494710294
 21
744.2269383488195
 31
0.0
  0
LINE
  5
30F
330
1F
100
AcDbEntity
  8
寸法
  6
Continuous
 62
     4
370
     9
100
AcDbLine
 10
-583.6496162446389
 20
740.9637835433176
 30
0.0
 11
-558.863494710294
 21
737.7006287378168
 31
0.0
  0
LINE
  5
310
330
1F
100
AcDbEntity
  8
寸法
  6
Continuous
 62
     4
370
     9
100
AcDbLine
 10
-583.6496162446389
 20
740.9637835433176
 30
0.0
 11
-536.184213552703
 21
740.9637835433176
 31
0.0
  0
TEXT
  5
311
330
1F
100
AcDbEntity
  8
寸法
  6
Continuous
 62
     2
370
     9
100
AcDbText
 10
-528.6187653683621
 20
726.2082258601513
 30
0.0
 40
30.48
  1
A
 41
0.9999999999999998
  7
ＭＳ ゴシック
100
AcDbText
  0
LINE
  5
312
330
1F
100
AcDbEntity
  8
寸法
  6
JWW_CENTER1
 62
     4
370
     9
100
AcDbLine
 10
-585.6496162446393
 20
740.9637835433176
 30
0.0
 11
-585.6496162446393
 21
1056.087796007136
 31
0.0
  0
LINE
  5
313
330
1F
100
AcDbEntity
  8
寸法
  6
Continuous
 62
     4
370
     9
100
AcDbLine
 10
-583.6496162446389
 20
1076.087796007136
 30
0.0
 11
-558.863494710294
 21
1079.350950812637
 31
0.0
  0
LINE
  5
314
330
1F
100
AcDbEntity
  8
寸法
  6
Continuous
 62
     4
370
     9
100
AcDbLine
 10
-583.6496162446389
 20
1076.087796007136
 30
0.0
 11
-558.863494710294
 21
1072.824641201634
 31
0.0
  0
LINE
  5
315
330
1F
100
AcDbEntity
  8
寸法
  6
Continuous
 62
     4
370
     9
100
AcDbLine
 10
-583.6496162446389
 20
1076.087796007136
 30
0.0
 11
-536.184213552703
 21
1076.087796007136
 31
0.0
  0
TEXT
  5
316
330
1F
100
AcDbEntity
  8
寸法
  6
Continuous
 62
     2
370
     9
100
AcDbText
 10
-528.6187653683621
 20
1061.33223832397
 30
0.0
 40
30.48
  1
A
 41
0.9999999999999998
  7
ＭＳ ゴシック
100
AcDbText
  0
LINE
  5
317
330
1F
100
AcDbEntity
  8
建具
  6
Continuous
 62
     4
370
     9
100
AcDbLine
 10
-593.1497399645497
 20
398.2710863443359
 30
0.0
 11
-593.1497399645497
 21
428.2710863443359
 31
0.0
  0
LINE
  5
318
330
1F
100
AcDbEntity
  8
建具
  6
Continuous
 62
     4
370
     9
100
AcDbLine
 10
-578.1497399645497
 20
398.2710863443359
 30
0.0
 11
-578.1497399645497
 21
428.2710863443359
 31
0.0
  0
LINE
  5
319
330
1F
100
AcDbEntity
  8
建具
  6
Continuous
 62
     4
370
     9
100
AcDbLine
 10
-608.738195164745
 20
398.2710863443359
 30
0.0
 11
-608.738195164745
 21
428.2710863443359
 31
0.0
  0
LINE
  5
31A
330
1F
100
AcDbEntity
  8
建具
  6
Continuous
 62
     4
370
     9
100
AcDbLine
 10
-608.738195164745
 20
398.2710863443359
 30
0.0
 11
-562.5612847643544
 21
398.2710863443359
 31
0.0
  0
LINE
  5
31B
330
1F
100
AcDbEntity
  8
建具
  6
Continuous
 62
     4
370
     9
100
AcDbLine
 10
-608.738195164745
 20
428.2710863443359
 30
0.0
 11
-562.5612847643544
 21
428.2710863443359
 31
0.0
  0
LINE
  5
31C
330
1F
100
AcDbEntity
  8
建具
  6
Continuous
 62
     4
370
     9
100
AcDbLine
 10
-562.5612847643544
 20
398.2710863443359
 30
0.0
 11
-562.5612847643544
 21
428.2710863443359
 31
0.0
  0
LINE
  5
31D
330
1F
100
AcDbEntity
  8
建具
  6
JWW_CENTER1
 62
     4
370
     9
100
AcDbLine
 10
-585.6497399645497
 20
391.1537157388662
 30
0.0
 11
-585.6497399645497
 21
434.3927599283202
 31
0.0
  0
LINE
  5
31E
330
1F
100
AcDbEntity
  8
0-C
  6
Continuous
 62
     2
370
     9
100
AcDbLine
 10
-587.1497201693575
 20
301.8693067571317
 30
0.0
 11
-587.1497201693575
 21
324.6728659315445
 31
0.0
  0
LINE
  5
31F
330
1F
100
AcDbEntity
  8
0-C
  6
Continuous
 62
     2
370
     9
100
AcDbLine
 10
-584.1495123199121
 20
301.8693067571317
 30
0.0
 11
-584.1495123199121
 21
324.6728659315445
 31
0.0
  0
CIRCLE
  5
320
330
1F
100
AcDbEntity
  8
0-C
  6
Continuous
 62
     2
370
     9
100
AcDbCircle
 10
-585.6497399645497
 20
313.2710863443359
 30
0.0
 40
16.00000117276166
  0
CIRCLE
  5
321
330
1F
100
AcDbEntity
  8
0-C
  6
Continuous
 62
     2
370
     9
100
AcDbCircle
 10
-585.6497399645497
 20
313.2710863443359
 30
0.0
 40
11.50000063148704
  0
CIRCLE
  5
322
330
1F
100
AcDbEntity
  8
0-C
  6
Continuous
 62
     2
370
     9
100
AcDbCircle
 10
-585.6497399645497
 20
313.2710863443359
 30
0.0
 40
12.00000112121169
  0
LINE
  5
323
330
1F
100
AcDbEntity
  8
0-C
  6
JWW_CENTER1
 62
     2
370
     9
100
AcDbLine
 10
-585.6496162446393
 20
344.2710896435315
 30
0.0
 11
-585.6496162446393
 21
282.2710830451402
 31
0.0
  0
LINE
  5
324
330
1F
100
AcDbEntity
  8
0-C
  6
JWW_CENTER1
 62
     2
370
     9
100
AcDbLine
 10
-616.6497432637453
 20
313.270962624421
 30
0.0
 11
-554.649736665354
 21
313.270962624421
 31
0.0
  0
LINE
  5
325
330
1F
100
AcDbEntity
  8
建具
  6
JWW_CENTER1
 62
     4
370
     9
100
AcDbLine
 10
-615.0587683972509
 20
413.2710863443359
 30
0.0
 11
-556.2407115318484
 21
413.2710863443359
 31
0.0
  0
LINE
  5
326
330
1F
100
AcDbEntity
  8
建具
  6
Continuous
 62
     4
370
     9
100
AcDbLine
 10
-443.1497399645497
 20
820.2715614287928
 30
0.0
 11
-443.1497399645497
 21
790.2715614287928
 31
0.0
  0
LINE
  5
327
330
1F
100
AcDbEntity
  8
建具
  6
Continuous
 62
     4
370
     9
100
AcDbLine
 10
-428.1497399645497
 20
820.2715614287928
 30
0.0
 11
-428.1497399645497
 21
790.2715614287928
 31
0.0
  0
LINE
  5
328
330
1F
100
AcDbEntity
  8
建具
  6
Continuous
 62
     4
370
     9
100
AcDbLine
 10
-458.738195164745
 20
820.2715614287928
 30
0.0
 11
-458.738195164745
 21
790.2715614287928
 31
0.0
  0
LINE
  5
329
330
1F
100
AcDbEntity
  8
建具
  6
Continuous
 62
     4
370
     9
100
AcDbLine
 10
-458.738195164745
 20
820.2715614287928
 30
0.0
 11
-412.5612847643544
 21
820.2715614287928
 31
0.0
  0
LINE
  5
32A
330
1F
100
AcDbEntity
  8
建具
  6
Continuous
 62
     4
370
     9
100
AcDbLine
 10
-458.738195164745
 20
790.2715614287928
 30
0.0
 11
-412.5612847643544
 21
790.2715614287928
 31
0.0
  0
LINE
  5
32B
330
1F
100
AcDbEntity
  8
建具
  6
Continuous
 62
     4
370
     9
100
AcDbLine
 10
-412.5612847643544
 20
820.2715614287928
 30
0.0
 11
-412.5612847643544
 21
790.2715614287928
 31
0.0
  0
LINE
  5
32C
330
1F
100
AcDbEntity
  8
建具
  6
JWW_CENTER1
 62
     4
370
     9
100
AcDbLine
 10
-435.6497399645497
 20
827.3889320342624
 30
0.0
 11
-435.6497399645497
 21
784.1498878448084
 31
0.0
  0
LINE
  5
32D
330
1F
100
AcDbEntity
  8
0-C
  6
Continuous
 62
     2
370
     9
100
AcDbLine
 10
-437.1497201693575
 20
916.6733410159969
 30
0.0
 11
-437.1497201693575
 21
893.8697818415841
 31
0.0
  0
LINE
  5
32E
330
1F
100
AcDbEntity
  8
0-C
  6
Continuous
 62
     2
370
     9
100
AcDbLine
 10
-434.1495123199121
 20
916.6733410159969
 30
0.0
 11
-434.1495123199121
 21
893.8697818415841
 31
0.0
  0
CIRCLE
  5
32F
330
1F
100
AcDbEntity
  8
0-C
  6
Continuous
 62
     2
370
     9
100
AcDbCircle
 10
-435.6497399645497
 20
905.2715614287928
 30
0.0
 40
16.00000117276166
  0
CIRCLE
  5
330
330
1F
100
AcDbEntity
  8
0-C
  6
Continuous
 62
     2
370
     9
100
AcDbCircle
 10
-435.6497399645497
 20
905.2715614287928
 30
0.0
 40
11.50000063148705
  0
CIRCLE
  5
331
330
1F
100
AcDbEntity
  8
0-C
  6
Continuous
 62
     2
370
     9
100
AcDbCircle
 10
-435.6497399645497
 20
905.2715614287928
 30
0.0
 40
12.0000011212117
  0
LINE
  5
332
330
1F
100
AcDbEntity
  8
0-C
  6
JWW_CENTER1
 62
     2
370
     9
100
AcDbLine
 10
-435.6496162446393
 20
874.2715581295971
 30
0.0
 11
-435.6496162446393
 21
936.2715647279884
 31
0.0
  0
LINE
  5
333
330
1F
100
AcDbEntity
  8
0-C
  6
JWW_CENTER1
 62
     2
370
     9
100
AcDbLine
 10
-466.6497432637453
 20
905.2716851487077
 30
0.0
 11
-404.649736665354
 21
905.2716851487077
 31
0.0
  0
LINE
  5
334
330
1F
100
AcDbEntity
  8
建具
  6
JWW_CENTER1
 62
     4
370
     9
100
AcDbLine
 10
-465.0587683972509
 20
805.2715614287928
 30
0.0
 11
-406.2407115318484
 21
805.2715614287928
 31
0.0
  0
LINE
  5
335
330
1F
100
AcDbEntity
  8
建具
  6
Continuous
 62
     4
370
     9
100
AcDbLine
 10
-443.1497399645497
 20
398.2710863443359
 30
0.0
 11
-443.1497399645497
 21
428.2710863443359
 31
0.0
  0
LINE
  5
336
330
1F
100
AcDbEntity
  8
建具
  6
Continuous
 62
     4
370
     9
100
AcDbLine
 10
-428.1497399645497
 20
398.2710863443359
 30
0.0
 11
-428.1497399645497
 21
428.2710863443359
 31
0.0
  0
LINE
  5
337
330
1F
100
AcDbEntity
  8
建具
  6
Continuous
 62
     4
370
     9
100
AcDbLine
 10
-458.738195164745
 20
398.2710863443359
 30
0.0
 11
-458.738195164745
 21
428.2710863443359
 31
0.0
  0
LINE
  5
338
330
1F
100
AcDbEntity
  8
建具
  6
Continuous
 62
     4
370
     9
100
AcDbLine
 10
-458.738195164745
 20
398.2710863443359
 30
0.0
 11
-412.5612847643544
 21
398.2710863443359
 31
0.0
  0
LINE
  5
339
330
1F
100
AcDbEntity
  8
建具
  6
Continuous
 62
     4
370
     9
100
AcDbLine
 10
-458.738195164745
 20
428.2710863443359
 30
0.0
 11
-412.5612847643544
 21
428.2710863443359
 31
0.0
  0
LINE
  5
33A
330
1F
100
AcDbEntity
  8
建具
  6
Continuous
 62
     4
370
     9
100
AcDbLine
 10
-412.5612847643544
 20
398.2710863443359
 30
0.0
 11
-412.5612847643544
 21
428.2710863443359
 31
0.0
  0
LINE
  5
33B
330
1F
100
AcDbEntity
  8
建具
  6
JWW_CENTER1
 62
     4
370
     9
100
AcDbLine
 10
-435.6497399645497
 20
391.1537157388662
 30
0.0
 11
-435.6497399645497
 21
434.3927599283202
 31
0.0
  0
LINE
  5
33C
330
1F
100
AcDbEntity
  8
0-C
  6
Continuous
 62
     2
370
     9
100
AcDbLine
 10
-437.1497201693575
 20
301.8693067571317
 30
0.0
 11
-437.1497201693575
 21
324.6728659315445
 31
0.0
  0
LINE
  5
33D
330
1F
100
AcDbEntity
  8
0-C
  6
Continuous
 62
     2
370
     9
100
AcDbLine
 10
-434.1495123199121
 20
301.8693067571317
 30
0.0
 11
-434.1495123199121
 21
324.6728659315445
 31
0.0
  0
CIRCLE
  5
33E
330
1F
100
AcDbEntity
  8
0-C
  6
Continuous
 62
     2
370
     9
100
AcDbCircle
 10
-435.6497399645497
 20
313.2710863443359
 30
0.0
 40
16.00000117276166
  0
CIRCLE
  5
33F
330
1F
100
AcDbEntity
  8
0-C
  6
Continuous
 62
     2
370
     9
100
AcDbCircle
 10
-435.6497399645497
 20
313.2710863443359
 30
0.0
 40
11.50000063148704
  0
CIRCLE
  5
340
330
1F
100
AcDbEntity
  8
0-C
  6
Continuous
 62
     2
370
     9
100
AcDbCircle
 10
-435.6497399645497
 20
313.2710863443359
 30
0.0
 40
12.00000112121169
  0
LINE
  5
341
330
1F
100
AcDbEntity
  8
0-C
  6
JWW_CENTER1
 62
     2
370
     9
100
AcDbLine
 10
-435.6496162446393
 20
344.2710896435315
 30
0.0
 11
-435.6496162446393
 21
282.2710830451402
 31
0.0
  0
LINE
  5
342
330
1F
100
AcDbEntity
  8
0-C
  6
JWW_CENTER1
 62
     2
370
     9
100
AcDbLine
 10
-466.6497432637453
 20
313.270962624421
 30
0.0
 11
-404.649736665354
 21
313.270962624421
 31
0.0
  0
LINE
  5
343
330
1F
100
AcDbEntity
  8
建具
  6
JWW_CENTER1
 62
     4
370
     9
100
AcDbLine
 10
-465.0587683972509
 20
413.2710863443359
 30
0.0
 11
-406.2407115318484
 21
413.2710863443359
 31
0.0
  0
LINE
  5
344
330
1F
100
AcDbEntity
  8
0-F
  6
Continuous
 62
     7
370
     9
100
AcDbLine
 10
-1495.64973336616
 20
1295.271432760086
 30
0.0
 11
-303.6496277918359
 21
1295.271432760086
 31
0.0
  0
TEXT
  5
345
330
1F
100
AcDbEntity
  8
0-F
  6
Continuous
 62
     2
370
   211
100
AcDbText
 10
-943.3996805789982
 20
1306.911432760086
 30
0.0
 40
30.48
  1
1192
 41
1.09375
  7
ＭＳ ゴシック
100
AcDbText
  0
LINE
  5
346
330
1F
100
AcDbEntity
  8
0-F
  6
Continuous
 62
     7
370
     9
100
AcDbLine
 10
-1449.649680578998
 20
1115.270344024867
 30
0.0
 11
-349.6496805789985
 21
1115.270344024867
 31
0.0
  0
TEXT
  5
347
330
1F
100
AcDbEntity
  8
0-F
  6
Continuous
 62
     2
370
   211
100
AcDbText
 10
-943.3996805789982
 20
1126.910344024867
 30
0.0
 40
30.48
  1
1100
 41
1.09375
  7
ＭＳ ゴシック
100
AcDbText
  0
LINE
  5
348
330
1F
100
AcDbEntity
  8
0-F
  6
Continuous
 62
     7
370
     9
100
AcDbLine
 10
-1395.649257451539
 20
51.90434718683974
 30
0.0
 11
-899.6496187190428
 21
51.90434718683974
 31
0.0
  0
TEXT
  5
349
330
1F
100
AcDbEntity
  8
0-F
  6
Continuous
 62
     2
370
   211
100
AcDbText
 10
-1180.149438085291
 20
62.54434718683974
 30
0.0
 40
30.48
  1
496
 41
1.083333333333333
  7
ＭＳ ゴシック
100
AcDbText
  0
LINE
  5
34A
330
1F
100
AcDbEntity
  8
0-F
  6
Continuous
 62
     7
370
     9
100
AcDbLine
 10
-899.6496187190428
 20
51.90434718683974
 30
0.0
 11
-403.6479559180719
 21
51.90434718683974
 31
0.0
  0
TEXT
  5
34B
330
1F
100
AcDbEntity
  8
0-F
  6
Continuous
 62
     2
370
   211
100
AcDbText
 10
-684.1487873185574
 20
62.54434718683974
 30
0.0
 40
30.48
  1
496
 41
1.083333333333333
  7
ＭＳ ゴシック
100
AcDbText
  0
LINE
  5
34C
330
1F
100
AcDbEntity
  8
0-F
  6
Continuous
 62
     7
370
     9
100
AcDbLine
 10
-165.5615925246693
 20
313.2714426576788
 30
0.0
 11
-165.5615925246693
 21
905.2711358322997
 31
0.0
  0
TEXT
  5
34D
330
1F
100
AcDbEntity
  8
0-F
  6
Continuous
 62
     2
370
   211
100
AcDbText
 10
-177.2015925246691
 20
576.7712892449892
 30
0.0
 40
30.48
  1
592
 50
90.0
 41
1.083333333333333
  7
ＭＳ ゴシック
100
AcDbText
  0
LINE
  5
34E
330
1F
100
AcDbEntity
  8
0-F
  6
Continuous
 62
     7
370
     9
100
AcDbLine
 10
-1566.273555392286
 20
259.2711655250778
 30
0.0
 11
-1566.273555392286
 21
959.2711655250778
 31
0.0
  0
TEXT
  5
34F
330
1F
100
AcDbEntity
  8
0-F
  6
Continuous
 62
     2
370
   211
100
AcDbText
 10
-1577.913476211544
 20
576.7711655250778
 30
0.0
 40
30.48
  1
700
 50
90.0
 41
1.083333333333333
  7
ＭＳ ゴシック
100
AcDbText
  0
LINE
  5
350
330
1F
100
AcDbEntity
  8
0-F
  6
Continuous
 62
     7
370
     9
100
AcDbLine
 10
-1652.442902706715
 20
226.2711061395206
 30
0.0
 11
-1652.442902706715
 21
992.271224910635
 31
0.0
  0
TEXT
  5
351
330
1F
100
AcDbEntity
  8
0-F
  6
Continuous
 62
     2
370
   211
100
AcDbText
 10
-1664.082823525973
 20
576.7711655250778
 30
0.0
 40
30.48
  1
766
 50
90.0
 41
1.083333333333333
  7
ＭＳ ゴシック
100
AcDbText
  0
LINE
  5
352
330
1F
100
AcDbEntity
  8
0-F
  6
Continuous
 62
     7
370
     9
100
AcDbLine
 10
-1734.906125256056
 20
213.2711127379153
 30
0.0
 11
-1734.906125256056
 21
1005.27121831224
 31
0.0
  0
TEXT
  5
353
330
1F
100
AcDbEntity
  8
0-F
  6
Continuous
 62
     2
370
   211
100
AcDbText
 10
-1746.546046075313
 20
576.7711655250778
 30
0.0
 40
30.48
  1
792
 50
90.0
 41
1.083333333333333
  7
ＭＳ ゴシック
100
AcDbText
  0
LINE
  5
354
330
1F
100
AcDbEntity
  8
D-F
  6
Continuous
 62
     7
370
     9
100
AcDbLine
 10
1674.377217129338
 20
-61.35873444110466
 30
0.0
 11
1674.377217129338
 21
524.641727575425
 31
0.0
  0
TEXT
  5
355
330
1F
100
AcDbEntity
  8
D-F
  6
Continuous
 62
     2
370
   211
100
AcDbText
 10
1662.737296310081
 20
176.6414965671601
 30
0.0
 40
30.48
  1
117.2
 50
90.0
 41
1.1
  7
ＭＳ ゴシック
100
AcDbText
  0
LINE
  5
356
330
1F
100
AcDbEntity
  8
D-F
  6
Continuous
 62
     7
370
     9
100
AcDbLine
 10
-9.38929797808072
 20
524.6419288265134
 30
0.0
 11
-9.38929797808072
 21
-30.3580711735048
 31
0.0
  0
TEXT
  5
357
330
1F
100
AcDbEntity
  8
D-F
  6
Continuous
 62
     2
370
   211
100
AcDbText
 10
-20.02929797808072
 20
214.6419288265043
 30
0.0
 40
30.48
  1
111
 50
90.0
 41
1.083333333333333
  7
ＭＳ ゴシック
100
AcDbText
  0
LINE
  5
358
330
1F
100
AcDbEntity
  8
D-F
  6
Continuous
 62
     7
370
     9
100
AcDbLine
 10
92.29782700792072
 20
-30.3580711735048
 30
0.0
 11
92.29782700792072
 21
294.6419288264952
 31
0.0
  0
TEXT
  5
359
330
1F
100
AcDbEntity
  8
D-F
  6
Continuous
 62
     2
370
   211
100
AcDbText
 10
81.65782700792072
 20
110.8919288264952
 30
0.0
 40
30.48
  1
65
 50
90.0
 41
1.0625
  7
ＭＳ ゴシック
100
AcDbText
  0
LINE
  5
35A
330
1F
100
AcDbEntity
  8
0-F
  6
Continuous
 62
     7
370
     9
100
AcDbLine
 10
-1363.649616244639
 20
731.9697850123981
 30
0.0
 11
-1213.649616244639
 21
731.9697850123981
 31
0.0
  0
TEXT
  5
35B
330
1F
100
AcDbEntity
  8
0-F
  6
Continuous
 62
     2
370
   211
100
AcDbText
 10
-1321.149616244639
 20
742.6097850123981
 30
0.0
 40
30.48
  1
150
 41
1.083333333333333
  7
ＭＳ ゴシック
100
AcDbText
  0
ENDSEC
  0
SECTION
  2
OBJECTS
  0
DICTIONARY
  5
C
330
0
100
AcDbDictionary
281
     1
  3
ACAD_DETAILVIEWSTYLE
350
3A1
  3
ACAD_GROUP
350
D
  3
ACAD_LAYOUT
350
1A
  3
ACAD_MATERIAL
350
43
  3
ACAD_MLEADERSTYLE
350
6B
  3
ACAD_MLINESTYLE
350
17
  3
ACAD_PLOTSETTINGS
350
19
  3
ACAD_PLOTSTYLENAME
350
E
  3
ACAD_SCALELIST
350
47
  3
ACAD_SECTIONVIEWSTYLE
350
3A2
  3
ACAD_TABLESTYLE
350
69
  3
ACAD_VISUALSTYLE
350
2A
  3
ACDB_RECOMPOSE_DATA
350
39E
  3
AcDbVariableDictionary
350
35E
  0
DICTIONARY
  5
35C
330
8
100
AcDbDictionary
280
     1
281
     1
  3
ACAD_XREC_ROUNDTRIP
360
35D
  0
DICTIONARY
  5
3A1
102
{ACAD_REACTORS
330
C
102
}
330
C
100
AcDbDictionary
281
     1
  0
DICTIONARY
  5
D
102
{ACAD_REACTORS
330
C
102
}
330
C
100
AcDbDictionary
281
     1
  0
DICTIONARY
  5
1A
102
{ACAD_REACTORS
330
C
102
}
330
C
100
AcDbDictionary
281
     1
  3
Layout1
350
1E
  3
Layout2
350
26
  3
Model
350
22
  0
DICTIONARY
  5
43
102
{ACAD_REACTORS
330
C
102
}
330
C
100
AcDbDictionary
281
     1
  3
ByBlock
350
45
  3
ByLayer
350
44
  3
Global
350
46
  0
DICTIONARY
  5
6B
102
{ACAD_REACTORS
330
C
102
}
330
C
100
AcDbDictionary
281
     1
  3
Standard
350
6C
  0
DICTIONARY
  5
17
102
{ACAD_REACTORS
330
C
102
}
330
C
100
AcDbDictionary
281
     1
  3
Standard
350
18
  0
DICTIONARY
  5
19
102
{ACAD_REACTORS
330
C
102
}
330
C
100
AcDbDictionary
281
     1
  0
ACDBDICTIONARYWDFLT
  5
E
102
{ACAD_REACTORS
330
C
102
}
330
C
100
AcDbDictionary
281
     1
  3
Normal
350
F
100
AcDbDictionaryWithDefault
340
F
  0
DICTIONARY
  5
47
102
{ACAD_REACTORS
330
C
102
}
330
C
100
AcDbDictionary
281
     1
  3
A0
350
48
  3
A1
350
49
  3
A2
350
4A
  3
A3
350
4B
  3
A4
350
4C
  3
A5
350
4D
  3
A6
350
4E
  3
A7
350
4F
  3
A8
350
50
  3
A9
350
51
  3
B0
350
52
  3
B1
350
53
  3
B2
350
54
  3
B3
350
55
  3
B4
350
56
  3
B5
350
57
  3
B6
350
58
  3
B7
350
59
  3
B8
350
5A
  3
B9
350
5B
  3
C0
350
5C
  3
C1
350
5D
  3
C2
350
5E
  3
C3
350
5F
  3
C4
350
60
  3
C5
350
61
  3
C6
350
62
  3
C7
350
63
  3
C8
350
64
  3
C9
350
65
  3
D0
350
66
  3
D1
350
67
  3
D2
350
68
  0
DICTIONARY
  5
3A2
102
{ACAD_REACTORS
330
C
102
}
330
C
100
AcDbDictionary
281
     1
  0
DICTIONARY
  5
69
102
{ACAD_REACTORS
330
C
102
}
330
C
100
AcDbDictionary
281
     1
  3
Standard
350
6A
  0
DICTIONARY
  5
2A
102
{ACAD_REACTORS
330
C
102
}
330
C
100
AcDbDictionary
281
     1
  3
2dWireframe
350
2F
  3
Basic
350
32
  3
Brighten
350
36
  3
ColorChange
350
3A
  3
Conceptual
350
34
  3
Dim
350
35
  3
EdgeColorOff
350
3D
  3
Facepattern
350
39
  3
Flat
350
2B
  3
FlatWithEdges
350
2C
  3
Gouraud
350
2D
  3
GouraudWithEdges
350
2E
  3
Hidden
350
31
  3
JitterOff
350
3B
  3
Linepattern
350
38
  3
OverhangOff
350
3C
  3
Realistic
350
33
  3
Shaded
350
42
  3
Shaded with edges
350
41
  3
Shades of Gray
350
3E
  3
Sketchy
350
3F
  3
Thicken
350
37
  3
Wireframe
350
30
  3
X-Ray
350
40
  0
XRECORD
  5
39E
102
{ACAD_REACTORS
330
C
102
}
330
C
100
AcDbXrecord
280
     1
 90
        1
330
6A
  0
DICTIONARY
  5
35E
102
{ACAD_REACTORS
330
C
102
}
330
C
100
AcDbDictionary
281
     1
  3
CANNOSCALE
350
35F
  3
CENTEREXE
350
3A3
  3
CENTERLTYPEFILE
350
3A4
  3
CMLEADERSTYLE
350
3A0
  3
CTABLESTYLE
350
39F
  3
MSLTSCALE
350
360
  3
XCLIPFRAME
350
361
  0
XRECORD
  5
35D
102
{ACAD_REACTORS
330
35C
102
}
330
35C
100
AcDbXrecord
280
     1
102
VTR_0.000_0.000_1.000_1.000_VISUALSTYLE
340
2F
102
VTR_0.000_0.000_1.000_1.000_GRIDDISPLAY
 70
     3
102
VTR_0.000_0.000_1.000_1.000_GRIDMAJOR
 70
     5
102
VTR_0.000_0.000_1.000_1.000_DEFAULTLIGHTING
280
     1
102
VTR_0.000_0.000_1.000_1.000_DEFAULTLIGHTINGTYPE
 70
     1
102
VTR_0.000_0.000_1.000_1.000_BRIGHTNESS
141
0.0
102
VTR_0.000_0.000_1.000_1.000_CONTRAST
142
0.0
  0
LAYOUT
  5
1E
102
{ACAD_REACTORS
330
1A
102
}
330
1A
100
AcDbPlotSettings
  1

  2
none_device
  4

  6

 40
0.0
 41
0.0
 42
0.0
 43
0.0
 44
0.0
 45
0.0
 46
0.0
 47
0.0
 48
0.0
 49
0.0
140
0.0
141
0.0
142
1.0
143
1.0
 70
   688
 72
     1
 73
     0
 74
     5
  7

 75
    16
 76
     0
 77
     5
 78
   300
147
1.0
148
0.0
149
0.0
100
AcDbLayout
  1
Layout1
 70
     1
 71
     1
 10
0.0
 20
0.0
 11
420.0
 21
297.0
 12
0.0
 22
0.0
 32
0.0
 14
1.000000000000000E+20
 24
1.000000000000000E+20
 34
1.000000000000000E+20
 15
-1.000000000000000E+20
 25
-1.000000000000000E+20
 35
-1.000000000000000E+20
146
0.0
 13
0.0
 23
0.0
 33
0.0
 16
1.0
 26
0.0
 36
0.0
 17
0.0
 27
1.0
 37
0.0
 76
     0
330
1B
  0
LAYOUT
  5
26
102
{ACAD_REACTORS
330
1A
102
}
330
1A
100
AcDbPlotSettings
  1

  2
none_device
  4

  6

 40
0.0
 41
0.0
 42
0.0
 43
0.0
 44
0.0
 45
0.0
 46
0.0
 47
0.0
 48
0.0
 49
0.0
140
0.0
141
0.0
142
1.0
143
1.0
 70
   688
 72
     1
 73
     0
 74
     5
  7

 75
    16
 76
     0
 77
     5
 78
   300
147
1.0
148
0.0
149
0.0
100
AcDbLayout
  1
Layout2
 70
     1
 71
     2
 10
0.0
 20
0.0
 11
0.0
 21
0.0
 12
0.0
 22
0.0
 32
0.0
 14
0.0
 24
0.0
 34
0.0
 15
0.0
 25
0.0
 35
0.0
146
0.0
 13
0.0
 23
0.0
 33
0.0
 16
1.0
 26
0.0
 36
0.0
 17
0.0
 27
1.0
 37
0.0
 76
     0
330
23
  0
LAYOUT
  5
22
102
{ACAD_REACTORS
330
1A
102
}
330
1A
100
AcDbPlotSettings
  1

  2
none_device
  4
Letter_(8.50_x_11.00_Inches)
  6

 40
6.35
 41
6.35
 42
6.35000508
 43
6.35000508
 44
215.9
 45
279.4
 46
0.0
 47
0.0
 48
0.0
 49
0.0
140
0.0
141
0.0
142
1.0
143
1.0
 70
  1712
 72
     1
 73
     0
 74
     0
  7

 75
     0
 76
     0
 77
     5
 78
   300
147
1.0
148
0.0
149
0.0
100
AcDbLayout
  1
Model
 70
     1
 71
     0
 10
-2100.0
 20
-1485.0
 11
2100.0
 21
1485.0
 12
0.0
 22
0.0
 32
0.0
 14
-2100.0
 24
-1485.0
 34
0.0
 15
2100.0
 25
1485.0
 35
0.0
146
0.0
 13
0.0
 23
0.0
 33
0.0
 16
1.0
 26
0.0
 36
0.0
 17
0.0
 27
1.0
 37
0.0
 76
     0
330
1F
331
29
  0
MATERIAL
  5
45
102
{ACAD_REACTORS
330
43
102
}
102
{ACAD_XDICTIONARY
360
394
102
}
330
43
100
AcDbMaterial
  1
ByBlock
  0
MATERIAL
  5
44
102
{ACAD_REACTORS
330
43
102
}
102
{ACAD_XDICTIONARY
360
392
102
}
330
43
100
AcDbMaterial
  1
ByLayer
  0
MATERIAL
  5
46
102
{ACAD_REACTORS
330
43
102
}
102
{ACAD_XDICTIONARY
360
396
102
}
330
43
100
AcDbMaterial
  1
Global
  0
MLEADERSTYLE
  5
6C
102
{ACAD_REACTORS
330
6B
102
}
102
{ACAD_XDICTIONARY
360
39C
102
}
330
6B
100
AcDbMLeaderStyle
170
     2
171
     1
172
     0
 90
        2
 40
0.0
 41
0.0
173
     1
 91
-1056964608
340
14
 92
       -2
290
     1
 42
2.0
291
     1
 43
8.0
  3
Standard
341
0
 44
4.0
300

342
11
174
     1
178
     6
175
     1
176
     0
 93
-1056964608
 45
4.0
292
     0
297
     0
 46
4.0
343
0
 94
-1056964608
 47
1.0
 49
1.0
140
1.0
293
     1
141
0.0
294
     1
177
     0
142
1.0
295
     0
296
     0
143
3.75
1001
ACAD_MLEADERVER
1070
     2
  0
MLINESTYLE
  5
18
102
{ACAD_REACTORS
330
17
102
}
330
17
100
AcDbMlineStyle
  2
Standard
 70
     0
  3

 62
   256
 51
90.0
 52
90.0
 71
     2
 49
0.5
 62
   256
  6
BYLAYER
 49
-0.5
 62
   256
  6
BYLAYER
  0
ACDBPLACEHOLDER
  5
F
102
{ACAD_REACTORS
330
E
102
}
330
E
  0
SCALE
  5
48
102
{ACAD_REACTORS
330
47
102
}
330
47
100
AcDbScale
 70
     0
300
1:1
140
1.0
141
1.0
290
     1
  0
SCALE
  5
49
102
{ACAD_REACTORS
330
47
102
}
330
47
100
AcDbScale
 70
     0
300
1:2
140
1.0
141
2.0
290
     0
  0
SCALE
  5
4A
102
{ACAD_REACTORS
330
47
102
}
330
47
100
AcDbScale
 70
     0
300
1:4
140
1.0
141
4.0
290
     0
  0
SCALE
  5
4B
102
{ACAD_REACTORS
330
47
102
}
330
47
100
AcDbScale
 70
     0
300
1:5
140
1.0
141
5.0
290
     0
  0
SCALE
  5
4C
102
{ACAD_REACTORS
330
47
102
}
330
47
100
AcDbScale
 70
     0
300
1:8
140
1.0
141
8.0
290
     0
  0
SCALE
  5
4D
102
{ACAD_REACTORS
330
47
102
}
330
47
100
AcDbScale
 70
     0
300
1:10
140
1.0
141
10.0
290
     0
  0
SCALE
  5
4E
102
{ACAD_REACTORS
330
47
102
}
330
47
100
AcDbScale
 70
     0
300
1:16
140
1.0
141
16.0
290
     0
  0
SCALE
  5
4F
102
{ACAD_REACTORS
330
47
102
}
330
47
100
AcDbScale
 70
     0
300
1:20
140
1.0
141
20.0
290
     0
  0
SCALE
  5
50
102
{ACAD_REACTORS
330
47
102
}
330
47
100
AcDbScale
 70
     0
300
1:30
140
1.0
141
30.0
290
     0
  0
SCALE
  5
51
102
{ACAD_REACTORS
330
47
102
}
330
47
100
AcDbScale
 70
     0
300
1:40
140
1.0
141
40.0
290
     0
  0
SCALE
  5
52
102
{ACAD_REACTORS
330
47
102
}
330
47
100
AcDbScale
 70
     0
300
1:50
140
1.0
141
50.0
290
     0
  0
SCALE
  5
53
102
{ACAD_REACTORS
330
47
102
}
330
47
100
AcDbScale
 70
     0
300
1:100
140
1.0
141
100.0
290
     0
  0
SCALE
  5
54
102
{ACAD_REACTORS
330
47
102
}
330
47
100
AcDbScale
 70
     0
300
2:1
140
2.0
141
1.0
290
     0
  0
SCALE
  5
55
102
{ACAD_REACTORS
330
47
102
}
330
47
100
AcDbScale
 70
     0
300
4:1
140
4.0
141
1.0
290
     0
  0
SCALE
  5
56
102
{ACAD_REACTORS
330
47
102
}
330
47
100
AcDbScale
 70
     0
300
8:1
140
8.0
141
1.0
290
     0
  0
SCALE
  5
57
102
{ACAD_REACTORS
330
47
102
}
330
47
100
AcDbScale
 70
     0
300
10:1
140
10.0
141
1.0
290
     0
  0
SCALE
  5
58
102
{ACAD_REACTORS
330
47
102
}
330
47
100
AcDbScale
 70
     0
300
100:1
140
100.0
141
1.0
290
     0
  0
SCALE
  5
59
102
{ACAD_REACTORS
330
47
102
}
330
47
100
AcDbScale
 70
     0
300
1/128" = 1'-0"
140
0.0078125
141
12.0
290
     0
  0
SCALE
  5
5A
102
{ACAD_REACTORS
330
47
102
}
330
47
100
AcDbScale
 70
     0
300
1/64" = 1'-0"
140
0.015625
141
12.0
290
     0
  0
SCALE
  5
5B
102
{ACAD_REACTORS
330
47
102
}
330
47
100
AcDbScale
 70
     0
300
1/32" = 1'-0"
140
0.03125
141
12.0
290
     0
  0
SCALE
  5
5C
102
{ACAD_REACTORS
330
47
102
}
330
47
100
AcDbScale
 70
     0
300
1/16" = 1'-0"
140
0.0625
141
12.0
290
     0
  0
SCALE
  5
5D
102
{ACAD_REACTORS
330
47
102
}
330
47
100
AcDbScale
 70
     0
300
3/32" = 1'-0"
140
0.09375
141
12.0
290
     0
  0
SCALE
  5
5E
102
{ACAD_REACTORS
330
47
102
}
330
47
100
AcDbScale
 70
     0
300
1/8" = 1'-0"
140
0.125
141
12.0
290
     0
  0
SCALE
  5
5F
102
{ACAD_REACTORS
330
47
102
}
330
47
100
AcDbScale
 70
     0
300
3/16" = 1'-0"
140
0.1875
141
12.0
290
     0
  0
SCALE
  5
60
102
{ACAD_REACTORS
330
47
102
}
330
47
100
AcDbScale
 70
     0
300
1/4" = 1'-0"
140
0.25
141
12.0
290
     0
  0
SCALE
  5
61
102
{ACAD_REACTORS
330
47
102
}
330
47
100
AcDbScale
 70
     0
300
3/8" = 1'-0"
140
0.375
141
12.0
290
     0
  0
SCALE
  5
62
102
{ACAD_REACTORS
330
47
102
}
330
47
100
AcDbScale
 70
     0
300
1/2" = 1'-0"
140
0.5
141
12.0
290
     0
  0
SCALE
  5
63
102
{ACAD_REACTORS
330
47
102
}
330
47
100
AcDbScale
 70
     0
300
3/4" = 1'-0"
140
0.75
141
12.0
290
     0
  0
SCALE
  5
64
102
{ACAD_REACTORS
330
47
102
}
330
47
100
AcDbScale
 70
     0
300
1" = 1'-0"
140
1.0
141
12.0
290
     0
  0
SCALE
  5
65
102
{ACAD_REACTORS
330
47
102
}
330
47
100
AcDbScale
 70
     0
300
1-1/2" = 1'-0"
140
1.5
141
12.0
290
     0
  0
SCALE
  5
66
102
{ACAD_REACTORS
330
47
102
}
330
47
100
AcDbScale
 70
     0
300
3" = 1'-0"
140
3.0
141
12.0
290
     0
  0
SCALE
  5
67
102
{ACAD_REACTORS
330
47
102
}
330
47
100
AcDbScale
 70
     0
300
6" = 1'-0"
140
6.0
141
12.0
290
     0
  0
SCALE
  5
68
102
{ACAD_REACTORS
330
47
102
}
330
47
100
AcDbScale
 70
     0
300
1'-0" = 1'-0"
140
12.0
141
12.0
290
     0
  0
TABLESTYLE
  5
6A
102
{ACAD_REACTORS
330
69
102
}
102
{ACAD_XDICTIONARY
360
398
102
}
330
69
100
AcDbTableStyle
  3
Standard
 70
     0
 71
     0
 40
0.06
 41
0.06
280
     0
281
     0
  7
Standard
140
4.5
170
     2
 62
     0
 63
   257
283
     0
274
    -2
284
     1
 64
     0
275
    -2
285
     1
 65
     0
276
    -2
286
     1
 66
     0
277
    -2
287
     1
 67
     0
278
    -2
288
     1
 68
     0
279
    -2
289
     1
 69
     0
  7
Standard
140
6.0
170
     5
 62
     0
 63
   257
283
     0
274
    -2
284
     1
 64
     0
275
    -2
285
     1
 65
     0
276
    -2
286
     1
 66
     0
277
    -2
287
     1
 67
     0
278
    -2
288
     1
 68
     0
279
    -2
289
     1
 69
     0
  7
Standard
140
4.5
170
     5
 62
     0
 63
   257
283
     0
274
    -2
284
     1
 64
     0
275
    -2
285
     1
 65
     0
276
    -2
286
     1
 66
     0
277
    -2
287
     1
 67
     0
278
    -2
288
     1
 68
     0
279
    -2
289
     1
 69
     0
  0
VISUALSTYLE
  5
2F
102
{ACAD_REACTORS
330
2A
102
}
102
{ACAD_XDICTIONARY
360
36A
102
}
330
2A
100
AcDbVisualStyle
  2
2dWireframe
 70
     4
 71
     0
 72
     2
 73
     0
 90
        0
 40
0.6
 41
30.0
 62
     5
 63
     7
421
 16777215
 74
     1
 91
        4
 64
     7
 65
   257
 75
     1
175
     1
 42
1.0
 92
        0
 66
   257
 43
1.0
 76
     1
 77
     6
 78
     2
 67
     7
 79
     5
170
     0
171
     0
290
     0
174
     0
 93
        1
 44
0.0
173
     0
291
     0
 45
0.0
1001
ACAD
1000
AcDbSavedByObjectVersion
1070
     0
  0
VISUALSTYLE
  5
32
102
{ACAD_REACTORS
330
2A
102
}
102
{ACAD_XDICTIONARY
360
370
102
}
330
2A
100
AcDbVisualStyle
  2
Basic
 70
     7
 71
     1
 72
     0
 73
     1
 90
        0
 40
0.6
 41
30.0
 62
     5
 63
     7
421
 16777215
 74
     0
 91
        4
 64
     7
 65
   257
 75
     1
175
     1
 42
1.0
 92
        8
 66
     7
 43
1.0
 76
     1
 77
     6
 78
     2
 67
     7
 79
     5
170
     0
171
     0
290
     0
174
     0
 93
        1
 44
0.0
173
     0
291
     1
 45
0.0
1001
ACAD
1000
AcDbSavedByObjectVersion
1070
     0
  0
VISUALSTYLE
  5
36
102
{ACAD_REACTORS
330
2A
102
}
102
{ACAD_XDICTIONARY
360
378
102
}
330
2A
100
AcDbVisualStyle
  2
Brighten
 70
    12
 71
     2
 72
     2
 73
     0
 90
        0
 40
0.6
 41
30.0
 62
     5
 63
     7
421
 16777215
 74
     1
 91
        4
 64
     7
 65
   257
 75
     1
175
     1
 42
1.0
 92
        8
 66
     7
 43
1.0
 76
     1
 77
     6
 78
     2
 67
     7
 79
     5
170
     0
171
     0
290
     0
174
     0
 93
        1
 44
50.0
173
     0
291
     1
 45
0.0
1001
ACAD
1000
AcDbSavedByObjectVersion
1070
     0
  0
VISUALSTYLE
  5
3A
102
{ACAD_REACTORS
330
2A
102
}
102
{ACAD_XDICTIONARY
360
380
102
}
330
2A
100
AcDbVisualStyle
  2
ColorChange
 70
    16
 71
     2
 72
     2
 73
     3
 90
        0
 40
0.6
 41
30.0
 62
     5
 63
     8
421
  8421504
 74
     1
 91
        4
 64
     7
 65
   257
 75
     1
175
     1
 42
1.0
 92
        8
 66
     8
424
  8421504
 43
1.0
 76
     1
 77
     6
 78
     2
 67
     7
 79
     5
170
     0
171
     0
290
     0
174
     0
 93
        1
 44
0.0
173
     0
291
     1
 45
0.0
1001
ACAD
1000
AcDbSavedByObjectVersion
1070
     0
  0
VISUALSTYLE
  5
34
102
{ACAD_REACTORS
330
2A
102
}
102
{ACAD_XDICTIONARY
360
374
102
}
330
2A
100
AcDbVisualStyle
  2
Conceptual
 70
     9
 71
     3
 72
     2
 73
     0
 90
        0
 40
0.6
 41
30.0
 62
     5
 63
     7
421
 16777215
 74
     2
 91
        2
 64
     7
 65
   257
 75
     1
175
     1
 42
179.0
 92
        8
 66
     7
 43
1.0
 76
     1
 77
     6
 78
     2
 67
     7
 79
     3
170
     0
171
     0
290
     0
174
     0
 93
        1
 44
0.0
173
     0
291
     0
 45
0.0
1001
ACAD
1000
AcDbSavedByObjectVersion
1070
     0
  0
VISUALSTYLE
  5
35
102
{ACAD_REACTORS
330
2A
102
}
102
{ACAD_XDICTIONARY
360
376
102
}
330
2A
100
AcDbVisualStyle
  2
Dim
 70
    11
 71
     2
 72
     2
 73
     0
 90
        0
 40
0.6
 41
30.0
 62
     5
 63
     7
421
 16777215
 74
     1
 91
        4
 64
     7
 65
   257
 75
     1
175
     1
 42
1.0
 92
        8
 66
     7
 43
1.0
 76
     1
 77
     6
 78
     2
 67
     7
 79
     5
170
     0
171
     0
290
     0
174
     0
 93
        1
 44
-50.0
173
     0
291
     1
 45
0.0
1001
ACAD
1000
AcDbSavedByObjectVersion
1070
     0
  0
VISUALSTYLE
  5
3D
102
{ACAD_REACTORS
330
2A
102
}
102
{ACAD_XDICTIONARY
360
386
102
}
330
2A
100
AcDbVisualStyle
  2
EdgeColorOff
 70
    22
 71
     2
 72
     2
 73
     0
 90
        0
 40
0.6
 41
30.0
 62
     5
 63
     7
421
 16777215
 74
     1
 91
        4
 64
     7
 65
   257
 75
     1
175
     1
 42
1.0
 92
        8
 66
     7
 43
1.0
 76
     1
 77
     6
 78
     2
 67
     7
 79
     5
170
     0
171
     0
290
     0
174
     0
 93
        1
 44
0.0
173
     0
291
     1
 45
0.0
1001
ACAD
1000
AcDbSavedByObjectVersion
1070
     0
  0
VISUALSTYLE
  5
39
102
{ACAD_REACTORS
330
2A
102
}
102
{ACAD_XDICTIONARY
360
37E
102
}
330
2A
100
AcDbVisualStyle
  2
Facepattern
 70
    15
 71
     2
 72
     2
 73
     0
 90
        0
 40
0.6
 41
30.0
 62
     5
 63
     7
421
 16777215
 74
     1
 91
        4
 64
     7
 65
   257
 75
     1
175
     1
 42
1.0
 92
        8
 66
     7
 43
1.0
 76
     1
 77
     6
 78
     2
 67
     7
 79
     5
170
     0
171
     0
290
     0
174
     0
 93
        1
 44
0.0
173
     0
291
     1
 45
0.0
1001
ACAD
1000
AcDbSavedByObjectVersion
1070
     0
  0
VISUALSTYLE
  5
2B
102
{ACAD_REACTORS
330
2A
102
}
102
{ACAD_XDICTIONARY
360
362
102
}
330
2A
100
AcDbVisualStyle
  2
Flat
 70
     0
 71
     2
 72
     1
 73
     1
 90
        2
 40
0.6
 41
30.0
 62
     5
 63
     7
421
 16777215
 74
     0
 91
        0
 64
     7
 65
   257
 75
     1
175
     1
 42
1.0
 92
        8
 66
     7
 43
1.0
 76
     1
 77
     6
 78
     2
 67
     7
 79
     5
170
     0
171
     0
290
     0
174
     0
 93
       13
 44
0.0
173
     0
291
     1
 45
0.0
1001
ACAD
1000
AcDbSavedByObjectVersion
1070
     0
  0
VISUALSTYLE
  5
2C
102
{ACAD_REACTORS
330
2A
102
}
102
{ACAD_XDICTIONARY
360
364
102
}
330
2A
100
AcDbVisualStyle
  2
FlatWithEdges
 70
     1
 71
     2
 72
     1
 73
     1
 90
        2
 40
0.6
 41
30.0
 62
     5
 63
     7
421
 16777215
 74
     1
 91
        0
 64
     7
 65
   257
 75
     1
175
     1
 42
1.0
 92
        0
 66
   257
 43
1.0
 76
     1
 77
     6
 78
     2
 67
     7
 79
     5
170
     0
171
     0
290
     0
174
     0
 93
       13
 44
0.0
173
     0
291
     1
 45
0.0
1001
ACAD
1000
AcDbSavedByObjectVersion
1070
     0
  0
VISUALSTYLE
  5
2D
102
{ACAD_REACTORS
330
2A
102
}
102
{ACAD_XDICTIONARY
360
366
102
}
330
2A
100
AcDbVisualStyle
  2
Gouraud
 70
     2
 71
     2
 72
     2
 73
     1
 90
        2
 40
0.6
 41
30.0
 62
     5
 63
     7
421
 16777215
 74
     0
 91
        0
 64
     7
 65
   257
 75
     1
175
     1
 42
1.0
 92
        0
 66
     7
 43
1.0
 76
     1
 77
     6
 78
     2
 67
     7
 79
     5
170
     0
171
     0
290
     0
174
     0
 93
       13
 44
0.0
173
     0
291
     1
 45
0.0
1001
ACAD
1000
AcDbSavedByObjectVersion
1070
     0
  0
VISUALSTYLE
  5
2E
102
{ACAD_REACTORS
330
2A
102
}
102
{ACAD_XDICTIONARY
360
368
102
}
330
2A
100
AcDbVisualStyle
  2
GouraudWithEdges
 70
     3
 71
     2
 72
     2
 73
     1
 90
        2
 40
0.6
 41
30.0
 62
     5
 63
     7
421
 16777215
 74
     1
 91
        0
 64
     7
 65
   257
 75
     1
175
     1
 42
1.0
 92
        0
 66
   257
 43
1.0
 76
     1
 77
     6
 78
     2
 67
     7
 79
     5
170
     0
171
     0
290
     0
174
     0
 93
       13
 44
0.0
173
     0
291
     1
 45
0.0
1001
ACAD
1000
AcDbSavedByObjectVersion
1070
     0
  0
VISUALSTYLE
  5
31
102
{ACAD_REACTORS
330
2A
102
}
102
{ACAD_XDICTIONARY
360
36E
102
}
330
2A
100
AcDbVisualStyle
  2
Hidden
 70
     6
 71
     1
 72
     2
 73
     2
 90
        0
 40
0.6
 41
30.0
 62
     5
 63
     7
421
 16777215
 74
     2
 91
        2
 64
     7
 65
   257
 75
     2
175
     1
 42
40.0
 92
        0
 66
   257
 43
1.0
 76
     1
 77
     6
 78
     2
 67
     7
 79
     3
170
     0
171
     0
290
     0
174
     0
 93
        1
 44
0.0
173
     0
291
     0
 45
0.0
1001
ACAD
1000
AcDbSavedByObjectVersion
1070
     0
  0
VISUALSTYLE
  5
3B
102
{ACAD_REACTORS
330
2A
102
}
102
{ACAD_XDICTIONARY
360
382
102
}
330
2A
100
AcDbVisualStyle
  2
JitterOff
 70
    20
 71
     2
 72
     2
 73
     0
 90
        0
 40
0.6
 41
30.0
 62
     5
 63
     7
421
 16777215
 74
     1
 91
        4
 64
     7
 65
   257
 75
     1
175
     1
 42
1.0
 92
       10
 66
     7
 43
1.0
 76
     1
 77
     6
 78
     2
 67
     7
 79
     5
170
     0
171
     0
290
     0
174
     0
 93
        1
 44
0.0
173
     0
291
     1
 45
0.0
1001
ACAD
1000
AcDbSavedByObjectVersion
1070
     0
  0
VISUALSTYLE
  5
38
102
{ACAD_REACTORS
330
2A
102
}
102
{ACAD_XDICTIONARY
360
37C
102
}
330
2A
100
AcDbVisualStyle
  2
Linepattern
 70
    14
 71
     2
 72
     2
 73
     0
 90
        0
 40
0.6
 41
30.0
 62
     5
 63
     7
421
 16777215
 74
     1
 91
        4
 64
     7
 65
   257
 75
     7
175
     7
 42
1.0
 92
        8
 66
     7
 43
1.0
 76
     1
 77
     6
 78
     2
 67
     7
 79
     5
170
     0
171
     0
290
     0
174
     0
 93
        1
 44
0.0
173
     0
291
     1
 45
0.0
1001
ACAD
1000
AcDbSavedByObjectVersion
1070
     0
  0
VISUALSTYLE
  5
3C
102
{ACAD_REACTORS
330
2A
102
}
102
{ACAD_XDICTIONARY
360
384
102
}
330
2A
100
AcDbVisualStyle
  2
OverhangOff
 70
    21
 71
     2
 72
     2
 73
     0
 90
        0
 40
0.6
 41
30.0
 62
     5
 63
     7
421
 16777215
 74
     1
 91
        4
 64
     7
 65
   257
 75
     1
175
     1
 42
1.0
 92
        9
 66
     7
 43
1.0
 76
     1
 77
     6
 78
     2
 67
     7
 79
     5
170
     0
171
     0
290
     0
174
     0
 93
        1
 44
0.0
173
     0
291
     1
 45
0.0
1001
ACAD
1000
AcDbSavedByObjectVersion
1070
     0
  0
VISUALSTYLE
  5
33
102
{ACAD_REACTORS
330
2A
102
}
102
{ACAD_XDICTIONARY
360
372
102
}
330
2A
100
AcDbVisualStyle
  2
Realistic
 70
     8
 71
     2
 72
     3
 73
     0
 90
        2
 40
0.6
 41
30.0
 62
     5
 63
     7
421
 16777215
 74
     0
 91
        0
 64
     7
 65
   257
 75
     1
175
     1
 42
1.0
 92
        8
 66
   257
 43
1.0
 76
     1
 77
     6
 78
     2
 67
     7
 79
     3
170
     0
171
     0
290
     0
174
     0
 93
       13
 44
0.0
173
     0
291
     0
 45
0.0
1001
ACAD
1000
AcDbSavedByObjectVersion
1070
     0
  0
VISUALSTYLE
  5
42
102
{ACAD_REACTORS
330
2A
102
}
102
{ACAD_XDICTIONARY
360
390
102
}
330
2A
100
AcDbVisualStyle
  2
Shaded
 70
    27
 71
     2
 72
     2
 73
     1
 90
        2
 40
0.6
 41
30.0
 62
     5
 63
     7
421
 16777215
 74
     0
 91
        4
 64
     7
 65
   257
 75
     1
175
     1
 42
1.0
 92
        8
 66
   257
 43
1.0
 76
     1
 77
     6
 78
     2
 67
     8
425
  7895160
 79
     3
170
     0
171
     0
290
     0
174
     0
 93
        5
 44
0.0
173
     0
291
     0
 45
0.0
1001
ACAD
1000
AcDbSavedByObjectVersion
1070
     0
  0
VISUALSTYLE
  5
41
102
{ACAD_REACTORS
330
2A
102
}
102
{ACAD_XDICTIONARY
360
38E
102
}
330
2A
100
AcDbVisualStyle
  2
Shaded with edges
 70
    26
 71
     2
 72
     2
 73
     1
 90
        2
 40
0.6
 41
30.0
 62
     5
 63
     7
421
 16777215
 74
     1
 91
       10
 64
     7
 65
   257
 75
     2
175
     1
 42
1.0
 92
        8
 66
   257
 43
1.0
 76
     1
 77
     6
 78
     2
 67
     7
 79
     3
170
     0
171
     0
290
     0
174
     0
 93
        5
 44
0.0
173
     0
291
     0
 45
0.0
1001
ACAD
1000
AcDbSavedByObjectVersion
1070
     0
  0
VISUALSTYLE
  5
3E
102
{ACAD_REACTORS
330
2A
102
}
102
{ACAD_XDICTIONARY
360
388
102
}
330
2A
100
AcDbVisualStyle
  2
Shades of Gray
 70
    23
 71
     2
 72
     2
 73
     3
 90
        0
 40
0.6
 41
30.0
 62
     5
 63
     7
421
 16777215
 74
     2
 91
        2
 64
     7
 65
     7
 75
     1
175
     1
 42
40.0
 92
        8
 66
     7
 43
1.0
 76
     1
 77
     6
 78
     2
 67
     7
 79
     3
170
     0
171
     0
290
     0
174
     0
 93
        1
 44
0.0
173
     0
291
     0
 45
0.0
1001
ACAD
1000
AcDbSavedByObjectVersion
1070
     0
  0
VISUALSTYLE
  5
3F
102
{ACAD_REACTORS
330
2A
102
}
102
{ACAD_XDICTIONARY
360
38A
102
}
330
2A
100
AcDbVisualStyle
  2
Sketchy
 70
    24
 71
     1
 72
     2
 73
     2
 90
        0
 40
0.6
 41
30.0
 62
     5
 63
     7
421
 16777215
 74
     2
 91
        2
 64
     7
 65
     7
 75
     1
175
     1
 42
40.0
 92
       11
 66
     7
 43
1.0
 76
     1
 77
     6
 78
     2
 67
     7
 79
     6
170
     0
171
     0
290
     0
174
     0
 93
        1
 44
0.0
173
     0
291
     0
 45
0.0
1001
ACAD
1000
AcDbSavedByObjectVersion
1070
     0
  0
VISUALSTYLE
  5
37
102
{ACAD_REACTORS
330
2A
102
}
102
{ACAD_XDICTIONARY
360
37A
102
}
330
2A
100
AcDbVisualStyle
  2
Thicken
 70
    13
 71
     2
 72
     2
 73
     0
 90
        0
 40
0.6
 41
30.0
 62
     5
 63
     7
421
 16777215
 74
     1
 91
        4
 64
     7
 65
   257
 75
     1
175
     1
 42
1.0
 92
       12
 66
     7
 43
1.0
 76
     1
 77
     6
 78
     2
 67
     7
 79
     5
170
     0
171
     0
290
     0
174
     0
 93
        1
 44
0.0
173
     0
291
     1
 45
0.0
1001
ACAD
1000
AcDbSavedByObjectVersion
1070
     0
  0
VISUALSTYLE
  5
30
102
{ACAD_REACTORS
330
2A
102
}
102
{ACAD_XDICTIONARY
360
36C
102
}
330
2A
100
AcDbVisualStyle
  2
Wireframe
 70
     5
 71
     0
 72
     2
 73
     0
 90
        0
 40
0.6
 41
30.0
 62
     5
 63
     7
421
 16777215
 74
     1
 91
        4
 64
     7
 65
   257
 75
     1
175
     1
 42
1.0
 92
        0
 66
   257
 43
1.0
 76
     1
 77
     6
 78
     2
 67
     7
 79
     3
170
     0
171
     0
290
     0
174
     0
 93
        1
 44
0.0
173
     0
291
     0
 45
0.0
1001
ACAD
1000
AcDbSavedByObjectVersion
1070
     0
  0
VISUALSTYLE
  5
40
102
{ACAD_REACTORS
330
2A
102
}
102
{ACAD_XDICTIONARY
360
38C
102
}
330
2A
100
AcDbVisualStyle
  2
X-Ray
 70
    25
 71
     2
 72
     2
 73
     1
 90
        1
 40
0.5
 41
30.0
 62
     5
 63
     7
421
 16777215
 74
     1
 91
        0
 64
     7
 65
   257
 75
     1
175
     1
 42
1.0
 92
        8
 66
     7
 43
1.0
 76
     1
 77
     6
 78
     2
 67
     7
 79
     3
170
     0
171
     0
290
     0
174
     0
 93
       13
 44
0.0
173
     0
291
     0
 45
0.0
1001
ACAD
1000
AcDbSavedByObjectVersion
1070
     0
  0
DICTIONARYVAR
  5
35F
102
{ACAD_REACTORS
330
35E
102
}
330
35E
100
DictionaryVariables
280
     0
  1
1:1
  0
DICTIONARYVAR
  5
3A3
102
{ACAD_REACTORS
330
35E
102
}
330
35E
100
DictionaryVariables
280
     0
  1
3.500000
  0
DICTIONARYVAR
  5
3A4
102
{ACAD_REACTORS
330
35E
102
}
330
35E
100
DictionaryVariables
280
     0
  1
acadiso.lin
  0
DICTIONARYVAR
  5
3A0
102
{ACAD_REACTORS
330
35E
102
}
330
35E
100
DictionaryVariables
280
     0
  1
Standard
  0
DICTIONARYVAR
  5
39F
102
{ACAD_REACTORS
330
35E
102
}
330
35E
100
DictionaryVariables
280
     0
  1
Standard
  0
DICTIONARYVAR
  5
360
102
{ACAD_REACTORS
330
35E
102
}
330
35E
100
DictionaryVariables
280
     0
  1
1
  0
DICTIONARYVAR
  5
361
102
{ACAD_REACTORS
330
35E
102
}
330
35E
100
DictionaryVariables
280
     0
  1
2
  0
DICTIONARY
  5
394
330
45
100
AcDbDictionary
280
     1
281
     1
  3
ACAD_XREC_ROUNDTRIP
360
395
  0
DICTIONARY
  5
392
330
44
100
AcDbDictionary
280
     1
281
     1
  3
ACAD_XREC_ROUNDTRIP
360
393
  0
DICTIONARY
  5
396
330
46
100
AcDbDictionary
280
     1
281
     1
  3
ACAD_XREC_ROUNDTRIP
360
397
  0
DICTIONARY
  5
39C
330
6C
100
AcDbDictionary
280
     1
281
     1
  3
ACAD_XREC_ROUNDTRIP
360
39D
  0
DICTIONARY
  5
398
330
6A
100
AcDbDictionary
280
     1
281
     1
  3
ACAD_ROUNDTRIP_2008_TABLESTYLE_CELLSTYLEMAP
360
39A
  3
ACAD_XREC_ROUNDTRIP
360
399
  0
DICTIONARY
  5
36A
330
2F
100
AcDbDictionary
280
     1
281
     1
  3
ACAD_XREC_ROUNDTRIP
360
36B
  0
DICTIONARY
  5
370
330
32
100
AcDbDictionary
280
     1
281
     1
  3
ACAD_XREC_ROUNDTRIP
360
371
  0
DICTIONARY
  5
378
330
36
100
AcDbDictionary
280
     1
281
     1
  3
ACAD_XREC_ROUNDTRIP
360
379
  0
DICTIONARY
  5
380
330
3A
100
AcDbDictionary
280
     1
281
     1
  3
ACAD_XREC_ROUNDTRIP
360
381
  0
DICTIONARY
  5
374
330
34
100
AcDbDictionary
280
     1
281
     1
  3
ACAD_XREC_ROUNDTRIP
360
375
  0
DICTIONARY
  5
376
330
35
100
AcDbDictionary
280
     1
281
     1
  3
ACAD_XREC_ROUNDTRIP
360
377
  0
DICTIONARY
  5
386
330
3D
100
AcDbDictionary
280
     1
281
     1
  3
ACAD_XREC_ROUNDTRIP
360
387
  0
DICTIONARY
  5
37E
330
39
100
AcDbDictionary
280
     1
281
     1
  3
ACAD_XREC_ROUNDTRIP
360
37F
  0
DICTIONARY
  5
362
330
2B
100
AcDbDictionary
280
     1
281
     1
  3
ACAD_XREC_ROUNDTRIP
360
363
  0
DICTIONARY
  5
364
330
2C
100
AcDbDictionary
280
     1
281
     1
  3
ACAD_XREC_ROUNDTRIP
360
365
  0
DICTIONARY
  5
366
330
2D
100
AcDbDictionary
280
     1
281
     1
  3
ACAD_XREC_ROUNDTRIP
360
367
  0
DICTIONARY
  5
368
330
2E
100
AcDbDictionary
280
     1
281
     1
  3
ACAD_XREC_ROUNDTRIP
360
369
  0
DICTIONARY
  5
36E
330
31
100
AcDbDictionary
280
     1
281
     1
  3
ACAD_XREC_ROUNDTRIP
360
36F
  0
DICTIONARY
  5
382
330
3B
100
AcDbDictionary
280
     1
281
     1
  3
ACAD_XREC_ROUNDTRIP
360
383
  0
DICTIONARY
  5
37C
330
38
100
AcDbDictionary
280
     1
281
     1
  3
ACAD_XREC_ROUNDTRIP
360
37D
  0
DICTIONARY
  5
384
330
3C
100
AcDbDictionary
280
     1
281
     1
  3
ACAD_XREC_ROUNDTRIP
360
385
  0
DICTIONARY
  5
372
330
33
100
AcDbDictionary
280
     1
281
     1
  3
ACAD_XREC_ROUNDTRIP
360
373
  0
DICTIONARY
  5
390
330
42
100
AcDbDictionary
280
     1
281
     1
  3
ACAD_XREC_ROUNDTRIP
360
391
  0
DICTIONARY
  5
38E
330
41
100
AcDbDictionary
280
     1
281
     1
  3
ACAD_XREC_ROUNDTRIP
360
38F
  0
DICTIONARY
  5
388
330
3E
100
AcDbDictionary
280
     1
281
     1
  3
ACAD_XREC_ROUNDTRIP
360
389
  0
DICTIONARY
  5
38A
330
3F
100
AcDbDictionary
280
     1
281
     1
  3
ACAD_XREC_ROUNDTRIP
360
38B
  0
DICTIONARY
  5
37A
330
37
100
AcDbDictionary
280
     1
281
     1
  3
ACAD_XREC_ROUNDTRIP
360
37B
  0
DICTIONARY
  5
36C
330
30
100
AcDbDictionary
280
     1
281
     1
  3
ACAD_XREC_ROUNDTRIP
360
36D
  0
DICTIONARY
  5
38C
330
40
100
AcDbDictionary
280
     1
281
     1
  3
ACAD_XREC_ROUNDTRIP
360
38D
  0
XRECORD
  5
395
102
{ACAD_REACTORS
330
394
102
}
330
394
100
AcDbXrecord
280
     1
102
MATERIAL
148
0.0
149
0.0
149
0.0
 93
        0
 94
      127
282
     0
 72
     1
 77
     1
171
     1
175
     1
179
     1
273
     0
  0
XRECORD
  5
393
102
{ACAD_REACTORS
330
392
102
}
330
392
100
AcDbXrecord
280
     1
102
MATERIAL
148
0.0
149
0.0
149
0.0
 93
        0
 94
      127
282
     0
 72
     1
 77
     1
171
     1
175
     1
179
     1
273
     0
  0
XRECORD
  5
397
102
{ACAD_REACTORS
330
396
102
}
330
396
100
AcDbXrecord
280
     1
102
MATERIAL
148
0.0
149
0.0
149
0.0
 93
        0
 94
      127
282
     0
 72
     1
 77
     1
171
     1
175
     1
179
     1
273
     0
  0
XRECORD
  5
39D
102
{ACAD_REACTORS
330
39C
102
}
330
39C
100
AcDbXrecord
280
     1
102
ACAD_ROUNDTRIP_2010_MLEADER_STYLE
  0
CELLSTYLEMAP
  5
39A
102
{ACAD_REACTORS
330
398
102
}
330
398
100
AcDbCellStyleMap
 90
        3
300
CELLSTYLE
  1
TABLEFORMAT_BEGIN
 90
        5
170
     1
 91
        0
 92
    32768
 62
   257
 93
        1
300
CONTENTFORMAT
  1
CONTENTFORMAT_BEGIN
 90
        0
 91
        0
 92
        4
 93
        0
300

 40
0.0
140
1.0
 94
        5
 62
     0
340
11
144
6.0
309
CONTENTFORMAT_END
171
     1
301
MARGIN
  1
CELLMARGIN_BEGIN
 40
1.5
 40
1.5
 40
1.5
 40
1.5
 40
1.5
 40
1.5
309
CELLMARGIN_END
 94
        6
 95
        1
302
GRIDFORMAT
  1
GRIDFORMAT_BEGIN
 90
        0
 91
        1
 62
     0
 92
       -2
340
14
 93
        0
 40
0.045
309
GRIDFORMAT_END
 95
        2
302
GRIDFORMAT
  1
GRIDFORMAT_BEGIN
 90
        0
 91
        1
 62
     0
 92
       -2
340
14
 93
        0
 40
0.045
309
GRIDFORMAT_END
 95
        4
302
GRIDFORMAT
  1
GRIDFORMAT_BEGIN
 90
        0
 91
        1
 62
     0
 92
       -2
340
14
 93
        0
 40
0.045
309
GRIDFORMAT_END
 95
        8
302
GRIDFORMAT
  1
GRIDFORMAT_BEGIN
 90
        0
 91
        1
 62
     0
 92
       -2
340
14
 93
        0
 40
0.045
309
GRIDFORMAT_END
 95
       16
302
GRIDFORMAT
  1
GRIDFORMAT_BEGIN
 90
        0
 91
        1
 62
     0
 92
       -2
340
14
 93
        0
 40
0.045
309
GRIDFORMAT_END
 95
       32
302
GRIDFORMAT
  1
GRIDFORMAT_BEGIN
 90
        0
 91
        1
 62
     0
 92
       -2
340
14
 93
        0
 40
0.045
309
GRIDFORMAT_END
309
TABLEFORMAT_END
  1
CELLSTYLE_BEGIN
 90
        1
 91
        1
300
_TITLE
309
CELLSTYLE_END
300
CELLSTYLE
  1
TABLEFORMAT_BEGIN
 90
        5
170
     1
 91
        0
 92
        0
 62
   257
 93
        1
300
CONTENTFORMAT
  1
CONTENTFORMAT_BEGIN
 90
        0
 91
        0
 92
        4
 93
        0
300

 40
0.0
140
1.0
 94
        5
 62
     0
340
11
144
4.5
309
CONTENTFORMAT_END
171
     1
301
MARGIN
  1
CELLMARGIN_BEGIN
 40
1.5
 40
1.5
 40
1.5
 40
1.5
 40
1.5
 40
1.5
309
CELLMARGIN_END
 94
        6
 95
        1
302
GRIDFORMAT
  1
GRIDFORMAT_BEGIN
 90
        0
 91
        1
 62
     0
 92
       -2
340
14
 93
        0
 40
0.045
309
GRIDFORMAT_END
 95
        2
302
GRIDFORMAT
  1
GRIDFORMAT_BEGIN
 90
        0
 91
        1
 62
     0
 92
       -2
340
14
 93
        0
 40
0.045
309
GRIDFORMAT_END
 95
        4
302
GRIDFORMAT
  1
GRIDFORMAT_BEGIN
 90
        0
 91
        1
 62
     0
 92
       -2
340
14
 93
        0
 40
0.045
309
GRIDFORMAT_END
 95
        8
302
GRIDFORMAT
  1
GRIDFORMAT_BEGIN
 90
        0
 91
        1
 62
     0
 92
       -2
340
14
 93
        0
 40
0.045
309
GRIDFORMAT_END
 95
       16
302
GRIDFORMAT
  1
GRIDFORMAT_BEGIN
 90
        0
 91
        1
 62
     0
 92
       -2
340
14
 93
        0
 40
0.045
309
GRIDFORMAT_END
 95
       32
302
GRIDFORMAT
  1
GRIDFORMAT_BEGIN
 90
        0
 91
        1
 62
     0
 92
       -2
340
14
 93
        0
 40
0.045
309
GRIDFORMAT_END
309
TABLEFORMAT_END
  1
CELLSTYLE_BEGIN
 90
        2
 91
        1
300
_HEADER
309
CELLSTYLE_END
300
CELLSTYLE
  1
TABLEFORMAT_BEGIN
 90
        5
170
     1
 91
        0
 92
        0
 62
   257
 93
        1
300
CONTENTFORMAT
  1
CONTENTFORMAT_BEGIN
 90
        0
 91
        0
 92
        4
 93
        0
300

 40
0.0
140
1.0
 94
        2
 62
     0
340
11
144
4.5
309
CONTENTFORMAT_END
171
     1
301
MARGIN
  1
CELLMARGIN_BEGIN
 40
1.5
 40
1.5
 40
1.5
 40
1.5
 40
1.5
 40
1.5
309
CELLMARGIN_END
 94
        6
 95
        1
302
GRIDFORMAT
  1
GRIDFORMAT_BEGIN
 90
        0
 91
        1
 62
     0
 92
       -2
340
14
 93
        0
 40
0.045
309
GRIDFORMAT_END
 95
        2
302
GRIDFORMAT
  1
GRIDFORMAT_BEGIN
 90
        0
 91
        1
 62
     0
 92
       -2
340
14
 93
        0
 40
0.045
309
GRIDFORMAT_END
 95
        4
302
GRIDFORMAT
  1
GRIDFORMAT_BEGIN
 90
        0
 91
        1
 62
     0
 92
       -2
340
14
 93
        0
 40
0.045
309
GRIDFORMAT_END
 95
        8
302
GRIDFORMAT
  1
GRIDFORMAT_BEGIN
 90
        0
 91
        1
 62
     0
 92
       -2
340
14
 93
        0
 40
0.045
309
GRIDFORMAT_END
 95
       16
302
GRIDFORMAT
  1
GRIDFORMAT_BEGIN
 90
        0
 91
        1
 62
     0
 92
       -2
340
14
 93
        0
 40
0.045
309
GRIDFORMAT_END
 95
       32
302
GRIDFORMAT
  1
GRIDFORMAT_BEGIN
 90
        0
 91
        1
 62
     0
 92
       -2
340
14
 93
        0
 40
0.045
309
GRIDFORMAT_END
309
TABLEFORMAT_END
  1
CELLSTYLE_BEGIN
 90
        3
 91
        2
300
_DATA
309
CELLSTYLE_END
  0
XRECORD
  5
399
102
{ACAD_REACTORS
330
398
102
}
330
398
100
AcDbXrecord
280
     1
102
ACAD_ROUNDTRIP_PRE2007_TABLESTYLE
 90
        4
 91
        0
  1

 92
        4
 93
        0
  2

 94
        4
 95
        0
  3

  0
XRECORD
  5
36B
102
{ACAD_REACTORS
330
36A
102
}
330
36A
100
AcDbXrecord
280
     1
102
RTVSPropertyOp0
 70
     1
102
RTVSPropertyOp1
 70
     1
102
RTVSPropertyOp2
 70
     1
102
RTVSPropertyOp3
 70
     1
102
RTVSPropertyOp4
 70
     1
102
RTVSPropertyOp5
 70
     1
102
RTVSPropertyOp6
 70
     1
102
RTVSPropertyOp7
 70
     1
102
RTVSPropertyOp8
 70
     1
102
RTVSPropertyOp9
 70
     1
102
RTVSPropertyOp10
 70
     1
102
RTVSPropertyOp11
 70
     1
102
RTVSPropertyOp12
 70
     1
102
RTVSPropertyOp13
 70
     1
102
RTVSPropertyOp14
 70
     1
102
RTVSPropertyOp15
 70
     1
102
RTVSPropertyOp16
 70
     1
102
RTVSPropertyOp17
 70
     1
102
RTVSPropertyOp18
 70
     1
102
RTVSPropertyOp19
 70
     1
102
RTVSPropertyOp20
 70
     1
102
RTVSPropertyOp21
 70
     1
102
RTVSPropertyOp22
 70
     1
102
RTVSPropertyOp23
 70
     1
102
RTVSPropertyOp24
 70
     1
102
RTVSPropertyOp25
 70
     1
102
RTVSPropertyOp26
 70
     1
102
RTVSPropertyOp27
 70
     1
102
RTVSPropertyOp28
 70
     1
102
RTVSPropertyOp29
 70
     1
102
RTVSPropertyOp30
 70
     1
102
RTVSPropertyOp31
 70
     1
102
RTVSPropertyOp32
 70
     1
102
RTVSPropertyOp33
 70
     1
102
RTVSPropertyOp34
 70
     1
102
RTVSPropertyOp35
 70
     1
102
RTVSPropertyOp36
 70
     1
102
RTVSPropertyOp37
 70
     1
102
RTVSPropertyOp38
 70
     1
102
RTVSPropertyOp39
 70
     1
102
RTVSPropertyOp40
 70
     1
102
RTVSPropertyOp41
 70
     1
102
RTVSPropertyOp42
 70
     1
102
RTVSPropertyOp43
 70
     1
102
RTVSPropertyOp44
 70
     1
102
RTVSPropertyOp45
 70
     1
102
RTVSPropertyOp46
 70
     1
102
RTVSPropertyOp47
 70
     1
102
RTVSPropertyOp48
 70
     1
102
RTVSPropertyOp49
 70
     1
102
RTVSPropertyOp50
 70
     1
102
RTVSPropertyOp51
 70
     0
102
RTVSPropertyOp52
 70
     0
102
RTVSPropertyOp53
 70
     1
102
RTVSPropertyOp54
 70
     1
102
RTVSPropertyOp55
 70
     1
102
RTVSPropertyOp56
 70
     1
102
RTVSPropertyOp57
 70
     1
102
RTVSPost2010Prop28
280
     1
102
RTVSPost2010PropOp28
 70
     1
102
RTVSPost2010Prop29
280
     1
102
RTVSPost2010PropOp29
 70
     1
102
RTVSPost2010Prop30
280
     0
102
RTVSPost2010PropOp30
 70
     1
102
RTVSPost2010Prop31
280
     0
102
RTVSPost2010PropOp31
 70
     1
102
RTVSPost2010Prop32
280
     0
102
RTVSPost2010PropOp32
 70
     1
102
RTVSPost2010Prop33
280
     0
102
RTVSPost2010PropOp33
 70
     1
102
RTVSPost2010Prop34
280
     0
102
RTVSPost2010PropOp34
 70
     1
102
RTVSPost2010Prop35
280
     0
102
RTVSPost2010PropOp35
 70
     1
102
RTVSPost2010Prop36
280
     0
102
RTVSPost2010PropOp36
 70
     1
102
RTVSPost2010Prop37
 90
       50
102
RTVSPost2010PropOp37
 70
     1
102
RTVSPost2010Prop38
140
0.0
102
RTVSPost2010PropOp38
 70
     1
102
RTVSPost2010Prop39
140
1.0
102
RTVSPost2010PropOp39
 70
     1
102
RTVSPost2010Prop40
 90
        0
102
RTVSPost2010PropOp40
 70
     1
102
RTVSPost2010Prop41ColorIndex
 90
       18
102
RTVSPost2010Prop41ColorRGB
 90
        0
102
RTVSPost2010PropOp41
 70
     1
102
RTVSPost2010Prop42
 90
       50
102
RTVSPost2010PropOp42
 70
     1
102
RTVSPost2010Prop43
 90
        3
102
RTVSPost2010PropOp43
 70
     1
102
RTVSPost2010Prop44ColorIndex
 90
        5
102
RTVSPost2010Prop44ColorRGB
 90
      255
102
RTVSPost2010PropOp44
 70
     1
102
RTVSPost2010Prop45
280
     0
102
RTVSPost2010PropOp45
 70
     1
102
RTVSPost2010Prop46
 90
       50
102
RTVSPost2010PropOp46
 70
     1
102
RTVSPost2010Prop47
 90
       50
102
RTVSPost2010PropOp47
 70
     1
102
RTVSPost2010Prop48
 90
       50
102
RTVSPost2010PropOp48
 70
     1
102
RTVSPost2010Prop49
280
     0
102
RTVSPost2010PropOp49
 70
     1
102
RTVSPost2010Prop50
 90
       50
102
RTVSPost2010PropOp50
 70
     1
102
RTVSPost2010Prop51ColorIndex
 90
      256
102
RTVSPost2010Prop51ColorRGB
 90
-16777216
102
RTVSPost2010PropOp51
 70
     0
102
RTVSPost2010Prop52
140
1.0
102
RTVSPost2010PropOp52
 70
     0
102
RTVSPost2010Prop53
 90
        2
102
RTVSPost2010PropOp53
 70
     1
102
RTVSPost2010Prop54
  1
strokes_ogs.tif
102
RTVSPost2010PropOp54
 70
     1
102
RTVSPost2010Prop55
280
     0
102
RTVSPost2010PropOp55
 70
     1
102
RTVSPost2010Prop56
140
1.0
102
RTVSPost2010PropOp56
 70
     1
102
RTVSPost2010Prop57
140
1.0
102
RTVSPost2010PropOp57
 70
     1
  0
XRECORD
  5
371
102
{ACAD_REACTORS
330
370
102
}
330
370
100
AcDbXrecord
280
     1
102
RTVSPropertyOp0
 70
     1
102
RTVSPropertyOp1
 70
     1
102
RTVSPropertyOp2
 70
     1
102
RTVSPropertyOp3
 70
     1
102
RTVSPropertyOp4
 70
     1
102
RTVSPropertyOp5
 70
     1
102
RTVSPropertyOp6
 70
     1
102
RTVSPropertyOp7
 70
     1
102
RTVSPropertyOp8
 70
     1
102
RTVSPropertyOp9
 70
     1
102
RTVSPropertyOp10
 70
     1
102
RTVSPropertyOp11
 70
     1
102
RTVSPropertyOp12
 70
     1
102
RTVSPropertyOp13
 70
     1
102
RTVSPropertyOp14
 70
     1
102
RTVSPropertyOp15
 70
     1
102
RTVSPropertyOp16
 70
     1
102
RTVSPropertyOp17
 70
     1
102
RTVSPropertyOp18
 70
     1
102
RTVSPropertyOp19
 70
     1
102
RTVSPropertyOp20
 70
     1
102
RTVSPropertyOp21
 70
     1
102
RTVSPropertyOp22
 70
     1
102
RTVSPropertyOp23
 70
     1
102
RTVSPropertyOp24
 70
     1
102
RTVSPropertyOp25
 70
     1
102
RTVSPropertyOp26
 70
     1
102
RTVSPropertyOp27
 70
     1
102
RTVSPropertyOp28
 70
     1
102
RTVSPropertyOp29
 70
     1
102
RTVSPropertyOp30
 70
     1
102
RTVSPropertyOp31
 70
     1
102
RTVSPropertyOp32
 70
     1
102
RTVSPropertyOp33
 70
     1
102
RTVSPropertyOp34
 70
     1
102
RTVSPropertyOp35
 70
     1
102
RTVSPropertyOp36
 70
     1
102
RTVSPropertyOp37
 70
     1
102
RTVSPropertyOp38
 70
     1
102
RTVSPropertyOp39
 70
     1
102
RTVSPropertyOp40
 70
     1
102
RTVSPropertyOp41
 70
     1
102
RTVSPropertyOp42
 70
     1
102
RTVSPropertyOp43
 70
     1
102
RTVSPropertyOp44
 70
     1
102
RTVSPropertyOp45
 70
     1
102
RTVSPropertyOp46
 70
     1
102
RTVSPropertyOp47
 70
     1
102
RTVSPropertyOp48
 70
     1
102
RTVSPropertyOp49
 70
     1
102
RTVSPropertyOp50
 70
     1
102
RTVSPropertyOp51
 70
     0
102
RTVSPropertyOp52
 70
     0
102
RTVSPropertyOp53
 70
     1
102
RTVSPropertyOp54
 70
     1
102
RTVSPropertyOp55
 70
     1
102
RTVSPropertyOp56
 70
     1
102
RTVSPropertyOp57
 70
     1
102
RTVSPost2010Prop28
280
     0
102
RTVSPost2010PropOp28
 70
     1
102
RTVSPost2010Prop29
280
     1
102
RTVSPost2010PropOp29
 70
     1
102
RTVSPost2010Prop30
280
     1
102
RTVSPost2010PropOp30
 70
     1
102
RTVSPost2010Prop31
280
     0
102
RTVSPost2010PropOp31
 70
     1
102
RTVSPost2010Prop32
280
     0
102
RTVSPost2010PropOp32
 70
     1
102
RTVSPost2010Prop33
280
     0
102
RTVSPost2010PropOp33
 70
     1
102
RTVSPost2010Prop34
280
     0
102
RTVSPost2010PropOp34
 70
     1
102
RTVSPost2010Prop35
280
     0
102
RTVSPost2010PropOp35
 70
     1
102
RTVSPost2010Prop36
280
     0
102
RTVSPost2010PropOp36
 70
     1
102
RTVSPost2010Prop37
 90
       50
102
RTVSPost2010PropOp37
 70
     1
102
RTVSPost2010Prop38
140
0.0
102
RTVSPost2010PropOp38
 70
     1
102
RTVSPost2010Prop39
140
1.0
102
RTVSPost2010PropOp39
 70
     1
102
RTVSPost2010Prop40
 90
        0
102
RTVSPost2010PropOp40
 70
     1
102
RTVSPost2010Prop41ColorIndex
 90
       18
102
RTVSPost2010Prop41ColorRGB
 90
        0
102
RTVSPost2010PropOp41
 70
     1
102
RTVSPost2010Prop42
 90
       50
102
RTVSPost2010PropOp42
 70
     1
102
RTVSPost2010Prop43
 90
        3
102
RTVSPost2010PropOp43
 70
     1
102
RTVSPost2010Prop44ColorIndex
 90
        5
102
RTVSPost2010Prop44ColorRGB
 90
      255
102
RTVSPost2010PropOp44
 70
     1
102
RTVSPost2010Prop45
280
     0
102
RTVSPost2010PropOp45
 70
     1
102
RTVSPost2010Prop46
 90
       50
102
RTVSPost2010PropOp46
 70
     1
102
RTVSPost2010Prop47
 90
       50
102
RTVSPost2010PropOp47
 70
     1
102
RTVSPost2010Prop48
 90
       50
102
RTVSPost2010PropOp48
 70
     1
102
RTVSPost2010Prop49
280
     0
102
RTVSPost2010PropOp49
 70
     1
102
RTVSPost2010Prop50
 90
       50
102
RTVSPost2010PropOp50
 70
     1
102
RTVSPost2010Prop51ColorIndex
 90
      256
102
RTVSPost2010Prop51ColorRGB
 90
-16777216
102
RTVSPost2010PropOp51
 70
     0
102
RTVSPost2010Prop52
140
1.0
102
RTVSPost2010PropOp52
 70
     0
102
RTVSPost2010Prop53
 90
        2
102
RTVSPost2010PropOp53
 70
     1
102
RTVSPost2010Prop54
  1
strokes_ogs.tif
102
RTVSPost2010PropOp54
 70
     1
102
RTVSPost2010Prop55
280
     0
102
RTVSPost2010PropOp55
 70
     1
102
RTVSPost2010Prop56
140
1.0
102
RTVSPost2010PropOp56
 70
     1
102
RTVSPost2010Prop57
140
1.0
102
RTVSPost2010PropOp57
 70
     1
  0
XRECORD
  5
379
102
{ACAD_REACTORS
330
378
102
}
330
378
100
AcDbXrecord
280
     1
102
RTVSPropertyOp0
 70
     1
102
RTVSPropertyOp1
 70
     1
102
RTVSPropertyOp2
 70
     1
102
RTVSPropertyOp3
 70
     1
102
RTVSPropertyOp4
 70
     1
102
RTVSPropertyOp5
 70
     1
102
RTVSPropertyOp6
 70
     1
102
RTVSPropertyOp7
 70
     1
102
RTVSPropertyOp8
 70
     1
102
RTVSPropertyOp9
 70
     1
102
RTVSPropertyOp10
 70
     1
102
RTVSPropertyOp11
 70
     1
102
RTVSPropertyOp12
 70
     1
102
RTVSPropertyOp13
 70
     1
102
RTVSPropertyOp14
 70
     1
102
RTVSPropertyOp15
 70
     1
102
RTVSPropertyOp16
 70
     1
102
RTVSPropertyOp17
 70
     1
102
RTVSPropertyOp18
 70
     1
102
RTVSPropertyOp19
 70
     1
102
RTVSPropertyOp20
 70
     1
102
RTVSPropertyOp21
 70
     1
102
RTVSPropertyOp22
 70
     1
102
RTVSPropertyOp23
 70
     1
102
RTVSPropertyOp24
 70
     1
102
RTVSPropertyOp25
 70
     1
102
RTVSPropertyOp26
 70
     1
102
RTVSPropertyOp27
 70
     1
102
RTVSPropertyOp28
 70
     1
102
RTVSPropertyOp29
 70
     1
102
RTVSPropertyOp30
 70
     1
102
RTVSPropertyOp31
 70
     1
102
RTVSPropertyOp32
 70
     1
102
RTVSPropertyOp33
 70
     1
102
RTVSPropertyOp34
 70
     1
102
RTVSPropertyOp35
 70
     1
102
RTVSPropertyOp36
 70
     1
102
RTVSPropertyOp37
 70
     1
102
RTVSPropertyOp38
 70
     1
102
RTVSPropertyOp39
 70
     1
102
RTVSPropertyOp40
 70
     1
102
RTVSPropertyOp41
 70
     1
102
RTVSPropertyOp42
 70
     1
102
RTVSPropertyOp43
 70
     1
102
RTVSPropertyOp44
 70
     1
102
RTVSPropertyOp45
 70
     1
102
RTVSPropertyOp46
 70
     1
102
RTVSPropertyOp47
 70
     1
102
RTVSPropertyOp48
 70
     1
102
RTVSPropertyOp49
 70
     1
102
RTVSPropertyOp50
 70
     1
102
RTVSPropertyOp51
 70
     0
102
RTVSPropertyOp52
 70
     0
102
RTVSPropertyOp53
 70
     1
102
RTVSPropertyOp54
 70
     1
102
RTVSPropertyOp55
 70
     1
102
RTVSPropertyOp56
 70
     1
102
RTVSPropertyOp57
 70
     1
102
RTVSPost2010Prop28
280
     0
102
RTVSPost2010PropOp28
 70
     1
102
RTVSPost2010Prop29
280
     1
102
RTVSPost2010PropOp29
 70
     1
102
RTVSPost2010Prop30
280
     1
102
RTVSPost2010PropOp30
 70
     1
102
RTVSPost2010Prop31
280
     0
102
RTVSPost2010PropOp31
 70
     1
102
RTVSPost2010Prop32
280
     0
102
RTVSPost2010PropOp32
 70
     1
102
RTVSPost2010Prop33
280
     0
102
RTVSPost2010PropOp33
 70
     1
102
RTVSPost2010Prop34
280
     0
102
RTVSPost2010PropOp34
 70
     1
102
RTVSPost2010Prop35
280
     0
102
RTVSPost2010PropOp35
 70
     1
102
RTVSPost2010Prop36
280
     0
102
RTVSPost2010PropOp36
 70
     1
102
RTVSPost2010Prop37
 90
       50
102
RTVSPost2010PropOp37
 70
     1
102
RTVSPost2010Prop38
140
0.0
102
RTVSPost2010PropOp38
 70
     1
102
RTVSPost2010Prop39
140
1.0
102
RTVSPost2010PropOp39
 70
     1
102
RTVSPost2010Prop40
 90
        0
102
RTVSPost2010PropOp40
 70
     1
102
RTVSPost2010Prop41ColorIndex
 90
       18
102
RTVSPost2010Prop41ColorRGB
 90
        0
102
RTVSPost2010PropOp41
 70
     1
102
RTVSPost2010Prop42
 90
       50
102
RTVSPost2010PropOp42
 70
     1
102
RTVSPost2010Prop43
 90
        3
102
RTVSPost2010PropOp43
 70
     1
102
RTVSPost2010Prop44ColorIndex
 90
        5
102
RTVSPost2010Prop44ColorRGB
 90
      255
102
RTVSPost2010PropOp44
 70
     1
102
RTVSPost2010Prop45
280
     0
102
RTVSPost2010PropOp45
 70
     1
102
RTVSPost2010Prop46
 90
       50
102
RTVSPost2010PropOp46
 70
     1
102
RTVSPost2010Prop47
 90
       50
102
RTVSPost2010PropOp47
 70
     1
102
RTVSPost2010Prop48
 90
       50
102
RTVSPost2010PropOp48
 70
     1
102
RTVSPost2010Prop49
280
     0
102
RTVSPost2010PropOp49
 70
     1
102
RTVSPost2010Prop50
 90
       50
102
RTVSPost2010PropOp50
 70
     1
102
RTVSPost2010Prop51ColorIndex
 90
      256
102
RTVSPost2010Prop51ColorRGB
 90
-16777216
102
RTVSPost2010PropOp51
 70
     0
102
RTVSPost2010Prop52
140
1.0
102
RTVSPost2010PropOp52
 70
     0
102
RTVSPost2010Prop53
 90
        2
102
RTVSPost2010PropOp53
 70
     1
102
RTVSPost2010Prop54
  1
strokes_ogs.tif
102
RTVSPost2010PropOp54
 70
     1
102
RTVSPost2010Prop55
280
     0
102
RTVSPost2010PropOp55
 70
     1
102
RTVSPost2010Prop56
140
1.0
102
RTVSPost2010PropOp56
 70
     1
102
RTVSPost2010Prop57
140
1.0
102
RTVSPost2010PropOp57
 70
     1
  0
XRECORD
  5
381
102
{ACAD_REACTORS
330
380
102
}
330
380
100
AcDbXrecord
280
     1
102
RTVSPropertyOp0
 70
     1
102
RTVSPropertyOp1
 70
     1
102
RTVSPropertyOp2
 70
     1
102
RTVSPropertyOp3
 70
     1
102
RTVSPropertyOp4
 70
     1
102
RTVSPropertyOp5
 70
     1
102
RTVSPropertyOp6
 70
     1
102
RTVSPropertyOp7
 70
     1
102
RTVSPropertyOp8
 70
     1
102
RTVSPropertyOp9
 70
     1
102
RTVSPropertyOp10
 70
     1
102
RTVSPropertyOp11
 70
     1
102
RTVSPropertyOp12
 70
     1
102
RTVSPropertyOp13
 70
     1
102
RTVSPropertyOp14
 70
     1
102
RTVSPropertyOp15
 70
     1
102
RTVSPropertyOp16
 70
     1
102
RTVSPropertyOp17
 70
     1
102
RTVSPropertyOp18
 70
     1
102
RTVSPropertyOp19
 70
     1
102
RTVSPropertyOp20
 70
     1
102
RTVSPropertyOp21
 70
     1
102
RTVSPropertyOp22
 70
     1
102
RTVSPropertyOp23
 70
     1
102
RTVSPropertyOp24
 70
     1
102
RTVSPropertyOp25
 70
     1
102
RTVSPropertyOp26
 70
     1
102
RTVSPropertyOp27
 70
     1
102
RTVSPropertyOp28
 70
     1
102
RTVSPropertyOp29
 70
     1
102
RTVSPropertyOp30
 70
     1
102
RTVSPropertyOp31
 70
     1
102
RTVSPropertyOp32
 70
     1
102
RTVSPropertyOp33
 70
     1
102
RTVSPropertyOp34
 70
     1
102
RTVSPropertyOp35
 70
     1
102
RTVSPropertyOp36
 70
     1
102
RTVSPropertyOp37
 70
     1
102
RTVSPropertyOp38
 70
     1
102
RTVSPropertyOp39
 70
     1
102
RTVSPropertyOp40
 70
     1
102
RTVSPropertyOp41
 70
     1
102
RTVSPropertyOp42
 70
     1
102
RTVSPropertyOp43
 70
     1
102
RTVSPropertyOp44
 70
     1
102
RTVSPropertyOp45
 70
     1
102
RTVSPropertyOp46
 70
     1
102
RTVSPropertyOp47
 70
     1
102
RTVSPropertyOp48
 70
     1
102
RTVSPropertyOp49
 70
     1
102
RTVSPropertyOp50
 70
     1
102
RTVSPropertyOp51
 70
     0
102
RTVSPropertyOp52
 70
     0
102
RTVSPropertyOp53
 70
     1
102
RTVSPropertyOp54
 70
     1
102
RTVSPropertyOp55
 70
     1
102
RTVSPropertyOp56
 70
     1
102
RTVSPropertyOp57
 70
     1
102
RTVSPost2010Prop28
280
     0
102
RTVSPost2010PropOp28
 70
     1
102
RTVSPost2010Prop29
280
     1
102
RTVSPost2010PropOp29
 70
     1
102
RTVSPost2010Prop30
280
     1
102
RTVSPost2010PropOp30
 70
     1
102
RTVSPost2010Prop31
280
     0
102
RTVSPost2010PropOp31
 70
     1
102
RTVSPost2010Prop32
280
     0
102
RTVSPost2010PropOp32
 70
     1
102
RTVSPost2010Prop33
280
     0
102
RTVSPost2010PropOp33
 70
     1
102
RTVSPost2010Prop34
280
     0
102
RTVSPost2010PropOp34
 70
     1
102
RTVSPost2010Prop35
280
     0
102
RTVSPost2010PropOp35
 70
     1
102
RTVSPost2010Prop36
280
     0
102
RTVSPost2010PropOp36
 70
     1
102
RTVSPost2010Prop37
 90
       50
102
RTVSPost2010PropOp37
 70
     1
102
RTVSPost2010Prop38
140
0.0
102
RTVSPost2010PropOp38
 70
     1
102
RTVSPost2010Prop39
140
1.0
102
RTVSPost2010PropOp39
 70
     1
102
RTVSPost2010Prop40
 90
        0
102
RTVSPost2010PropOp40
 70
     1
102
RTVSPost2010Prop41ColorIndex
 90
       18
102
RTVSPost2010Prop41ColorRGB
 90
        0
102
RTVSPost2010PropOp41
 70
     1
102
RTVSPost2010Prop42
 90
       50
102
RTVSPost2010PropOp42
 70
     1
102
RTVSPost2010Prop43
 90
        3
102
RTVSPost2010PropOp43
 70
     1
102
RTVSPost2010Prop44ColorIndex
 90
        5
102
RTVSPost2010Prop44ColorRGB
 90
      255
102
RTVSPost2010PropOp44
 70
     1
102
RTVSPost2010Prop45
280
     0
102
RTVSPost2010PropOp45
 70
     1
102
RTVSPost2010Prop46
 90
       50
102
RTVSPost2010PropOp46
 70
     1
102
RTVSPost2010Prop47
 90
       50
102
RTVSPost2010PropOp47
 70
     1
102
RTVSPost2010Prop48
 90
       50
102
RTVSPost2010PropOp48
 70
     1
102
RTVSPost2010Prop49
280
     0
102
RTVSPost2010PropOp49
 70
     1
102
RTVSPost2010Prop50
 90
       50
102
RTVSPost2010PropOp50
 70
     1
102
RTVSPost2010Prop51ColorIndex
 90
      256
102
RTVSPost2010Prop51ColorRGB
 90
-16777216
102
RTVSPost2010PropOp51
 70
     0
102
RTVSPost2010Prop52
140
1.0
102
RTVSPost2010PropOp52
 70
     0
102
RTVSPost2010Prop53
 90
        2
102
RTVSPost2010PropOp53
 70
     1
102
RTVSPost2010Prop54
  1
strokes_ogs.tif
102
RTVSPost2010PropOp54
 70
     1
102
RTVSPost2010Prop55
280
     0
102
RTVSPost2010PropOp55
 70
     1
102
RTVSPost2010Prop56
140
1.0
102
RTVSPost2010PropOp56
 70
     1
102
RTVSPost2010Prop57
140
1.0
102
RTVSPost2010PropOp57
 70
     1
  0
XRECORD
  5
375
102
{ACAD_REACTORS
330
374
102
}
330
374
100
AcDbXrecord
280
     1
102
RTVSPropertyOp0
 70
     1
102
RTVSPropertyOp1
 70
     1
102
RTVSPropertyOp2
 70
     1
102
RTVSPropertyOp3
 70
     1
102
RTVSPropertyOp4
 70
     1
102
RTVSPropertyOp5
 70
     1
102
RTVSPropertyOp6
 70
     1
102
RTVSPropertyOp7
 70
     1
102
RTVSPropertyOp8
 70
     1
102
RTVSPropertyOp9
 70
     1
102
RTVSPropertyOp10
 70
     1
102
RTVSPropertyOp11
 70
     1
102
RTVSPropertyOp12
 70
     1
102
RTVSPropertyOp13
 70
     1
102
RTVSPropertyOp14
 70
     1
102
RTVSPropertyOp15
 70
     1
102
RTVSPropertyOp16
 70
     1
102
RTVSPropertyOp17
 70
     1
102
RTVSPropertyOp18
 70
     1
102
RTVSPropertyOp19
 70
     1
102
RTVSPropertyOp20
 70
     1
102
RTVSPropertyOp21
 70
     1
102
RTVSPropertyOp22
 70
     1
102
RTVSPropertyOp23
 70
     1
102
RTVSPropertyOp24
 70
     1
102
RTVSPropertyOp25
 70
     1
102
RTVSPropertyOp26
 70
     1
102
RTVSPropertyOp27
 70
     1
102
RTVSPropertyOp28
 70
     1
102
RTVSPropertyOp29
 70
     1
102
RTVSPropertyOp30
 70
     1
102
RTVSPropertyOp31
 70
     1
102
RTVSPropertyOp32
 70
     1
102
RTVSPropertyOp33
 70
     1
102
RTVSPropertyOp34
 70
     1
102
RTVSPropertyOp35
 70
     1
102
RTVSPropertyOp36
 70
     1
102
RTVSPropertyOp37
 70
     1
102
RTVSPropertyOp38
 70
     1
102
RTVSPropertyOp39
 70
     1
102
RTVSPropertyOp40
 70
     1
102
RTVSPropertyOp41
 70
     1
102
RTVSPropertyOp42
 70
     1
102
RTVSPropertyOp43
 70
     1
102
RTVSPropertyOp44
 70
     1
102
RTVSPropertyOp45
 70
     1
102
RTVSPropertyOp46
 70
     1
102
RTVSPropertyOp47
 70
     1
102
RTVSPropertyOp48
 70
     1
102
RTVSPropertyOp49
 70
     1
102
RTVSPropertyOp50
 70
     1
102
RTVSPropertyOp51
 70
     0
102
RTVSPropertyOp52
 70
     0
102
RTVSPropertyOp53
 70
     1
102
RTVSPropertyOp54
 70
     1
102
RTVSPropertyOp55
 70
     1
102
RTVSPropertyOp56
 70
     1
102
RTVSPropertyOp57
 70
     1
102
RTVSPost2010Prop28
280
     0
102
RTVSPost2010PropOp28
 70
     1
102
RTVSPost2010Prop29
280
     1
102
RTVSPost2010PropOp29
 70
     1
102
RTVSPost2010Prop30
280
     1
102
RTVSPost2010PropOp30
 70
     1
102
RTVSPost2010Prop31
280
     0
102
RTVSPost2010PropOp31
 70
     1
102
RTVSPost2010Prop32
280
     0
102
RTVSPost2010PropOp32
 70
     1
102
RTVSPost2010Prop33
280
     0
102
RTVSPost2010PropOp33
 70
     1
102
RTVSPost2010Prop34
280
     0
102
RTVSPost2010PropOp34
 70
     1
102
RTVSPost2010Prop35
280
     0
102
RTVSPost2010PropOp35
 70
     1
102
RTVSPost2010Prop36
280
     0
102
RTVSPost2010PropOp36
 70
     1
102
RTVSPost2010Prop37
 90
       50
102
RTVSPost2010PropOp37
 70
     1
102
RTVSPost2010Prop38
140
0.0
102
RTVSPost2010PropOp38
 70
     1
102
RTVSPost2010Prop39
140
1.0
102
RTVSPost2010PropOp39
 70
     1
102
RTVSPost2010Prop40
 90
        0
102
RTVSPost2010PropOp40
 70
     1
102
RTVSPost2010Prop41ColorIndex
 90
       18
102
RTVSPost2010Prop41ColorRGB
 90
        0
102
RTVSPost2010PropOp41
 70
     1
102
RTVSPost2010Prop42
 90
       50
102
RTVSPost2010PropOp42
 70
     1
102
RTVSPost2010Prop43
 90
        3
102
RTVSPost2010PropOp43
 70
     1
102
RTVSPost2010Prop44ColorIndex
 90
        5
102
RTVSPost2010Prop44ColorRGB
 90
      255
102
RTVSPost2010PropOp44
 70
     1
102
RTVSPost2010Prop45
280
     0
102
RTVSPost2010PropOp45
 70
     1
102
RTVSPost2010Prop46
 90
       50
102
RTVSPost2010PropOp46
 70
     1
102
RTVSPost2010Prop47
 90
       50
102
RTVSPost2010PropOp47
 70
     1
102
RTVSPost2010Prop48
 90
       50
102
RTVSPost2010PropOp48
 70
     1
102
RTVSPost2010Prop49
280
     0
102
RTVSPost2010PropOp49
 70
     1
102
RTVSPost2010Prop50
 90
       50
102
RTVSPost2010PropOp50
 70
     1
102
RTVSPost2010Prop51ColorIndex
 90
      256
102
RTVSPost2010Prop51ColorRGB
 90
-16777216
102
RTVSPost2010PropOp51
 70
     0
102
RTVSPost2010Prop52
140
1.0
102
RTVSPost2010PropOp52
 70
     0
102
RTVSPost2010Prop53
 90
        2
102
RTVSPost2010PropOp53
 70
     1
102
RTVSPost2010Prop54
  1
strokes_ogs.tif
102
RTVSPost2010PropOp54
 70
     1
102
RTVSPost2010Prop55
280
     0
102
RTVSPost2010PropOp55
 70
     1
102
RTVSPost2010Prop56
140
1.0
102
RTVSPost2010PropOp56
 70
     1
102
RTVSPost2010Prop57
140
1.0
102
RTVSPost2010PropOp57
 70
     1
  0
XRECORD
  5
377
102
{ACAD_REACTORS
330
376
102
}
330
376
100
AcDbXrecord
280
     1
102
RTVSPropertyOp0
 70
     1
102
RTVSPropertyOp1
 70
     1
102
RTVSPropertyOp2
 70
     1
102
RTVSPropertyOp3
 70
     1
102
RTVSPropertyOp4
 70
     1
102
RTVSPropertyOp5
 70
     1
102
RTVSPropertyOp6
 70
     1
102
RTVSPropertyOp7
 70
     1
102
RTVSPropertyOp8
 70
     1
102
RTVSPropertyOp9
 70
     1
102
RTVSPropertyOp10
 70
     1
102
RTVSPropertyOp11
 70
     1
102
RTVSPropertyOp12
 70
     1
102
RTVSPropertyOp13
 70
     1
102
RTVSPropertyOp14
 70
     1
102
RTVSPropertyOp15
 70
     1
102
RTVSPropertyOp16
 70
     1
102
RTVSPropertyOp17
 70
     1
102
RTVSPropertyOp18
 70
     1
102
RTVSPropertyOp19
 70
     1
102
RTVSPropertyOp20
 70
     1
102
RTVSPropertyOp21
 70
     1
102
RTVSPropertyOp22
 70
     1
102
RTVSPropertyOp23
 70
     1
102
RTVSPropertyOp24
 70
     1
102
RTVSPropertyOp25
 70
     1
102
RTVSPropertyOp26
 70
     1
102
RTVSPropertyOp27
 70
     1
102
RTVSPropertyOp28
 70
     1
102
RTVSPropertyOp29
 70
     1
102
RTVSPropertyOp30
 70
     1
102
RTVSPropertyOp31
 70
     1
102
RTVSPropertyOp32
 70
     1
102
RTVSPropertyOp33
 70
     1
102
RTVSPropertyOp34
 70
     1
102
RTVSPropertyOp35
 70
     1
102
RTVSPropertyOp36
 70
     1
102
RTVSPropertyOp37
 70
     1
102
RTVSPropertyOp38
 70
     1
102
RTVSPropertyOp39
 70
     1
102
RTVSPropertyOp40
 70
     1
102
RTVSPropertyOp41
 70
     1
102
RTVSPropertyOp42
 70
     1
102
RTVSPropertyOp43
 70
     1
102
RTVSPropertyOp44
 70
     1
102
RTVSPropertyOp45
 70
     1
102
RTVSPropertyOp46
 70
     1
102
RTVSPropertyOp47
 70
     1
102
RTVSPropertyOp48
 70
     1
102
RTVSPropertyOp49
 70
     1
102
RTVSPropertyOp50
 70
     1
102
RTVSPropertyOp51
 70
     0
102
RTVSPropertyOp52
 70
     0
102
RTVSPropertyOp53
 70
     1
102
RTVSPropertyOp54
 70
     1
102
RTVSPropertyOp55
 70
     1
102
RTVSPropertyOp56
 70
     1
102
RTVSPropertyOp57
 70
     1
102
RTVSPost2010Prop28
280
     0
102
RTVSPost2010PropOp28
 70
     1
102
RTVSPost2010Prop29
280
     1
102
RTVSPost2010PropOp29
 70
     1
102
RTVSPost2010Prop30
280
     1
102
RTVSPost2010PropOp30
 70
     1
102
RTVSPost2010Prop31
280
     0
102
RTVSPost2010PropOp31
 70
     1
102
RTVSPost2010Prop32
280
     0
102
RTVSPost2010PropOp32
 70
     1
102
RTVSPost2010Prop33
280
     0
102
RTVSPost2010PropOp33
 70
     1
102
RTVSPost2010Prop34
280
     0
102
RTVSPost2010PropOp34
 70
     1
102
RTVSPost2010Prop35
280
     0
102
RTVSPost2010PropOp35
 70
     1
102
RTVSPost2010Prop36
280
     0
102
RTVSPost2010PropOp36
 70
     1
102
RTVSPost2010Prop37
 90
       50
102
RTVSPost2010PropOp37
 70
     1
102
RTVSPost2010Prop38
140
0.0
102
RTVSPost2010PropOp38
 70
     1
102
RTVSPost2010Prop39
140
1.0
102
RTVSPost2010PropOp39
 70
     1
102
RTVSPost2010Prop40
 90
        0
102
RTVSPost2010PropOp40
 70
     1
102
RTVSPost2010Prop41ColorIndex
 90
       18
102
RTVSPost2010Prop41ColorRGB
 90
        0
102
RTVSPost2010PropOp41
 70
     1
102
RTVSPost2010Prop42
 90
       50
102
RTVSPost2010PropOp42
 70
     1
102
RTVSPost2010Prop43
 90
        3
102
RTVSPost2010PropOp43
 70
     1
102
RTVSPost2010Prop44ColorIndex
 90
        5
102
RTVSPost2010Prop44ColorRGB
 90
      255
102
RTVSPost2010PropOp44
 70
     1
102
RTVSPost2010Prop45
280
     0
102
RTVSPost2010PropOp45
 70
     1
102
RTVSPost2010Prop46
 90
       50
102
RTVSPost2010PropOp46
 70
     1
102
RTVSPost2010Prop47
 90
       50
102
RTVSPost2010PropOp47
 70
     1
102
RTVSPost2010Prop48
 90
       50
102
RTVSPost2010PropOp48
 70
     1
102
RTVSPost2010Prop49
280
     0
102
RTVSPost2010PropOp49
 70
     1
102
RTVSPost2010Prop50
 90
       50
102
RTVSPost2010PropOp50
 70
     1
102
RTVSPost2010Prop51ColorIndex
 90
      256
102
RTVSPost2010Prop51ColorRGB
 90
-16777216
102
RTVSPost2010PropOp51
 70
     0
102
RTVSPost2010Prop52
140
1.0
102
RTVSPost2010PropOp52
 70
     0
102
RTVSPost2010Prop53
 90
        2
102
RTVSPost2010PropOp53
 70
     1
102
RTVSPost2010Prop54
  1
strokes_ogs.tif
102
RTVSPost2010PropOp54
 70
     1
102
RTVSPost2010Prop55
280
     0
102
RTVSPost2010PropOp55
 70
     1
102
RTVSPost2010Prop56
140
1.0
102
RTVSPost2010PropOp56
 70
     1
102
RTVSPost2010Prop57
140
1.0
102
RTVSPost2010PropOp57
 70
     1
  0
XRECORD
  5
387
102
{ACAD_REACTORS
330
386
102
}
330
386
100
AcDbXrecord
280
     1
102
RTVSPropertyOp0
 70
     0
102
RTVSPropertyOp1
 70
     0
102
RTVSPropertyOp2
 70
     0
102
RTVSPropertyOp3
 70
     0
102
RTVSPropertyOp4
 70
     0
102
RTVSPropertyOp5
 70
     0
102
RTVSPropertyOp6
 70
     0
102
RTVSPropertyOp7
 70
     0
102
RTVSPropertyOp8
 70
     0
102
RTVSPropertyOp9
 70
     0
102
RTVSPropertyOp10
 70
     0
102
RTVSPropertyOp11
 70
     0
102
RTVSPropertyOp12
 70
     0
102
RTVSPropertyOp13
 70
     0
102
RTVSPropertyOp14
 70
     2
102
RTVSPropertyOp15
 70
     0
102
RTVSPropertyOp16
 70
     0
102
RTVSPropertyOp17
 70
     0
102
RTVSPropertyOp18
 70
     0
102
RTVSPropertyOp19
 70
     0
102
RTVSPropertyOp20
 70
     0
102
RTVSPropertyOp21
 70
     0
102
RTVSPropertyOp22
 70
     0
102
RTVSPropertyOp23
 70
     0
102
RTVSPropertyOp24
 70
     0
102
RTVSPropertyOp25
 70
     0
102
RTVSPropertyOp26
 70
     0
102
RTVSPropertyOp27
 70
     0
102
RTVSPropertyOp28
 70
     0
102
RTVSPropertyOp29
 70
     0
102
RTVSPropertyOp30
 70
     0
102
RTVSPropertyOp31
 70
     0
102
RTVSPropertyOp32
 70
     0
102
RTVSPropertyOp33
 70
     0
102
RTVSPropertyOp34
 70
     0
102
RTVSPropertyOp35
 70
     0
102
RTVSPropertyOp36
 70
     0
102
RTVSPropertyOp37
 70
     0
102
RTVSPropertyOp38
 70
     0
102
RTVSPropertyOp39
 70
     0
102
RTVSPropertyOp40
 70
     0
102
RTVSPropertyOp41
 70
     0
102
RTVSPropertyOp42
 70
     0
102
RTVSPropertyOp43
 70
     0
102
RTVSPropertyOp44
 70
     0
102
RTVSPropertyOp45
 70
     0
102
RTVSPropertyOp46
 70
     0
102
RTVSPropertyOp47
 70
     0
102
RTVSPropertyOp48
 70
     0
102
RTVSPropertyOp49
 70
     0
102
RTVSPropertyOp50
 70
     0
102
RTVSPropertyOp51
 70
     0
102
RTVSPropertyOp52
 70
     0
102
RTVSPropertyOp53
 70
     0
102
RTVSPropertyOp54
 70
     0
102
RTVSPropertyOp55
 70
     0
102
RTVSPropertyOp56
 70
     0
102
RTVSPropertyOp57
 70
     0
102
RTVSPost2010Prop28
280
     0
102
RTVSPost2010PropOp28
 70
     0
102
RTVSPost2010Prop29
280
     1
102
RTVSPost2010PropOp29
 70
     0
102
RTVSPost2010Prop30
280
     1
102
RTVSPost2010PropOp30
 70
     0
102
RTVSPost2010Prop31
280
     0
102
RTVSPost2010PropOp31
 70
     0
102
RTVSPost2010Prop32
280
     0
102
RTVSPost2010PropOp32
 70
     0
102
RTVSPost2010Prop33
280
     0
102
RTVSPost2010PropOp33
 70
     0
102
RTVSPost2010Prop34
280
     0
102
RTVSPost2010PropOp34
 70
     0
102
RTVSPost2010Prop35
280
     0
102
RTVSPost2010PropOp35
 70
     0
102
RTVSPost2010Prop36
280
     0
102
RTVSPost2010PropOp36
 70
     0
102
RTVSPost2010Prop37
 90
       50
102
RTVSPost2010PropOp37
 70
     0
102
RTVSPost2010Prop38
140
0.0
102
RTVSPost2010PropOp38
 70
     0
102
RTVSPost2010Prop39
140
1.0
102
RTVSPost2010PropOp39
 70
     0
102
RTVSPost2010Prop40
 90
        0
102
RTVSPost2010PropOp40
 70
     0
102
RTVSPost2010Prop41ColorIndex
 90
       18
102
RTVSPost2010Prop41ColorRGB
 90
        0
102
RTVSPost2010PropOp41
 70
     0
102
RTVSPost2010Prop42
 90
       50
102
RTVSPost2010PropOp42
 70
     0
102
RTVSPost2010Prop43
 90
        3
102
RTVSPost2010PropOp43
 70
     0
102
RTVSPost2010Prop44ColorIndex
 90
        5
102
RTVSPost2010Prop44ColorRGB
 90
      255
102
RTVSPost2010PropOp44
 70
     0
102
RTVSPost2010Prop45
280
     0
102
RTVSPost2010PropOp45
 70
     0
102
RTVSPost2010Prop46
 90
       50
102
RTVSPost2010PropOp46
 70
     0
102
RTVSPost2010Prop47
 90
       50
102
RTVSPost2010PropOp47
 70
     0
102
RTVSPost2010Prop48
 90
       50
102
RTVSPost2010PropOp48
 70
     0
102
RTVSPost2010Prop49
280
     0
102
RTVSPost2010PropOp49
 70
     0
102
RTVSPost2010Prop50
 90
       50
102
RTVSPost2010PropOp50
 70
     0
102
RTVSPost2010Prop51ColorIndex
 90
      256
102
RTVSPost2010Prop51ColorRGB
 90
-16777216
102
RTVSPost2010PropOp51
 70
     0
102
RTVSPost2010Prop52
140
1.0
102
RTVSPost2010PropOp52
 70
     0
102
RTVSPost2010Prop53
 90
        2
102
RTVSPost2010PropOp53
 70
     0
102
RTVSPost2010Prop54
  1
strokes_ogs.tif
102
RTVSPost2010PropOp54
 70
     0
102
RTVSPost2010Prop55
280
     0
102
RTVSPost2010PropOp55
 70
     0
102
RTVSPost2010Prop56
140
1.0
102
RTVSPost2010PropOp56
 70
     0
102
RTVSPost2010Prop57
140
1.0
102
RTVSPost2010PropOp57
 70
     0
  0
XRECORD
  5
37F
102
{ACAD_REACTORS
330
37E
102
}
330
37E
100
AcDbXrecord
280
     1
102
RTVSPropertyOp0
 70
     1
102
RTVSPropertyOp1
 70
     1
102
RTVSPropertyOp2
 70
     1
102
RTVSPropertyOp3
 70
     1
102
RTVSPropertyOp4
 70
     1
102
RTVSPropertyOp5
 70
     1
102
RTVSPropertyOp6
 70
     1
102
RTVSPropertyOp7
 70
     1
102
RTVSPropertyOp8
 70
     1
102
RTVSPropertyOp9
 70
     1
102
RTVSPropertyOp10
 70
     1
102
RTVSPropertyOp11
 70
     1
102
RTVSPropertyOp12
 70
     1
102
RTVSPropertyOp13
 70
     1
102
RTVSPropertyOp14
 70
     1
102
RTVSPropertyOp15
 70
     1
102
RTVSPropertyOp16
 70
     1
102
RTVSPropertyOp17
 70
     1
102
RTVSPropertyOp18
 70
     1
102
RTVSPropertyOp19
 70
     1
102
RTVSPropertyOp20
 70
     1
102
RTVSPropertyOp21
 70
     1
102
RTVSPropertyOp22
 70
     1
102
RTVSPropertyOp23
 70
     1
102
RTVSPropertyOp24
 70
     1
102
RTVSPropertyOp25
 70
     1
102
RTVSPropertyOp26
 70
     1
102
RTVSPropertyOp27
 70
     1
102
RTVSPropertyOp28
 70
     1
102
RTVSPropertyOp29
 70
     1
102
RTVSPropertyOp30
 70
     1
102
RTVSPropertyOp31
 70
     1
102
RTVSPropertyOp32
 70
     1
102
RTVSPropertyOp33
 70
     1
102
RTVSPropertyOp34
 70
     1
102
RTVSPropertyOp35
 70
     1
102
RTVSPropertyOp36
 70
     1
102
RTVSPropertyOp37
 70
     1
102
RTVSPropertyOp38
 70
     1
102
RTVSPropertyOp39
 70
     1
102
RTVSPropertyOp40
 70
     1
102
RTVSPropertyOp41
 70
     1
102
RTVSPropertyOp42
 70
     1
102
RTVSPropertyOp43
 70
     1
102
RTVSPropertyOp44
 70
     1
102
RTVSPropertyOp45
 70
     1
102
RTVSPropertyOp46
 70
     1
102
RTVSPropertyOp47
 70
     1
102
RTVSPropertyOp48
 70
     1
102
RTVSPropertyOp49
 70
     1
102
RTVSPropertyOp50
 70
     1
102
RTVSPropertyOp51
 70
     0
102
RTVSPropertyOp52
 70
     0
102
RTVSPropertyOp53
 70
     1
102
RTVSPropertyOp54
 70
     1
102
RTVSPropertyOp55
 70
     1
102
RTVSPropertyOp56
 70
     1
102
RTVSPropertyOp57
 70
     1
102
RTVSPost2010Prop28
280
     0
102
RTVSPost2010PropOp28
 70
     1
102
RTVSPost2010Prop29
280
     1
102
RTVSPost2010PropOp29
 70
     1
102
RTVSPost2010Prop30
280
     1
102
RTVSPost2010PropOp30
 70
     1
102
RTVSPost2010Prop31
280
     0
102
RTVSPost2010PropOp31
 70
     1
102
RTVSPost2010Prop32
280
     0
102
RTVSPost2010PropOp32
 70
     1
102
RTVSPost2010Prop33
280
     0
102
RTVSPost2010PropOp33
 70
     1
102
RTVSPost2010Prop34
280
     0
102
RTVSPost2010PropOp34
 70
     1
102
RTVSPost2010Prop35
280
     0
102
RTVSPost2010PropOp35
 70
     1
102
RTVSPost2010Prop36
280
     0
102
RTVSPost2010PropOp36
 70
     1
102
RTVSPost2010Prop37
 90
       50
102
RTVSPost2010PropOp37
 70
     1
102
RTVSPost2010Prop38
140
0.0
102
RTVSPost2010PropOp38
 70
     1
102
RTVSPost2010Prop39
140
1.0
102
RTVSPost2010PropOp39
 70
     1
102
RTVSPost2010Prop40
 90
        0
102
RTVSPost2010PropOp40
 70
     1
102
RTVSPost2010Prop41ColorIndex
 90
       18
102
RTVSPost2010Prop41ColorRGB
 90
        0
102
RTVSPost2010PropOp41
 70
     1
102
RTVSPost2010Prop42
 90
       50
102
RTVSPost2010PropOp42
 70
     1
102
RTVSPost2010Prop43
 90
        3
102
RTVSPost2010PropOp43
 70
     1
102
RTVSPost2010Prop44ColorIndex
 90
        5
102
RTVSPost2010Prop44ColorRGB
 90
      255
102
RTVSPost2010PropOp44
 70
     1
102
RTVSPost2010Prop45
280
     0
102
RTVSPost2010PropOp45
 70
     1
102
RTVSPost2010Prop46
 90
       50
102
RTVSPost2010PropOp46
 70
     1
102
RTVSPost2010Prop47
 90
       50
102
RTVSPost2010PropOp47
 70
     1
102
RTVSPost2010Prop48
 90
       50
102
RTVSPost2010PropOp48
 70
     1
102
RTVSPost2010Prop49
280
     0
102
RTVSPost2010PropOp49
 70
     1
102
RTVSPost2010Prop50
 90
       50
102
RTVSPost2010PropOp50
 70
     1
102
RTVSPost2010Prop51ColorIndex
 90
      256
102
RTVSPost2010Prop51ColorRGB
 90
-16777216
102
RTVSPost2010PropOp51
 70
     0
102
RTVSPost2010Prop52
140
1.0
102
RTVSPost2010PropOp52
 70
     0
102
RTVSPost2010Prop53
 90
        2
102
RTVSPost2010PropOp53
 70
     1
102
RTVSPost2010Prop54
  1
strokes_ogs.tif
102
RTVSPost2010PropOp54
 70
     1
102
RTVSPost2010Prop55
280
     0
102
RTVSPost2010PropOp55
 70
     1
102
RTVSPost2010Prop56
140
1.0
102
RTVSPost2010PropOp56
 70
     1
102
RTVSPost2010Prop57
140
1.0
102
RTVSPost2010PropOp57
 70
     1
  0
XRECORD
  5
363
102
{ACAD_REACTORS
330
362
102
}
330
362
100
AcDbXrecord
280
     1
102
RTVSPropertyOp0
 70
     1
102
RTVSPropertyOp1
 70
     1
102
RTVSPropertyOp2
 70
     1
102
RTVSPropertyOp3
 70
     1
102
RTVSPropertyOp4
 70
     1
102
RTVSPropertyOp5
 70
     1
102
RTVSPropertyOp6
 70
     1
102
RTVSPropertyOp7
 70
     1
102
RTVSPropertyOp8
 70
     1
102
RTVSPropertyOp9
 70
     1
102
RTVSPropertyOp10
 70
     1
102
RTVSPropertyOp11
 70
     1
102
RTVSPropertyOp12
 70
     1
102
RTVSPropertyOp13
 70
     1
102
RTVSPropertyOp14
 70
     1
102
RTVSPropertyOp15
 70
     1
102
RTVSPropertyOp16
 70
     1
102
RTVSPropertyOp17
 70
     1
102
RTVSPropertyOp18
 70
     1
102
RTVSPropertyOp19
 70
     1
102
RTVSPropertyOp20
 70
     1
102
RTVSPropertyOp21
 70
     1
102
RTVSPropertyOp22
 70
     1
102
RTVSPropertyOp23
 70
     1
102
RTVSPropertyOp24
 70
     1
102
RTVSPropertyOp25
 70
     1
102
RTVSPropertyOp26
 70
     1
102
RTVSPropertyOp27
 70
     1
102
RTVSPropertyOp28
 70
     1
102
RTVSPropertyOp29
 70
     1
102
RTVSPropertyOp30
 70
     1
102
RTVSPropertyOp31
 70
     1
102
RTVSPropertyOp32
 70
     1
102
RTVSPropertyOp33
 70
     1
102
RTVSPropertyOp34
 70
     1
102
RTVSPropertyOp35
 70
     1
102
RTVSPropertyOp36
 70
     1
102
RTVSPropertyOp37
 70
     1
102
RTVSPropertyOp38
 70
     1
102
RTVSPropertyOp39
 70
     1
102
RTVSPropertyOp40
 70
     1
102
RTVSPropertyOp41
 70
     1
102
RTVSPropertyOp42
 70
     1
102
RTVSPropertyOp43
 70
     1
102
RTVSPropertyOp44
 70
     1
102
RTVSPropertyOp45
 70
     1
102
RTVSPropertyOp46
 70
     1
102
RTVSPropertyOp47
 70
     1
102
RTVSPropertyOp48
 70
     1
102
RTVSPropertyOp49
 70
     1
102
RTVSPropertyOp50
 70
     1
102
RTVSPropertyOp51
 70
     0
102
RTVSPropertyOp52
 70
     0
102
RTVSPropertyOp53
 70
     1
102
RTVSPropertyOp54
 70
     1
102
RTVSPropertyOp55
 70
     1
102
RTVSPropertyOp56
 70
     1
102
RTVSPropertyOp57
 70
     1
102
RTVSPost2010Prop28
280
     0
102
RTVSPost2010PropOp28
 70
     1
102
RTVSPost2010Prop29
280
     1
102
RTVSPost2010PropOp29
 70
     1
102
RTVSPost2010Prop30
280
     1
102
RTVSPost2010PropOp30
 70
     1
102
RTVSPost2010Prop31
280
     0
102
RTVSPost2010PropOp31
 70
     1
102
RTVSPost2010Prop32
280
     0
102
RTVSPost2010PropOp32
 70
     1
102
RTVSPost2010Prop33
280
     0
102
RTVSPost2010PropOp33
 70
     1
102
RTVSPost2010Prop34
280
     0
102
RTVSPost2010PropOp34
 70
     1
102
RTVSPost2010Prop35
280
     0
102
RTVSPost2010PropOp35
 70
     1
102
RTVSPost2010Prop36
280
     0
102
RTVSPost2010PropOp36
 70
     1
102
RTVSPost2010Prop37
 90
       50
102
RTVSPost2010PropOp37
 70
     1
102
RTVSPost2010Prop38
140
0.0
102
RTVSPost2010PropOp38
 70
     1
102
RTVSPost2010Prop39
140
1.0
102
RTVSPost2010PropOp39
 70
     1
102
RTVSPost2010Prop40
 90
        0
102
RTVSPost2010PropOp40
 70
     1
102
RTVSPost2010Prop41ColorIndex
 90
       18
102
RTVSPost2010Prop41ColorRGB
 90
        0
102
RTVSPost2010PropOp41
 70
     1
102
RTVSPost2010Prop42
 90
       50
102
RTVSPost2010PropOp42
 70
     1
102
RTVSPost2010Prop43
 90
        3
102
RTVSPost2010PropOp43
 70
     1
102
RTVSPost2010Prop44ColorIndex
 90
        5
102
RTVSPost2010Prop44ColorRGB
 90
      255
102
RTVSPost2010PropOp44
 70
     1
102
RTVSPost2010Prop45
280
     0
102
RTVSPost2010PropOp45
 70
     1
102
RTVSPost2010Prop46
 90
       50
102
RTVSPost2010PropOp46
 70
     1
102
RTVSPost2010Prop47
 90
       50
102
RTVSPost2010PropOp47
 70
     1
102
RTVSPost2010Prop48
 90
       50
102
RTVSPost2010PropOp48
 70
     1
102
RTVSPost2010Prop49
280
     0
102
RTVSPost2010PropOp49
 70
     1
102
RTVSPost2010Prop50
 90
       50
102
RTVSPost2010PropOp50
 70
     1
102
RTVSPost2010Prop51ColorIndex
 90
      256
102
RTVSPost2010Prop51ColorRGB
 90
-16777216
102
RTVSPost2010PropOp51
 70
     0
102
RTVSPost2010Prop52
140
1.0
102
RTVSPost2010PropOp52
 70
     0
102
RTVSPost2010Prop53
 90
        2
102
RTVSPost2010PropOp53
 70
     1
102
RTVSPost2010Prop54
  1
strokes_ogs.tif
102
RTVSPost2010PropOp54
 70
     1
102
RTVSPost2010Prop55
280
     0
102
RTVSPost2010PropOp55
 70
     1
102
RTVSPost2010Prop56
140
1.0
102
RTVSPost2010PropOp56
 70
     1
102
RTVSPost2010Prop57
140
1.0
102
RTVSPost2010PropOp57
 70
     1
  0
XRECORD
  5
365
102
{ACAD_REACTORS
330
364
102
}
330
364
100
AcDbXrecord
280
     1
102
RTVSPropertyOp0
 70
     1
102
RTVSPropertyOp1
 70
     1
102
RTVSPropertyOp2
 70
     1
102
RTVSPropertyOp3
 70
     1
102
RTVSPropertyOp4
 70
     1
102
RTVSPropertyOp5
 70
     1
102
RTVSPropertyOp6
 70
     1
102
RTVSPropertyOp7
 70
     1
102
RTVSPropertyOp8
 70
     1
102
RTVSPropertyOp9
 70
     1
102
RTVSPropertyOp10
 70
     1
102
RTVSPropertyOp11
 70
     1
102
RTVSPropertyOp12
 70
     1
102
RTVSPropertyOp13
 70
     1
102
RTVSPropertyOp14
 70
     1
102
RTVSPropertyOp15
 70
     1
102
RTVSPropertyOp16
 70
     1
102
RTVSPropertyOp17
 70
     1
102
RTVSPropertyOp18
 70
     1
102
RTVSPropertyOp19
 70
     1
102
RTVSPropertyOp20
 70
     1
102
RTVSPropertyOp21
 70
     1
102
RTVSPropertyOp22
 70
     1
102
RTVSPropertyOp23
 70
     1
102
RTVSPropertyOp24
 70
     1
102
RTVSPropertyOp25
 70
     1
102
RTVSPropertyOp26
 70
     1
102
RTVSPropertyOp27
 70
     1
102
RTVSPropertyOp28
 70
     1
102
RTVSPropertyOp29
 70
     1
102
RTVSPropertyOp30
 70
     1
102
RTVSPropertyOp31
 70
     1
102
RTVSPropertyOp32
 70
     1
102
RTVSPropertyOp33
 70
     1
102
RTVSPropertyOp34
 70
     1
102
RTVSPropertyOp35
 70
     1
102
RTVSPropertyOp36
 70
     1
102
RTVSPropertyOp37
 70
     1
102
RTVSPropertyOp38
 70
     1
102
RTVSPropertyOp39
 70
     1
102
RTVSPropertyOp40
 70
     1
102
RTVSPropertyOp41
 70
     1
102
RTVSPropertyOp42
 70
     1
102
RTVSPropertyOp43
 70
     1
102
RTVSPropertyOp44
 70
     1
102
RTVSPropertyOp45
 70
     1
102
RTVSPropertyOp46
 70
     1
102
RTVSPropertyOp47
 70
     1
102
RTVSPropertyOp48
 70
     1
102
RTVSPropertyOp49
 70
     1
102
RTVSPropertyOp50
 70
     1
102
RTVSPropertyOp51
 70
     0
102
RTVSPropertyOp52
 70
     0
102
RTVSPropertyOp53
 70
     1
102
RTVSPropertyOp54
 70
     1
102
RTVSPropertyOp55
 70
     1
102
RTVSPropertyOp56
 70
     1
102
RTVSPropertyOp57
 70
     1
102
RTVSPost2010Prop28
280
     0
102
RTVSPost2010PropOp28
 70
     1
102
RTVSPost2010Prop29
280
     1
102
RTVSPost2010PropOp29
 70
     1
102
RTVSPost2010Prop30
280
     1
102
RTVSPost2010PropOp30
 70
     1
102
RTVSPost2010Prop31
280
     0
102
RTVSPost2010PropOp31
 70
     1
102
RTVSPost2010Prop32
280
     0
102
RTVSPost2010PropOp32
 70
     1
102
RTVSPost2010Prop33
280
     0
102
RTVSPost2010PropOp33
 70
     1
102
RTVSPost2010Prop34
280
     0
102
RTVSPost2010PropOp34
 70
     1
102
RTVSPost2010Prop35
280
     0
102
RTVSPost2010PropOp35
 70
     1
102
RTVSPost2010Prop36
280
     0
102
RTVSPost2010PropOp36
 70
     1
102
RTVSPost2010Prop37
 90
       50
102
RTVSPost2010PropOp37
 70
     1
102
RTVSPost2010Prop38
140
0.0
102
RTVSPost2010PropOp38
 70
     1
102
RTVSPost2010Prop39
140
1.0
102
RTVSPost2010PropOp39
 70
     1
102
RTVSPost2010Prop40
 90
        0
102
RTVSPost2010PropOp40
 70
     1
102
RTVSPost2010Prop41ColorIndex
 90
       18
102
RTVSPost2010Prop41ColorRGB
 90
        0
102
RTVSPost2010PropOp41
 70
     1
102
RTVSPost2010Prop42
 90
       50
102
RTVSPost2010PropOp42
 70
     1
102
RTVSPost2010Prop43
 90
        3
102
RTVSPost2010PropOp43
 70
     1
102
RTVSPost2010Prop44ColorIndex
 90
        5
102
RTVSPost2010Prop44ColorRGB
 90
      255
102
RTVSPost2010PropOp44
 70
     1
102
RTVSPost2010Prop45
280
     0
102
RTVSPost2010PropOp45
 70
     1
102
RTVSPost2010Prop46
 90
       50
102
RTVSPost2010PropOp46
 70
     1
102
RTVSPost2010Prop47
 90
       50
102
RTVSPost2010PropOp47
 70
     1
102
RTVSPost2010Prop48
 90
       50
102
RTVSPost2010PropOp48
 70
     1
102
RTVSPost2010Prop49
280
     0
102
RTVSPost2010PropOp49
 70
     1
102
RTVSPost2010Prop50
 90
       50
102
RTVSPost2010PropOp50
 70
     1
102
RTVSPost2010Prop51ColorIndex
 90
      256
102
RTVSPost2010Prop51ColorRGB
 90
-16777216
102
RTVSPost2010PropOp51
 70
     0
102
RTVSPost2010Prop52
140
1.0
102
RTVSPost2010PropOp52
 70
     0
102
RTVSPost2010Prop53
 90
        2
102
RTVSPost2010PropOp53
 70
     1
102
RTVSPost2010Prop54
  1
strokes_ogs.tif
102
RTVSPost2010PropOp54
 70
     1
102
RTVSPost2010Prop55
280
     0
102
RTVSPost2010PropOp55
 70
     1
102
RTVSPost2010Prop56
140
1.0
102
RTVSPost2010PropOp56
 70
     1
102
RTVSPost2010Prop57
140
1.0
102
RTVSPost2010PropOp57
 70
     1
  0
XRECORD
  5
367
102
{ACAD_REACTORS
330
366
102
}
330
366
100
AcDbXrecord
280
     1
102
RTVSPropertyOp0
 70
     1
102
RTVSPropertyOp1
 70
     1
102
RTVSPropertyOp2
 70
     1
102
RTVSPropertyOp3
 70
     1
102
RTVSPropertyOp4
 70
     1
102
RTVSPropertyOp5
 70
     1
102
RTVSPropertyOp6
 70
     1
102
RTVSPropertyOp7
 70
     1
102
RTVSPropertyOp8
 70
     1
102
RTVSPropertyOp9
 70
     1
102
RTVSPropertyOp10
 70
     1
102
RTVSPropertyOp11
 70
     1
102
RTVSPropertyOp12
 70
     1
102
RTVSPropertyOp13
 70
     1
102
RTVSPropertyOp14
 70
     1
102
RTVSPropertyOp15
 70
     1
102
RTVSPropertyOp16
 70
     1
102
RTVSPropertyOp17
 70
     1
102
RTVSPropertyOp18
 70
     1
102
RTVSPropertyOp19
 70
     1
102
RTVSPropertyOp20
 70
     1
102
RTVSPropertyOp21
 70
     1
102
RTVSPropertyOp22
 70
     1
102
RTVSPropertyOp23
 70
     1
102
RTVSPropertyOp24
 70
     1
102
RTVSPropertyOp25
 70
     1
102
RTVSPropertyOp26
 70
     1
102
RTVSPropertyOp27
 70
     1
102
RTVSPropertyOp28
 70
     1
102
RTVSPropertyOp29
 70
     1
102
RTVSPropertyOp30
 70
     1
102
RTVSPropertyOp31
 70
     1
102
RTVSPropertyOp32
 70
     1
102
RTVSPropertyOp33
 70
     1
102
RTVSPropertyOp34
 70
     1
102
RTVSPropertyOp35
 70
     1
102
RTVSPropertyOp36
 70
     1
102
RTVSPropertyOp37
 70
     1
102
RTVSPropertyOp38
 70
     1
102
RTVSPropertyOp39
 70
     1
102
RTVSPropertyOp40
 70
     1
102
RTVSPropertyOp41
 70
     1
102
RTVSPropertyOp42
 70
     1
102
RTVSPropertyOp43
 70
     1
102
RTVSPropertyOp44
 70
     1
102
RTVSPropertyOp45
 70
     1
102
RTVSPropertyOp46
 70
     1
102
RTVSPropertyOp47
 70
     1
102
RTVSPropertyOp48
 70
     1
102
RTVSPropertyOp49
 70
     1
102
RTVSPropertyOp50
 70
     1
102
RTVSPropertyOp51
 70
     0
102
RTVSPropertyOp52
 70
     0
102
RTVSPropertyOp53
 70
     1
102
RTVSPropertyOp54
 70
     1
102
RTVSPropertyOp55
 70
     1
102
RTVSPropertyOp56
 70
     1
102
RTVSPropertyOp57
 70
     1
102
RTVSPost2010Prop28
280
     0
102
RTVSPost2010PropOp28
 70
     1
102
RTVSPost2010Prop29
280
     1
102
RTVSPost2010PropOp29
 70
     1
102
RTVSPost2010Prop30
280
     1
102
RTVSPost2010PropOp30
 70
     1
102
RTVSPost2010Prop31
280
     0
102
RTVSPost2010PropOp31
 70
     1
102
RTVSPost2010Prop32
280
     0
102
RTVSPost2010PropOp32
 70
     1
102
RTVSPost2010Prop33
280
     0
102
RTVSPost2010PropOp33
 70
     1
102
RTVSPost2010Prop34
280
     0
102
RTVSPost2010PropOp34
 70
     1
102
RTVSPost2010Prop35
280
     0
102
RTVSPost2010PropOp35
 70
     1
102
RTVSPost2010Prop36
280
     0
102
RTVSPost2010PropOp36
 70
     1
102
RTVSPost2010Prop37
 90
       50
102
RTVSPost2010PropOp37
 70
     1
102
RTVSPost2010Prop38
140
0.0
102
RTVSPost2010PropOp38
 70
     1
102
RTVSPost2010Prop39
140
1.0
102
RTVSPost2010PropOp39
 70
     1
102
RTVSPost2010Prop40
 90
        0
102
RTVSPost2010PropOp40
 70
     1
102
RTVSPost2010Prop41ColorIndex
 90
       18
102
RTVSPost2010Prop41ColorRGB
 90
        0
102
RTVSPost2010PropOp41
 70
     1
102
RTVSPost2010Prop42
 90
       50
102
RTVSPost2010PropOp42
 70
     1
102
RTVSPost2010Prop43
 90
        3
102
RTVSPost2010PropOp43
 70
     1
102
RTVSPost2010Prop44ColorIndex
 90
        5
102
RTVSPost2010Prop44ColorRGB
 90
      255
102
RTVSPost2010PropOp44
 70
     1
102
RTVSPost2010Prop45
280
     0
102
RTVSPost2010PropOp45
 70
     1
102
RTVSPost2010Prop46
 90
       50
102
RTVSPost2010PropOp46
 70
     1
102
RTVSPost2010Prop47
 90
       50
102
RTVSPost2010PropOp47
 70
     1
102
RTVSPost2010Prop48
 90
       50
102
RTVSPost2010PropOp48
 70
     1
102
RTVSPost2010Prop49
280
     0
102
RTVSPost2010PropOp49
 70
     1
102
RTVSPost2010Prop50
 90
       50
102
RTVSPost2010PropOp50
 70
     1
102
RTVSPost2010Prop51ColorIndex
 90
      256
102
RTVSPost2010Prop51ColorRGB
 90
-16777216
102
RTVSPost2010PropOp51
 70
     0
102
RTVSPost2010Prop52
140
1.0
102
RTVSPost2010PropOp52
 70
     0
102
RTVSPost2010Prop53
 90
        2
102
RTVSPost2010PropOp53
 70
     1
102
RTVSPost2010Prop54
  1
strokes_ogs.tif
102
RTVSPost2010PropOp54
 70
     1
102
RTVSPost2010Prop55
280
     0
102
RTVSPost2010PropOp55
 70
     1
102
RTVSPost2010Prop56
140
1.0
102
RTVSPost2010PropOp56
 70
     1
102
RTVSPost2010Prop57
140
1.0
102
RTVSPost2010PropOp57
 70
     1
  0
XRECORD
  5
369
102
{ACAD_REACTORS
330
368
102
}
330
368
100
AcDbXrecord
280
     1
102
RTVSPropertyOp0
 70
     1
102
RTVSPropertyOp1
 70
     1
102
RTVSPropertyOp2
 70
     1
102
RTVSPropertyOp3
 70
     1
102
RTVSPropertyOp4
 70
     1
102
RTVSPropertyOp5
 70
     1
102
RTVSPropertyOp6
 70
     1
102
RTVSPropertyOp7
 70
     1
102
RTVSPropertyOp8
 70
     1
102
RTVSPropertyOp9
 70
     1
102
RTVSPropertyOp10
 70
     1
102
RTVSPropertyOp11
 70
     1
102
RTVSPropertyOp12
 70
     1
102
RTVSPropertyOp13
 70
     1
102
RTVSPropertyOp14
 70
     1
102
RTVSPropertyOp15
 70
     1
102
RTVSPropertyOp16
 70
     1
102
RTVSPropertyOp17
 70
     1
102
RTVSPropertyOp18
 70
     1
102
RTVSPropertyOp19
 70
     1
102
RTVSPropertyOp20
 70
     1
102
RTVSPropertyOp21
 70
     1
102
RTVSPropertyOp22
 70
     1
102
RTVSPropertyOp23
 70
     1
102
RTVSPropertyOp24
 70
     1
102
RTVSPropertyOp25
 70
     1
102
RTVSPropertyOp26
 70
     1
102
RTVSPropertyOp27
 70
     1
102
RTVSPropertyOp28
 70
     1
102
RTVSPropertyOp29
 70
     1
102
RTVSPropertyOp30
 70
     1
102
RTVSPropertyOp31
 70
     1
102
RTVSPropertyOp32
 70
     1
102
RTVSPropertyOp33
 70
     1
102
RTVSPropertyOp34
 70
     1
102
RTVSPropertyOp35
 70
     1
102
RTVSPropertyOp36
 70
     1
102
RTVSPropertyOp37
 70
     1
102
RTVSPropertyOp38
 70
     1
102
RTVSPropertyOp39
 70
     1
102
RTVSPropertyOp40
 70
     1
102
RTVSPropertyOp41
 70
     1
102
RTVSPropertyOp42
 70
     1
102
RTVSPropertyOp43
 70
     1
102
RTVSPropertyOp44
 70
     1
102
RTVSPropertyOp45
 70
     1
102
RTVSPropertyOp46
 70
     1
102
RTVSPropertyOp47
 70
     1
102
RTVSPropertyOp48
 70
     1
102
RTVSPropertyOp49
 70
     1
102
RTVSPropertyOp50
 70
     1
102
RTVSPropertyOp51
 70
     0
102
RTVSPropertyOp52
 70
     0
102
RTVSPropertyOp53
 70
     1
102
RTVSPropertyOp54
 70
     1
102
RTVSPropertyOp55
 70
     1
102
RTVSPropertyOp56
 70
     1
102
RTVSPropertyOp57
 70
     1
102
RTVSPost2010Prop28
280
     0
102
RTVSPost2010PropOp28
 70
     1
102
RTVSPost2010Prop29
280
     1
102
RTVSPost2010PropOp29
 70
     1
102
RTVSPost2010Prop30
280
     1
102
RTVSPost2010PropOp30
 70
     1
102
RTVSPost2010Prop31
280
     0
102
RTVSPost2010PropOp31
 70
     1
102
RTVSPost2010Prop32
280
     0
102
RTVSPost2010PropOp32
 70
     1
102
RTVSPost2010Prop33
280
     0
102
RTVSPost2010PropOp33
 70
     1
102
RTVSPost2010Prop34
280
     0
102
RTVSPost2010PropOp34
 70
     1
102
RTVSPost2010Prop35
280
     0
102
RTVSPost2010PropOp35
 70
     1
102
RTVSPost2010Prop36
280
     0
102
RTVSPost2010PropOp36
 70
     1
102
RTVSPost2010Prop37
 90
       50
102
RTVSPost2010PropOp37
 70
     1
102
RTVSPost2010Prop38
140
0.0
102
RTVSPost2010PropOp38
 70
     1
102
RTVSPost2010Prop39
140
1.0
102
RTVSPost2010PropOp39
 70
     1
102
RTVSPost2010Prop40
 90
        0
102
RTVSPost2010PropOp40
 70
     1
102
RTVSPost2010Prop41ColorIndex
 90
       18
102
RTVSPost2010Prop41ColorRGB
 90
        0
102
RTVSPost2010PropOp41
 70
     1
102
RTVSPost2010Prop42
 90
       50
102
RTVSPost2010PropOp42
 70
     1
102
RTVSPost2010Prop43
 90
        3
102
RTVSPost2010PropOp43
 70
     1
102
RTVSPost2010Prop44ColorIndex
 90
        5
102
RTVSPost2010Prop44ColorRGB
 90
      255
102
RTVSPost2010PropOp44
 70
     1
102
RTVSPost2010Prop45
280
     0
102
RTVSPost2010PropOp45
 70
     1
102
RTVSPost2010Prop46
 90
       50
102
RTVSPost2010PropOp46
 70
     1
102
RTVSPost2010Prop47
 90
       50
102
RTVSPost2010PropOp47
 70
     1
102
RTVSPost2010Prop48
 90
       50
102
RTVSPost2010PropOp48
 70
     1
102
RTVSPost2010Prop49
280
     0
102
RTVSPost2010PropOp49
 70
     1
102
RTVSPost2010Prop50
 90
       50
102
RTVSPost2010PropOp50
 70
     1
102
RTVSPost2010Prop51ColorIndex
 90
      256
102
RTVSPost2010Prop51ColorRGB
 90
-16777216
102
RTVSPost2010PropOp51
 70
     0
102
RTVSPost2010Prop52
140
1.0
102
RTVSPost2010PropOp52
 70
     0
102
RTVSPost2010Prop53
 90
        2
102
RTVSPost2010PropOp53
 70
     1
102
RTVSPost2010Prop54
  1
strokes_ogs.tif
102
RTVSPost2010PropOp54
 70
     1
102
RTVSPost2010Prop55
280
     0
102
RTVSPost2010PropOp55
 70
     1
102
RTVSPost2010Prop56
140
1.0
102
RTVSPost2010PropOp56
 70
     1
102
RTVSPost2010Prop57
140
1.0
102
RTVSPost2010PropOp57
 70
     1
  0
XRECORD
  5
36F
102
{ACAD_REACTORS
330
36E
102
}
330
36E
100
AcDbXrecord
280
     1
102
RTVSPropertyOp0
 70
     1
102
RTVSPropertyOp1
 70
     1
102
RTVSPropertyOp2
 70
     1
102
RTVSPropertyOp3
 70
     1
102
RTVSPropertyOp4
 70
     1
102
RTVSPropertyOp5
 70
     1
102
RTVSPropertyOp6
 70
     1
102
RTVSPropertyOp7
 70
     1
102
RTVSPropertyOp8
 70
     1
102
RTVSPropertyOp9
 70
     1
102
RTVSPropertyOp10
 70
     1
102
RTVSPropertyOp11
 70
     1
102
RTVSPropertyOp12
 70
     1
102
RTVSPropertyOp13
 70
     1
102
RTVSPropertyOp14
 70
     1
102
RTVSPropertyOp15
 70
     1
102
RTVSPropertyOp16
 70
     1
102
RTVSPropertyOp17
 70
     1
102
RTVSPropertyOp18
 70
     1
102
RTVSPropertyOp19
 70
     1
102
RTVSPropertyOp20
 70
     1
102
RTVSPropertyOp21
 70
     1
102
RTVSPropertyOp22
 70
     1
102
RTVSPropertyOp23
 70
     1
102
RTVSPropertyOp24
 70
     1
102
RTVSPropertyOp25
 70
     1
102
RTVSPropertyOp26
 70
     1
102
RTVSPropertyOp27
 70
     1
102
RTVSPropertyOp28
 70
     1
102
RTVSPropertyOp29
 70
     1
102
RTVSPropertyOp30
 70
     1
102
RTVSPropertyOp31
 70
     1
102
RTVSPropertyOp32
 70
     1
102
RTVSPropertyOp33
 70
     1
102
RTVSPropertyOp34
 70
     1
102
RTVSPropertyOp35
 70
     1
102
RTVSPropertyOp36
 70
     1
102
RTVSPropertyOp37
 70
     1
102
RTVSPropertyOp38
 70
     1
102
RTVSPropertyOp39
 70
     1
102
RTVSPropertyOp40
 70
     1
102
RTVSPropertyOp41
 70
     1
102
RTVSPropertyOp42
 70
     1
102
RTVSPropertyOp43
 70
     1
102
RTVSPropertyOp44
 70
     1
102
RTVSPropertyOp45
 70
     1
102
RTVSPropertyOp46
 70
     1
102
RTVSPropertyOp47
 70
     1
102
RTVSPropertyOp48
 70
     1
102
RTVSPropertyOp49
 70
     1
102
RTVSPropertyOp50
 70
     1
102
RTVSPropertyOp51
 70
     0
102
RTVSPropertyOp52
 70
     0
102
RTVSPropertyOp53
 70
     1
102
RTVSPropertyOp54
 70
     1
102
RTVSPropertyOp55
 70
     1
102
RTVSPropertyOp56
 70
     1
102
RTVSPropertyOp57
 70
     1
102
RTVSPost2010Prop28
280
     0
102
RTVSPost2010PropOp28
 70
     1
102
RTVSPost2010Prop29
280
     1
102
RTVSPost2010PropOp29
 70
     1
102
RTVSPost2010Prop30
280
     1
102
RTVSPost2010PropOp30
 70
     1
102
RTVSPost2010Prop31
280
     0
102
RTVSPost2010PropOp31
 70
     1
102
RTVSPost2010Prop32
280
     0
102
RTVSPost2010PropOp32
 70
     1
102
RTVSPost2010Prop33
280
     0
102
RTVSPost2010PropOp33
 70
     1
102
RTVSPost2010Prop34
280
     0
102
RTVSPost2010PropOp34
 70
     1
102
RTVSPost2010Prop35
280
     0
102
RTVSPost2010PropOp35
 70
     1
102
RTVSPost2010Prop36
280
     0
102
RTVSPost2010PropOp36
 70
     1
102
RTVSPost2010Prop37
 90
       50
102
RTVSPost2010PropOp37
 70
     1
102
RTVSPost2010Prop38
140
0.0
102
RTVSPost2010PropOp38
 70
     1
102
RTVSPost2010Prop39
140
1.0
102
RTVSPost2010PropOp39
 70
     1
102
RTVSPost2010Prop40
 90
        0
102
RTVSPost2010PropOp40
 70
     1
102
RTVSPost2010Prop41ColorIndex
 90
       18
102
RTVSPost2010Prop41ColorRGB
 90
        0
102
RTVSPost2010PropOp41
 70
     1
102
RTVSPost2010Prop42
 90
       50
102
RTVSPost2010PropOp42
 70
     1
102
RTVSPost2010Prop43
 90
        3
102
RTVSPost2010PropOp43
 70
     1
102
RTVSPost2010Prop44ColorIndex
 90
        5
102
RTVSPost2010Prop44ColorRGB
 90
      255
102
RTVSPost2010PropOp44
 70
     1
102
RTVSPost2010Prop45
280
     0
102
RTVSPost2010PropOp45
 70
     1
102
RTVSPost2010Prop46
 90
       50
102
RTVSPost2010PropOp46
 70
     1
102
RTVSPost2010Prop47
 90
       50
102
RTVSPost2010PropOp47
 70
     1
102
RTVSPost2010Prop48
 90
       50
102
RTVSPost2010PropOp48
 70
     1
102
RTVSPost2010Prop49
280
     0
102
RTVSPost2010PropOp49
 70
     1
102
RTVSPost2010Prop50
 90
       50
102
RTVSPost2010PropOp50
 70
     1
102
RTVSPost2010Prop51ColorIndex
 90
      256
102
RTVSPost2010Prop51ColorRGB
 90
-16777216
102
RTVSPost2010PropOp51
 70
     0
102
RTVSPost2010Prop52
140
1.0
102
RTVSPost2010PropOp52
 70
     0
102
RTVSPost2010Prop53
 90
        2
102
RTVSPost2010PropOp53
 70
     1
102
RTVSPost2010Prop54
  1
strokes_ogs.tif
102
RTVSPost2010PropOp54
 70
     1
102
RTVSPost2010Prop55
280
     0
102
RTVSPost2010PropOp55
 70
     1
102
RTVSPost2010Prop56
140
1.0
102
RTVSPost2010PropOp56
 70
     1
102
RTVSPost2010Prop57
140
1.0
102
RTVSPost2010PropOp57
 70
     1
  0
XRECORD
  5
383
102
{ACAD_REACTORS
330
382
102
}
330
382
100
AcDbXrecord
280
     1
102
RTVSPropertyOp0
 70
     0
102
RTVSPropertyOp1
 70
     0
102
RTVSPropertyOp2
 70
     0
102
RTVSPropertyOp3
 70
     0
102
RTVSPropertyOp4
 70
     0
102
RTVSPropertyOp5
 70
     0
102
RTVSPropertyOp6
 70
     0
102
RTVSPropertyOp7
 70
     0
102
RTVSPropertyOp8
 70
     0
102
RTVSPropertyOp9
 70
     0
102
RTVSPropertyOp10
 70
     0
102
RTVSPropertyOp11
 70
     0
102
RTVSPropertyOp12
 70
     0
102
RTVSPropertyOp13
 70
     0
102
RTVSPropertyOp14
 70
     2
102
RTVSPropertyOp15
 70
     0
102
RTVSPropertyOp16
 70
     0
102
RTVSPropertyOp17
 70
     0
102
RTVSPropertyOp18
 70
     0
102
RTVSPropertyOp19
 70
     0
102
RTVSPropertyOp20
 70
     0
102
RTVSPropertyOp21
 70
     0
102
RTVSPropertyOp22
 70
     0
102
RTVSPropertyOp23
 70
     0
102
RTVSPropertyOp24
 70
     0
102
RTVSPropertyOp25
 70
     0
102
RTVSPropertyOp26
 70
     0
102
RTVSPropertyOp27
 70
     0
102
RTVSPropertyOp28
 70
     0
102
RTVSPropertyOp29
 70
     0
102
RTVSPropertyOp30
 70
     0
102
RTVSPropertyOp31
 70
     0
102
RTVSPropertyOp32
 70
     0
102
RTVSPropertyOp33
 70
     0
102
RTVSPropertyOp34
 70
     0
102
RTVSPropertyOp35
 70
     0
102
RTVSPropertyOp36
 70
     0
102
RTVSPropertyOp37
 70
     0
102
RTVSPropertyOp38
 70
     0
102
RTVSPropertyOp39
 70
     0
102
RTVSPropertyOp40
 70
     0
102
RTVSPropertyOp41
 70
     0
102
RTVSPropertyOp42
 70
     0
102
RTVSPropertyOp43
 70
     0
102
RTVSPropertyOp44
 70
     0
102
RTVSPropertyOp45
 70
     0
102
RTVSPropertyOp46
 70
     0
102
RTVSPropertyOp47
 70
     0
102
RTVSPropertyOp48
 70
     0
102
RTVSPropertyOp49
 70
     0
102
RTVSPropertyOp50
 70
     0
102
RTVSPropertyOp51
 70
     0
102
RTVSPropertyOp52
 70
     0
102
RTVSPropertyOp53
 70
     0
102
RTVSPropertyOp54
 70
     0
102
RTVSPropertyOp55
 70
     0
102
RTVSPropertyOp56
 70
     0
102
RTVSPropertyOp57
 70
     0
102
RTVSPost2010Prop28
280
     0
102
RTVSPost2010PropOp28
 70
     0
102
RTVSPost2010Prop29
280
     1
102
RTVSPost2010PropOp29
 70
     0
102
RTVSPost2010Prop30
280
     1
102
RTVSPost2010PropOp30
 70
     0
102
RTVSPost2010Prop31
280
     0
102
RTVSPost2010PropOp31
 70
     0
102
RTVSPost2010Prop32
280
     0
102
RTVSPost2010PropOp32
 70
     0
102
RTVSPost2010Prop33
280
     0
102
RTVSPost2010PropOp33
 70
     0
102
RTVSPost2010Prop34
280
     0
102
RTVSPost2010PropOp34
 70
     0
102
RTVSPost2010Prop35
280
     0
102
RTVSPost2010PropOp35
 70
     0
102
RTVSPost2010Prop36
280
     0
102
RTVSPost2010PropOp36
 70
     0
102
RTVSPost2010Prop37
 90
       50
102
RTVSPost2010PropOp37
 70
     0
102
RTVSPost2010Prop38
140
0.0
102
RTVSPost2010PropOp38
 70
     0
102
RTVSPost2010Prop39
140
1.0
102
RTVSPost2010PropOp39
 70
     0
102
RTVSPost2010Prop40
 90
        0
102
RTVSPost2010PropOp40
 70
     0
102
RTVSPost2010Prop41ColorIndex
 90
       18
102
RTVSPost2010Prop41ColorRGB
 90
        0
102
RTVSPost2010PropOp41
 70
     0
102
RTVSPost2010Prop42
 90
       50
102
RTVSPost2010PropOp42
 70
     0
102
RTVSPost2010Prop43
 90
        3
102
RTVSPost2010PropOp43
 70
     0
102
RTVSPost2010Prop44ColorIndex
 90
        5
102
RTVSPost2010Prop44ColorRGB
 90
      255
102
RTVSPost2010PropOp44
 70
     0
102
RTVSPost2010Prop45
280
     0
102
RTVSPost2010PropOp45
 70
     0
102
RTVSPost2010Prop46
 90
       50
102
RTVSPost2010PropOp46
 70
     0
102
RTVSPost2010Prop47
 90
       50
102
RTVSPost2010PropOp47
 70
     0
102
RTVSPost2010Prop48
 90
       50
102
RTVSPost2010PropOp48
 70
     0
102
RTVSPost2010Prop49
280
     0
102
RTVSPost2010PropOp49
 70
     0
102
RTVSPost2010Prop50
 90
       50
102
RTVSPost2010PropOp50
 70
     0
102
RTVSPost2010Prop51ColorIndex
 90
      256
102
RTVSPost2010Prop51ColorRGB
 90
-16777216
102
RTVSPost2010PropOp51
 70
     0
102
RTVSPost2010Prop52
140
1.0
102
RTVSPost2010PropOp52
 70
     0
102
RTVSPost2010Prop53
 90
        2
102
RTVSPost2010PropOp53
 70
     0
102
RTVSPost2010Prop54
  1
strokes_ogs.tif
102
RTVSPost2010PropOp54
 70
     0
102
RTVSPost2010Prop55
280
     0
102
RTVSPost2010PropOp55
 70
     0
102
RTVSPost2010Prop56
140
1.0
102
RTVSPost2010PropOp56
 70
     0
102
RTVSPost2010Prop57
140
1.0
102
RTVSPost2010PropOp57
 70
     0
  0
XRECORD
  5
37D
102
{ACAD_REACTORS
330
37C
102
}
330
37C
100
AcDbXrecord
280
     1
102
RTVSPropertyOp0
 70
     1
102
RTVSPropertyOp1
 70
     1
102
RTVSPropertyOp2
 70
     1
102
RTVSPropertyOp3
 70
     1
102
RTVSPropertyOp4
 70
     1
102
RTVSPropertyOp5
 70
     1
102
RTVSPropertyOp6
 70
     1
102
RTVSPropertyOp7
 70
     1
102
RTVSPropertyOp8
 70
     1
102
RTVSPropertyOp9
 70
     1
102
RTVSPropertyOp10
 70
     1
102
RTVSPropertyOp11
 70
     1
102
RTVSPropertyOp12
 70
     1
102
RTVSPropertyOp13
 70
     1
102
RTVSPropertyOp14
 70
     1
102
RTVSPropertyOp15
 70
     1
102
RTVSPropertyOp16
 70
     1
102
RTVSPropertyOp17
 70
     1
102
RTVSPropertyOp18
 70
     1
102
RTVSPropertyOp19
 70
     1
102
RTVSPropertyOp20
 70
     1
102
RTVSPropertyOp21
 70
     1
102
RTVSPropertyOp22
 70
     1
102
RTVSPropertyOp23
 70
     1
102
RTVSPropertyOp24
 70
     1
102
RTVSPropertyOp25
 70
     1
102
RTVSPropertyOp26
 70
     1
102
RTVSPropertyOp27
 70
     1
102
RTVSPropertyOp28
 70
     1
102
RTVSPropertyOp29
 70
     1
102
RTVSPropertyOp30
 70
     1
102
RTVSPropertyOp31
 70
     1
102
RTVSPropertyOp32
 70
     1
102
RTVSPropertyOp33
 70
     1
102
RTVSPropertyOp34
 70
     1
102
RTVSPropertyOp35
 70
     1
102
RTVSPropertyOp36
 70
     1
102
RTVSPropertyOp37
 70
     1
102
RTVSPropertyOp38
 70
     1
102
RTVSPropertyOp39
 70
     1
102
RTVSPropertyOp40
 70
     1
102
RTVSPropertyOp41
 70
     1
102
RTVSPropertyOp42
 70
     1
102
RTVSPropertyOp43
 70
     1
102
RTVSPropertyOp44
 70
     1
102
RTVSPropertyOp45
 70
     1
102
RTVSPropertyOp46
 70
     1
102
RTVSPropertyOp47
 70
     1
102
RTVSPropertyOp48
 70
     1
102
RTVSPropertyOp49
 70
     1
102
RTVSPropertyOp50
 70
     1
102
RTVSPropertyOp51
 70
     0
102
RTVSPropertyOp52
 70
     0
102
RTVSPropertyOp53
 70
     1
102
RTVSPropertyOp54
 70
     1
102
RTVSPropertyOp55
 70
     1
102
RTVSPropertyOp56
 70
     1
102
RTVSPropertyOp57
 70
     1
102
RTVSPost2010Prop28
280
     0
102
RTVSPost2010PropOp28
 70
     1
102
RTVSPost2010Prop29
280
     1
102
RTVSPost2010PropOp29
 70
     1
102
RTVSPost2010Prop30
280
     1
102
RTVSPost2010PropOp30
 70
     1
102
RTVSPost2010Prop31
280
     0
102
RTVSPost2010PropOp31
 70
     1
102
RTVSPost2010Prop32
280
     0
102
RTVSPost2010PropOp32
 70
     1
102
RTVSPost2010Prop33
280
     0
102
RTVSPost2010PropOp33
 70
     1
102
RTVSPost2010Prop34
280
     0
102
RTVSPost2010PropOp34
 70
     1
102
RTVSPost2010Prop35
280
     0
102
RTVSPost2010PropOp35
 70
     1
102
RTVSPost2010Prop36
280
     0
102
RTVSPost2010PropOp36
 70
     1
102
RTVSPost2010Prop37
 90
       50
102
RTVSPost2010PropOp37
 70
     1
102
RTVSPost2010Prop38
140
0.0
102
RTVSPost2010PropOp38
 70
     1
102
RTVSPost2010Prop39
140
1.0
102
RTVSPost2010PropOp39
 70
     1
102
RTVSPost2010Prop40
 90
        0
102
RTVSPost2010PropOp40
 70
     1
102
RTVSPost2010Prop41ColorIndex
 90
       18
102
RTVSPost2010Prop41ColorRGB
 90
        0
102
RTVSPost2010PropOp41
 70
     1
102
RTVSPost2010Prop42
 90
       50
102
RTVSPost2010PropOp42
 70
     1
102
RTVSPost2010Prop43
 90
        3
102
RTVSPost2010PropOp43
 70
     1
102
RTVSPost2010Prop44ColorIndex
 90
        5
102
RTVSPost2010Prop44ColorRGB
 90
      255
102
RTVSPost2010PropOp44
 70
     1
102
RTVSPost2010Prop45
280
     0
102
RTVSPost2010PropOp45
 70
     1
102
RTVSPost2010Prop46
 90
       50
102
RTVSPost2010PropOp46
 70
     1
102
RTVSPost2010Prop47
 90
       50
102
RTVSPost2010PropOp47
 70
     1
102
RTVSPost2010Prop48
 90
       50
102
RTVSPost2010PropOp48
 70
     1
102
RTVSPost2010Prop49
280
     0
102
RTVSPost2010PropOp49
 70
     1
102
RTVSPost2010Prop50
 90
       50
102
RTVSPost2010PropOp50
 70
     1
102
RTVSPost2010Prop51ColorIndex
 90
      256
102
RTVSPost2010Prop51ColorRGB
 90
-16777216
102
RTVSPost2010PropOp51
 70
     0
102
RTVSPost2010Prop52
140
1.0
102
RTVSPost2010PropOp52
 70
     0
102
RTVSPost2010Prop53
 90
        2
102
RTVSPost2010PropOp53
 70
     1
102
RTVSPost2010Prop54
  1
strokes_ogs.tif
102
RTVSPost2010PropOp54
 70
     1
102
RTVSPost2010Prop55
280
     0
102
RTVSPost2010PropOp55
 70
     1
102
RTVSPost2010Prop56
140
1.0
102
RTVSPost2010PropOp56
 70
     1
102
RTVSPost2010Prop57
140
1.0
102
RTVSPost2010PropOp57
 70
     1
  0
XRECORD
  5
385
102
{ACAD_REACTORS
330
384
102
}
330
384
100
AcDbXrecord
280
     1
102
RTVSPropertyOp0
 70
     0
102
RTVSPropertyOp1
 70
     0
102
RTVSPropertyOp2
 70
     0
102
RTVSPropertyOp3
 70
     0
102
RTVSPropertyOp4
 70
     0
102
RTVSPropertyOp5
 70
     0
102
RTVSPropertyOp6
 70
     0
102
RTVSPropertyOp7
 70
     0
102
RTVSPropertyOp8
 70
     0
102
RTVSPropertyOp9
 70
     0
102
RTVSPropertyOp10
 70
     0
102
RTVSPropertyOp11
 70
     0
102
RTVSPropertyOp12
 70
     0
102
RTVSPropertyOp13
 70
     0
102
RTVSPropertyOp14
 70
     2
102
RTVSPropertyOp15
 70
     0
102
RTVSPropertyOp16
 70
     0
102
RTVSPropertyOp17
 70
     0
102
RTVSPropertyOp18
 70
     0
102
RTVSPropertyOp19
 70
     0
102
RTVSPropertyOp20
 70
     0
102
RTVSPropertyOp21
 70
     0
102
RTVSPropertyOp22
 70
     0
102
RTVSPropertyOp23
 70
     0
102
RTVSPropertyOp24
 70
     0
102
RTVSPropertyOp25
 70
     0
102
RTVSPropertyOp26
 70
     0
102
RTVSPropertyOp27
 70
     0
102
RTVSPropertyOp28
 70
     0
102
RTVSPropertyOp29
 70
     0
102
RTVSPropertyOp30
 70
     0
102
RTVSPropertyOp31
 70
     0
102
RTVSPropertyOp32
 70
     0
102
RTVSPropertyOp33
 70
     0
102
RTVSPropertyOp34
 70
     0
102
RTVSPropertyOp35
 70
     0
102
RTVSPropertyOp36
 70
     0
102
RTVSPropertyOp37
 70
     0
102
RTVSPropertyOp38
 70
     0
102
RTVSPropertyOp39
 70
     0
102
RTVSPropertyOp40
 70
     0
102
RTVSPropertyOp41
 70
     0
102
RTVSPropertyOp42
 70
     0
102
RTVSPropertyOp43
 70
     0
102
RTVSPropertyOp44
 70
     0
102
RTVSPropertyOp45
 70
     0
102
RTVSPropertyOp46
 70
     0
102
RTVSPropertyOp47
 70
     0
102
RTVSPropertyOp48
 70
     0
102
RTVSPropertyOp49
 70
     0
102
RTVSPropertyOp50
 70
     0
102
RTVSPropertyOp51
 70
     0
102
RTVSPropertyOp52
 70
     0
102
RTVSPropertyOp53
 70
     0
102
RTVSPropertyOp54
 70
     0
102
RTVSPropertyOp55
 70
     0
102
RTVSPropertyOp56
 70
     0
102
RTVSPropertyOp57
 70
     0
102
RTVSPost2010Prop28
280
     0
102
RTVSPost2010PropOp28
 70
     0
102
RTVSPost2010Prop29
280
     1
102
RTVSPost2010PropOp29
 70
     0
102
RTVSPost2010Prop30
280
     1
102
RTVSPost2010PropOp30
 70
     0
102
RTVSPost2010Prop31
280
     0
102
RTVSPost2010PropOp31
 70
     0
102
RTVSPost2010Prop32
280
     0
102
RTVSPost2010PropOp32
 70
     0
102
RTVSPost2010Prop33
280
     0
102
RTVSPost2010PropOp33
 70
     0
102
RTVSPost2010Prop34
280
     0
102
RTVSPost2010PropOp34
 70
     0
102
RTVSPost2010Prop35
280
     0
102
RTVSPost2010PropOp35
 70
     0
102
RTVSPost2010Prop36
280
     0
102
RTVSPost2010PropOp36
 70
     0
102
RTVSPost2010Prop37
 90
       50
102
RTVSPost2010PropOp37
 70
     0
102
RTVSPost2010Prop38
140
0.0
102
RTVSPost2010PropOp38
 70
     0
102
RTVSPost2010Prop39
140
1.0
102
RTVSPost2010PropOp39
 70
     0
102
RTVSPost2010Prop40
 90
        0
102
RTVSPost2010PropOp40
 70
     0
102
RTVSPost2010Prop41ColorIndex
 90
       18
102
RTVSPost2010Prop41ColorRGB
 90
        0
102
RTVSPost2010PropOp41
 70
     0
102
RTVSPost2010Prop42
 90
       50
102
RTVSPost2010PropOp42
 70
     0
102
RTVSPost2010Prop43
 90
        3
102
RTVSPost2010PropOp43
 70
     0
102
RTVSPost2010Prop44ColorIndex
 90
        5
102
RTVSPost2010Prop44ColorRGB
 90
      255
102
RTVSPost2010PropOp44
 70
     0
102
RTVSPost2010Prop45
280
     0
102
RTVSPost2010PropOp45
 70
     0
102
RTVSPost2010Prop46
 90
       50
102
RTVSPost2010PropOp46
 70
     0
102
RTVSPost2010Prop47
 90
       50
102
RTVSPost2010PropOp47
 70
     0
102
RTVSPost2010Prop48
 90
       50
102
RTVSPost2010PropOp48
 70
     0
102
RTVSPost2010Prop49
280
     0
102
RTVSPost2010PropOp49
 70
     0
102
RTVSPost2010Prop50
 90
       50
102
RTVSPost2010PropOp50
 70
     0
102
RTVSPost2010Prop51ColorIndex
 90
      256
102
RTVSPost2010Prop51ColorRGB
 90
-16777216
102
RTVSPost2010PropOp51
 70
     0
102
RTVSPost2010Prop52
140
1.0
102
RTVSPost2010PropOp52
 70
     0
102
RTVSPost2010Prop53
 90
        2
102
RTVSPost2010PropOp53
 70
     0
102
RTVSPost2010Prop54
  1
strokes_ogs.tif
102
RTVSPost2010PropOp54
 70
     0
102
RTVSPost2010Prop55
280
     0
102
RTVSPost2010PropOp55
 70
     0
102
RTVSPost2010Prop56
140
1.0
102
RTVSPost2010PropOp56
 70
     0
102
RTVSPost2010Prop57
140
1.0
102
RTVSPost2010PropOp57
 70
     0
  0
XRECORD
  5
373
102
{ACAD_REACTORS
330
372
102
}
330
372
100
AcDbXrecord
280
     1
102
RTVSPropertyOp0
 70
     1
102
RTVSPropertyOp1
 70
     1
102
RTVSPropertyOp2
 70
     1
102
RTVSPropertyOp3
 70
     1
102
RTVSPropertyOp4
 70
     1
102
RTVSPropertyOp5
 70
     1
102
RTVSPropertyOp6
 70
     1
102
RTVSPropertyOp7
 70
     1
102
RTVSPropertyOp8
 70
     1
102
RTVSPropertyOp9
 70
     1
102
RTVSPropertyOp10
 70
     1
102
RTVSPropertyOp11
 70
     1
102
RTVSPropertyOp12
 70
     1
102
RTVSPropertyOp13
 70
     1
102
RTVSPropertyOp14
 70
     1
102
RTVSPropertyOp15
 70
     1
102
RTVSPropertyOp16
 70
     1
102
RTVSPropertyOp17
 70
     1
102
RTVSPropertyOp18
 70
     1
102
RTVSPropertyOp19
 70
     1
102
RTVSPropertyOp20
 70
     1
102
RTVSPropertyOp21
 70
     1
102
RTVSPropertyOp22
 70
     1
102
RTVSPropertyOp23
 70
     1
102
RTVSPropertyOp24
 70
     1
102
RTVSPropertyOp25
 70
     1
102
RTVSPropertyOp26
 70
     1
102
RTVSPropertyOp27
 70
     1
102
RTVSPropertyOp28
 70
     1
102
RTVSPropertyOp29
 70
     1
102
RTVSPropertyOp30
 70
     1
102
RTVSPropertyOp31
 70
     1
102
RTVSPropertyOp32
 70
     1
102
RTVSPropertyOp33
 70
     1
102
RTVSPropertyOp34
 70
     1
102
RTVSPropertyOp35
 70
     1
102
RTVSPropertyOp36
 70
     1
102
RTVSPropertyOp37
 70
     1
102
RTVSPropertyOp38
 70
     1
102
RTVSPropertyOp39
 70
     1
102
RTVSPropertyOp40
 70
     1
102
RTVSPropertyOp41
 70
     1
102
RTVSPropertyOp42
 70
     1
102
RTVSPropertyOp43
 70
     1
102
RTVSPropertyOp44
 70
     1
102
RTVSPropertyOp45
 70
     1
102
RTVSPropertyOp46
 70
     1
102
RTVSPropertyOp47
 70
     1
102
RTVSPropertyOp48
 70
     1
102
RTVSPropertyOp49
 70
     1
102
RTVSPropertyOp50
 70
     1
102
RTVSPropertyOp51
 70
     0
102
RTVSPropertyOp52
 70
     0
102
RTVSPropertyOp53
 70
     1
102
RTVSPropertyOp54
 70
     1
102
RTVSPropertyOp55
 70
     1
102
RTVSPropertyOp56
 70
     1
102
RTVSPropertyOp57
 70
     1
102
RTVSPost2010Prop28
280
     0
102
RTVSPost2010PropOp28
 70
     1
102
RTVSPost2010Prop29
280
     1
102
RTVSPost2010PropOp29
 70
     1
102
RTVSPost2010Prop30
280
     1
102
RTVSPost2010PropOp30
 70
     1
102
RTVSPost2010Prop31
280
     0
102
RTVSPost2010PropOp31
 70
     1
102
RTVSPost2010Prop32
280
     0
102
RTVSPost2010PropOp32
 70
     1
102
RTVSPost2010Prop33
280
     0
102
RTVSPost2010PropOp33
 70
     1
102
RTVSPost2010Prop34
280
     0
102
RTVSPost2010PropOp34
 70
     1
102
RTVSPost2010Prop35
280
     0
102
RTVSPost2010PropOp35
 70
     1
102
RTVSPost2010Prop36
280
     0
102
RTVSPost2010PropOp36
 70
     1
102
RTVSPost2010Prop37
 90
       50
102
RTVSPost2010PropOp37
 70
     1
102
RTVSPost2010Prop38
140
0.0
102
RTVSPost2010PropOp38
 70
     1
102
RTVSPost2010Prop39
140
1.0
102
RTVSPost2010PropOp39
 70
     1
102
RTVSPost2010Prop40
 90
        0
102
RTVSPost2010PropOp40
 70
     1
102
RTVSPost2010Prop41ColorIndex
 90
       18
102
RTVSPost2010Prop41ColorRGB
 90
        0
102
RTVSPost2010PropOp41
 70
     1
102
RTVSPost2010Prop42
 90
       50
102
RTVSPost2010PropOp42
 70
     1
102
RTVSPost2010Prop43
 90
        3
102
RTVSPost2010PropOp43
 70
     1
102
RTVSPost2010Prop44ColorIndex
 90
        5
102
RTVSPost2010Prop44ColorRGB
 90
      255
102
RTVSPost2010PropOp44
 70
     1
102
RTVSPost2010Prop45
280
     0
102
RTVSPost2010PropOp45
 70
     1
102
RTVSPost2010Prop46
 90
       50
102
RTVSPost2010PropOp46
 70
     1
102
RTVSPost2010Prop47
 90
       50
102
RTVSPost2010PropOp47
 70
     1
102
RTVSPost2010Prop48
 90
       50
102
RTVSPost2010PropOp48
 70
     1
102
RTVSPost2010Prop49
280
     0
102
RTVSPost2010PropOp49
 70
     1
102
RTVSPost2010Prop50
 90
       50
102
RTVSPost2010PropOp50
 70
     1
102
RTVSPost2010Prop51ColorIndex
 90
      256
102
RTVSPost2010Prop51ColorRGB
 90
-16777216
102
RTVSPost2010PropOp51
 70
     0
102
RTVSPost2010Prop52
140
1.0
102
RTVSPost2010PropOp52
 70
     0
102
RTVSPost2010Prop53
 90
        2
102
RTVSPost2010PropOp53
 70
     1
102
RTVSPost2010Prop54
  1
strokes_ogs.tif
102
RTVSPost2010PropOp54
 70
     1
102
RTVSPost2010Prop55
280
     0
102
RTVSPost2010PropOp55
 70
     1
102
RTVSPost2010Prop56
140
1.0
102
RTVSPost2010PropOp56
 70
     1
102
RTVSPost2010Prop57
140
1.0
102
RTVSPost2010PropOp57
 70
     1
  0
XRECORD
  5
391
102
{ACAD_REACTORS
330
390
102
}
330
390
100
AcDbXrecord
280
     1
102
RTVSPropertyOp0
 70
     1
102
RTVSPropertyOp1
 70
     1
102
RTVSPropertyOp2
 70
     1
102
RTVSPropertyOp3
 70
     1
102
RTVSPropertyOp4
 70
     1
102
RTVSPropertyOp5
 70
     1
102
RTVSPropertyOp6
 70
     1
102
RTVSPropertyOp7
 70
     1
102
RTVSPropertyOp8
 70
     1
102
RTVSPropertyOp9
 70
     1
102
RTVSPropertyOp10
 70
     1
102
RTVSPropertyOp11
 70
     1
102
RTVSPropertyOp12
 70
     1
102
RTVSPropertyOp13
 70
     1
102
RTVSPropertyOp14
 70
     1
102
RTVSPropertyOp15
 70
     1
102
RTVSPropertyOp16
 70
     1
102
RTVSPropertyOp17
 70
     1
102
RTVSPropertyOp18
 70
     1
102
RTVSPropertyOp19
 70
     1
102
RTVSPropertyOp20
 70
     1
102
RTVSPropertyOp21
 70
     1
102
RTVSPropertyOp22
 70
     1
102
RTVSPropertyOp23
 70
     1
102
RTVSPropertyOp24
 70
     1
102
RTVSPropertyOp25
 70
     1
102
RTVSPropertyOp26
 70
     1
102
RTVSPropertyOp27
 70
     1
102
RTVSPropertyOp28
 70
     1
102
RTVSPropertyOp29
 70
     1
102
RTVSPropertyOp30
 70
     1
102
RTVSPropertyOp31
 70
     1
102
RTVSPropertyOp32
 70
     1
102
RTVSPropertyOp33
 70
     1
102
RTVSPropertyOp34
 70
     1
102
RTVSPropertyOp35
 70
     1
102
RTVSPropertyOp36
 70
     1
102
RTVSPropertyOp37
 70
     1
102
RTVSPropertyOp38
 70
     1
102
RTVSPropertyOp39
 70
     1
102
RTVSPropertyOp40
 70
     1
102
RTVSPropertyOp41
 70
     1
102
RTVSPropertyOp42
 70
     1
102
RTVSPropertyOp43
 70
     1
102
RTVSPropertyOp44
 70
     1
102
RTVSPropertyOp45
 70
     1
102
RTVSPropertyOp46
 70
     1
102
RTVSPropertyOp47
 70
     1
102
RTVSPropertyOp48
 70
     1
102
RTVSPropertyOp49
 70
     1
102
RTVSPropertyOp50
 70
     1
102
RTVSPropertyOp51
 70
     0
102
RTVSPropertyOp52
 70
     0
102
RTVSPropertyOp53
 70
     1
102
RTVSPropertyOp54
 70
     1
102
RTVSPropertyOp55
 70
     1
102
RTVSPropertyOp56
 70
     1
102
RTVSPropertyOp57
 70
     1
102
RTVSPost2010Prop28
280
     0
102
RTVSPost2010PropOp28
 70
     1
102
RTVSPost2010Prop29
280
     1
102
RTVSPost2010PropOp29
 70
     1
102
RTVSPost2010Prop30
280
     1
102
RTVSPost2010PropOp30
 70
     1
102
RTVSPost2010Prop31
280
     0
102
RTVSPost2010PropOp31
 70
     1
102
RTVSPost2010Prop32
280
     0
102
RTVSPost2010PropOp32
 70
     1
102
RTVSPost2010Prop33
280
     0
102
RTVSPost2010PropOp33
 70
     1
102
RTVSPost2010Prop34
280
     0
102
RTVSPost2010PropOp34
 70
     1
102
RTVSPost2010Prop35
280
     0
102
RTVSPost2010PropOp35
 70
     1
102
RTVSPost2010Prop36
280
     0
102
RTVSPost2010PropOp36
 70
     1
102
RTVSPost2010Prop37
 90
       50
102
RTVSPost2010PropOp37
 70
     1
102
RTVSPost2010Prop38
140
0.0
102
RTVSPost2010PropOp38
 70
     1
102
RTVSPost2010Prop39
140
1.0
102
RTVSPost2010PropOp39
 70
     1
102
RTVSPost2010Prop40
 90
        0
102
RTVSPost2010PropOp40
 70
     1
102
RTVSPost2010Prop41ColorIndex
 90
       18
102
RTVSPost2010Prop41ColorRGB
 90
        0
102
RTVSPost2010PropOp41
 70
     1
102
RTVSPost2010Prop42
 90
       50
102
RTVSPost2010PropOp42
 70
     1
102
RTVSPost2010Prop43
 90
        3
102
RTVSPost2010PropOp43
 70
     1
102
RTVSPost2010Prop44ColorIndex
 90
        5
102
RTVSPost2010Prop44ColorRGB
 90
      255
102
RTVSPost2010PropOp44
 70
     1
102
RTVSPost2010Prop45
280
     0
102
RTVSPost2010PropOp45
 70
     1
102
RTVSPost2010Prop46
 90
       50
102
RTVSPost2010PropOp46
 70
     1
102
RTVSPost2010Prop47
 90
       50
102
RTVSPost2010PropOp47
 70
     1
102
RTVSPost2010Prop48
 90
       50
102
RTVSPost2010PropOp48
 70
     1
102
RTVSPost2010Prop49
280
     0
102
RTVSPost2010PropOp49
 70
     1
102
RTVSPost2010Prop50
 90
       50
102
RTVSPost2010PropOp50
 70
     1
102
RTVSPost2010Prop51ColorIndex
 90
      256
102
RTVSPost2010Prop51ColorRGB
 90
-16777216
102
RTVSPost2010PropOp51
 70
     0
102
RTVSPost2010Prop52
140
1.0
102
RTVSPost2010PropOp52
 70
     0
102
RTVSPost2010Prop53
 90
        2
102
RTVSPost2010PropOp53
 70
     1
102
RTVSPost2010Prop54
  1
strokes_ogs.tif
102
RTVSPost2010PropOp54
 70
     1
102
RTVSPost2010Prop55
280
     0
102
RTVSPost2010PropOp55
 70
     1
102
RTVSPost2010Prop56
140
1.0
102
RTVSPost2010PropOp56
 70
     1
102
RTVSPost2010Prop57
140
1.0
102
RTVSPost2010PropOp57
 70
     1
  0
XRECORD
  5
38F
102
{ACAD_REACTORS
330
38E
102
}
330
38E
100
AcDbXrecord
280
     1
102
RTVSPropertyOp0
 70
     1
102
RTVSPropertyOp1
 70
     1
102
RTVSPropertyOp2
 70
     1
102
RTVSPropertyOp3
 70
     1
102
RTVSPropertyOp4
 70
     1
102
RTVSPropertyOp5
 70
     1
102
RTVSPropertyOp6
 70
     1
102
RTVSPropertyOp7
 70
     1
102
RTVSPropertyOp8
 70
     1
102
RTVSPropertyOp9
 70
     1
102
RTVSPropertyOp10
 70
     1
102
RTVSPropertyOp11
 70
     1
102
RTVSPropertyOp12
 70
     1
102
RTVSPropertyOp13
 70
     1
102
RTVSPropertyOp14
 70
     1
102
RTVSPropertyOp15
 70
     1
102
RTVSPropertyOp16
 70
     1
102
RTVSPropertyOp17
 70
     1
102
RTVSPropertyOp18
 70
     1
102
RTVSPropertyOp19
 70
     1
102
RTVSPropertyOp20
 70
     1
102
RTVSPropertyOp21
 70
     1
102
RTVSPropertyOp22
 70
     1
102
RTVSPropertyOp23
 70
     1
102
RTVSPropertyOp24
 70
     1
102
RTVSPropertyOp25
 70
     1
102
RTVSPropertyOp26
 70
     1
102
RTVSPropertyOp27
 70
     1
102
RTVSPropertyOp28
 70
     1
102
RTVSPropertyOp29
 70
     1
102
RTVSPropertyOp30
 70
     1
102
RTVSPropertyOp31
 70
     1
102
RTVSPropertyOp32
 70
     1
102
RTVSPropertyOp33
 70
     1
102
RTVSPropertyOp34
 70
     1
102
RTVSPropertyOp35
 70
     1
102
RTVSPropertyOp36
 70
     1
102
RTVSPropertyOp37
 70
     1
102
RTVSPropertyOp38
 70
     1
102
RTVSPropertyOp39
 70
     1
102
RTVSPropertyOp40
 70
     1
102
RTVSPropertyOp41
 70
     1
102
RTVSPropertyOp42
 70
     1
102
RTVSPropertyOp43
 70
     1
102
RTVSPropertyOp44
 70
     1
102
RTVSPropertyOp45
 70
     1
102
RTVSPropertyOp46
 70
     1
102
RTVSPropertyOp47
 70
     1
102
RTVSPropertyOp48
 70
     1
102
RTVSPropertyOp49
 70
     1
102
RTVSPropertyOp50
 70
     1
102
RTVSPropertyOp51
 70
     0
102
RTVSPropertyOp52
 70
     0
102
RTVSPropertyOp53
 70
     1
102
RTVSPropertyOp54
 70
     1
102
RTVSPropertyOp55
 70
     1
102
RTVSPropertyOp56
 70
     1
102
RTVSPropertyOp57
 70
     1
102
RTVSPost2010Prop28
280
     0
102
RTVSPost2010PropOp28
 70
     1
102
RTVSPost2010Prop29
280
     1
102
RTVSPost2010PropOp29
 70
     1
102
RTVSPost2010Prop30
280
     1
102
RTVSPost2010PropOp30
 70
     1
102
RTVSPost2010Prop31
280
     0
102
RTVSPost2010PropOp31
 70
     1
102
RTVSPost2010Prop32
280
     0
102
RTVSPost2010PropOp32
 70
     1
102
RTVSPost2010Prop33
280
     0
102
RTVSPost2010PropOp33
 70
     1
102
RTVSPost2010Prop34
280
     0
102
RTVSPost2010PropOp34
 70
     1
102
RTVSPost2010Prop35
280
     0
102
RTVSPost2010PropOp35
 70
     1
102
RTVSPost2010Prop36
280
     0
102
RTVSPost2010PropOp36
 70
     1
102
RTVSPost2010Prop37
 90
       50
102
RTVSPost2010PropOp37
 70
     1
102
RTVSPost2010Prop38
140
0.0
102
RTVSPost2010PropOp38
 70
     1
102
RTVSPost2010Prop39
140
1.0
102
RTVSPost2010PropOp39
 70
     1
102
RTVSPost2010Prop40
 90
        0
102
RTVSPost2010PropOp40
 70
     1
102
RTVSPost2010Prop41ColorIndex
 90
       18
102
RTVSPost2010Prop41ColorRGB
 90
        0
102
RTVSPost2010PropOp41
 70
     1
102
RTVSPost2010Prop42
 90
       50
102
RTVSPost2010PropOp42
 70
     1
102
RTVSPost2010Prop43
 90
        3
102
RTVSPost2010PropOp43
 70
     1
102
RTVSPost2010Prop44ColorIndex
 90
        5
102
RTVSPost2010Prop44ColorRGB
 90
      255
102
RTVSPost2010PropOp44
 70
     1
102
RTVSPost2010Prop45
280
     0
102
RTVSPost2010PropOp45
 70
     1
102
RTVSPost2010Prop46
 90
       50
102
RTVSPost2010PropOp46
 70
     1
102
RTVSPost2010Prop47
 90
       50
102
RTVSPost2010PropOp47
 70
     1
102
RTVSPost2010Prop48
 90
       50
102
RTVSPost2010PropOp48
 70
     1
102
RTVSPost2010Prop49
280
     0
102
RTVSPost2010PropOp49
 70
     1
102
RTVSPost2010Prop50
 90
       50
102
RTVSPost2010PropOp50
 70
     1
102
RTVSPost2010Prop51ColorIndex
 90
      256
102
RTVSPost2010Prop51ColorRGB
 90
-16777216
102
RTVSPost2010PropOp51
 70
     0
102
RTVSPost2010Prop52
140
1.0
102
RTVSPost2010PropOp52
 70
     0
102
RTVSPost2010Prop53
 90
        2
102
RTVSPost2010PropOp53
 70
     1
102
RTVSPost2010Prop54
  1
strokes_ogs.tif
102
RTVSPost2010PropOp54
 70
     1
102
RTVSPost2010Prop55
280
     0
102
RTVSPost2010PropOp55
 70
     1
102
RTVSPost2010Prop56
140
1.0
102
RTVSPost2010PropOp56
 70
     1
102
RTVSPost2010Prop57
140
1.0
102
RTVSPost2010PropOp57
 70
     1
  0
XRECORD
  5
389
102
{ACAD_REACTORS
330
388
102
}
330
388
100
AcDbXrecord
280
     1
102
RTVSPropertyOp0
 70
     1
102
RTVSPropertyOp1
 70
     1
102
RTVSPropertyOp2
 70
     1
102
RTVSPropertyOp3
 70
     1
102
RTVSPropertyOp4
 70
     1
102
RTVSPropertyOp5
 70
     1
102
RTVSPropertyOp6
 70
     1
102
RTVSPropertyOp7
 70
     1
102
RTVSPropertyOp8
 70
     1
102
RTVSPropertyOp9
 70
     1
102
RTVSPropertyOp10
 70
     1
102
RTVSPropertyOp11
 70
     1
102
RTVSPropertyOp12
 70
     1
102
RTVSPropertyOp13
 70
     1
102
RTVSPropertyOp14
 70
     1
102
RTVSPropertyOp15
 70
     1
102
RTVSPropertyOp16
 70
     1
102
RTVSPropertyOp17
 70
     1
102
RTVSPropertyOp18
 70
     1
102
RTVSPropertyOp19
 70
     1
102
RTVSPropertyOp20
 70
     1
102
RTVSPropertyOp21
 70
     1
102
RTVSPropertyOp22
 70
     1
102
RTVSPropertyOp23
 70
     1
102
RTVSPropertyOp24
 70
     1
102
RTVSPropertyOp25
 70
     1
102
RTVSPropertyOp26
 70
     1
102
RTVSPropertyOp27
 70
     1
102
RTVSPropertyOp28
 70
     1
102
RTVSPropertyOp29
 70
     1
102
RTVSPropertyOp30
 70
     1
102
RTVSPropertyOp31
 70
     1
102
RTVSPropertyOp32
 70
     1
102
RTVSPropertyOp33
 70
     1
102
RTVSPropertyOp34
 70
     1
102
RTVSPropertyOp35
 70
     1
102
RTVSPropertyOp36
 70
     1
102
RTVSPropertyOp37
 70
     1
102
RTVSPropertyOp38
 70
     1
102
RTVSPropertyOp39
 70
     1
102
RTVSPropertyOp40
 70
     1
102
RTVSPropertyOp41
 70
     1
102
RTVSPropertyOp42
 70
     1
102
RTVSPropertyOp43
 70
     1
102
RTVSPropertyOp44
 70
     1
102
RTVSPropertyOp45
 70
     1
102
RTVSPropertyOp46
 70
     1
102
RTVSPropertyOp47
 70
     1
102
RTVSPropertyOp48
 70
     1
102
RTVSPropertyOp49
 70
     1
102
RTVSPropertyOp50
 70
     1
102
RTVSPropertyOp51
 70
     0
102
RTVSPropertyOp52
 70
     0
102
RTVSPropertyOp53
 70
     1
102
RTVSPropertyOp54
 70
     1
102
RTVSPropertyOp55
 70
     1
102
RTVSPropertyOp56
 70
     1
102
RTVSPropertyOp57
 70
     1
102
RTVSPost2010Prop28
280
     0
102
RTVSPost2010PropOp28
 70
     1
102
RTVSPost2010Prop29
280
     1
102
RTVSPost2010PropOp29
 70
     1
102
RTVSPost2010Prop30
280
     1
102
RTVSPost2010PropOp30
 70
     1
102
RTVSPost2010Prop31
280
     0
102
RTVSPost2010PropOp31
 70
     1
102
RTVSPost2010Prop32
280
     0
102
RTVSPost2010PropOp32
 70
     1
102
RTVSPost2010Prop33
280
     0
102
RTVSPost2010PropOp33
 70
     1
102
RTVSPost2010Prop34
280
     0
102
RTVSPost2010PropOp34
 70
     1
102
RTVSPost2010Prop35
280
     0
102
RTVSPost2010PropOp35
 70
     1
102
RTVSPost2010Prop36
280
     0
102
RTVSPost2010PropOp36
 70
     1
102
RTVSPost2010Prop37
 90
       50
102
RTVSPost2010PropOp37
 70
     1
102
RTVSPost2010Prop38
140
0.0
102
RTVSPost2010PropOp38
 70
     1
102
RTVSPost2010Prop39
140
1.0
102
RTVSPost2010PropOp39
 70
     1
102
RTVSPost2010Prop40
 90
        0
102
RTVSPost2010PropOp40
 70
     1
102
RTVSPost2010Prop41ColorIndex
 90
       18
102
RTVSPost2010Prop41ColorRGB
 90
        0
102
RTVSPost2010PropOp41
 70
     1
102
RTVSPost2010Prop42
 90
       50
102
RTVSPost2010PropOp42
 70
     1
102
RTVSPost2010Prop43
 90
        3
102
RTVSPost2010PropOp43
 70
     1
102
RTVSPost2010Prop44ColorIndex
 90
        5
102
RTVSPost2010Prop44ColorRGB
 90
      255
102
RTVSPost2010PropOp44
 70
     1
102
RTVSPost2010Prop45
280
     0
102
RTVSPost2010PropOp45
 70
     1
102
RTVSPost2010Prop46
 90
       50
102
RTVSPost2010PropOp46
 70
     1
102
RTVSPost2010Prop47
 90
       50
102
RTVSPost2010PropOp47
 70
     1
102
RTVSPost2010Prop48
 90
       50
102
RTVSPost2010PropOp48
 70
     1
102
RTVSPost2010Prop49
280
     0
102
RTVSPost2010PropOp49
 70
     1
102
RTVSPost2010Prop50
 90
       50
102
RTVSPost2010PropOp50
 70
     1
102
RTVSPost2010Prop51ColorIndex
 90
      256
102
RTVSPost2010Prop51ColorRGB
 90
-16777216
102
RTVSPost2010PropOp51
 70
     0
102
RTVSPost2010Prop52
140
1.0
102
RTVSPost2010PropOp52
 70
     0
102
RTVSPost2010Prop53
 90
        2
102
RTVSPost2010PropOp53
 70
     1
102
RTVSPost2010Prop54
  1
strokes_ogs.tif
102
RTVSPost2010PropOp54
 70
     1
102
RTVSPost2010Prop55
280
     0
102
RTVSPost2010PropOp55
 70
     1
102
RTVSPost2010Prop56
140
1.0
102
RTVSPost2010PropOp56
 70
     1
102
RTVSPost2010Prop57
140
1.0
102
RTVSPost2010PropOp57
 70
     1
  0
XRECORD
  5
38B
102
{ACAD_REACTORS
330
38A
102
}
330
38A
100
AcDbXrecord
280
     1
102
RTVSPropertyOp0
 70
     1
102
RTVSPropertyOp1
 70
     1
102
RTVSPropertyOp2
 70
     1
102
RTVSPropertyOp3
 70
     1
102
RTVSPropertyOp4
 70
     1
102
RTVSPropertyOp5
 70
     1
102
RTVSPropertyOp6
 70
     1
102
RTVSPropertyOp7
 70
     1
102
RTVSPropertyOp8
 70
     1
102
RTVSPropertyOp9
 70
     1
102
RTVSPropertyOp10
 70
     1
102
RTVSPropertyOp11
 70
     1
102
RTVSPropertyOp12
 70
     1
102
RTVSPropertyOp13
 70
     1
102
RTVSPropertyOp14
 70
     1
102
RTVSPropertyOp15
 70
     1
102
RTVSPropertyOp16
 70
     1
102
RTVSPropertyOp17
 70
     1
102
RTVSPropertyOp18
 70
     1
102
RTVSPropertyOp19
 70
     1
102
RTVSPropertyOp20
 70
     1
102
RTVSPropertyOp21
 70
     1
102
RTVSPropertyOp22
 70
     1
102
RTVSPropertyOp23
 70
     1
102
RTVSPropertyOp24
 70
     1
102
RTVSPropertyOp25
 70
     1
102
RTVSPropertyOp26
 70
     1
102
RTVSPropertyOp27
 70
     1
102
RTVSPropertyOp28
 70
     1
102
RTVSPropertyOp29
 70
     1
102
RTVSPropertyOp30
 70
     1
102
RTVSPropertyOp31
 70
     1
102
RTVSPropertyOp32
 70
     1
102
RTVSPropertyOp33
 70
     1
102
RTVSPropertyOp34
 70
     1
102
RTVSPropertyOp35
 70
     1
102
RTVSPropertyOp36
 70
     1
102
RTVSPropertyOp37
 70
     1
102
RTVSPropertyOp38
 70
     1
102
RTVSPropertyOp39
 70
     1
102
RTVSPropertyOp40
 70
     1
102
RTVSPropertyOp41
 70
     1
102
RTVSPropertyOp42
 70
     1
102
RTVSPropertyOp43
 70
     1
102
RTVSPropertyOp44
 70
     1
102
RTVSPropertyOp45
 70
     1
102
RTVSPropertyOp46
 70
     1
102
RTVSPropertyOp47
 70
     1
102
RTVSPropertyOp48
 70
     1
102
RTVSPropertyOp49
 70
     1
102
RTVSPropertyOp50
 70
     1
102
RTVSPropertyOp51
 70
     0
102
RTVSPropertyOp52
 70
     0
102
RTVSPropertyOp53
 70
     1
102
RTVSPropertyOp54
 70
     1
102
RTVSPropertyOp55
 70
     1
102
RTVSPropertyOp56
 70
     1
102
RTVSPropertyOp57
 70
     1
102
RTVSPost2010Prop28
280
     0
102
RTVSPost2010PropOp28
 70
     1
102
RTVSPost2010Prop29
280
     1
102
RTVSPost2010PropOp29
 70
     1
102
RTVSPost2010Prop30
280
     1
102
RTVSPost2010PropOp30
 70
     1
102
RTVSPost2010Prop31
280
     0
102
RTVSPost2010PropOp31
 70
     1
102
RTVSPost2010Prop32
280
     0
102
RTVSPost2010PropOp32
 70
     1
102
RTVSPost2010Prop33
280
     0
102
RTVSPost2010PropOp33
 70
     1
102
RTVSPost2010Prop34
280
     0
102
RTVSPost2010PropOp34
 70
     1
102
RTVSPost2010Prop35
280
     0
102
RTVSPost2010PropOp35
 70
     1
102
RTVSPost2010Prop36
280
     0
102
RTVSPost2010PropOp36
 70
     1
102
RTVSPost2010Prop37
 90
       50
102
RTVSPost2010PropOp37
 70
     1
102
RTVSPost2010Prop38
140
0.0
102
RTVSPost2010PropOp38
 70
     1
102
RTVSPost2010Prop39
140
1.0
102
RTVSPost2010PropOp39
 70
     1
102
RTVSPost2010Prop40
 90
        0
102
RTVSPost2010PropOp40
 70
     1
102
RTVSPost2010Prop41ColorIndex
 90
       18
102
RTVSPost2010Prop41ColorRGB
 90
        0
102
RTVSPost2010PropOp41
 70
     1
102
RTVSPost2010Prop42
 90
       50
102
RTVSPost2010PropOp42
 70
     1
102
RTVSPost2010Prop43
 90
        3
102
RTVSPost2010PropOp43
 70
     1
102
RTVSPost2010Prop44ColorIndex
 90
        5
102
RTVSPost2010Prop44ColorRGB
 90
      255
102
RTVSPost2010PropOp44
 70
     1
102
RTVSPost2010Prop45
280
     0
102
RTVSPost2010PropOp45
 70
     1
102
RTVSPost2010Prop46
 90
       50
102
RTVSPost2010PropOp46
 70
     1
102
RTVSPost2010Prop47
 90
       50
102
RTVSPost2010PropOp47
 70
     1
102
RTVSPost2010Prop48
 90
       50
102
RTVSPost2010PropOp48
 70
     1
102
RTVSPost2010Prop49
280
     0
102
RTVSPost2010PropOp49
 70
     1
102
RTVSPost2010Prop50
 90
       50
102
RTVSPost2010PropOp50
 70
     1
102
RTVSPost2010Prop51ColorIndex
 90
      256
102
RTVSPost2010Prop51ColorRGB
 90
-16777216
102
RTVSPost2010PropOp51
 70
     0
102
RTVSPost2010Prop52
140
1.0
102
RTVSPost2010PropOp52
 70
     0
102
RTVSPost2010Prop53
 90
        2
102
RTVSPost2010PropOp53
 70
     1
102
RTVSPost2010Prop54
  1
strokes_ogs.tif
102
RTVSPost2010PropOp54
 70
     1
102
RTVSPost2010Prop55
280
     0
102
RTVSPost2010PropOp55
 70
     1
102
RTVSPost2010Prop56
140
1.0
102
RTVSPost2010PropOp56
 70
     1
102
RTVSPost2010Prop57
140
1.0
102
RTVSPost2010PropOp57
 70
     1
  0
XRECORD
  5
37B
102
{ACAD_REACTORS
330
37A
102
}
330
37A
100
AcDbXrecord
280
     1
102
RTVSPropertyOp0
 70
     1
102
RTVSPropertyOp1
 70
     1
102
RTVSPropertyOp2
 70
     1
102
RTVSPropertyOp3
 70
     1
102
RTVSPropertyOp4
 70
     1
102
RTVSPropertyOp5
 70
     1
102
RTVSPropertyOp6
 70
     1
102
RTVSPropertyOp7
 70
     1
102
RTVSPropertyOp8
 70
     1
102
RTVSPropertyOp9
 70
     1
102
RTVSPropertyOp10
 70
     1
102
RTVSPropertyOp11
 70
     1
102
RTVSPropertyOp12
 70
     1
102
RTVSPropertyOp13
 70
     1
102
RTVSPropertyOp14
 70
     1
102
RTVSPropertyOp15
 70
     1
102
RTVSPropertyOp16
 70
     1
102
RTVSPropertyOp17
 70
     1
102
RTVSPropertyOp18
 70
     1
102
RTVSPropertyOp19
 70
     1
102
RTVSPropertyOp20
 70
     1
102
RTVSPropertyOp21
 70
     1
102
RTVSPropertyOp22
 70
     1
102
RTVSPropertyOp23
 70
     1
102
RTVSPropertyOp24
 70
     1
102
RTVSPropertyOp25
 70
     1
102
RTVSPropertyOp26
 70
     1
102
RTVSPropertyOp27
 70
     1
102
RTVSPropertyOp28
 70
     1
102
RTVSPropertyOp29
 70
     1
102
RTVSPropertyOp30
 70
     1
102
RTVSPropertyOp31
 70
     1
102
RTVSPropertyOp32
 70
     1
102
RTVSPropertyOp33
 70
     1
102
RTVSPropertyOp34
 70
     1
102
RTVSPropertyOp35
 70
     1
102
RTVSPropertyOp36
 70
     1
102
RTVSPropertyOp37
 70
     1
102
RTVSPropertyOp38
 70
     1
102
RTVSPropertyOp39
 70
     1
102
RTVSPropertyOp40
 70
     1
102
RTVSPropertyOp41
 70
     1
102
RTVSPropertyOp42
 70
     1
102
RTVSPropertyOp43
 70
     1
102
RTVSPropertyOp44
 70
     1
102
RTVSPropertyOp45
 70
     1
102
RTVSPropertyOp46
 70
     1
102
RTVSPropertyOp47
 70
     1
102
RTVSPropertyOp48
 70
     1
102
RTVSPropertyOp49
 70
     1
102
RTVSPropertyOp50
 70
     1
102
RTVSPropertyOp51
 70
     0
102
RTVSPropertyOp52
 70
     0
102
RTVSPropertyOp53
 70
     1
102
RTVSPropertyOp54
 70
     1
102
RTVSPropertyOp55
 70
     1
102
RTVSPropertyOp56
 70
     1
102
RTVSPropertyOp57
 70
     1
102
RTVSPost2010Prop28
280
     0
102
RTVSPost2010PropOp28
 70
     1
102
RTVSPost2010Prop29
280
     1
102
RTVSPost2010PropOp29
 70
     1
102
RTVSPost2010Prop30
280
     1
102
RTVSPost2010PropOp30
 70
     1
102
RTVSPost2010Prop31
280
     0
102
RTVSPost2010PropOp31
 70
     1
102
RTVSPost2010Prop32
280
     0
102
RTVSPost2010PropOp32
 70
     1
102
RTVSPost2010Prop33
280
     0
102
RTVSPost2010PropOp33
 70
     1
102
RTVSPost2010Prop34
280
     0
102
RTVSPost2010PropOp34
 70
     1
102
RTVSPost2010Prop35
280
     0
102
RTVSPost2010PropOp35
 70
     1
102
RTVSPost2010Prop36
280
     0
102
RTVSPost2010PropOp36
 70
     1
102
RTVSPost2010Prop37
 90
       50
102
RTVSPost2010PropOp37
 70
     1
102
RTVSPost2010Prop38
140
0.0
102
RTVSPost2010PropOp38
 70
     1
102
RTVSPost2010Prop39
140
1.0
102
RTVSPost2010PropOp39
 70
     1
102
RTVSPost2010Prop40
 90
        0
102
RTVSPost2010PropOp40
 70
     1
102
RTVSPost2010Prop41ColorIndex
 90
       18
102
RTVSPost2010Prop41ColorRGB
 90
        0
102
RTVSPost2010PropOp41
 70
     1
102
RTVSPost2010Prop42
 90
       50
102
RTVSPost2010PropOp42
 70
     1
102
RTVSPost2010Prop43
 90
        3
102
RTVSPost2010PropOp43
 70
     1
102
RTVSPost2010Prop44ColorIndex
 90
        5
102
RTVSPost2010Prop44ColorRGB
 90
      255
102
RTVSPost2010PropOp44
 70
     1
102
RTVSPost2010Prop45
280
     0
102
RTVSPost2010PropOp45
 70
     1
102
RTVSPost2010Prop46
 90
       50
102
RTVSPost2010PropOp46
 70
     1
102
RTVSPost2010Prop47
 90
       50
102
RTVSPost2010PropOp47
 70
     1
102
RTVSPost2010Prop48
 90
       50
102
RTVSPost2010PropOp48
 70
     1
102
RTVSPost2010Prop49
280
     0
102
RTVSPost2010PropOp49
 70
     1
102
RTVSPost2010Prop50
 90
       50
102
RTVSPost2010PropOp50
 70
     1
102
RTVSPost2010Prop51ColorIndex
 90
      256
102
RTVSPost2010Prop51ColorRGB
 90
-16777216
102
RTVSPost2010PropOp51
 70
     0
102
RTVSPost2010Prop52
140
1.0
102
RTVSPost2010PropOp52
 70
     0
102
RTVSPost2010Prop53
 90
        2
102
RTVSPost2010PropOp53
 70
     1
102
RTVSPost2010Prop54
  1
strokes_ogs.tif
102
RTVSPost2010PropOp54
 70
     1
102
RTVSPost2010Prop55
280
     0
102
RTVSPost2010PropOp55
 70
     1
102
RTVSPost2010Prop56
140
1.0
102
RTVSPost2010PropOp56
 70
     1
102
RTVSPost2010Prop57
140
1.0
102
RTVSPost2010PropOp57
 70
     1
  0
XRECORD
  5
36D
102
{ACAD_REACTORS
330
36C
102
}
330
36C
100
AcDbXrecord
280
     1
102
RTVSPropertyOp0
 70
     1
102
RTVSPropertyOp1
 70
     1
102
RTVSPropertyOp2
 70
     1
102
RTVSPropertyOp3
 70
     1
102
RTVSPropertyOp4
 70
     1
102
RTVSPropertyOp5
 70
     1
102
RTVSPropertyOp6
 70
     1
102
RTVSPropertyOp7
 70
     1
102
RTVSPropertyOp8
 70
     1
102
RTVSPropertyOp9
 70
     1
102
RTVSPropertyOp10
 70
     1
102
RTVSPropertyOp11
 70
     1
102
RTVSPropertyOp12
 70
     1
102
RTVSPropertyOp13
 70
     1
102
RTVSPropertyOp14
 70
     1
102
RTVSPropertyOp15
 70
     1
102
RTVSPropertyOp16
 70
     1
102
RTVSPropertyOp17
 70
     1
102
RTVSPropertyOp18
 70
     1
102
RTVSPropertyOp19
 70
     1
102
RTVSPropertyOp20
 70
     1
102
RTVSPropertyOp21
 70
     1
102
RTVSPropertyOp22
 70
     1
102
RTVSPropertyOp23
 70
     1
102
RTVSPropertyOp24
 70
     1
102
RTVSPropertyOp25
 70
     1
102
RTVSPropertyOp26
 70
     1
102
RTVSPropertyOp27
 70
     1
102
RTVSPropertyOp28
 70
     1
102
RTVSPropertyOp29
 70
     1
102
RTVSPropertyOp30
 70
     1
102
RTVSPropertyOp31
 70
     1
102
RTVSPropertyOp32
 70
     1
102
RTVSPropertyOp33
 70
     1
102
RTVSPropertyOp34
 70
     1
102
RTVSPropertyOp35
 70
     1
102
RTVSPropertyOp36
 70
     1
102
RTVSPropertyOp37
 70
     1
102
RTVSPropertyOp38
 70
     1
102
RTVSPropertyOp39
 70
     1
102
RTVSPropertyOp40
 70
     1
102
RTVSPropertyOp41
 70
     1
102
RTVSPropertyOp42
 70
     1
102
RTVSPropertyOp43
 70
     1
102
RTVSPropertyOp44
 70
     1
102
RTVSPropertyOp45
 70
     1
102
RTVSPropertyOp46
 70
     1
102
RTVSPropertyOp47
 70
     1
102
RTVSPropertyOp48
 70
     1
102
RTVSPropertyOp49
 70
     1
102
RTVSPropertyOp50
 70
     1
102
RTVSPropertyOp51
 70
     0
102
RTVSPropertyOp52
 70
     0
102
RTVSPropertyOp53
 70
     1
102
RTVSPropertyOp54
 70
     1
102
RTVSPropertyOp55
 70
     1
102
RTVSPropertyOp56
 70
     1
102
RTVSPropertyOp57
 70
     1
102
RTVSPost2010Prop28
280
     0
102
RTVSPost2010PropOp28
 70
     1
102
RTVSPost2010Prop29
280
     1
102
RTVSPost2010PropOp29
 70
     1
102
RTVSPost2010Prop30
280
     1
102
RTVSPost2010PropOp30
 70
     1
102
RTVSPost2010Prop31
280
     0
102
RTVSPost2010PropOp31
 70
     1
102
RTVSPost2010Prop32
280
     0
102
RTVSPost2010PropOp32
 70
     1
102
RTVSPost2010Prop33
280
     0
102
RTVSPost2010PropOp33
 70
     1
102
RTVSPost2010Prop34
280
     0
102
RTVSPost2010PropOp34
 70
     1
102
RTVSPost2010Prop35
280
     0
102
RTVSPost2010PropOp35
 70
     1
102
RTVSPost2010Prop36
280
     0
102
RTVSPost2010PropOp36
 70
     1
102
RTVSPost2010Prop37
 90
       50
102
RTVSPost2010PropOp37
 70
     1
102
RTVSPost2010Prop38
140
0.0
102
RTVSPost2010PropOp38
 70
     1
102
RTVSPost2010Prop39
140
1.0
102
RTVSPost2010PropOp39
 70
     1
102
RTVSPost2010Prop40
 90
        0
102
RTVSPost2010PropOp40
 70
     1
102
RTVSPost2010Prop41ColorIndex
 90
       18
102
RTVSPost2010Prop41ColorRGB
 90
        0
102
RTVSPost2010PropOp41
 70
     1
102
RTVSPost2010Prop42
 90
       50
102
RTVSPost2010PropOp42
 70
     1
102
RTVSPost2010Prop43
 90
        3
102
RTVSPost2010PropOp43
 70
     1
102
RTVSPost2010Prop44ColorIndex
 90
        5
102
RTVSPost2010Prop44ColorRGB
 90
      255
102
RTVSPost2010PropOp44
 70
     1
102
RTVSPost2010Prop45
280
     0
102
RTVSPost2010PropOp45
 70
     1
102
RTVSPost2010Prop46
 90
       50
102
RTVSPost2010PropOp46
 70
     1
102
RTVSPost2010Prop47
 90
       50
102
RTVSPost2010PropOp47
 70
     1
102
RTVSPost2010Prop48
 90
       50
102
RTVSPost2010PropOp48
 70
     1
102
RTVSPost2010Prop49
280
     0
102
RTVSPost2010PropOp49
 70
     1
102
RTVSPost2010Prop50
 90
       50
102
RTVSPost2010PropOp50
 70
     1
102
RTVSPost2010Prop51ColorIndex
 90
      256
102
RTVSPost2010Prop51ColorRGB
 90
-16777216
102
RTVSPost2010PropOp51
 70
     0
102
RTVSPost2010Prop52
140
1.0
102
RTVSPost2010PropOp52
 70
     0
102
RTVSPost2010Prop53
 90
        2
102
RTVSPost2010PropOp53
 70
     1
102
RTVSPost2010Prop54
  1
strokes_ogs.tif
102
RTVSPost2010PropOp54
 70
     1
102
RTVSPost2010Prop55
280
     0
102
RTVSPost2010PropOp55
 70
     1
102
RTVSPost2010Prop56
140
1.0
102
RTVSPost2010PropOp56
 70
     1
102
RTVSPost2010Prop57
140
1.0
102
RTVSPost2010PropOp57
 70
     1
  0
XRECORD
  5
38D
102
{ACAD_REACTORS
330
38C
102
}
330
38C
100
AcDbXrecord
280
     1
102
RTVSPropertyOp0
 70
     1
102
RTVSPropertyOp1
 70
     1
102
RTVSPropertyOp2
 70
     1
102
RTVSPropertyOp3
 70
     1
102
RTVSPropertyOp4
 70
     1
102
RTVSPropertyOp5
 70
     1
102
RTVSPropertyOp6
 70
     1
102
RTVSPropertyOp7
 70
     1
102
RTVSPropertyOp8
 70
     1
102
RTVSPropertyOp9
 70
     1
102
RTVSPropertyOp10
 70
     1
102
RTVSPropertyOp11
 70
     1
102
RTVSPropertyOp12
 70
     1
102
RTVSPropertyOp13
 70
     1
102
RTVSPropertyOp14
 70
     1
102
RTVSPropertyOp15
 70
     1
102
RTVSPropertyOp16
 70
     1
102
RTVSPropertyOp17
 70
     1
102
RTVSPropertyOp18
 70
     1
102
RTVSPropertyOp19
 70
     1
102
RTVSPropertyOp20
 70
     1
102
RTVSPropertyOp21
 70
     1
102
RTVSPropertyOp22
 70
     1
102
RTVSPropertyOp23
 70
     1
102
RTVSPropertyOp24
 70
     1
102
RTVSPropertyOp25
 70
     1
102
RTVSPropertyOp26
 70
     1
102
RTVSPropertyOp27
 70
     1
102
RTVSPropertyOp28
 70
     1
102
RTVSPropertyOp29
 70
     1
102
RTVSPropertyOp30
 70
     1
102
RTVSPropertyOp31
 70
     1
102
RTVSPropertyOp32
 70
     1
102
RTVSPropertyOp33
 70
     1
102
RTVSPropertyOp34
 70
     1
102
RTVSPropertyOp35
 70
     1
102
RTVSPropertyOp36
 70
     1
102
RTVSPropertyOp37
 70
     1
102
RTVSPropertyOp38
 70
     1
102
RTVSPropertyOp39
 70
     1
102
RTVSPropertyOp40
 70
     1
102
RTVSPropertyOp41
 70
     1
102
RTVSPropertyOp42
 70
     1
102
RTVSPropertyOp43
 70
     1
102
RTVSPropertyOp44
 70
     1
102
RTVSPropertyOp45
 70
     1
102
RTVSPropertyOp46
 70
     1
102
RTVSPropertyOp47
 70
     1
102
RTVSPropertyOp48
 70
     1
102
RTVSPropertyOp49
 70
     1
102
RTVSPropertyOp50
 70
     1
102
RTVSPropertyOp51
 70
     0
102
RTVSPropertyOp52
 70
     0
102
RTVSPropertyOp53
 70
     1
102
RTVSPropertyOp54
 70
     1
102
RTVSPropertyOp55
 70
     1
102
RTVSPropertyOp56
 70
     1
102
RTVSPropertyOp57
 70
     1
102
RTVSPost2010Prop28
280
     0
102
RTVSPost2010PropOp28
 70
     1
102
RTVSPost2010Prop29
280
     1
102
RTVSPost2010PropOp29
 70
     1
102
RTVSPost2010Prop30
280
     1
102
RTVSPost2010PropOp30
 70
     1
102
RTVSPost2010Prop31
280
     0
102
RTVSPost2010PropOp31
 70
     1
102
RTVSPost2010Prop32
280
     0
102
RTVSPost2010PropOp32
 70
     1
102
RTVSPost2010Prop33
280
     0
102
RTVSPost2010PropOp33
 70
     1
102
RTVSPost2010Prop34
280
     0
102
RTVSPost2010PropOp34
 70
     1
102
RTVSPost2010Prop35
280
     0
102
RTVSPost2010PropOp35
 70
     1
102
RTVSPost2010Prop36
280
     0
102
RTVSPost2010PropOp36
 70
     1
102
RTVSPost2010Prop37
 90
       50
102
RTVSPost2010PropOp37
 70
     1
102
RTVSPost2010Prop38
140
0.0
102
RTVSPost2010PropOp38
 70
     1
102
RTVSPost2010Prop39
140
1.0
102
RTVSPost2010PropOp39
 70
     1
102
RTVSPost2010Prop40
 90
        0
102
RTVSPost2010PropOp40
 70
     1
102
RTVSPost2010Prop41ColorIndex
 90
       18
102
RTVSPost2010Prop41ColorRGB
 90
        0
102
RTVSPost2010PropOp41
 70
     1
102
RTVSPost2010Prop42
 90
       50
102
RTVSPost2010PropOp42
 70
     1
102
RTVSPost2010Prop43
 90
        3
102
RTVSPost2010PropOp43
 70
     1
102
RTVSPost2010Prop44ColorIndex
 90
        5
102
RTVSPost2010Prop44ColorRGB
 90
      255
102
RTVSPost2010PropOp44
 70
     1
102
RTVSPost2010Prop45
280
     0
102
RTVSPost2010PropOp45
 70
     1
102
RTVSPost2010Prop46
 90
       50
102
RTVSPost2010PropOp46
 70
     1
102
RTVSPost2010Prop47
 90
       50
102
RTVSPost2010PropOp47
 70
     1
102
RTVSPost2010Prop48
 90
       50
102
RTVSPost2010PropOp48
 70
     1
102
RTVSPost2010Prop49
280
     0
102
RTVSPost2010PropOp49
 70
     1
102
RTVSPost2010Prop50
 90
       50
102
RTVSPost2010PropOp50
 70
     1
102
RTVSPost2010Prop51ColorIndex
 90
      256
102
RTVSPost2010Prop51ColorRGB
 90
-16777216
102
RTVSPost2010PropOp51
 70
     0
102
RTVSPost2010Prop52
140
1.0
102
RTVSPost2010PropOp52
 70
     0
102
RTVSPost2010Prop53
 90
        2
102
RTVSPost2010PropOp53
 70
     1
102
RTVSPost2010Prop54
  1
strokes_ogs.tif
102
RTVSPost2010PropOp54
 70
     1
102
RTVSPost2010Prop55
280
     0
102
RTVSPost2010PropOp55
 70
     1
102
RTVSPost2010Prop56
140
1.0
102
RTVSPost2010PropOp56
 70
     1
102
RTVSPost2010Prop57
140
1.0
102
RTVSPost2010PropOp57
 70
     1
  0
ENDSEC
  0
EOF
