  0
SECTION
  2
HEADER
  9
$ACADVER
  1
AC1018
  9
$ACADMAINTVER
 70
     0
  9
$DWGCODEPAGE
  3
ANSI_932
  9
$INSBASE
 10
0.0
 20
0.0
 30
0.0
  9
$EXTMIN
 10
-2970.0
 20
-2100.0
 30
0.0
  9
$EXTMAX
 10
2970.0
 20
2100.0
 30
0.0
  9
$LIMMIN
 10
-2970.0
 20
-2100.0
  9
$LIMMAX
 10
2970.0
 20
2100.0
  9
$ORTHOMODE
 70
     0
  9
$REGENMODE
 70
     1
  9
$FILLMODE
 70
     1
  9
$QTEXTMODE
 70
     0
  9
$MIRRTEXT
 70
     1
  9
$LTSCALE
 40
10.0
  9
$ATTMODE
 70
     1
  9
$TEXTSIZE
 40
2.5
  9
$TRACEWID
 40
1.0
  9
$TEXTSTYLE
  7
Standard
  9
$CLAYER
  8
0
  9
$CELTYPE
  6
ByLayer
  9
$CECOLOR
 62
   256
  9
$CELTSCALE
 40
1.0
  9
$DISPSILH
 70
     0
  9
$DIMSCALE
 40
1.0
  9
$DIMASZ
 40
2.5
  9
$DIMEXO
 40
0.625
  9
$DIMDLI
 40
3.75
  9
$DIMRND
 40
0.0
  9
$DIMDLE
 40
0.0
  9
$DIMEXE
 40
1.25
  9
$DIMTP
 40
0.0
  9
$DIMTM
 40
0.0
  9
$DIMTXT
 40
2.5
  9
$DIMCEN
 40
2.5
  9
$DIMTSZ
 40
0.0
  9
$DIMTOL
 70
     0
  9
$DIMLIM
 70
     0
  9
$DIMTIH
 70
     0
  9
$DIMTOH
 70
     0
  9
$DIMSE1
 70
     0
  9
$DIMSE2
 70
     0
  9
$DIMTAD
 70
     1
  9
$DIMZIN
 70
     8
  9
$DIMBLK
  1

  9
$DIMASO
 70
     1
  9
$DIMSHO
 70
     1
  9
$DIMPOST
  1

  9
$DIMAPOST
  1

  9
$DIMALT
 70
     0
  9
$DIMALTD
 70
     3
  9
$DIMALTF
 40
0.03937007874016
  9
$DIMLFAC
 40
1.0
  9
$DIMTOFL
 70
     1
  9
$DIMTVP
 40
0.0
  9
$DIMTIX
 70
     0
  9
$DIMSOXD
 70
     0
  9
$DIMSAH
 70
     0
  9
$DIMBLK1
  1

  9
$DIMBLK2
  1

  9
$DIMSTYLE
  2
ISO-25
  9
$DIMCLRD
 70
     0
  9
$DIMCLRE
 70
     0
  9
$DIMCLRT
 70
     0
  9
$DIMTFAC
 40
1.0
  9
$DIMGAP
 40
0.625
  9
$DIMJUST
 70
     0
  9
$DIMSD1
 70
     0
  9
$DIMSD2
 70
     0
  9
$DIMTOLJ
 70
     0
  9
$DIMTZIN
 70
     8
  9
$DIMALTZ
 70
     0
  9
$DIMALTTZ
 70
     0
  9
$DIMUPT
 70
     0
  9
$DIMDEC
 70
     2
  9
$DIMTDEC
 70
     2
  9
$DIMALTU
 70
     2
  9
$DIMALTTD
 70
     3
  9
$DIMTXSTY
  7
Standard
  9
$DIMAUNIT
 70
     0
  9
$DIMADEC
 70
     0
  9
$DIMALTRND
 40
0.0
  9
$DIMAZIN
 70
     0
  9
$DIMDSEP
 70
    44
  9
$DIMATFIT
 70
     3
  9
$DIMFRAC
 70
     0
  9
$DIMLDRBLK
  1

  9
$DIMLUNIT
 70
     2
  9
$DIMLWD
 70
    -2
  9
$DIMLWE
 70
    -2
  9
$DIMTMOVE
 70
     0
  9
$LUNITS
 70
     2
  9
$LUPREC
 70
     4
  9
$SKETCHINC
 40
1.0
  9
$FILLETRAD
 40
10.0
  9
$AUNITS
 70
     0
  9
$AUPREC
 70
     0
  9
$MENU
  1
.
  9
$ELEVATION
 40
0.0
  9
$PELEVATION
 40
0.0
  9
$THICKNESS
 40
0.0
  9
$LIMCHECK
 70
     0
  9
$CHAMFERA
 40
0.0
  9
$CHAMFERB
 40
0.0
  9
$CHAMFERC
 40
0.0
  9
$CHAMFERD
 40
0.0
  9
$SKPOLY
 70
     0
  9
$TDCREATE
 40
2459494.360059606
  9
$TDUCREATE
 40
2459493.985059606
  9
$TDUPDATE
 40
2459494.360059792
  9
$TDUUPDATE
 40
2459493.985059792
  9
$TDINDWG
 40
0.0000000116
  9
$TDUSRTIMER
 40
0.0000000116
  9
$USRTIMER
 70
     1
  9
$ANGBASE
 50
0.0
  9
$ANGDIR
 70
     0
  9
$PDMODE
 70
     0
  9
$PDSIZE
 40
0.0
  9
$PLINEWID
 40
0.0
  9
$SPLFRAME
 70
     0
  9
$SPLINETYPE
 70
     6
  9
$SPLINESEGS
 70
     8
  9
$HANDSEED
  5
46D
  9
$SURFTAB1
 70
     6
  9
$SURFTAB2
 70
     6
  9
$SURFTYPE
 70
     6
  9
$SURFU
 70
     6
  9
$SURFV
 70
     6
  9
$UCSBASE
  2

  9
$UCSNAME
  2

  9
$UCSORG
 10
0.0
 20
0.0
 30
0.0
  9
$UCSXDIR
 10
1.0
 20
0.0
 30
0.0
  9
$UCSYDIR
 10
0.0
 20
1.0
 30
0.0
  9
$UCSORTHOREF
  2

  9
$UCSORTHOVIEW
 70
     0
  9
$UCSORGTOP
 10
0.0
 20
0.0
 30
0.0
  9
$UCSORGBOTTOM
 10
0.0
 20
0.0
 30
0.0
  9
$UCSORGLEFT
 10
0.0
 20
0.0
 30
0.0
  9
$UCSORGRIGHT
 10
0.0
 20
0.0
 30
0.0
  9
$UCSORGFRONT
 10
0.0
 20
0.0
 30
0.0
  9
$UCSORGBACK
 10
0.0
 20
0.0
 30
0.0
  9
$PUCSBASE
  2

  9
$PUCSNAME
  2

  9
$PUCSORG
 10
0.0
 20
0.0
 30
0.0
  9
$PUCSXDIR
 10
1.0
 20
0.0
 30
0.0
  9
$PUCSYDIR
 10
0.0
 20
1.0
 30
0.0
  9
$PUCSORTHOREF
  2

  9
$PUCSORTHOVIEW
 70
     0
  9
$PUCSORGTOP
 10
0.0
 20
0.0
 30
0.0
  9
$PUCSORGBOTTOM
 10
0.0
 20
0.0
 30
0.0
  9
$PUCSORGLEFT
 10
0.0
 20
0.0
 30
0.0
  9
$PUCSORGRIGHT
 10
0.0
 20
0.0
 30
0.0
  9
$PUCSORGFRONT
 10
0.0
 20
0.0
 30
0.0
  9
$PUCSORGBACK
 10
0.0
 20
0.0
 30
0.0
  9
$USERI1
 70
     0
  9
$USERI2
 70
     0
  9
$USERI3
 70
     0
  9
$USERI4
 70
     0
  9
$USERI5
 70
     0
  9
$USERR1
 40
0.0
  9
$USERR2
 40
0.0
  9
$USERR3
 40
0.0
  9
$USERR4
 40
0.0
  9
$USERR5
 40
0.0
  9
$WORLDVIEW
 70
     1
  9
$SHADEDGE
 70
     3
  9
$SHADEDIF
 70
    70
  9
$TILEMODE
 70
     1
  9
$MAXACTVP
 70
    64
  9
$PINSBASE
 10
0.0
 20
0.0
 30
0.0
  9
$PLIMCHECK
 70
     0
  9
$PEXTMIN
 10
1.000000000000000E+20
 20
1.000000000000000E+20
 30
1.000000000000000E+20
  9
$PEXTMAX
 10
-1.000000000000000E+20
 20
-1.000000000000000E+20
 30
-1.000000000000000E+20
  9
$PLIMMIN
 10
0.0
 20
0.0
  9
$PLIMMAX
 10
420.0
 20
297.0
  9
$UNITMODE
 70
     0
  9
$VISRETAIN
 70
     1
  9
$PLINEGEN
 70
     0
  9
$PSLTSCALE
 70
     1
  9
$TREEDEPTH
 70
  3020
  9
$CMLSTYLE
  2
Standard
  9
$CMLJUST
 70
     0
  9
$CMLSCALE
 40
20.0
  9
$PROXYGRAPHICS
 70
     1
  9
$MEASUREMENT
 70
     1
  9
$CELWEIGHT
370
    -1
  9
$ENDCAPS
280
     0
  9
$JOINSTYLE
280
     0
  9
$LWDISPLAY
290
     0
  9
$INSUNITS
 70
     4
  9
$HYPERLINKBASE
  1

  9
$STYLESHEET
  1

  9
$XEDIT
290
     1
  9
$CEPSNTYPE
380
     0
  9
$PSTYLEMODE
290
     1
  9
$FINGERPRINTGUID
  2
{794DF145-9747-4966-8357-286425D51D09}
  9
$VERSIONGUID
  2
{FAEB1C32-E019-11D5-929B-00C0DF256EC4}
  9
$EXTNAMES
290
     1
  9
$PSVPSCALE
 40
0.0
  9
$OLESTARTUP
290
     0
  9
$SORTENTS
280
   127
  9
$INDEXCTL
280
     0
  9
$HIDETEXT
280
     1
  9
$XCLIPFRAME
290
     0
  9
$HALOGAP
280
     0
  9
$OBSCOLOR
 70
   257
  9
$OBSLTYPE
280
     0
  9
$INTERSECTIONDISPLAY
280
     0
  9
$INTERSECTIONCOLOR
 70
   257
  9
$DIMASSOC
280
     2
  9
$PROJECTNAME
  1

  0
ENDSEC
  0
SECTION
  2
CLASSES
  0
CLASS
  1
ACDBDICTIONARYWDFLT
  2
AcDbDictionaryWithDefault
  3
ObjectDBX Classes
 90
        0
 91
        4
280
     0
281
     0
  0
CLASS
  1
VISUALSTYLE
  2
AcDbVisualStyle
  3
ObjectDBX Classes
 90
     4095
 91
        4
280
     0
281
     0
  0
CLASS
  1
MATERIAL
  2
AcDbMaterial
  3
ObjectDBX Classes
 90
     1153
 91
        4
280
     0
281
     0
  0
CLASS
  1
SCALE
  2
AcDbScale
  3
ObjectDBX Classes
 90
     1153
 91
        4
280
     0
281
     0
  0
CLASS
  1
TABLESTYLE
  2
AcDbTableStyle
  3
ObjectDBX Classes
 90
     4095
 91
        4
280
     0
281
     0
  0
CLASS
  1
MLEADERSTYLE
  2
AcDbMLeaderStyle
  3
ACDB_MLEADERSTYLE_CLASS
 90
     4095
 91
        4
280
     0
281
     0
  0
CLASS
  1
SUN
  2
AcDbSun
  3
SCENEOE
 90
     1153
 91
        4
280
     0
281
     0
  0
CLASS
  1
DICTIONARYVAR
  2
AcDbDictionaryVar
  3
ObjectDBX Classes
 90
        0
 91
        4
280
     0
281
     0
  0
CLASS
  1
CELLSTYLEMAP
  2
AcDbCellStyleMap
  3
ObjectDBX Classes
 90
     1152
 91
        4
280
     0
281
     0
  0
ENDSEC
  0
SECTION
  2
TABLES
  0
TABLE
  2
VPORT
  5
8
102
{ACAD_XDICTIONARY
360
424
102
}
330
0
100
AcDbSymbolTable
 70
     1
  0
VPORT
  5
29
330
8
100
AcDbSymbolTableRecord
100
AcDbViewportTableRecord
  2
*Active
 70
     0
 10
0.0
 20
0.0
 11
1.0
 21
1.0
 12
0.0
 22
0.0
 13
0.0
 23
0.0
 14
10.0
 24
10.0
 15
10.0
 25
10.0
 16
0.0
 26
0.0
 36
1.0
 17
0.0
 27
0.0
 37
0.0
 40
4620.0
 41
1.414285714285715
 42
50.0
 43
0.0
 44
0.0
 50
0.0
 51
0.0
 71
     0
 72
 10000
 73
     1
 74
     3
 75
     0
 76
     0
 77
     0
 78
     0
281
     0
 65
     1
110
0.0
120
0.0
130
0.0
111
1.0
121
0.0
131
0.0
112
0.0
122
1.0
132
0.0
 79
     0
146
0.0
  0
ENDTAB
  0
TABLE
  2
LTYPE
  5
5
330
0
100
AcDbSymbolTable
 70
     6
  0
LTYPE
  5
14
330
5
100
AcDbSymbolTableRecord
100
AcDbLinetypeTableRecord
  2
ByBlock
 70
     0
  3

 72
    65
 73
     0
 40
0.0
  0
LTYPE
  5
15
330
5
100
AcDbSymbolTableRecord
100
AcDbLinetypeTableRecord
  2
ByLayer
 70
     0
  3

 72
    65
 73
     0
 40
0.0
  0
LTYPE
  5
16
330
5
100
AcDbSymbolTableRecord
100
AcDbLinetypeTableRecord
  2
Continuous
 70
     0
  3
Solid line
 72
    65
 73
     0
 40
0.0
  0
LTYPE
  5
6F
330
5
100
AcDbSymbolTableRecord
100
AcDbLinetypeTableRecord
  2
JWW_CENTER1
 70
     0
  3
-----  --  ----------  --  -----
 72
    65
 73
     4
 40
6.773333333333333
 49
4.233333333333333
 74
     0
 49
-0.8466666666666667
 74
     0
 49
0.8466666666666667
 74
     0
 49
-0.8466666666666667
 74
     0
  0
LTYPE
  5
70
330
5
100
AcDbSymbolTableRecord
100
AcDbLinetypeTableRecord
  2
JWW_DASHED1
 70
     0
  3
-  --  --  --  --  --  --  --  -
 72
    65
 73
     2
 40
1.693333333333333
 49
0.8466666666666667
 74
     0
 49
-0.8466666666666667
 74
     0
  0
LTYPE
  5
71
330
5
100
AcDbSymbolTableRecord
100
AcDbLinetypeTableRecord
  2
JWW_HOJO
 70
     0
  3
  -   -   -   -   -   -   -   - 
 72
    65
 73
     2
 40
1.693333333333333
 49
-1.27
 74
     0
 49
0.4233333333333333
 74
     0
  0
LTYPE
  5
72
330
5
100
AcDbSymbolTableRecord
100
AcDbLinetypeTableRecord
  2
JWW_PHANTOM1
 70
     0
  3
----  -  -  --------  -  -  ----
 72
    65
 73
     6
 40
6.773333333333333
 49
3.386666666666667
 74
     0
 49
-0.8466666666666667
 74
     0
 49
0.4233333333333333
 74
     0
 49
-0.8466666666666667
 74
     0
 49
0.4233333333333333
 74
     0
 49
-0.8466666666666667
 74
     0
  0
LTYPE
  5
73
330
5
100
AcDbSymbolTableRecord
100
AcDbLinetypeTableRecord
  2
JWW_DASHED2
 70
     0
  3
--    ----    ----    ----    --
 72
    65
 73
     2
 40
3.386666666666667
 49
1.693333333333333
 74
     0
 49
-1.693333333333333
 74
     0
  0
ENDTAB
  0
TABLE
  2
LAYER
  5
2
330
0
100
AcDbSymbolTable
 70
    20
  0
LAYER
  5
10
330
2
100
AcDbSymbolTableRecord
100
AcDbLayerTableRecord
  2
0
 70
     0
 62
     7
  6
Continuous
370
    -3
390
F
  0
LAYER
  5
74
330
2
100
AcDbSymbolTableRecord
100
AcDbLayerTableRecord
  2
寸法
 70
     0
 62
     7
  6
Continuous
370
    -3
390
F
  0
LAYER
  5
75
330
2
100
AcDbSymbolTableRecord
100
AcDbLayerTableRecord
  2
0-F
 70
     0
 62
     7
  6
Continuous
370
    -3
390
F
  0
LAYER
  5
76
330
2
100
AcDbSymbolTableRecord
100
AcDbLayerTableRecord
  2
F-Fﾚｲﾔ
 70
     0
 62
     7
  6
Continuous
370
    -3
390
F
  0
LAYER
  5
77
330
2
100
AcDbSymbolTableRecord
100
AcDbLayerTableRecord
  2
F-5ﾚｲﾔ
 70
     0
 62
     7
  6
Continuous
370
    -3
390
F
  0
LAYER
  5
78
330
2
100
AcDbSymbolTableRecord
100
AcDbLayerTableRecord
  2
D-9
 70
     0
 62
     7
  6
Continuous
370
    -3
390
F
  0
LAYER
  5
79
330
2
100
AcDbSymbolTableRecord
100
AcDbLayerTableRecord
  2
D-2
 70
     0
 62
     7
  6
Continuous
370
    -3
390
F
  0
LAYER
  5
7A
330
2
100
AcDbSymbolTableRecord
100
AcDbLayerTableRecord
  2
D-3
 70
     0
 62
     7
  6
Continuous
370
    -3
390
F
  0
LAYER
  5
7B
330
2
100
AcDbSymbolTableRecord
100
AcDbLayerTableRecord
  2
D-C
 70
     0
 62
     7
  6
Continuous
370
    -3
390
F
  0
LAYER
  5
7C
330
2
100
AcDbSymbolTableRecord
100
AcDbLayerTableRecord
  2
D-5
 70
     0
 62
     7
  6
Continuous
370
    -3
390
F
  0
LAYER
  5
7D
330
2
100
AcDbSymbolTableRecord
100
AcDbLayerTableRecord
  2
D-F
 70
     0
 62
     7
  6
Continuous
370
    -3
390
F
  0
LAYER
  5
7E
330
2
100
AcDbSymbolTableRecord
100
AcDbLayerTableRecord
  2
D-E
 70
     0
 62
     7
  6
Continuous
370
    -3
390
F
  0
LAYER
  5
7F
330
2
100
AcDbSymbolTableRecord
100
AcDbLayerTableRecord
  2
D-7
 70
     0
 62
     7
  6
Continuous
370
    -3
390
F
  0
LAYER
  5
80
330
2
100
AcDbSymbolTableRecord
100
AcDbLayerTableRecord
  2
D-6
 70
     0
 62
     7
  6
Continuous
370
    -3
390
F
  0
LAYER
  5
81
330
2
100
AcDbSymbolTableRecord
100
AcDbLayerTableRecord
  2
D-1
 70
     0
 62
     7
  6
Continuous
370
    -3
390
F
  0
LAYER
  5
82
330
2
100
AcDbSymbolTableRecord
100
AcDbLayerTableRecord
  2
0-E
 70
     0
 62
     7
  6
Continuous
370
    -3
390
F
  0
LAYER
  5
83
330
2
100
AcDbSymbolTableRecord
100
AcDbLayerTableRecord
  2
D-4
 70
     0
 62
     7
  6
Continuous
370
    -3
390
F
  0
LAYER
  5
84
330
2
100
AcDbSymbolTableRecord
100
AcDbLayerTableRecord
  2
D-8
 70
     0
 62
     7
  6
Continuous
370
    -3
390
F
  0
LAYER
  5
85
330
2
100
AcDbSymbolTableRecord
100
AcDbLayerTableRecord
  2
建具
 70
     0
 62
     7
  6
Continuous
370
    -3
390
F
  0
LAYER
  5
86
330
2
100
AcDbSymbolTableRecord
100
AcDbLayerTableRecord
  2
躯体
 70
     0
 62
     7
  6
Continuous
370
    -3
390
F
  0
ENDTAB
  0
TABLE
  2
STYLE
  5
3
330
0
100
AcDbSymbolTable
 70
     2
  0
STYLE
  5
11
330
3
100
AcDbSymbolTableRecord
100
AcDbTextStyleTableRecord
  2
Standard
 70
     0
 40
0.0
 41
1.0
 50
0.0
 71
     0
 42
2.5
  3
txt
  4

  0
STYLE
  5
6E
330
3
100
AcDbSymbolTableRecord
100
AcDbTextStyleTableRecord
  2
ＭＳ ゴシック
 70
     0
 40
1.0
 41
1.0
 50
0.0
 71
     0
 42
2.5
  3

  4

1001
ACAD
1000
MS Gothic
1071
    32817
  0
ENDTAB
  0
TABLE
  2
VIEW
  5
6
330
0
100
AcDbSymbolTable
 70
     0
  0
ENDTAB
  0
TABLE
  2
UCS
  5
7
330
0
100
AcDbSymbolTable
 70
     0
  0
ENDTAB
  0
TABLE
  2
APPID
  5
9
330
0
100
AcDbSymbolTable
 70
     2
  0
APPID
  5
12
330
9
100
AcDbSymbolTableRecord
100
AcDbRegAppTableRecord
  2
ACAD
 70
     0
  0
APPID
  5
463
330
9
100
AcDbSymbolTableRecord
100
AcDbRegAppTableRecord
  2
ACAD_MLEADERVER
 70
     0
  0
ENDTAB
  0
TABLE
  2
DIMSTYLE
  5
A
330
0
100
AcDbSymbolTable
 70
     1
100
AcDbDimStyleTable
  0
DIMSTYLE
105
27
330
A
100
AcDbSymbolTableRecord
100
AcDbDimStyleTableRecord
  2
ISO-25
 70
     0
 41
2.5
 42
0.625
 43
3.75
 44
1.25
 73
     0
 74
     0
 77
     1
 78
     8
140
2.5
141
2.5
143
0.03937007874016
147
0.625
171
     3
172
     1
178
     0
271
     2
272
     2
274
     3
278
    44
283
     0
284
     8
340
11
  0
ENDTAB
  0
TABLE
  2
BLOCK_RECORD
  5
1
330
0
100
AcDbSymbolTable
 70
     1
  0
BLOCK_RECORD
  5
1F
330
1
100
AcDbSymbolTableRecord
100
AcDbBlockTableRecord
  2
*Model_Space
340
22
  0
BLOCK_RECORD
  5
1B
330
1
100
AcDbSymbolTableRecord
100
AcDbBlockTableRecord
  2
*Paper_Space
340
1E
  0
BLOCK_RECORD
  5
23
330
1
100
AcDbSymbolTableRecord
100
AcDbBlockTableRecord
  2
*Paper_Space0
340
26
  0
ENDTAB
  0
ENDSEC
  0
SECTION
  2
BLOCKS
  0
BLOCK
  5
20
330
1F
100
AcDbEntity
  8
0
100
AcDbBlockBegin
  2
*Model_Space
 70
     0
 10
0.0
 20
0.0
 30
0.0
  3
*Model_Space
  1

  0
ENDBLK
  5
21
330
1F
100
AcDbEntity
  8
0
100
AcDbBlockEnd
  0
BLOCK
  5
1C
330
1B
100
AcDbEntity
 67
     1
  8
0
100
AcDbBlockBegin
  2
*Paper_Space
 70
     0
 10
0.0
 20
0.0
 30
0.0
  3
*Paper_Space
  1

  0
ENDBLK
  5
1D
330
1B
100
AcDbEntity
 67
     1
  8
0
100
AcDbBlockEnd
  0
BLOCK
  5
24
330
23
100
AcDbEntity
  8
0
100
AcDbBlockBegin
  2
*Paper_Space0
 70
     0
 10
0.0
 20
0.0
 30
0.0
  3
*Paper_Space0
  1

  0
ENDBLK
  5
25
330
23
100
AcDbEntity
  8
0
100
AcDbBlockEnd
  0
ENDSEC
  0
SECTION
  2
ENTITIES
  0
SOLID
  5
87
330
1F
100
AcDbEntity
  8
寸法
  6
Continuous
 62
     4
370
     9
100
AcDbTrace
 10
-303.2300075688198
 20
888.0436586369927
 30
0.0
 11
-303.2300075688198
 21
928.0436586369927
 31
0.0
 12
-307.2300075688207
 22
888.0436586369927
 32
0.0
 13
-307.2300075688207
 23
928.0436586369927
 33
0.0
  0
SOLID
  5
88
330
1F
100
AcDbEntity
  8
寸法
  6
Continuous
 62
     4
370
     9
100
AcDbTrace
 10
-303.2300075688192
 20
1263.167671100811
 30
0.0
 11
-303.2300075688192
 21
1223.167671100811
 31
0.0
 12
-307.2300075688202
 22
1263.167671100811
 32
0.0
 13
-307.2300075688202
 23
1223.167671100811
 33
0.0
  0
LINE
  5
89
330
1F
100
AcDbEntity
  8
0-F
  6
JWW_CENTER1
 62
     4
370
     9
100
AcDbLine
 10
-1989.139036001521
 20
972.3512847593795
 30
0.0
 11
-1930.320979136118
 21
972.3512847593795
 31
0.0
  0
LINE
  5
8A
330
1F
100
AcDbEntity
  8
0-F
  6
JWW_CENTER1
 62
     4
370
     9
100
AcDbLine
 10
-1989.139036001521
 20
80.35043686558765
 30
0.0
 11
-1930.320979136118
 21
80.35043686558765
 31
0.0
  0
TEXT
  5
8B
330
1F
100
AcDbEntity
  8
F-Fﾚｲﾔ
  6
Continuous
 62
     2
370
     9
100
AcDbText
 10
-2540.105761574603
 20
-863.5357349004513
 30
0.0
 40
30.48
  1
強度
 41
1.0625
  7
ＭＳ ゴシック
100
AcDbText
  0
TEXT
  5
8C
330
1F
100
AcDbEntity
  8
F-Fﾚｲﾔ
  6
Continuous
 62
     2
370
     9
100
AcDbText
 10
-2540.105761574603
 20
-763.6033922554767
 30
0.0
 40
30.48
  1
強度性能・質量
 41
1.107142857142857
  7
ＭＳ ゴシック
100
AcDbText
  0
TEXT
  5
8D
330
1F
100
AcDbEntity
  8
F-Fﾚｲﾔ
  6
Continuous
 62
     2
370
     9
100
AcDbText
 10
-2540.105761574603
 20
-953.5357349004513
 30
0.0
 40
30.48
  1
主な設置場所
 41
1.104166666666667
  7
ＭＳ ゴシック
100
AcDbText
  0
TEXT
  5
8E
330
1F
100
AcDbEntity
  8
F-Fﾚｲﾔ
  6
Continuous
 62
     2
370
     9
100
AcDbText
 10
-2540.105761574603
 20
-1136.035743245103
 30
0.0
 40
30.48
  1
後輪一輪荷重
 41
1.104166666666667
  7
ＭＳ ゴシック
100
AcDbText
  0
TEXT
  5
8F
330
1F
100
AcDbEntity
  8
F-Fﾚｲﾔ
  6
Continuous
 62
     2
370
     9
100
AcDbText
 10
-2540.105761574603
 20
-1316.036057957627
 30
0.0
 40
30.48
  1
荷重条件
 41
1.09375
  7
ＭＳ ゴシック
100
AcDbText
  0
TEXT
  5
90
330
1F
100
AcDbEntity
  8
F-Fﾚｲﾔ
  6
Continuous
 62
     2
370
     9
100
AcDbText
 10
-2540.105761574603
 20
-1406.036344059922
 30
0.0
 40
30.48
  1
許容応力
 41
1.09375
  7
ＭＳ ゴシック
100
AcDbText
  0
TEXT
  5
91
330
1F
100
AcDbEntity
  8
F-Fﾚｲﾔ
  6
Continuous
 62
     2
370
     9
100
AcDbText
 10
-2540.105761574603
 20
-1226.035514363267
 30
0.0
 40
30.48
  1
衝撃係数
 41
1.09375
  7
ＭＳ ゴシック
100
AcDbText
  0
TEXT
  5
92
330
1F
100
AcDbEntity
  8
F-Fﾚｲﾔ
  6
Continuous
 62
     2
370
     9
100
AcDbText
 10
-2540.105761574603
 20
-1496.036630162217
 30
0.0
 40
30.48
  1
質量
 41
1.0625
  7
ＭＳ ゴシック
100
AcDbText
  0
TEXT
  5
93
330
1F
100
AcDbEntity
  8
F-Fﾚｲﾔ
  6
Continuous
 62
     2
370
     9
100
AcDbText
 10
-2540.105761574603
 20
-1586.036916264512
 30
0.0
 40
30.48
  1
充填時の蓋質量
 41
1.107142857142857
  7
ＭＳ ゴシック
100
AcDbText
  0
TEXT
  5
94
330
1F
100
AcDbEntity
  8
F-Fﾚｲﾔ
  6
Continuous
 62
     2
370
     9
100
AcDbText
 10
-2158.770859680577
 20
-1406.036601551987
 30
0.0
 40
30.48
  1
約235N/mm
 41
1.111111111111109
  7
ＭＳ ゴシック
100
AcDbText
  0
TEXT
  5
95
330
1F
100
AcDbEntity
  8
F-Fﾚｲﾔ
  6
Continuous
 62
     2
370
     9
100
AcDbText
 10
-2158.770859680577
 20
-1226.035514363267
 30
0.0
 40
30.48
  1
0
 41
0.9999999999999998
  7
ＭＳ ゴシック
100
AcDbText
  0
TEXT
  5
96
330
1F
100
AcDbEntity
  8
F-5ﾚｲﾔ
  6
Continuous
 62
     6
370
     9
100
AcDbText
 10
-1956.047549725833
 20
-1379.634547147684
 30
0.0
 40
15.24
  1
2
 41
0.9999999999999998
  7
ＭＳ ゴシック
100
AcDbText
  0
LINE
  5
97
330
1F
100
AcDbEntity
  8
F-Fﾚｲﾔ
  6
Continuous
 62
     7
370
     9
100
AcDbLine
 10
-2570.105761574603
 20
-696.675464295364
 30
0.0
 11
-2570.105761574603
 21
-1616.677059315659
 31
0.0
  0
LINE
  5
98
330
1F
100
AcDbEntity
  8
F-Fﾚｲﾔ
  6
Continuous
 62
     7
370
     9
100
AcDbLine
 10
-2570.105761574603
 20
-696.675464295364
 30
0.0
 11
-1050.105761574603
 21
-696.675464295364
 31
0.0
  0
LINE
  5
99
330
1F
100
AcDbEntity
  8
F-Fﾚｲﾔ
  6
Continuous
 62
     7
370
     9
100
AcDbLine
 10
-1050.105761574603
 20
-1616.677059315659
 30
0.0
 11
-2570.105761574603
 21
-1616.677059315659
 31
0.0
  0
LINE
  5
9A
330
1F
100
AcDbEntity
  8
F-Fﾚｲﾔ
  6
Continuous
 62
     7
370
     9
100
AcDbLine
 10
-2570.105761574603
 20
-796.6755715837246
 30
0.0
 11
-1050.105761574603
 21
-796.6755715837246
 31
0.0
  0
LINE
  5
9B
330
1F
100
AcDbEntity
  8
F-Fﾚｲﾔ
  6
Continuous
 62
     7
370
     9
100
AcDbLine
 10
-2570.105761574603
 20
-806.6755715837246
 30
0.0
 11
-1050.105761574603
 21
-806.6755715837246
 31
0.0
  0
LINE
  5
9C
330
1F
100
AcDbEntity
  8
F-5ﾚｲﾔ
  6
Continuous
 62
     7
370
     9
100
AcDbLine
 10
-2570.105761574603
 20
-896.6758576860207
 30
0.0
 11
-1050.105761574603
 21
-896.6758576860207
 31
0.0
  0
LINE
  5
9D
330
1F
100
AcDbEntity
  8
F-Fﾚｲﾔ
  6
Continuous
 62
     7
370
     9
100
AcDbLine
 10
-2570.105761574603
 20
-896.6758576860207
 30
0.0
 11
-1050.105761574603
 21
-896.6758576860207
 31
0.0
  0
LINE
  5
9E
330
1F
100
AcDbEntity
  8
F-5ﾚｲﾔ
  6
Continuous
 62
     7
370
     9
100
AcDbLine
 10
-2570.105761574603
 20
-1076.675857686021
 30
0.0
 11
-1050.105761574603
 21
-1076.675857686021
 31
0.0
  0
LINE
  5
9F
330
1F
100
AcDbEntity
  8
F-Fﾚｲﾔ
  6
Continuous
 62
     7
370
     9
100
AcDbLine
 10
-2570.105761574603
 20
-1166.675628804185
 30
0.0
 11
-1050.105761574603
 21
-1166.675628804185
 31
0.0
  0
LINE
  5
A0
330
1F
100
AcDbEntity
  8
F-Fﾚｲﾔ
  6
Continuous
 62
     7
370
     9
100
AcDbLine
 10
-1050.105761574603
 20
-1346.676201008775
 30
0.0
 11
-2570.105761574603
 21
-1346.676201008775
 31
0.0
  0
LINE
  5
A1
330
1F
100
AcDbEntity
  8
F-Fﾚｲﾔ
  6
Continuous
 62
     7
370
     9
100
AcDbLine
 10
-1050.105761574603
 20
-1436.676487111069
 30
0.0
 11
-2570.105761574603
 21
-1436.676487111069
 31
0.0
  0
LINE
  5
A2
330
1F
100
AcDbEntity
  8
F-Fﾚｲﾔ
  6
Continuous
 62
     7
370
     9
100
AcDbLine
 10
-2570.105761574603
 20
-1256.675399922349
 30
0.0
 11
-1050.105761574603
 21
-1256.675399922349
 31
0.0
  0
LINE
  5
A3
330
1F
100
AcDbEntity
  8
F-Fﾚｲﾔ
  6
Continuous
 62
     7
370
     9
100
AcDbLine
 10
-1050.105761574603
 20
-1526.676773213364
 30
0.0
 11
-2570.105761574603
 21
-1526.676773213364
 31
0.0
  0
LINE
  5
A4
330
1F
100
AcDbEntity
  8
F-Fﾚｲﾔ
  6
Continuous
 62
     7
370
     9
100
AcDbLine
 10
-2570.105761574603
 20
-1076.675857686021
 30
0.0
 11
-1050.105761574603
 21
-1076.675857686021
 31
0.0
  0
TEXT
  5
A5
330
1F
100
AcDbEntity
  8
F-Fﾚｲﾔ
  6
Continuous
 62
     2
370
     9
100
AcDbText
 10
-2158.770859680577
 20
-947.1056071661161
 30
0.0
 40
30.48
  1
車道以外で、車両が走行することはまれで、走行する
 41
1.119791666666667
  7
ＭＳ ゴシック
100
AcDbText
  0
TEXT
  5
A6
330
1F
100
AcDbEntity
  8
F-Fﾚｲﾔ
  6
Continuous
 62
     2
370
     9
100
AcDbText
 10
-2158.770859680577
 20
-1001.589081513182
 30
0.0
 40
30.48
  1
ことがあっても一時的な通過などで低速で走行するよ
 41
1.119791666666667
  7
ＭＳ ゴシック
100
AcDbText
  0
TEXT
  5
A7
330
1F
100
AcDbEntity
  8
F-Fﾚｲﾔ
  6
Continuous
 62
     2
370
     9
100
AcDbText
 10
-2158.770859680577
 20
-1056.072555860248
 30
0.0
 40
30.48
  1
うな、車両が乗り入れる可能性のある建物内
 41
1.11875
  7
ＭＳ ゴシック
100
AcDbText
  0
LINE
  5
A8
330
1F
100
AcDbEntity
  8
F-5ﾚｲﾔ
  6
Continuous
 62
     7
370
     9
100
AcDbLine
 10
-1050.105761574603
 20
-696.675464295364
 30
0.0
 11
-1050.105761574603
 21
-1616.677059315659
 31
0.0
  0
LINE
  5
A9
330
1F
100
AcDbEntity
  8
F-Fﾚｲﾔ
  6
Continuous
 62
     7
370
     9
100
AcDbLine
 10
-2200.105761574603
 20
-796.6755715837246
 30
0.0
 11
-2200.105761574603
 21
-1616.677059315659
 31
0.0
  0
TEXT
  5
AA
330
1F
100
AcDbEntity
  8
F-Fﾚｲﾔ
  6
Continuous
 62
     2
370
     9
100
AcDbText
 10
-2158.770859680577
 20
-863.5357349004513
 30
0.0
 40
30.48
  1
T-2：総重量2,000kgfまでの車両の乗り入れが可能
 41
1.119444444444444
  7
ＭＳ ゴシック
100
AcDbText
  0
TEXT
  5
AB
330
1F
100
AcDbEntity
  8
F-Fﾚｲﾔ
  6
Continuous
 62
     2
370
     9
100
AcDbText
 10
-2158.770859680577
 20
-1136.035743245103
 30
0.0
 40
30.48
  1
7.8kN（800kgf）
 41
1.108333333333333
  7
ＭＳ ゴシック
100
AcDbText
  0
TEXT
  5
AC
330
1F
100
AcDbEntity
  8
F-Fﾚｲﾔ
  6
Continuous
 62
     2
370
     9
100
AcDbText
 10
-2158.770859680577
 20
-1316.036315449692
 30
0.0
 40
30.48
  1
載荷板寸法：200×160 mm
 41
1.119565217391304
  7
ＭＳ ゴシック
100
AcDbText
  0
ARC
  5
AD
330
1F
100
AcDbEntity
  8
D-9
  6
Continuous
 62
   211
370
     5
100
AcDbCircle
 10
1437.969262003763
 20
614.9771602748485
 30
0.0
 40
34.53062160595044
100
AcDbArc
 50
267.8605499267578
 51
302.8109436035156
  0
ARC
  5
AE
330
1F
100
AcDbEntity
  8
D-9
  6
Continuous
 62
   211
370
     5
100
AcDbCircle
 10
1555.391334955613
 20
614.9771602748485
 30
0.0
 40
34.53062160595044
100
AcDbArc
 50
237.1890563964843
 51
272.1394500732421
  0
ARC
  5
AF
330
1F
100
AcDbEntity
  8
D-9
  6
Continuous
 62
   211
370
     5
100
AcDbCircle
 10
1496.679803600047
 20
729.0681983343899
 30
0.0
 40
148.5985781695392
100
AcDbArc
 50
254.3844604492188
 51
285.6155395507812
  0
LINE
  5
B0
330
1F
100
AcDbEntity
  8
D-9
  6
Continuous
 62
   211
370
     5
100
AcDbLine
 10
1456.681156271071
 20
585.9554383576149
 30
0.0
 11
1456.681156271071
 21
630.4708522089693
 31
0.0
  0
LINE
  5
B1
330
1F
100
AcDbEntity
  8
D-9
  6
Continuous
 62
   211
370
     5
100
AcDbLine
 10
1536.680925327238
 20
585.9554383576149
 30
0.0
 11
1536.680925327238
 21
630.4708522089693
 31
0.0
  0
LINE
  5
B2
330
1F
100
AcDbEntity
  8
D-9
  6
Continuous
 62
   211
370
     5
100
AcDbLine
 10
1556.680496431556
 20
580.469697489794
 30
0.0
 11
1436.930014748697
 21
580.469697489794
 31
0.0
  0
LINE
  5
B3
330
1F
100
AcDbEntity
  8
D-9
  6
Continuous
 62
   211
370
     5
100
AcDbLine
 10
1566.180700981796
 20
630.4708522089693
 30
0.0
 11
1566.180700981796
 21
585.9554383576149
 31
0.0
  0
LINE
  5
B4
330
1F
100
AcDbEntity
  8
D-9
  6
Continuous
 62
   211
370
     5
100
AcDbLine
 10
1556.680496431556
 20
580.469697489794
 30
0.0
 11
1566.180700981796
 21
585.9554383576149
 31
0.0
  0
LINE
  5
B5
330
1F
100
AcDbEntity
  8
D-9
  6
Continuous
 62
   211
370
     5
100
AcDbLine
 10
1427.179895977571
 20
630.4708522089693
 30
0.0
 11
1427.179895977571
 21
586.0989534547487
 31
0.0
  0
LINE
  5
B6
330
1F
100
AcDbEntity
  8
D-9
  6
Continuous
 62
   211
370
     5
100
AcDbLine
 10
1436.723155056962
 20
580.5904481232399
 30
0.0
 11
1427.179895977571
 21
586.0989534547487
 31
0.0
  0
ARC
  5
B7
330
1F
100
AcDbEntity
  8
D-2
  6
Continuous
 62
     3
370
     9
100
AcDbCircle
 10
1884.68074387138
 20
682.4708522089583
 30
0.0
 40
16.0
100
AcDbArc
 50
270.0
 51
0.0
  0
ARC
  5
B8
330
1F
100
AcDbEntity
  8
D-2
  6
Continuous
 62
     3
370
     9
100
AcDbCircle
 10
1884.68074387138
 20
682.4708522089583
 30
0.0
 40
32.00000000000001
100
AcDbArc
 50
270.0
 51
0.0
  0
LINE
  5
B9
330
1F
100
AcDbEntity
  8
D-2
  6
Continuous
 62
     3
370
     9
100
AcDbLine
 10
1916.680743871385
 20
851.4708522089637
 30
0.0
 11
1916.680743871385
 21
682.4708522089583
 31
0.0
  0
LINE
  5
BA
330
1F
100
AcDbEntity
  8
D-2
  6
Continuous
 62
     3
370
     9
100
AcDbLine
 10
1916.680743871385
 20
851.4708522089637
 30
0.0
 11
1900.680743871389
 21
851.4708522089637
 31
0.0
  0
LINE
  5
BB
330
1F
100
AcDbEntity
  8
D-2
  6
Continuous
 62
     3
370
     9
100
AcDbLine
 10
1900.680743871389
 20
682.4708522089583
 30
0.0
 11
1900.680743871389
 21
851.4708522089637
 31
0.0
  0
LINE
  5
BC
330
1F
100
AcDbEntity
  8
D-3
  6
Continuous
 62
     4
370
     9
100
AcDbLine
 10
1916.680743871385
 20
851.4708522089637
 30
0.0
 11
1916.680743871385
 21
791.4704068172756
 31
0.0
  0
ARC
  5
BD
330
1F
100
AcDbEntity
  8
D-3
  6
Continuous
 62
     4
370
     9
100
AcDbCircle
 10
1921.680545919518
 20
856.4706542570963
 30
0.0
 40
10.0
100
AcDbArc
 50
0.0
 51
90.0
  0
LINE
  5
BE
330
1F
100
AcDbEntity
  8
D-3
  6
Continuous
 62
     4
370
     9
100
AcDbLine
 10
1931.680545919509
 20
856.4706542570963
 30
0.0
 11
1931.680545919509
 21
791.4704068172756
 31
0.0
  0
LINE
  5
BF
330
1F
100
AcDbEntity
  8
D-3
  6
Continuous
 62
     4
370
     9
100
AcDbLine
 10
1921.680545919518
 20
866.4706542571327
 30
0.0
 11
1871.680842847301
 21
866.4706542571327
 31
0.0
  0
LINE
  5
C0
330
1F
100
AcDbEntity
  8
D-3
  6
Continuous
 62
     4
370
     9
100
AcDbLine
 10
1871.680842847301
 20
866.4706542571327
 30
0.0
 11
1871.680842847301
 21
851.4708522089637
 31
0.0
  0
LINE
  5
C1
330
1F
100
AcDbEntity
  8
D-3
  6
Continuous
 62
     4
370
     9
100
AcDbLine
 10
1916.680743871385
 20
791.4704068172756
 30
0.0
 11
1931.680545919509
 21
791.4704068172756
 31
0.0
  0
LINE
  5
C2
330
1F
100
AcDbEntity
  8
D-3
  6
Continuous
 62
     4
370
     9
100
AcDbLine
 10
1871.680842847301
 20
851.4708522089637
 30
0.0
 11
1916.680743871385
 21
851.4708522089637
 31
0.0
  0
LINE
  5
C3
330
1F
100
AcDbEntity
  8
D-3
  6
Continuous
 62
     4
370
     9
100
AcDbLine
 10
1871.680842847301
 20
866.4706542571327
 30
0.0
 11
831.6805459195087
 21
866.4706542571327
 31
0.0
  0
LINE
  5
C4
330
1F
100
AcDbEntity
  8
D-C
  6
Continuous
 62
     2
370
     9
100
AcDbLine
 10
1554.180364463638
 20
866.4710171688563
 30
0.0
 11
1439.180232495738
 21
866.4710171688563
 31
0.0
  0
LINE
  5
C5
330
1F
100
AcDbEntity
  8
D-C
  6
Continuous
 62
     2
370
     9
100
AcDbLine
 10
1416.680034543889
 20
866.4715120485022
 30
0.0
 11
1436.679605550227
 21
866.4715120485022
 31
0.0
  0
LINE
  5
C6
330
1F
100
AcDbEntity
  8
D-C
  6
Continuous
 62
     2
370
     9
100
AcDbLine
 10
1576.681057295156
 20
866.4715120485022
 30
0.0
 11
1556.680991409168
 21
866.4715120485022
 31
0.0
  0
LINE
  5
C7
330
1F
100
AcDbEntity
  8
D-C
  6
Continuous
 62
     2
370
     9
100
AcDbLine
 10
1576.681057295156
 20
666.4708522089728
 30
0.0
 11
1576.681057295156
 21
866.4715120485022
 31
0.0
  0
LINE
  5
C8
330
1F
100
AcDbEntity
  8
D-C
  6
Continuous
 62
     2
370
     9
100
AcDbLine
 10
1556.680991409168
 20
866.4715120485022
 30
0.0
 11
1554.180364463638
 21
863.9713800805936
 31
0.0
  0
LINE
  5
C9
330
1F
100
AcDbEntity
  8
D-C
  6
Continuous
 62
     2
370
     9
100
AcDbLine
 10
1554.180364463638
 20
841.4706872490893
 30
0.0
 11
1554.180364463638
 21
866.4715120485022
 31
0.0
  0
LINE
  5
CA
330
1F
100
AcDbEntity
  8
D-C
  6
Continuous
 62
     2
370
     9
100
AcDbLine
 10
1439.180232495738
 20
841.4706872490893
 30
0.0
 11
1439.180232495738
 21
866.4715120485022
 31
0.0
  0
LINE
  5
CB
330
1F
100
AcDbEntity
  8
D-C
  6
Continuous
 62
     2
370
     9
100
AcDbLine
 10
1439.180232495738
 20
863.9713800805936
 30
0.0
 11
1436.679605550227
 21
866.4715120485022
 31
0.0
  0
LINE
  5
CC
330
1F
100
AcDbEntity
  8
D-C
  6
Continuous
 62
     2
370
     9
100
AcDbLine
 10
1416.680034543889
 20
666.4708522089728
 30
0.0
 11
1416.680034543889
 21
866.4715120485022
 31
0.0
  0
LINE
  5
CD
330
1F
100
AcDbEntity
  8
D-C
  6
Continuous
 62
     2
370
     9
100
AcDbLine
 10
1550.145610715764
 20
841.4706872490893
 30
0.0
 11
1540.146072603431
 21
851.4712151207101
 31
0.0
  0
LINE
  5
CE
330
1F
100
AcDbEntity
  8
D-C
  6
Continuous
 62
     2
370
     9
100
AcDbLine
 10
1456.681156271071
 20
850.0825828360854
 30
0.0
 11
1455.292523986446
 21
851.4712151207101
 31
0.0
  0
LINE
  5
CF
330
1F
100
AcDbEntity
  8
D-C
  6
Continuous
 62
     2
370
     9
100
AcDbLine
 10
1444.079540983904
 20
841.4706872490893
 30
0.0
 11
1439.180232495738
 21
846.3695008576184
 31
0.0
  0
LINE
  5
D0
330
1F
100
AcDbEntity
  8
D-C
  6
Continuous
 62
     2
370
     9
100
AcDbLine
 10
1554.180364463638
 20
848.0421940586353
 30
0.0
 11
1550.751343401572
 21
851.4712151207101
 31
0.0
  0
LINE
  5
D1
330
1F
100
AcDbEntity
  8
D-C
  6
Continuous
 62
     2
370
     9
100
AcDbLine
 10
1539.53836039903
 20
841.4706872490893
 30
0.0
 11
1536.680925327238
 21
844.328617200527
 31
0.0
  0
LINE
  5
D2
330
1F
100
AcDbEntity
  8
D-C
  6
Continuous
 62
     2
370
     9
100
AcDbLine
 10
1454.685801541337
 20
841.4706872490893
 30
0.0
 11
1444.685768549363
 21
851.4712151207101
 31
0.0
  0
LINE
  5
D3
330
1F
100
AcDbEntity
  8
D-C
  6
Continuous
 62
     2
370
     9
100
AcDbLine
 10
1456.681156271071
 20
841.4706872490893
 30
0.0
 11
1439.180232495738
 21
841.4706872490893
 31
0.0
  0
LINE
  5
D4
330
1F
100
AcDbEntity
  8
D-C
  6
Continuous
 62
     2
370
     9
100
AcDbLine
 10
1554.180364463638
 20
841.4706872490893
 30
0.0
 11
1536.680925327238
 21
841.4706872490893
 31
0.0
  0
LINE
  5
D5
330
1F
100
AcDbEntity
  8
D-C
  6
Continuous
 62
     2
370
     9
100
AcDbLine
 10
1531.68016651178
 20
801.4705552811853
 30
0.0
 11
1461.680925327238
 21
801.4705552811853
 31
0.0
  0
LINE
  5
D6
330
1F
100
AcDbEntity
  8
D-C
  6
Continuous
 62
     2
370
     9
100
AcDbLine
 10
1461.680925327238
 20
801.4705552811853
 30
0.0
 11
1456.681156271071
 21
806.4713140966438
 31
0.0
  0
LINE
  5
D7
330
1F
100
AcDbEntity
  8
D-C
  6
Continuous
 62
     2
370
     9
100
AcDbLine
 10
1536.680925327238
 20
806.7425081422522
 30
0.0
 11
1531.68016651178
 21
801.4705552811853
 31
0.0
  0
LINE
  5
D8
330
1F
100
AcDbEntity
  8
D-C
  6
Continuous
 62
     2
370
     9
100
AcDbLine
 10
1536.680925327238
 20
806.4713140966438
 30
0.0
 11
1456.681156271071
 21
806.4713140966438
 31
0.0
  0
LINE
  5
D9
330
1F
100
AcDbEntity
  8
D-C
  6
Continuous
 62
     2
370
     9
100
AcDbLine
 10
1536.680925327238
 20
825.249027356777
 30
0.0
 11
1536.680925327238
 21
851.4712151207101
 31
0.0
  0
LINE
  5
DA
330
1F
100
AcDbEntity
  8
D-C
  6
Continuous
 62
     2
370
     9
100
AcDbLine
 10
1554.180364463638
 20
851.4712151207101
 30
0.0
 11
1439.180232495738
 21
851.4712151207101
 31
0.0
  0
LINE
  5
DB
330
1F
100
AcDbEntity
  8
D-C
  6
Continuous
 62
     2
370
     9
100
AcDbLine
 10
1461.680925327238
 20
741.4706542570872
 30
0.0
 11
1456.681156271071
 21
736.4703903212745
 31
0.0
  0
LINE
  5
DC
330
1F
100
AcDbEntity
  8
D-C
  6
Continuous
 62
     2
370
     9
100
AcDbLine
 10
1536.680925327238
 20
736.4703903212745
 30
0.0
 11
1531.68016651178
 21
741.4706542570872
 31
0.0
  0
LINE
  5
DD
330
1F
100
AcDbEntity
  8
D-C
  6
Continuous
 62
     2
370
     9
100
AcDbLine
 10
1536.680925327238
 20
736.4703903212745
 30
0.0
 11
1456.681156271071
 21
736.4703903212745
 31
0.0
  0
LINE
  5
DE
330
1F
100
AcDbEntity
  8
D-C
  6
Continuous
 62
     2
370
     9
100
AcDbLine
 10
1531.68016651178
 20
741.4706542570872
 30
0.0
 11
1461.680925327238
 21
741.4706542570872
 31
0.0
  0
LINE
  5
DF
330
1F
100
AcDbEntity
  8
D-C
  6
Continuous
 62
     2
370
     9
100
AcDbLine
 10
1416.680034543889
 20
666.4708522089728
 30
0.0
 11
1461.680925327238
 21
666.4708522089728
 31
0.0
  0
LINE
  5
E0
330
1F
100
AcDbEntity
  8
D-C
  6
Continuous
 62
     2
370
     9
100
AcDbLine
 10
1576.681057295156
 20
666.4708522089728
 30
0.0
 11
1531.68016651178
 21
666.4708522089728
 31
0.0
  0
LINE
  5
E1
330
1F
100
AcDbEntity
  8
D-3
  6
Continuous
 62
     4
370
     9
100
AcDbLine
 10
921.6805459195087
 20
716.4706542570872
 30
0.0
 11
921.6805459195087
 21
666.4708522089728
 31
0.0
  0
LINE
  5
E2
330
1F
100
AcDbEntity
  8
D-3
  6
Continuous
 62
     4
370
     9
100
AcDbLine
 10
1071.680545919509
 20
716.4706542570872
 30
0.0
 11
921.6805459195087
 21
716.4706542570872
 31
0.0
  0
LINE
  5
E3
330
1F
100
AcDbEntity
  8
D-3
  6
Continuous
 62
     4
370
     9
100
AcDbLine
 10
1071.680545919509
 20
716.4706542570872
 30
0.0
 11
1071.680545919509
 21
666.4708522089728
 31
0.0
  0
LINE
  5
E4
330
1F
100
AcDbEntity
  8
D-3
  6
Continuous
 62
     4
370
     9
100
AcDbLine
 10
1071.680545919509
 20
666.4708522089728
 30
0.0
 11
921.6805459195087
 21
666.4708522089728
 31
0.0
  0
LINE
  5
E5
330
1F
100
AcDbEntity
  8
D-3
  6
Continuous
 62
     4
370
     9
100
AcDbLine
 10
1071.680545919509
 20
671.4708522089728
 30
0.0
 11
921.6805459195087
 21
671.4708522089728
 31
0.0
  0
LINE
  5
E6
330
1F
100
AcDbEntity
  8
D-3
  6
JWW_DASHED1
 62
     4
370
     9
100
AcDbLine
 10
1071.680545919509
 20
712.1405272381668
 30
0.0
 11
921.6805459195087
 21
712.1405272381668
 31
0.0
  0
TEXT
  5
E7
330
1F
100
AcDbEntity
  8
D-5
  6
Continuous
 62
     7
370
     9
100
AcDbText
 10
1054.437383825593
 20
935.258351445716
 30
0.0
 40
22.86
  1
（ＳＵＳ３０４）
 41
1.145833333333335
  7
ＭＳ ゴシック
100
AcDbText
  0
TEXT
  5
E8
330
1F
100
AcDbEntity
  8
D-5
  6
Continuous
 62
     7
370
     9
100
AcDbText
 10
1074.881124683807
 20
978.3351501682671
 30
0.0
 40
22.86
  1
把手
 41
1.083333333333333
  7
ＭＳ ゴシック
100
AcDbText
  0
LINE
  5
E9
330
1F
100
AcDbEntity
  8
D-5
  6
Continuous
 62
     7
370
     9
100
AcDbLine
 10
1332.632780455133
 20
964.2664479406488
 30
0.0
 11
1059.378056004119
 21
964.2664479406488
 31
0.0
  0
LINE
  5
EA
330
1F
100
AcDbEntity
  8
D-5
  6
Continuous
 62
     7
370
     9
100
AcDbLine
 10
1416.680034543889
 20
789.6254059074047
 30
0.0
 11
1400.253494478433
 21
814.728423353562
 31
0.0
  0
LINE
  5
EB
330
1F
100
AcDbEntity
  8
D-5
  6
Continuous
 62
     7
370
     9
100
AcDbLine
 10
1416.680034543889
 20
789.6254059074047
 30
0.0
 11
1407.310230780165
 21
818.1247823590516
 31
0.0
  0
LINE
  5
EC
330
1F
100
AcDbEntity
  8
D-5
  6
Continuous
 62
     7
370
     9
100
AcDbLine
 10
1332.632780455133
 20
964.2664479406488
 30
0.0
 11
1416.680034543889
 21
789.6254059074047
 31
0.0
  0
LINE
  5
ED
330
1F
100
AcDbEntity
  8
D-5
  6
Continuous
 62
     7
370
     9
100
AcDbLine
 10
1056.944098803486
 20
716.4706542570872
 30
0.0
 11
1040.51755873803
 21
741.5736717032445
 31
0.0
  0
LINE
  5
EE
330
1F
100
AcDbEntity
  8
D-5
  6
Continuous
 62
     7
370
     9
100
AcDbLine
 10
1056.944098803486
 20
716.4706542570872
 30
0.0
 11
1047.574295039762
 21
744.970030708734
 31
0.0
  0
TEXT
  5
EF
330
1F
100
AcDbEntity
  8
D-F
  6
Continuous
 62
     2
370
     9
100
AcDbText
 10
1452.930578911478
 20
1003.683357788834
 30
0.0
 40
30.48
  1
φ32
 41
1.093749999999996
  7
ＭＳ ゴシック
100
AcDbText
  0
LINE
  5
F0
330
1F
100
AcDbEntity
  8
D-F
  6
Continuous
 62
     7
370
     9
100
AcDbLine
 10
1576.681090287111
 20
992.0434369695772
 30
0.0
 11
1416.680067535845
 21
992.0434369695772
 31
0.0
  0
LINE
  5
F1
330
1F
100
AcDbEntity
  8
D-F
  6
Continuous
 62
     7
370
     9
100
AcDbLine
 10
1576.681090287111
 20
881.4707004458484
 30
0.0
 11
1576.681090287111
 21
997.0434534655652
 31
0.0
  0
LINE
  5
F2
330
1F
100
AcDbEntity
  8
D-F
  6
Continuous
 62
     7
370
     9
100
AcDbLine
 10
1416.680067535845
 20
881.4707004458484
 30
0.0
 11
1416.680067535845
 21
997.0434534655652
 31
0.0
  0
LWPOLYLINE
  5
F3
330
1F
100
AcDbEntity
  8
D-F
  6
Continuous
 62
     7
370
     9
100
AcDbPolyline
 90
        4
 70
     1
 43
2.0
 10
1577.681090287111
 20
992.0434369695772
 42
0.4142135623731
 10
1576.681090287111
 20
993.0434369695772
 42
0.4142135623731
 10
1575.681090287112
 20
992.0434369695772
 42
0.4142135623731
 10
1576.681090287111
 20
991.0434369695772
 42
0.4142135623731
  0
LWPOLYLINE
  5
F4
330
1F
100
AcDbEntity
  8
D-F
  6
Continuous
 62
     7
370
     9
100
AcDbPolyline
 90
        4
 70
     1
 43
2.0
 10
1417.680067535845
 20
992.0434369695772
 42
0.4142135623731
 10
1416.680067535845
 20
993.0434369695772
 42
0.4142135623731
 10
1415.680067535845
 20
992.0434369695772
 42
0.4142135623731
 10
1416.680067535845
 20
991.0434369695772
 42
0.4142135623731
  0
LINE
  5
F5
330
1F
100
AcDbEntity
  8
D-5
  6
Continuous
 62
     7
370
     9
100
AcDbLine
 10
518.7568841644897
 20
964.2664479406488
 30
0.0
 11
937.6905957816543
 21
964.2664479406488
 31
0.0
  0
LINE
  5
F6
330
1F
100
AcDbEntity
  8
D-5
  6
Continuous
 62
     7
370
     9
100
AcDbLine
 10
937.6905957816543
 20
964.2664479406488
 30
0.0
 11
1056.944098803486
 21
716.4706542570872
 31
0.0
  0
LINE
  5
F7
330
1F
100
AcDbEntity
  8
D-C
  6
Continuous
 62
   211
370
     5
100
AcDbLine
 10
1426.679803600065
 20
650.4708522089646
 30
0.0
 11
1566.679803600083
 21
650.4708522089646
 31
0.0
  0
LINE
  5
F8
330
1F
100
AcDbEntity
  8
D-C
  6
Continuous
 62
   211
370
     5
100
AcDbLine
 10
1426.679803600065
 20
650.4708522089646
 30
0.0
 11
1426.679803600065
 21
630.4708522089693
 31
0.0
  0
LINE
  5
F9
330
1F
100
AcDbEntity
  8
D-C
  6
Continuous
 62
   211
370
     5
100
AcDbLine
 10
1426.679803600065
 20
630.4708522089693
 30
0.0
 11
1566.679803600083
 21
630.4708522089693
 31
0.0
  0
LINE
  5
FA
330
1F
100
AcDbEntity
  8
D-C
  6
Continuous
 62
   211
370
     5
100
AcDbLine
 10
1566.679803600083
 20
650.4708522089646
 30
0.0
 11
1566.679803600083
 21
630.4708522089693
 31
0.0
  0
LINE
  5
FB
330
1F
100
AcDbEntity
  8
D-C
  6
JWW_HOJO
 62
   211
370
     5
100
AcDbLine
 10
1456.179803600072
 20
650.4708522089646
 30
0.0
 11
1456.179803600072
 21
630.4708522089693
 31
0.0
  0
LINE
  5
FC
330
1F
100
AcDbEntity
  8
D-C
  6
JWW_HOJO
 62
   211
370
     5
100
AcDbLine
 10
1537.179803600076
 20
650.4708522089646
 30
0.0
 11
1537.179803600076
 21
630.4708522089693
 31
0.0
  0
LINE
  5
FD
330
1F
100
AcDbEntity
  8
D-C
  6
Continuous
 62
     2
370
     9
100
AcDbLine
 10
1461.680925327238
 20
650.4710501608594
 30
0.0
 11
1461.680925327238
 21
851.4712151207101
 31
0.0
  0
LINE
  5
FE
330
1F
100
AcDbEntity
  8
D-C
  6
Continuous
 62
     2
370
     9
100
AcDbLine
 10
1456.681156271071
 20
650.4710501608594
 30
0.0
 11
1456.681156271071
 21
851.4712151207101
 31
0.0
  0
LINE
  5
FF
330
1F
100
AcDbEntity
  8
D-C
  6
Continuous
 62
     2
370
     9
100
AcDbLine
 10
1536.680925327238
 20
650.4710501608594
 30
0.0
 11
1536.680925327238
 21
825.249027356777
 31
0.0
  0
LINE
  5
100
330
1F
100
AcDbEntity
  8
D-C
  6
Continuous
 62
     2
370
     9
100
AcDbLine
 10
1531.68016651178
 20
650.4710501608594
 30
0.0
 11
1531.68016651178
 21
851.4712151207101
 31
0.0
  0
LINE
  5
101
330
1F
100
AcDbEntity
  8
D-2
  6
Continuous
 62
     3
370
     9
100
AcDbLine
 10
1451.679803600047
 20
666.4708522089728
 30
0.0
 11
1451.679803600047
 21
650.4710501608594
 31
0.0
  0
LINE
  5
102
330
1F
100
AcDbEntity
  8
D-2
  6
Continuous
 62
     3
370
     9
100
AcDbLine
 10
1541.679803600056
 20
666.4708522089728
 30
0.0
 11
1541.679803600056
 21
650.4710501608594
 31
0.0
  0
LINE
  5
103
330
1F
100
AcDbEntity
  8
D-C
  6
JWW_CENTER1
 62
     2
370
     9
100
AcDbLine
 10
1496.680545919509
 20
894.1467588735674
 30
0.0
 11
1496.680545919509
 21
554.8398570108209
 31
0.0
  0
LINE
  5
104
330
1F
100
AcDbEntity
  8
D-2
  6
Continuous
 62
     3
370
     9
100
AcDbLine
 10
1884.68074387138
 20
666.4708522089728
 30
0.0
 11
1536.680925327238
 21
666.4708522089728
 31
0.0
  0
LINE
  5
105
330
1F
100
AcDbEntity
  8
D-5
  6
Continuous
 62
     7
370
     9
100
AcDbLine
 10
1496.680545919509
 20
580.469697489794
 30
0.0
 11
1489.162900931902
 21
556.6267737210883
 31
0.0
  0
LINE
  5
106
330
1F
100
AcDbEntity
  8
D-5
  6
Continuous
 62
     7
370
     9
100
AcDbLine
 10
1496.680545919509
 20
580.469697489794
 30
0.0
 11
1483.248055710838
 21
559.384911344472
 31
0.0
  0
LINE
  5
107
330
1F
100
AcDbEntity
  8
D-3
  6
Continuous
 62
     4
370
     9
100
AcDbLine
 10
1996.680496431537
 20
866.4706542571327
 30
0.0
 11
1996.680496431537
 21
851.4708522089865
 31
0.0
  0
LINE
  5
108
330
1F
100
AcDbEntity
  8
D-3
  6
Continuous
 62
     4
370
     9
100
AcDbLine
 10
1996.680496431537
 20
851.4708522089865
 30
0.0
 11
1951.680347967641
 21
851.4708522089865
 31
0.0
  0
LINE
  5
109
330
1F
100
AcDbEntity
  8
D-3
  6
Continuous
 62
     4
370
     9
100
AcDbLine
 10
1951.680347967641
 20
791.4704068172983
 30
0.0
 11
1951.680347967641
 21
851.4708522089865
 31
0.0
  0
LINE
  5
10A
330
1F
100
AcDbEntity
  8
D-3
  6
Continuous
 62
     4
370
     9
100
AcDbLine
 10
1951.680347967641
 20
791.4704068172983
 30
0.0
 11
1936.680545919509
 21
791.4704068172983
 31
0.0
  0
LINE
  5
10B
330
1F
100
AcDbEntity
  8
D-3
  6
Continuous
 62
     4
370
     9
100
AcDbLine
 10
1946.680545919509
 20
866.4706542571327
 30
0.0
 11
1996.680496431537
 21
866.4706542571327
 31
0.0
  0
LINE
  5
10C
330
1F
100
AcDbEntity
  8
D-3
  6
Continuous
 62
     4
370
     9
100
AcDbLine
 10
1936.680545919509
 20
856.4706542571327
 30
0.0
 11
1936.680545919509
 21
791.4704068172983
 31
0.0
  0
ARC
  5
10D
330
1F
100
AcDbEntity
  8
D-3
  6
Continuous
 62
     4
370
     9
100
AcDbCircle
 10
1946.680545919509
 20
856.4706542571327
 30
0.0
 40
10.0
100
AcDbArc
 50
90.0
 51
180.0
  0
LINE
  5
10E
330
1F
100
AcDbEntity
  8
D-F
  6
Continuous
 62
     7
370
     9
100
AcDbLine
 10
2011.680839548093
 20
866.4706542571327
 30
0.0
 11
2270.370846977215
 21
866.4706542571327
 31
0.0
  0
LWPOLYLINE
  5
10F
330
1F
100
AcDbEntity
  8
D-F
  6
Continuous
 62
     7
370
     9
100
AcDbPolyline
 90
        4
 70
     1
 43
2.0
 10
2266.370830481227
 20
866.4706542571327
 42
0.4142135623731
 10
2265.370830481227
 20
867.4706542571325
 42
0.4142135623731
 10
2264.370830481227
 20
866.4706542571327
 42
0.4142135623731
 10
2265.370830481227
 20
865.4706542571328
 42
0.4142135623731
  0
TEXT
  5
110
330
1F
100
AcDbEntity
  8
D-5
  6
Continuous
 62
     7
370
     9
100
AcDbText
 10
2158.129070971914
 20
1045.264744470353
 30
0.0
 40
22.86
  1
（ＳＵＳ３０４）
 41
1.145833333333333
  7
ＭＳ ゴシック
100
AcDbText
  0
TEXT
  5
111
330
1F
100
AcDbEntity
  8
D-5
  6
Continuous
 62
     7
370
     9
100
AcDbText
 10
2163.877798647594
 20
1129.432335811884
 30
0.0
 40
22.86
  1
ステンレス目地
 41
1.142857142857143
  7
ＭＳ ゴシック
100
AcDbText
  0
TEXT
  5
112
330
1F
100
AcDbEntity
  8
D-5
  6
Continuous
 62
     7
370
     9
100
AcDbText
 10
2163.877798647594
 20
1088.106227921577
 30
0.0
 40
22.86
  1
Ｌ１２×１５×３
 41
1.145833333333333
  7
ＭＳ ゴシック
100
AcDbText
  0
LINE
  5
113
330
1F
100
AcDbEntity
  8
D-5
  6
Continuous
 62
     7
370
     9
100
AcDbLine
 10
2440.998368076145
 20
1075.882437011526
 30
0.0
 11
2159.544645370515
 21
1075.882437011526
 31
0.0
  0
LINE
  5
114
330
1F
100
AcDbEntity
  8
D-5
  6
Continuous
 62
     7
370
     9
100
AcDbLine
 10
2482.766734264195
 20
963.3744006465378
 30
0.0
 11
2181.203162024964
 21
963.3744006465378
 31
0.0
  0
TEXT
  5
115
330
1F
100
AcDbEntity
  8
D-5
  6
Continuous
 62
     7
370
     9
100
AcDbText
 10
2189.535472728207
 20
931.759773059967
 30
0.0
 40
22.86
  1
（ＳＰＨＣ）
 41
1.138888888888889
  7
ＭＳ ゴシック
100
AcDbText
  0
LINE
  5
116
330
1F
100
AcDbEntity
  8
D-5
  6
Continuous
 62
     7
370
     9
100
AcDbLine
 10
2181.203162024964
 20
963.3744006465378
 30
0.0
 11
1967.680347967645
 21
746.0385997448716
 31
0.0
  0
LINE
  5
117
330
1F
100
AcDbEntity
  8
D-5
  6
Continuous
 62
     7
370
     9
100
AcDbLine
 10
1967.680347967645
 20
746.0385997448716
 30
0.0
 11
1991.318274223979
 21
764.5114671435201
 31
0.0
  0
LINE
  5
118
330
1F
100
AcDbEntity
  8
D-5
  6
Continuous
 62
     7
370
     9
100
AcDbLine
 10
1967.680347967645
 20
746.0385997448716
 30
0.0
 11
1985.731825348346
 21
769.9998061294789
 31
0.0
  0
TEXT
  5
119
330
1F
100
AcDbEntity
  8
D-F
  6
Continuous
 62
     2
370
     9
100
AcDbText
 10
1825.708000192623
 20
1003.683357788844
 30
0.0
 40
30.48
  1
12
 41
1.0625
  7
ＭＳ ゴシック
100
AcDbText
  0
TEXT
  5
11A
330
1F
100
AcDbEntity
  8
D-F
  6
Continuous
 62
     2
370
     9
100
AcDbText
 10
1924.180166511774
 20
1003.683357788844
 30
0.0
 40
30.48
  1
1
 41
0.9999999999999998
  7
ＭＳ ゴシック
100
AcDbText
  0
TEXT
  5
11B
330
1F
100
AcDbEntity
  8
D-F
  6
Continuous
 62
     2
370
     9
100
AcDbText
 10
2003.32574855622
 20
1003.683357788844
 30
0.0
 40
30.48
  1
12
 41
1.0625
  7
ＭＳ ゴシック
100
AcDbText
  0
LINE
  5
11C
330
1F
100
AcDbEntity
  8
D-F
  6
Continuous
 62
     7
370
     9
100
AcDbLine
 10
2045.923990413801
 20
992.0434369695874
 30
0.0
 11
1936.680545919502
 21
992.0434369695874
 31
0.0
  0
LINE
  5
11D
330
1F
100
AcDbEntity
  8
D-F
  6
Continuous
 62
     7
370
     9
100
AcDbLine
 10
1936.680545919502
 20
881.4707004458586
 30
0.0
 11
1936.680545919502
 21
997.0434534655755
 31
0.0
  0
LINE
  5
11E
330
1F
100
AcDbEntity
  8
D-F
  6
Continuous
 62
     7
370
     9
100
AcDbLine
 10
1936.680545919502
 20
992.0434369695874
 30
0.0
 11
1931.679787104046
 21
992.0434369695874
 31
0.0
  0
LINE
  5
11F
330
1F
100
AcDbEntity
  8
D-F
  6
Continuous
 62
     7
370
     9
100
AcDbLine
 10
1931.679787104046
 20
881.4707004458586
 30
0.0
 11
1931.679787104046
 21
997.0434534655755
 31
0.0
  0
LINE
  5
120
330
1F
100
AcDbEntity
  8
D-F
  6
Continuous
 62
     7
370
     9
100
AcDbLine
 10
1931.679787104046
 20
992.0434369695874
 30
0.0
 11
1817.070362616081
 21
992.0434369695874
 31
0.0
  0
LINE
  5
121
330
1F
100
AcDbEntity
  8
D-F
  6
Continuous
 62
     7
370
     9
100
AcDbLine
 10
1871.680084031833
 20
881.4707004458586
 30
0.0
 11
1871.680084031833
 21
997.0434534655755
 31
0.0
  0
LWPOLYLINE
  5
122
330
1F
100
AcDbEntity
  8
D-F
  6
Continuous
 62
     7
370
     9
100
AcDbPolyline
 90
        4
 70
     1
 43
2.0
 10
1997.680496431537
 20
992.0434369695874
 42
0.4142135623731
 10
1996.680496431537
 20
993.0434369695874
 42
0.4142135623731
 10
1995.680496431537
 20
992.0434369695874
 42
0.4142135623731
 10
1996.680496431537
 20
991.0434369695874
 42
0.4142135623731
  0
LWPOLYLINE
  5
123
330
1F
100
AcDbEntity
  8
D-F
  6
Continuous
 62
     7
370
     9
100
AcDbPolyline
 90
        4
 70
     1
 43
2.0
 10
1937.680545919502
 20
992.0434369695874
 42
0.4142135623731
 10
1936.680545919502
 20
993.0434369695874
 42
0.4142135623731
 10
1935.680545919502
 20
992.0434369695874
 42
0.4142135623731
 10
1936.680545919502
 20
991.0434369695874
 42
0.4142135623731
  0
LWPOLYLINE
  5
124
330
1F
100
AcDbEntity
  8
D-F
  6
Continuous
 62
     7
370
     9
100
AcDbPolyline
 90
        4
 70
     1
 43
2.0
 10
1932.679787104046
 20
992.0434369695874
 42
0.4142135623731
 10
1931.679787104046
 20
993.0434369695874
 42
0.4142135623731
 10
1930.679787104046
 20
992.0434369695874
 42
0.4142135623731
 10
1931.679787104046
 20
991.0434369695874
 42
0.4142135623731
  0
LWPOLYLINE
  5
125
330
1F
100
AcDbEntity
  8
D-F
  6
Continuous
 62
     7
370
     9
100
AcDbPolyline
 90
        4
 70
     1
 43
2.0
 10
1872.680084031833
 20
992.0434369695874
 42
0.4142135623731
 10
1871.680084031833
 20
993.0434369695874
 42
0.4142135623731
 10
1870.680084031833
 20
992.0434369695874
 42
0.4142135623731
 10
1871.680084031833
 20
991.0434369695874
 42
0.4142135623731
  0
LINE
  5
126
330
1F
100
AcDbEntity
  8
D-F
  6
Continuous
 62
     7
370
     9
100
AcDbLine
 10
1996.680496431537
 20
881.4707004458592
 30
0.0
 11
1996.680496431537
 21
1231.495197423577
 31
0.0
  0
LWPOLYLINE
  5
127
330
1F
100
AcDbEntity
  8
D-F
  6
Continuous
 62
     7
370
     9
100
AcDbPolyline
 90
        4
 70
     1
 43
2.0
 10
1997.680496431537
 20
1226.495180927589
 42
0.4142135623731
 10
1996.680496431537
 20
1227.495180927589
 42
0.4142135623731
 10
1995.680496431537
 20
1226.495180927589
 42
0.4142135623731
 10
1996.680496431537
 20
1225.495180927589
 42
0.4142135623731
  0
LINE
  5
128
330
1F
100
AcDbEntity
  8
D-F
  6
Continuous
 62
     7
370
     9
100
AcDbLine
 10
1996.680496431537
 20
1226.495180927589
 30
0.0
 11
831.6805459195087
 21
1226.495180927589
 31
0.0
  0
LINE
  5
129
330
1F
100
AcDbEntity
  8
D-F
  6
Continuous
 62
     7
370
     9
100
AcDbLine
 10
1996.68074387136
 20
1118.674233250133
 30
0.0
 11
1496.680084031833
 21
1118.674233250133
 31
0.0
  0
LINE
  5
12A
330
1F
100
AcDbEntity
  8
D-F
  6
Continuous
 62
     7
370
     9
100
AcDbLine
 10
1996.68074387136
 20
1118.495038999908
 30
0.0
 11
1996.68074387136
 21
1113.674216754144
 31
0.0
  0
LWPOLYLINE
  5
12B
330
1F
100
AcDbEntity
  8
D-F
  6
Continuous
 62
     7
370
     9
100
AcDbPolyline
 90
        4
 70
     1
 43
2.0
 10
1997.68074387136
 20
1118.674233250133
 42
0.4142135623731
 10
1996.68074387136
 20
1119.674233250133
 42
0.4142135623731
 10
1995.68074387136
 20
1118.674233250133
 42
0.4142135623731
 10
1996.68074387136
 20
1117.674233250133
 42
0.4142135623731
  0
LWPOLYLINE
  5
12C
330
1F
100
AcDbEntity
  8
D-F
  6
Continuous
 62
     7
370
     9
100
AcDbPolyline
 90
        4
 70
     1
 43
2.0
 10
1497.680084031833
 20
1118.674233250133
 42
0.4142135623731
 10
1496.680084031833
 20
1119.674233250133
 42
0.4142135623731
 10
1495.680084031833
 20
1118.674233250133
 42
0.4142135623731
 10
1496.680084031833
 20
1117.674233250133
 42
0.4142135623731
  0
TEXT
  5
12D
330
1F
100
AcDbEntity
  8
D-F
  6
Continuous
 62
     2
370
     9
100
AcDbText
 10
1714.180413951597
 20
1130.314154069389
 30
0.0
 40
30.48
  1
100
 41
1.083333333333333
  7
ＭＳ ゴシック
100
AcDbText
  0
LINE
  5
12E
330
1F
100
AcDbEntity
  8
D-F
  6
Continuous
 62
     7
370
     9
100
AcDbLine
 10
1496.680084031833
 20
1058.758360362036
 30
0.0
 11
1496.680084031833
 21
1123.674249746121
 31
0.0
  0
LINE
  5
12F
330
1F
100
AcDbEntity
  8
D-5
  6
Continuous
 62
     7
370
     9
100
AcDbLine
 10
2159.544645370515
 20
1075.882437011526
 30
0.0
 11
1912.891420909938
 21
866.4706509578946
 31
0.0
  0
LINE
  5
130
330
1F
100
AcDbEntity
  8
D-5
  6
Continuous
 62
     7
370
     9
100
AcDbLine
 10
2159.544645370515
 20
1075.882437011526
 30
0.0
 11
1953.806825510955
 21
866.4706509578946
 31
0.0
  0
LINE
  5
131
330
1F
100
AcDbEntity
  8
D-5
  6
Continuous
 62
     7
370
     9
100
AcDbLine
 10
1953.806825510955
 20
866.4706509578946
 30
0.0
 11
1968.849682088235
 21
886.4383023250821
 31
0.0
  0
LINE
  5
132
330
1F
100
AcDbEntity
  8
D-5
  6
Continuous
 62
     7
370
     9
100
AcDbLine
 10
1953.806825510955
 20
866.4706509578946
 30
0.0
 11
1973.505262351115
 21
881.864624643494
 31
0.0
  0
LINE
  5
133
330
1F
100
AcDbEntity
  8
D-5
  6
Continuous
 62
     7
370
     9
100
AcDbLine
 10
1912.891420909938
 20
866.4706509578946
 30
0.0
 11
1929.674274319989
 21
884.999934636104
 31
0.0
  0
LINE
  5
134
330
1F
100
AcDbEntity
  8
D-5
  6
Continuous
 62
     7
370
     9
100
AcDbLine
 10
1912.891420909938
 20
866.4706509578946
 30
0.0
 11
1933.89807209237
 21
880.0249095622019
 31
0.0
  0
LINE
  5
135
330
1F
100
AcDbEntity
  8
D-5
  6
Continuous
 62
     7
370
     9
100
AcDbLine
 10
1228.312334215258
 20
650.4708522089646
 30
0.0
 11
1214.879844006587
 21
629.3860660636427
 31
0.0
  0
LINE
  5
136
330
1F
100
AcDbEntity
  8
D-5
  6
Continuous
 62
     7
370
     9
100
AcDbLine
 10
1228.312334215258
 20
650.4708522089646
 30
0.0
 11
1220.794689227651
 21
626.627928440259
 31
0.0
  0
TEXT
  5
137
330
1F
100
AcDbEntity
  8
D-5
  6
Continuous
 62
     7
370
     9
100
AcDbText
 10
2203.148806094325
 20
979.9239345358961
 30
0.0
 40
22.86
  1
受枠：ｔ＝３．２
 41
1.145833333333333
  7
ＭＳ ゴシック
100
AcDbText
  0
TEXT
  5
138
330
1F
100
AcDbEntity
  8
D-5
  6
Continuous
 62
     7
370
     9
100
AcDbText
 10
518.3588179163635
 20
977.5006751729796
 30
0.0
 40
22.86
  1
モルタル止め：ｔ＝１．０
 41
1.152777777777778
  7
ＭＳ ゴシック
100
AcDbText
  0
TEXT
  5
139
330
1F
100
AcDbEntity
  8
D-5
  6
Continuous
 62
     7
370
     9
100
AcDbText
 10
504.7983246277491
 20
932.5914450373529
 30
0.0
 40
22.86
  1
（ＳＵＳ３０４）
 41
1.145833333333333
  7
ＭＳ ゴシック
100
AcDbText
  0
ARC
  5
13A
330
1F
100
AcDbEntity
  8
D-E
  6
Continuous
 62
     3
370
     9
100
AcDbCircle
 10
2015.180257368567
 20
666.9705603588579
 30
0.0
 40
22.5
100
AcDbArc
 50
180.0
 51
270.0
  0
LINE
  5
13B
330
1F
100
AcDbEntity
  8
D-E
  6
Continuous
 62
     3
370
     9
100
AcDbLine
 10
2167.6802716737
 20
619.470650957909
 30
0.0
 11
1967.680347967645
 21
619.470650957909
 31
0.0
  0
LINE
  5
13C
330
1F
100
AcDbEntity
  8
D-E
  6
Continuous
 62
     3
370
     9
100
AcDbLine
 10
2015.180257368567
 20
644.4706104267505
 30
0.0
 11
2152.680214453241
 21
644.4706104267505
 31
0.0
  0
ARC
  5
13D
330
1F
100
AcDbEntity
  8
D-E
  6
Continuous
 62
     3
370
     9
100
AcDbCircle
 10
2152.680214453241
 20
629.470560358858
 30
0.0
 40
15.00000000000001
100
AcDbArc
 50
0.0
 51
90.0
  0
LINE
  5
13E
330
1F
100
AcDbEntity
  8
D-E
  6
Continuous
 62
     3
370
     9
100
AcDbLine
 10
2167.6802716737
 20
629.470560358858
 30
0.0
 11
2167.6802716737
 21
619.470650957909
 31
0.0
  0
LINE
  5
13F
330
1F
100
AcDbEntity
  8
D-E
  6
Continuous
 62
     3
370
     9
100
AcDbLine
 10
1977.680257368567
 20
819.4705746639636
 30
0.0
 11
1967.680347967645
 21
819.4705746639636
 31
0.0
  0
LINE
  5
140
330
1F
100
AcDbEntity
  8
D-E
  6
Continuous
 62
     3
370
     9
100
AcDbLine
 10
1992.680307436487
 20
666.9705603588579
 30
0.0
 11
1992.680307436487
 21
804.4705174435046
 31
0.0
  0
ARC
  5
141
330
1F
100
AcDbEntity
  8
D-E
  6
Continuous
 62
     3
370
     9
100
AcDbCircle
 10
1977.680257368567
 20
804.4705174435046
 30
0.0
 40
15.00000000000001
100
AcDbArc
 50
0.0
 51
90.0
  0
LINE
  5
142
330
1F
100
AcDbEntity
  8
D-E
  6
Continuous
 62
     3
370
     9
100
AcDbLine
 10
1967.680347967645
 20
619.470650957909
 30
0.0
 11
1967.680347967645
 21
819.4705746639636
 31
0.0
  0
LINE
  5
143
330
1F
100
AcDbEntity
  8
D-E
  6
JWW_DASHED1
 62
     3
370
     9
100
AcDbLine
 10
2127.6802716737
 20
644.4706104267505
 30
0.0
 11
2127.6802716737
 21
619.470650957909
 31
0.0
  0
LINE
  5
144
330
1F
100
AcDbEntity
  8
D-E
  6
JWW_DASHED1
 62
     3
370
     9
100
AcDbLine
 10
2057.680271673718
 20
644.4706104267505
 30
0.0
 11
2057.680271673718
 21
619.470650957909
 31
0.0
  0
LINE
  5
145
330
1F
100
AcDbEntity
  8
D-7
  6
JWW_CENTER1
 62
     4
370
     9
100
AcDbLine
 10
2092.6802716737
 20
660.5173905856708
 30
0.0
 11
2092.6802716737
 21
602.0498866610241
 31
0.0
  0
TEXT
  5
146
330
1F
100
AcDbEntity
  8
D-5
  6
Continuous
 62
     7
370
     9
100
AcDbText
 10
2150.206561053417
 20
554.7126088827032
 30
0.0
 40
22.86
  1
Φ１４
 41
1.111111111111111
  7
ＭＳ ゴシック
100
AcDbText
  0
LINE
  5
147
330
1F
100
AcDbEntity
  8
D-5
  6
Continuous
 62
     7
370
     9
100
AcDbLine
 10
2092.6802716737
 20
619.470650957909
 30
0.0
 11
2103.897213713396
 21
591.6465377822329
 31
0.0
  0
LINE
  5
148
330
1F
100
AcDbEntity
  8
D-5
  6
Continuous
 62
     7
370
     9
100
AcDbLine
 10
2092.6802716737
 20
619.470650957909
 30
0.0
 11
2110.716407785397
 21
595.4976911817262
 31
0.0
  0
LINE
  5
149
330
1F
100
AcDbEntity
  8
D-5
  6
Continuous
 62
     7
370
     9
100
AcDbLine
 10
2135.00896748875
 20
544.5212452665534
 30
0.0
 11
2092.6802716737
 21
619.470650957909
 31
0.0
  0
LINE
  5
14A
330
1F
100
AcDbEntity
  8
D-5
  6
Continuous
 62
     7
370
     9
100
AcDbLine
 10
2135.00896748875
 20
544.5212452665534
 30
0.0
 11
2251.15345313415
 21
544.5212452665534
 31
0.0
  0
LINE
  5
14B
330
1F
100
AcDbEntity
  8
D-6
  6
Continuous
 62
     6
370
     9
100
AcDbLine
 10
1880.567875021074
 20
635.4708522089647
 30
0.0
 11
1891.680150015796
 21
646.5828797638636
 31
0.0
  0
LINE
  5
14C
330
1F
100
AcDbEntity
  8
D-6
  6
Continuous
 62
     6
370
     9
100
AcDbLine
 10
1866.426194277831
 20
635.4708522089647
 30
0.0
 11
1881.426047308342
 21
650.4708522089646
 31
0.0
  0
LINE
  5
14D
330
1F
100
AcDbEntity
  8
D-6
  6
Continuous
 62
     6
370
     9
100
AcDbLine
 10
1852.28377121512
 20
635.4708522089647
 30
0.0
 11
1867.284018656168
 21
650.4708522089646
 31
0.0
  0
LINE
  5
14E
330
1F
100
AcDbEntity
  8
D-6
  6
Continuous
 62
     6
370
     9
100
AcDbLine
 10
1838.141595592232
 20
635.4708522089647
 30
0.0
 11
1853.141471871709
 21
650.4708522089646
 31
0.0
  0
LINE
  5
14F
330
1F
100
AcDbEntity
  8
D-6
  6
Continuous
 62
     6
370
     9
100
AcDbLine
 10
1823.999172529521
 20
635.4708522089647
 30
0.0
 11
1838.999543691091
 21
650.4708522089646
 31
0.0
  0
LINE
  5
150
330
1F
100
AcDbEntity
  8
D-6
  6
Continuous
 62
     6
370
     9
100
AcDbLine
 10
1809.857244346455
 20
635.4708522089647
 30
0.0
 11
1824.857244346455
 21
650.4708522089646
 31
0.0
  0
LINE
  5
151
330
1F
100
AcDbEntity
  8
D-6
  6
Continuous
 62
     6
370
     9
100
AcDbLine
 10
1795.715068723566
 20
635.4708522089647
 30
0.0
 11
1810.715439885137
 21
650.4708522089646
 31
0.0
  0
LINE
  5
152
330
1F
100
AcDbEntity
  8
D-6
  6
Continuous
 62
     6
370
     9
100
AcDbLine
 10
1781.572893100677
 20
635.4708522089647
 30
0.0
 11
1796.573016821201
 21
650.4708522089646
 31
0.0
  0
LINE
  5
153
330
1F
100
AcDbEntity
  8
D-6
  6
Continuous
 62
     6
370
     9
100
AcDbLine
 10
1767.431459797257
 20
635.4708522089647
 30
0.0
 11
1782.431583517781
 21
650.4708522089646
 31
0.0
  0
LINE
  5
154
330
1F
100
AcDbEntity
  8
D-6
  6
Continuous
 62
     6
370
     9
100
AcDbLine
 10
1766.680727375382
 20
648.8616768104214
 30
0.0
 11
1768.289866813895
 21
650.4708522089646
 31
0.0
  0
LINE
  5
155
330
1F
100
AcDbEntity
  8
D-6
  6
Continuous
 62
     6
370
     9
100
AcDbLine
 10
1891.679902575973
 20
650.4708522089646
 30
0.0
 11
1891.679902575973
 21
635.4708522089647
 31
0.0
  0
LINE
  5
156
330
1F
100
AcDbEntity
  8
D-6
  6
Continuous
 62
     6
370
     9
100
AcDbLine
 10
1766.680479935559
 20
650.4708522089646
 30
0.0
 11
1891.679902575973
 21
650.4708522089646
 31
0.0
  0
LINE
  5
157
330
1F
100
AcDbEntity
  8
D-6
  6
Continuous
 62
     6
370
     9
100
AcDbLine
 10
1766.680479935559
 20
650.4708522089646
 30
0.0
 11
1766.680479935559
 21
635.4708522089647
 31
0.0
  0
LINE
  5
158
330
1F
100
AcDbEntity
  8
D-5
  6
Continuous
 62
     7
370
     9
100
AcDbLine
 10
1994.961424740246
 20
619.470650957909
 30
0.0
 11
2012.997560851943
 21
595.4976911817262
 31
0.0
  0
LINE
  5
159
330
1F
100
AcDbEntity
  8
D-5
  6
Continuous
 62
     7
370
     9
100
AcDbLine
 10
1994.961424740246
 20
619.470650957909
 30
0.0
 11
2006.178366779942
 21
591.6465377822329
 31
0.0
  0
LINE
  5
15A
330
1F
100
AcDbEntity
  8
D-5
  6
Continuous
 62
     7
370
     9
100
AcDbLine
 10
2086.273060076677
 20
457.7894871659919
 30
0.0
 11
1994.961424740246
 21
619.470650957909
 31
0.0
  0
TEXT
  5
15B
330
1F
100
AcDbEntity
  8
D-5
  6
Continuous
 62
     7
370
     9
100
AcDbText
 10
2090.053940686631
 20
427.7427620155482
 30
0.0
 40
22.86
  1
（ＳＳ４００）
 41
1.142857142857143
  7
ＭＳ ゴシック
100
AcDbText
  0
TEXT
  5
15C
330
1F
100
AcDbEntity
  8
D-F
  6
Continuous
 62
     2
370
   211
100
AcDbText
 10
2108.9302716737
 20
747.6004046899241
 30
0.0
 40
30.48
  1
15
 41
1.0625
  7
ＭＳ ゴシック
100
AcDbText
  0
LWPOLYLINE
  5
15D
330
1F
100
AcDbEntity
  8
D-F
  6
Continuous
 62
     7
370
     9
100
AcDbPolyline
 90
        4
 70
     1
 43
2.0
 10
2266.370830481227
 20
619.4701889413649
 42
0.4142135623731
 10
2265.370830481227
 20
620.4701889413649
 42
0.4142135623731
 10
2264.370830481227
 20
619.4701889413649
 42
0.4142135623731
 10
2265.370830481227
 20
618.4701889413648
 42
0.4142135623731
  0
LINE
  5
15E
330
1F
100
AcDbEntity
  8
D-F
  6
Continuous
 62
     7
370
     9
100
AcDbLine
 10
2092.6802716737
 20
735.9604046899238
 30
0.0
 11
2167.6802716737
 21
735.9604046899238
 31
0.0
  0
LWPOLYLINE
  5
15F
330
1F
100
AcDbEntity
  8
D-F
  6
Continuous
 62
     7
370
     9
100
AcDbPolyline
 90
        4
 70
     1
 43
2.0
 10
2093.6802716737
 20
735.9604046899238
 42
0.4142135623731
 10
2092.6802716737
 20
736.9604046899237
 42
0.4142135623731
 10
2091.6802716737
 20
735.9604046899238
 42
0.4142135623731
 10
2092.6802716737
 20
734.960404689924
 42
0.4142135623731
  0
LWPOLYLINE
  5
160
330
1F
100
AcDbEntity
  8
D-F
  6
Continuous
 62
     7
370
     9
100
AcDbPolyline
 90
        4
 70
     1
 43
2.0
 10
2168.6802716737
 20
735.9604046899238
 42
0.4142135623731
 10
2167.6802716737
 20
736.9604046899237
 42
0.4142135623731
 10
2166.6802716737
 20
735.9604046899238
 42
0.4142135623731
 10
2167.6802716737
 20
734.960404689924
 42
0.4142135623731
  0
LINE
  5
161
330
1F
100
AcDbEntity
  8
D-F
  6
Continuous
 62
     7
370
     9
100
AcDbLine
 10
2092.6802716737
 20
738.960404689924
 30
0.0
 11
2092.6802716737
 21
680.5173905856662
 31
0.0
  0
LINE
  5
162
330
1F
100
AcDbEntity
  8
D-F
  6
Continuous
 62
     7
370
     9
100
AcDbLine
 10
2167.6802716737
 20
738.960404689924
 30
0.0
 11
2167.6802716737
 21
639.470650957909
 31
0.0
  0
LINE
  5
163
330
1F
100
AcDbEntity
  8
D-F
  6
Continuous
 62
     7
370
     9
100
AcDbLine
 10
2270.370846977215
 20
619.4701889413649
 30
0.0
 11
2173.696765132927
 21
619.4701889413649
 31
0.0
  0
ARC
  5
164
330
1F
100
AcDbEntity
  8
D-1
  6
Continuous
 62
     2
370
     9
100
AcDbCircle
 10
1929.180347967641
 20
657.9706509579034
 30
0.0
 40
22.5
100
AcDbArc
 50
270.0
 51
0.0
  0
LINE
  5
165
330
1F
100
AcDbEntity
  8
D-1
  6
Continuous
 62
     2
370
     9
100
AcDbLine
 10
1766.680479935559
 20
635.4706509579127
 30
0.0
 11
1929.180347967641
 21
635.4706509579127
 31
0.0
  0
ARC
  5
166
330
1F
100
AcDbEntity
  8
D-1
  6
Continuous
 62
     2
370
     9
100
AcDbCircle
 10
1929.180347967641
 20
657.9706509579034
 30
0.0
 40
38.5
100
AcDbArc
 50
270.0
 51
0.0
  0
LINE
  5
167
330
1F
100
AcDbEntity
  8
D-1
  6
Continuous
 62
     2
370
     9
100
AcDbLine
 10
1766.680479935559
 20
635.4706509579127
 30
0.0
 11
1766.680479935559
 21
619.470650957909
 31
0.0
  0
LINE
  5
168
330
1F
100
AcDbEntity
  8
D-1
  6
Continuous
 62
     2
370
     9
100
AcDbLine
 10
1766.680479935559
 20
619.470650957909
 30
0.0
 11
1929.180347967641
 21
619.470650957909
 31
0.0
  0
LINE
  5
169
330
1F
100
AcDbEntity
  8
D-1
  6
Continuous
 62
     2
370
     9
100
AcDbLine
 10
1951.680347967641
 20
657.9706509579034
 30
0.0
 11
1951.680347967641
 21
851.4708522089865
 31
0.0
  0
LINE
  5
16A
330
1F
100
AcDbEntity
  8
D-1
  6
Continuous
 62
     2
370
     9
100
AcDbLine
 10
1967.680347967645
 20
657.9706509579034
 30
0.0
 11
1967.680347967645
 21
851.4708522089865
 31
0.0
  0
TEXT
  5
16B
330
1F
100
AcDbEntity
  8
D-F
  6
Continuous
 62
     2
370
   211
100
AcDbText
 10
763.2711272200598
 20
684.2207532330445
 30
0.0
 40
30.48
  1
10
 50
90.0
 41
1.0625
  7
ＭＳ ゴシック
100
AcDbText
  0
TEXT
  5
16C
330
1F
100
AcDbEntity
  8
D-F
  6
Continuous
 62
     2
370
   211
100
AcDbText
 10
763.2711272200598
 20
784.2207532330449
 30
0.0
 40
30.48
  1
30
 50
90.0
 41
1.0625
  7
ＭＳ ゴシック
100
AcDbText
  0
LWPOLYLINE
  5
16D
330
1F
100
AcDbEntity
  8
D-F
  6
Continuous
 62
     7
370
     9
100
AcDbPolyline
 90
        4
 70
     1
 43
2.0
 10
774.9111272200598
 20
666.4708522089774
 42
0.4142135623731
 10
773.9111272200598
 20
667.4708522089772
 42
0.4142135623731
 10
772.9111272200599
 20
666.4708522089774
 42
0.4142135623731
 10
773.9111272200598
 20
665.4708522089775
 42
0.4142135623731
  0
LWPOLYLINE
  5
16E
330
1F
100
AcDbEntity
  8
D-F
  6
Continuous
 62
     7
370
     9
100
AcDbPolyline
 90
        4
 70
     1
 43
2.0
 10
774.9111272200598
 20
866.4706542571372
 42
0.4142135623731
 10
773.9111272200598
 20
867.4706542571371
 42
0.4142135623731
 10
772.9111272200599
 20
866.4706542571372
 42
0.4142135623731
 10
773.9111272200598
 20
865.4706542571373
 42
0.4142135623731
  0
LWPOLYLINE
  5
16F
330
1F
100
AcDbEntity
  8
D-F
  6
Continuous
 62
     7
370
     9
100
AcDbPolyline
 90
        4
 70
     1
 43
2.0
 10
774.9111272200598
 20
716.4706542570923
 42
0.4142135623731
 10
773.9111272200598
 20
717.4706542570923
 42
0.4142135623731
 10
772.9111272200599
 20
716.4706542570923
 42
0.4142135623731
 10
773.9111272200598
 20
715.4706542570923
 42
0.4142135623731
  0
LINE
  5
170
330
1F
100
AcDbEntity
  8
D-F
  6
Continuous
 62
     7
370
     9
100
AcDbLine
 10
770.9111272200597
 20
716.4706542570923
 30
0.0
 11
901.6805459195087
 21
716.4706542570923
 31
0.0
  0
LINE
  5
171
330
1F
100
AcDbEntity
  8
D-F
  6
Continuous
 62
     7
370
     9
100
AcDbLine
 10
773.9111272200598
 20
666.4708522089774
 30
0.0
 11
773.9111272200598
 21
716.4706542570923
 31
0.0
  0
LINE
  5
172
330
1F
100
AcDbEntity
  8
D-F
  6
Continuous
 62
     7
370
     9
100
AcDbLine
 10
773.9111272200598
 20
716.4706542570923
 30
0.0
 11
773.9111272200598
 21
866.4706542571372
 31
0.0
  0
LWPOLYLINE
  5
173
330
1F
100
AcDbEntity
  8
D-F
  6
Continuous
 62
     7
370
     9
100
AcDbPolyline
 90
        4
 70
     1
 43
2.0
 10
684.2914403598103
 20
650.4708522089692
 42
0.4142135623731
 10
683.2914403598103
 20
651.4708522089691
 42
0.4142135623731
 10
682.2914403598104
 20
650.4708522089692
 42
0.4142135623731
 10
683.2914403598103
 20
649.4708522089693
 42
0.4142135623731
  0
LWPOLYLINE
  5
174
330
1F
100
AcDbEntity
  8
D-F
  6
Continuous
 62
     7
370
     9
100
AcDbPolyline
 90
        4
 70
     1
 43
2.0
 10
684.2914403598103
 20
666.4708522089774
 42
0.4142135623731
 10
683.2914403598103
 20
667.4708522089772
 42
0.4142135623731
 10
682.2914403598104
 20
666.4708522089774
 42
0.4142135623731
 10
683.2914403598103
 20
665.4708522089775
 42
0.4142135623731
  0
LINE
  5
175
330
1F
100
AcDbEntity
  8
D-F
  6
Continuous
 62
     7
370
     9
100
AcDbLine
 10
680.2914403598107
 20
666.4708522089774
 30
0.0
 11
811.6805459195087
 21
666.4708522089774
 31
0.0
  0
LWPOLYLINE
  5
176
330
1F
100
AcDbEntity
  8
D-F
  6
Continuous
 62
     7
370
     9
100
AcDbPolyline
 90
        4
 70
     1
 43
2.0
 10
684.2914403598103
 20
866.4706542571372
 42
0.4142135623731
 10
683.2914403598103
 20
867.4706542571371
 42
0.4142135623731
 10
682.2914403598104
 20
866.4706542571372
 42
0.4142135623731
 10
683.2914403598103
 20
865.4706542571373
 42
0.4142135623731
  0
LINE
  5
177
330
1F
100
AcDbEntity
  8
D-F
  6
Continuous
 62
     7
370
     9
100
AcDbLine
 10
683.2914403598103
 20
666.4708522089774
 30
0.0
 11
683.2914403598103
 21
866.4706542571372
 31
0.0
  0
TEXT
  5
178
330
1F
100
AcDbEntity
  8
D-F
  6
Continuous
 62
     2
370
   211
100
AcDbText
 10
672.6514403598103
 20
745.2207532330573
 30
0.0
 40
30.48
  1
40
 50
90.0
 41
1.0625
  7
ＭＳ ゴシック
100
AcDbText
  0
LINE
  5
179
330
1F
100
AcDbEntity
  8
D-F
  6
Continuous
 62
     7
370
     9
100
AcDbLine
 10
683.2914403598103
 20
650.4708522089692
 30
0.0
 11
683.2914403598103
 21
666.4708522089774
 31
0.0
  0
TEXT
  5
17A
330
1F
100
AcDbEntity
  8
D-F
  6
Continuous
 62
     2
370
   211
100
AcDbText
 10
672.6514403598103
 20
561.1302035448623
 30
0.0
 40
30.48
  1
3.2
 50
90.0
 41
1.083333333333333
  7
ＭＳ ゴシック
100
AcDbText
  0
LINE
  5
17B
330
1F
100
AcDbEntity
  8
D-F
  6
Continuous
 62
     7
370
     9
100
AcDbLine
 10
683.2914403598103
 20
650.4708522089692
 30
0.0
 11
683.2914403598103
 21
564.5943824650656
 31
0.0
  0
LWPOLYLINE
  5
17C
330
1F
100
AcDbEntity
  8
D-F
  6
Continuous
 62
     7
370
     9
100
AcDbPolyline
 90
        4
 70
     1
 43
2.0
 10
593.8647659208867
 20
866.4706542571372
 42
0.4142135623731
 10
592.8647659208867
 20
867.4706542571371
 42
0.4142135623731
 10
591.8647659208867
 20
866.4706542571372
 42
0.4142135623731
 10
592.8647659208867
 20
865.4706542571373
 42
0.4142135623731
  0
LINE
  5
17D
330
1F
100
AcDbEntity
  8
D-F
  6
Continuous
 62
     7
370
     9
100
AcDbLine
 10
589.8647659208866
 20
866.4706542571372
 30
0.0
 11
811.6805459195087
 21
866.4706542571372
 31
0.0
  0
LWPOLYLINE
  5
17E
330
1F
100
AcDbEntity
  8
D-F
  6
Continuous
 62
     7
370
     9
100
AcDbPolyline
 90
        4
 70
     1
 43
2.0
 10
593.8647659208867
 20
650.4708522089692
 42
0.4142135623731
 10
592.8647659208867
 20
651.4708522089691
 42
0.4142135623731
 10
591.8647659208867
 20
650.4708522089692
 42
0.4142135623731
 10
592.8647659208867
 20
649.4708522089693
 42
0.4142135623731
  0
LINE
  5
17F
330
1F
100
AcDbEntity
  8
D-F
  6
Continuous
 62
     7
370
     9
100
AcDbLine
 10
589.8647659208866
 20
650.4708522089692
 30
0.0
 11
811.6805459195087
 21
650.4708522089692
 31
0.0
  0
LINE
  5
180
330
1F
100
AcDbEntity
  8
D-F
  6
Continuous
 62
     7
370
     9
100
AcDbLine
 10
2265.370830481227
 20
619.4701889413649
 30
0.0
 11
2265.370830481227
 21
866.4706542571327
 31
0.0
  0
TEXT
  5
181
330
1F
100
AcDbEntity
  8
D-F
  6
Continuous
 62
     2
370
   211
100
AcDbText
 10
2253.730909661971
 20
699.2204215992488
 30
0.0
 40
30.48
  1
49.4
 50
90.0
 41
1.09375
  7
ＭＳ ゴシック
100
AcDbText
  0
LINE
  5
182
330
1F
100
AcDbEntity
  8
D-F
  6
Continuous
 62
     7
370
     9
100
AcDbLine
 10
592.8647659208867
 20
650.4708522089692
 30
0.0
 11
592.8647659208867
 21
866.4706542571372
 31
0.0
  0
TEXT
  5
183
330
1F
100
AcDbEntity
  8
D-F
  6
Continuous
 62
     2
370
   211
100
AcDbText
 10
582.2247659208867
 20
714.7207532330532
 30
0.0
 40
30.48
  1
43.2
 50
90.0
 41
1.09375
  7
ＭＳ ゴシック
100
AcDbText
  0
TEXT
  5
184
330
1F
100
AcDbEntity
  8
D-5
  6
Continuous
 62
     7
370
     9
100
AcDbText
 10
2090.053940686631
 20
467.9808507821418
 30
0.0
 40
22.86
  1
アンカー：Ｌ４０×４０×５
 41
1.153846153846154
  7
ＭＳ ゴシック
100
AcDbText
  0
LINE
  5
185
330
1F
100
AcDbEntity
  8
D-5
  6
Continuous
 62
     7
370
     9
100
AcDbLine
 10
2086.273060076677
 20
457.7894871659919
 30
0.0
 11
2540.053940686631
 21
457.7894871659919
 31
0.0
  0
LINE
  5
186
330
1F
100
AcDbEntity
  8
0-E
  6
Continuous
 62
     3
370
     9
100
AcDbLine
 10
72.72018337224267
 20
546.350971335603
 30
0.0
 11
72.72018337224267
 21
506.350971335603
 31
0.0
  0
LINE
  5
187
330
1F
100
AcDbEntity
  8
0-E
  6
Continuous
 62
     3
370
     9
100
AcDbLine
 10
72.72018337224267
 20
546.350971335603
 30
0.0
 11
38.5202283238084
 21
546.350971335603
 31
0.0
  0
LINE
  5
188
330
1F
100
AcDbEntity
  8
0-E
  6
Continuous
 62
     3
370
     9
100
AcDbLine
 10
72.72018337224267
 20
506.350971335603
 30
0.0
 11
38.5202283238084
 21
506.350971335603
 31
0.0
  0
CIRCLE
  5
189
330
1F
100
AcDbEntity
  8
0-E
  6
Continuous
 62
     3
370
     9
100
AcDbCircle
 10
57.72018337224267
 20
526.350971335603
 30
0.0
 40
6.999999999998181
  0
LINE
  5
18A
330
1F
100
AcDbEntity
  8
0-E
  6
JWW_CENTER1
 62
     3
370
     9
100
AcDbLine
 10
79.69318239851304
 20
526.350971335603
 30
0.0
 11
38.5202283238084
 21
526.350971335603
 31
0.0
  0
LINE
  5
18B
330
1F
100
AcDbEntity
  8
0-E
  6
JWW_CENTER1
 62
     3
370
     9
100
AcDbLine
 10
57.72018337224267
 20
501.9737298723954
 30
0.0
 11
57.72018337224267
 21
550.7282127988095
 31
0.0
  0
LINE
  5
18C
330
1F
100
AcDbEntity
  8
0-E
  6
Continuous
 62
     3
370
     9
100
AcDbLine
 10
-2087.679708579041
 20
506.3508888556624
 30
0.0
 11
-2087.679708579041
 21
546.3508888556624
 31
0.0
  0
LINE
  5
18D
330
1F
100
AcDbEntity
  8
0-E
  6
Continuous
 62
     3
370
     9
100
AcDbLine
 10
-2087.679708579041
 20
506.3508888556624
 30
0.0
 11
-2053.479753530607
 21
506.3508888556624
 31
0.0
  0
LINE
  5
18E
330
1F
100
AcDbEntity
  8
0-E
  6
Continuous
 62
     3
370
     9
100
AcDbLine
 10
-2087.679708579041
 20
546.3508888556624
 30
0.0
 11
-2053.479753530607
 21
546.3508888556624
 31
0.0
  0
CIRCLE
  5
18F
330
1F
100
AcDbEntity
  8
0-E
  6
Continuous
 62
     3
370
     9
100
AcDbCircle
 10
-2072.679708579041
 20
526.3508888556624
 30
0.0
 40
6.999999999998181
  0
LINE
  5
190
330
1F
100
AcDbEntity
  8
0-E
  6
JWW_CENTER1
 62
     3
370
     9
100
AcDbLine
 10
-2094.652707605311
 20
526.3508888556624
 30
0.0
 11
-2053.479753530607
 21
526.3508888556624
 31
0.0
  0
LINE
  5
191
330
1F
100
AcDbEntity
  8
0-E
  6
JWW_CENTER1
 62
     3
370
     9
100
AcDbLine
 10
-2072.679708579041
 20
550.7281303188701
 30
0.0
 11
-2072.679708579041
 21
501.9736473924559
 31
0.0
  0
LWPOLYLINE
  5
192
330
1F
100
AcDbEntity
  8
0-F
  6
Continuous
 62
     7
370
     9
100
AcDbPolyline
 90
        4
 70
     1
 43
2.0
 10
164.5041725327553
 20
526.350971335603
 42
0.4142135623731
 10
163.5041725327553
 20
527.350971335603
 42
0.4142135623731
 10
162.5041725327553
 20
526.350971335603
 42
0.4142135623731
 10
163.5041725327553
 20
525.3509713356029
 42
0.4142135623731
  0
LINE
  5
193
330
1F
100
AcDbEntity
  8
0-F
  6
Continuous
 62
     7
370
     9
100
AcDbLine
 10
166.5041725327553
 20
526.350971335603
 30
0.0
 11
99.69318239851306
 21
526.350971335603
 31
0.0
  0
TEXT
  5
194
330
1F
100
AcDbEntity
  8
D-5
  6
Continuous
 62
     7
370
     9
100
AcDbText
 10
921.1332413942184
 20
176.4500866342735
 30
0.0
 40
22.86
  1
（ＳＳ４００）
 41
1.142857142857145
  7
ＭＳ ゴシック
100
AcDbText
  0
TEXT
  5
195
330
1F
100
AcDbEntity
  8
D-5
  6
Continuous
 62
     7
370
     9
100
AcDbText
 10
931.3336113074577
 20
226.9729682194719
 30
0.0
 40
22.86
  1
補強材
 41
1.111111111111111
  7
ＭＳ ゴシック
100
AcDbText
  0
LINE
  5
196
330
1F
100
AcDbEntity
  8
D-5
  6
Continuous
 62
     7
370
     9
100
AcDbLine
 10
1167.350210123946
 20
211.2662143660095
 30
0.0
 11
931.3336113074577
 21
211.2662143660095
 31
0.0
  0
TEXT
  5
197
330
1F
100
AcDbEntity
  8
D-4
  6
Continuous
 62
     2
370
     9
100
AcDbText
 10
1103.850511672408
 20
-183.1119733074452
 30
0.0
 40
30.48
  1
A-A断面詳細図　Ｓ＝１：２
 41
1.115
  7
ＭＳ ゴシック
100
AcDbText
  0
LINE
  5
198
330
1F
100
AcDbEntity
  8
D-4
  6
Continuous
 62
     7
370
     9
100
AcDbLine
 10
1661.350511672408
 20
-199.3801322891806
 30
0.0
 11
1103.850511672408
 21
-199.3801322891806
 31
0.0
  0
TEXT
  5
199
330
1F
100
AcDbEntity
  8
D-4
  6
Continuous
 62
     7
370
     9
100
AcDbText
 10
814.642051781818
 20
-251.2807425747587
 30
0.0
 40
22.86
  1
表面処理：下塗り＋焼付塗装（但し目地、把手、クッション材を除く）
 41
1.161458333333333
  7
ＭＳ ゴシック
100
AcDbText
  0
LWPOLYLINE
  5
19A
330
1F
100
AcDbEntity
  8
D-F
  6
Continuous
 62
     7
370
     9
100
AcDbPolyline
 90
        4
 70
     1
 43
2.0
 10
1767.680479935559
 20
-62.00707199914
 42
0.4142135623731
 10
1766.680479935559
 20
-61.00707199914
 42
0.4142135623731
 10
1765.680479935559
 20
-62.00707199914
 42
0.4142135623731
 10
1766.680479935559
 20
-63.00707199914
 42
0.4142135623731
  0
LWPOLYLINE
  5
19B
330
1F
100
AcDbEntity
  8
D-F
  6
Continuous
 62
     7
370
     9
100
AcDbPolyline
 90
        4
 70
     1
 43
2.0
 10
1968.680054339064
 20
-62.00707199914
 42
0.4142135623731
 10
1967.680054339064
 20
-61.00707199914
 42
0.4142135623731
 10
1966.680054339065
 20
-62.00707199914
 42
0.4142135623731
 10
1967.680054339064
 20
-63.00707199914
 42
0.4142135623731
  0
LINE
  5
19C
330
1F
100
AcDbEntity
  8
D-F
  6
Continuous
 62
     7
370
     9
100
AcDbLine
 10
1967.680054339064
 20
-62.00707199914
 30
0.0
 11
1766.680479935559
 21
-62.00707199914
 31
0.0
  0
TEXT
  5
19D
330
1F
100
AcDbEntity
  8
D-F
  6
Continuous
 62
     2
370
   211
100
AcDbText
 10
1823.430267137312
 20
-50.36702745997175
 30
0.0
 40
30.48
  1
40.2
 41
1.09375
  7
ＭＳ ゴシック
100
AcDbText
  0
LINE
  5
19E
330
1F
100
AcDbEntity
  8
D-F
  6
Continuous
 62
     7
370
     9
100
AcDbLine
 10
1766.680479935559
 20
-62.00707199914
 30
0.0
 11
831.6805459195087
 21
-62.00707199914
 31
0.0
  0
LINE
  5
19F
330
1F
100
AcDbEntity
  8
D-F
  6
Continuous
 62
     7
370
     9
100
AcDbLine
 10
1766.680479935559
 20
604.4707251898559
 30
0.0
 11
1766.680479935559
 21
-67.007088495128
 31
0.0
  0
LINE
  5
1A0
330
1F
100
AcDbEntity
  8
D-F
  6
Continuous
 62
     7
370
     9
100
AcDbLine
 10
1967.680054339064
 20
598.0885756600845
 30
0.0
 11
1967.680054339064
 21
-67.007088495128
 31
0.0
  0
LINE
  5
1A1
330
1F
100
AcDbEntity
  8
D-5
  6
Continuous
 62
     7
370
     9
100
AcDbLine
 10
1167.350210123946
 20
211.2662143660095
 30
0.0
 11
1255.577781708559
 21
400.4708522089649
 31
0.0
  0
LINE
  5
1A2
330
1F
100
AcDbEntity
  8
D-5
  6
Continuous
 62
     7
370
     9
100
AcDbLine
 10
1255.577781708559
 20
400.4708522089649
 30
0.0
 11
1242.145291499888
 21
379.3860660636428
 31
0.0
  0
LINE
  5
1A3
330
1F
100
AcDbEntity
  8
D-5
  6
Continuous
 62
     7
370
     9
100
AcDbLine
 10
1255.577781708559
 20
400.4708522089649
 30
0.0
 11
1248.060136720952
 21
376.6279284402591
 31
0.0
  0
LWPOLYLINE
  5
1A4
330
1F
100
AcDbEntity
  8
D-F
  6
Continuous
 62
     7
370
     9
100
AcDbPolyline
 90
        4
 70
     1
 43
2.0
 10
593.8647659208867
 20
400.4708522089649
 42
0.4142135623731
 10
592.8647659208867
 20
401.4708522089649
 42
0.4142135623731
 10
591.8647659208867
 20
400.4708522089649
 42
0.4142135623731
 10
592.8647659208867
 20
399.4708522089649
 42
0.4142135623731
  0
LINE
  5
1A5
330
1F
100
AcDbEntity
  8
D-F
  6
Continuous
 62
     7
370
     9
100
AcDbLine
 10
589.8647659208867
 20
400.4708522089649
 30
0.0
 11
811.6797871040462
 21
400.4708522089649
 31
0.0
  0
LINE
  5
1A6
330
1F
100
AcDbEntity
  8
D-5
  6
Continuous
 62
     7
370
     9
100
AcDbLine
 10
1069.047414533675
 20
308.9261297574125
 30
0.0
 11
1228.312334215258
 21
650.4708522089646
 31
0.0
  0
LINE
  5
1A7
330
1F
100
AcDbEntity
  8
D-5
  6
Continuous
 62
     7
370
     9
100
AcDbLine
 10
1249.210442319138
 20
49.76834769958192
 30
0.0
 11
1496.680545919509
 21
580.469697489794
 31
0.0
  0
TEXT
  5
1A8
330
1F
100
AcDbEntity
  8
D-5
  6
Continuous
 62
     7
370
     9
100
AcDbText
 10
838.7535320961092
 20
99.35148385995645
 30
0.0
 40
22.86
  1
六角ボルト：Ｍ１６×２５
 41
1.152777777777778
  7
ＭＳ ゴシック
100
AcDbText
  0
LINE
  5
1A9
330
1F
100
AcDbEntity
  8
D-5
  6
Continuous
 62
     7
370
     9
100
AcDbLine
 10
1249.210442319138
 20
49.76834769958192
 30
0.0
 11
832.2253019115328
 21
49.76834769958192
 31
0.0
  0
TEXT
  5
1AA
330
1F
100
AcDbEntity
  8
D-5
  6
Continuous
 62
     7
370
     9
100
AcDbText
 10
837.7063611466588
 20
62.62985001062292
 30
0.0
 40
22.86
  1
ばね座金
 41
1.125
  7
ＭＳ ゴシック
100
AcDbText
  0
TEXT
  5
1AB
330
1F
100
AcDbEntity
  8
D-5
  6
Continuous
 62
     7
370
     9
100
AcDbText
 10
829.4444876818602
 20
17.07059428906794
 30
0.0
 40
22.86
  1
（ＳＵＳ３０４）
 41
1.145833333333333
  7
ＭＳ ゴシック
100
AcDbText
  0
LINE
  5
1AC
330
1F
100
AcDbEntity
  8
D-5
  6
Continuous
 62
     7
370
     9
100
AcDbLine
 10
1069.047414533675
 20
308.9261297574125
 30
0.0
 11
669.379546552176
 21
308.9261297574125
 31
0.0
  0
TEXT
  5
1AD
330
1F
100
AcDbEntity
  8
D-5
  6
Continuous
 62
     7
370
     9
100
AcDbText
 10
672.8967616224628
 20
322.3980071328349
 30
0.0
 40
22.86
  1
蓋プレート：ｔ＝３．２
 41
1.151515151515152
  7
ＭＳ ゴシック
100
AcDbText
  0
TEXT
  5
1AE
330
1F
100
AcDbEntity
  8
D-5
  6
Continuous
 62
     7
370
     9
100
AcDbText
 10
662.8488029964592
 20
277.0391946460318
 30
0.0
 40
22.86
  1
（ＳＰＨＣ）
 41
1.138888888888889
  7
ＭＳ ゴシック
100
AcDbText
  0
LINE
  5
1AF
330
1F
100
AcDbEntity
  8
D-F
  6
Continuous
 62
     7
370
     9
100
AcDbLine
 10
831.6805459195087
 20
599.0632561363425
 30
0.0
 11
797.2735437024484
 21
599.0632561363425
 31
0.0
  0
LINE
  5
1B0
330
1F
100
AcDbEntity
  8
D-F
  6
Continuous
 62
     7
370
     9
100
AcDbLine
 10
831.6805459195087
 20
667.878250329755
 30
0.0
 11
866.0885378958603
 21
667.878250329755
 31
0.0
  0
LINE
  5
1B1
330
1F
100
AcDbEntity
  8
D-F
  6
Continuous
 62
     7
370
     9
100
AcDbLine
 10
866.0885378958603
 20
667.878250329755
 30
0.0
 11
797.2735437024484
 21
599.0632561363425
 31
0.0
  0
LINE
  5
1B2
330
1F
100
AcDbEntity
  8
D-F
  6
Continuous
 62
     7
370
     9
100
AcDbLine
 10
831.6805459195087
 20
901.4706542571327
 30
0.0
 11
831.6805459195087
 21
667.878250329755
 31
0.0
  0
LINE
  5
1B3
330
1F
100
AcDbEntity
  8
D-F
  6
Continuous
 62
     7
370
     9
100
AcDbLine
 10
831.6805459195087
 20
599.0632561363425
 30
0.0
 11
831.6805459195087
 21
372.2609516379732
 31
0.0
  0
LINE
  5
1B4
330
1F
100
AcDbEntity
  8
D-2
  6
Continuous
 62
     3
370
     9
100
AcDbLine
 10
1456.681156271071
 20
666.4708522089728
 30
0.0
 11
864.6811397750781
 21
666.4708522089728
 31
0.0
  0
LINE
  5
1B5
330
1F
100
AcDbEntity
  8
D-2
  6
Continuous
 62
     3
370
     9
100
AcDbLine
 10
848.6811397750703
 20
650.4708522089646
 30
0.0
 11
1884.68074387138
 21
650.4708522089646
 31
0.0
  0
LINE
  5
1B6
330
1F
100
AcDbEntity
  8
D-9
  6
JWW_PHANTOM1
 62
   211
370
     5
100
AcDbLine
 10
1686.679985055923
 20
400.4708522089649
 30
0.0
 11
1686.679985055923
 21
650.470852208965
 31
0.0
  0
LINE
  5
1B7
330
1F
100
AcDbEntity
  8
D-9
  6
JWW_PHANTOM1
 62
   211
370
     5
100
AcDbLine
 10
831.6797871040462
 20
400.4708522089649
 30
0.0
 11
1686.679985055923
 21
400.4708522089649
 31
0.0
  0
LINE
  5
1B8
330
1F
100
AcDbEntity
  8
D-9
  6
JWW_PHANTOM1
 62
   211
370
     5
100
AcDbLine
 10
831.6797871040462
 20
430.4708522089649
 30
0.0
 11
1686.679985055923
 21
430.4708522089649
 31
0.0
  0
LINE
  5
1B9
330
1F
100
AcDbEntity
  8
D-8
  6
JWW_CENTER1
 62
    30
370
     5
100
AcDbLine
 10
1716.679985055923
 20
400.4708522089649
 30
0.0
 11
1716.679985055923
 21
650.470852208965
 31
0.0
  0
LINE
  5
1BA
330
1F
100
AcDbEntity
  8
D-8
  6
JWW_CENTER1
 62
    30
370
     5
100
AcDbLine
 10
1716.679985055923
 20
400.4708522089649
 30
0.0
 11
1686.679985055923
 21
400.4708522089649
 31
0.0
  0
LINE
  5
1BB
330
1F
100
AcDbEntity
  8
D-8
  6
JWW_CENTER1
 62
    30
370
     5
100
AcDbLine
 10
1686.679985055923
 20
400.4708522089649
 30
0.0
 11
1686.679985055923
 21
650.470852208965
 31
0.0
  0
TEXT
  5
1BC
330
1F
100
AcDbEntity
  8
F-5ﾚｲﾔ
  6
Continuous
 62
     2
370
     0
100
AcDbText
 10
-500.1060031230026
 20
-1962.068919403209
 30
0.0
 40
30.48
  1
大口径マシンハッチ　Ｓ－２Ｅ－１２００×２０００
 41
1.119791666666667
  7
ＭＳ ゴシック
100
AcDbText
  0
TEXT
  5
1BD
330
1F
100
AcDbEntity
  8
D-F
  6
Continuous
 62
     2
370
     9
100
AcDbText
 10
831.6805294235207
 20
-50.36702745997232
 30
0.0
 40
30.48
  1
1200
 41
1.09375
  7
ＭＳ ゴシック
100
AcDbText
  0
TEXT
  5
1BE
330
1F
100
AcDbEntity
  8
D-F
  6
Continuous
 62
     2
370
     9
100
AcDbText
 10
831.6805294235207
 20
1238.135101746846
 30
0.0
 40
30.48
  1
1292
 41
1.09375
  7
ＭＳ ゴシック
100
AcDbText
  0
LINE
  5
1BF
330
1F
100
AcDbEntity
  8
0-E
  6
Continuous
 62
     3
370
     9
100
AcDbLine
 10
-2087.679708579041
 20
1052.350941642823
 30
0.0
 11
-2087.679708579041
 21
1092.350941642823
 31
0.0
  0
LINE
  5
1C0
330
1F
100
AcDbEntity
  8
0-E
  6
Continuous
 62
     3
370
     9
100
AcDbLine
 10
-2087.679708579041
 20
1052.350941642823
 30
0.0
 11
-2053.479753530607
 21
1052.350941642823
 31
0.0
  0
LINE
  5
1C1
330
1F
100
AcDbEntity
  8
0-E
  6
Continuous
 62
     3
370
     9
100
AcDbLine
 10
-2087.679708579041
 20
1092.350941642823
 30
0.0
 11
-2053.479753530607
 21
1092.350941642823
 31
0.0
  0
CIRCLE
  5
1C2
330
1F
100
AcDbEntity
  8
0-E
  6
Continuous
 62
     3
370
     9
100
AcDbCircle
 10
-2072.679708579041
 20
1072.350941642823
 30
0.0
 40
6.999999999998181
  0
LINE
  5
1C3
330
1F
100
AcDbEntity
  8
0-E
  6
JWW_CENTER1
 62
     3
370
     9
100
AcDbLine
 10
-2094.652707605311
 20
1072.350941642823
 30
0.0
 11
-2053.479753530607
 21
1072.350941642823
 31
0.0
  0
LINE
  5
1C4
330
1F
100
AcDbEntity
  8
0-E
  6
JWW_CENTER1
 62
     3
370
     9
100
AcDbLine
 10
-2072.679708579041
 20
1096.72818310603
 30
0.0
 11
-2072.679708579041
 21
1047.973700179616
 31
0.0
  0
LINE
  5
1C5
330
1F
100
AcDbEntity
  8
0-E
  6
Continuous
 62
     3
370
     9
100
AcDbLine
 10
-1973.479815390562
 20
1206.550834831306
 30
0.0
 11
-1933.479815390562
 21
1206.550834831306
 31
0.0
  0
LINE
  5
1C6
330
1F
100
AcDbEntity
  8
0-E
  6
Continuous
 62
     3
370
     9
100
AcDbLine
 10
-1973.479815390562
 20
1206.550834831306
 30
0.0
 11
-1973.479815390562
 21
1172.350879782872
 31
0.0
  0
LINE
  5
1C7
330
1F
100
AcDbEntity
  8
0-E
  6
Continuous
 62
     3
370
     9
100
AcDbLine
 10
-1933.479815390562
 20
1206.550834831306
 30
0.0
 11
-1933.479815390562
 21
1172.350879782872
 31
0.0
  0
CIRCLE
  5
1C8
330
1F
100
AcDbEntity
  8
0-E
  6
Continuous
 62
     3
370
     9
100
AcDbCircle
 10
-1953.479815390562
 20
1191.550834831306
 30
0.0
 40
6.999999999998181
  0
LINE
  5
1C9
330
1F
100
AcDbEntity
  8
0-E
  6
JWW_CENTER1
 62
     3
370
     9
100
AcDbLine
 10
-1953.479815390562
 20
1213.523833857577
 30
0.0
 11
-1953.479815390562
 21
1172.350879782872
 31
0.0
  0
LINE
  5
1CA
330
1F
100
AcDbEntity
  8
0-E
  6
JWW_CENTER1
 62
     3
370
     9
100
AcDbLine
 10
-1929.102573927354
 20
1191.550834831306
 30
0.0
 11
-1977.857056853769
 21
1191.550834831306
 31
0.0
  0
LINE
  5
1CB
330
1F
100
AcDbEntity
  8
0-F
  6
Continuous
 62
     7
370
     9
100
AcDbLine
 10
-2053.479877250517
 20
1187.350929270835
 30
0.0
 11
-2053.479877250517
 21
1467.351172586662
 31
0.0
  0
LINE
  5
1CC
330
1F
100
AcDbEntity
  8
0-F
  6
Continuous
 62
     7
370
     9
100
AcDbLine
 10
-2040.479883848912
 20
1174.350935869231
 30
0.0
 11
-2040.479883848912
 21
1377.350875658874
 31
0.0
  0
LINE
  5
1CD
330
1F
100
AcDbEntity
  8
0-F
  6
Continuous
 62
     7
370
     9
100
AcDbLine
 10
-2007.479824463354
 20
1141.350876483674
 30
0.0
 11
-2007.479824463354
 21
1287.350083851442
 31
0.0
  0
LWPOLYLINE
  5
1CE
330
1F
100
AcDbEntity
  8
0-F
  6
Continuous
 62
     7
370
     9
100
AcDbPolyline
 90
        4
 70
     1
 43
2.0
 10
-2006.479824463354
 20
1282.350067355454
 42
0.4142135623731
 10
-2007.479824463354
 20
1283.350067355454
 42
0.4142135623731
 10
-2008.479824463354
 20
1282.350067355454
 42
0.4142135623731
 10
-2007.479824463354
 20
1281.350067355454
 42
0.4142135623731
  0
LWPOLYLINE
  5
1CF
330
1F
100
AcDbEntity
  8
0-F
  6
Continuous
 62
     7
370
     9
100
AcDbPolyline
 90
        4
 70
     1
 43
2.0
 10
-2039.479883848912
 20
1372.350859162887
 42
0.4142135623731
 10
-2040.479883848912
 20
1373.350859162887
 42
0.4142135623731
 10
-2041.479883848912
 20
1372.350859162887
 42
0.4142135623731
 10
-2040.479883848912
 20
1371.350859162887
 42
0.4142135623731
  0
LWPOLYLINE
  5
1D0
330
1F
100
AcDbEntity
  8
0-F
  6
Continuous
 62
     7
370
     9
100
AcDbPolyline
 90
        4
 70
     1
 43
2.0
 10
-2052.479877250517
 20
1462.351156090673
 42
0.4142135623731
 10
-2053.479877250517
 20
1463.351156090673
 42
0.4142135623731
 10
-2054.479877250517
 20
1462.351156090673
 42
0.4142135623731
 10
-2053.479877250517
 20
1461.351156090673
 42
0.4142135623731
  0
LINE
  5
1D1
330
1F
100
AcDbEntity
  8
建具
  6
Continuous
 62
     2
370
     9
100
AcDbLine
 10
-2053.479753530607
 20
1172.350941642823
 30
0.0
 11
-2041.479788172179
 21
1160.35110000431
 31
0.0
  0
LINE
  5
1D2
330
1F
100
AcDbEntity
  8
0-F
  6
Continuous
 62
     7
370
     9
100
AcDbLine
 10
87.44693747314301
 20
1072.350859162887
 30
0.0
 11
168.5041890287438
 21
1072.350859162887
 31
0.0
  0
LWPOLYLINE
  5
1D3
330
1F
100
AcDbEntity
  8
0-F
  6
Continuous
 62
     7
370
     9
100
AcDbPolyline
 90
        4
 70
     1
 43
2.0
 10
164.5041725327553
 20
1072.350859162887
 42
0.4142135623731
 10
163.5041725327552
 20
1073.350859162887
 42
0.4142135623731
 10
162.5041725327552
 20
1072.350859162887
 42
0.4142135623731
 10
163.5041725327552
 20
1071.350859162887
 42
0.4142135623731
  0
LINE
  5
1D4
330
1F
100
AcDbEntity
  8
0-E
  6
Continuous
 62
     3
370
     9
100
AcDbLine
 10
72.72018337224267
 20
1092.350941642827
 30
0.0
 11
72.72018337224267
 21
1052.350941642827
 31
0.0
  0
LINE
  5
1D5
330
1F
100
AcDbEntity
  8
0-E
  6
Continuous
 62
     3
370
     9
100
AcDbLine
 10
72.72018337224267
 20
1092.350941642827
 30
0.0
 11
38.5202283238084
 21
1092.350941642827
 31
0.0
  0
LINE
  5
1D6
330
1F
100
AcDbEntity
  8
0-E
  6
Continuous
 62
     3
370
     9
100
AcDbLine
 10
72.72018337224267
 20
1052.350941642827
 30
0.0
 11
38.5202283238084
 21
1052.350941642827
 31
0.0
  0
CIRCLE
  5
1D7
330
1F
100
AcDbEntity
  8
0-E
  6
Continuous
 62
     3
370
     9
100
AcDbCircle
 10
57.72018337224267
 20
1072.350941642827
 30
0.0
 40
6.999999999998181
  0
LINE
  5
1D8
330
1F
100
AcDbEntity
  8
0-E
  6
JWW_CENTER1
 62
     3
370
     9
100
AcDbLine
 10
79.69318239851304
 20
1072.350941642827
 30
0.0
 11
38.5202283238084
 21
1072.350941642827
 31
0.0
  0
LINE
  5
1D9
330
1F
100
AcDbEntity
  8
0-E
  6
JWW_CENTER1
 62
     3
370
     9
100
AcDbLine
 10
57.72018337224267
 20
1047.97370017962
 30
0.0
 11
57.72018337224267
 21
1096.728183106034
 31
0.0
  0
LINE
  5
1DA
330
1F
100
AcDbEntity
  8
0-E
  6
Continuous
 62
     3
370
     9
100
AcDbLine
 10
-81.47970981624098
 20
1206.550834831306
 30
0.0
 11
-41.47970981624098
 21
1206.550834831306
 31
0.0
  0
LINE
  5
1DB
330
1F
100
AcDbEntity
  8
0-E
  6
Continuous
 62
     3
370
     9
100
AcDbLine
 10
-81.47970981624098
 20
1206.550834831306
 30
0.0
 11
-81.47970981624098
 21
1172.350879782872
 31
0.0
  0
LINE
  5
1DC
330
1F
100
AcDbEntity
  8
0-E
  6
Continuous
 62
     3
370
     9
100
AcDbLine
 10
-41.47970981624098
 20
1206.550834831306
 30
0.0
 11
-41.47970981624098
 21
1172.350879782872
 31
0.0
  0
CIRCLE
  5
1DD
330
1F
100
AcDbEntity
  8
0-E
  6
Continuous
 62
     3
370
     9
100
AcDbCircle
 10
-61.47970981624098
 20
1191.550834831306
 30
0.0
 40
6.999999999998181
  0
LINE
  5
1DE
330
1F
100
AcDbEntity
  8
0-E
  6
JWW_CENTER1
 62
     3
370
     9
100
AcDbLine
 10
-61.47970981624098
 20
1213.523833857577
 30
0.0
 11
-61.47970981624098
 21
1172.350879782872
 31
0.0
  0
LINE
  5
1DF
330
1F
100
AcDbEntity
  8
0-E
  6
JWW_CENTER1
 62
     3
370
     9
100
AcDbLine
 10
-37.10246835303337
 20
1191.550834831306
 30
0.0
 11
-85.8569512794486
 21
1191.550834831306
 31
0.0
  0
LINE
  5
1E0
330
1F
100
AcDbEntity
  8
0-F
  6
Continuous
 62
     7
370
     9
100
AcDbLine
 10
38.52022832380783
 20
1187.350929270835
 30
0.0
 11
38.52022832380783
 21
1467.351172586662
 31
0.0
  0
LINE
  5
1E1
330
1F
100
AcDbEntity
  8
0-F
  6
Continuous
 62
     7
370
     9
100
AcDbLine
 10
25.52023492220314
 20
1174.350935869231
 30
0.0
 11
25.52023492220314
 21
1377.350875658874
 31
0.0
  0
LINE
  5
1E2
330
1F
100
AcDbEntity
  8
0-F
  6
Continuous
 62
     7
370
     9
100
AcDbLine
 10
-7.479824463354703
 20
1141.350876483674
 30
0.0
 11
-7.479824463354703
 21
1287.350083851442
 31
0.0
  0
LWPOLYLINE
  5
1E3
330
1F
100
AcDbEntity
  8
0-F
  6
Continuous
 62
     7
370
     9
100
AcDbPolyline
 90
        4
 70
     1
 43
2.0
 10
-6.479824463354703
 20
1282.350067355454
 42
0.4142135623731
 10
-7.479824463354703
 20
1283.350067355454
 42
0.4142135623731
 10
-8.479824463354703
 20
1282.350067355454
 42
0.4142135623731
 10
-7.479824463354703
 20
1281.350067355454
 42
0.4142135623731
  0
LWPOLYLINE
  5
1E4
330
1F
100
AcDbEntity
  8
0-F
  6
Continuous
 62
     7
370
     9
100
AcDbPolyline
 90
        4
 70
     1
 43
2.0
 10
26.52023492220314
 20
1372.350859162887
 42
0.4142135623731
 10
25.52023492220314
 20
1373.350859162887
 42
0.4142135623731
 10
24.52023492220314
 20
1372.350859162887
 42
0.4142135623731
 10
25.52023492220314
 20
1371.350859162887
 42
0.4142135623731
  0
LWPOLYLINE
  5
1E5
330
1F
100
AcDbEntity
  8
0-F
  6
Continuous
 62
     7
370
     9
100
AcDbPolyline
 90
        4
 70
     1
 43
2.0
 10
39.52022832380783
 20
1462.351156090673
 42
0.4142135623731
 10
38.52022832380783
 20
1463.351156090673
 42
0.4142135623731
 10
37.52022832380783
 20
1462.351156090673
 42
0.4142135623731
 10
38.52022832380783
 20
1461.351156090673
 42
0.4142135623731
  0
LINE
  5
1E6
330
1F
100
AcDbEntity
  8
建具
  6
Continuous
 62
     2
370
     9
100
AcDbLine
 10
26.52038668529599
 20
1160.35110000431
 30
0.0
 11
38.5202283238084
 21
1172.350941642823
 31
0.0
  0
LINE
  5
1E7
330
1F
100
AcDbEntity
  8
0-F
  6
Continuous
 62
     7
370
     9
100
AcDbLine
 10
163.5041725327552
 20
1072.350859162887
 30
0.0
 11
163.5041725327552
 21
1172.350941642827
 31
0.0
  0
LINE
  5
1E8
330
1F
100
AcDbEntity
  8
0-F
  6
Continuous
 62
     7
370
     9
100
AcDbLine
 10
53.52021595181668
 20
1172.350941642827
 30
0.0
 11
168.5041890287438
 21
1172.350941642827
 31
0.0
  0
TEXT
  5
1E9
330
1F
100
AcDbEntity
  8
0-F
  6
Continuous
 62
     2
370
     9
100
AcDbText
 10
151.8641898535427
 20
1089.850900402856
 30
0.0
 40
30.48
  1
100
 50
90.0
 41
1.083333333333333
  7
ＭＳ ゴシック
100
AcDbText
  0
LWPOLYLINE
  5
1EA
330
1F
100
AcDbEntity
  8
0-F
  6
Continuous
 62
     7
370
     9
100
AcDbPolyline
 90
        4
 70
     1
 43
2.0
 10
164.5041725327553
 20
1172.350941642827
 42
0.4142135623731
 10
163.5041725327552
 20
1173.350941642827
 42
0.4142135623731
 10
162.5041725327552
 20
1172.350941642827
 42
0.4142135623731
 10
163.5041725327552
 20
1171.350941642827
 42
0.4142135623731
  0
LINE
  5
1EB
330
1F
100
AcDbEntity
  8
0-F
  6
Continuous
 62
     7
370
     9
100
AcDbLine
 10
163.5041725327552
 20
1172.350941642827
 30
0.0
 11
163.5041725327552
 21
1206.551684470058
 31
0.0
  0
LWPOLYLINE
  5
1EC
330
1F
100
AcDbEntity
  8
0-F
  6
Continuous
 62
     7
370
     9
100
AcDbPolyline
 90
        4
 70
     1
 43
2.0
 10
164.5041725327553
 20
1206.551684470058
 42
0.4142135623731
 10
163.5041725327552
 20
1207.551684470058
 42
0.4142135623731
 10
162.5041725327552
 20
1206.551684470058
 42
0.4142135623731
 10
163.5041725327552
 20
1205.551684470058
 42
0.4142135623731
  0
LINE
  5
1ED
330
1F
100
AcDbEntity
  8
0-F
  6
Continuous
 62
     7
370
     9
100
AcDbLine
 10
168.5041725327552
 20
1206.551684470058
 30
0.0
 11
-21.47973043622301
 21
1206.551684470058
 31
0.0
  0
TEXT
  5
1EE
330
1F
100
AcDbEntity
  8
0-F
  6
Continuous
 62
     2
370
   211
100
AcDbText
 10
151.8641898535427
 20
1219.229531329209
 30
0.0
 40
30.48
  1
34
 50
90.0
 41
1.0625
  7
ＭＳ ゴシック
100
AcDbText
  0
LINE
  5
1EF
330
1F
100
AcDbEntity
  8
0-F
  6
Continuous
 62
     7
370
     9
100
AcDbLine
 10
163.5041725327552
 20
1206.551684470058
 30
0.0
 11
163.5041725327552
 21
1261.729531329209
 31
0.0
  0
LINE
  5
1F0
330
1F
100
AcDbEntity
  8
躯体
  6
JWW_DASHED2
 62
     2
370
     9
100
AcDbLine
 10
-2007.479824463354
 20
1126.350888855665
 30
0.0
 11
-7.4797007434438
 21
1126.350888855665
 31
0.0
  0
LINE
  5
1F1
330
1F
100
AcDbEntity
  8
建具
  6
Continuous
 62
     2
370
     9
100
AcDbLine
 10
-2041.479788172179
 20
1160.35110000431
 30
0.0
 11
26.52038668529599
 21
1160.35110000431
 31
0.0
  0
LINE
  5
1F2
330
1F
100
AcDbEntity
  8
建具
  6
Continuous
 62
     2
370
     9
100
AcDbLine
 10
-2053.479753530607
 20
1172.350941642823
 30
0.0
 11
38.52010460389806
 21
1172.350941642823
 31
0.0
  0
LINE
  5
1F3
330
1F
100
AcDbEntity
  8
0-F
  6
Continuous
 62
     7
370
     9
100
AcDbLine
 10
-2007.479824463354
 20
1282.350067355454
 30
0.0
 11
-7.479824463354703
 21
1282.350067355454
 31
0.0
  0
LINE
  5
1F4
330
1F
100
AcDbEntity
  8
0-E
  6
Continuous
 62
     3
370
     9
100
AcDbLine
 10
-554.4797716761959
 20
1206.550834831302
 30
0.0
 11
-514.4797716761959
 21
1206.550834831302
 31
0.0
  0
LINE
  5
1F5
330
1F
100
AcDbEntity
  8
0-E
  6
Continuous
 62
     3
370
     9
100
AcDbLine
 10
-554.4797716761959
 20
1206.550834831302
 30
0.0
 11
-554.4797716761959
 21
1172.350879782867
 31
0.0
  0
LINE
  5
1F6
330
1F
100
AcDbEntity
  8
0-E
  6
Continuous
 62
     3
370
     9
100
AcDbLine
 10
-514.4797716761959
 20
1206.550834831302
 30
0.0
 11
-514.4797716761959
 21
1172.350879782867
 31
0.0
  0
CIRCLE
  5
1F7
330
1F
100
AcDbEntity
  8
0-E
  6
Continuous
 62
     3
370
     9
100
AcDbCircle
 10
-534.4797716761959
 20
1191.550834831302
 30
0.0
 40
6.999999999998181
  0
LINE
  5
1F8
330
1F
100
AcDbEntity
  8
0-E
  6
JWW_CENTER1
 62
     3
370
     9
100
AcDbLine
 10
-534.4797716761959
 20
1213.523833857572
 30
0.0
 11
-534.4797716761959
 21
1172.350879782867
 31
0.0
  0
LINE
  5
1F9
330
1F
100
AcDbEntity
  8
0-E
  6
JWW_CENTER1
 62
     3
370
     9
100
AcDbLine
 10
-510.1025302129884
 20
1191.550834831302
 30
0.0
 11
-558.8570131394035
 21
1191.550834831302
 31
0.0
  0
LINE
  5
1FA
330
1F
100
AcDbEntity
  8
0-E
  6
Continuous
 62
     3
370
     9
100
AcDbLine
 10
-1027.479771676196
 20
1206.550834831302
 30
0.0
 11
-987.4797716761958
 21
1206.550834831302
 31
0.0
  0
LINE
  5
1FB
330
1F
100
AcDbEntity
  8
0-E
  6
Continuous
 62
     3
370
     9
100
AcDbLine
 10
-1027.479771676196
 20
1206.550834831302
 30
0.0
 11
-1027.479771676196
 21
1172.350879782867
 31
0.0
  0
LINE
  5
1FC
330
1F
100
AcDbEntity
  8
0-E
  6
Continuous
 62
     3
370
     9
100
AcDbLine
 10
-987.4797716761958
 20
1206.550834831302
 30
0.0
 11
-987.4797716761958
 21
1172.350879782867
 31
0.0
  0
CIRCLE
  5
1FD
330
1F
100
AcDbEntity
  8
0-E
  6
Continuous
 62
     3
370
     9
100
AcDbCircle
 10
-1007.479771676196
 20
1191.550834831302
 30
0.0
 40
6.999999999998181
  0
LINE
  5
1FE
330
1F
100
AcDbEntity
  8
0-E
  6
JWW_CENTER1
 62
     3
370
     9
100
AcDbLine
 10
-1007.479771676196
 20
1213.523833857572
 30
0.0
 11
-1007.479771676196
 21
1172.350879782867
 31
0.0
  0
LINE
  5
1FF
330
1F
100
AcDbEntity
  8
0-E
  6
JWW_CENTER1
 62
     3
370
     9
100
AcDbLine
 10
-983.1025302129882
 20
1191.550834831302
 30
0.0
 11
-1031.857013139404
 21
1191.550834831302
 31
0.0
  0
LINE
  5
200
330
1F
100
AcDbEntity
  8
0-E
  6
Continuous
 62
     3
370
     9
100
AcDbLine
 10
-1500.479771676196
 20
1206.550834831302
 30
0.0
 11
-1460.479771676196
 21
1206.550834831302
 31
0.0
  0
LINE
  5
201
330
1F
100
AcDbEntity
  8
0-E
  6
Continuous
 62
     3
370
     9
100
AcDbLine
 10
-1500.479771676196
 20
1206.550834831302
 30
0.0
 11
-1500.479771676196
 21
1172.350879782867
 31
0.0
  0
LINE
  5
202
330
1F
100
AcDbEntity
  8
0-E
  6
Continuous
 62
     3
370
     9
100
AcDbLine
 10
-1460.479771676196
 20
1206.550834831302
 30
0.0
 11
-1460.479771676196
 21
1172.350879782867
 31
0.0
  0
CIRCLE
  5
203
330
1F
100
AcDbEntity
  8
0-E
  6
Continuous
 62
     3
370
     9
100
AcDbCircle
 10
-1480.479771676196
 20
1191.550834831302
 30
0.0
 40
6.999999999998181
  0
LINE
  5
204
330
1F
100
AcDbEntity
  8
0-E
  6
JWW_CENTER1
 62
     3
370
     9
100
AcDbLine
 10
-1480.479771676196
 20
1213.523833857572
 30
0.0
 11
-1480.479771676196
 21
1172.350879782867
 31
0.0
  0
LINE
  5
205
330
1F
100
AcDbEntity
  8
0-E
  6
JWW_CENTER1
 62
     3
370
     9
100
AcDbLine
 10
-1456.102530212988
 20
1191.550834831302
 30
0.0
 11
-1504.857013139403
 21
1191.550834831302
 31
0.0
  0
LINE
  5
206
330
1F
100
AcDbEntity
  8
0-F
  6
Continuous
 62
     7
370
     9
100
AcDbLine
 10
-2022.479873951319
 20
1126.350888855665
 30
0.0
 11
-2149.103715772631
 21
1126.350888855665
 31
0.0
  0
LWPOLYLINE
  5
207
330
1F
100
AcDbEntity
  8
0-F
  6
Continuous
 62
     7
370
     9
100
AcDbPolyline
 90
        4
 70
     1
 43
2.0
 10
-2143.103699276643
 20
1126.350888855665
 42
0.4142135623731
 10
-2144.103699276643
 20
1127.350888855665
 42
0.4142135623731
 10
-2145.103699276643
 20
1126.350888855665
 42
0.4142135623731
 10
-2144.103699276643
 20
1125.350888855665
 42
0.4142135623731
  0
LINE
  5
208
330
1F
100
AcDbEntity
  8
0-F
  6
Continuous
 62
     7
370
     9
100
AcDbLine
 10
-2055.479933336876
 20
1159.350948241222
 30
0.0
 11
-2255.27306308706
 21
1159.350948241222
 31
0.0
  0
LWPOLYLINE
  5
209
330
1F
100
AcDbEntity
  8
0-F
  6
Continuous
 62
     7
370
     9
100
AcDbPolyline
 90
        4
 70
     1
 43
2.0
 10
-2249.273046591071
 20
1159.350948241222
 42
0.4142135623731
 10
-2250.273046591071
 20
1160.350948241222
 42
0.4142135623731
 10
-2251.273046591071
 20
1159.350948241222
 42
0.4142135623731
 10
-2250.273046591071
 20
1158.350948241222
 42
0.4142135623731
  0
LINE
  5
20A
330
1F
100
AcDbEntity
  8
0-F
  6
Continuous
 62
     7
370
     9
100
AcDbLine
 10
-2068.479926738481
 20
1172.350941642827
 30
0.0
 11
-2357.7362856364
 21
1172.350941642827
 31
0.0
  0
LWPOLYLINE
  5
20B
330
1F
100
AcDbEntity
  8
0-F
  6
Continuous
 62
     7
370
     9
100
AcDbPolyline
 90
        4
 70
     1
 43
2.0
 10
-2351.736269140413
 20
1172.350941642827
 42
0.4142135623731
 10
-2352.736269140413
 20
1173.350941642827
 42
0.4142135623731
 10
-2353.736269140413
 20
1172.350941642827
 42
0.4142135623731
 10
-2352.736269140413
 20
1171.350941642827
 42
0.4142135623731
  0
LINE
  5
20C
330
1F
100
AcDbEntity
  8
0-F
  6
Continuous
 62
     4
370
     9
100
AcDbLine
 10
-1967.230007568819
 20
987.3512847593795
 30
0.0
 11
-1967.230007568819
 21
957.3512847593795
 31
0.0
  0
LINE
  5
20D
330
1F
100
AcDbEntity
  8
0-F
  6
Continuous
 62
     4
370
     9
100
AcDbLine
 10
-1952.230007568819
 20
987.3512847593795
 30
0.0
 11
-1952.230007568819
 21
957.3512847593795
 31
0.0
  0
LINE
  5
20E
330
1F
100
AcDbEntity
  8
0-F
  6
Continuous
 62
     4
370
     9
100
AcDbLine
 10
-1982.818462769015
 20
987.3512847593795
 30
0.0
 11
-1982.818462769015
 21
957.3512847593795
 31
0.0
  0
LINE
  5
20F
330
1F
100
AcDbEntity
  8
0-F
  6
Continuous
 62
     4
370
     9
100
AcDbLine
 10
-1982.818462769015
 20
987.3512847593795
 30
0.0
 11
-1936.641552368624
 21
987.3512847593795
 31
0.0
  0
LINE
  5
210
330
1F
100
AcDbEntity
  8
0-F
  6
Continuous
 62
     4
370
     9
100
AcDbLine
 10
-1982.818462769015
 20
957.3512847593795
 30
0.0
 11
-1936.641552368624
 21
957.3512847593795
 31
0.0
  0
LINE
  5
211
330
1F
100
AcDbEntity
  8
0-F
  6
Continuous
 62
     4
370
     9
100
AcDbLine
 10
-1936.641552368624
 20
987.3512847593795
 30
0.0
 11
-1936.641552368624
 21
957.3512847593795
 31
0.0
  0
LINE
  5
212
330
1F
100
AcDbEntity
  8
0-F
  6
JWW_CENTER1
 62
     4
370
     9
100
AcDbLine
 10
-1959.730007568819
 20
994.4686553648492
 30
0.0
 11
-1959.730007568819
 21
951.2296111753949
 31
0.0
  0
LINE
  5
213
330
1F
100
AcDbEntity
  8
0-F
  6
Continuous
 62
     2
370
     9
100
AcDbLine
 10
-1961.229987773627
 20
1083.753064346584
 30
0.0
 11
-1961.229987773627
 21
1060.949505172171
 31
0.0
  0
LINE
  5
214
330
1F
100
AcDbEntity
  8
0-F
  6
Continuous
 62
     2
370
     9
100
AcDbLine
 10
-1958.229779924182
 20
1083.753064346584
 30
0.0
 11
-1958.229779924182
 21
1060.949505172171
 31
0.0
  0
CIRCLE
  5
215
330
1F
100
AcDbEntity
  8
0-F
  6
Continuous
 62
     2
370
     9
100
AcDbCircle
 10
-1959.730007568819
 20
1072.351284759379
 30
0.0
 40
16.00000117276166
  0
CIRCLE
  5
216
330
1F
100
AcDbEntity
  8
0-F
  6
Continuous
 62
     2
370
     9
100
AcDbCircle
 10
-1959.730007568819
 20
1072.351284759379
 30
0.0
 40
11.50000063148705
  0
CIRCLE
  5
217
330
1F
100
AcDbEntity
  8
0-F
  6
Continuous
 62
     2
370
     9
100
AcDbCircle
 10
-1959.730007568819
 20
1072.351284759379
 30
0.0
 40
12.0000011212117
  0
LINE
  5
218
330
1F
100
AcDbEntity
  8
0-F
  6
JWW_CENTER1
 62
     2
370
     9
100
AcDbLine
 10
-1990.730010868015
 20
1072.351161039465
 30
0.0
 11
-1928.730004269624
 21
1072.351161039465
 31
0.0
  0
LINE
  5
219
330
1F
100
AcDbEntity
  8
0-F
  6
JWW_CENTER1
 62
     2
370
     9
100
AcDbLine
 10
-1959.729883848909
 20
1041.351281460184
 30
0.0
 11
-1959.729883848909
 21
1103.351288058575
 31
0.0
  0
LINE
  5
21A
330
1F
100
AcDbEntity
  8
0-F
  6
Continuous
 62
     4
370
     9
100
AcDbLine
 10
-1717.230007568819
 20
987.3512847593795
 30
0.0
 11
-1717.230007568819
 21
957.3512847593795
 31
0.0
  0
LINE
  5
21B
330
1F
100
AcDbEntity
  8
0-F
  6
Continuous
 62
     4
370
     9
100
AcDbLine
 10
-1702.230007568819
 20
987.3512847593795
 30
0.0
 11
-1702.230007568819
 21
957.3512847593795
 31
0.0
  0
LINE
  5
21C
330
1F
100
AcDbEntity
  8
0-F
  6
Continuous
 62
     4
370
     9
100
AcDbLine
 10
-1732.818462769015
 20
987.3512847593795
 30
0.0
 11
-1732.818462769015
 21
957.3512847593795
 31
0.0
  0
LINE
  5
21D
330
1F
100
AcDbEntity
  8
0-F
  6
Continuous
 62
     4
370
     9
100
AcDbLine
 10
-1732.818462769015
 20
987.3512847593795
 30
0.0
 11
-1686.641552368624
 21
987.3512847593795
 31
0.0
  0
LINE
  5
21E
330
1F
100
AcDbEntity
  8
0-F
  6
Continuous
 62
     4
370
     9
100
AcDbLine
 10
-1732.818462769015
 20
957.3512847593795
 30
0.0
 11
-1686.641552368624
 21
957.3512847593795
 31
0.0
  0
LINE
  5
21F
330
1F
100
AcDbEntity
  8
0-F
  6
Continuous
 62
     4
370
     9
100
AcDbLine
 10
-1686.641552368624
 20
987.3512847593795
 30
0.0
 11
-1686.641552368624
 21
957.3512847593795
 31
0.0
  0
LINE
  5
220
330
1F
100
AcDbEntity
  8
0-F
  6
JWW_CENTER1
 62
     4
370
     9
100
AcDbLine
 10
-1709.730007568819
 20
994.4686553648492
 30
0.0
 11
-1709.730007568819
 21
951.2296111753949
 31
0.0
  0
LINE
  5
221
330
1F
100
AcDbEntity
  8
0-F
  6
Continuous
 62
     2
370
     9
100
AcDbLine
 10
-1711.229987773627
 20
1083.753064346584
 30
0.0
 11
-1711.229987773627
 21
1060.949505172171
 31
0.0
  0
LINE
  5
222
330
1F
100
AcDbEntity
  8
0-F
  6
Continuous
 62
     2
370
     9
100
AcDbLine
 10
-1708.229779924182
 20
1083.753064346584
 30
0.0
 11
-1708.229779924182
 21
1060.949505172171
 31
0.0
  0
CIRCLE
  5
223
330
1F
100
AcDbEntity
  8
0-F
  6
Continuous
 62
     2
370
     9
100
AcDbCircle
 10
-1709.730007568819
 20
1072.351284759379
 30
0.0
 40
16.00000117276166
  0
CIRCLE
  5
224
330
1F
100
AcDbEntity
  8
0-F
  6
Continuous
 62
     2
370
     9
100
AcDbCircle
 10
-1709.730007568819
 20
1072.351284759379
 30
0.0
 40
11.50000063148705
  0
CIRCLE
  5
225
330
1F
100
AcDbEntity
  8
0-F
  6
Continuous
 62
     2
370
     9
100
AcDbCircle
 10
-1709.730007568819
 20
1072.351284759379
 30
0.0
 40
12.0000011212117
  0
LINE
  5
226
330
1F
100
AcDbEntity
  8
0-F
  6
JWW_CENTER1
 62
     2
370
     9
100
AcDbLine
 10
-1709.729883848909
 20
1041.351281460184
 30
0.0
 11
-1709.729883848909
 21
1103.351288058575
 31
0.0
  0
LINE
  5
227
330
1F
100
AcDbEntity
  8
0-F
  6
JWW_CENTER1
 62
     2
370
     9
100
AcDbLine
 10
-1740.730010868015
 20
1072.351161039465
 30
0.0
 11
-1678.730004269624
 21
1072.351161039465
 31
0.0
  0
LINE
  5
228
330
1F
100
AcDbEntity
  8
0-F
  6
Continuous
 62
     3
370
     9
100
AcDbLine
 10
-2040.479883848911
 20
1159.350948241222
 30
0.0
 11
-2028.479794770574
 21
1147.350611723059
 31
0.0
  0
LINE
  5
229
330
1F
100
AcDbEntity
  8
0-F
  6
Continuous
 62
     3
370
     9
100
AcDbLine
 10
-1640.979972927245
 20
1147.350611723059
 30
0.0
 11
-1628.979883848907
 21
1159.350948241222
 31
0.0
  0
LINE
  5
22A
330
1F
100
AcDbEntity
  8
0-F
  6
Continuous
 62
     3
370
     9
100
AcDbLine
 10
-2028.479794770574
 20
1147.350611723059
 30
0.0
 11
-1640.979972927245
 21
1147.350611723059
 31
0.0
  0
LINE
  5
22B
330
1F
100
AcDbEntity
  8
0-F
  6
Continuous
 62
     3
370
     9
100
AcDbLine
 10
-2040.479883848911
 20
1159.350948241222
 30
0.0
 11
-1628.979883848907
 21
1159.350948241222
 31
0.0
  0
LINE
  5
22C
330
1F
100
AcDbEntity
  8
0-F
  6
Continuous
 62
     4
370
     9
100
AcDbLine
 10
-1553.60500756882
 20
987.3512847593795
 30
0.0
 11
-1553.60500756882
 21
957.3512847593795
 31
0.0
  0
LINE
  5
22D
330
1F
100
AcDbEntity
  8
0-F
  6
Continuous
 62
     4
370
     9
100
AcDbLine
 10
-1538.60500756882
 20
987.3512847593795
 30
0.0
 11
-1538.60500756882
 21
957.3512847593795
 31
0.0
  0
LINE
  5
22E
330
1F
100
AcDbEntity
  8
0-F
  6
Continuous
 62
     4
370
     9
100
AcDbLine
 10
-1569.193462769015
 20
987.3512847593795
 30
0.0
 11
-1569.193462769015
 21
957.3512847593795
 31
0.0
  0
LINE
  5
22F
330
1F
100
AcDbEntity
  8
0-F
  6
Continuous
 62
     4
370
     9
100
AcDbLine
 10
-1569.193462769015
 20
987.3512847593795
 30
0.0
 11
-1523.016552368624
 21
987.3512847593795
 31
0.0
  0
LINE
  5
230
330
1F
100
AcDbEntity
  8
0-F
  6
Continuous
 62
     4
370
     9
100
AcDbLine
 10
-1569.193462769015
 20
957.3512847593795
 30
0.0
 11
-1523.016552368624
 21
957.3512847593795
 31
0.0
  0
LINE
  5
231
330
1F
100
AcDbEntity
  8
0-F
  6
Continuous
 62
     4
370
     9
100
AcDbLine
 10
-1523.016552368624
 20
987.3512847593795
 30
0.0
 11
-1523.016552368624
 21
957.3512847593795
 31
0.0
  0
LINE
  5
232
330
1F
100
AcDbEntity
  8
0-F
  6
JWW_CENTER1
 62
     4
370
     9
100
AcDbLine
 10
-1546.10500756882
 20
994.4686553648492
 30
0.0
 11
-1546.10500756882
 21
951.2296111753949
 31
0.0
  0
LINE
  5
233
330
1F
100
AcDbEntity
  8
0-F
  6
Continuous
 62
     2
370
     9
100
AcDbLine
 10
-1547.604987773627
 20
1083.753064346584
 30
0.0
 11
-1547.604987773627
 21
1060.949505172171
 31
0.0
  0
LINE
  5
234
330
1F
100
AcDbEntity
  8
0-F
  6
Continuous
 62
     2
370
     9
100
AcDbLine
 10
-1544.604779924182
 20
1083.753064346584
 30
0.0
 11
-1544.604779924182
 21
1060.949505172171
 31
0.0
  0
CIRCLE
  5
235
330
1F
100
AcDbEntity
  8
0-F
  6
Continuous
 62
     2
370
     9
100
AcDbCircle
 10
-1546.10500756882
 20
1072.351284759379
 30
0.0
 40
16.00000117276166
  0
CIRCLE
  5
236
330
1F
100
AcDbEntity
  8
0-F
  6
Continuous
 62
     2
370
     9
100
AcDbCircle
 10
-1546.10500756882
 20
1072.351284759379
 30
0.0
 40
11.50000063148705
  0
CIRCLE
  5
237
330
1F
100
AcDbEntity
  8
0-F
  6
Continuous
 62
     2
370
     9
100
AcDbCircle
 10
-1546.10500756882
 20
1072.351284759379
 30
0.0
 40
12.0000011212117
  0
LINE
  5
238
330
1F
100
AcDbEntity
  8
0-F
  6
JWW_CENTER1
 62
     2
370
     9
100
AcDbLine
 10
-1577.105010868015
 20
1072.351161039465
 30
0.0
 11
-1515.105004269624
 21
1072.351161039465
 31
0.0
  0
LINE
  5
239
330
1F
100
AcDbEntity
  8
0-F
  6
JWW_CENTER1
 62
     2
370
     9
100
AcDbLine
 10
-1546.104883848909
 20
1041.351281460184
 30
0.0
 11
-1546.104883848909
 21
1103.351288058575
 31
0.0
  0
LINE
  5
23A
330
1F
100
AcDbEntity
  8
0-F
  6
Continuous
 62
     4
370
     9
100
AcDbLine
 10
-1303.60500756882
 20
987.3512847593795
 30
0.0
 11
-1303.60500756882
 21
957.3512847593795
 31
0.0
  0
LINE
  5
23B
330
1F
100
AcDbEntity
  8
0-F
  6
Continuous
 62
     4
370
     9
100
AcDbLine
 10
-1288.60500756882
 20
987.3512847593795
 30
0.0
 11
-1288.60500756882
 21
957.3512847593795
 31
0.0
  0
LINE
  5
23C
330
1F
100
AcDbEntity
  8
0-F
  6
Continuous
 62
     4
370
     9
100
AcDbLine
 10
-1319.193462769015
 20
987.3512847593795
 30
0.0
 11
-1319.193462769015
 21
957.3512847593795
 31
0.0
  0
LINE
  5
23D
330
1F
100
AcDbEntity
  8
0-F
  6
Continuous
 62
     4
370
     9
100
AcDbLine
 10
-1319.193462769015
 20
987.3512847593795
 30
0.0
 11
-1273.016552368624
 21
987.3512847593795
 31
0.0
  0
LINE
  5
23E
330
1F
100
AcDbEntity
  8
0-F
  6
Continuous
 62
     4
370
     9
100
AcDbLine
 10
-1319.193462769015
 20
957.3512847593795
 30
0.0
 11
-1273.016552368624
 21
957.3512847593795
 31
0.0
  0
LINE
  5
23F
330
1F
100
AcDbEntity
  8
0-F
  6
Continuous
 62
     4
370
     9
100
AcDbLine
 10
-1273.016552368624
 20
987.3512847593795
 30
0.0
 11
-1273.016552368624
 21
957.3512847593795
 31
0.0
  0
LINE
  5
240
330
1F
100
AcDbEntity
  8
0-F
  6
JWW_CENTER1
 62
     4
370
     9
100
AcDbLine
 10
-1296.10500756882
 20
994.4686553648492
 30
0.0
 11
-1296.10500756882
 21
951.2296111753949
 31
0.0
  0
LINE
  5
241
330
1F
100
AcDbEntity
  8
0-F
  6
Continuous
 62
     2
370
     9
100
AcDbLine
 10
-1297.604987773627
 20
1083.753064346584
 30
0.0
 11
-1297.604987773627
 21
1060.949505172171
 31
0.0
  0
LINE
  5
242
330
1F
100
AcDbEntity
  8
0-F
  6
Continuous
 62
     2
370
     9
100
AcDbLine
 10
-1294.604779924182
 20
1083.753064346584
 30
0.0
 11
-1294.604779924182
 21
1060.949505172171
 31
0.0
  0
CIRCLE
  5
243
330
1F
100
AcDbEntity
  8
0-F
  6
Continuous
 62
     2
370
     9
100
AcDbCircle
 10
-1296.10500756882
 20
1072.351284759379
 30
0.0
 40
16.00000117276166
  0
CIRCLE
  5
244
330
1F
100
AcDbEntity
  8
0-F
  6
Continuous
 62
     2
370
     9
100
AcDbCircle
 10
-1296.10500756882
 20
1072.351284759379
 30
0.0
 40
11.50000063148705
  0
CIRCLE
  5
245
330
1F
100
AcDbEntity
  8
0-F
  6
Continuous
 62
     2
370
     9
100
AcDbCircle
 10
-1296.10500756882
 20
1072.351284759379
 30
0.0
 40
12.0000011212117
  0
LINE
  5
246
330
1F
100
AcDbEntity
  8
0-F
  6
JWW_CENTER1
 62
     2
370
     9
100
AcDbLine
 10
-1296.104883848909
 20
1041.351281460184
 30
0.0
 11
-1296.104883848909
 21
1103.351288058575
 31
0.0
  0
LINE
  5
247
330
1F
100
AcDbEntity
  8
0-F
  6
JWW_CENTER1
 62
     2
370
     9
100
AcDbLine
 10
-1327.105010868015
 20
1072.351161039465
 30
0.0
 11
-1265.105004269624
 21
1072.351161039465
 31
0.0
  0
LINE
  5
248
330
1F
100
AcDbEntity
  8
0-F
  6
Continuous
 62
     3
370
     9
100
AcDbLine
 10
-1626.854883848912
 20
1159.350948241222
 30
0.0
 11
-1614.854794770574
 21
1147.350611723059
 31
0.0
  0
LINE
  5
249
330
1F
100
AcDbEntity
  8
0-F
  6
Continuous
 62
     3
370
     9
100
AcDbLine
 10
-1227.354972927245
 20
1147.350611723059
 30
0.0
 11
-1215.354883848907
 21
1159.350948241222
 31
0.0
  0
LINE
  5
24A
330
1F
100
AcDbEntity
  8
0-F
  6
Continuous
 62
     3
370
     9
100
AcDbLine
 10
-1614.854794770574
 20
1147.350611723059
 30
0.0
 11
-1227.354972927245
 21
1147.350611723059
 31
0.0
  0
LINE
  5
24B
330
1F
100
AcDbEntity
  8
0-F
  6
Continuous
 62
     3
370
     9
100
AcDbLine
 10
-1626.854883848912
 20
1159.350948241222
 30
0.0
 11
-1215.354883848907
 21
1159.350948241222
 31
0.0
  0
LINE
  5
24C
330
1F
100
AcDbEntity
  8
0-F
  6
Continuous
 62
     4
370
     9
100
AcDbLine
 10
-1139.98000756882
 20
987.3512847593795
 30
0.0
 11
-1139.98000756882
 21
957.3512847593795
 31
0.0
  0
LINE
  5
24D
330
1F
100
AcDbEntity
  8
0-F
  6
Continuous
 62
     4
370
     9
100
AcDbLine
 10
-1124.98000756882
 20
987.3512847593795
 30
0.0
 11
-1124.98000756882
 21
957.3512847593795
 31
0.0
  0
LINE
  5
24E
330
1F
100
AcDbEntity
  8
0-F
  6
Continuous
 62
     4
370
     9
100
AcDbLine
 10
-1155.568462769015
 20
987.3512847593795
 30
0.0
 11
-1155.568462769015
 21
957.3512847593795
 31
0.0
  0
LINE
  5
24F
330
1F
100
AcDbEntity
  8
0-F
  6
Continuous
 62
     4
370
     9
100
AcDbLine
 10
-1155.568462769015
 20
987.3512847593795
 30
0.0
 11
-1109.391552368625
 21
987.3512847593795
 31
0.0
  0
LINE
  5
250
330
1F
100
AcDbEntity
  8
0-F
  6
Continuous
 62
     4
370
     9
100
AcDbLine
 10
-1155.568462769015
 20
957.3512847593795
 30
0.0
 11
-1109.391552368625
 21
957.3512847593795
 31
0.0
  0
LINE
  5
251
330
1F
100
AcDbEntity
  8
0-F
  6
Continuous
 62
     4
370
     9
100
AcDbLine
 10
-1109.391552368625
 20
987.3512847593795
 30
0.0
 11
-1109.391552368625
 21
957.3512847593795
 31
0.0
  0
LINE
  5
252
330
1F
100
AcDbEntity
  8
0-F
  6
JWW_CENTER1
 62
     4
370
     9
100
AcDbLine
 10
-1132.48000756882
 20
994.4686553648492
 30
0.0
 11
-1132.48000756882
 21
951.2296111753949
 31
0.0
  0
LINE
  5
253
330
1F
100
AcDbEntity
  8
0-F
  6
Continuous
 62
     2
370
     9
100
AcDbLine
 10
-1133.979987773628
 20
1083.753064346584
 30
0.0
 11
-1133.979987773628
 21
1060.949505172171
 31
0.0
  0
LINE
  5
254
330
1F
100
AcDbEntity
  8
0-F
  6
Continuous
 62
     2
370
     9
100
AcDbLine
 10
-1130.979779924182
 20
1083.753064346584
 30
0.0
 11
-1130.979779924182
 21
1060.949505172171
 31
0.0
  0
CIRCLE
  5
255
330
1F
100
AcDbEntity
  8
0-F
  6
Continuous
 62
     2
370
     9
100
AcDbCircle
 10
-1132.48000756882
 20
1072.351284759379
 30
0.0
 40
16.00000117276166
  0
CIRCLE
  5
256
330
1F
100
AcDbEntity
  8
0-F
  6
Continuous
 62
     2
370
     9
100
AcDbCircle
 10
-1132.48000756882
 20
1072.351284759379
 30
0.0
 40
11.50000063148705
  0
CIRCLE
  5
257
330
1F
100
AcDbEntity
  8
0-F
  6
Continuous
 62
     2
370
     9
100
AcDbCircle
 10
-1132.48000756882
 20
1072.351284759379
 30
0.0
 40
12.0000011212117
  0
LINE
  5
258
330
1F
100
AcDbEntity
  8
0-F
  6
JWW_CENTER1
 62
     2
370
     9
100
AcDbLine
 10
-1163.480010868016
 20
1072.351161039465
 30
0.0
 11
-1101.480004269624
 21
1072.351161039465
 31
0.0
  0
LINE
  5
259
330
1F
100
AcDbEntity
  8
0-F
  6
JWW_CENTER1
 62
     2
370
     9
100
AcDbLine
 10
-1132.47988384891
 20
1041.351281460184
 30
0.0
 11
-1132.47988384891
 21
1103.351288058575
 31
0.0
  0
LINE
  5
25A
330
1F
100
AcDbEntity
  8
0-F
  6
Continuous
 62
     4
370
     9
100
AcDbLine
 10
-889.9800075688199
 20
987.3512847593795
 30
0.0
 11
-889.9800075688199
 21
957.3512847593795
 31
0.0
  0
LINE
  5
25B
330
1F
100
AcDbEntity
  8
0-F
  6
Continuous
 62
     4
370
     9
100
AcDbLine
 10
-874.9800075688199
 20
987.3512847593795
 30
0.0
 11
-874.9800075688199
 21
957.3512847593795
 31
0.0
  0
LINE
  5
25C
330
1F
100
AcDbEntity
  8
0-F
  6
Continuous
 62
     4
370
     9
100
AcDbLine
 10
-905.5684627690152
 20
987.3512847593795
 30
0.0
 11
-905.5684627690152
 21
957.3512847593795
 31
0.0
  0
LINE
  5
25D
330
1F
100
AcDbEntity
  8
0-F
  6
Continuous
 62
     4
370
     9
100
AcDbLine
 10
-905.5684627690152
 20
987.3512847593795
 30
0.0
 11
-859.3915523686246
 21
987.3512847593795
 31
0.0
  0
LINE
  5
25E
330
1F
100
AcDbEntity
  8
0-F
  6
Continuous
 62
     4
370
     9
100
AcDbLine
 10
-905.5684627690152
 20
957.3512847593795
 30
0.0
 11
-859.3915523686246
 21
957.3512847593795
 31
0.0
  0
LINE
  5
25F
330
1F
100
AcDbEntity
  8
0-F
  6
Continuous
 62
     4
370
     9
100
AcDbLine
 10
-859.3915523686246
 20
987.3512847593795
 30
0.0
 11
-859.3915523686246
 21
957.3512847593795
 31
0.0
  0
LINE
  5
260
330
1F
100
AcDbEntity
  8
0-F
  6
JWW_CENTER1
 62
     4
370
     9
100
AcDbLine
 10
-882.4800075688199
 20
994.4686553648492
 30
0.0
 11
-882.4800075688199
 21
951.2296111753949
 31
0.0
  0
LINE
  5
261
330
1F
100
AcDbEntity
  8
0-F
  6
Continuous
 62
     2
370
     9
100
AcDbLine
 10
-883.9799877736277
 20
1083.753064346584
 30
0.0
 11
-883.9799877736277
 21
1060.949505172171
 31
0.0
  0
LINE
  5
262
330
1F
100
AcDbEntity
  8
0-F
  6
Continuous
 62
     2
370
     9
100
AcDbLine
 10
-880.9797799241824
 20
1083.753064346584
 30
0.0
 11
-880.9797799241824
 21
1060.949505172171
 31
0.0
  0
CIRCLE
  5
263
330
1F
100
AcDbEntity
  8
0-F
  6
Continuous
 62
     2
370
     9
100
AcDbCircle
 10
-882.4800075688199
 20
1072.351284759379
 30
0.0
 40
16.00000117276166
  0
CIRCLE
  5
264
330
1F
100
AcDbEntity
  8
0-F
  6
Continuous
 62
     2
370
     9
100
AcDbCircle
 10
-882.4800075688199
 20
1072.351284759379
 30
0.0
 40
11.50000063148705
  0
CIRCLE
  5
265
330
1F
100
AcDbEntity
  8
0-F
  6
Continuous
 62
     2
370
     9
100
AcDbCircle
 10
-882.4800075688199
 20
1072.351284759379
 30
0.0
 40
12.0000011212117
  0
LINE
  5
266
330
1F
100
AcDbEntity
  8
0-F
  6
JWW_CENTER1
 62
     2
370
     9
100
AcDbLine
 10
-882.4798838489096
 20
1041.351281460184
 30
0.0
 11
-882.4798838489096
 21
1103.351288058575
 31
0.0
  0
LINE
  5
267
330
1F
100
AcDbEntity
  8
0-F
  6
JWW_CENTER1
 62
     2
370
     9
100
AcDbLine
 10
-913.4800108680156
 20
1072.351161039465
 30
0.0
 11
-851.4800042696243
 21
1072.351161039465
 31
0.0
  0
LINE
  5
268
330
1F
100
AcDbEntity
  8
0-F
  6
Continuous
 62
     3
370
     9
100
AcDbLine
 10
-1213.229883848912
 20
1159.350948241222
 30
0.0
 11
-1201.229794770574
 21
1147.350611723059
 31
0.0
  0
LINE
  5
269
330
1F
100
AcDbEntity
  8
0-F
  6
Continuous
 62
     3
370
     9
100
AcDbLine
 10
-813.7299729272451
 20
1147.350611723059
 30
0.0
 11
-801.7298838489074
 21
1159.350948241222
 31
0.0
  0
LINE
  5
26A
330
1F
100
AcDbEntity
  8
0-F
  6
Continuous
 62
     3
370
     9
100
AcDbLine
 10
-1201.229794770574
 20
1147.350611723059
 30
0.0
 11
-813.7299729272451
 21
1147.350611723059
 31
0.0
  0
LINE
  5
26B
330
1F
100
AcDbEntity
  8
0-F
  6
Continuous
 62
     3
370
     9
100
AcDbLine
 10
-1213.229883848912
 20
1159.350948241222
 30
0.0
 11
-801.7298838489074
 21
1159.350948241222
 31
0.0
  0
LINE
  5
26C
330
1F
100
AcDbEntity
  8
0-F
  6
Continuous
 62
     4
370
     9
100
AcDbLine
 10
-726.3550075688202
 20
987.3512847593795
 30
0.0
 11
-726.3550075688202
 21
957.3512847593795
 31
0.0
  0
LINE
  5
26D
330
1F
100
AcDbEntity
  8
0-F
  6
Continuous
 62
     4
370
     9
100
AcDbLine
 10
-711.3550075688202
 20
987.3512847593795
 30
0.0
 11
-711.3550075688202
 21
957.3512847593795
 31
0.0
  0
LINE
  5
26E
330
1F
100
AcDbEntity
  8
0-F
  6
Continuous
 62
     4
370
     9
100
AcDbLine
 10
-741.9434627690155
 20
987.3512847593795
 30
0.0
 11
-741.9434627690155
 21
957.3512847593795
 31
0.0
  0
LINE
  5
26F
330
1F
100
AcDbEntity
  8
0-F
  6
Continuous
 62
     4
370
     9
100
AcDbLine
 10
-741.9434627690155
 20
987.3512847593795
 30
0.0
 11
-695.7665523686248
 21
987.3512847593795
 31
0.0
  0
LINE
  5
270
330
1F
100
AcDbEntity
  8
0-F
  6
Continuous
 62
     4
370
     9
100
AcDbLine
 10
-741.9434627690155
 20
957.3512847593795
 30
0.0
 11
-695.7665523686248
 21
957.3512847593795
 31
0.0
  0
LINE
  5
271
330
1F
100
AcDbEntity
  8
0-F
  6
Continuous
 62
     4
370
     9
100
AcDbLine
 10
-695.7665523686248
 20
987.3512847593795
 30
0.0
 11
-695.7665523686248
 21
957.3512847593795
 31
0.0
  0
LINE
  5
272
330
1F
100
AcDbEntity
  8
0-F
  6
JWW_CENTER1
 62
     4
370
     9
100
AcDbLine
 10
-718.8550075688202
 20
994.4686553648492
 30
0.0
 11
-718.8550075688202
 21
951.2296111753949
 31
0.0
  0
LINE
  5
273
330
1F
100
AcDbEntity
  8
0-F
  6
Continuous
 62
     2
370
     9
100
AcDbLine
 10
-720.354987773628
 20
1083.753064346584
 30
0.0
 11
-720.354987773628
 21
1060.949505172171
 31
0.0
  0
LINE
  5
274
330
1F
100
AcDbEntity
  8
0-F
  6
Continuous
 62
     2
370
     9
100
AcDbLine
 10
-717.3547799241826
 20
1083.753064346584
 30
0.0
 11
-717.3547799241826
 21
1060.949505172171
 31
0.0
  0
CIRCLE
  5
275
330
1F
100
AcDbEntity
  8
0-F
  6
Continuous
 62
     2
370
     9
100
AcDbCircle
 10
-718.8550075688202
 20
1072.351284759379
 30
0.0
 40
16.00000117276166
  0
CIRCLE
  5
276
330
1F
100
AcDbEntity
  8
0-F
  6
Continuous
 62
     2
370
     9
100
AcDbCircle
 10
-718.8550075688202
 20
1072.351284759379
 30
0.0
 40
11.50000063148705
  0
CIRCLE
  5
277
330
1F
100
AcDbEntity
  8
0-F
  6
Continuous
 62
     2
370
     9
100
AcDbCircle
 10
-718.8550075688202
 20
1072.351284759379
 30
0.0
 40
12.0000011212117
  0
LINE
  5
278
330
1F
100
AcDbEntity
  8
0-F
  6
JWW_CENTER1
 62
     2
370
     9
100
AcDbLine
 10
-749.8550108680158
 20
1072.351161039465
 30
0.0
 11
-687.8550042696245
 21
1072.351161039465
 31
0.0
  0
LINE
  5
279
330
1F
100
AcDbEntity
  8
0-F
  6
JWW_CENTER1
 62
     2
370
     9
100
AcDbLine
 10
-718.8548838489098
 20
1041.351281460184
 30
0.0
 11
-718.8548838489098
 21
1103.351288058575
 31
0.0
  0
LINE
  5
27A
330
1F
100
AcDbEntity
  8
0-F
  6
Continuous
 62
     4
370
     9
100
AcDbLine
 10
-476.3550075688201
 20
987.3512847593795
 30
0.0
 11
-476.3550075688201
 21
957.3512847593795
 31
0.0
  0
LINE
  5
27B
330
1F
100
AcDbEntity
  8
0-F
  6
Continuous
 62
     4
370
     9
100
AcDbLine
 10
-461.3550075688201
 20
987.3512847593795
 30
0.0
 11
-461.3550075688201
 21
957.3512847593795
 31
0.0
  0
LINE
  5
27C
330
1F
100
AcDbEntity
  8
0-F
  6
Continuous
 62
     4
370
     9
100
AcDbLine
 10
-491.9434627690154
 20
987.3512847593795
 30
0.0
 11
-491.9434627690154
 21
957.3512847593795
 31
0.0
  0
LINE
  5
27D
330
1F
100
AcDbEntity
  8
0-F
  6
Continuous
 62
     4
370
     9
100
AcDbLine
 10
-491.9434627690154
 20
987.3512847593795
 30
0.0
 11
-445.7665523686248
 21
987.3512847593795
 31
0.0
  0
LINE
  5
27E
330
1F
100
AcDbEntity
  8
0-F
  6
Continuous
 62
     4
370
     9
100
AcDbLine
 10
-491.9434627690154
 20
957.3512847593795
 30
0.0
 11
-445.7665523686248
 21
957.3512847593795
 31
0.0
  0
LINE
  5
27F
330
1F
100
AcDbEntity
  8
0-F
  6
Continuous
 62
     4
370
     9
100
AcDbLine
 10
-445.7665523686248
 20
987.3512847593795
 30
0.0
 11
-445.7665523686248
 21
957.3512847593795
 31
0.0
  0
LINE
  5
280
330
1F
100
AcDbEntity
  8
0-F
  6
JWW_CENTER1
 62
     4
370
     9
100
AcDbLine
 10
-468.8550075688201
 20
994.4686553648492
 30
0.0
 11
-468.8550075688201
 21
951.2296111753949
 31
0.0
  0
LINE
  5
281
330
1F
100
AcDbEntity
  8
0-F
  6
Continuous
 62
     2
370
     9
100
AcDbLine
 10
-470.3549877736279
 20
1083.753064346584
 30
0.0
 11
-470.3549877736279
 21
1060.949505172171
 31
0.0
  0
LINE
  5
282
330
1F
100
AcDbEntity
  8
0-F
  6
Continuous
 62
     2
370
     9
100
AcDbLine
 10
-467.3547799241825
 20
1083.753064346584
 30
0.0
 11
-467.3547799241825
 21
1060.949505172171
 31
0.0
  0
CIRCLE
  5
283
330
1F
100
AcDbEntity
  8
0-F
  6
Continuous
 62
     2
370
     9
100
AcDbCircle
 10
-468.8550075688201
 20
1072.351284759379
 30
0.0
 40
16.00000117276166
  0
CIRCLE
  5
284
330
1F
100
AcDbEntity
  8
0-F
  6
Continuous
 62
     2
370
     9
100
AcDbCircle
 10
-468.8550075688201
 20
1072.351284759379
 30
0.0
 40
11.50000063148705
  0
CIRCLE
  5
285
330
1F
100
AcDbEntity
  8
0-F
  6
Continuous
 62
     2
370
     9
100
AcDbCircle
 10
-468.8550075688201
 20
1072.351284759379
 30
0.0
 40
12.0000011212117
  0
LINE
  5
286
330
1F
100
AcDbEntity
  8
0-F
  6
JWW_CENTER1
 62
     2
370
     9
100
AcDbLine
 10
-468.8548838489098
 20
1041.351281460184
 30
0.0
 11
-468.8548838489098
 21
1103.351288058575
 31
0.0
  0
LINE
  5
287
330
1F
100
AcDbEntity
  8
0-F
  6
JWW_CENTER1
 62
     2
370
     9
100
AcDbLine
 10
-499.8550108680158
 20
1072.351161039465
 30
0.0
 11
-437.8550042696244
 21
1072.351161039465
 31
0.0
  0
LINE
  5
288
330
1F
100
AcDbEntity
  8
0-F
  6
Continuous
 62
     3
370
     9
100
AcDbLine
 10
-799.6048838489119
 20
1159.350948241222
 30
0.0
 11
-787.6047947705742
 21
1147.350611723059
 31
0.0
  0
LINE
  5
289
330
1F
100
AcDbEntity
  8
0-F
  6
Continuous
 62
     3
370
     9
100
AcDbLine
 10
-400.1049729272452
 20
1147.350611723059
 30
0.0
 11
-388.1048838489076
 21
1159.350948241222
 31
0.0
  0
LINE
  5
28A
330
1F
100
AcDbEntity
  8
0-F
  6
Continuous
 62
     3
370
     9
100
AcDbLine
 10
-787.6047947705742
 20
1147.350611723059
 30
0.0
 11
-400.1049729272452
 21
1147.350611723059
 31
0.0
  0
LINE
  5
28B
330
1F
100
AcDbEntity
  8
0-F
  6
Continuous
 62
     3
370
     9
100
AcDbLine
 10
-799.6048838489119
 20
1159.350948241222
 30
0.0
 11
-388.1048838489076
 21
1159.350948241222
 31
0.0
  0
LINE
  5
28C
330
1F
100
AcDbEntity
  8
0-F
  6
Continuous
 62
     4
370
     9
100
AcDbLine
 10
-312.7300075688203
 20
987.3512847593795
 30
0.0
 11
-312.7300075688203
 21
957.3512847593795
 31
0.0
  0
LINE
  5
28D
330
1F
100
AcDbEntity
  8
0-F
  6
Continuous
 62
     4
370
     9
100
AcDbLine
 10
-297.7300075688203
 20
987.3512847593795
 30
0.0
 11
-297.7300075688203
 21
957.3512847593795
 31
0.0
  0
LINE
  5
28E
330
1F
100
AcDbEntity
  8
0-F
  6
Continuous
 62
     4
370
     9
100
AcDbLine
 10
-328.3184627690156
 20
987.3512847593795
 30
0.0
 11
-328.3184627690156
 21
957.3512847593795
 31
0.0
  0
LINE
  5
28F
330
1F
100
AcDbEntity
  8
0-F
  6
Continuous
 62
     4
370
     9
100
AcDbLine
 10
-328.3184627690156
 20
987.3512847593795
 30
0.0
 11
-282.141552368625
 21
987.3512847593795
 31
0.0
  0
LINE
  5
290
330
1F
100
AcDbEntity
  8
0-F
  6
Continuous
 62
     4
370
     9
100
AcDbLine
 10
-328.3184627690156
 20
957.3512847593795
 30
0.0
 11
-282.141552368625
 21
957.3512847593795
 31
0.0
  0
LINE
  5
291
330
1F
100
AcDbEntity
  8
0-F
  6
Continuous
 62
     4
370
     9
100
AcDbLine
 10
-282.141552368625
 20
987.3512847593795
 30
0.0
 11
-282.141552368625
 21
957.3512847593795
 31
0.0
  0
LINE
  5
292
330
1F
100
AcDbEntity
  8
0-F
  6
JWW_CENTER1
 62
     4
370
     9
100
AcDbLine
 10
-305.2300075688203
 20
994.4686553648492
 30
0.0
 11
-305.2300075688203
 21
951.2296111753949
 31
0.0
  0
LINE
  5
293
330
1F
100
AcDbEntity
  8
0-F
  6
Continuous
 62
     2
370
     9
100
AcDbLine
 10
-306.7299877736281
 20
1083.753064346584
 30
0.0
 11
-306.7299877736281
 21
1060.949505172171
 31
0.0
  0
LINE
  5
294
330
1F
100
AcDbEntity
  8
0-F
  6
Continuous
 62
     2
370
     9
100
AcDbLine
 10
-303.7297799241827
 20
1083.753064346584
 30
0.0
 11
-303.7297799241827
 21
1060.949505172171
 31
0.0
  0
CIRCLE
  5
295
330
1F
100
AcDbEntity
  8
0-F
  6
Continuous
 62
     2
370
     9
100
AcDbCircle
 10
-305.2300075688203
 20
1072.351284759379
 30
0.0
 40
16.00000117276166
  0
CIRCLE
  5
296
330
1F
100
AcDbEntity
  8
0-F
  6
Continuous
 62
     2
370
     9
100
AcDbCircle
 10
-305.2300075688203
 20
1072.351284759379
 30
0.0
 40
11.50000063148705
  0
CIRCLE
  5
297
330
1F
100
AcDbEntity
  8
0-F
  6
Continuous
 62
     2
370
     9
100
AcDbCircle
 10
-305.2300075688203
 20
1072.351284759379
 30
0.0
 40
12.0000011212117
  0
LINE
  5
298
330
1F
100
AcDbEntity
  8
0-F
  6
JWW_CENTER1
 62
     2
370
     9
100
AcDbLine
 10
-336.2300108680159
 20
1072.351161039465
 30
0.0
 11
-274.2300042696246
 21
1072.351161039465
 31
0.0
  0
LINE
  5
299
330
1F
100
AcDbEntity
  8
0-F
  6
JWW_CENTER1
 62
     2
370
     9
100
AcDbLine
 10
-305.2298838489099
 20
1041.351281460184
 30
0.0
 11
-305.2298838489099
 21
1103.351288058575
 31
0.0
  0
LINE
  5
29A
330
1F
100
AcDbEntity
  8
0-F
  6
Continuous
 62
     4
370
     9
100
AcDbLine
 10
-62.73000756882027
 20
987.3512847593795
 30
0.0
 11
-62.73000756882027
 21
957.3512847593795
 31
0.0
  0
LINE
  5
29B
330
1F
100
AcDbEntity
  8
0-F
  6
Continuous
 62
     4
370
     9
100
AcDbLine
 10
-47.73000756882027
 20
987.3512847593795
 30
0.0
 11
-47.73000756882027
 21
957.3512847593795
 31
0.0
  0
LINE
  5
29C
330
1F
100
AcDbEntity
  8
0-F
  6
Continuous
 62
     4
370
     9
100
AcDbLine
 10
-78.31846276901558
 20
987.3512847593795
 30
0.0
 11
-78.31846276901558
 21
957.3512847593795
 31
0.0
  0
LINE
  5
29D
330
1F
100
AcDbEntity
  8
0-F
  6
Continuous
 62
     4
370
     9
100
AcDbLine
 10
-78.31846276901558
 20
987.3512847593795
 30
0.0
 11
-32.14155236862496
 21
987.3512847593795
 31
0.0
  0
LINE
  5
29E
330
1F
100
AcDbEntity
  8
0-F
  6
Continuous
 62
     4
370
     9
100
AcDbLine
 10
-78.31846276901558
 20
957.3512847593795
 30
0.0
 11
-32.14155236862496
 21
957.3512847593795
 31
0.0
  0
LINE
  5
29F
330
1F
100
AcDbEntity
  8
0-F
  6
Continuous
 62
     4
370
     9
100
AcDbLine
 10
-32.14155236862496
 20
987.3512847593795
 30
0.0
 11
-32.14155236862496
 21
957.3512847593795
 31
0.0
  0
LINE
  5
2A0
330
1F
100
AcDbEntity
  8
0-F
  6
JWW_CENTER1
 62
     4
370
     9
100
AcDbLine
 10
-55.23000756882027
 20
994.4686553648492
 30
0.0
 11
-55.23000756882027
 21
951.2296111753949
 31
0.0
  0
LINE
  5
2A1
330
1F
100
AcDbEntity
  8
0-F
  6
Continuous
 62
     2
370
     9
100
AcDbLine
 10
-56.72998777362807
 20
1083.753064346584
 30
0.0
 11
-56.72998777362807
 21
1060.949505172171
 31
0.0
  0
LINE
  5
2A2
330
1F
100
AcDbEntity
  8
0-F
  6
Continuous
 62
     2
370
     9
100
AcDbLine
 10
-53.72977992418271
 20
1083.753064346584
 30
0.0
 11
-53.72977992418271
 21
1060.949505172171
 31
0.0
  0
CIRCLE
  5
2A3
330
1F
100
AcDbEntity
  8
0-F
  6
Continuous
 62
     2
370
     9
100
AcDbCircle
 10
-55.23000756882027
 20
1072.351284759379
 30
0.0
 40
16.00000117276166
  0
CIRCLE
  5
2A4
330
1F
100
AcDbEntity
  8
0-F
  6
Continuous
 62
     2
370
     9
100
AcDbCircle
 10
-55.23000756882027
 20
1072.351284759379
 30
0.0
 40
11.50000063148705
  0
CIRCLE
  5
2A5
330
1F
100
AcDbEntity
  8
0-F
  6
Continuous
 62
     2
370
     9
100
AcDbCircle
 10
-55.23000756882027
 20
1072.351284759379
 30
0.0
 40
12.0000011212117
  0
LINE
  5
2A6
330
1F
100
AcDbEntity
  8
0-F
  6
JWW_CENTER1
 62
     2
370
     9
100
AcDbLine
 10
-55.22988384890994
 20
1041.351281460184
 30
0.0
 11
-55.22988384890994
 21
1103.351288058575
 31
0.0
  0
LINE
  5
2A7
330
1F
100
AcDbEntity
  8
0-F
  6
JWW_CENTER1
 62
     2
370
     9
100
AcDbLine
 10
-86.23001086801594
 20
1072.351161039465
 30
0.0
 11
-24.2300042696246
 21
1072.351161039465
 31
0.0
  0
LINE
  5
2A8
330
1F
100
AcDbEntity
  8
0-F
  6
Continuous
 62
     3
370
     9
100
AcDbLine
 10
-385.9798838489121
 20
1159.350948241222
 30
0.0
 11
-373.9797947705745
 21
1147.350611723059
 31
0.0
  0
LINE
  5
2A9
330
1F
100
AcDbEntity
  8
0-F
  6
Continuous
 62
     3
370
     9
100
AcDbLine
 10
13.5200270727546
 20
1147.350611723059
 30
0.0
 11
25.52011615109222
 21
1159.350948241222
 31
0.0
  0
LINE
  5
2AA
330
1F
100
AcDbEntity
  8
0-F
  6
Continuous
 62
     3
370
     9
100
AcDbLine
 10
-373.9797947705745
 20
1147.350611723059
 30
0.0
 11
13.5200270727546
 21
1147.350611723059
 31
0.0
  0
LINE
  5
2AB
330
1F
100
AcDbEntity
  8
0-F
  6
Continuous
 62
     3
370
     9
100
AcDbLine
 10
-385.9798838489121
 20
1159.350948241222
 30
0.0
 11
25.52011615109222
 21
1159.350948241222
 31
0.0
  0
LINE
  5
2AC
330
1F
100
AcDbEntity
  8
0-F
  6
Continuous
 62
     7
370
     9
100
AcDbLine
 10
-2040.479883848912
 20
1372.350859162887
 30
0.0
 11
-1628.979883848907
 21
1372.350859162887
 31
0.0
  0
LWPOLYLINE
  5
2AD
330
1F
100
AcDbEntity
  8
0-F
  6
Continuous
 62
     7
370
     9
100
AcDbPolyline
 90
        4
 70
     1
 43
2.0
 10
-1627.979883848907
 20
1372.350859162887
 42
0.4142135623731
 10
-1628.979883848907
 20
1373.350859162887
 42
0.4142135623731
 10
-1629.979883848907
 20
1372.350859162887
 42
0.4142135623731
 10
-1628.979883848907
 20
1371.350859162887
 42
0.4142135623731
  0
TEXT
  5
2AE
330
1F
100
AcDbEntity
  8
0-F
  6
Continuous
 62
     2
370
   211
100
AcDbText
 10
-1889.729883848909
 20
1382.990859162887
 30
0.0
 40
30.48
  1
411.5
 41
1.1
  7
ＭＳ ゴシック
100
AcDbText
  0
LINE
  5
2AF
330
1F
100
AcDbEntity
  8
0-F
  6
Continuous
 62
     7
370
     9
100
AcDbLine
 10
-1628.979883848907
 20
1372.350859162887
 30
0.0
 11
-1626.854883848912
 21
1372.350859162887
 31
0.0
  0
LWPOLYLINE
  5
2B0
330
1F
100
AcDbEntity
  8
0-F
  6
Continuous
 62
     7
370
     9
100
AcDbPolyline
 90
        4
 70
     1
 43
2.0
 10
-1625.854883848912
 20
1372.350859162887
 42
0.4142135623731
 10
-1626.854883848912
 20
1373.350859162887
 42
0.4142135623731
 10
-1627.854883848911
 20
1372.350859162887
 42
0.4142135623731
 10
-1626.854883848912
 20
1371.350859162887
 42
0.4142135623731
  0
TEXT
  5
2B1
330
1F
100
AcDbEntity
  8
0-F
  6
Continuous
 62
     2
370
   211
100
AcDbText
 10
-1660.41738384891
 20
1382.990859162887
 30
0.0
 40
30.48
  1
2.1
 41
1.083333333333333
  7
ＭＳ ゴシック
100
AcDbText
  0
LINE
  5
2B2
330
1F
100
AcDbEntity
  8
0-F
  6
Continuous
 62
     7
370
     9
100
AcDbLine
 10
-1626.854883848912
 20
1372.350859162887
 30
0.0
 11
-1215.354883848907
 21
1372.350859162887
 31
0.0
  0
LWPOLYLINE
  5
2B3
330
1F
100
AcDbEntity
  8
0-F
  6
Continuous
 62
     7
370
     9
100
AcDbPolyline
 90
        4
 70
     1
 43
2.0
 10
-1214.354883848907
 20
1372.350859162887
 42
0.4142135623731
 10
-1215.354883848907
 20
1373.350859162887
 42
0.4142135623731
 10
-1216.354883848907
 20
1372.350859162887
 42
0.4142135623731
 10
-1215.354883848907
 20
1371.350859162887
 42
0.4142135623731
  0
TEXT
  5
2B4
330
1F
100
AcDbEntity
  8
0-F
  6
Continuous
 62
     2
370
   211
100
AcDbText
 10
-1476.104883848909
 20
1382.990859162887
 30
0.0
 40
30.48
  1
411.5
 41
1.1
  7
ＭＳ ゴシック
100
AcDbText
  0
LINE
  5
2B5
330
1F
100
AcDbEntity
  8
0-F
  6
Continuous
 62
     7
370
     9
100
AcDbLine
 10
-1215.354883848907
 20
1372.350859162887
 30
0.0
 11
-1213.229883848912
 21
1372.350859162887
 31
0.0
  0
LWPOLYLINE
  5
2B6
330
1F
100
AcDbEntity
  8
0-F
  6
Continuous
 62
     7
370
     9
100
AcDbPolyline
 90
        4
 70
     1
 43
2.0
 10
-1212.229883848912
 20
1372.350859162887
 42
0.4142135623731
 10
-1213.229883848912
 20
1373.350859162887
 42
0.4142135623731
 10
-1214.229883848912
 20
1372.350859162887
 42
0.4142135623731
 10
-1213.229883848912
 20
1371.350859162887
 42
0.4142135623731
  0
TEXT
  5
2B7
330
1F
100
AcDbEntity
  8
0-F
  6
Continuous
 62
     2
370
   211
100
AcDbText
 10
-1246.79238384891
 20
1382.990859162887
 30
0.0
 40
30.48
  1
2.1
 41
1.083333333333333
  7
ＭＳ ゴシック
100
AcDbText
  0
LINE
  5
2B8
330
1F
100
AcDbEntity
  8
0-F
  6
Continuous
 62
     7
370
     9
100
AcDbLine
 10
-1213.229883848912
 20
1372.350859162887
 30
0.0
 11
-801.7298838489074
 21
1372.350859162887
 31
0.0
  0
LWPOLYLINE
  5
2B9
330
1F
100
AcDbEntity
  8
0-F
  6
Continuous
 62
     7
370
     9
100
AcDbPolyline
 90
        4
 70
     1
 43
2.0
 10
-800.7298838489075
 20
1372.350859162887
 42
0.4142135623731
 10
-801.7298838489074
 20
1373.350859162887
 42
0.4142135623731
 10
-802.7298838489073
 20
1372.350859162887
 42
0.4142135623731
 10
-801.7298838489074
 20
1371.350859162887
 42
0.4142135623731
  0
TEXT
  5
2BA
330
1F
100
AcDbEntity
  8
0-F
  6
Continuous
 62
     2
370
   211
100
AcDbText
 10
-1062.47988384891
 20
1382.990859162887
 30
0.0
 40
30.48
  1
411.5
 41
1.1
  7
ＭＳ ゴシック
100
AcDbText
  0
LINE
  5
2BB
330
1F
100
AcDbEntity
  8
0-F
  6
Continuous
 62
     7
370
     9
100
AcDbLine
 10
-801.7298838489074
 20
1372.350859162887
 30
0.0
 11
-799.6048838489119
 21
1372.350859162887
 31
0.0
  0
LWPOLYLINE
  5
2BC
330
1F
100
AcDbEntity
  8
0-F
  6
Continuous
 62
     7
370
     9
100
AcDbPolyline
 90
        4
 70
     1
 43
2.0
 10
-798.604883848912
 20
1372.350859162887
 42
0.4142135623731
 10
-799.6048838489119
 20
1373.350859162887
 42
0.4142135623731
 10
-800.6048838489119
 20
1372.350859162887
 42
0.4142135623731
 10
-799.6048838489119
 20
1371.350859162887
 42
0.4142135623731
  0
TEXT
  5
2BD
330
1F
100
AcDbEntity
  8
0-F
  6
Continuous
 62
     2
370
   211
100
AcDbText
 10
-833.1673838489097
 20
1382.990859162887
 30
0.0
 40
30.48
  1
2.1
 41
1.083333333333333
  7
ＭＳ ゴシック
100
AcDbText
  0
LINE
  5
2BE
330
1F
100
AcDbEntity
  8
0-F
  6
Continuous
 62
     7
370
     9
100
AcDbLine
 10
-799.6048838489119
 20
1372.350859162887
 30
0.0
 11
-388.1048838489076
 21
1372.350859162887
 31
0.0
  0
LWPOLYLINE
  5
2BF
330
1F
100
AcDbEntity
  8
0-F
  6
Continuous
 62
     7
370
     9
100
AcDbPolyline
 90
        4
 70
     1
 43
2.0
 10
-387.1048838489076
 20
1372.350859162887
 42
0.4142135623731
 10
-388.1048838489076
 20
1373.350859162887
 42
0.4142135623731
 10
-389.1048838489076
 20
1372.350859162887
 42
0.4142135623731
 10
-388.1048838489076
 20
1371.350859162887
 42
0.4142135623731
  0
TEXT
  5
2C0
330
1F
100
AcDbEntity
  8
0-F
  6
Continuous
 62
     2
370
   211
100
AcDbText
 10
-648.8548838489098
 20
1382.990859162887
 30
0.0
 40
30.48
  1
411.5
 41
1.1
  7
ＭＳ ゴシック
100
AcDbText
  0
LINE
  5
2C1
330
1F
100
AcDbEntity
  8
0-F
  6
Continuous
 62
     7
370
     9
100
AcDbLine
 10
-388.1048838489076
 20
1372.350859162887
 30
0.0
 11
-385.9798838489121
 21
1372.350859162887
 31
0.0
  0
LWPOLYLINE
  5
2C2
330
1F
100
AcDbEntity
  8
0-F
  6
Continuous
 62
     7
370
     9
100
AcDbPolyline
 90
        4
 70
     1
 43
2.0
 10
-384.9798838489121
 20
1372.350859162887
 42
0.4142135623731
 10
-385.9798838489121
 20
1373.350859162887
 42
0.4142135623731
 10
-386.9798838489121
 20
1372.350859162887
 42
0.4142135623731
 10
-385.9798838489121
 20
1371.350859162887
 42
0.4142135623731
  0
TEXT
  5
2C3
330
1F
100
AcDbEntity
  8
0-F
  6
Continuous
 62
     2
370
   211
100
AcDbText
 10
-419.5423838489098
 20
1382.990859162887
 30
0.0
 40
30.48
  1
2.1
 41
1.083333333333333
  7
ＭＳ ゴシック
100
AcDbText
  0
LINE
  5
2C4
330
1F
100
AcDbEntity
  8
0-F
  6
Continuous
 62
     7
370
     9
100
AcDbLine
 10
-385.9798838489121
 20
1372.350859162887
 30
0.0
 11
25.52023492220314
 21
1372.350859162887
 31
0.0
  0
TEXT
  5
2C5
330
1F
100
AcDbEntity
  8
0-F
  6
Continuous
 62
     2
370
   211
100
AcDbText
 10
-235.2298244633545
 20
1382.990859162887
 30
0.0
 40
30.48
  1
411.5
 41
1.1
  7
ＭＳ ゴシック
100
AcDbText
  0
LINE
  5
2C6
330
1F
100
AcDbEntity
  8
0-F
  6
Continuous
 62
     7
370
     9
100
AcDbLine
 10
-1628.979883848907
 20
1375.350859162887
 30
0.0
 11
-1628.979883848907
 21
1303.840377658898
 31
0.0
  0
LINE
  5
2C7
330
1F
100
AcDbEntity
  8
0-F
  6
Continuous
 62
     7
370
     9
100
AcDbLine
 10
-1626.854883848912
 20
1375.350859162887
 30
0.0
 11
-1626.854883848912
 21
1303.840377658898
 31
0.0
  0
LINE
  5
2C8
330
1F
100
AcDbEntity
  8
0-F
  6
Continuous
 62
     7
370
     9
100
AcDbLine
 10
-1215.354883848907
 20
1375.350859162887
 30
0.0
 11
-1215.354883848907
 21
1303.840377658898
 31
0.0
  0
LINE
  5
2C9
330
1F
100
AcDbEntity
  8
0-F
  6
Continuous
 62
     7
370
     9
100
AcDbLine
 10
-1213.229883848912
 20
1375.350859162887
 30
0.0
 11
-1213.229883848912
 21
1303.840377658898
 31
0.0
  0
LINE
  5
2CA
330
1F
100
AcDbEntity
  8
0-F
  6
Continuous
 62
     7
370
     9
100
AcDbLine
 10
-801.7298838489074
 20
1375.350859162887
 30
0.0
 11
-801.7298838489074
 21
1303.840377658898
 31
0.0
  0
LINE
  5
2CB
330
1F
100
AcDbEntity
  8
0-F
  6
Continuous
 62
     7
370
     9
100
AcDbLine
 10
-799.6048838489119
 20
1375.350859162887
 30
0.0
 11
-799.6048838489119
 21
1303.840377658898
 31
0.0
  0
LINE
  5
2CC
330
1F
100
AcDbEntity
  8
0-F
  6
Continuous
 62
     7
370
     9
100
AcDbLine
 10
-388.1048838489076
 20
1375.350859162887
 30
0.0
 11
-388.1048838489076
 21
1303.840377658898
 31
0.0
  0
LINE
  5
2CD
330
1F
100
AcDbEntity
  8
0-F
  6
Continuous
 62
     7
370
     9
100
AcDbLine
 10
-385.9798838489121
 20
1375.350859162887
 30
0.0
 11
-385.9798838489121
 21
1303.840377658898
 31
0.0
  0
TEXT
  5
2CE
330
1F
100
AcDbEntity
  8
0-F
  6
Continuous
 62
     2
370
   211
100
AcDbText
 10
-1051.229824463354
 20
1293.990067355453
 30
0.0
 40
30.48
  1
2000
 41
1.09375
  7
ＭＳ ゴシック
100
AcDbText
  0
LWPOLYLINE
  5
2CF
330
1F
100
AcDbEntity
  8
0-F
  6
Continuous
 62
     7
370
     9
100
AcDbPolyline
 90
        4
 70
     1
 43
2.0
 10
-1958.729883848909
 20
899.0495083429857
 42
0.4142135623731
 10
-1959.729883848909
 20
900.0495083429857
 42
0.4142135623731
 10
-1960.729883848909
 20
899.0495083429857
 42
0.4142135623731
 10
-1959.729883848909
 20
898.0495083429857
 42
0.4142135623731
  0
LINE
  5
2D0
330
1F
100
AcDbEntity
  8
0-F
  6
Continuous
 62
     7
370
     9
100
AcDbLine
 10
-1959.729883848909
 20
896.0495083429856
 30
0.0
 11
-1959.729883848909
 21
1021.351281460184
 31
0.0
  0
LINE
  5
2D1
330
1F
100
AcDbEntity
  8
0-F
  6
Continuous
 62
     7
370
     9
100
AcDbLine
 10
-1844.805884758945
 20
1172.350789879735
 30
0.0
 11
-1844.805884758945
 21
1072.351161039465
 31
0.0
  0
LWPOLYLINE
  5
2D2
330
1F
100
AcDbEntity
  8
0-F
  6
Continuous
 62
     7
370
     9
100
AcDbPolyline
 90
        4
 70
     1
 43
2.0
 10
-1843.805884758945
 20
1072.351161039465
 42
0.4142135623731
 10
-1844.805884758945
 20
1073.351161039465
 42
0.4142135623731
 10
-1845.805884758945
 20
1072.351161039465
 42
0.4142135623731
 10
-1844.805884758945
 20
1071.351161039465
 42
0.4142135623731
  0
LWPOLYLINE
  5
2D3
330
1F
100
AcDbEntity
  8
0-F
  6
Continuous
 62
     7
370
     9
100
AcDbPolyline
 90
        4
 70
     1
 43
2.0
 10
-1843.805884758945
 20
1172.350789879735
 42
0.4142135623731
 10
-1844.805884758945
 20
1173.350789879735
 42
0.4142135623731
 10
-1845.805884758945
 20
1172.350789879735
 42
0.4142135623731
 10
-1844.805884758945
 20
1171.350789879735
 42
0.4142135623731
  0
TEXT
  5
2D4
330
1F
100
AcDbEntity
  8
0-F
  6
Continuous
 62
     2
370
   211
100
AcDbText
 10
-1855.445884758946
 20
1077.439220234422
 30
0.0
 40
30.48
  1
100
 50
90.0
 41
1.083333333333333
  7
ＭＳ ゴシック
100
AcDbText
  0
LINE
  5
2D5
330
1F
100
AcDbEntity
  8
0-F
  6
Continuous
 62
     7
370
     9
100
AcDbLine
 10
-1841.805884758945
 20
1072.351161039465
 30
0.0
 11
-1908.730004269624
 21
1072.351161039465
 31
0.0
  0
LWPOLYLINE
  5
2D6
330
1F
100
AcDbEntity
  8
0-F
  6
Continuous
 62
     7
370
     9
100
AcDbPolyline
 90
        4
 70
     1
 43
2.0
 10
-1708.729883848909
 20
899.0495083429857
 42
0.4142135623731
 10
-1709.729883848909
 20
900.0495083429857
 42
0.4142135623731
 10
-1710.729883848909
 20
899.0495083429857
 42
0.4142135623731
 10
-1709.729883848909
 20
898.0495083429857
 42
0.4142135623731
  0
LINE
  5
2D7
330
1F
100
AcDbEntity
  8
0-F
  6
Continuous
 62
     7
370
     9
100
AcDbLine
 10
-1709.729883848909
 20
896.0495083429856
 30
0.0
 11
-1709.729883848909
 21
1021.351281460184
 31
0.0
  0
LINE
  5
2D8
330
1F
100
AcDbEntity
  8
寸法
  6
Continuous
 62
     4
370
     9
100
AcDbLine
 10
-303.2300075688198
 20
908.0436586369927
 30
0.0
 11
-278.443886034475
 21
911.3068134424947
 31
0.0
  0
LINE
  5
2D9
330
1F
100
AcDbEntity
  8
寸法
  6
Continuous
 62
     4
370
     9
100
AcDbLine
 10
-303.2300075688198
 20
908.0436586369927
 30
0.0
 11
-278.443886034475
 21
904.780503831492
 31
0.0
  0
LINE
  5
2DA
330
1F
100
AcDbEntity
  8
寸法
  6
Continuous
 62
     4
370
     9
100
AcDbLine
 10
-303.2300075688198
 20
908.0436586369927
 30
0.0
 11
-255.7646048768839
 21
908.0436586369927
 31
0.0
  0
TEXT
  5
2DB
330
1F
100
AcDbEntity
  8
寸法
  6
Continuous
 62
     2
370
     9
100
AcDbText
 10
-248.199156692543
 20
893.2881009538264
 30
0.0
 40
30.48
  1
A
 41
0.9999999999999998
  7
ＭＳ ゴシック
100
AcDbText
  0
LINE
  5
2DC
330
1F
100
AcDbEntity
  8
寸法
  6
JWW_CENTER1
 62
     4
370
     9
100
AcDbLine
 10
-305.2300075688203
 20
908.0436586369927
 30
0.0
 11
-305.2300075688203
 21
1223.167671100811
 31
0.0
  0
LINE
  5
2DD
330
1F
100
AcDbEntity
  8
寸法
  6
Continuous
 62
     4
370
     9
100
AcDbLine
 10
-303.2300075688198
 20
1243.167671100811
 30
0.0
 11
-278.443886034475
 21
1246.430825906312
 31
0.0
  0
LINE
  5
2DE
330
1F
100
AcDbEntity
  8
寸法
  6
Continuous
 62
     4
370
     9
100
AcDbLine
 10
-303.2300075688198
 20
1243.167671100811
 30
0.0
 11
-278.443886034475
 21
1239.904516295309
 31
0.0
  0
LINE
  5
2DF
330
1F
100
AcDbEntity
  8
寸法
  6
Continuous
 62
     4
370
     9
100
AcDbLine
 10
-303.2300075688198
 20
1243.167671100811
 30
0.0
 11
-255.7646048768839
 21
1243.167671100811
 31
0.0
  0
TEXT
  5
2E0
330
1F
100
AcDbEntity
  8
寸法
  6
Continuous
 62
     2
370
     9
100
AcDbText
 10
-248.199156692543
 20
1228.412113417645
 30
0.0
 40
30.48
  1
A
 41
0.9999999999999998
  7
ＭＳ ゴシック
100
AcDbText
  0
LINE
  5
2E1
330
1F
100
AcDbEntity
  8
寸法
  6
Continuous
 62
     7
370
     9
100
AcDbLine
 10
-1290.006304648374
 20
-445.4248471628664
 30
0.0
 11
-724.9532205584242
 21
-445.4248471628664
 31
0.0
  0
TEXT
  5
2E2
330
1F
100
AcDbEntity
  8
寸法
  6
Continuous
 62
     2
370
     9
100
AcDbText
 10
-1274.979762603399
 20
-429.9802916307716
 30
0.0
 40
30.48
  1
平面詳細図　Ｓ＝１：１０
 41
1.114583333333334
  7
ＭＳ ゴシック
100
AcDbText
  0
LINE
  5
2E3
330
1F
100
AcDbEntity
  8
0-E
  6
Continuous
 62
     3
370
     9
100
AcDbLine
 10
-2087.679708579041
 20
-39.64916393149792
 30
0.0
 11
-2087.679708579041
 21
0.3508360685020762
 31
0.0
  0
LINE
  5
2E4
330
1F
100
AcDbEntity
  8
0-E
  6
Continuous
 62
     3
370
     9
100
AcDbLine
 10
-2087.679708579041
 20
-39.64916393149792
 30
0.0
 11
-2053.479753530607
 21
-39.64916393149792
 31
0.0
  0
LINE
  5
2E5
330
1F
100
AcDbEntity
  8
0-E
  6
Continuous
 62
     3
370
     9
100
AcDbLine
 10
-2087.679708579041
 20
0.3508360685020762
 30
0.0
 11
-2053.479753530607
 21
0.3508360685020762
 31
0.0
  0
CIRCLE
  5
2E6
330
1F
100
AcDbEntity
  8
0-E
  6
Continuous
 62
     3
370
     9
100
AcDbCircle
 10
-2072.679708579041
 20
-19.64916393149792
 30
0.0
 40
6.999999999998181
  0
LINE
  5
2E7
330
1F
100
AcDbEntity
  8
0-E
  6
JWW_CENTER1
 62
     3
370
     9
100
AcDbLine
 10
-2094.652707605311
 20
-19.64916393149792
 30
0.0
 11
-2053.479753530607
 21
-19.64916393149792
 31
0.0
  0
LINE
  5
2E8
330
1F
100
AcDbEntity
  8
0-E
  6
JWW_CENTER1
 62
     3
370
     9
100
AcDbLine
 10
-2072.679708579041
 20
4.728077531709687
 30
0.0
 11
-2072.679708579041
 21
-44.0264053947044
 31
0.0
  0
LINE
  5
2E9
330
1F
100
AcDbEntity
  8
0-E
  6
Continuous
 62
     3
370
     9
100
AcDbLine
 10
-1933.479815390557
 20
-153.849057119977
 30
0.0
 11
-1973.479815390557
 21
-153.849057119977
 31
0.0
  0
LINE
  5
2EA
330
1F
100
AcDbEntity
  8
0-E
  6
Continuous
 62
     3
370
     9
100
AcDbLine
 10
-1933.479815390557
 20
-153.849057119977
 30
0.0
 11
-1933.479815390557
 21
-119.6491020715428
 31
0.0
  0
LINE
  5
2EB
330
1F
100
AcDbEntity
  8
0-E
  6
Continuous
 62
     3
370
     9
100
AcDbLine
 10
-1973.479815390557
 20
-153.849057119977
 30
0.0
 11
-1973.479815390557
 21
-119.6491020715428
 31
0.0
  0
CIRCLE
  5
2EC
330
1F
100
AcDbEntity
  8
0-E
  6
Continuous
 62
     3
370
     9
100
AcDbCircle
 10
-1953.479815390557
 20
-138.849057119977
 30
0.0
 40
6.999999999998181
  0
LINE
  5
2ED
330
1F
100
AcDbEntity
  8
0-E
  6
JWW_CENTER1
 62
     3
370
     9
100
AcDbLine
 10
-1953.479815390557
 20
-160.8220561462474
 30
0.0
 11
-1953.479815390557
 21
-119.6491020715428
 31
0.0
  0
LINE
  5
2EE
330
1F
100
AcDbEntity
  8
0-E
  6
JWW_CENTER1
 62
     3
370
     9
100
AcDbLine
 10
-1977.857056853765
 20
-138.849057119977
 30
0.0
 11
-1929.10257392735
 21
-138.849057119977
 31
0.0
  0
LINE
  5
2EF
330
1F
100
AcDbEntity
  8
0-F
  6
Continuous
 62
     7
370
     9
100
AcDbLine
 10
-1953.479401335896
 20
-183.1596656259433
 30
0.0
 11
-1953.479401335896
 21
-286.0159459785609
 31
0.0
  0
LINE
  5
2F0
330
1F
100
AcDbEntity
  8
0-F
  6
Continuous
 62
     7
370
     9
100
AcDbLine
 10
-2053.479731255659
 20
-145.8600918822776
 30
0.0
 11
-2053.479731255659
 21
-286.0159459785609
 31
0.0
  0
LWPOLYLINE
  5
2F1
330
1F
100
AcDbEntity
  8
0-F
  6
Continuous
 62
     7
370
     9
100
AcDbPolyline
 90
        4
 70
     1
 43
2.0
 10
-2052.479731255659
 20
-281.0159294825735
 42
0.4142135623731
 10
-2053.479731255659
 20
-280.0159294825735
 42
0.4142135623731
 10
-2054.479731255659
 20
-281.0159294825735
 42
0.4142135623731
 10
-2053.479731255659
 20
-282.0159294825735
 42
0.4142135623731
  0
LINE
  5
2F2
330
1F
100
AcDbEntity
  8
0-F
  6
Continuous
 62
     7
370
     9
100
AcDbLine
 10
-2087.679979203245
 20
-286.0159294825735
 30
0.0
 11
-2087.679979203245
 21
-70.85995991437244
 31
0.0
  0
LINE
  5
2F3
330
1F
100
AcDbEntity
  8
0-F
  6
Continuous
 62
     7
370
     9
100
AcDbLine
 10
-2087.679979203245
 20
-281.0159294825735
 30
0.0
 11
-2053.479731255659
 21
-281.0159294825735
 31
0.0
  0
LWPOLYLINE
  5
2F4
330
1F
100
AcDbEntity
  8
0-F
  6
Continuous
 62
     7
370
     9
100
AcDbPolyline
 90
        4
 70
     1
 43
2.0
 10
-2086.679979203245
 20
-281.0159294825735
 42
0.4142135623731
 10
-2087.679979203245
 20
-280.0159294825735
 42
0.4142135623731
 10
-2088.679979203244
 20
-281.0159294825735
 42
0.4142135623731
 10
-2087.679979203245
 20
-282.0159294825735
 42
0.4142135623731
  0
LINE
  5
2F5
330
1F
100
AcDbEntity
  8
0-F
  6
Continuous
 62
     7
370
     9
100
AcDbLine
 10
-2053.479731255659
 20
-281.0159294825735
 30
0.0
 11
-1953.479401335896
 21
-281.0159294825735
 31
0.0
  0
LWPOLYLINE
  5
2F6
330
1F
100
AcDbEntity
  8
0-F
  6
Continuous
 62
     7
370
     9
100
AcDbPolyline
 90
        4
 70
     1
 43
2.0
 10
-1952.479401335896
 20
-281.0159294825735
 42
0.4142135623731
 10
-1953.479401335896
 20
-280.0159294825735
 42
0.4142135623731
 10
-1954.479401335896
 20
-281.0159294825735
 42
0.4142135623731
 10
-1953.479401335896
 20
-282.0159294825735
 42
0.4142135623731
  0
TEXT
  5
2F7
330
1F
100
AcDbEntity
  8
0-F
  6
Continuous
 62
     2
370
   211
100
AcDbText
 10
-2035.979566295777
 20
-269.3759294825733
 30
0.0
 40
30.48
  1
100
 41
1.083333333333333
  7
ＭＳ ゴシック
100
AcDbText
  0
TEXT
  5
2F8
330
1F
100
AcDbEntity
  8
0-F
  6
Continuous
 62
     2
370
   211
100
AcDbText
 10
-2091.829855229452
 20
-339.5975049417651
 30
0.0
 40
30.48
  1
34
 41
1.0625
  7
ＭＳ ゴシック
100
AcDbText
  0
LINE
  5
2F9
330
1F
100
AcDbEntity
  8
建具
  6
Continuous
 62
     2
370
     9
100
AcDbLine
 10
-2041.479788172179
 20
-107.6490748531648
 30
0.0
 11
-2053.479753530607
 21
-119.6491639314979
 31
0.0
  0
LINE
  5
2FA
330
1F
100
AcDbEntity
  8
0-E
  6
Continuous
 62
     3
370
     9
100
AcDbLine
 10
-41.47970981623644
 20
-153.849057119977
 30
0.0
 11
-81.47970981623644
 21
-153.849057119977
 31
0.0
  0
LINE
  5
2FB
330
1F
100
AcDbEntity
  8
0-E
  6
Continuous
 62
     3
370
     9
100
AcDbLine
 10
-41.47970981623644
 20
-153.849057119977
 30
0.0
 11
-41.47970981623644
 21
-119.6491020715428
 31
0.0
  0
LINE
  5
2FC
330
1F
100
AcDbEntity
  8
0-E
  6
Continuous
 62
     3
370
     9
100
AcDbLine
 10
-81.47970981623644
 20
-153.849057119977
 30
0.0
 11
-81.47970981623644
 21
-119.6491020715428
 31
0.0
  0
CIRCLE
  5
2FD
330
1F
100
AcDbEntity
  8
0-E
  6
Continuous
 62
     3
370
     9
100
AcDbCircle
 10
-61.47970981623644
 20
-138.849057119977
 30
0.0
 40
6.999999999998181
  0
LINE
  5
2FE
330
1F
100
AcDbEntity
  8
0-E
  6
JWW_CENTER1
 62
     3
370
     9
100
AcDbLine
 10
-61.47970981623644
 20
-160.8220561462474
 30
0.0
 11
-61.47970981623644
 21
-119.6491020715428
 31
0.0
  0
LINE
  5
2FF
330
1F
100
AcDbEntity
  8
0-E
  6
JWW_CENTER1
 62
     3
370
     9
100
AcDbLine
 10
-85.85695127944405
 20
-138.849057119977
 30
0.0
 11
-37.10246835302883
 21
-138.849057119977
 31
0.0
  0
LINE
  5
300
330
1F
100
AcDbEntity
  8
0-E
  6
Continuous
 62
     3
370
     9
100
AcDbLine
 10
72.72018337224267
 20
0.3508360685066236
 30
0.0
 11
72.72018337224267
 21
-39.64916393149338
 31
0.0
  0
LINE
  5
301
330
1F
100
AcDbEntity
  8
0-E
  6
Continuous
 62
     3
370
     9
100
AcDbLine
 10
72.72018337224267
 20
0.3508360685066236
 30
0.0
 11
38.5202283238084
 21
0.3508360685066236
 31
0.0
  0
LINE
  5
302
330
1F
100
AcDbEntity
  8
0-E
  6
Continuous
 62
     3
370
     9
100
AcDbLine
 10
72.72018337224267
 20
-39.64916393149338
 30
0.0
 11
38.5202283238084
 21
-39.64916393149338
 31
0.0
  0
CIRCLE
  5
303
330
1F
100
AcDbEntity
  8
0-E
  6
Continuous
 62
     3
370
     9
100
AcDbCircle
 10
57.72018337224267
 20
-19.64916393149338
 30
0.0
 40
6.999999999998181
  0
LINE
  5
304
330
1F
100
AcDbEntity
  8
0-E
  6
JWW_CENTER1
 62
     3
370
     9
100
AcDbLine
 10
79.69318239851304
 20
-19.64916393149338
 30
0.0
 11
38.5202283238084
 21
-19.64916393149338
 31
0.0
  0
LINE
  5
305
330
1F
100
AcDbEntity
  8
0-E
  6
JWW_CENTER1
 62
     3
370
     9
100
AcDbLine
 10
57.72018337224267
 20
-44.02640539470099
 30
0.0
 11
57.72018337224267
 21
4.728077531713097
 31
0.0
  0
LINE
  5
306
330
1F
100
AcDbEntity
  8
0-F
  6
Continuous
 62
     7
370
     9
100
AcDbLine
 10
-61.47921328163022
 20
-179.7878031628943
 30
0.0
 11
-61.47809980242812
 21
-286.0159459785609
 31
0.0
  0
LWPOLYLINE
  5
307
330
1F
100
AcDbEntity
  8
0-F
  6
Continuous
 62
     7
370
     9
100
AcDbPolyline
 90
        4
 70
     1
 43
2.0
 10
39.52185895760158
 20
-281.0149397232829
 42
0.4142135623731
 10
38.52185895760158
 20
-280.0149397232829
 42
0.4142135623731
 10
37.52185895760158
 20
-281.0149397232829
 42
0.4142135623731
 10
38.52185895760158
 20
-282.0149397232829
 42
0.4142135623731
  0
LINE
  5
308
330
1F
100
AcDbEntity
  8
0-F
  6
Continuous
 62
     7
370
     9
100
AcDbLine
 10
72.72037482642872
 20
-286.0149397232829
 30
0.0
 11
72.72037482642872
 21
-70.85995991437244
 31
0.0
  0
LWPOLYLINE
  5
309
330
1F
100
AcDbEntity
  8
0-F
  6
Continuous
 62
     7
370
     9
100
AcDbPolyline
 90
        4
 70
     1
 43
2.0
 10
-60.47809980242812
 20
-281.0159294825735
 42
0.4142135623731
 10
-61.47809980242812
 20
-280.0159294825735
 42
0.4142135623731
 10
-62.47809980242812
 20
-281.0159294825735
 42
0.4142135623731
 10
-61.47809980242812
 20
-282.0159294825735
 42
0.4142135623731
  0
LINE
  5
30A
330
1F
100
AcDbEntity
  8
0-F
  6
Continuous
 62
     7
370
     9
100
AcDbLine
 10
-61.47809980242812
 20
-281.0159294825735
 30
0.0
 11
38.52185895760158
 21
-281.0159294825735
 31
0.0
  0
TEXT
  5
30B
330
1F
100
AcDbEntity
  8
0-F
  6
Continuous
 62
     2
370
   211
100
AcDbText
 10
-43.97812042241327
 20
-269.3759294825733
 30
0.0
 40
30.48
  1
100
 41
1.083333333333333
  7
ＭＳ ゴシック
100
AcDbText
  0
LINE
  5
30C
330
1F
100
AcDbEntity
  8
0-F
  6
Continuous
 62
     7
370
     9
100
AcDbLine
 10
38.52185895760158
 20
-281.0159294825735
 30
0.0
 11
72.72037482642901
 21
-281.0159294825735
 31
0.0
  0
LWPOLYLINE
  5
30D
330
1F
100
AcDbEntity
  8
0-F
  6
Continuous
 62
     7
370
     9
100
AcDbPolyline
 90
        4
 70
     1
 43
2.0
 10
73.72037482642901
 20
-281.0159294825735
 42
0.4142135623731
 10
72.72037482642901
 20
-280.0159294825735
 42
0.4142135623731
 10
71.72037482642901
 20
-281.0159294825735
 42
0.4142135623731
 10
72.72037482642901
 20
-282.0159294825735
 42
0.4142135623731
  0
LINE
  5
30E
330
1F
100
AcDbEntity
  8
0-F
  6
Continuous
 62
     7
370
     9
100
AcDbLine
 10
38.5204980385771
 20
-145.8599681623662
 30
0.0
 11
38.52198267677579
 21
-286.0148866939926
 31
0.0
  0
TEXT
  5
30F
330
1F
100
AcDbEntity
  8
0-F
  6
Continuous
 62
     2
370
   211
100
AcDbText
 10
34.37111689201515
 20
-339.5975049417651
 30
0.0
 40
30.48
  1
34
 41
1.0625
  7
ＭＳ ゴシック
100
AcDbText
  0
LINE
  5
310
330
1F
100
AcDbEntity
  8
建具
  6
Continuous
 62
     2
370
     9
100
AcDbLine
 10
26.52038668529599
 20
-107.6490748531648
 30
0.0
 11
38.5202283238084
 21
-119.6491639314979
 31
0.0
  0
LINE
  5
311
330
1F
100
AcDbEntity
  8
0-F
  6
Continuous
 62
     7
370
     9
100
AcDbLine
 10
163.5041725327552
 20
-119.6491639314979
 30
0.0
 11
163.5041725327552
 21
-19.64883401173438
 31
0.0
  0
LINE
  5
312
330
1F
100
AcDbEntity
  8
0-F
  6
Continuous
 62
     7
370
     9
100
AcDbLine
 10
53.52021595181668
 20
-119.6491639314979
 30
0.0
 11
168.5041890287438
 21
-119.6491639314979
 31
0.0
  0
LINE
  5
313
330
1F
100
AcDbEntity
  8
0-F
  6
Continuous
 62
     7
370
     9
100
AcDbLine
 10
94.03613623000552
 20
-19.64883401173438
 30
0.0
 11
168.5041890287438
 21
-19.64883401173438
 31
0.0
  0
TEXT
  5
314
330
1F
100
AcDbEntity
  8
0-F
  6
Continuous
 62
     2
370
     9
100
AcDbText
 10
151.8641898535427
 20
-102.148968041638
 30
0.0
 40
30.48
  1
100
 50
90.0
 41
1.083333333333333
  7
ＭＳ ゴシック
100
AcDbText
  0
LWPOLYLINE
  5
315
330
1F
100
AcDbEntity
  8
0-F
  6
Continuous
 62
     7
370
     9
100
AcDbPolyline
 90
        4
 70
     1
 43
2.0
 10
164.5041725327553
 20
-119.6491639314979
 42
0.4142135623731
 10
163.5041725327552
 20
-118.6491639314979
 42
0.4142135623731
 10
162.5041725327552
 20
-119.6491639314979
 42
0.4142135623731
 10
163.5041725327552
 20
-120.6491639314979
 42
0.4142135623731
  0
LWPOLYLINE
  5
316
330
1F
100
AcDbEntity
  8
0-F
  6
Continuous
 62
     7
370
     9
100
AcDbPolyline
 90
        4
 70
     1
 43
2.0
 10
164.5041725327553
 20
-19.64883401173438
 42
0.4142135623731
 10
163.5041725327552
 20
-18.64883401173438
 42
0.4142135623731
 10
162.5041725327552
 20
-19.64883401173438
 42
0.4142135623731
 10
163.5041725327552
 20
-20.64883401173438
 42
0.4142135623731
  0
LINE
  5
317
330
1F
100
AcDbEntity
  8
0-F
  6
Continuous
 62
     7
370
     9
100
AcDbLine
 10
163.5041725327552
 20
-119.6491639314979
 30
0.0
 11
163.5041725327552
 21
-153.8494118790845
 31
0.0
  0
LWPOLYLINE
  5
318
330
1F
100
AcDbEntity
  8
0-F
  6
Continuous
 62
     7
370
     9
100
AcDbPolyline
 90
        4
 70
     1
 43
2.0
 10
164.5041725327553
 20
-153.8494118790845
 42
0.4142135623731
 10
163.5041725327552
 20
-152.8494118790845
 42
0.4142135623731
 10
162.5041725327552
 20
-153.8494118790845
 42
0.4142135623731
 10
163.5041725327552
 20
-154.8494118790845
 42
0.4142135623731
  0
LINE
  5
319
330
1F
100
AcDbEntity
  8
0-F
  6
Continuous
 62
     7
370
     9
100
AcDbLine
 10
168.5041725327552
 20
-153.8494118790845
 30
0.0
 11
-21.47973043622301
 21
-153.8494118790845
 31
0.0
  0
TEXT
  5
31A
330
1F
100
AcDbEntity
  8
0-F
  6
Continuous
 62
     2
370
   211
100
AcDbText
 10
151.8641898535427
 20
-211.8011162230852
 30
0.0
 40
30.48
  1
34
 50
90.0
 41
1.0625
  7
ＭＳ ゴシック
100
AcDbText
  0
LINE
  5
31B
330
1F
100
AcDbEntity
  8
0-F
  6
Continuous
 62
     7
370
     9
100
AcDbLine
 10
163.5041725327552
 20
-153.8494118790845
 30
0.0
 11
163.5041725327552
 21
-211.8011162230852
 31
0.0
  0
LINE
  5
31C
330
1F
100
AcDbEntity
  8
躯体
  6
JWW_DASHED2
 62
     2
370
     9
100
AcDbLine
 10
-7.4797007434438
 20
-73.6491111443354
 30
0.0
 11
-2007.479824463354
 21
-73.6491111443354
 31
0.0
  0
LINE
  5
31D
330
1F
100
AcDbEntity
  8
建具
  6
Continuous
 62
     2
370
     9
100
AcDbLine
 10
26.52038668529599
 20
-107.6490748531648
 30
0.0
 11
-2041.479788172179
 21
-107.6490748531648
 31
0.0
  0
LINE
  5
31E
330
1F
100
AcDbEntity
  8
建具
  6
Continuous
 62
     2
370
     9
100
AcDbLine
 10
38.5202283238084
 20
-119.6491639314979
 30
0.0
 11
-2053.479753530607
 21
-119.6491639314979
 31
0.0
  0
LINE
  5
31F
330
1F
100
AcDbEntity
  8
0-E
  6
Continuous
 62
     3
370
     9
100
AcDbLine
 10
-1460.479815390557
 20
-153.849057119977
 30
0.0
 11
-1500.479815390557
 21
-153.849057119977
 31
0.0
  0
LINE
  5
320
330
1F
100
AcDbEntity
  8
0-E
  6
Continuous
 62
     3
370
     9
100
AcDbLine
 10
-1460.479815390557
 20
-153.849057119977
 30
0.0
 11
-1460.479815390557
 21
-119.6491020715428
 31
0.0
  0
LINE
  5
321
330
1F
100
AcDbEntity
  8
0-E
  6
Continuous
 62
     3
370
     9
100
AcDbLine
 10
-1500.479815390557
 20
-153.849057119977
 30
0.0
 11
-1500.479815390557
 21
-119.6491020715428
 31
0.0
  0
CIRCLE
  5
322
330
1F
100
AcDbEntity
  8
0-E
  6
Continuous
 62
     3
370
     9
100
AcDbCircle
 10
-1480.479815390557
 20
-138.849057119977
 30
0.0
 40
6.999999999998181
  0
LINE
  5
323
330
1F
100
AcDbEntity
  8
0-E
  6
JWW_CENTER1
 62
     3
370
     9
100
AcDbLine
 10
-1480.479815390557
 20
-160.8220561462474
 30
0.0
 11
-1480.479815390557
 21
-119.6491020715428
 31
0.0
  0
LINE
  5
324
330
1F
100
AcDbEntity
  8
0-E
  6
JWW_CENTER1
 62
     3
370
     9
100
AcDbLine
 10
-1504.857056853765
 20
-138.849057119977
 30
0.0
 11
-1456.10257392735
 21
-138.849057119977
 31
0.0
  0
LINE
  5
325
330
1F
100
AcDbEntity
  8
0-E
  6
Continuous
 62
     3
370
     9
100
AcDbLine
 10
-987.4798153905576
 20
-153.849057119977
 30
0.0
 11
-1027.479815390558
 21
-153.849057119977
 31
0.0
  0
LINE
  5
326
330
1F
100
AcDbEntity
  8
0-E
  6
Continuous
 62
     3
370
     9
100
AcDbLine
 10
-987.4798153905576
 20
-153.849057119977
 30
0.0
 11
-987.4798153905576
 21
-119.6491020715428
 31
0.0
  0
LINE
  5
327
330
1F
100
AcDbEntity
  8
0-E
  6
Continuous
 62
     3
370
     9
100
AcDbLine
 10
-1027.479815390558
 20
-153.849057119977
 30
0.0
 11
-1027.479815390558
 21
-119.6491020715428
 31
0.0
  0
CIRCLE
  5
328
330
1F
100
AcDbEntity
  8
0-E
  6
Continuous
 62
     3
370
     9
100
AcDbCircle
 10
-1007.479815390558
 20
-138.849057119977
 30
0.0
 40
6.999999999998181
  0
LINE
  5
329
330
1F
100
AcDbEntity
  8
0-E
  6
JWW_CENTER1
 62
     3
370
     9
100
AcDbLine
 10
-1007.479815390558
 20
-160.8220561462474
 30
0.0
 11
-1007.479815390558
 21
-119.6491020715428
 31
0.0
  0
LINE
  5
32A
330
1F
100
AcDbEntity
  8
0-E
  6
JWW_CENTER1
 62
     3
370
     9
100
AcDbLine
 10
-1031.857056853765
 20
-138.849057119977
 30
0.0
 11
-983.10257392735
 21
-138.849057119977
 31
0.0
  0
LINE
  5
32B
330
1F
100
AcDbEntity
  8
0-E
  6
Continuous
 62
     3
370
     9
100
AcDbLine
 10
-514.4798153905577
 20
-153.849057119977
 30
0.0
 11
-554.4798153905577
 21
-153.849057119977
 31
0.0
  0
LINE
  5
32C
330
1F
100
AcDbEntity
  8
0-E
  6
Continuous
 62
     3
370
     9
100
AcDbLine
 10
-514.4798153905577
 20
-153.849057119977
 30
0.0
 11
-514.4798153905577
 21
-119.6491020715428
 31
0.0
  0
LINE
  5
32D
330
1F
100
AcDbEntity
  8
0-E
  6
Continuous
 62
     3
370
     9
100
AcDbLine
 10
-554.4798153905577
 20
-153.849057119977
 30
0.0
 11
-554.4798153905577
 21
-119.6491020715428
 31
0.0
  0
CIRCLE
  5
32E
330
1F
100
AcDbEntity
  8
0-E
  6
Continuous
 62
     3
370
     9
100
AcDbCircle
 10
-534.4798153905577
 20
-138.849057119977
 30
0.0
 40
6.999999999998181
  0
LINE
  5
32F
330
1F
100
AcDbEntity
  8
0-E
  6
JWW_CENTER1
 62
     3
370
     9
100
AcDbLine
 10
-534.4798153905577
 20
-160.8220561462474
 30
0.0
 11
-534.4798153905577
 21
-119.6491020715428
 31
0.0
  0
LINE
  5
330
330
1F
100
AcDbEntity
  8
0-E
  6
JWW_CENTER1
 62
     3
370
     9
100
AcDbLine
 10
-558.8570568537654
 20
-138.849057119977
 30
0.0
 11
-510.1025739273501
 21
-138.849057119977
 31
0.0
  0
LINE
  5
331
330
1F
100
AcDbEntity
  8
0-F
  6
Continuous
 62
     7
370
     9
100
AcDbLine
 10
-1953.479401335896
 20
-281.0159294825735
 30
0.0
 11
-1480.479815390557
 21
-281.0159294825735
 31
0.0
  0
LWPOLYLINE
  5
332
330
1F
100
AcDbEntity
  8
0-F
  6
Continuous
 62
     7
370
     9
100
AcDbPolyline
 90
        4
 70
     1
 43
2.0
 10
-1479.479815390557
 20
-281.0159294825735
 42
0.4142135623731
 10
-1480.479815390557
 20
-280.0159294825735
 42
0.4142135623731
 10
-1481.479815390557
 20
-281.0159294825735
 42
0.4142135623731
 10
-1480.479815390557
 20
-282.0159294825735
 42
0.4142135623731
  0
LINE
  5
333
330
1F
100
AcDbEntity
  8
0-F
  6
Continuous
 62
     7
370
     9
100
AcDbLine
 10
-1480.479815390557
 20
-284.0159294825735
 30
0.0
 11
-1480.479815390557
 21
-180.8220561462474
 31
0.0
  0
TEXT
  5
334
330
1F
100
AcDbEntity
  8
0-F
  6
Continuous
 62
     2
370
   211
100
AcDbText
 10
-1749.479608363227
 20
-270.3759294825735
 30
0.0
 40
30.48
  1
473
 41
1.083333333333333
  7
ＭＳ ゴシック
100
AcDbText
  0
LINE
  5
335
330
1F
100
AcDbEntity
  8
0-F
  6
Continuous
 62
     7
370
     9
100
AcDbLine
 10
-1480.479815390557
 20
-281.0159294825735
 30
0.0
 11
-1007.479815390558
 21
-281.0159294825735
 31
0.0
  0
LWPOLYLINE
  5
336
330
1F
100
AcDbEntity
  8
0-F
  6
Continuous
 62
     7
370
     9
100
AcDbPolyline
 90
        4
 70
     1
 43
2.0
 10
-1006.479815390558
 20
-281.0159294825735
 42
0.4142135623731
 10
-1007.479815390558
 20
-280.0159294825735
 42
0.4142135623731
 10
-1008.479815390558
 20
-281.0159294825735
 42
0.4142135623731
 10
-1007.479815390558
 20
-282.0159294825735
 42
0.4142135623731
  0
LINE
  5
337
330
1F
100
AcDbEntity
  8
0-F
  6
Continuous
 62
     7
370
     9
100
AcDbLine
 10
-1007.479815390558
 20
-284.0159294825735
 30
0.0
 11
-1007.479815390558
 21
-180.8220561462474
 31
0.0
  0
TEXT
  5
338
330
1F
100
AcDbEntity
  8
0-F
  6
Continuous
 62
     2
370
   211
100
AcDbText
 10
-1276.479815390557
 20
-270.3759294825735
 30
0.0
 40
30.48
  1
473
 41
1.083333333333333
  7
ＭＳ ゴシック
100
AcDbText
  0
LINE
  5
339
330
1F
100
AcDbEntity
  8
0-F
  6
Continuous
 62
     7
370
     9
100
AcDbLine
 10
-1007.479815390558
 20
-281.0159294825735
 30
0.0
 11
-534.4798153905577
 21
-281.0159294825735
 31
0.0
  0
LWPOLYLINE
  5
33A
330
1F
100
AcDbEntity
  8
0-F
  6
Continuous
 62
     7
370
     9
100
AcDbPolyline
 90
        4
 70
     1
 43
2.0
 10
-533.4798153905577
 20
-281.0159294825735
 42
0.4142135623731
 10
-534.4798153905577
 20
-280.0159294825735
 42
0.4142135623731
 10
-535.4798153905577
 20
-281.0159294825735
 42
0.4142135623731
 10
-534.4798153905577
 20
-282.0159294825735
 42
0.4142135623731
  0
LINE
  5
33B
330
1F
100
AcDbEntity
  8
0-F
  6
Continuous
 62
     7
370
     9
100
AcDbLine
 10
-534.4798153905577
 20
-284.0159294825735
 30
0.0
 11
-534.4798153905577
 21
-180.8220561462474
 31
0.0
  0
TEXT
  5
33C
330
1F
100
AcDbEntity
  8
0-F
  6
Continuous
 62
     2
370
   211
100
AcDbText
 10
-803.4798153905576
 20
-270.3759294825735
 30
0.0
 40
30.48
  1
473
 41
1.083333333333333
  7
ＭＳ ゴシック
100
AcDbText
  0
LINE
  5
33D
330
1F
100
AcDbEntity
  8
0-F
  6
Continuous
 62
     7
370
     9
100
AcDbLine
 10
-534.4798153905577
 20
-281.0159294825735
 30
0.0
 11
-61.47809980242812
 21
-281.0159294825735
 31
0.0
  0
TEXT
  5
33E
330
1F
100
AcDbEntity
  8
0-F
  6
Continuous
 62
     2
370
   211
100
AcDbText
 10
-330.4789575964929
 20
-270.3759294825735
 30
0.0
 40
30.48
  1
473
 41
1.083333333333333
  7
ＭＳ ゴシック
100
AcDbText
  0
LINE
  5
33F
330
1F
100
AcDbEntity
  8
0-F
  6
Continuous
 62
     7
370
     9
100
AcDbLine
 10
-2022.479873951319
 20
-73.6491111443354
 30
0.0
 11
-2149.103715772631
 21
-73.6491111443354
 31
0.0
  0
LWPOLYLINE
  5
340
330
1F
100
AcDbEntity
  8
0-F
  6
Continuous
 62
     7
370
     9
100
AcDbPolyline
 90
        4
 70
     1
 43
2.0
 10
-2143.103699276643
 20
-73.6491111443354
 42
0.4142135623731
 10
-2144.103699276643
 20
-72.6491111443354
 42
0.4142135623731
 10
-2145.103699276643
 20
-73.6491111443354
 42
0.4142135623731
 10
-2144.103699276643
 20
-74.6491111443354
 42
0.4142135623731
  0
LINE
  5
341
330
1F
100
AcDbEntity
  8
0-F
  6
Continuous
 62
     7
370
     9
100
AcDbLine
 10
-2055.479933336876
 20
-106.6491705298927
 30
0.0
 11
-2255.27306308706
 21
-106.6491705298927
 31
0.0
  0
LWPOLYLINE
  5
342
330
1F
100
AcDbEntity
  8
0-F
  6
Continuous
 62
     7
370
     9
100
AcDbPolyline
 90
        4
 70
     1
 43
2.0
 10
-2249.273046591071
 20
-106.6491705298927
 42
0.4142135623731
 10
-2250.273046591071
 20
-105.6491705298927
 42
0.4142135623731
 10
-2251.273046591071
 20
-106.6491705298927
 42
0.4142135623731
 10
-2250.273046591071
 20
-107.6491705298927
 42
0.4142135623731
  0
LINE
  5
343
330
1F
100
AcDbEntity
  8
0-F
  6
Continuous
 62
     7
370
     9
100
AcDbLine
 10
-2068.479926738481
 20
-119.6491639314979
 30
0.0
 11
-2357.7362856364
 21
-119.6491639314979
 31
0.0
  0
LWPOLYLINE
  5
344
330
1F
100
AcDbEntity
  8
0-F
  6
Continuous
 62
     7
370
     9
100
AcDbPolyline
 90
        4
 70
     1
 43
2.0
 10
-2351.736269140413
 20
-119.6491639314979
 42
0.4142135623731
 10
-2352.736269140413
 20
-118.6491639314979
 42
0.4142135623731
 10
-2353.736269140413
 20
-119.6491639314979
 42
0.4142135623731
 10
-2352.736269140413
 20
-120.6491639314979
 42
0.4142135623731
  0
LINE
  5
345
330
1F
100
AcDbEntity
  8
0-F
  6
Continuous
 62
     4
370
     9
100
AcDbLine
 10
-1967.230007568819
 20
65.35043686558716
 30
0.0
 11
-1967.230007568819
 21
95.35043686558772
 31
0.0
  0
LINE
  5
346
330
1F
100
AcDbEntity
  8
0-F
  6
Continuous
 62
     4
370
     9
100
AcDbLine
 10
-1952.230007568819
 20
65.35043686558716
 30
0.0
 11
-1952.230007568819
 21
95.35043686558772
 31
0.0
  0
LINE
  5
347
330
1F
100
AcDbEntity
  8
0-F
  6
Continuous
 62
     4
370
     9
100
AcDbLine
 10
-1982.818462769015
 20
65.35043686558716
 30
0.0
 11
-1982.818462769015
 21
95.35043686558772
 31
0.0
  0
LINE
  5
348
330
1F
100
AcDbEntity
  8
0-F
  6
Continuous
 62
     4
370
     9
100
AcDbLine
 10
-1982.818462769015
 20
65.35043686558716
 30
0.0
 11
-1936.641552368624
 21
65.35043686558716
 31
0.0
  0
LINE
  5
349
330
1F
100
AcDbEntity
  8
0-F
  6
Continuous
 62
     4
370
     9
100
AcDbLine
 10
-1982.818462769015
 20
95.35043686558772
 30
0.0
 11
-1936.641552368624
 21
95.35043686558772
 31
0.0
  0
LINE
  5
34A
330
1F
100
AcDbEntity
  8
0-F
  6
Continuous
 62
     4
370
     9
100
AcDbLine
 10
-1936.641552368624
 20
65.35043686558716
 30
0.0
 11
-1936.641552368624
 21
95.35043686558772
 31
0.0
  0
LINE
  5
34B
330
1F
100
AcDbEntity
  8
0-F
  6
JWW_CENTER1
 62
     4
370
     9
100
AcDbLine
 10
-1959.730007568819
 20
58.23306626011748
 30
0.0
 11
-1959.730007568819
 21
101.472110449572
 31
0.0
  0
LINE
  5
34C
330
1F
100
AcDbEntity
  8
0-F
  6
Continuous
 62
     2
370
     9
100
AcDbLine
 10
-1961.229987773627
 20
-31.05134272161717
 30
0.0
 11
-1961.229987773627
 21
-8.24778354720431
 31
0.0
  0
LINE
  5
34D
330
1F
100
AcDbEntity
  8
0-F
  6
Continuous
 62
     2
370
     9
100
AcDbLine
 10
-1958.229779924182
 20
-31.05134272161717
 30
0.0
 11
-1958.229779924182
 21
-8.24778354720431
 31
0.0
  0
CIRCLE
  5
34E
330
1F
100
AcDbEntity
  8
0-F
  6
Continuous
 62
     2
370
     9
100
AcDbCircle
 10
-1959.730007568819
 20
-19.64956313441302
 30
0.0
 40
16.00000117276166
  0
CIRCLE
  5
34F
330
1F
100
AcDbEntity
  8
0-F
  6
Continuous
 62
     2
370
     9
100
AcDbCircle
 10
-1959.730007568819
 20
-19.64956313441302
 30
0.0
 40
11.50000063148704
  0
CIRCLE
  5
350
330
1F
100
AcDbEntity
  8
0-F
  6
Continuous
 62
     2
370
     9
100
AcDbCircle
 10
-1959.730007568819
 20
-19.64956313441302
 30
0.0
 40
12.00000112121169
  0
LINE
  5
351
330
1F
100
AcDbEntity
  8
0-F
  6
JWW_CENTER1
 62
     2
370
     9
100
AcDbLine
 10
-1990.730010868015
 20
-19.64943941449814
 30
0.0
 11
-1928.730004269624
 21
-19.64943941449814
 31
0.0
  0
LINE
  5
352
330
1F
100
AcDbEntity
  8
0-F
  6
JWW_CENTER1
 62
     2
370
     9
100
AcDbLine
 10
-1959.729883848909
 20
11.35044016478266
 30
0.0
 11
-1959.729883848909
 21
-50.64956643360862
 31
0.0
  0
LINE
  5
353
330
1F
100
AcDbEntity
  8
0-F
  6
Continuous
 62
     4
370
     9
100
AcDbLine
 10
-1717.230007568819
 20
65.35043686558716
 30
0.0
 11
-1717.230007568819
 21
95.35043686558772
 31
0.0
  0
LINE
  5
354
330
1F
100
AcDbEntity
  8
0-F
  6
Continuous
 62
     4
370
     9
100
AcDbLine
 10
-1702.230007568819
 20
65.35043686558716
 30
0.0
 11
-1702.230007568819
 21
95.35043686558772
 31
0.0
  0
LINE
  5
355
330
1F
100
AcDbEntity
  8
0-F
  6
Continuous
 62
     4
370
     9
100
AcDbLine
 10
-1732.818462769015
 20
65.35043686558716
 30
0.0
 11
-1732.818462769015
 21
95.35043686558772
 31
0.0
  0
LINE
  5
356
330
1F
100
AcDbEntity
  8
0-F
  6
Continuous
 62
     4
370
     9
100
AcDbLine
 10
-1732.818462769015
 20
65.35043686558716
 30
0.0
 11
-1686.641552368624
 21
65.35043686558716
 31
0.0
  0
LINE
  5
357
330
1F
100
AcDbEntity
  8
0-F
  6
Continuous
 62
     4
370
     9
100
AcDbLine
 10
-1732.818462769015
 20
95.35043686558772
 30
0.0
 11
-1686.641552368624
 21
95.35043686558772
 31
0.0
  0
LINE
  5
358
330
1F
100
AcDbEntity
  8
0-F
  6
Continuous
 62
     4
370
     9
100
AcDbLine
 10
-1686.641552368624
 20
65.35043686558716
 30
0.0
 11
-1686.641552368624
 21
95.35043686558772
 31
0.0
  0
LINE
  5
359
330
1F
100
AcDbEntity
  8
0-F
  6
JWW_CENTER1
 62
     4
370
     9
100
AcDbLine
 10
-1709.730007568819
 20
58.23306626011748
 30
0.0
 11
-1709.730007568819
 21
101.472110449572
 31
0.0
  0
LINE
  5
35A
330
1F
100
AcDbEntity
  8
0-F
  6
Continuous
 62
     2
370
     9
100
AcDbLine
 10
-1711.229987773627
 20
-31.05134272161717
 30
0.0
 11
-1711.229987773627
 21
-8.24778354720431
 31
0.0
  0
LINE
  5
35B
330
1F
100
AcDbEntity
  8
0-F
  6
Continuous
 62
     2
370
     9
100
AcDbLine
 10
-1708.229779924182
 20
-31.05134272161717
 30
0.0
 11
-1708.229779924182
 21
-8.24778354720431
 31
0.0
  0
CIRCLE
  5
35C
330
1F
100
AcDbEntity
  8
0-F
  6
Continuous
 62
     2
370
     9
100
AcDbCircle
 10
-1709.730007568819
 20
-19.64956313441302
 30
0.0
 40
16.00000117276166
  0
CIRCLE
  5
35D
330
1F
100
AcDbEntity
  8
0-F
  6
Continuous
 62
     2
370
     9
100
AcDbCircle
 10
-1709.730007568819
 20
-19.64956313441302
 30
0.0
 40
11.50000063148705
  0
CIRCLE
  5
35E
330
1F
100
AcDbEntity
  8
0-F
  6
Continuous
 62
     2
370
     9
100
AcDbCircle
 10
-1709.730007568819
 20
-19.64956313441302
 30
0.0
 40
12.0000011212117
  0
LINE
  5
35F
330
1F
100
AcDbEntity
  8
0-F
  6
JWW_CENTER1
 62
     2
370
     9
100
AcDbLine
 10
-1709.729883848909
 20
11.35044016478266
 30
0.0
 11
-1709.729883848909
 21
-50.64956643360862
 31
0.0
  0
LINE
  5
360
330
1F
100
AcDbEntity
  8
0-F
  6
JWW_CENTER1
 62
     2
370
     9
100
AcDbLine
 10
-1740.730010868015
 20
-19.64943941449814
 30
0.0
 11
-1678.730004269624
 21
-19.64943941449814
 31
0.0
  0
LINE
  5
361
330
1F
100
AcDbEntity
  8
0-F
  6
Continuous
 62
     3
370
     9
100
AcDbLine
 10
-2040.479883848911
 20
-106.6492266162556
 30
0.0
 11
-2028.479794770574
 21
-94.64913753791798
 31
0.0
  0
LINE
  5
362
330
1F
100
AcDbEntity
  8
0-F
  6
Continuous
 62
     3
370
     9
100
AcDbLine
 10
-1628.979883848907
 20
-106.6492266162556
 30
0.0
 11
-1640.979972927245
 21
-94.64913753791798
 31
0.0
  0
LINE
  5
363
330
1F
100
AcDbEntity
  8
0-F
  6
Continuous
 62
     3
370
     9
100
AcDbLine
 10
-1640.979972927245
 20
-94.64913753791798
 30
0.0
 11
-2028.479794770574
 21
-94.64913753791798
 31
0.0
  0
LINE
  5
364
330
1F
100
AcDbEntity
  8
0-F
  6
Continuous
 62
     3
370
     9
100
AcDbLine
 10
-1628.979883848907
 20
-106.6492266162556
 30
0.0
 11
-2040.479883848911
 21
-106.6492266162556
 31
0.0
  0
LINE
  5
365
330
1F
100
AcDbEntity
  8
0-F
  6
Continuous
 62
     4
370
     9
100
AcDbLine
 10
-1553.60500756882
 20
65.35043686558716
 30
0.0
 11
-1553.60500756882
 21
95.35043686558772
 31
0.0
  0
LINE
  5
366
330
1F
100
AcDbEntity
  8
0-F
  6
Continuous
 62
     4
370
     9
100
AcDbLine
 10
-1538.60500756882
 20
65.35043686558716
 30
0.0
 11
-1538.60500756882
 21
95.35043686558772
 31
0.0
  0
LINE
  5
367
330
1F
100
AcDbEntity
  8
0-F
  6
Continuous
 62
     4
370
     9
100
AcDbLine
 10
-1569.193462769015
 20
65.35043686558716
 30
0.0
 11
-1569.193462769015
 21
95.35043686558772
 31
0.0
  0
LINE
  5
368
330
1F
100
AcDbEntity
  8
0-F
  6
Continuous
 62
     4
370
     9
100
AcDbLine
 10
-1569.193462769015
 20
65.35043686558716
 30
0.0
 11
-1523.016552368624
 21
65.35043686558716
 31
0.0
  0
LINE
  5
369
330
1F
100
AcDbEntity
  8
0-F
  6
Continuous
 62
     4
370
     9
100
AcDbLine
 10
-1569.193462769015
 20
95.35043686558772
 30
0.0
 11
-1523.016552368624
 21
95.35043686558772
 31
0.0
  0
LINE
  5
36A
330
1F
100
AcDbEntity
  8
0-F
  6
Continuous
 62
     4
370
     9
100
AcDbLine
 10
-1523.016552368624
 20
65.35043686558716
 30
0.0
 11
-1523.016552368624
 21
95.35043686558772
 31
0.0
  0
LINE
  5
36B
330
1F
100
AcDbEntity
  8
0-F
  6
JWW_CENTER1
 62
     4
370
     9
100
AcDbLine
 10
-1546.10500756882
 20
58.23306626011748
 30
0.0
 11
-1546.10500756882
 21
101.472110449572
 31
0.0
  0
LINE
  5
36C
330
1F
100
AcDbEntity
  8
0-F
  6
Continuous
 62
     2
370
     9
100
AcDbLine
 10
-1547.604987773627
 20
-31.05134272161717
 30
0.0
 11
-1547.604987773627
 21
-8.24778354720431
 31
0.0
  0
LINE
  5
36D
330
1F
100
AcDbEntity
  8
0-F
  6
Continuous
 62
     2
370
     9
100
AcDbLine
 10
-1544.604779924182
 20
-31.05134272161717
 30
0.0
 11
-1544.604779924182
 21
-8.24778354720431
 31
0.0
  0
CIRCLE
  5
36E
330
1F
100
AcDbEntity
  8
0-F
  6
Continuous
 62
     2
370
     9
100
AcDbCircle
 10
-1546.10500756882
 20
-19.64956313441302
 30
0.0
 40
16.00000117276166
  0
CIRCLE
  5
36F
330
1F
100
AcDbEntity
  8
0-F
  6
Continuous
 62
     2
370
     9
100
AcDbCircle
 10
-1546.10500756882
 20
-19.64956313441302
 30
0.0
 40
11.50000063148704
  0
CIRCLE
  5
370
330
1F
100
AcDbEntity
  8
0-F
  6
Continuous
 62
     2
370
     9
100
AcDbCircle
 10
-1546.10500756882
 20
-19.64956313441302
 30
0.0
 40
12.00000112121169
  0
LINE
  5
371
330
1F
100
AcDbEntity
  8
0-F
  6
JWW_CENTER1
 62
     2
370
     9
100
AcDbLine
 10
-1577.105010868015
 20
-19.64943941449814
 30
0.0
 11
-1515.105004269624
 21
-19.64943941449814
 31
0.0
  0
LINE
  5
372
330
1F
100
AcDbEntity
  8
0-F
  6
JWW_CENTER1
 62
     2
370
     9
100
AcDbLine
 10
-1546.104883848909
 20
11.35044016478266
 30
0.0
 11
-1546.104883848909
 21
-50.64956643360862
 31
0.0
  0
LINE
  5
373
330
1F
100
AcDbEntity
  8
0-F
  6
Continuous
 62
     4
370
     9
100
AcDbLine
 10
-1303.60500756882
 20
65.35043686558716
 30
0.0
 11
-1303.60500756882
 21
95.35043686558772
 31
0.0
  0
LINE
  5
374
330
1F
100
AcDbEntity
  8
0-F
  6
Continuous
 62
     4
370
     9
100
AcDbLine
 10
-1288.60500756882
 20
65.35043686558716
 30
0.0
 11
-1288.60500756882
 21
95.35043686558772
 31
0.0
  0
LINE
  5
375
330
1F
100
AcDbEntity
  8
0-F
  6
Continuous
 62
     4
370
     9
100
AcDbLine
 10
-1319.193462769015
 20
65.35043686558716
 30
0.0
 11
-1319.193462769015
 21
95.35043686558772
 31
0.0
  0
LINE
  5
376
330
1F
100
AcDbEntity
  8
0-F
  6
Continuous
 62
     4
370
     9
100
AcDbLine
 10
-1319.193462769015
 20
65.35043686558716
 30
0.0
 11
-1273.016552368624
 21
65.35043686558716
 31
0.0
  0
LINE
  5
377
330
1F
100
AcDbEntity
  8
0-F
  6
Continuous
 62
     4
370
     9
100
AcDbLine
 10
-1319.193462769015
 20
95.35043686558772
 30
0.0
 11
-1273.016552368624
 21
95.35043686558772
 31
0.0
  0
LINE
  5
378
330
1F
100
AcDbEntity
  8
0-F
  6
Continuous
 62
     4
370
     9
100
AcDbLine
 10
-1273.016552368624
 20
65.35043686558716
 30
0.0
 11
-1273.016552368624
 21
95.35043686558772
 31
0.0
  0
LINE
  5
379
330
1F
100
AcDbEntity
  8
0-F
  6
JWW_CENTER1
 62
     4
370
     9
100
AcDbLine
 10
-1296.10500756882
 20
58.23306626011748
 30
0.0
 11
-1296.10500756882
 21
101.472110449572
 31
0.0
  0
LINE
  5
37A
330
1F
100
AcDbEntity
  8
0-F
  6
Continuous
 62
     2
370
     9
100
AcDbLine
 10
-1297.604987773627
 20
-31.05134272161717
 30
0.0
 11
-1297.604987773627
 21
-8.24778354720431
 31
0.0
  0
LINE
  5
37B
330
1F
100
AcDbEntity
  8
0-F
  6
Continuous
 62
     2
370
     9
100
AcDbLine
 10
-1294.604779924182
 20
-31.05134272161717
 30
0.0
 11
-1294.604779924182
 21
-8.24778354720431
 31
0.0
  0
CIRCLE
  5
37C
330
1F
100
AcDbEntity
  8
0-F
  6
Continuous
 62
     2
370
     9
100
AcDbCircle
 10
-1296.10500756882
 20
-19.64956313441302
 30
0.0
 40
16.00000117276166
  0
CIRCLE
  5
37D
330
1F
100
AcDbEntity
  8
0-F
  6
Continuous
 62
     2
370
     9
100
AcDbCircle
 10
-1296.10500756882
 20
-19.64956313441302
 30
0.0
 40
11.50000063148705
  0
CIRCLE
  5
37E
330
1F
100
AcDbEntity
  8
0-F
  6
Continuous
 62
     2
370
     9
100
AcDbCircle
 10
-1296.10500756882
 20
-19.64956313441302
 30
0.0
 40
12.0000011212117
  0
LINE
  5
37F
330
1F
100
AcDbEntity
  8
0-F
  6
JWW_CENTER1
 62
     2
370
     9
100
AcDbLine
 10
-1296.104883848909
 20
11.35044016478266
 30
0.0
 11
-1296.104883848909
 21
-50.64956643360862
 31
0.0
  0
LINE
  5
380
330
1F
100
AcDbEntity
  8
0-F
  6
JWW_CENTER1
 62
     2
370
     9
100
AcDbLine
 10
-1327.105010868015
 20
-19.64943941449814
 30
0.0
 11
-1265.105004269624
 21
-19.64943941449814
 31
0.0
  0
LINE
  5
381
330
1F
100
AcDbEntity
  8
0-F
  6
Continuous
 62
     3
370
     9
100
AcDbLine
 10
-1626.854883848912
 20
-106.6492266162556
 30
0.0
 11
-1614.854794770574
 21
-94.64913753791798
 31
0.0
  0
LINE
  5
382
330
1F
100
AcDbEntity
  8
0-F
  6
Continuous
 62
     3
370
     9
100
AcDbLine
 10
-1215.354883848907
 20
-106.6492266162556
 30
0.0
 11
-1227.354972927245
 21
-94.64913753791798
 31
0.0
  0
LINE
  5
383
330
1F
100
AcDbEntity
  8
0-F
  6
Continuous
 62
     3
370
     9
100
AcDbLine
 10
-1227.354972927245
 20
-94.64913753791798
 30
0.0
 11
-1614.854794770574
 21
-94.64913753791798
 31
0.0
  0
LINE
  5
384
330
1F
100
AcDbEntity
  8
0-F
  6
Continuous
 62
     3
370
     9
100
AcDbLine
 10
-1215.354883848907
 20
-106.6492266162556
 30
0.0
 11
-1626.854883848912
 21
-106.6492266162556
 31
0.0
  0
LINE
  5
385
330
1F
100
AcDbEntity
  8
0-F
  6
Continuous
 62
     4
370
     9
100
AcDbLine
 10
-1139.98000756882
 20
65.35043686558716
 30
0.0
 11
-1139.98000756882
 21
95.35043686558772
 31
0.0
  0
LINE
  5
386
330
1F
100
AcDbEntity
  8
0-F
  6
Continuous
 62
     4
370
     9
100
AcDbLine
 10
-1124.98000756882
 20
65.35043686558716
 30
0.0
 11
-1124.98000756882
 21
95.35043686558772
 31
0.0
  0
LINE
  5
387
330
1F
100
AcDbEntity
  8
0-F
  6
Continuous
 62
     4
370
     9
100
AcDbLine
 10
-1155.568462769015
 20
65.35043686558716
 30
0.0
 11
-1155.568462769015
 21
95.35043686558772
 31
0.0
  0
LINE
  5
388
330
1F
100
AcDbEntity
  8
0-F
  6
Continuous
 62
     4
370
     9
100
AcDbLine
 10
-1155.568462769015
 20
65.35043686558716
 30
0.0
 11
-1109.391552368625
 21
65.35043686558716
 31
0.0
  0
LINE
  5
389
330
1F
100
AcDbEntity
  8
0-F
  6
Continuous
 62
     4
370
     9
100
AcDbLine
 10
-1155.568462769015
 20
95.35043686558772
 30
0.0
 11
-1109.391552368625
 21
95.35043686558772
 31
0.0
  0
LINE
  5
38A
330
1F
100
AcDbEntity
  8
0-F
  6
Continuous
 62
     4
370
     9
100
AcDbLine
 10
-1109.391552368625
 20
65.35043686558716
 30
0.0
 11
-1109.391552368625
 21
95.35043686558772
 31
0.0
  0
LINE
  5
38B
330
1F
100
AcDbEntity
  8
0-F
  6
JWW_CENTER1
 62
     4
370
     9
100
AcDbLine
 10
-1132.48000756882
 20
58.23306626011748
 30
0.0
 11
-1132.48000756882
 21
101.472110449572
 31
0.0
  0
LINE
  5
38C
330
1F
100
AcDbEntity
  8
0-F
  6
Continuous
 62
     2
370
     9
100
AcDbLine
 10
-1133.979987773628
 20
-31.05134272161717
 30
0.0
 11
-1133.979987773628
 21
-8.24778354720431
 31
0.0
  0
LINE
  5
38D
330
1F
100
AcDbEntity
  8
0-F
  6
Continuous
 62
     2
370
     9
100
AcDbLine
 10
-1130.979779924182
 20
-31.05134272161717
 30
0.0
 11
-1130.979779924182
 21
-8.24778354720431
 31
0.0
  0
CIRCLE
  5
38E
330
1F
100
AcDbEntity
  8
0-F
  6
Continuous
 62
     2
370
     9
100
AcDbCircle
 10
-1132.48000756882
 20
-19.64956313441302
 30
0.0
 40
16.00000117276166
  0
CIRCLE
  5
38F
330
1F
100
AcDbEntity
  8
0-F
  6
Continuous
 62
     2
370
     9
100
AcDbCircle
 10
-1132.48000756882
 20
-19.64956313441302
 30
0.0
 40
11.50000063148704
  0
CIRCLE
  5
390
330
1F
100
AcDbEntity
  8
0-F
  6
Continuous
 62
     2
370
     9
100
AcDbCircle
 10
-1132.48000756882
 20
-19.64956313441302
 30
0.0
 40
12.00000112121169
  0
LINE
  5
391
330
1F
100
AcDbEntity
  8
0-F
  6
JWW_CENTER1
 62
     2
370
     9
100
AcDbLine
 10
-1163.480010868016
 20
-19.64943941449814
 30
0.0
 11
-1101.480004269624
 21
-19.64943941449814
 31
0.0
  0
LINE
  5
392
330
1F
100
AcDbEntity
  8
0-F
  6
JWW_CENTER1
 62
     2
370
     9
100
AcDbLine
 10
-1132.47988384891
 20
11.35044016478266
 30
0.0
 11
-1132.47988384891
 21
-50.64956643360862
 31
0.0
  0
LINE
  5
393
330
1F
100
AcDbEntity
  8
0-F
  6
Continuous
 62
     4
370
     9
100
AcDbLine
 10
-889.9800075688199
 20
65.35043686558716
 30
0.0
 11
-889.9800075688199
 21
95.35043686558772
 31
0.0
  0
LINE
  5
394
330
1F
100
AcDbEntity
  8
0-F
  6
Continuous
 62
     4
370
     9
100
AcDbLine
 10
-874.9800075688199
 20
65.35043686558716
 30
0.0
 11
-874.9800075688199
 21
95.35043686558772
 31
0.0
  0
LINE
  5
395
330
1F
100
AcDbEntity
  8
0-F
  6
Continuous
 62
     4
370
     9
100
AcDbLine
 10
-905.5684627690152
 20
65.35043686558716
 30
0.0
 11
-905.5684627690152
 21
95.35043686558772
 31
0.0
  0
LINE
  5
396
330
1F
100
AcDbEntity
  8
0-F
  6
Continuous
 62
     4
370
     9
100
AcDbLine
 10
-905.5684627690152
 20
65.35043686558716
 30
0.0
 11
-859.3915523686246
 21
65.35043686558716
 31
0.0
  0
LINE
  5
397
330
1F
100
AcDbEntity
  8
0-F
  6
Continuous
 62
     4
370
     9
100
AcDbLine
 10
-905.5684627690152
 20
95.35043686558772
 30
0.0
 11
-859.3915523686246
 21
95.35043686558772
 31
0.0
  0
LINE
  5
398
330
1F
100
AcDbEntity
  8
0-F
  6
Continuous
 62
     4
370
     9
100
AcDbLine
 10
-859.3915523686246
 20
65.35043686558716
 30
0.0
 11
-859.3915523686246
 21
95.35043686558772
 31
0.0
  0
LINE
  5
399
330
1F
100
AcDbEntity
  8
0-F
  6
JWW_CENTER1
 62
     4
370
     9
100
AcDbLine
 10
-882.4800075688199
 20
58.23306626011748
 30
0.0
 11
-882.4800075688199
 21
101.472110449572
 31
0.0
  0
LINE
  5
39A
330
1F
100
AcDbEntity
  8
0-F
  6
Continuous
 62
     2
370
     9
100
AcDbLine
 10
-883.9799877736277
 20
-31.05134272161717
 30
0.0
 11
-883.9799877736277
 21
-8.24778354720431
 31
0.0
  0
LINE
  5
39B
330
1F
100
AcDbEntity
  8
0-F
  6
Continuous
 62
     2
370
     9
100
AcDbLine
 10
-880.9797799241824
 20
-31.05134272161717
 30
0.0
 11
-880.9797799241824
 21
-8.24778354720431
 31
0.0
  0
CIRCLE
  5
39C
330
1F
100
AcDbEntity
  8
0-F
  6
Continuous
 62
     2
370
     9
100
AcDbCircle
 10
-882.4800075688199
 20
-19.64956313441302
 30
0.0
 40
16.00000117276166
  0
CIRCLE
  5
39D
330
1F
100
AcDbEntity
  8
0-F
  6
Continuous
 62
     2
370
     9
100
AcDbCircle
 10
-882.4800075688199
 20
-19.64956313441302
 30
0.0
 40
11.50000063148705
  0
CIRCLE
  5
39E
330
1F
100
AcDbEntity
  8
0-F
  6
Continuous
 62
     2
370
     9
100
AcDbCircle
 10
-882.4800075688199
 20
-19.64956313441302
 30
0.0
 40
12.0000011212117
  0
LINE
  5
39F
330
1F
100
AcDbEntity
  8
0-F
  6
JWW_CENTER1
 62
     2
370
     9
100
AcDbLine
 10
-882.4798838489096
 20
11.35044016478266
 30
0.0
 11
-882.4798838489096
 21
-50.64956643360862
 31
0.0
  0
LINE
  5
3A0
330
1F
100
AcDbEntity
  8
0-F
  6
JWW_CENTER1
 62
     2
370
     9
100
AcDbLine
 10
-913.4800108680156
 20
-19.64943941449814
 30
0.0
 11
-851.4800042696243
 21
-19.64943941449814
 31
0.0
  0
LINE
  5
3A1
330
1F
100
AcDbEntity
  8
0-F
  6
Continuous
 62
     3
370
     9
100
AcDbLine
 10
-1213.229883848912
 20
-106.6492266162556
 30
0.0
 11
-1201.229794770574
 21
-94.64913753791798
 31
0.0
  0
LINE
  5
3A2
330
1F
100
AcDbEntity
  8
0-F
  6
Continuous
 62
     3
370
     9
100
AcDbLine
 10
-801.7298838489074
 20
-106.6492266162556
 30
0.0
 11
-813.7299729272451
 21
-94.64913753791798
 31
0.0
  0
LINE
  5
3A3
330
1F
100
AcDbEntity
  8
0-F
  6
Continuous
 62
     3
370
     9
100
AcDbLine
 10
-813.7299729272451
 20
-94.64913753791798
 30
0.0
 11
-1201.229794770574
 21
-94.64913753791798
 31
0.0
  0
LINE
  5
3A4
330
1F
100
AcDbEntity
  8
0-F
  6
Continuous
 62
     3
370
     9
100
AcDbLine
 10
-801.7298838489074
 20
-106.6492266162556
 30
0.0
 11
-1213.229883848912
 21
-106.6492266162556
 31
0.0
  0
LINE
  5
3A5
330
1F
100
AcDbEntity
  8
0-F
  6
Continuous
 62
     4
370
     9
100
AcDbLine
 10
-726.3550075688202
 20
65.35043686558716
 30
0.0
 11
-726.3550075688202
 21
95.35043686558772
 31
0.0
  0
LINE
  5
3A6
330
1F
100
AcDbEntity
  8
0-F
  6
Continuous
 62
     4
370
     9
100
AcDbLine
 10
-711.3550075688202
 20
65.35043686558716
 30
0.0
 11
-711.3550075688202
 21
95.35043686558772
 31
0.0
  0
LINE
  5
3A7
330
1F
100
AcDbEntity
  8
0-F
  6
Continuous
 62
     4
370
     9
100
AcDbLine
 10
-741.9434627690155
 20
65.35043686558716
 30
0.0
 11
-741.9434627690155
 21
95.35043686558772
 31
0.0
  0
LINE
  5
3A8
330
1F
100
AcDbEntity
  8
0-F
  6
Continuous
 62
     4
370
     9
100
AcDbLine
 10
-741.9434627690155
 20
65.35043686558716
 30
0.0
 11
-695.7665523686248
 21
65.35043686558716
 31
0.0
  0
LINE
  5
3A9
330
1F
100
AcDbEntity
  8
0-F
  6
Continuous
 62
     4
370
     9
100
AcDbLine
 10
-741.9434627690155
 20
95.35043686558772
 30
0.0
 11
-695.7665523686248
 21
95.35043686558772
 31
0.0
  0
LINE
  5
3AA
330
1F
100
AcDbEntity
  8
0-F
  6
Continuous
 62
     4
370
     9
100
AcDbLine
 10
-695.7665523686248
 20
65.35043686558716
 30
0.0
 11
-695.7665523686248
 21
95.35043686558772
 31
0.0
  0
LINE
  5
3AB
330
1F
100
AcDbEntity
  8
0-F
  6
JWW_CENTER1
 62
     4
370
     9
100
AcDbLine
 10
-718.8550075688202
 20
58.23306626011748
 30
0.0
 11
-718.8550075688202
 21
101.472110449572
 31
0.0
  0
LINE
  5
3AC
330
1F
100
AcDbEntity
  8
0-F
  6
Continuous
 62
     2
370
     9
100
AcDbLine
 10
-720.354987773628
 20
-31.05134272161717
 30
0.0
 11
-720.354987773628
 21
-8.24778354720431
 31
0.0
  0
LINE
  5
3AD
330
1F
100
AcDbEntity
  8
0-F
  6
Continuous
 62
     2
370
     9
100
AcDbLine
 10
-717.3547799241826
 20
-31.05134272161717
 30
0.0
 11
-717.3547799241826
 21
-8.24778354720431
 31
0.0
  0
CIRCLE
  5
3AE
330
1F
100
AcDbEntity
  8
0-F
  6
Continuous
 62
     2
370
     9
100
AcDbCircle
 10
-718.8550075688202
 20
-19.64956313441302
 30
0.0
 40
16.00000117276166
  0
CIRCLE
  5
3AF
330
1F
100
AcDbEntity
  8
0-F
  6
Continuous
 62
     2
370
     9
100
AcDbCircle
 10
-718.8550075688202
 20
-19.64956313441302
 30
0.0
 40
11.50000063148704
  0
CIRCLE
  5
3B0
330
1F
100
AcDbEntity
  8
0-F
  6
Continuous
 62
     2
370
     9
100
AcDbCircle
 10
-718.8550075688202
 20
-19.64956313441302
 30
0.0
 40
12.00000112121169
  0
LINE
  5
3B1
330
1F
100
AcDbEntity
  8
0-F
  6
JWW_CENTER1
 62
     2
370
     9
100
AcDbLine
 10
-749.8550108680158
 20
-19.64943941449814
 30
0.0
 11
-687.8550042696245
 21
-19.64943941449814
 31
0.0
  0
LINE
  5
3B2
330
1F
100
AcDbEntity
  8
0-F
  6
JWW_CENTER1
 62
     2
370
     9
100
AcDbLine
 10
-718.8548838489098
 20
11.35044016478266
 30
0.0
 11
-718.8548838489098
 21
-50.64956643360862
 31
0.0
  0
LINE
  5
3B3
330
1F
100
AcDbEntity
  8
0-F
  6
Continuous
 62
     4
370
     9
100
AcDbLine
 10
-476.3550075688201
 20
65.35043686558716
 30
0.0
 11
-476.3550075688201
 21
95.35043686558772
 31
0.0
  0
LINE
  5
3B4
330
1F
100
AcDbEntity
  8
0-F
  6
Continuous
 62
     4
370
     9
100
AcDbLine
 10
-461.3550075688201
 20
65.35043686558716
 30
0.0
 11
-461.3550075688201
 21
95.35043686558772
 31
0.0
  0
LINE
  5
3B5
330
1F
100
AcDbEntity
  8
0-F
  6
Continuous
 62
     4
370
     9
100
AcDbLine
 10
-491.9434627690154
 20
65.35043686558716
 30
0.0
 11
-491.9434627690154
 21
95.35043686558772
 31
0.0
  0
LINE
  5
3B6
330
1F
100
AcDbEntity
  8
0-F
  6
Continuous
 62
     4
370
     9
100
AcDbLine
 10
-491.9434627690154
 20
65.35043686558716
 30
0.0
 11
-445.7665523686248
 21
65.35043686558716
 31
0.0
  0
LINE
  5
3B7
330
1F
100
AcDbEntity
  8
0-F
  6
Continuous
 62
     4
370
     9
100
AcDbLine
 10
-491.9434627690154
 20
95.35043686558772
 30
0.0
 11
-445.7665523686248
 21
95.35043686558772
 31
0.0
  0
LINE
  5
3B8
330
1F
100
AcDbEntity
  8
0-F
  6
Continuous
 62
     4
370
     9
100
AcDbLine
 10
-445.7665523686248
 20
65.35043686558716
 30
0.0
 11
-445.7665523686248
 21
95.35043686558772
 31
0.0
  0
LINE
  5
3B9
330
1F
100
AcDbEntity
  8
0-F
  6
JWW_CENTER1
 62
     4
370
     9
100
AcDbLine
 10
-468.8550075688201
 20
58.23306626011748
 30
0.0
 11
-468.8550075688201
 21
101.472110449572
 31
0.0
  0
LINE
  5
3BA
330
1F
100
AcDbEntity
  8
0-F
  6
Continuous
 62
     2
370
     9
100
AcDbLine
 10
-470.3549877736279
 20
-31.05134272161717
 30
0.0
 11
-470.3549877736279
 21
-8.24778354720431
 31
0.0
  0
LINE
  5
3BB
330
1F
100
AcDbEntity
  8
0-F
  6
Continuous
 62
     2
370
     9
100
AcDbLine
 10
-467.3547799241825
 20
-31.05134272161717
 30
0.0
 11
-467.3547799241825
 21
-8.24778354720431
 31
0.0
  0
CIRCLE
  5
3BC
330
1F
100
AcDbEntity
  8
0-F
  6
Continuous
 62
     2
370
     9
100
AcDbCircle
 10
-468.8550075688201
 20
-19.64956313441302
 30
0.0
 40
16.00000117276166
  0
CIRCLE
  5
3BD
330
1F
100
AcDbEntity
  8
0-F
  6
Continuous
 62
     2
370
     9
100
AcDbCircle
 10
-468.8550075688201
 20
-19.64956313441302
 30
0.0
 40
11.50000063148705
  0
CIRCLE
  5
3BE
330
1F
100
AcDbEntity
  8
0-F
  6
Continuous
 62
     2
370
     9
100
AcDbCircle
 10
-468.8550075688201
 20
-19.64956313441302
 30
0.0
 40
12.0000011212117
  0
LINE
  5
3BF
330
1F
100
AcDbEntity
  8
0-F
  6
JWW_CENTER1
 62
     2
370
     9
100
AcDbLine
 10
-468.8548838489098
 20
11.35044016478266
 30
0.0
 11
-468.8548838489098
 21
-50.64956643360862
 31
0.0
  0
LINE
  5
3C0
330
1F
100
AcDbEntity
  8
0-F
  6
JWW_CENTER1
 62
     2
370
     9
100
AcDbLine
 10
-499.8550108680158
 20
-19.64943941449814
 30
0.0
 11
-437.8550042696244
 21
-19.64943941449814
 31
0.0
  0
LINE
  5
3C1
330
1F
100
AcDbEntity
  8
0-F
  6
Continuous
 62
     3
370
     9
100
AcDbLine
 10
-799.6048838489119
 20
-106.6492266162556
 30
0.0
 11
-787.6047947705742
 21
-94.64913753791798
 31
0.0
  0
LINE
  5
3C2
330
1F
100
AcDbEntity
  8
0-F
  6
Continuous
 62
     3
370
     9
100
AcDbLine
 10
-388.1048838489076
 20
-106.6492266162556
 30
0.0
 11
-400.1049729272452
 21
-94.64913753791798
 31
0.0
  0
LINE
  5
3C3
330
1F
100
AcDbEntity
  8
0-F
  6
Continuous
 62
     3
370
     9
100
AcDbLine
 10
-400.1049729272452
 20
-94.64913753791798
 30
0.0
 11
-787.6047947705742
 21
-94.64913753791798
 31
0.0
  0
LINE
  5
3C4
330
1F
100
AcDbEntity
  8
0-F
  6
Continuous
 62
     3
370
     9
100
AcDbLine
 10
-388.1048838489076
 20
-106.6492266162556
 30
0.0
 11
-799.6048838489119
 21
-106.6492266162556
 31
0.0
  0
LINE
  5
3C5
330
1F
100
AcDbEntity
  8
0-F
  6
Continuous
 62
     4
370
     9
100
AcDbLine
 10
-312.7300075688203
 20
65.35043686558716
 30
0.0
 11
-312.7300075688203
 21
95.35043686558772
 31
0.0
  0
LINE
  5
3C6
330
1F
100
AcDbEntity
  8
0-F
  6
Continuous
 62
     4
370
     9
100
AcDbLine
 10
-297.7300075688203
 20
65.35043686558716
 30
0.0
 11
-297.7300075688203
 21
95.35043686558772
 31
0.0
  0
LINE
  5
3C7
330
1F
100
AcDbEntity
  8
0-F
  6
Continuous
 62
     4
370
     9
100
AcDbLine
 10
-328.3184627690156
 20
65.35043686558716
 30
0.0
 11
-328.3184627690156
 21
95.35043686558772
 31
0.0
  0
LINE
  5
3C8
330
1F
100
AcDbEntity
  8
0-F
  6
Continuous
 62
     4
370
     9
100
AcDbLine
 10
-328.3184627690156
 20
65.35043686558716
 30
0.0
 11
-282.141552368625
 21
65.35043686558716
 31
0.0
  0
LINE
  5
3C9
330
1F
100
AcDbEntity
  8
0-F
  6
Continuous
 62
     4
370
     9
100
AcDbLine
 10
-328.3184627690156
 20
95.35043686558772
 30
0.0
 11
-282.141552368625
 21
95.35043686558772
 31
0.0
  0
LINE
  5
3CA
330
1F
100
AcDbEntity
  8
0-F
  6
Continuous
 62
     4
370
     9
100
AcDbLine
 10
-282.141552368625
 20
65.35043686558716
 30
0.0
 11
-282.141552368625
 21
95.35043686558772
 31
0.0
  0
LINE
  5
3CB
330
1F
100
AcDbEntity
  8
0-F
  6
JWW_CENTER1
 62
     4
370
     9
100
AcDbLine
 10
-305.2300075688203
 20
58.23306626011748
 30
0.0
 11
-305.2300075688203
 21
101.472110449572
 31
0.0
  0
LINE
  5
3CC
330
1F
100
AcDbEntity
  8
0-F
  6
Continuous
 62
     2
370
     9
100
AcDbLine
 10
-306.7299877736281
 20
-31.05134272161717
 30
0.0
 11
-306.7299877736281
 21
-8.24778354720431
 31
0.0
  0
LINE
  5
3CD
330
1F
100
AcDbEntity
  8
0-F
  6
Continuous
 62
     2
370
     9
100
AcDbLine
 10
-303.7297799241827
 20
-31.05134272161717
 30
0.0
 11
-303.7297799241827
 21
-8.24778354720431
 31
0.0
  0
CIRCLE
  5
3CE
330
1F
100
AcDbEntity
  8
0-F
  6
Continuous
 62
     2
370
     9
100
AcDbCircle
 10
-305.2300075688203
 20
-19.64956313441302
 30
0.0
 40
16.00000117276166
  0
CIRCLE
  5
3CF
330
1F
100
AcDbEntity
  8
0-F
  6
Continuous
 62
     2
370
     9
100
AcDbCircle
 10
-305.2300075688203
 20
-19.64956313441302
 30
0.0
 40
11.50000063148704
  0
CIRCLE
  5
3D0
330
1F
100
AcDbEntity
  8
0-F
  6
Continuous
 62
     2
370
     9
100
AcDbCircle
 10
-305.2300075688203
 20
-19.64956313441302
 30
0.0
 40
12.00000112121169
  0
LINE
  5
3D1
330
1F
100
AcDbEntity
  8
0-F
  6
JWW_CENTER1
 62
     2
370
     9
100
AcDbLine
 10
-336.2300108680159
 20
-19.64943941449814
 30
0.0
 11
-274.2300042696246
 21
-19.64943941449814
 31
0.0
  0
LINE
  5
3D2
330
1F
100
AcDbEntity
  8
0-F
  6
JWW_CENTER1
 62
     2
370
     9
100
AcDbLine
 10
-305.2298838489099
 20
11.35044016478266
 30
0.0
 11
-305.2298838489099
 21
-50.64956643360862
 31
0.0
  0
LINE
  5
3D3
330
1F
100
AcDbEntity
  8
0-F
  6
Continuous
 62
     4
370
     9
100
AcDbLine
 10
-62.73000756882027
 20
65.35043686558716
 30
0.0
 11
-62.73000756882027
 21
95.35043686558772
 31
0.0
  0
LINE
  5
3D4
330
1F
100
AcDbEntity
  8
0-F
  6
Continuous
 62
     4
370
     9
100
AcDbLine
 10
-47.73000756882027
 20
65.35043686558716
 30
0.0
 11
-47.73000756882027
 21
95.35043686558772
 31
0.0
  0
LINE
  5
3D5
330
1F
100
AcDbEntity
  8
0-F
  6
Continuous
 62
     4
370
     9
100
AcDbLine
 10
-78.31846276901558
 20
65.35043686558716
 30
0.0
 11
-78.31846276901558
 21
95.35043686558772
 31
0.0
  0
LINE
  5
3D6
330
1F
100
AcDbEntity
  8
0-F
  6
Continuous
 62
     4
370
     9
100
AcDbLine
 10
-78.31846276901558
 20
65.35043686558716
 30
0.0
 11
-32.14155236862496
 21
65.35043686558716
 31
0.0
  0
LINE
  5
3D7
330
1F
100
AcDbEntity
  8
0-F
  6
Continuous
 62
     4
370
     9
100
AcDbLine
 10
-78.31846276901558
 20
95.35043686558772
 30
0.0
 11
-32.14155236862496
 21
95.35043686558772
 31
0.0
  0
LINE
  5
3D8
330
1F
100
AcDbEntity
  8
0-F
  6
Continuous
 62
     4
370
     9
100
AcDbLine
 10
-32.14155236862496
 20
65.35043686558716
 30
0.0
 11
-32.14155236862496
 21
95.35043686558772
 31
0.0
  0
LINE
  5
3D9
330
1F
100
AcDbEntity
  8
0-F
  6
JWW_CENTER1
 62
     4
370
     9
100
AcDbLine
 10
-55.23000756882027
 20
58.23306626011748
 30
0.0
 11
-55.23000756882027
 21
101.472110449572
 31
0.0
  0
LINE
  5
3DA
330
1F
100
AcDbEntity
  8
0-F
  6
Continuous
 62
     2
370
     9
100
AcDbLine
 10
-56.72998777362807
 20
-31.05134272161717
 30
0.0
 11
-56.72998777362807
 21
-8.24778354720431
 31
0.0
  0
LINE
  5
3DB
330
1F
100
AcDbEntity
  8
0-F
  6
Continuous
 62
     2
370
     9
100
AcDbLine
 10
-53.72977992418271
 20
-31.05134272161717
 30
0.0
 11
-53.72977992418271
 21
-8.24778354720431
 31
0.0
  0
CIRCLE
  5
3DC
330
1F
100
AcDbEntity
  8
0-F
  6
Continuous
 62
     2
370
     9
100
AcDbCircle
 10
-55.23000756882027
 20
-19.64956313441302
 30
0.0
 40
16.00000117276166
  0
CIRCLE
  5
3DD
330
1F
100
AcDbEntity
  8
0-F
  6
Continuous
 62
     2
370
     9
100
AcDbCircle
 10
-55.23000756882027
 20
-19.64956313441302
 30
0.0
 40
11.50000063148705
  0
CIRCLE
  5
3DE
330
1F
100
AcDbEntity
  8
0-F
  6
Continuous
 62
     2
370
     9
100
AcDbCircle
 10
-55.23000756882027
 20
-19.64956313441302
 30
0.0
 40
12.0000011212117
  0
LINE
  5
3DF
330
1F
100
AcDbEntity
  8
0-F
  6
JWW_CENTER1
 62
     2
370
     9
100
AcDbLine
 10
-55.22988384890994
 20
11.35044016478266
 30
0.0
 11
-55.22988384890994
 21
-50.64956643360862
 31
0.0
  0
LINE
  5
3E0
330
1F
100
AcDbEntity
  8
0-F
  6
JWW_CENTER1
 62
     2
370
     9
100
AcDbLine
 10
-86.23001086801594
 20
-19.64943941449814
 30
0.0
 11
-24.2300042696246
 21
-19.64943941449814
 31
0.0
  0
LINE
  5
3E1
330
1F
100
AcDbEntity
  8
0-F
  6
Continuous
 62
     3
370
     9
100
AcDbLine
 10
-385.9798838489121
 20
-106.6492266162556
 30
0.0
 11
-373.9797947705745
 21
-94.64913753791798
 31
0.0
  0
LINE
  5
3E2
330
1F
100
AcDbEntity
  8
0-F
  6
Continuous
 62
     3
370
     9
100
AcDbLine
 10
25.52011615109222
 20
-106.6492266162556
 30
0.0
 11
13.5200270727546
 21
-94.64913753791798
 31
0.0
  0
LINE
  5
3E3
330
1F
100
AcDbEntity
  8
0-F
  6
Continuous
 62
     3
370
     9
100
AcDbLine
 10
13.5200270727546
 20
-94.64913753791798
 30
0.0
 11
-373.9797947705745
 21
-94.64913753791798
 31
0.0
  0
LINE
  5
3E4
330
1F
100
AcDbEntity
  8
0-F
  6
Continuous
 62
     3
370
     9
100
AcDbLine
 10
25.52011615109222
 20
-106.6492266162556
 30
0.0
 11
-385.9798838489121
 21
-106.6492266162556
 31
0.0
  0
LINE
  5
3E5
330
1F
100
AcDbEntity
  8
躯体
  6
JWW_DASHED2
 62
     2
370
     9
100
AcDbLine
 10
-2007.479824463354
 20
-73.6491111443354
 30
0.0
 11
-2007.479824463354
 21
1126.350888855665
 31
0.0
  0
LINE
  5
3E6
330
1F
100
AcDbEntity
  8
建具
  6
Continuous
 62
     2
370
     9
100
AcDbLine
 10
-2041.479788172179
 20
-107.6490748531648
 30
0.0
 11
-2041.479788172179
 21
1160.35110000431
 31
0.0
  0
LINE
  5
3E7
330
1F
100
AcDbEntity
  8
建具
  6
Continuous
 62
     2
370
     9
100
AcDbLine
 10
-2053.479753530607
 20
-119.6491639314979
 30
0.0
 11
-2053.479753530607
 21
1172.350941642823
 31
0.0
  0
LINE
  5
3E8
330
1F
100
AcDbEntity
  8
躯体
  6
JWW_DASHED2
 62
     2
370
     9
100
AcDbLine
 10
-7.4797007434438
 20
1126.350888855665
 30
0.0
 11
-7.4797007434438
 21
-73.6491111443354
 31
0.0
  0
LINE
  5
3E9
330
1F
100
AcDbEntity
  8
建具
  6
Continuous
 62
     2
370
     9
100
AcDbLine
 10
26.52026296538111
 20
-107.6490748531648
 30
0.0
 11
26.52026296538111
 21
1160.35110000431
 31
0.0
  0
LINE
  5
3EA
330
1F
100
AcDbEntity
  8
建具
  6
Continuous
 62
     2
370
     9
100
AcDbLine
 10
38.5202283238084
 20
1172.350941642823
 30
0.0
 11
38.5202283238084
 21
-119.6491639314979
 31
0.0
  0
LINE
  5
3EB
330
1F
100
AcDbEntity
  8
0-F
  6
Continuous
 62
     3
370
     9
100
AcDbLine
 10
-2040.479883848911
 20
-106.6492266162556
 30
0.0
 11
-2040.479883848911
 21
1159.350948241222
 31
0.0
  0
LINE
  5
3EC
330
1F
100
AcDbEntity
  8
0-F
  6
Continuous
 62
     3
370
     9
100
AcDbLine
 10
-2028.479794770574
 20
-94.64913753791798
 30
0.0
 11
-2028.479794770574
 21
1147.350611723059
 31
0.0
  0
LINE
  5
3ED
330
1F
100
AcDbEntity
  8
0-F
  6
Continuous
 62
     3
370
     9
100
AcDbLine
 10
-1640.979972927245
 20
-94.64913753791798
 30
0.0
 11
-1640.979972927245
 21
1147.350611723059
 31
0.0
  0
LINE
  5
3EE
330
1F
100
AcDbEntity
  8
0-F
  6
Continuous
 62
     3
370
     9
100
AcDbLine
 10
-1628.979883848907
 20
-106.6492266162556
 30
0.0
 11
-1628.979883848907
 21
1159.350948241222
 31
0.0
  0
LINE
  5
3EF
330
1F
100
AcDbEntity
  8
0-F
  6
Continuous
 62
     3
370
     9
100
AcDbLine
 10
-1626.854883848912
 20
-106.6492266162556
 30
0.0
 11
-1626.854883848912
 21
1159.350948241222
 31
0.0
  0
LINE
  5
3F0
330
1F
100
AcDbEntity
  8
0-F
  6
Continuous
 62
     3
370
     9
100
AcDbLine
 10
-1614.854794770574
 20
-94.64913753791798
 30
0.0
 11
-1614.854794770574
 21
1147.350611723059
 31
0.0
  0
LINE
  5
3F1
330
1F
100
AcDbEntity
  8
0-F
  6
Continuous
 62
     3
370
     9
100
AcDbLine
 10
-1227.354972927245
 20
-94.64913753791798
 30
0.0
 11
-1227.354972927245
 21
1147.350611723059
 31
0.0
  0
LINE
  5
3F2
330
1F
100
AcDbEntity
  8
0-F
  6
Continuous
 62
     3
370
     9
100
AcDbLine
 10
-1215.354883848907
 20
-106.6492266162556
 30
0.0
 11
-1215.354883848907
 21
1159.350948241222
 31
0.0
  0
LINE
  5
3F3
330
1F
100
AcDbEntity
  8
0-F
  6
Continuous
 62
     3
370
     9
100
AcDbLine
 10
-1213.229883848912
 20
-106.6492266162556
 30
0.0
 11
-1213.229883848912
 21
1159.350948241222
 31
0.0
  0
LINE
  5
3F4
330
1F
100
AcDbEntity
  8
0-F
  6
Continuous
 62
     3
370
     9
100
AcDbLine
 10
-1201.229794770574
 20
-94.64913753791798
 30
0.0
 11
-1201.229794770574
 21
1147.350611723059
 31
0.0
  0
LINE
  5
3F5
330
1F
100
AcDbEntity
  8
0-F
  6
Continuous
 62
     3
370
     9
100
AcDbLine
 10
-813.7299729272451
 20
-94.64913753791798
 30
0.0
 11
-813.7299729272451
 21
1147.350611723059
 31
0.0
  0
LINE
  5
3F6
330
1F
100
AcDbEntity
  8
0-F
  6
Continuous
 62
     3
370
     9
100
AcDbLine
 10
-801.7298838489074
 20
-106.6492266162556
 30
0.0
 11
-801.7298838489074
 21
1159.350948241222
 31
0.0
  0
LINE
  5
3F7
330
1F
100
AcDbEntity
  8
0-F
  6
Continuous
 62
     3
370
     9
100
AcDbLine
 10
-799.6048838489119
 20
-106.6492266162556
 30
0.0
 11
-799.6048838489119
 21
1159.350948241222
 31
0.0
  0
LINE
  5
3F8
330
1F
100
AcDbEntity
  8
0-F
  6
Continuous
 62
     3
370
     9
100
AcDbLine
 10
-787.6047947705742
 20
-94.64913753791798
 30
0.0
 11
-787.6047947705742
 21
1147.350611723059
 31
0.0
  0
LINE
  5
3F9
330
1F
100
AcDbEntity
  8
0-F
  6
Continuous
 62
     3
370
     9
100
AcDbLine
 10
-400.1049729272452
 20
-94.64913753791798
 30
0.0
 11
-400.1049729272452
 21
1147.350611723059
 31
0.0
  0
LINE
  5
3FA
330
1F
100
AcDbEntity
  8
0-F
  6
Continuous
 62
     3
370
     9
100
AcDbLine
 10
-388.1048838489076
 20
-106.6492266162556
 30
0.0
 11
-388.1048838489076
 21
1159.350948241222
 31
0.0
  0
LINE
  5
3FB
330
1F
100
AcDbEntity
  8
0-F
  6
Continuous
 62
     3
370
     9
100
AcDbLine
 10
-385.9798838489121
 20
-106.6492266162556
 30
0.0
 11
-385.9798838489121
 21
1159.350948241222
 31
0.0
  0
LINE
  5
3FC
330
1F
100
AcDbEntity
  8
0-F
  6
Continuous
 62
     3
370
     9
100
AcDbLine
 10
-373.9797947705745
 20
-94.64913753791798
 30
0.0
 11
-373.9797947705745
 21
1147.350611723059
 31
0.0
  0
LINE
  5
3FD
330
1F
100
AcDbEntity
  8
0-F
  6
Continuous
 62
     3
370
     9
100
AcDbLine
 10
13.5200270727546
 20
-94.64913753791798
 30
0.0
 11
13.5200270727546
 21
1147.350611723059
 31
0.0
  0
LINE
  5
3FE
330
1F
100
AcDbEntity
  8
0-F
  6
Continuous
 62
     3
370
     9
100
AcDbLine
 10
25.52011615109222
 20
-106.6492266162556
 30
0.0
 11
25.52011615109222
 21
1159.350948241222
 31
0.0
  0
TEXT
  5
3FF
330
1F
100
AcDbEntity
  8
F-Fﾚｲﾔ
  6
Continuous
 62
     2
370
     9
100
AcDbText
 10
-2170.020859680577
 20
-1586.037173756577
 30
0.0
 40
30.48
  1
約80kg/枚
 41
1.097222222222222
  7
ＭＳ ゴシック
100
AcDbText
  0
TEXT
  5
400
330
1F
100
AcDbEntity
  8
F-Fﾚｲﾔ
  6
Continuous
 62
     2
370
     9
100
AcDbText
 10
-2170.020859680577
 20
-1496.036887654282
 30
0.0
 40
30.48
  1
180kg/組
 41
1.09375
  7
ＭＳ ゴシック
100
AcDbText
  0
LINE
  5
401
330
1F
100
AcDbEntity
  8
0-F
  6
JWW_CENTER1
 62
     4
370
     9
100
AcDbLine
 10
-1739.139036001521
 20
972.3512847593795
 30
0.0
 11
-1680.320979136118
 21
972.3512847593795
 31
0.0
  0
LINE
  5
402
330
1F
100
AcDbEntity
  8
0-F
  6
JWW_CENTER1
 62
     4
370
     9
100
AcDbLine
 10
-1739.139036001521
 20
80.35043686558765
 30
0.0
 11
-1680.320979136118
 21
80.35043686558765
 31
0.0
  0
LINE
  5
403
330
1F
100
AcDbEntity
  8
0-F
  6
JWW_CENTER1
 62
     4
370
     9
100
AcDbLine
 10
-1575.514036001521
 20
972.3512847593795
 30
0.0
 11
-1516.695979136118
 21
972.3512847593795
 31
0.0
  0
LINE
  5
404
330
1F
100
AcDbEntity
  8
0-F
  6
JWW_CENTER1
 62
     4
370
     9
100
AcDbLine
 10
-1575.514036001521
 20
80.35043686558765
 30
0.0
 11
-1516.695979136118
 21
80.35043686558765
 31
0.0
  0
LINE
  5
405
330
1F
100
AcDbEntity
  8
0-F
  6
JWW_CENTER1
 62
     4
370
     9
100
AcDbLine
 10
-1325.514036001521
 20
972.3512847593795
 30
0.0
 11
-1266.695979136118
 21
972.3512847593795
 31
0.0
  0
LINE
  5
406
330
1F
100
AcDbEntity
  8
0-F
  6
JWW_CENTER1
 62
     4
370
     9
100
AcDbLine
 10
-1325.514036001521
 20
80.35043686558765
 30
0.0
 11
-1266.695979136118
 21
80.35043686558765
 31
0.0
  0
LINE
  5
407
330
1F
100
AcDbEntity
  8
0-F
  6
JWW_CENTER1
 62
     4
370
     9
100
AcDbLine
 10
-1161.889036001521
 20
972.3512847593795
 30
0.0
 11
-1103.070979136119
 21
972.3512847593795
 31
0.0
  0
LINE
  5
408
330
1F
100
AcDbEntity
  8
0-F
  6
JWW_CENTER1
 62
     4
370
     9
100
AcDbLine
 10
-1161.889036001521
 20
80.35043686558765
 30
0.0
 11
-1103.070979136119
 21
80.35043686558765
 31
0.0
  0
LINE
  5
409
330
1F
100
AcDbEntity
  8
0-F
  6
JWW_CENTER1
 62
     4
370
     9
100
AcDbLine
 10
-911.8890360015212
 20
972.3512847593795
 30
0.0
 11
-853.0709791361187
 21
972.3512847593795
 31
0.0
  0
LINE
  5
40A
330
1F
100
AcDbEntity
  8
0-F
  6
JWW_CENTER1
 62
     4
370
     9
100
AcDbLine
 10
-911.8890360015212
 20
80.35043686558765
 30
0.0
 11
-853.0709791361187
 21
80.35043686558765
 31
0.0
  0
LINE
  5
40B
330
1F
100
AcDbEntity
  8
0-F
  6
JWW_CENTER1
 62
     4
370
     9
100
AcDbLine
 10
-748.2640360015214
 20
972.3512847593795
 30
0.0
 11
-689.4459791361189
 21
972.3512847593795
 31
0.0
  0
LINE
  5
40C
330
1F
100
AcDbEntity
  8
0-F
  6
JWW_CENTER1
 62
     4
370
     9
100
AcDbLine
 10
-748.2640360015214
 20
80.35043686558765
 30
0.0
 11
-689.4459791361189
 21
80.35043686558765
 31
0.0
  0
LINE
  5
40D
330
1F
100
AcDbEntity
  8
0-F
  6
JWW_CENTER1
 62
     4
370
     9
100
AcDbLine
 10
-498.2640360015213
 20
972.3512847593795
 30
0.0
 11
-439.4459791361189
 21
972.3512847593795
 31
0.0
  0
LINE
  5
40E
330
1F
100
AcDbEntity
  8
0-F
  6
JWW_CENTER1
 62
     4
370
     9
100
AcDbLine
 10
-498.2640360015213
 20
80.35043686558765
 30
0.0
 11
-439.4459791361189
 21
80.35043686558765
 31
0.0
  0
LINE
  5
40F
330
1F
100
AcDbEntity
  8
0-F
  6
JWW_CENTER1
 62
     4
370
     9
100
AcDbLine
 10
-334.6390360015215
 20
972.3512847593795
 30
0.0
 11
-275.820979136119
 21
972.3512847593795
 31
0.0
  0
LINE
  5
410
330
1F
100
AcDbEntity
  8
0-F
  6
JWW_CENTER1
 62
     4
370
     9
100
AcDbLine
 10
-334.6390360015215
 20
80.35043686558765
 30
0.0
 11
-275.820979136119
 21
80.35043686558765
 31
0.0
  0
LINE
  5
411
330
1F
100
AcDbEntity
  8
0-F
  6
JWW_CENTER1
 62
     4
370
     9
100
AcDbLine
 10
-84.6390360015215
 20
972.3512847593795
 30
0.0
 11
-25.82097913611904
 21
972.3512847593795
 31
0.0
  0
LINE
  5
412
330
1F
100
AcDbEntity
  8
0-F
  6
JWW_CENTER1
 62
     4
370
     9
100
AcDbLine
 10
-84.6390360015215
 20
80.35043686558765
 30
0.0
 11
-25.82097913611904
 21
80.35043686558765
 31
0.0
  0
TEXT
  5
413
330
1F
100
AcDbEntity
  8
F-5ﾚｲﾔ
  6
Continuous
 62
     2
370
     0
100
AcDbText
 10
-500.1060031230026
 20
-1912.862728200519
 30
0.0
 40
30.48
  1
充填用（充填深さ：３０ｍｍ）　屋内用　一般形　スチール製　ステンレス目地
 41
1.121527777777778
  7
ＭＳ ゴシック
100
AcDbText
  0
LINE
  5
414
330
1F
100
AcDbEntity
  8
D-F
  6
Continuous
 62
     7
370
     9
100
AcDbLine
 10
592.8647659208867
 20
650.4708522089692
 30
0.0
 11
592.8647659208867
 21
400.4708522089649
 31
0.0
  0
TEXT
  5
415
330
1F
100
AcDbEntity
  8
D-F
  6
Continuous
 62
     2
370
   211
100
AcDbText
 10
582.2247659208867
 20
504.220852208967
 30
0.0
 40
30.48
  1
50
 50
90.0
 41
1.0625
  7
ＭＳ ゴシック
100
AcDbText
  0
LINE
  5
416
330
1F
100
AcDbEntity
  8
0-F
  6
Continuous
 62
     7
370
     9
100
AcDbLine
 10
-2053.479877250517
 20
1462.351156090673
 30
0.0
 11
38.52022832380783
 21
1462.351156090673
 31
0.0
  0
TEXT
  5
417
330
1F
100
AcDbEntity
  8
0-F
  6
Continuous
 62
     2
370
   211
100
AcDbText
 10
-1051.229824463355
 20
1473.991156090673
 30
0.0
 40
30.48
  1
2092
 41
1.09375
  7
ＭＳ ゴシック
100
AcDbText
  0
LINE
  5
418
330
1F
100
AcDbEntity
  8
0-F
  6
Continuous
 62
     7
370
     9
100
AcDbLine
 10
163.5041725327553
 20
526.350971335603
 30
0.0
 11
163.5041725327553
 21
1072.350859162887
 31
0.0
  0
TEXT
  5
419
330
1F
100
AcDbEntity
  8
0-F
  6
Continuous
 62
     2
370
   211
100
AcDbText
 10
152.8641725327553
 20
766.8509152492447
 30
0.0
 40
30.48
  1
546
 50
90.0
 41
1.083333333333333
  7
ＭＳ ゴシック
100
AcDbText
  0
LINE
  5
41A
330
1F
100
AcDbEntity
  8
0-F
  6
Continuous
 62
     7
370
     9
100
AcDbLine
 10
-1959.729883848909
 20
899.0495083429857
 30
0.0
 11
-1709.729883848909
 21
899.0495083429857
 31
0.0
  0
TEXT
  5
41B
330
1F
100
AcDbEntity
  8
0-F
  6
Continuous
 62
     2
370
   211
100
AcDbText
 10
-1867.229883848909
 20
909.6895083429857
 30
0.0
 40
30.48
  1
250
 41
1.083333333333333
  7
ＭＳ ゴシック
100
AcDbText
  0
LINE
  5
41C
330
1F
100
AcDbEntity
  8
0-F
  6
Continuous
 62
     7
370
     9
100
AcDbLine
 10
163.5041725327552
 20
-19.64883401173438
 30
0.0
 11
163.5041725327553
 21
526.350971335603
 31
0.0
  0
TEXT
  5
41D
330
1F
100
AcDbEntity
  8
0-F
  6
Continuous
 62
     2
370
   211
100
AcDbText
 10
152.8641725327553
 20
220.8510686619343
 30
0.0
 40
30.48
  1
546
 50
90.0
 41
1.083333333333333
  7
ＭＳ ゴシック
100
AcDbText
  0
LINE
  5
41E
330
1F
100
AcDbEntity
  8
0-F
  6
Continuous
 62
     7
370
     9
100
AcDbLine
 10
-2144.103699276643
 20
-73.6491111443354
 30
0.0
 11
-2144.103699276643
 21
1126.350888855665
 31
0.0
  0
TEXT
  5
41F
330
1F
100
AcDbEntity
  8
0-F
  6
Continuous
 62
     2
370
   211
100
AcDbText
 10
-2155.7436200959
 20
482.6008888556646
 30
0.0
 40
30.48
  1
1200
 50
90.0
 41
1.09375
  7
ＭＳ ゴシック
100
AcDbText
  0
LINE
  5
420
330
1F
100
AcDbEntity
  8
0-F
  6
Continuous
 62
     7
370
     9
100
AcDbLine
 10
-2250.273046591071
 20
-106.6491705298927
 30
0.0
 11
-2250.273046591071
 21
1159.350948241222
 31
0.0
  0
TEXT
  5
421
330
1F
100
AcDbEntity
  8
0-F
  6
Continuous
 62
     2
370
   211
100
AcDbText
 10
-2261.912967410328
 20
482.6008888556646
 30
0.0
 40
30.48
  1
1266
 50
90.0
 41
1.09375
  7
ＭＳ ゴシック
100
AcDbText
  0
LINE
  5
422
330
1F
100
AcDbEntity
  8
0-F
  6
Continuous
 62
     7
370
     9
100
AcDbLine
 10
-2352.736269140413
 20
-119.6491639314979
 30
0.0
 11
-2352.736269140413
 21
1172.350941642827
 31
0.0
  0
TEXT
  5
423
330
1F
100
AcDbEntity
  8
0-F
  6
Continuous
 62
     2
370
   211
100
AcDbText
 10
-2364.376189959669
 20
482.6008888556646
 30
0.0
 40
30.48
  1
1292
 50
90.0
 41
1.09375
  7
ＭＳ ゴシック
100
AcDbText
  0
ENDSEC
  0
SECTION
  2
OBJECTS
  0
DICTIONARY
  5
C
330
0
100
AcDbDictionary
281
     1
  3
ACAD_DETAILVIEWSTYLE
350
469
  3
ACAD_GROUP
350
D
  3
ACAD_LAYOUT
350
1A
  3
ACAD_MATERIAL
350
43
  3
ACAD_MLEADERSTYLE
350
6B
  3
ACAD_MLINESTYLE
350
17
  3
ACAD_PLOTSETTINGS
350
19
  3
ACAD_PLOTSTYLENAME
350
E
  3
ACAD_SCALELIST
350
47
  3
ACAD_SECTIONVIEWSTYLE
350
46A
  3
ACAD_TABLESTYLE
350
69
  3
ACAD_VISUALSTYLE
350
2A
  3
ACDB_RECOMPOSE_DATA
350
466
  3
AcDbVariableDictionary
350
426
  0
DICTIONARY
  5
424
330
8
100
AcDbDictionary
280
     1
281
     1
  3
ACAD_XREC_ROUNDTRIP
360
425
  0
DICTIONARY
  5
469
102
{ACAD_REACTORS
330
C
102
}
330
C
100
AcDbDictionary
281
     1
  0
DICTIONARY
  5
D
102
{ACAD_REACTORS
330
C
102
}
330
C
100
AcDbDictionary
281
     1
  0
DICTIONARY
  5
1A
102
{ACAD_REACTORS
330
C
102
}
330
C
100
AcDbDictionary
281
     1
  3
Layout1
350
1E
  3
Layout2
350
26
  3
Model
350
22
  0
DICTIONARY
  5
43
102
{ACAD_REACTORS
330
C
102
}
330
C
100
AcDbDictionary
281
     1
  3
ByBlock
350
45
  3
ByLayer
350
44
  3
Global
350
46
  0
DICTIONARY
  5
6B
102
{ACAD_REACTORS
330
C
102
}
330
C
100
AcDbDictionary
281
     1
  3
Standard
350
6C
  0
DICTIONARY
  5
17
102
{ACAD_REACTORS
330
C
102
}
330
C
100
AcDbDictionary
281
     1
  3
Standard
350
18
  0
DICTIONARY
  5
19
102
{ACAD_REACTORS
330
C
102
}
330
C
100
AcDbDictionary
281
     1
  0
ACDBDICTIONARYWDFLT
  5
E
102
{ACAD_REACTORS
330
C
102
}
330
C
100
AcDbDictionary
281
     1
  3
Normal
350
F
100
AcDbDictionaryWithDefault
340
F
  0
DICTIONARY
  5
47
102
{ACAD_REACTORS
330
C
102
}
330
C
100
AcDbDictionary
281
     1
  3
A0
350
48
  3
A1
350
49
  3
A2
350
4A
  3
A3
350
4B
  3
A4
350
4C
  3
A5
350
4D
  3
A6
350
4E
  3
A7
350
4F
  3
A8
350
50
  3
A9
350
51
  3
B0
350
52
  3
B1
350
53
  3
B2
350
54
  3
B3
350
55
  3
B4
350
56
  3
B5
350
57
  3
B6
350
58
  3
B7
350
59
  3
B8
350
5A
  3
B9
350
5B
  3
C0
350
5C
  3
C1
350
5D
  3
C2
350
5E
  3
C3
350
5F
  3
C4
350
60
  3
C5
350
61
  3
C6
350
62
  3
C7
350
63
  3
C8
350
64
  3
C9
350
65
  3
D0
350
66
  3
D1
350
67
  3
D2
350
68
  0
DICTIONARY
  5
46A
102
{ACAD_REACTORS
330
C
102
}
330
C
100
AcDbDictionary
281
     1
  0
DICTIONARY
  5
69
102
{ACAD_REACTORS
330
C
102
}
330
C
100
AcDbDictionary
281
     1
  3
Standard
350
6A
  0
DICTIONARY
  5
2A
102
{ACAD_REACTORS
330
C
102
}
330
C
100
AcDbDictionary
281
     1
  3
2dWireframe
350
2F
  3
Basic
350
32
  3
Brighten
350
36
  3
ColorChange
350
3A
  3
Conceptual
350
34
  3
Dim
350
35
  3
EdgeColorOff
350
3D
  3
Facepattern
350
39
  3
Flat
350
2B
  3
FlatWithEdges
350
2C
  3
Gouraud
350
2D
  3
GouraudWithEdges
350
2E
  3
Hidden
350
31
  3
JitterOff
350
3B
  3
Linepattern
350
38
  3
OverhangOff
350
3C
  3
Realistic
350
33
  3
Shaded
350
42
  3
Shaded with edges
350
41
  3
Shades of Gray
350
3E
  3
Sketchy
350
3F
  3
Thicken
350
37
  3
Wireframe
350
30
  3
X-Ray
350
40
  0
XRECORD
  5
466
102
{ACAD_REACTORS
330
C
102
}
330
C
100
AcDbXrecord
280
     1
 90
        1
330
6A
  0
DICTIONARY
  5
426
102
{ACAD_REACTORS
330
C
102
}
330
C
100
AcDbDictionary
281
     1
  3
CANNOSCALE
350
427
  3
CENTEREXE
350
46B
  3
CENTERLTYPEFILE
350
46C
  3
CMLEADERSTYLE
350
468
  3
CTABLESTYLE
350
467
  3
MSLTSCALE
350
428
  3
XCLIPFRAME
350
429
  0
XRECORD
  5
425
102
{ACAD_REACTORS
330
424
102
}
330
424
100
AcDbXrecord
280
     1
102
VTR_0.000_0.000_1.000_1.000_VISUALSTYLE
340
2F
102
VTR_0.000_0.000_1.000_1.000_GRIDDISPLAY
 70
     3
102
VTR_0.000_0.000_1.000_1.000_GRIDMAJOR
 70
     5
102
VTR_0.000_0.000_1.000_1.000_DEFAULTLIGHTING
280
     1
102
VTR_0.000_0.000_1.000_1.000_DEFAULTLIGHTINGTYPE
 70
     1
102
VTR_0.000_0.000_1.000_1.000_BRIGHTNESS
141
0.0
102
VTR_0.000_0.000_1.000_1.000_CONTRAST
142
0.0
  0
LAYOUT
  5
1E
102
{ACAD_REACTORS
330
1A
102
}
330
1A
100
AcDbPlotSettings
  1

  2
none_device
  4

  6

 40
0.0
 41
0.0
 42
0.0
 43
0.0
 44
0.0
 45
0.0
 46
0.0
 47
0.0
 48
0.0
 49
0.0
140
0.0
141
0.0
142
1.0
143
1.0
 70
   688
 72
     1
 73
     0
 74
     5
  7

 75
    16
 76
     0
 77
     5
 78
   300
147
1.0
148
0.0
149
0.0
100
AcDbLayout
  1
Layout1
 70
     1
 71
     1
 10
0.0
 20
0.0
 11
420.0
 21
297.0
 12
0.0
 22
0.0
 32
0.0
 14
1.000000000000000E+20
 24
1.000000000000000E+20
 34
1.000000000000000E+20
 15
-1.000000000000000E+20
 25
-1.000000000000000E+20
 35
-1.000000000000000E+20
146
0.0
 13
0.0
 23
0.0
 33
0.0
 16
1.0
 26
0.0
 36
0.0
 17
0.0
 27
1.0
 37
0.0
 76
     0
330
1B
  0
LAYOUT
  5
26
102
{ACAD_REACTORS
330
1A
102
}
330
1A
100
AcDbPlotSettings
  1

  2
none_device
  4

  6

 40
0.0
 41
0.0
 42
0.0
 43
0.0
 44
0.0
 45
0.0
 46
0.0
 47
0.0
 48
0.0
 49
0.0
140
0.0
141
0.0
142
1.0
143
1.0
 70
   688
 72
     1
 73
     0
 74
     5
  7

 75
    16
 76
     0
 77
     5
 78
   300
147
1.0
148
0.0
149
0.0
100
AcDbLayout
  1
Layout2
 70
     1
 71
     2
 10
0.0
 20
0.0
 11
0.0
 21
0.0
 12
0.0
 22
0.0
 32
0.0
 14
0.0
 24
0.0
 34
0.0
 15
0.0
 25
0.0
 35
0.0
146
0.0
 13
0.0
 23
0.0
 33
0.0
 16
1.0
 26
0.0
 36
0.0
 17
0.0
 27
1.0
 37
0.0
 76
     0
330
23
  0
LAYOUT
  5
22
102
{ACAD_REACTORS
330
1A
102
}
330
1A
100
AcDbPlotSettings
  1

  2
none_device
  4
Letter_(8.50_x_11.00_Inches)
  6

 40
6.35
 41
6.35
 42
6.35000508
 43
6.35000508
 44
215.9
 45
279.4
 46
0.0
 47
0.0
 48
0.0
 49
0.0
140
0.0
141
0.0
142
1.0
143
1.0
 70
  1712
 72
     1
 73
     0
 74
     0
  7

 75
     0
 76
     0
 77
     5
 78
   300
147
1.0
148
0.0
149
0.0
100
AcDbLayout
  1
Model
 70
     1
 71
     0
 10
-2970.0
 20
-2100.0
 11
2970.0
 21
2100.0
 12
0.0
 22
0.0
 32
0.0
 14
-2970.0
 24
-2100.0
 34
0.0
 15
2970.0
 25
2100.0
 35
0.0
146
0.0
 13
0.0
 23
0.0
 33
0.0
 16
1.0
 26
0.0
 36
0.0
 17
0.0
 27
1.0
 37
0.0
 76
     0
330
1F
331
29
  0
MATERIAL
  5
45
102
{ACAD_REACTORS
330
43
102
}
102
{ACAD_XDICTIONARY
360
45C
102
}
330
43
100
AcDbMaterial
  1
ByBlock
  0
MATERIAL
  5
44
102
{ACAD_REACTORS
330
43
102
}
102
{ACAD_XDICTIONARY
360
45A
102
}
330
43
100
AcDbMaterial
  1
ByLayer
  0
MATERIAL
  5
46
102
{ACAD_REACTORS
330
43
102
}
102
{ACAD_XDICTIONARY
360
45E
102
}
330
43
100
AcDbMaterial
  1
Global
  0
MLEADERSTYLE
  5
6C
102
{ACAD_REACTORS
330
6B
102
}
102
{ACAD_XDICTIONARY
360
464
102
}
330
6B
100
AcDbMLeaderStyle
170
     2
171
     1
172
     0
 90
        2
 40
0.0
 41
0.0
173
     1
 91
-1056964608
340
14
 92
       -2
290
     1
 42
2.0
291
     1
 43
8.0
  3
Standard
341
0
 44
4.0
300

342
11
174
     1
178
     6
175
     1
176
     0
 93
-1056964608
 45
4.0
292
     0
297
     0
 46
4.0
343
0
 94
-1056964608
 47
1.0
 49
1.0
140
1.0
293
     1
141
0.0
294
     1
177
     0
142
1.0
295
     0
296
     0
143
3.75
1001
ACAD_MLEADERVER
1070
     2
  0
MLINESTYLE
  5
18
102
{ACAD_REACTORS
330
17
102
}
330
17
100
AcDbMlineStyle
  2
Standard
 70
     0
  3

 62
   256
 51
90.0
 52
90.0
 71
     2
 49
0.5
 62
   256
  6
BYLAYER
 49
-0.5
 62
   256
  6
BYLAYER
  0
ACDBPLACEHOLDER
  5
F
102
{ACAD_REACTORS
330
E
102
}
330
E
  0
SCALE
  5
48
102
{ACAD_REACTORS
330
47
102
}
330
47
100
AcDbScale
 70
     0
300
1:1
140
1.0
141
1.0
290
     1
  0
SCALE
  5
49
102
{ACAD_REACTORS
330
47
102
}
330
47
100
AcDbScale
 70
     0
300
1:2
140
1.0
141
2.0
290
     0
  0
SCALE
  5
4A
102
{ACAD_REACTORS
330
47
102
}
330
47
100
AcDbScale
 70
     0
300
1:4
140
1.0
141
4.0
290
     0
  0
SCALE
  5
4B
102
{ACAD_REACTORS
330
47
102
}
330
47
100
AcDbScale
 70
     0
300
1:5
140
1.0
141
5.0
290
     0
  0
SCALE
  5
4C
102
{ACAD_REACTORS
330
47
102
}
330
47
100
AcDbScale
 70
     0
300
1:8
140
1.0
141
8.0
290
     0
  0
SCALE
  5
4D
102
{ACAD_REACTORS
330
47
102
}
330
47
100
AcDbScale
 70
     0
300
1:10
140
1.0
141
10.0
290
     0
  0
SCALE
  5
4E
102
{ACAD_REACTORS
330
47
102
}
330
47
100
AcDbScale
 70
     0
300
1:16
140
1.0
141
16.0
290
     0
  0
SCALE
  5
4F
102
{ACAD_REACTORS
330
47
102
}
330
47
100
AcDbScale
 70
     0
300
1:20
140
1.0
141
20.0
290
     0
  0
SCALE
  5
50
102
{ACAD_REACTORS
330
47
102
}
330
47
100
AcDbScale
 70
     0
300
1:30
140
1.0
141
30.0
290
     0
  0
SCALE
  5
51
102
{ACAD_REACTORS
330
47
102
}
330
47
100
AcDbScale
 70
     0
300
1:40
140
1.0
141
40.0
290
     0
  0
SCALE
  5
52
102
{ACAD_REACTORS
330
47
102
}
330
47
100
AcDbScale
 70
     0
300
1:50
140
1.0
141
50.0
290
     0
  0
SCALE
  5
53
102
{ACAD_REACTORS
330
47
102
}
330
47
100
AcDbScale
 70
     0
300
1:100
140
1.0
141
100.0
290
     0
  0
SCALE
  5
54
102
{ACAD_REACTORS
330
47
102
}
330
47
100
AcDbScale
 70
     0
300
2:1
140
2.0
141
1.0
290
     0
  0
SCALE
  5
55
102
{ACAD_REACTORS
330
47
102
}
330
47
100
AcDbScale
 70
     0
300
4:1
140
4.0
141
1.0
290
     0
  0
SCALE
  5
56
102
{ACAD_REACTORS
330
47
102
}
330
47
100
AcDbScale
 70
     0
300
8:1
140
8.0
141
1.0
290
     0
  0
SCALE
  5
57
102
{ACAD_REACTORS
330
47
102
}
330
47
100
AcDbScale
 70
     0
300
10:1
140
10.0
141
1.0
290
     0
  0
SCALE
  5
58
102
{ACAD_REACTORS
330
47
102
}
330
47
100
AcDbScale
 70
     0
300
100:1
140
100.0
141
1.0
290
     0
  0
SCALE
  5
59
102
{ACAD_REACTORS
330
47
102
}
330
47
100
AcDbScale
 70
     0
300
1/128" = 1'-0"
140
0.0078125
141
12.0
290
     0
  0
SCALE
  5
5A
102
{ACAD_REACTORS
330
47
102
}
330
47
100
AcDbScale
 70
     0
300
1/64" = 1'-0"
140
0.015625
141
12.0
290
     0
  0
SCALE
  5
5B
102
{ACAD_REACTORS
330
47
102
}
330
47
100
AcDbScale
 70
     0
300
1/32" = 1'-0"
140
0.03125
141
12.0
290
     0
  0
SCALE
  5
5C
102
{ACAD_REACTORS
330
47
102
}
330
47
100
AcDbScale
 70
     0
300
1/16" = 1'-0"
140
0.0625
141
12.0
290
     0
  0
SCALE
  5
5D
102
{ACAD_REACTORS
330
47
102
}
330
47
100
AcDbScale
 70
     0
300
3/32" = 1'-0"
140
0.09375
141
12.0
290
     0
  0
SCALE
  5
5E
102
{ACAD_REACTORS
330
47
102
}
330
47
100
AcDbScale
 70
     0
300
1/8" = 1'-0"
140
0.125
141
12.0
290
     0
  0
SCALE
  5
5F
102
{ACAD_REACTORS
330
47
102
}
330
47
100
AcDbScale
 70
     0
300
3/16" = 1'-0"
140
0.1875
141
12.0
290
     0
  0
SCALE
  5
60
102
{ACAD_REACTORS
330
47
102
}
330
47
100
AcDbScale
 70
     0
300
1/4" = 1'-0"
140
0.25
141
12.0
290
     0
  0
SCALE
  5
61
102
{ACAD_REACTORS
330
47
102
}
330
47
100
AcDbScale
 70
     0
300
3/8" = 1'-0"
140
0.375
141
12.0
290
     0
  0
SCALE
  5
62
102
{ACAD_REACTORS
330
47
102
}
330
47
100
AcDbScale
 70
     0
300
1/2" = 1'-0"
140
0.5
141
12.0
290
     0
  0
SCALE
  5
63
102
{ACAD_REACTORS
330
47
102
}
330
47
100
AcDbScale
 70
     0
300
3/4" = 1'-0"
140
0.75
141
12.0
290
     0
  0
SCALE
  5
64
102
{ACAD_REACTORS
330
47
102
}
330
47
100
AcDbScale
 70
     0
300
1" = 1'-0"
140
1.0
141
12.0
290
     0
  0
SCALE
  5
65
102
{ACAD_REACTORS
330
47
102
}
330
47
100
AcDbScale
 70
     0
300
1-1/2" = 1'-0"
140
1.5
141
12.0
290
     0
  0
SCALE
  5
66
102
{ACAD_REACTORS
330
47
102
}
330
47
100
AcDbScale
 70
     0
300
3" = 1'-0"
140
3.0
141
12.0
290
     0
  0
SCALE
  5
67
102
{ACAD_REACTORS
330
47
102
}
330
47
100
AcDbScale
 70
     0
300
6" = 1'-0"
140
6.0
141
12.0
290
     0
  0
SCALE
  5
68
102
{ACAD_REACTORS
330
47
102
}
330
47
100
AcDbScale
 70
     0
300
1'-0" = 1'-0"
140
12.0
141
12.0
290
     0
  0
TABLESTYLE
  5
6A
102
{ACAD_REACTORS
330
69
102
}
102
{ACAD_XDICTIONARY
360
460
102
}
330
69
100
AcDbTableStyle
  3
Standard
 70
     0
 71
     0
 40
0.06
 41
0.06
280
     0
281
     0
  7
Standard
140
4.5
170
     2
 62
     0
 63
   257
283
     0
274
    -2
284
     1
 64
     0
275
    -2
285
     1
 65
     0
276
    -2
286
     1
 66
     0
277
    -2
287
     1
 67
     0
278
    -2
288
     1
 68
     0
279
    -2
289
     1
 69
     0
  7
Standard
140
6.0
170
     5
 62
     0
 63
   257
283
     0
274
    -2
284
     1
 64
     0
275
    -2
285
     1
 65
     0
276
    -2
286
     1
 66
     0
277
    -2
287
     1
 67
     0
278
    -2
288
     1
 68
     0
279
    -2
289
     1
 69
     0
  7
Standard
140
4.5
170
     5
 62
     0
 63
   257
283
     0
274
    -2
284
     1
 64
     0
275
    -2
285
     1
 65
     0
276
    -2
286
     1
 66
     0
277
    -2
287
     1
 67
     0
278
    -2
288
     1
 68
     0
279
    -2
289
     1
 69
     0
  0
VISUALSTYLE
  5
2F
102
{ACAD_REACTORS
330
2A
102
}
102
{ACAD_XDICTIONARY
360
432
102
}
330
2A
100
AcDbVisualStyle
  2
2dWireframe
 70
     4
 71
     0
 72
     2
 73
     0
 90
        0
 40
0.6
 41
30.0
 62
     5
 63
     7
421
 16777215
 74
     1
 91
        4
 64
     7
 65
   257
 75
     1
175
     1
 42
1.0
 92
        0
 66
   257
 43
1.0
 76
     1
 77
     6
 78
     2
 67
     7
 79
     5
170
     0
171
     0
290
     0
174
     0
 93
        1
 44
0.0
173
     0
291
     0
 45
0.0
1001
ACAD
1000
AcDbSavedByObjectVersion
1070
     0
  0
VISUALSTYLE
  5
32
102
{ACAD_REACTORS
330
2A
102
}
102
{ACAD_XDICTIONARY
360
438
102
}
330
2A
100
AcDbVisualStyle
  2
Basic
 70
     7
 71
     1
 72
     0
 73
     1
 90
        0
 40
0.6
 41
30.0
 62
     5
 63
     7
421
 16777215
 74
     0
 91
        4
 64
     7
 65
   257
 75
     1
175
     1
 42
1.0
 92
        8
 66
     7
 43
1.0
 76
     1
 77
     6
 78
     2
 67
     7
 79
     5
170
     0
171
     0
290
     0
174
     0
 93
        1
 44
0.0
173
     0
291
     1
 45
0.0
1001
ACAD
1000
AcDbSavedByObjectVersion
1070
     0
  0
VISUALSTYLE
  5
36
102
{ACAD_REACTORS
330
2A
102
}
102
{ACAD_XDICTIONARY
360
440
102
}
330
2A
100
AcDbVisualStyle
  2
Brighten
 70
    12
 71
     2
 72
     2
 73
     0
 90
        0
 40
0.6
 41
30.0
 62
     5
 63
     7
421
 16777215
 74
     1
 91
        4
 64
     7
 65
   257
 75
     1
175
     1
 42
1.0
 92
        8
 66
     7
 43
1.0
 76
     1
 77
     6
 78
     2
 67
     7
 79
     5
170
     0
171
     0
290
     0
174
     0
 93
        1
 44
50.0
173
     0
291
     1
 45
0.0
1001
ACAD
1000
AcDbSavedByObjectVersion
1070
     0
  0
VISUALSTYLE
  5
3A
102
{ACAD_REACTORS
330
2A
102
}
102
{ACAD_XDICTIONARY
360
448
102
}
330
2A
100
AcDbVisualStyle
  2
ColorChange
 70
    16
 71
     2
 72
     2
 73
     3
 90
        0
 40
0.6
 41
30.0
 62
     5
 63
     8
421
  8421504
 74
     1
 91
        4
 64
     7
 65
   257
 75
     1
175
     1
 42
1.0
 92
        8
 66
     8
424
  8421504
 43
1.0
 76
     1
 77
     6
 78
     2
 67
     7
 79
     5
170
     0
171
     0
290
     0
174
     0
 93
        1
 44
0.0
173
     0
291
     1
 45
0.0
1001
ACAD
1000
AcDbSavedByObjectVersion
1070
     0
  0
VISUALSTYLE
  5
34
102
{ACAD_REACTORS
330
2A
102
}
102
{ACAD_XDICTIONARY
360
43C
102
}
330
2A
100
AcDbVisualStyle
  2
Conceptual
 70
     9
 71
     3
 72
     2
 73
     0
 90
        0
 40
0.6
 41
30.0
 62
     5
 63
     7
421
 16777215
 74
     2
 91
        2
 64
     7
 65
   257
 75
     1
175
     1
 42
179.0
 92
        8
 66
     7
 43
1.0
 76
     1
 77
     6
 78
     2
 67
     7
 79
     3
170
     0
171
     0
290
     0
174
     0
 93
        1
 44
0.0
173
     0
291
     0
 45
0.0
1001
ACAD
1000
AcDbSavedByObjectVersion
1070
     0
  0
VISUALSTYLE
  5
35
102
{ACAD_REACTORS
330
2A
102
}
102
{ACAD_XDICTIONARY
360
43E
102
}
330
2A
100
AcDbVisualStyle
  2
Dim
 70
    11
 71
     2
 72
     2
 73
     0
 90
        0
 40
0.6
 41
30.0
 62
     5
 63
     7
421
 16777215
 74
     1
 91
        4
 64
     7
 65
   257
 75
     1
175
     1
 42
1.0
 92
        8
 66
     7
 43
1.0
 76
     1
 77
     6
 78
     2
 67
     7
 79
     5
170
     0
171
     0
290
     0
174
     0
 93
        1
 44
-50.0
173
     0
291
     1
 45
0.0
1001
ACAD
1000
AcDbSavedByObjectVersion
1070
     0
  0
VISUALSTYLE
  5
3D
102
{ACAD_REACTORS
330
2A
102
}
102
{ACAD_XDICTIONARY
360
44E
102
}
330
2A
100
AcDbVisualStyle
  2
EdgeColorOff
 70
    22
 71
     2
 72
     2
 73
     0
 90
        0
 40
0.6
 41
30.0
 62
     5
 63
     7
421
 16777215
 74
     1
 91
        4
 64
     7
 65
   257
 75
     1
175
     1
 42
1.0
 92
        8
 66
     7
 43
1.0
 76
     1
 77
     6
 78
     2
 67
     7
 79
     5
170
     0
171
     0
290
     0
174
     0
 93
        1
 44
0.0
173
     0
291
     1
 45
0.0
1001
ACAD
1000
AcDbSavedByObjectVersion
1070
     0
  0
VISUALSTYLE
  5
39
102
{ACAD_REACTORS
330
2A
102
}
102
{ACAD_XDICTIONARY
360
446
102
}
330
2A
100
AcDbVisualStyle
  2
Facepattern
 70
    15
 71
     2
 72
     2
 73
     0
 90
        0
 40
0.6
 41
30.0
 62
     5
 63
     7
421
 16777215
 74
     1
 91
        4
 64
     7
 65
   257
 75
     1
175
     1
 42
1.0
 92
        8
 66
     7
 43
1.0
 76
     1
 77
     6
 78
     2
 67
     7
 79
     5
170
     0
171
     0
290
     0
174
     0
 93
        1
 44
0.0
173
     0
291
     1
 45
0.0
1001
ACAD
1000
AcDbSavedByObjectVersion
1070
     0
  0
VISUALSTYLE
  5
2B
102
{ACAD_REACTORS
330
2A
102
}
102
{ACAD_XDICTIONARY
360
42A
102
}
330
2A
100
AcDbVisualStyle
  2
Flat
 70
     0
 71
     2
 72
     1
 73
     1
 90
        2
 40
0.6
 41
30.0
 62
     5
 63
     7
421
 16777215
 74
     0
 91
        0
 64
     7
 65
   257
 75
     1
175
     1
 42
1.0
 92
        8
 66
     7
 43
1.0
 76
     1
 77
     6
 78
     2
 67
     7
 79
     5
170
     0
171
     0
290
     0
174
     0
 93
       13
 44
0.0
173
     0
291
     1
 45
0.0
1001
ACAD
1000
AcDbSavedByObjectVersion
1070
     0
  0
VISUALSTYLE
  5
2C
102
{ACAD_REACTORS
330
2A
102
}
102
{ACAD_XDICTIONARY
360
42C
102
}
330
2A
100
AcDbVisualStyle
  2
FlatWithEdges
 70
     1
 71
     2
 72
     1
 73
     1
 90
        2
 40
0.6
 41
30.0
 62
     5
 63
     7
421
 16777215
 74
     1
 91
        0
 64
     7
 65
   257
 75
     1
175
     1
 42
1.0
 92
        0
 66
   257
 43
1.0
 76
     1
 77
     6
 78
     2
 67
     7
 79
     5
170
     0
171
     0
290
     0
174
     0
 93
       13
 44
0.0
173
     0
291
     1
 45
0.0
1001
ACAD
1000
AcDbSavedByObjectVersion
1070
     0
  0
VISUALSTYLE
  5
2D
102
{ACAD_REACTORS
330
2A
102
}
102
{ACAD_XDICTIONARY
360
42E
102
}
330
2A
100
AcDbVisualStyle
  2
Gouraud
 70
     2
 71
     2
 72
     2
 73
     1
 90
        2
 40
0.6
 41
30.0
 62
     5
 63
     7
421
 16777215
 74
     0
 91
        0
 64
     7
 65
   257
 75
     1
175
     1
 42
1.0
 92
        0
 66
     7
 43
1.0
 76
     1
 77
     6
 78
     2
 67
     7
 79
     5
170
     0
171
     0
290
     0
174
     0
 93
       13
 44
0.0
173
     0
291
     1
 45
0.0
1001
ACAD
1000
AcDbSavedByObjectVersion
1070
     0
  0
VISUALSTYLE
  5
2E
102
{ACAD_REACTORS
330
2A
102
}
102
{ACAD_XDICTIONARY
360
430
102
}
330
2A
100
AcDbVisualStyle
  2
GouraudWithEdges
 70
     3
 71
     2
 72
     2
 73
     1
 90
        2
 40
0.6
 41
30.0
 62
     5
 63
     7
421
 16777215
 74
     1
 91
        0
 64
     7
 65
   257
 75
     1
175
     1
 42
1.0
 92
        0
 66
   257
 43
1.0
 76
     1
 77
     6
 78
     2
 67
     7
 79
     5
170
     0
171
     0
290
     0
174
     0
 93
       13
 44
0.0
173
     0
291
     1
 45
0.0
1001
ACAD
1000
AcDbSavedByObjectVersion
1070
     0
  0
VISUALSTYLE
  5
31
102
{ACAD_REACTORS
330
2A
102
}
102
{ACAD_XDICTIONARY
360
436
102
}
330
2A
100
AcDbVisualStyle
  2
Hidden
 70
     6
 71
     1
 72
     2
 73
     2
 90
        0
 40
0.6
 41
30.0
 62
     5
 63
     7
421
 16777215
 74
     2
 91
        2
 64
     7
 65
   257
 75
     2
175
     1
 42
40.0
 92
        0
 66
   257
 43
1.0
 76
     1
 77
     6
 78
     2
 67
     7
 79
     3
170
     0
171
     0
290
     0
174
     0
 93
        1
 44
0.0
173
     0
291
     0
 45
0.0
1001
ACAD
1000
AcDbSavedByObjectVersion
1070
     0
  0
VISUALSTYLE
  5
3B
102
{ACAD_REACTORS
330
2A
102
}
102
{ACAD_XDICTIONARY
360
44A
102
}
330
2A
100
AcDbVisualStyle
  2
JitterOff
 70
    20
 71
     2
 72
     2
 73
     0
 90
        0
 40
0.6
 41
30.0
 62
     5
 63
     7
421
 16777215
 74
     1
 91
        4
 64
     7
 65
   257
 75
     1
175
     1
 42
1.0
 92
       10
 66
     7
 43
1.0
 76
     1
 77
     6
 78
     2
 67
     7
 79
     5
170
     0
171
     0
290
     0
174
     0
 93
        1
 44
0.0
173
     0
291
     1
 45
0.0
1001
ACAD
1000
AcDbSavedByObjectVersion
1070
     0
  0
VISUALSTYLE
  5
38
102
{ACAD_REACTORS
330
2A
102
}
102
{ACAD_XDICTIONARY
360
444
102
}
330
2A
100
AcDbVisualStyle
  2
Linepattern
 70
    14
 71
     2
 72
     2
 73
     0
 90
        0
 40
0.6
 41
30.0
 62
     5
 63
     7
421
 16777215
 74
     1
 91
        4
 64
     7
 65
   257
 75
     7
175
     7
 42
1.0
 92
        8
 66
     7
 43
1.0
 76
     1
 77
     6
 78
     2
 67
     7
 79
     5
170
     0
171
     0
290
     0
174
     0
 93
        1
 44
0.0
173
     0
291
     1
 45
0.0
1001
ACAD
1000
AcDbSavedByObjectVersion
1070
     0
  0
VISUALSTYLE
  5
3C
102
{ACAD_REACTORS
330
2A
102
}
102
{ACAD_XDICTIONARY
360
44C
102
}
330
2A
100
AcDbVisualStyle
  2
OverhangOff
 70
    21
 71
     2
 72
     2
 73
     0
 90
        0
 40
0.6
 41
30.0
 62
     5
 63
     7
421
 16777215
 74
     1
 91
        4
 64
     7
 65
   257
 75
     1
175
     1
 42
1.0
 92
        9
 66
     7
 43
1.0
 76
     1
 77
     6
 78
     2
 67
     7
 79
     5
170
     0
171
     0
290
     0
174
     0
 93
        1
 44
0.0
173
     0
291
     1
 45
0.0
1001
ACAD
1000
AcDbSavedByObjectVersion
1070
     0
  0
VISUALSTYLE
  5
33
102
{ACAD_REACTORS
330
2A
102
}
102
{ACAD_XDICTIONARY
360
43A
102
}
330
2A
100
AcDbVisualStyle
  2
Realistic
 70
     8
 71
     2
 72
     3
 73
     0
 90
        2
 40
0.6
 41
30.0
 62
     5
 63
     7
421
 16777215
 74
     0
 91
        0
 64
     7
 65
   257
 75
     1
175
     1
 42
1.0
 92
        8
 66
   257
 43
1.0
 76
     1
 77
     6
 78
     2
 67
     7
 79
     3
170
     0
171
     0
290
     0
174
     0
 93
       13
 44
0.0
173
     0
291
     0
 45
0.0
1001
ACAD
1000
AcDbSavedByObjectVersion
1070
     0
  0
VISUALSTYLE
  5
42
102
{ACAD_REACTORS
330
2A
102
}
102
{ACAD_XDICTIONARY
360
458
102
}
330
2A
100
AcDbVisualStyle
  2
Shaded
 70
    27
 71
     2
 72
     2
 73
     1
 90
        2
 40
0.6
 41
30.0
 62
     5
 63
     7
421
 16777215
 74
     0
 91
        4
 64
     7
 65
   257
 75
     1
175
     1
 42
1.0
 92
        8
 66
   257
 43
1.0
 76
     1
 77
     6
 78
     2
 67
     8
425
  7895160
 79
     3
170
     0
171
     0
290
     0
174
     0
 93
        5
 44
0.0
173
     0
291
     0
 45
0.0
1001
ACAD
1000
AcDbSavedByObjectVersion
1070
     0
  0
VISUALSTYLE
  5
41
102
{ACAD_REACTORS
330
2A
102
}
102
{ACAD_XDICTIONARY
360
456
102
}
330
2A
100
AcDbVisualStyle
  2
Shaded with edges
 70
    26
 71
     2
 72
     2
 73
     1
 90
        2
 40
0.6
 41
30.0
 62
     5
 63
     7
421
 16777215
 74
     1
 91
       10
 64
     7
 65
   257
 75
     2
175
     1
 42
1.0
 92
        8
 66
   257
 43
1.0
 76
     1
 77
     6
 78
     2
 67
     7
 79
     3
170
     0
171
     0
290
     0
174
     0
 93
        5
 44
0.0
173
     0
291
     0
 45
0.0
1001
ACAD
1000
AcDbSavedByObjectVersion
1070
     0
  0
VISUALSTYLE
  5
3E
102
{ACAD_REACTORS
330
2A
102
}
102
{ACAD_XDICTIONARY
360
450
102
}
330
2A
100
AcDbVisualStyle
  2
Shades of Gray
 70
    23
 71
     2
 72
     2
 73
     3
 90
        0
 40
0.6
 41
30.0
 62
     5
 63
     7
421
 16777215
 74
     2
 91
        2
 64
     7
 65
     7
 75
     1
175
     1
 42
40.0
 92
        8
 66
     7
 43
1.0
 76
     1
 77
     6
 78
     2
 67
     7
 79
     3
170
     0
171
     0
290
     0
174
     0
 93
        1
 44
0.0
173
     0
291
     0
 45
0.0
1001
ACAD
1000
AcDbSavedByObjectVersion
1070
     0
  0
VISUALSTYLE
  5
3F
102
{ACAD_REACTORS
330
2A
102
}
102
{ACAD_XDICTIONARY
360
452
102
}
330
2A
100
AcDbVisualStyle
  2
Sketchy
 70
    24
 71
     1
 72
     2
 73
     2
 90
        0
 40
0.6
 41
30.0
 62
     5
 63
     7
421
 16777215
 74
     2
 91
        2
 64
     7
 65
     7
 75
     1
175
     1
 42
40.0
 92
       11
 66
     7
 43
1.0
 76
     1
 77
     6
 78
     2
 67
     7
 79
     6
170
     0
171
     0
290
     0
174
     0
 93
        1
 44
0.0
173
     0
291
     0
 45
0.0
1001
ACAD
1000
AcDbSavedByObjectVersion
1070
     0
  0
VISUALSTYLE
  5
37
102
{ACAD_REACTORS
330
2A
102
}
102
{ACAD_XDICTIONARY
360
442
102
}
330
2A
100
AcDbVisualStyle
  2
Thicken
 70
    13
 71
     2
 72
     2
 73
     0
 90
        0
 40
0.6
 41
30.0
 62
     5
 63
     7
421
 16777215
 74
     1
 91
        4
 64
     7
 65
   257
 75
     1
175
     1
 42
1.0
 92
       12
 66
     7
 43
1.0
 76
     1
 77
     6
 78
     2
 67
     7
 79
     5
170
     0
171
     0
290
     0
174
     0
 93
        1
 44
0.0
173
     0
291
     1
 45
0.0
1001
ACAD
1000
AcDbSavedByObjectVersion
1070
     0
  0
VISUALSTYLE
  5
30
102
{ACAD_REACTORS
330
2A
102
}
102
{ACAD_XDICTIONARY
360
434
102
}
330
2A
100
AcDbVisualStyle
  2
Wireframe
 70
     5
 71
     0
 72
     2
 73
     0
 90
        0
 40
0.6
 41
30.0
 62
     5
 63
     7
421
 16777215
 74
     1
 91
        4
 64
     7
 65
   257
 75
     1
175
     1
 42
1.0
 92
        0
 66
   257
 43
1.0
 76
     1
 77
     6
 78
     2
 67
     7
 79
     3
170
     0
171
     0
290
     0
174
     0
 93
        1
 44
0.0
173
     0
291
     0
 45
0.0
1001
ACAD
1000
AcDbSavedByObjectVersion
1070
     0
  0
VISUALSTYLE
  5
40
102
{ACAD_REACTORS
330
2A
102
}
102
{ACAD_XDICTIONARY
360
454
102
}
330
2A
100
AcDbVisualStyle
  2
X-Ray
 70
    25
 71
     2
 72
     2
 73
     1
 90
        1
 40
0.5
 41
30.0
 62
     5
 63
     7
421
 16777215
 74
     1
 91
        0
 64
     7
 65
   257
 75
     1
175
     1
 42
1.0
 92
        8
 66
     7
 43
1.0
 76
     1
 77
     6
 78
     2
 67
     7
 79
     3
170
     0
171
     0
290
     0
174
     0
 93
       13
 44
0.0
173
     0
291
     0
 45
0.0
1001
ACAD
1000
AcDbSavedByObjectVersion
1070
     0
  0
DICTIONARYVAR
  5
427
102
{ACAD_REACTORS
330
426
102
}
330
426
100
DictionaryVariables
280
     0
  1
1:1
  0
DICTIONARYVAR
  5
46B
102
{ACAD_REACTORS
330
426
102
}
330
426
100
DictionaryVariables
280
     0
  1
3.500000
  0
DICTIONARYVAR
  5
46C
102
{ACAD_REACTORS
330
426
102
}
330
426
100
DictionaryVariables
280
     0
  1
acadiso.lin
  0
DICTIONARYVAR
  5
468
102
{ACAD_REACTORS
330
426
102
}
330
426
100
DictionaryVariables
280
     0
  1
Standard
  0
DICTIONARYVAR
  5
467
102
{ACAD_REACTORS
330
426
102
}
330
426
100
DictionaryVariables
280
     0
  1
Standard
  0
DICTIONARYVAR
  5
428
102
{ACAD_REACTORS
330
426
102
}
330
426
100
DictionaryVariables
280
     0
  1
1
  0
DICTIONARYVAR
  5
429
102
{ACAD_REACTORS
330
426
102
}
330
426
100
DictionaryVariables
280
     0
  1
2
  0
DICTIONARY
  5
45C
330
45
100
AcDbDictionary
280
     1
281
     1
  3
ACAD_XREC_ROUNDTRIP
360
45D
  0
DICTIONARY
  5
45A
330
44
100
AcDbDictionary
280
     1
281
     1
  3
ACAD_XREC_ROUNDTRIP
360
45B
  0
DICTIONARY
  5
45E
330
46
100
AcDbDictionary
280
     1
281
     1
  3
ACAD_XREC_ROUNDTRIP
360
45F
  0
DICTIONARY
  5
464
330
6C
100
AcDbDictionary
280
     1
281
     1
  3
ACAD_XREC_ROUNDTRIP
360
465
  0
DICTIONARY
  5
460
330
6A
100
AcDbDictionary
280
     1
281
     1
  3
ACAD_ROUNDTRIP_2008_TABLESTYLE_CELLSTYLEMAP
360
462
  3
ACAD_XREC_ROUNDTRIP
360
461
  0
DICTIONARY
  5
432
330
2F
100
AcDbDictionary
280
     1
281
     1
  3
ACAD_XREC_ROUNDTRIP
360
433
  0
DICTIONARY
  5
438
330
32
100
AcDbDictionary
280
     1
281
     1
  3
ACAD_XREC_ROUNDTRIP
360
439
  0
DICTIONARY
  5
440
330
36
100
AcDbDictionary
280
     1
281
     1
  3
ACAD_XREC_ROUNDTRIP
360
441
  0
DICTIONARY
  5
448
330
3A
100
AcDbDictionary
280
     1
281
     1
  3
ACAD_XREC_ROUNDTRIP
360
449
  0
DICTIONARY
  5
43C
330
34
100
AcDbDictionary
280
     1
281
     1
  3
ACAD_XREC_ROUNDTRIP
360
43D
  0
DICTIONARY
  5
43E
330
35
100
AcDbDictionary
280
     1
281
     1
  3
ACAD_XREC_ROUNDTRIP
360
43F
  0
DICTIONARY
  5
44E
330
3D
100
AcDbDictionary
280
     1
281
     1
  3
ACAD_XREC_ROUNDTRIP
360
44F
  0
DICTIONARY
  5
446
330
39
100
AcDbDictionary
280
     1
281
     1
  3
ACAD_XREC_ROUNDTRIP
360
447
  0
DICTIONARY
  5
42A
330
2B
100
AcDbDictionary
280
     1
281
     1
  3
ACAD_XREC_ROUNDTRIP
360
42B
  0
DICTIONARY
  5
42C
330
2C
100
AcDbDictionary
280
     1
281
     1
  3
ACAD_XREC_ROUNDTRIP
360
42D
  0
DICTIONARY
  5
42E
330
2D
100
AcDbDictionary
280
     1
281
     1
  3
ACAD_XREC_ROUNDTRIP
360
42F
  0
DICTIONARY
  5
430
330
2E
100
AcDbDictionary
280
     1
281
     1
  3
ACAD_XREC_ROUNDTRIP
360
431
  0
DICTIONARY
  5
436
330
31
100
AcDbDictionary
280
     1
281
     1
  3
ACAD_XREC_ROUNDTRIP
360
437
  0
DICTIONARY
  5
44A
330
3B
100
AcDbDictionary
280
     1
281
     1
  3
ACAD_XREC_ROUNDTRIP
360
44B
  0
DICTIONARY
  5
444
330
38
100
AcDbDictionary
280
     1
281
     1
  3
ACAD_XREC_ROUNDTRIP
360
445
  0
DICTIONARY
  5
44C
330
3C
100
AcDbDictionary
280
     1
281
     1
  3
ACAD_XREC_ROUNDTRIP
360
44D
  0
DICTIONARY
  5
43A
330
33
100
AcDbDictionary
280
     1
281
     1
  3
ACAD_XREC_ROUNDTRIP
360
43B
  0
DICTIONARY
  5
458
330
42
100
AcDbDictionary
280
     1
281
     1
  3
ACAD_XREC_ROUNDTRIP
360
459
  0
DICTIONARY
  5
456
330
41
100
AcDbDictionary
280
     1
281
     1
  3
ACAD_XREC_ROUNDTRIP
360
457
  0
DICTIONARY
  5
450
330
3E
100
AcDbDictionary
280
     1
281
     1
  3
ACAD_XREC_ROUNDTRIP
360
451
  0
DICTIONARY
  5
452
330
3F
100
AcDbDictionary
280
     1
281
     1
  3
ACAD_XREC_ROUNDTRIP
360
453
  0
DICTIONARY
  5
442
330
37
100
AcDbDictionary
280
     1
281
     1
  3
ACAD_XREC_ROUNDTRIP
360
443
  0
DICTIONARY
  5
434
330
30
100
AcDbDictionary
280
     1
281
     1
  3
ACAD_XREC_ROUNDTRIP
360
435
  0
DICTIONARY
  5
454
330
40
100
AcDbDictionary
280
     1
281
     1
  3
ACAD_XREC_ROUNDTRIP
360
455
  0
XRECORD
  5
45D
102
{ACAD_REACTORS
330
45C
102
}
330
45C
100
AcDbXrecord
280
     1
102
MATERIAL
148
0.0
149
0.0
149
0.0
 93
        0
 94
      127
282
     0
 72
     1
 77
     1
171
     1
175
     1
179
     1
273
     0
  0
XRECORD
  5
45B
102
{ACAD_REACTORS
330
45A
102
}
330
45A
100
AcDbXrecord
280
     1
102
MATERIAL
148
0.0
149
0.0
149
0.0
 93
        0
 94
      127
282
     0
 72
     1
 77
     1
171
     1
175
     1
179
     1
273
     0
  0
XRECORD
  5
45F
102
{ACAD_REACTORS
330
45E
102
}
330
45E
100
AcDbXrecord
280
     1
102
MATERIAL
148
0.0
149
0.0
149
0.0
 93
        0
 94
      127
282
     0
 72
     1
 77
     1
171
     1
175
     1
179
     1
273
     0
  0
XRECORD
  5
465
102
{ACAD_REACTORS
330
464
102
}
330
464
100
AcDbXrecord
280
     1
102
ACAD_ROUNDTRIP_2010_MLEADER_STYLE
  0
CELLSTYLEMAP
  5
462
102
{ACAD_REACTORS
330
460
102
}
330
460
100
AcDbCellStyleMap
 90
        3
300
CELLSTYLE
  1
TABLEFORMAT_BEGIN
 90
        5
170
     1
 91
        0
 92
    32768
 62
   257
 93
        1
300
CONTENTFORMAT
  1
CONTENTFORMAT_BEGIN
 90
        0
 91
        0
 92
        4
 93
        0
300

 40
0.0
140
1.0
 94
        5
 62
     0
340
11
144
6.0
309
CONTENTFORMAT_END
171
     1
301
MARGIN
  1
CELLMARGIN_BEGIN
 40
1.5
 40
1.5
 40
1.5
 40
1.5
 40
1.5
 40
1.5
309
CELLMARGIN_END
 94
        6
 95
        1
302
GRIDFORMAT
  1
GRIDFORMAT_BEGIN
 90
        0
 91
        1
 62
     0
 92
       -2
340
14
 93
        0
 40
0.045
309
GRIDFORMAT_END
 95
        2
302
GRIDFORMAT
  1
GRIDFORMAT_BEGIN
 90
        0
 91
        1
 62
     0
 92
       -2
340
14
 93
        0
 40
0.045
309
GRIDFORMAT_END
 95
        4
302
GRIDFORMAT
  1
GRIDFORMAT_BEGIN
 90
        0
 91
        1
 62
     0
 92
       -2
340
14
 93
        0
 40
0.045
309
GRIDFORMAT_END
 95
        8
302
GRIDFORMAT
  1
GRIDFORMAT_BEGIN
 90
        0
 91
        1
 62
     0
 92
       -2
340
14
 93
        0
 40
0.045
309
GRIDFORMAT_END
 95
       16
302
GRIDFORMAT
  1
GRIDFORMAT_BEGIN
 90
        0
 91
        1
 62
     0
 92
       -2
340
14
 93
        0
 40
0.045
309
GRIDFORMAT_END
 95
       32
302
GRIDFORMAT
  1
GRIDFORMAT_BEGIN
 90
        0
 91
        1
 62
     0
 92
       -2
340
14
 93
        0
 40
0.045
309
GRIDFORMAT_END
309
TABLEFORMAT_END
  1
CELLSTYLE_BEGIN
 90
        1
 91
        1
300
_TITLE
309
CELLSTYLE_END
300
CELLSTYLE
  1
TABLEFORMAT_BEGIN
 90
        5
170
     1
 91
        0
 92
        0
 62
   257
 93
        1
300
CONTENTFORMAT
  1
CONTENTFORMAT_BEGIN
 90
        0
 91
        0
 92
        4
 93
        0
300

 40
0.0
140
1.0
 94
        5
 62
     0
340
11
144
4.5
309
CONTENTFORMAT_END
171
     1
301
MARGIN
  1
CELLMARGIN_BEGIN
 40
1.5
 40
1.5
 40
1.5
 40
1.5
 40
1.5
 40
1.5
309
CELLMARGIN_END
 94
        6
 95
        1
302
GRIDFORMAT
  1
GRIDFORMAT_BEGIN
 90
        0
 91
        1
 62
     0
 92
       -2
340
14
 93
        0
 40
0.045
309
GRIDFORMAT_END
 95
        2
302
GRIDFORMAT
  1
GRIDFORMAT_BEGIN
 90
        0
 91
        1
 62
     0
 92
       -2
340
14
 93
        0
 40
0.045
309
GRIDFORMAT_END
 95
        4
302
GRIDFORMAT
  1
GRIDFORMAT_BEGIN
 90
        0
 91
        1
 62
     0
 92
       -2
340
14
 93
        0
 40
0.045
309
GRIDFORMAT_END
 95
        8
302
GRIDFORMAT
  1
GRIDFORMAT_BEGIN
 90
        0
 91
        1
 62
     0
 92
       -2
340
14
 93
        0
 40
0.045
309
GRIDFORMAT_END
 95
       16
302
GRIDFORMAT
  1
GRIDFORMAT_BEGIN
 90
        0
 91
        1
 62
     0
 92
       -2
340
14
 93
        0
 40
0.045
309
GRIDFORMAT_END
 95
       32
302
GRIDFORMAT
  1
GRIDFORMAT_BEGIN
 90
        0
 91
        1
 62
     0
 92
       -2
340
14
 93
        0
 40
0.045
309
GRIDFORMAT_END
309
TABLEFORMAT_END
  1
CELLSTYLE_BEGIN
 90
        2
 91
        1
300
_HEADER
309
CELLSTYLE_END
300
CELLSTYLE
  1
TABLEFORMAT_BEGIN
 90
        5
170
     1
 91
        0
 92
        0
 62
   257
 93
        1
300
CONTENTFORMAT
  1
CONTENTFORMAT_BEGIN
 90
        0
 91
        0
 92
        4
 93
        0
300

 40
0.0
140
1.0
 94
        2
 62
     0
340
11
144
4.5
309
CONTENTFORMAT_END
171
     1
301
MARGIN
  1
CELLMARGIN_BEGIN
 40
1.5
 40
1.5
 40
1.5
 40
1.5
 40
1.5
 40
1.5
309
CELLMARGIN_END
 94
        6
 95
        1
302
GRIDFORMAT
  1
GRIDFORMAT_BEGIN
 90
        0
 91
        1
 62
     0
 92
       -2
340
14
 93
        0
 40
0.045
309
GRIDFORMAT_END
 95
        2
302
GRIDFORMAT
  1
GRIDFORMAT_BEGIN
 90
        0
 91
        1
 62
     0
 92
       -2
340
14
 93
        0
 40
0.045
309
GRIDFORMAT_END
 95
        4
302
GRIDFORMAT
  1
GRIDFORMAT_BEGIN
 90
        0
 91
        1
 62
     0
 92
       -2
340
14
 93
        0
 40
0.045
309
GRIDFORMAT_END
 95
        8
302
GRIDFORMAT
  1
GRIDFORMAT_BEGIN
 90
        0
 91
        1
 62
     0
 92
       -2
340
14
 93
        0
 40
0.045
309
GRIDFORMAT_END
 95
       16
302
GRIDFORMAT
  1
GRIDFORMAT_BEGIN
 90
        0
 91
        1
 62
     0
 92
       -2
340
14
 93
        0
 40
0.045
309
GRIDFORMAT_END
 95
       32
302
GRIDFORMAT
  1
GRIDFORMAT_BEGIN
 90
        0
 91
        1
 62
     0
 92
       -2
340
14
 93
        0
 40
0.045
309
GRIDFORMAT_END
309
TABLEFORMAT_END
  1
CELLSTYLE_BEGIN
 90
        3
 91
        2
300
_DATA
309
CELLSTYLE_END
  0
XRECORD
  5
461
102
{ACAD_REACTORS
330
460
102
}
330
460
100
AcDbXrecord
280
     1
102
ACAD_ROUNDTRIP_PRE2007_TABLESTYLE
 90
        4
 91
        0
  1

 92
        4
 93
        0
  2

 94
        4
 95
        0
  3

  0
XRECORD
  5
433
102
{ACAD_REACTORS
330
432
102
}
330
432
100
AcDbXrecord
280
     1
102
RTVSPropertyOp0
 70
     1
102
RTVSPropertyOp1
 70
     1
102
RTVSPropertyOp2
 70
     1
102
RTVSPropertyOp3
 70
     1
102
RTVSPropertyOp4
 70
     1
102
RTVSPropertyOp5
 70
     1
102
RTVSPropertyOp6
 70
     1
102
RTVSPropertyOp7
 70
     1
102
RTVSPropertyOp8
 70
     1
102
RTVSPropertyOp9
 70
     1
102
RTVSPropertyOp10
 70
     1
102
RTVSPropertyOp11
 70
     1
102
RTVSPropertyOp12
 70
     1
102
RTVSPropertyOp13
 70
     1
102
RTVSPropertyOp14
 70
     1
102
RTVSPropertyOp15
 70
     1
102
RTVSPropertyOp16
 70
     1
102
RTVSPropertyOp17
 70
     1
102
RTVSPropertyOp18
 70
     1
102
RTVSPropertyOp19
 70
     1
102
RTVSPropertyOp20
 70
     1
102
RTVSPropertyOp21
 70
     1
102
RTVSPropertyOp22
 70
     1
102
RTVSPropertyOp23
 70
     1
102
RTVSPropertyOp24
 70
     1
102
RTVSPropertyOp25
 70
     1
102
RTVSPropertyOp26
 70
     1
102
RTVSPropertyOp27
 70
     1
102
RTVSPropertyOp28
 70
     1
102
RTVSPropertyOp29
 70
     1
102
RTVSPropertyOp30
 70
     1
102
RTVSPropertyOp31
 70
     1
102
RTVSPropertyOp32
 70
     1
102
RTVSPropertyOp33
 70
     1
102
RTVSPropertyOp34
 70
     1
102
RTVSPropertyOp35
 70
     1
102
RTVSPropertyOp36
 70
     1
102
RTVSPropertyOp37
 70
     1
102
RTVSPropertyOp38
 70
     1
102
RTVSPropertyOp39
 70
     1
102
RTVSPropertyOp40
 70
     1
102
RTVSPropertyOp41
 70
     1
102
RTVSPropertyOp42
 70
     1
102
RTVSPropertyOp43
 70
     1
102
RTVSPropertyOp44
 70
     1
102
RTVSPropertyOp45
 70
     1
102
RTVSPropertyOp46
 70
     1
102
RTVSPropertyOp47
 70
     1
102
RTVSPropertyOp48
 70
     1
102
RTVSPropertyOp49
 70
     1
102
RTVSPropertyOp50
 70
     1
102
RTVSPropertyOp51
 70
     0
102
RTVSPropertyOp52
 70
     0
102
RTVSPropertyOp53
 70
     1
102
RTVSPropertyOp54
 70
     1
102
RTVSPropertyOp55
 70
     1
102
RTVSPropertyOp56
 70
     1
102
RTVSPropertyOp57
 70
     1
102
RTVSPost2010Prop28
280
     1
102
RTVSPost2010PropOp28
 70
     1
102
RTVSPost2010Prop29
280
     1
102
RTVSPost2010PropOp29
 70
     1
102
RTVSPost2010Prop30
280
     0
102
RTVSPost2010PropOp30
 70
     1
102
RTVSPost2010Prop31
280
     0
102
RTVSPost2010PropOp31
 70
     1
102
RTVSPost2010Prop32
280
     0
102
RTVSPost2010PropOp32
 70
     1
102
RTVSPost2010Prop33
280
     0
102
RTVSPost2010PropOp33
 70
     1
102
RTVSPost2010Prop34
280
     0
102
RTVSPost2010PropOp34
 70
     1
102
RTVSPost2010Prop35
280
     0
102
RTVSPost2010PropOp35
 70
     1
102
RTVSPost2010Prop36
280
     0
102
RTVSPost2010PropOp36
 70
     1
102
RTVSPost2010Prop37
 90
       50
102
RTVSPost2010PropOp37
 70
     1
102
RTVSPost2010Prop38
140
0.0
102
RTVSPost2010PropOp38
 70
     1
102
RTVSPost2010Prop39
140
1.0
102
RTVSPost2010PropOp39
 70
     1
102
RTVSPost2010Prop40
 90
        0
102
RTVSPost2010PropOp40
 70
     1
102
RTVSPost2010Prop41ColorIndex
 90
       18
102
RTVSPost2010Prop41ColorRGB
 90
        0
102
RTVSPost2010PropOp41
 70
     1
102
RTVSPost2010Prop42
 90
       50
102
RTVSPost2010PropOp42
 70
     1
102
RTVSPost2010Prop43
 90
        3
102
RTVSPost2010PropOp43
 70
     1
102
RTVSPost2010Prop44ColorIndex
 90
        5
102
RTVSPost2010Prop44ColorRGB
 90
      255
102
RTVSPost2010PropOp44
 70
     1
102
RTVSPost2010Prop45
280
     0
102
RTVSPost2010PropOp45
 70
     1
102
RTVSPost2010Prop46
 90
       50
102
RTVSPost2010PropOp46
 70
     1
102
RTVSPost2010Prop47
 90
       50
102
RTVSPost2010PropOp47
 70
     1
102
RTVSPost2010Prop48
 90
       50
102
RTVSPost2010PropOp48
 70
     1
102
RTVSPost2010Prop49
280
     0
102
RTVSPost2010PropOp49
 70
     1
102
RTVSPost2010Prop50
 90
       50
102
RTVSPost2010PropOp50
 70
     1
102
RTVSPost2010Prop51ColorIndex
 90
      256
102
RTVSPost2010Prop51ColorRGB
 90
-16777216
102
RTVSPost2010PropOp51
 70
     0
102
RTVSPost2010Prop52
140
1.0
102
RTVSPost2010PropOp52
 70
     0
102
RTVSPost2010Prop53
 90
        2
102
RTVSPost2010PropOp53
 70
     1
102
RTVSPost2010Prop54
  1
strokes_ogs.tif
102
RTVSPost2010PropOp54
 70
     1
102
RTVSPost2010Prop55
280
     0
102
RTVSPost2010PropOp55
 70
     1
102
RTVSPost2010Prop56
140
1.0
102
RTVSPost2010PropOp56
 70
     1
102
RTVSPost2010Prop57
140
1.0
102
RTVSPost2010PropOp57
 70
     1
  0
XRECORD
  5
439
102
{ACAD_REACTORS
330
438
102
}
330
438
100
AcDbXrecord
280
     1
102
RTVSPropertyOp0
 70
     1
102
RTVSPropertyOp1
 70
     1
102
RTVSPropertyOp2
 70
     1
102
RTVSPropertyOp3
 70
     1
102
RTVSPropertyOp4
 70
     1
102
RTVSPropertyOp5
 70
     1
102
RTVSPropertyOp6
 70
     1
102
RTVSPropertyOp7
 70
     1
102
RTVSPropertyOp8
 70
     1
102
RTVSPropertyOp9
 70
     1
102
RTVSPropertyOp10
 70
     1
102
RTVSPropertyOp11
 70
     1
102
RTVSPropertyOp12
 70
     1
102
RTVSPropertyOp13
 70
     1
102
RTVSPropertyOp14
 70
     1
102
RTVSPropertyOp15
 70
     1
102
RTVSPropertyOp16
 70
     1
102
RTVSPropertyOp17
 70
     1
102
RTVSPropertyOp18
 70
     1
102
RTVSPropertyOp19
 70
     1
102
RTVSPropertyOp20
 70
     1
102
RTVSPropertyOp21
 70
     1
102
RTVSPropertyOp22
 70
     1
102
RTVSPropertyOp23
 70
     1
102
RTVSPropertyOp24
 70
     1
102
RTVSPropertyOp25
 70
     1
102
RTVSPropertyOp26
 70
     1
102
RTVSPropertyOp27
 70
     1
102
RTVSPropertyOp28
 70
     1
102
RTVSPropertyOp29
 70
     1
102
RTVSPropertyOp30
 70
     1
102
RTVSPropertyOp31
 70
     1
102
RTVSPropertyOp32
 70
     1
102
RTVSPropertyOp33
 70
     1
102
RTVSPropertyOp34
 70
     1
102
RTVSPropertyOp35
 70
     1
102
RTVSPropertyOp36
 70
     1
102
RTVSPropertyOp37
 70
     1
102
RTVSPropertyOp38
 70
     1
102
RTVSPropertyOp39
 70
     1
102
RTVSPropertyOp40
 70
     1
102
RTVSPropertyOp41
 70
     1
102
RTVSPropertyOp42
 70
     1
102
RTVSPropertyOp43
 70
     1
102
RTVSPropertyOp44
 70
     1
102
RTVSPropertyOp45
 70
     1
102
RTVSPropertyOp46
 70
     1
102
RTVSPropertyOp47
 70
     1
102
RTVSPropertyOp48
 70
     1
102
RTVSPropertyOp49
 70
     1
102
RTVSPropertyOp50
 70
     1
102
RTVSPropertyOp51
 70
     0
102
RTVSPropertyOp52
 70
     0
102
RTVSPropertyOp53
 70
     1
102
RTVSPropertyOp54
 70
     1
102
RTVSPropertyOp55
 70
     1
102
RTVSPropertyOp56
 70
     1
102
RTVSPropertyOp57
 70
     1
102
RTVSPost2010Prop28
280
     0
102
RTVSPost2010PropOp28
 70
     1
102
RTVSPost2010Prop29
280
     1
102
RTVSPost2010PropOp29
 70
     1
102
RTVSPost2010Prop30
280
     1
102
RTVSPost2010PropOp30
 70
     1
102
RTVSPost2010Prop31
280
     0
102
RTVSPost2010PropOp31
 70
     1
102
RTVSPost2010Prop32
280
     0
102
RTVSPost2010PropOp32
 70
     1
102
RTVSPost2010Prop33
280
     0
102
RTVSPost2010PropOp33
 70
     1
102
RTVSPost2010Prop34
280
     0
102
RTVSPost2010PropOp34
 70
     1
102
RTVSPost2010Prop35
280
     0
102
RTVSPost2010PropOp35
 70
     1
102
RTVSPost2010Prop36
280
     0
102
RTVSPost2010PropOp36
 70
     1
102
RTVSPost2010Prop37
 90
       50
102
RTVSPost2010PropOp37
 70
     1
102
RTVSPost2010Prop38
140
0.0
102
RTVSPost2010PropOp38
 70
     1
102
RTVSPost2010Prop39
140
1.0
102
RTVSPost2010PropOp39
 70
     1
102
RTVSPost2010Prop40
 90
        0
102
RTVSPost2010PropOp40
 70
     1
102
RTVSPost2010Prop41ColorIndex
 90
       18
102
RTVSPost2010Prop41ColorRGB
 90
        0
102
RTVSPost2010PropOp41
 70
     1
102
RTVSPost2010Prop42
 90
       50
102
RTVSPost2010PropOp42
 70
     1
102
RTVSPost2010Prop43
 90
        3
102
RTVSPost2010PropOp43
 70
     1
102
RTVSPost2010Prop44ColorIndex
 90
        5
102
RTVSPost2010Prop44ColorRGB
 90
      255
102
RTVSPost2010PropOp44
 70
     1
102
RTVSPost2010Prop45
280
     0
102
RTVSPost2010PropOp45
 70
     1
102
RTVSPost2010Prop46
 90
       50
102
RTVSPost2010PropOp46
 70
     1
102
RTVSPost2010Prop47
 90
       50
102
RTVSPost2010PropOp47
 70
     1
102
RTVSPost2010Prop48
 90
       50
102
RTVSPost2010PropOp48
 70
     1
102
RTVSPost2010Prop49
280
     0
102
RTVSPost2010PropOp49
 70
     1
102
RTVSPost2010Prop50
 90
       50
102
RTVSPost2010PropOp50
 70
     1
102
RTVSPost2010Prop51ColorIndex
 90
      256
102
RTVSPost2010Prop51ColorRGB
 90
-16777216
102
RTVSPost2010PropOp51
 70
     0
102
RTVSPost2010Prop52
140
1.0
102
RTVSPost2010PropOp52
 70
     0
102
RTVSPost2010Prop53
 90
        2
102
RTVSPost2010PropOp53
 70
     1
102
RTVSPost2010Prop54
  1
strokes_ogs.tif
102
RTVSPost2010PropOp54
 70
     1
102
RTVSPost2010Prop55
280
     0
102
RTVSPost2010PropOp55
 70
     1
102
RTVSPost2010Prop56
140
1.0
102
RTVSPost2010PropOp56
 70
     1
102
RTVSPost2010Prop57
140
1.0
102
RTVSPost2010PropOp57
 70
     1
  0
XRECORD
  5
441
102
{ACAD_REACTORS
330
440
102
}
330
440
100
AcDbXrecord
280
     1
102
RTVSPropertyOp0
 70
     1
102
RTVSPropertyOp1
 70
     1
102
RTVSPropertyOp2
 70
     1
102
RTVSPropertyOp3
 70
     1
102
RTVSPropertyOp4
 70
     1
102
RTVSPropertyOp5
 70
     1
102
RTVSPropertyOp6
 70
     1
102
RTVSPropertyOp7
 70
     1
102
RTVSPropertyOp8
 70
     1
102
RTVSPropertyOp9
 70
     1
102
RTVSPropertyOp10
 70
     1
102
RTVSPropertyOp11
 70
     1
102
RTVSPropertyOp12
 70
     1
102
RTVSPropertyOp13
 70
     1
102
RTVSPropertyOp14
 70
     1
102
RTVSPropertyOp15
 70
     1
102
RTVSPropertyOp16
 70
     1
102
RTVSPropertyOp17
 70
     1
102
RTVSPropertyOp18
 70
     1
102
RTVSPropertyOp19
 70
     1
102
RTVSPropertyOp20
 70
     1
102
RTVSPropertyOp21
 70
     1
102
RTVSPropertyOp22
 70
     1
102
RTVSPropertyOp23
 70
     1
102
RTVSPropertyOp24
 70
     1
102
RTVSPropertyOp25
 70
     1
102
RTVSPropertyOp26
 70
     1
102
RTVSPropertyOp27
 70
     1
102
RTVSPropertyOp28
 70
     1
102
RTVSPropertyOp29
 70
     1
102
RTVSPropertyOp30
 70
     1
102
RTVSPropertyOp31
 70
     1
102
RTVSPropertyOp32
 70
     1
102
RTVSPropertyOp33
 70
     1
102
RTVSPropertyOp34
 70
     1
102
RTVSPropertyOp35
 70
     1
102
RTVSPropertyOp36
 70
     1
102
RTVSPropertyOp37
 70
     1
102
RTVSPropertyOp38
 70
     1
102
RTVSPropertyOp39
 70
     1
102
RTVSPropertyOp40
 70
     1
102
RTVSPropertyOp41
 70
     1
102
RTVSPropertyOp42
 70
     1
102
RTVSPropertyOp43
 70
     1
102
RTVSPropertyOp44
 70
     1
102
RTVSPropertyOp45
 70
     1
102
RTVSPropertyOp46
 70
     1
102
RTVSPropertyOp47
 70
     1
102
RTVSPropertyOp48
 70
     1
102
RTVSPropertyOp49
 70
     1
102
RTVSPropertyOp50
 70
     1
102
RTVSPropertyOp51
 70
     0
102
RTVSPropertyOp52
 70
     0
102
RTVSPropertyOp53
 70
     1
102
RTVSPropertyOp54
 70
     1
102
RTVSPropertyOp55
 70
     1
102
RTVSPropertyOp56
 70
     1
102
RTVSPropertyOp57
 70
     1
102
RTVSPost2010Prop28
280
     0
102
RTVSPost2010PropOp28
 70
     1
102
RTVSPost2010Prop29
280
     1
102
RTVSPost2010PropOp29
 70
     1
102
RTVSPost2010Prop30
280
     1
102
RTVSPost2010PropOp30
 70
     1
102
RTVSPost2010Prop31
280
     0
102
RTVSPost2010PropOp31
 70
     1
102
RTVSPost2010Prop32
280
     0
102
RTVSPost2010PropOp32
 70
     1
102
RTVSPost2010Prop33
280
     0
102
RTVSPost2010PropOp33
 70
     1
102
RTVSPost2010Prop34
280
     0
102
RTVSPost2010PropOp34
 70
     1
102
RTVSPost2010Prop35
280
     0
102
RTVSPost2010PropOp35
 70
     1
102
RTVSPost2010Prop36
280
     0
102
RTVSPost2010PropOp36
 70
     1
102
RTVSPost2010Prop37
 90
       50
102
RTVSPost2010PropOp37
 70
     1
102
RTVSPost2010Prop38
140
0.0
102
RTVSPost2010PropOp38
 70
     1
102
RTVSPost2010Prop39
140
1.0
102
RTVSPost2010PropOp39
 70
     1
102
RTVSPost2010Prop40
 90
        0
102
RTVSPost2010PropOp40
 70
     1
102
RTVSPost2010Prop41ColorIndex
 90
       18
102
RTVSPost2010Prop41ColorRGB
 90
        0
102
RTVSPost2010PropOp41
 70
     1
102
RTVSPost2010Prop42
 90
       50
102
RTVSPost2010PropOp42
 70
     1
102
RTVSPost2010Prop43
 90
        3
102
RTVSPost2010PropOp43
 70
     1
102
RTVSPost2010Prop44ColorIndex
 90
        5
102
RTVSPost2010Prop44ColorRGB
 90
      255
102
RTVSPost2010PropOp44
 70
     1
102
RTVSPost2010Prop45
280
     0
102
RTVSPost2010PropOp45
 70
     1
102
RTVSPost2010Prop46
 90
       50
102
RTVSPost2010PropOp46
 70
     1
102
RTVSPost2010Prop47
 90
       50
102
RTVSPost2010PropOp47
 70
     1
102
RTVSPost2010Prop48
 90
       50
102
RTVSPost2010PropOp48
 70
     1
102
RTVSPost2010Prop49
280
     0
102
RTVSPost2010PropOp49
 70
     1
102
RTVSPost2010Prop50
 90
       50
102
RTVSPost2010PropOp50
 70
     1
102
RTVSPost2010Prop51ColorIndex
 90
      256
102
RTVSPost2010Prop51ColorRGB
 90
-16777216
102
RTVSPost2010PropOp51
 70
     0
102
RTVSPost2010Prop52
140
1.0
102
RTVSPost2010PropOp52
 70
     0
102
RTVSPost2010Prop53
 90
        2
102
RTVSPost2010PropOp53
 70
     1
102
RTVSPost2010Prop54
  1
strokes_ogs.tif
102
RTVSPost2010PropOp54
 70
     1
102
RTVSPost2010Prop55
280
     0
102
RTVSPost2010PropOp55
 70
     1
102
RTVSPost2010Prop56
140
1.0
102
RTVSPost2010PropOp56
 70
     1
102
RTVSPost2010Prop57
140
1.0
102
RTVSPost2010PropOp57
 70
     1
  0
XRECORD
  5
449
102
{ACAD_REACTORS
330
448
102
}
330
448
100
AcDbXrecord
280
     1
102
RTVSPropertyOp0
 70
     1
102
RTVSPropertyOp1
 70
     1
102
RTVSPropertyOp2
 70
     1
102
RTVSPropertyOp3
 70
     1
102
RTVSPropertyOp4
 70
     1
102
RTVSPropertyOp5
 70
     1
102
RTVSPropertyOp6
 70
     1
102
RTVSPropertyOp7
 70
     1
102
RTVSPropertyOp8
 70
     1
102
RTVSPropertyOp9
 70
     1
102
RTVSPropertyOp10
 70
     1
102
RTVSPropertyOp11
 70
     1
102
RTVSPropertyOp12
 70
     1
102
RTVSPropertyOp13
 70
     1
102
RTVSPropertyOp14
 70
     1
102
RTVSPropertyOp15
 70
     1
102
RTVSPropertyOp16
 70
     1
102
RTVSPropertyOp17
 70
     1
102
RTVSPropertyOp18
 70
     1
102
RTVSPropertyOp19
 70
     1
102
RTVSPropertyOp20
 70
     1
102
RTVSPropertyOp21
 70
     1
102
RTVSPropertyOp22
 70
     1
102
RTVSPropertyOp23
 70
     1
102
RTVSPropertyOp24
 70
     1
102
RTVSPropertyOp25
 70
     1
102
RTVSPropertyOp26
 70
     1
102
RTVSPropertyOp27
 70
     1
102
RTVSPropertyOp28
 70
     1
102
RTVSPropertyOp29
 70
     1
102
RTVSPropertyOp30
 70
     1
102
RTVSPropertyOp31
 70
     1
102
RTVSPropertyOp32
 70
     1
102
RTVSPropertyOp33
 70
     1
102
RTVSPropertyOp34
 70
     1
102
RTVSPropertyOp35
 70
     1
102
RTVSPropertyOp36
 70
     1
102
RTVSPropertyOp37
 70
     1
102
RTVSPropertyOp38
 70
     1
102
RTVSPropertyOp39
 70
     1
102
RTVSPropertyOp40
 70
     1
102
RTVSPropertyOp41
 70
     1
102
RTVSPropertyOp42
 70
     1
102
RTVSPropertyOp43
 70
     1
102
RTVSPropertyOp44
 70
     1
102
RTVSPropertyOp45
 70
     1
102
RTVSPropertyOp46
 70
     1
102
RTVSPropertyOp47
 70
     1
102
RTVSPropertyOp48
 70
     1
102
RTVSPropertyOp49
 70
     1
102
RTVSPropertyOp50
 70
     1
102
RTVSPropertyOp51
 70
     0
102
RTVSPropertyOp52
 70
     0
102
RTVSPropertyOp53
 70
     1
102
RTVSPropertyOp54
 70
     1
102
RTVSPropertyOp55
 70
     1
102
RTVSPropertyOp56
 70
     1
102
RTVSPropertyOp57
 70
     1
102
RTVSPost2010Prop28
280
     0
102
RTVSPost2010PropOp28
 70
     1
102
RTVSPost2010Prop29
280
     1
102
RTVSPost2010PropOp29
 70
     1
102
RTVSPost2010Prop30
280
     1
102
RTVSPost2010PropOp30
 70
     1
102
RTVSPost2010Prop31
280
     0
102
RTVSPost2010PropOp31
 70
     1
102
RTVSPost2010Prop32
280
     0
102
RTVSPost2010PropOp32
 70
     1
102
RTVSPost2010Prop33
280
     0
102
RTVSPost2010PropOp33
 70
     1
102
RTVSPost2010Prop34
280
     0
102
RTVSPost2010PropOp34
 70
     1
102
RTVSPost2010Prop35
280
     0
102
RTVSPost2010PropOp35
 70
     1
102
RTVSPost2010Prop36
280
     0
102
RTVSPost2010PropOp36
 70
     1
102
RTVSPost2010Prop37
 90
       50
102
RTVSPost2010PropOp37
 70
     1
102
RTVSPost2010Prop38
140
0.0
102
RTVSPost2010PropOp38
 70
     1
102
RTVSPost2010Prop39
140
1.0
102
RTVSPost2010PropOp39
 70
     1
102
RTVSPost2010Prop40
 90
        0
102
RTVSPost2010PropOp40
 70
     1
102
RTVSPost2010Prop41ColorIndex
 90
       18
102
RTVSPost2010Prop41ColorRGB
 90
        0
102
RTVSPost2010PropOp41
 70
     1
102
RTVSPost2010Prop42
 90
       50
102
RTVSPost2010PropOp42
 70
     1
102
RTVSPost2010Prop43
 90
        3
102
RTVSPost2010PropOp43
 70
     1
102
RTVSPost2010Prop44ColorIndex
 90
        5
102
RTVSPost2010Prop44ColorRGB
 90
      255
102
RTVSPost2010PropOp44
 70
     1
102
RTVSPost2010Prop45
280
     0
102
RTVSPost2010PropOp45
 70
     1
102
RTVSPost2010Prop46
 90
       50
102
RTVSPost2010PropOp46
 70
     1
102
RTVSPost2010Prop47
 90
       50
102
RTVSPost2010PropOp47
 70
     1
102
RTVSPost2010Prop48
 90
       50
102
RTVSPost2010PropOp48
 70
     1
102
RTVSPost2010Prop49
280
     0
102
RTVSPost2010PropOp49
 70
     1
102
RTVSPost2010Prop50
 90
       50
102
RTVSPost2010PropOp50
 70
     1
102
RTVSPost2010Prop51ColorIndex
 90
      256
102
RTVSPost2010Prop51ColorRGB
 90
-16777216
102
RTVSPost2010PropOp51
 70
     0
102
RTVSPost2010Prop52
140
1.0
102
RTVSPost2010PropOp52
 70
     0
102
RTVSPost2010Prop53
 90
        2
102
RTVSPost2010PropOp53
 70
     1
102
RTVSPost2010Prop54
  1
strokes_ogs.tif
102
RTVSPost2010PropOp54
 70
     1
102
RTVSPost2010Prop55
280
     0
102
RTVSPost2010PropOp55
 70
     1
102
RTVSPost2010Prop56
140
1.0
102
RTVSPost2010PropOp56
 70
     1
102
RTVSPost2010Prop57
140
1.0
102
RTVSPost2010PropOp57
 70
     1
  0
XRECORD
  5
43D
102
{ACAD_REACTORS
330
43C
102
}
330
43C
100
AcDbXrecord
280
     1
102
RTVSPropertyOp0
 70
     1
102
RTVSPropertyOp1
 70
     1
102
RTVSPropertyOp2
 70
     1
102
RTVSPropertyOp3
 70
     1
102
RTVSPropertyOp4
 70
     1
102
RTVSPropertyOp5
 70
     1
102
RTVSPropertyOp6
 70
     1
102
RTVSPropertyOp7
 70
     1
102
RTVSPropertyOp8
 70
     1
102
RTVSPropertyOp9
 70
     1
102
RTVSPropertyOp10
 70
     1
102
RTVSPropertyOp11
 70
     1
102
RTVSPropertyOp12
 70
     1
102
RTVSPropertyOp13
 70
     1
102
RTVSPropertyOp14
 70
     1
102
RTVSPropertyOp15
 70
     1
102
RTVSPropertyOp16
 70
     1
102
RTVSPropertyOp17
 70
     1
102
RTVSPropertyOp18
 70
     1
102
RTVSPropertyOp19
 70
     1
102
RTVSPropertyOp20
 70
     1
102
RTVSPropertyOp21
 70
     1
102
RTVSPropertyOp22
 70
     1
102
RTVSPropertyOp23
 70
     1
102
RTVSPropertyOp24
 70
     1
102
RTVSPropertyOp25
 70
     1
102
RTVSPropertyOp26
 70
     1
102
RTVSPropertyOp27
 70
     1
102
RTVSPropertyOp28
 70
     1
102
RTVSPropertyOp29
 70
     1
102
RTVSPropertyOp30
 70
     1
102
RTVSPropertyOp31
 70
     1
102
RTVSPropertyOp32
 70
     1
102
RTVSPropertyOp33
 70
     1
102
RTVSPropertyOp34
 70
     1
102
RTVSPropertyOp35
 70
     1
102
RTVSPropertyOp36
 70
     1
102
RTVSPropertyOp37
 70
     1
102
RTVSPropertyOp38
 70
     1
102
RTVSPropertyOp39
 70
     1
102
RTVSPropertyOp40
 70
     1
102
RTVSPropertyOp41
 70
     1
102
RTVSPropertyOp42
 70
     1
102
RTVSPropertyOp43
 70
     1
102
RTVSPropertyOp44
 70
     1
102
RTVSPropertyOp45
 70
     1
102
RTVSPropertyOp46
 70
     1
102
RTVSPropertyOp47
 70
     1
102
RTVSPropertyOp48
 70
     1
102
RTVSPropertyOp49
 70
     1
102
RTVSPropertyOp50
 70
     1
102
RTVSPropertyOp51
 70
     0
102
RTVSPropertyOp52
 70
     0
102
RTVSPropertyOp53
 70
     1
102
RTVSPropertyOp54
 70
     1
102
RTVSPropertyOp55
 70
     1
102
RTVSPropertyOp56
 70
     1
102
RTVSPropertyOp57
 70
     1
102
RTVSPost2010Prop28
280
     0
102
RTVSPost2010PropOp28
 70
     1
102
RTVSPost2010Prop29
280
     1
102
RTVSPost2010PropOp29
 70
     1
102
RTVSPost2010Prop30
280
     1
102
RTVSPost2010PropOp30
 70
     1
102
RTVSPost2010Prop31
280
     0
102
RTVSPost2010PropOp31
 70
     1
102
RTVSPost2010Prop32
280
     0
102
RTVSPost2010PropOp32
 70
     1
102
RTVSPost2010Prop33
280
     0
102
RTVSPost2010PropOp33
 70
     1
102
RTVSPost2010Prop34
280
     0
102
RTVSPost2010PropOp34
 70
     1
102
RTVSPost2010Prop35
280
     0
102
RTVSPost2010PropOp35
 70
     1
102
RTVSPost2010Prop36
280
     0
102
RTVSPost2010PropOp36
 70
     1
102
RTVSPost2010Prop37
 90
       50
102
RTVSPost2010PropOp37
 70
     1
102
RTVSPost2010Prop38
140
0.0
102
RTVSPost2010PropOp38
 70
     1
102
RTVSPost2010Prop39
140
1.0
102
RTVSPost2010PropOp39
 70
     1
102
RTVSPost2010Prop40
 90
        0
102
RTVSPost2010PropOp40
 70
     1
102
RTVSPost2010Prop41ColorIndex
 90
       18
102
RTVSPost2010Prop41ColorRGB
 90
        0
102
RTVSPost2010PropOp41
 70
     1
102
RTVSPost2010Prop42
 90
       50
102
RTVSPost2010PropOp42
 70
     1
102
RTVSPost2010Prop43
 90
        3
102
RTVSPost2010PropOp43
 70
     1
102
RTVSPost2010Prop44ColorIndex
 90
        5
102
RTVSPost2010Prop44ColorRGB
 90
      255
102
RTVSPost2010PropOp44
 70
     1
102
RTVSPost2010Prop45
280
     0
102
RTVSPost2010PropOp45
 70
     1
102
RTVSPost2010Prop46
 90
       50
102
RTVSPost2010PropOp46
 70
     1
102
RTVSPost2010Prop47
 90
       50
102
RTVSPost2010PropOp47
 70
     1
102
RTVSPost2010Prop48
 90
       50
102
RTVSPost2010PropOp48
 70
     1
102
RTVSPost2010Prop49
280
     0
102
RTVSPost2010PropOp49
 70
     1
102
RTVSPost2010Prop50
 90
       50
102
RTVSPost2010PropOp50
 70
     1
102
RTVSPost2010Prop51ColorIndex
 90
      256
102
RTVSPost2010Prop51ColorRGB
 90
-16777216
102
RTVSPost2010PropOp51
 70
     0
102
RTVSPost2010Prop52
140
1.0
102
RTVSPost2010PropOp52
 70
     0
102
RTVSPost2010Prop53
 90
        2
102
RTVSPost2010PropOp53
 70
     1
102
RTVSPost2010Prop54
  1
strokes_ogs.tif
102
RTVSPost2010PropOp54
 70
     1
102
RTVSPost2010Prop55
280
     0
102
RTVSPost2010PropOp55
 70
     1
102
RTVSPost2010Prop56
140
1.0
102
RTVSPost2010PropOp56
 70
     1
102
RTVSPost2010Prop57
140
1.0
102
RTVSPost2010PropOp57
 70
     1
  0
XRECORD
  5
43F
102
{ACAD_REACTORS
330
43E
102
}
330
43E
100
AcDbXrecord
280
     1
102
RTVSPropertyOp0
 70
     1
102
RTVSPropertyOp1
 70
     1
102
RTVSPropertyOp2
 70
     1
102
RTVSPropertyOp3
 70
     1
102
RTVSPropertyOp4
 70
     1
102
RTVSPropertyOp5
 70
     1
102
RTVSPropertyOp6
 70
     1
102
RTVSPropertyOp7
 70
     1
102
RTVSPropertyOp8
 70
     1
102
RTVSPropertyOp9
 70
     1
102
RTVSPropertyOp10
 70
     1
102
RTVSPropertyOp11
 70
     1
102
RTVSPropertyOp12
 70
     1
102
RTVSPropertyOp13
 70
     1
102
RTVSPropertyOp14
 70
     1
102
RTVSPropertyOp15
 70
     1
102
RTVSPropertyOp16
 70
     1
102
RTVSPropertyOp17
 70
     1
102
RTVSPropertyOp18
 70
     1
102
RTVSPropertyOp19
 70
     1
102
RTVSPropertyOp20
 70
     1
102
RTVSPropertyOp21
 70
     1
102
RTVSPropertyOp22
 70
     1
102
RTVSPropertyOp23
 70
     1
102
RTVSPropertyOp24
 70
     1
102
RTVSPropertyOp25
 70
     1
102
RTVSPropertyOp26
 70
     1
102
RTVSPropertyOp27
 70
     1
102
RTVSPropertyOp28
 70
     1
102
RTVSPropertyOp29
 70
     1
102
RTVSPropertyOp30
 70
     1
102
RTVSPropertyOp31
 70
     1
102
RTVSPropertyOp32
 70
     1
102
RTVSPropertyOp33
 70
     1
102
RTVSPropertyOp34
 70
     1
102
RTVSPropertyOp35
 70
     1
102
RTVSPropertyOp36
 70
     1
102
RTVSPropertyOp37
 70
     1
102
RTVSPropertyOp38
 70
     1
102
RTVSPropertyOp39
 70
     1
102
RTVSPropertyOp40
 70
     1
102
RTVSPropertyOp41
 70
     1
102
RTVSPropertyOp42
 70
     1
102
RTVSPropertyOp43
 70
     1
102
RTVSPropertyOp44
 70
     1
102
RTVSPropertyOp45
 70
     1
102
RTVSPropertyOp46
 70
     1
102
RTVSPropertyOp47
 70
     1
102
RTVSPropertyOp48
 70
     1
102
RTVSPropertyOp49
 70
     1
102
RTVSPropertyOp50
 70
     1
102
RTVSPropertyOp51
 70
     0
102
RTVSPropertyOp52
 70
     0
102
RTVSPropertyOp53
 70
     1
102
RTVSPropertyOp54
 70
     1
102
RTVSPropertyOp55
 70
     1
102
RTVSPropertyOp56
 70
     1
102
RTVSPropertyOp57
 70
     1
102
RTVSPost2010Prop28
280
     0
102
RTVSPost2010PropOp28
 70
     1
102
RTVSPost2010Prop29
280
     1
102
RTVSPost2010PropOp29
 70
     1
102
RTVSPost2010Prop30
280
     1
102
RTVSPost2010PropOp30
 70
     1
102
RTVSPost2010Prop31
280
     0
102
RTVSPost2010PropOp31
 70
     1
102
RTVSPost2010Prop32
280
     0
102
RTVSPost2010PropOp32
 70
     1
102
RTVSPost2010Prop33
280
     0
102
RTVSPost2010PropOp33
 70
     1
102
RTVSPost2010Prop34
280
     0
102
RTVSPost2010PropOp34
 70
     1
102
RTVSPost2010Prop35
280
     0
102
RTVSPost2010PropOp35
 70
     1
102
RTVSPost2010Prop36
280
     0
102
RTVSPost2010PropOp36
 70
     1
102
RTVSPost2010Prop37
 90
       50
102
RTVSPost2010PropOp37
 70
     1
102
RTVSPost2010Prop38
140
0.0
102
RTVSPost2010PropOp38
 70
     1
102
RTVSPost2010Prop39
140
1.0
102
RTVSPost2010PropOp39
 70
     1
102
RTVSPost2010Prop40
 90
        0
102
RTVSPost2010PropOp40
 70
     1
102
RTVSPost2010Prop41ColorIndex
 90
       18
102
RTVSPost2010Prop41ColorRGB
 90
        0
102
RTVSPost2010PropOp41
 70
     1
102
RTVSPost2010Prop42
 90
       50
102
RTVSPost2010PropOp42
 70
     1
102
RTVSPost2010Prop43
 90
        3
102
RTVSPost2010PropOp43
 70
     1
102
RTVSPost2010Prop44ColorIndex
 90
        5
102
RTVSPost2010Prop44ColorRGB
 90
      255
102
RTVSPost2010PropOp44
 70
     1
102
RTVSPost2010Prop45
280
     0
102
RTVSPost2010PropOp45
 70
     1
102
RTVSPost2010Prop46
 90
       50
102
RTVSPost2010PropOp46
 70
     1
102
RTVSPost2010Prop47
 90
       50
102
RTVSPost2010PropOp47
 70
     1
102
RTVSPost2010Prop48
 90
       50
102
RTVSPost2010PropOp48
 70
     1
102
RTVSPost2010Prop49
280
     0
102
RTVSPost2010PropOp49
 70
     1
102
RTVSPost2010Prop50
 90
       50
102
RTVSPost2010PropOp50
 70
     1
102
RTVSPost2010Prop51ColorIndex
 90
      256
102
RTVSPost2010Prop51ColorRGB
 90
-16777216
102
RTVSPost2010PropOp51
 70
     0
102
RTVSPost2010Prop52
140
1.0
102
RTVSPost2010PropOp52
 70
     0
102
RTVSPost2010Prop53
 90
        2
102
RTVSPost2010PropOp53
 70
     1
102
RTVSPost2010Prop54
  1
strokes_ogs.tif
102
RTVSPost2010PropOp54
 70
     1
102
RTVSPost2010Prop55
280
     0
102
RTVSPost2010PropOp55
 70
     1
102
RTVSPost2010Prop56
140
1.0
102
RTVSPost2010PropOp56
 70
     1
102
RTVSPost2010Prop57
140
1.0
102
RTVSPost2010PropOp57
 70
     1
  0
XRECORD
  5
44F
102
{ACAD_REACTORS
330
44E
102
}
330
44E
100
AcDbXrecord
280
     1
102
RTVSPropertyOp0
 70
     0
102
RTVSPropertyOp1
 70
     0
102
RTVSPropertyOp2
 70
     0
102
RTVSPropertyOp3
 70
     0
102
RTVSPropertyOp4
 70
     0
102
RTVSPropertyOp5
 70
     0
102
RTVSPropertyOp6
 70
     0
102
RTVSPropertyOp7
 70
     0
102
RTVSPropertyOp8
 70
     0
102
RTVSPropertyOp9
 70
     0
102
RTVSPropertyOp10
 70
     0
102
RTVSPropertyOp11
 70
     0
102
RTVSPropertyOp12
 70
     0
102
RTVSPropertyOp13
 70
     0
102
RTVSPropertyOp14
 70
     2
102
RTVSPropertyOp15
 70
     0
102
RTVSPropertyOp16
 70
     0
102
RTVSPropertyOp17
 70
     0
102
RTVSPropertyOp18
 70
     0
102
RTVSPropertyOp19
 70
     0
102
RTVSPropertyOp20
 70
     0
102
RTVSPropertyOp21
 70
     0
102
RTVSPropertyOp22
 70
     0
102
RTVSPropertyOp23
 70
     0
102
RTVSPropertyOp24
 70
     0
102
RTVSPropertyOp25
 70
     0
102
RTVSPropertyOp26
 70
     0
102
RTVSPropertyOp27
 70
     0
102
RTVSPropertyOp28
 70
     0
102
RTVSPropertyOp29
 70
     0
102
RTVSPropertyOp30
 70
     0
102
RTVSPropertyOp31
 70
     0
102
RTVSPropertyOp32
 70
     0
102
RTVSPropertyOp33
 70
     0
102
RTVSPropertyOp34
 70
     0
102
RTVSPropertyOp35
 70
     0
102
RTVSPropertyOp36
 70
     0
102
RTVSPropertyOp37
 70
     0
102
RTVSPropertyOp38
 70
     0
102
RTVSPropertyOp39
 70
     0
102
RTVSPropertyOp40
 70
     0
102
RTVSPropertyOp41
 70
     0
102
RTVSPropertyOp42
 70
     0
102
RTVSPropertyOp43
 70
     0
102
RTVSPropertyOp44
 70
     0
102
RTVSPropertyOp45
 70
     0
102
RTVSPropertyOp46
 70
     0
102
RTVSPropertyOp47
 70
     0
102
RTVSPropertyOp48
 70
     0
102
RTVSPropertyOp49
 70
     0
102
RTVSPropertyOp50
 70
     0
102
RTVSPropertyOp51
 70
     0
102
RTVSPropertyOp52
 70
     0
102
RTVSPropertyOp53
 70
     0
102
RTVSPropertyOp54
 70
     0
102
RTVSPropertyOp55
 70
     0
102
RTVSPropertyOp56
 70
     0
102
RTVSPropertyOp57
 70
     0
102
RTVSPost2010Prop28
280
     0
102
RTVSPost2010PropOp28
 70
     0
102
RTVSPost2010Prop29
280
     1
102
RTVSPost2010PropOp29
 70
     0
102
RTVSPost2010Prop30
280
     1
102
RTVSPost2010PropOp30
 70
     0
102
RTVSPost2010Prop31
280
     0
102
RTVSPost2010PropOp31
 70
     0
102
RTVSPost2010Prop32
280
     0
102
RTVSPost2010PropOp32
 70
     0
102
RTVSPost2010Prop33
280
     0
102
RTVSPost2010PropOp33
 70
     0
102
RTVSPost2010Prop34
280
     0
102
RTVSPost2010PropOp34
 70
     0
102
RTVSPost2010Prop35
280
     0
102
RTVSPost2010PropOp35
 70
     0
102
RTVSPost2010Prop36
280
     0
102
RTVSPost2010PropOp36
 70
     0
102
RTVSPost2010Prop37
 90
       50
102
RTVSPost2010PropOp37
 70
     0
102
RTVSPost2010Prop38
140
0.0
102
RTVSPost2010PropOp38
 70
     0
102
RTVSPost2010Prop39
140
1.0
102
RTVSPost2010PropOp39
 70
     0
102
RTVSPost2010Prop40
 90
        0
102
RTVSPost2010PropOp40
 70
     0
102
RTVSPost2010Prop41ColorIndex
 90
       18
102
RTVSPost2010Prop41ColorRGB
 90
        0
102
RTVSPost2010PropOp41
 70
     0
102
RTVSPost2010Prop42
 90
       50
102
RTVSPost2010PropOp42
 70
     0
102
RTVSPost2010Prop43
 90
        3
102
RTVSPost2010PropOp43
 70
     0
102
RTVSPost2010Prop44ColorIndex
 90
        5
102
RTVSPost2010Prop44ColorRGB
 90
      255
102
RTVSPost2010PropOp44
 70
     0
102
RTVSPost2010Prop45
280
     0
102
RTVSPost2010PropOp45
 70
     0
102
RTVSPost2010Prop46
 90
       50
102
RTVSPost2010PropOp46
 70
     0
102
RTVSPost2010Prop47
 90
       50
102
RTVSPost2010PropOp47
 70
     0
102
RTVSPost2010Prop48
 90
       50
102
RTVSPost2010PropOp48
 70
     0
102
RTVSPost2010Prop49
280
     0
102
RTVSPost2010PropOp49
 70
     0
102
RTVSPost2010Prop50
 90
       50
102
RTVSPost2010PropOp50
 70
     0
102
RTVSPost2010Prop51ColorIndex
 90
      256
102
RTVSPost2010Prop51ColorRGB
 90
-16777216
102
RTVSPost2010PropOp51
 70
     0
102
RTVSPost2010Prop52
140
1.0
102
RTVSPost2010PropOp52
 70
     0
102
RTVSPost2010Prop53
 90
        2
102
RTVSPost2010PropOp53
 70
     0
102
RTVSPost2010Prop54
  1
strokes_ogs.tif
102
RTVSPost2010PropOp54
 70
     0
102
RTVSPost2010Prop55
280
     0
102
RTVSPost2010PropOp55
 70
     0
102
RTVSPost2010Prop56
140
1.0
102
RTVSPost2010PropOp56
 70
     0
102
RTVSPost2010Prop57
140
1.0
102
RTVSPost2010PropOp57
 70
     0
  0
XRECORD
  5
447
102
{ACAD_REACTORS
330
446
102
}
330
446
100
AcDbXrecord
280
     1
102
RTVSPropertyOp0
 70
     1
102
RTVSPropertyOp1
 70
     1
102
RTVSPropertyOp2
 70
     1
102
RTVSPropertyOp3
 70
     1
102
RTVSPropertyOp4
 70
     1
102
RTVSPropertyOp5
 70
     1
102
RTVSPropertyOp6
 70
     1
102
RTVSPropertyOp7
 70
     1
102
RTVSPropertyOp8
 70
     1
102
RTVSPropertyOp9
 70
     1
102
RTVSPropertyOp10
 70
     1
102
RTVSPropertyOp11
 70
     1
102
RTVSPropertyOp12
 70
     1
102
RTVSPropertyOp13
 70
     1
102
RTVSPropertyOp14
 70
     1
102
RTVSPropertyOp15
 70
     1
102
RTVSPropertyOp16
 70
     1
102
RTVSPropertyOp17
 70
     1
102
RTVSPropertyOp18
 70
     1
102
RTVSPropertyOp19
 70
     1
102
RTVSPropertyOp20
 70
     1
102
RTVSPropertyOp21
 70
     1
102
RTVSPropertyOp22
 70
     1
102
RTVSPropertyOp23
 70
     1
102
RTVSPropertyOp24
 70
     1
102
RTVSPropertyOp25
 70
     1
102
RTVSPropertyOp26
 70
     1
102
RTVSPropertyOp27
 70
     1
102
RTVSPropertyOp28
 70
     1
102
RTVSPropertyOp29
 70
     1
102
RTVSPropertyOp30
 70
     1
102
RTVSPropertyOp31
 70
     1
102
RTVSPropertyOp32
 70
     1
102
RTVSPropertyOp33
 70
     1
102
RTVSPropertyOp34
 70
     1
102
RTVSPropertyOp35
 70
     1
102
RTVSPropertyOp36
 70
     1
102
RTVSPropertyOp37
 70
     1
102
RTVSPropertyOp38
 70
     1
102
RTVSPropertyOp39
 70
     1
102
RTVSPropertyOp40
 70
     1
102
RTVSPropertyOp41
 70
     1
102
RTVSPropertyOp42
 70
     1
102
RTVSPropertyOp43
 70
     1
102
RTVSPropertyOp44
 70
     1
102
RTVSPropertyOp45
 70
     1
102
RTVSPropertyOp46
 70
     1
102
RTVSPropertyOp47
 70
     1
102
RTVSPropertyOp48
 70
     1
102
RTVSPropertyOp49
 70
     1
102
RTVSPropertyOp50
 70
     1
102
RTVSPropertyOp51
 70
     0
102
RTVSPropertyOp52
 70
     0
102
RTVSPropertyOp53
 70
     1
102
RTVSPropertyOp54
 70
     1
102
RTVSPropertyOp55
 70
     1
102
RTVSPropertyOp56
 70
     1
102
RTVSPropertyOp57
 70
     1
102
RTVSPost2010Prop28
280
     0
102
RTVSPost2010PropOp28
 70
     1
102
RTVSPost2010Prop29
280
     1
102
RTVSPost2010PropOp29
 70
     1
102
RTVSPost2010Prop30
280
     1
102
RTVSPost2010PropOp30
 70
     1
102
RTVSPost2010Prop31
280
     0
102
RTVSPost2010PropOp31
 70
     1
102
RTVSPost2010Prop32
280
     0
102
RTVSPost2010PropOp32
 70
     1
102
RTVSPost2010Prop33
280
     0
102
RTVSPost2010PropOp33
 70
     1
102
RTVSPost2010Prop34
280
     0
102
RTVSPost2010PropOp34
 70
     1
102
RTVSPost2010Prop35
280
     0
102
RTVSPost2010PropOp35
 70
     1
102
RTVSPost2010Prop36
280
     0
102
RTVSPost2010PropOp36
 70
     1
102
RTVSPost2010Prop37
 90
       50
102
RTVSPost2010PropOp37
 70
     1
102
RTVSPost2010Prop38
140
0.0
102
RTVSPost2010PropOp38
 70
     1
102
RTVSPost2010Prop39
140
1.0
102
RTVSPost2010PropOp39
 70
     1
102
RTVSPost2010Prop40
 90
        0
102
RTVSPost2010PropOp40
 70
     1
102
RTVSPost2010Prop41ColorIndex
 90
       18
102
RTVSPost2010Prop41ColorRGB
 90
        0
102
RTVSPost2010PropOp41
 70
     1
102
RTVSPost2010Prop42
 90
       50
102
RTVSPost2010PropOp42
 70
     1
102
RTVSPost2010Prop43
 90
        3
102
RTVSPost2010PropOp43
 70
     1
102
RTVSPost2010Prop44ColorIndex
 90
        5
102
RTVSPost2010Prop44ColorRGB
 90
      255
102
RTVSPost2010PropOp44
 70
     1
102
RTVSPost2010Prop45
280
     0
102
RTVSPost2010PropOp45
 70
     1
102
RTVSPost2010Prop46
 90
       50
102
RTVSPost2010PropOp46
 70
     1
102
RTVSPost2010Prop47
 90
       50
102
RTVSPost2010PropOp47
 70
     1
102
RTVSPost2010Prop48
 90
       50
102
RTVSPost2010PropOp48
 70
     1
102
RTVSPost2010Prop49
280
     0
102
RTVSPost2010PropOp49
 70
     1
102
RTVSPost2010Prop50
 90
       50
102
RTVSPost2010PropOp50
 70
     1
102
RTVSPost2010Prop51ColorIndex
 90
      256
102
RTVSPost2010Prop51ColorRGB
 90
-16777216
102
RTVSPost2010PropOp51
 70
     0
102
RTVSPost2010Prop52
140
1.0
102
RTVSPost2010PropOp52
 70
     0
102
RTVSPost2010Prop53
 90
        2
102
RTVSPost2010PropOp53
 70
     1
102
RTVSPost2010Prop54
  1
strokes_ogs.tif
102
RTVSPost2010PropOp54
 70
     1
102
RTVSPost2010Prop55
280
     0
102
RTVSPost2010PropOp55
 70
     1
102
RTVSPost2010Prop56
140
1.0
102
RTVSPost2010PropOp56
 70
     1
102
RTVSPost2010Prop57
140
1.0
102
RTVSPost2010PropOp57
 70
     1
  0
XRECORD
  5
42B
102
{ACAD_REACTORS
330
42A
102
}
330
42A
100
AcDbXrecord
280
     1
102
RTVSPropertyOp0
 70
     1
102
RTVSPropertyOp1
 70
     1
102
RTVSPropertyOp2
 70
     1
102
RTVSPropertyOp3
 70
     1
102
RTVSPropertyOp4
 70
     1
102
RTVSPropertyOp5
 70
     1
102
RTVSPropertyOp6
 70
     1
102
RTVSPropertyOp7
 70
     1
102
RTVSPropertyOp8
 70
     1
102
RTVSPropertyOp9
 70
     1
102
RTVSPropertyOp10
 70
     1
102
RTVSPropertyOp11
 70
     1
102
RTVSPropertyOp12
 70
     1
102
RTVSPropertyOp13
 70
     1
102
RTVSPropertyOp14
 70
     1
102
RTVSPropertyOp15
 70
     1
102
RTVSPropertyOp16
 70
     1
102
RTVSPropertyOp17
 70
     1
102
RTVSPropertyOp18
 70
     1
102
RTVSPropertyOp19
 70
     1
102
RTVSPropertyOp20
 70
     1
102
RTVSPropertyOp21
 70
     1
102
RTVSPropertyOp22
 70
     1
102
RTVSPropertyOp23
 70
     1
102
RTVSPropertyOp24
 70
     1
102
RTVSPropertyOp25
 70
     1
102
RTVSPropertyOp26
 70
     1
102
RTVSPropertyOp27
 70
     1
102
RTVSPropertyOp28
 70
     1
102
RTVSPropertyOp29
 70
     1
102
RTVSPropertyOp30
 70
     1
102
RTVSPropertyOp31
 70
     1
102
RTVSPropertyOp32
 70
     1
102
RTVSPropertyOp33
 70
     1
102
RTVSPropertyOp34
 70
     1
102
RTVSPropertyOp35
 70
     1
102
RTVSPropertyOp36
 70
     1
102
RTVSPropertyOp37
 70
     1
102
RTVSPropertyOp38
 70
     1
102
RTVSPropertyOp39
 70
     1
102
RTVSPropertyOp40
 70
     1
102
RTVSPropertyOp41
 70
     1
102
RTVSPropertyOp42
 70
     1
102
RTVSPropertyOp43
 70
     1
102
RTVSPropertyOp44
 70
     1
102
RTVSPropertyOp45
 70
     1
102
RTVSPropertyOp46
 70
     1
102
RTVSPropertyOp47
 70
     1
102
RTVSPropertyOp48
 70
     1
102
RTVSPropertyOp49
 70
     1
102
RTVSPropertyOp50
 70
     1
102
RTVSPropertyOp51
 70
     0
102
RTVSPropertyOp52
 70
     0
102
RTVSPropertyOp53
 70
     1
102
RTVSPropertyOp54
 70
     1
102
RTVSPropertyOp55
 70
     1
102
RTVSPropertyOp56
 70
     1
102
RTVSPropertyOp57
 70
     1
102
RTVSPost2010Prop28
280
     0
102
RTVSPost2010PropOp28
 70
     1
102
RTVSPost2010Prop29
280
     1
102
RTVSPost2010PropOp29
 70
     1
102
RTVSPost2010Prop30
280
     1
102
RTVSPost2010PropOp30
 70
     1
102
RTVSPost2010Prop31
280
     0
102
RTVSPost2010PropOp31
 70
     1
102
RTVSPost2010Prop32
280
     0
102
RTVSPost2010PropOp32
 70
     1
102
RTVSPost2010Prop33
280
     0
102
RTVSPost2010PropOp33
 70
     1
102
RTVSPost2010Prop34
280
     0
102
RTVSPost2010PropOp34
 70
     1
102
RTVSPost2010Prop35
280
     0
102
RTVSPost2010PropOp35
 70
     1
102
RTVSPost2010Prop36
280
     0
102
RTVSPost2010PropOp36
 70
     1
102
RTVSPost2010Prop37
 90
       50
102
RTVSPost2010PropOp37
 70
     1
102
RTVSPost2010Prop38
140
0.0
102
RTVSPost2010PropOp38
 70
     1
102
RTVSPost2010Prop39
140
1.0
102
RTVSPost2010PropOp39
 70
     1
102
RTVSPost2010Prop40
 90
        0
102
RTVSPost2010PropOp40
 70
     1
102
RTVSPost2010Prop41ColorIndex
 90
       18
102
RTVSPost2010Prop41ColorRGB
 90
        0
102
RTVSPost2010PropOp41
 70
     1
102
RTVSPost2010Prop42
 90
       50
102
RTVSPost2010PropOp42
 70
     1
102
RTVSPost2010Prop43
 90
        3
102
RTVSPost2010PropOp43
 70
     1
102
RTVSPost2010Prop44ColorIndex
 90
        5
102
RTVSPost2010Prop44ColorRGB
 90
      255
102
RTVSPost2010PropOp44
 70
     1
102
RTVSPost2010Prop45
280
     0
102
RTVSPost2010PropOp45
 70
     1
102
RTVSPost2010Prop46
 90
       50
102
RTVSPost2010PropOp46
 70
     1
102
RTVSPost2010Prop47
 90
       50
102
RTVSPost2010PropOp47
 70
     1
102
RTVSPost2010Prop48
 90
       50
102
RTVSPost2010PropOp48
 70
     1
102
RTVSPost2010Prop49
280
     0
102
RTVSPost2010PropOp49
 70
     1
102
RTVSPost2010Prop50
 90
       50
102
RTVSPost2010PropOp50
 70
     1
102
RTVSPost2010Prop51ColorIndex
 90
      256
102
RTVSPost2010Prop51ColorRGB
 90
-16777216
102
RTVSPost2010PropOp51
 70
     0
102
RTVSPost2010Prop52
140
1.0
102
RTVSPost2010PropOp52
 70
     0
102
RTVSPost2010Prop53
 90
        2
102
RTVSPost2010PropOp53
 70
     1
102
RTVSPost2010Prop54
  1
strokes_ogs.tif
102
RTVSPost2010PropOp54
 70
     1
102
RTVSPost2010Prop55
280
     0
102
RTVSPost2010PropOp55
 70
     1
102
RTVSPost2010Prop56
140
1.0
102
RTVSPost2010PropOp56
 70
     1
102
RTVSPost2010Prop57
140
1.0
102
RTVSPost2010PropOp57
 70
     1
  0
XRECORD
  5
42D
102
{ACAD_REACTORS
330
42C
102
}
330
42C
100
AcDbXrecord
280
     1
102
RTVSPropertyOp0
 70
     1
102
RTVSPropertyOp1
 70
     1
102
RTVSPropertyOp2
 70
     1
102
RTVSPropertyOp3
 70
     1
102
RTVSPropertyOp4
 70
     1
102
RTVSPropertyOp5
 70
     1
102
RTVSPropertyOp6
 70
     1
102
RTVSPropertyOp7
 70
     1
102
RTVSPropertyOp8
 70
     1
102
RTVSPropertyOp9
 70
     1
102
RTVSPropertyOp10
 70
     1
102
RTVSPropertyOp11
 70
     1
102
RTVSPropertyOp12
 70
     1
102
RTVSPropertyOp13
 70
     1
102
RTVSPropertyOp14
 70
     1
102
RTVSPropertyOp15
 70
     1
102
RTVSPropertyOp16
 70
     1
102
RTVSPropertyOp17
 70
     1
102
RTVSPropertyOp18
 70
     1
102
RTVSPropertyOp19
 70
     1
102
RTVSPropertyOp20
 70
     1
102
RTVSPropertyOp21
 70
     1
102
RTVSPropertyOp22
 70
     1
102
RTVSPropertyOp23
 70
     1
102
RTVSPropertyOp24
 70
     1
102
RTVSPropertyOp25
 70
     1
102
RTVSPropertyOp26
 70
     1
102
RTVSPropertyOp27
 70
     1
102
RTVSPropertyOp28
 70
     1
102
RTVSPropertyOp29
 70
     1
102
RTVSPropertyOp30
 70
     1
102
RTVSPropertyOp31
 70
     1
102
RTVSPropertyOp32
 70
     1
102
RTVSPropertyOp33
 70
     1
102
RTVSPropertyOp34
 70
     1
102
RTVSPropertyOp35
 70
     1
102
RTVSPropertyOp36
 70
     1
102
RTVSPropertyOp37
 70
     1
102
RTVSPropertyOp38
 70
     1
102
RTVSPropertyOp39
 70
     1
102
RTVSPropertyOp40
 70
     1
102
RTVSPropertyOp41
 70
     1
102
RTVSPropertyOp42
 70
     1
102
RTVSPropertyOp43
 70
     1
102
RTVSPropertyOp44
 70
     1
102
RTVSPropertyOp45
 70
     1
102
RTVSPropertyOp46
 70
     1
102
RTVSPropertyOp47
 70
     1
102
RTVSPropertyOp48
 70
     1
102
RTVSPropertyOp49
 70
     1
102
RTVSPropertyOp50
 70
     1
102
RTVSPropertyOp51
 70
     0
102
RTVSPropertyOp52
 70
     0
102
RTVSPropertyOp53
 70
     1
102
RTVSPropertyOp54
 70
     1
102
RTVSPropertyOp55
 70
     1
102
RTVSPropertyOp56
 70
     1
102
RTVSPropertyOp57
 70
     1
102
RTVSPost2010Prop28
280
     0
102
RTVSPost2010PropOp28
 70
     1
102
RTVSPost2010Prop29
280
     1
102
RTVSPost2010PropOp29
 70
     1
102
RTVSPost2010Prop30
280
     1
102
RTVSPost2010PropOp30
 70
     1
102
RTVSPost2010Prop31
280
     0
102
RTVSPost2010PropOp31
 70
     1
102
RTVSPost2010Prop32
280
     0
102
RTVSPost2010PropOp32
 70
     1
102
RTVSPost2010Prop33
280
     0
102
RTVSPost2010PropOp33
 70
     1
102
RTVSPost2010Prop34
280
     0
102
RTVSPost2010PropOp34
 70
     1
102
RTVSPost2010Prop35
280
     0
102
RTVSPost2010PropOp35
 70
     1
102
RTVSPost2010Prop36
280
     0
102
RTVSPost2010PropOp36
 70
     1
102
RTVSPost2010Prop37
 90
       50
102
RTVSPost2010PropOp37
 70
     1
102
RTVSPost2010Prop38
140
0.0
102
RTVSPost2010PropOp38
 70
     1
102
RTVSPost2010Prop39
140
1.0
102
RTVSPost2010PropOp39
 70
     1
102
RTVSPost2010Prop40
 90
        0
102
RTVSPost2010PropOp40
 70
     1
102
RTVSPost2010Prop41ColorIndex
 90
       18
102
RTVSPost2010Prop41ColorRGB
 90
        0
102
RTVSPost2010PropOp41
 70
     1
102
RTVSPost2010Prop42
 90
       50
102
RTVSPost2010PropOp42
 70
     1
102
RTVSPost2010Prop43
 90
        3
102
RTVSPost2010PropOp43
 70
     1
102
RTVSPost2010Prop44ColorIndex
 90
        5
102
RTVSPost2010Prop44ColorRGB
 90
      255
102
RTVSPost2010PropOp44
 70
     1
102
RTVSPost2010Prop45
280
     0
102
RTVSPost2010PropOp45
 70
     1
102
RTVSPost2010Prop46
 90
       50
102
RTVSPost2010PropOp46
 70
     1
102
RTVSPost2010Prop47
 90
       50
102
RTVSPost2010PropOp47
 70
     1
102
RTVSPost2010Prop48
 90
       50
102
RTVSPost2010PropOp48
 70
     1
102
RTVSPost2010Prop49
280
     0
102
RTVSPost2010PropOp49
 70
     1
102
RTVSPost2010Prop50
 90
       50
102
RTVSPost2010PropOp50
 70
     1
102
RTVSPost2010Prop51ColorIndex
 90
      256
102
RTVSPost2010Prop51ColorRGB
 90
-16777216
102
RTVSPost2010PropOp51
 70
     0
102
RTVSPost2010Prop52
140
1.0
102
RTVSPost2010PropOp52
 70
     0
102
RTVSPost2010Prop53
 90
        2
102
RTVSPost2010PropOp53
 70
     1
102
RTVSPost2010Prop54
  1
strokes_ogs.tif
102
RTVSPost2010PropOp54
 70
     1
102
RTVSPost2010Prop55
280
     0
102
RTVSPost2010PropOp55
 70
     1
102
RTVSPost2010Prop56
140
1.0
102
RTVSPost2010PropOp56
 70
     1
102
RTVSPost2010Prop57
140
1.0
102
RTVSPost2010PropOp57
 70
     1
  0
XRECORD
  5
42F
102
{ACAD_REACTORS
330
42E
102
}
330
42E
100
AcDbXrecord
280
     1
102
RTVSPropertyOp0
 70
     1
102
RTVSPropertyOp1
 70
     1
102
RTVSPropertyOp2
 70
     1
102
RTVSPropertyOp3
 70
     1
102
RTVSPropertyOp4
 70
     1
102
RTVSPropertyOp5
 70
     1
102
RTVSPropertyOp6
 70
     1
102
RTVSPropertyOp7
 70
     1
102
RTVSPropertyOp8
 70
     1
102
RTVSPropertyOp9
 70
     1
102
RTVSPropertyOp10
 70
     1
102
RTVSPropertyOp11
 70
     1
102
RTVSPropertyOp12
 70
     1
102
RTVSPropertyOp13
 70
     1
102
RTVSPropertyOp14
 70
     1
102
RTVSPropertyOp15
 70
     1
102
RTVSPropertyOp16
 70
     1
102
RTVSPropertyOp17
 70
     1
102
RTVSPropertyOp18
 70
     1
102
RTVSPropertyOp19
 70
     1
102
RTVSPropertyOp20
 70
     1
102
RTVSPropertyOp21
 70
     1
102
RTVSPropertyOp22
 70
     1
102
RTVSPropertyOp23
 70
     1
102
RTVSPropertyOp24
 70
     1
102
RTVSPropertyOp25
 70
     1
102
RTVSPropertyOp26
 70
     1
102
RTVSPropertyOp27
 70
     1
102
RTVSPropertyOp28
 70
     1
102
RTVSPropertyOp29
 70
     1
102
RTVSPropertyOp30
 70
     1
102
RTVSPropertyOp31
 70
     1
102
RTVSPropertyOp32
 70
     1
102
RTVSPropertyOp33
 70
     1
102
RTVSPropertyOp34
 70
     1
102
RTVSPropertyOp35
 70
     1
102
RTVSPropertyOp36
 70
     1
102
RTVSPropertyOp37
 70
     1
102
RTVSPropertyOp38
 70
     1
102
RTVSPropertyOp39
 70
     1
102
RTVSPropertyOp40
 70
     1
102
RTVSPropertyOp41
 70
     1
102
RTVSPropertyOp42
 70
     1
102
RTVSPropertyOp43
 70
     1
102
RTVSPropertyOp44
 70
     1
102
RTVSPropertyOp45
 70
     1
102
RTVSPropertyOp46
 70
     1
102
RTVSPropertyOp47
 70
     1
102
RTVSPropertyOp48
 70
     1
102
RTVSPropertyOp49
 70
     1
102
RTVSPropertyOp50
 70
     1
102
RTVSPropertyOp51
 70
     0
102
RTVSPropertyOp52
 70
     0
102
RTVSPropertyOp53
 70
     1
102
RTVSPropertyOp54
 70
     1
102
RTVSPropertyOp55
 70
     1
102
RTVSPropertyOp56
 70
     1
102
RTVSPropertyOp57
 70
     1
102
RTVSPost2010Prop28
280
     0
102
RTVSPost2010PropOp28
 70
     1
102
RTVSPost2010Prop29
280
     1
102
RTVSPost2010PropOp29
 70
     1
102
RTVSPost2010Prop30
280
     1
102
RTVSPost2010PropOp30
 70
     1
102
RTVSPost2010Prop31
280
     0
102
RTVSPost2010PropOp31
 70
     1
102
RTVSPost2010Prop32
280
     0
102
RTVSPost2010PropOp32
 70
     1
102
RTVSPost2010Prop33
280
     0
102
RTVSPost2010PropOp33
 70
     1
102
RTVSPost2010Prop34
280
     0
102
RTVSPost2010PropOp34
 70
     1
102
RTVSPost2010Prop35
280
     0
102
RTVSPost2010PropOp35
 70
     1
102
RTVSPost2010Prop36
280
     0
102
RTVSPost2010PropOp36
 70
     1
102
RTVSPost2010Prop37
 90
       50
102
RTVSPost2010PropOp37
 70
     1
102
RTVSPost2010Prop38
140
0.0
102
RTVSPost2010PropOp38
 70
     1
102
RTVSPost2010Prop39
140
1.0
102
RTVSPost2010PropOp39
 70
     1
102
RTVSPost2010Prop40
 90
        0
102
RTVSPost2010PropOp40
 70
     1
102
RTVSPost2010Prop41ColorIndex
 90
       18
102
RTVSPost2010Prop41ColorRGB
 90
        0
102
RTVSPost2010PropOp41
 70
     1
102
RTVSPost2010Prop42
 90
       50
102
RTVSPost2010PropOp42
 70
     1
102
RTVSPost2010Prop43
 90
        3
102
RTVSPost2010PropOp43
 70
     1
102
RTVSPost2010Prop44ColorIndex
 90
        5
102
RTVSPost2010Prop44ColorRGB
 90
      255
102
RTVSPost2010PropOp44
 70
     1
102
RTVSPost2010Prop45
280
     0
102
RTVSPost2010PropOp45
 70
     1
102
RTVSPost2010Prop46
 90
       50
102
RTVSPost2010PropOp46
 70
     1
102
RTVSPost2010Prop47
 90
       50
102
RTVSPost2010PropOp47
 70
     1
102
RTVSPost2010Prop48
 90
       50
102
RTVSPost2010PropOp48
 70
     1
102
RTVSPost2010Prop49
280
     0
102
RTVSPost2010PropOp49
 70
     1
102
RTVSPost2010Prop50
 90
       50
102
RTVSPost2010PropOp50
 70
     1
102
RTVSPost2010Prop51ColorIndex
 90
      256
102
RTVSPost2010Prop51ColorRGB
 90
-16777216
102
RTVSPost2010PropOp51
 70
     0
102
RTVSPost2010Prop52
140
1.0
102
RTVSPost2010PropOp52
 70
     0
102
RTVSPost2010Prop53
 90
        2
102
RTVSPost2010PropOp53
 70
     1
102
RTVSPost2010Prop54
  1
strokes_ogs.tif
102
RTVSPost2010PropOp54
 70
     1
102
RTVSPost2010Prop55
280
     0
102
RTVSPost2010PropOp55
 70
     1
102
RTVSPost2010Prop56
140
1.0
102
RTVSPost2010PropOp56
 70
     1
102
RTVSPost2010Prop57
140
1.0
102
RTVSPost2010PropOp57
 70
     1
  0
XRECORD
  5
431
102
{ACAD_REACTORS
330
430
102
}
330
430
100
AcDbXrecord
280
     1
102
RTVSPropertyOp0
 70
     1
102
RTVSPropertyOp1
 70
     1
102
RTVSPropertyOp2
 70
     1
102
RTVSPropertyOp3
 70
     1
102
RTVSPropertyOp4
 70
     1
102
RTVSPropertyOp5
 70
     1
102
RTVSPropertyOp6
 70
     1
102
RTVSPropertyOp7
 70
     1
102
RTVSPropertyOp8
 70
     1
102
RTVSPropertyOp9
 70
     1
102
RTVSPropertyOp10
 70
     1
102
RTVSPropertyOp11
 70
     1
102
RTVSPropertyOp12
 70
     1
102
RTVSPropertyOp13
 70
     1
102
RTVSPropertyOp14
 70
     1
102
RTVSPropertyOp15
 70
     1
102
RTVSPropertyOp16
 70
     1
102
RTVSPropertyOp17
 70
     1
102
RTVSPropertyOp18
 70
     1
102
RTVSPropertyOp19
 70
     1
102
RTVSPropertyOp20
 70
     1
102
RTVSPropertyOp21
 70
     1
102
RTVSPropertyOp22
 70
     1
102
RTVSPropertyOp23
 70
     1
102
RTVSPropertyOp24
 70
     1
102
RTVSPropertyOp25
 70
     1
102
RTVSPropertyOp26
 70
     1
102
RTVSPropertyOp27
 70
     1
102
RTVSPropertyOp28
 70
     1
102
RTVSPropertyOp29
 70
     1
102
RTVSPropertyOp30
 70
     1
102
RTVSPropertyOp31
 70
     1
102
RTVSPropertyOp32
 70
     1
102
RTVSPropertyOp33
 70
     1
102
RTVSPropertyOp34
 70
     1
102
RTVSPropertyOp35
 70
     1
102
RTVSPropertyOp36
 70
     1
102
RTVSPropertyOp37
 70
     1
102
RTVSPropertyOp38
 70
     1
102
RTVSPropertyOp39
 70
     1
102
RTVSPropertyOp40
 70
     1
102
RTVSPropertyOp41
 70
     1
102
RTVSPropertyOp42
 70
     1
102
RTVSPropertyOp43
 70
     1
102
RTVSPropertyOp44
 70
     1
102
RTVSPropertyOp45
 70
     1
102
RTVSPropertyOp46
 70
     1
102
RTVSPropertyOp47
 70
     1
102
RTVSPropertyOp48
 70
     1
102
RTVSPropertyOp49
 70
     1
102
RTVSPropertyOp50
 70
     1
102
RTVSPropertyOp51
 70
     0
102
RTVSPropertyOp52
 70
     0
102
RTVSPropertyOp53
 70
     1
102
RTVSPropertyOp54
 70
     1
102
RTVSPropertyOp55
 70
     1
102
RTVSPropertyOp56
 70
     1
102
RTVSPropertyOp57
 70
     1
102
RTVSPost2010Prop28
280
     0
102
RTVSPost2010PropOp28
 70
     1
102
RTVSPost2010Prop29
280
     1
102
RTVSPost2010PropOp29
 70
     1
102
RTVSPost2010Prop30
280
     1
102
RTVSPost2010PropOp30
 70
     1
102
RTVSPost2010Prop31
280
     0
102
RTVSPost2010PropOp31
 70
     1
102
RTVSPost2010Prop32
280
     0
102
RTVSPost2010PropOp32
 70
     1
102
RTVSPost2010Prop33
280
     0
102
RTVSPost2010PropOp33
 70
     1
102
RTVSPost2010Prop34
280
     0
102
RTVSPost2010PropOp34
 70
     1
102
RTVSPost2010Prop35
280
     0
102
RTVSPost2010PropOp35
 70
     1
102
RTVSPost2010Prop36
280
     0
102
RTVSPost2010PropOp36
 70
     1
102
RTVSPost2010Prop37
 90
       50
102
RTVSPost2010PropOp37
 70
     1
102
RTVSPost2010Prop38
140
0.0
102
RTVSPost2010PropOp38
 70
     1
102
RTVSPost2010Prop39
140
1.0
102
RTVSPost2010PropOp39
 70
     1
102
RTVSPost2010Prop40
 90
        0
102
RTVSPost2010PropOp40
 70
     1
102
RTVSPost2010Prop41ColorIndex
 90
       18
102
RTVSPost2010Prop41ColorRGB
 90
        0
102
RTVSPost2010PropOp41
 70
     1
102
RTVSPost2010Prop42
 90
       50
102
RTVSPost2010PropOp42
 70
     1
102
RTVSPost2010Prop43
 90
        3
102
RTVSPost2010PropOp43
 70
     1
102
RTVSPost2010Prop44ColorIndex
 90
        5
102
RTVSPost2010Prop44ColorRGB
 90
      255
102
RTVSPost2010PropOp44
 70
     1
102
RTVSPost2010Prop45
280
     0
102
RTVSPost2010PropOp45
 70
     1
102
RTVSPost2010Prop46
 90
       50
102
RTVSPost2010PropOp46
 70
     1
102
RTVSPost2010Prop47
 90
       50
102
RTVSPost2010PropOp47
 70
     1
102
RTVSPost2010Prop48
 90
       50
102
RTVSPost2010PropOp48
 70
     1
102
RTVSPost2010Prop49
280
     0
102
RTVSPost2010PropOp49
 70
     1
102
RTVSPost2010Prop50
 90
       50
102
RTVSPost2010PropOp50
 70
     1
102
RTVSPost2010Prop51ColorIndex
 90
      256
102
RTVSPost2010Prop51ColorRGB
 90
-16777216
102
RTVSPost2010PropOp51
 70
     0
102
RTVSPost2010Prop52
140
1.0
102
RTVSPost2010PropOp52
 70
     0
102
RTVSPost2010Prop53
 90
        2
102
RTVSPost2010PropOp53
 70
     1
102
RTVSPost2010Prop54
  1
strokes_ogs.tif
102
RTVSPost2010PropOp54
 70
     1
102
RTVSPost2010Prop55
280
     0
102
RTVSPost2010PropOp55
 70
     1
102
RTVSPost2010Prop56
140
1.0
102
RTVSPost2010PropOp56
 70
     1
102
RTVSPost2010Prop57
140
1.0
102
RTVSPost2010PropOp57
 70
     1
  0
XRECORD
  5
437
102
{ACAD_REACTORS
330
436
102
}
330
436
100
AcDbXrecord
280
     1
102
RTVSPropertyOp0
 70
     1
102
RTVSPropertyOp1
 70
     1
102
RTVSPropertyOp2
 70
     1
102
RTVSPropertyOp3
 70
     1
102
RTVSPropertyOp4
 70
     1
102
RTVSPropertyOp5
 70
     1
102
RTVSPropertyOp6
 70
     1
102
RTVSPropertyOp7
 70
     1
102
RTVSPropertyOp8
 70
     1
102
RTVSPropertyOp9
 70
     1
102
RTVSPropertyOp10
 70
     1
102
RTVSPropertyOp11
 70
     1
102
RTVSPropertyOp12
 70
     1
102
RTVSPropertyOp13
 70
     1
102
RTVSPropertyOp14
 70
     1
102
RTVSPropertyOp15
 70
     1
102
RTVSPropertyOp16
 70
     1
102
RTVSPropertyOp17
 70
     1
102
RTVSPropertyOp18
 70
     1
102
RTVSPropertyOp19
 70
     1
102
RTVSPropertyOp20
 70
     1
102
RTVSPropertyOp21
 70
     1
102
RTVSPropertyOp22
 70
     1
102
RTVSPropertyOp23
 70
     1
102
RTVSPropertyOp24
 70
     1
102
RTVSPropertyOp25
 70
     1
102
RTVSPropertyOp26
 70
     1
102
RTVSPropertyOp27
 70
     1
102
RTVSPropertyOp28
 70
     1
102
RTVSPropertyOp29
 70
     1
102
RTVSPropertyOp30
 70
     1
102
RTVSPropertyOp31
 70
     1
102
RTVSPropertyOp32
 70
     1
102
RTVSPropertyOp33
 70
     1
102
RTVSPropertyOp34
 70
     1
102
RTVSPropertyOp35
 70
     1
102
RTVSPropertyOp36
 70
     1
102
RTVSPropertyOp37
 70
     1
102
RTVSPropertyOp38
 70
     1
102
RTVSPropertyOp39
 70
     1
102
RTVSPropertyOp40
 70
     1
102
RTVSPropertyOp41
 70
     1
102
RTVSPropertyOp42
 70
     1
102
RTVSPropertyOp43
 70
     1
102
RTVSPropertyOp44
 70
     1
102
RTVSPropertyOp45
 70
     1
102
RTVSPropertyOp46
 70
     1
102
RTVSPropertyOp47
 70
     1
102
RTVSPropertyOp48
 70
     1
102
RTVSPropertyOp49
 70
     1
102
RTVSPropertyOp50
 70
     1
102
RTVSPropertyOp51
 70
     0
102
RTVSPropertyOp52
 70
     0
102
RTVSPropertyOp53
 70
     1
102
RTVSPropertyOp54
 70
     1
102
RTVSPropertyOp55
 70
     1
102
RTVSPropertyOp56
 70
     1
102
RTVSPropertyOp57
 70
     1
102
RTVSPost2010Prop28
280
     0
102
RTVSPost2010PropOp28
 70
     1
102
RTVSPost2010Prop29
280
     1
102
RTVSPost2010PropOp29
 70
     1
102
RTVSPost2010Prop30
280
     1
102
RTVSPost2010PropOp30
 70
     1
102
RTVSPost2010Prop31
280
     0
102
RTVSPost2010PropOp31
 70
     1
102
RTVSPost2010Prop32
280
     0
102
RTVSPost2010PropOp32
 70
     1
102
RTVSPost2010Prop33
280
     0
102
RTVSPost2010PropOp33
 70
     1
102
RTVSPost2010Prop34
280
     0
102
RTVSPost2010PropOp34
 70
     1
102
RTVSPost2010Prop35
280
     0
102
RTVSPost2010PropOp35
 70
     1
102
RTVSPost2010Prop36
280
     0
102
RTVSPost2010PropOp36
 70
     1
102
RTVSPost2010Prop37
 90
       50
102
RTVSPost2010PropOp37
 70
     1
102
RTVSPost2010Prop38
140
0.0
102
RTVSPost2010PropOp38
 70
     1
102
RTVSPost2010Prop39
140
1.0
102
RTVSPost2010PropOp39
 70
     1
102
RTVSPost2010Prop40
 90
        0
102
RTVSPost2010PropOp40
 70
     1
102
RTVSPost2010Prop41ColorIndex
 90
       18
102
RTVSPost2010Prop41ColorRGB
 90
        0
102
RTVSPost2010PropOp41
 70
     1
102
RTVSPost2010Prop42
 90
       50
102
RTVSPost2010PropOp42
 70
     1
102
RTVSPost2010Prop43
 90
        3
102
RTVSPost2010PropOp43
 70
     1
102
RTVSPost2010Prop44ColorIndex
 90
        5
102
RTVSPost2010Prop44ColorRGB
 90
      255
102
RTVSPost2010PropOp44
 70
     1
102
RTVSPost2010Prop45
280
     0
102
RTVSPost2010PropOp45
 70
     1
102
RTVSPost2010Prop46
 90
       50
102
RTVSPost2010PropOp46
 70
     1
102
RTVSPost2010Prop47
 90
       50
102
RTVSPost2010PropOp47
 70
     1
102
RTVSPost2010Prop48
 90
       50
102
RTVSPost2010PropOp48
 70
     1
102
RTVSPost2010Prop49
280
     0
102
RTVSPost2010PropOp49
 70
     1
102
RTVSPost2010Prop50
 90
       50
102
RTVSPost2010PropOp50
 70
     1
102
RTVSPost2010Prop51ColorIndex
 90
      256
102
RTVSPost2010Prop51ColorRGB
 90
-16777216
102
RTVSPost2010PropOp51
 70
     0
102
RTVSPost2010Prop52
140
1.0
102
RTVSPost2010PropOp52
 70
     0
102
RTVSPost2010Prop53
 90
        2
102
RTVSPost2010PropOp53
 70
     1
102
RTVSPost2010Prop54
  1
strokes_ogs.tif
102
RTVSPost2010PropOp54
 70
     1
102
RTVSPost2010Prop55
280
     0
102
RTVSPost2010PropOp55
 70
     1
102
RTVSPost2010Prop56
140
1.0
102
RTVSPost2010PropOp56
 70
     1
102
RTVSPost2010Prop57
140
1.0
102
RTVSPost2010PropOp57
 70
     1
  0
XRECORD
  5
44B
102
{ACAD_REACTORS
330
44A
102
}
330
44A
100
AcDbXrecord
280
     1
102
RTVSPropertyOp0
 70
     0
102
RTVSPropertyOp1
 70
     0
102
RTVSPropertyOp2
 70
     0
102
RTVSPropertyOp3
 70
     0
102
RTVSPropertyOp4
 70
     0
102
RTVSPropertyOp5
 70
     0
102
RTVSPropertyOp6
 70
     0
102
RTVSPropertyOp7
 70
     0
102
RTVSPropertyOp8
 70
     0
102
RTVSPropertyOp9
 70
     0
102
RTVSPropertyOp10
 70
     0
102
RTVSPropertyOp11
 70
     0
102
RTVSPropertyOp12
 70
     0
102
RTVSPropertyOp13
 70
     0
102
RTVSPropertyOp14
 70
     2
102
RTVSPropertyOp15
 70
     0
102
RTVSPropertyOp16
 70
     0
102
RTVSPropertyOp17
 70
     0
102
RTVSPropertyOp18
 70
     0
102
RTVSPropertyOp19
 70
     0
102
RTVSPropertyOp20
 70
     0
102
RTVSPropertyOp21
 70
     0
102
RTVSPropertyOp22
 70
     0
102
RTVSPropertyOp23
 70
     0
102
RTVSPropertyOp24
 70
     0
102
RTVSPropertyOp25
 70
     0
102
RTVSPropertyOp26
 70
     0
102
RTVSPropertyOp27
 70
     0
102
RTVSPropertyOp28
 70
     0
102
RTVSPropertyOp29
 70
     0
102
RTVSPropertyOp30
 70
     0
102
RTVSPropertyOp31
 70
     0
102
RTVSPropertyOp32
 70
     0
102
RTVSPropertyOp33
 70
     0
102
RTVSPropertyOp34
 70
     0
102
RTVSPropertyOp35
 70
     0
102
RTVSPropertyOp36
 70
     0
102
RTVSPropertyOp37
 70
     0
102
RTVSPropertyOp38
 70
     0
102
RTVSPropertyOp39
 70
     0
102
RTVSPropertyOp40
 70
     0
102
RTVSPropertyOp41
 70
     0
102
RTVSPropertyOp42
 70
     0
102
RTVSPropertyOp43
 70
     0
102
RTVSPropertyOp44
 70
     0
102
RTVSPropertyOp45
 70
     0
102
RTVSPropertyOp46
 70
     0
102
RTVSPropertyOp47
 70
     0
102
RTVSPropertyOp48
 70
     0
102
RTVSPropertyOp49
 70
     0
102
RTVSPropertyOp50
 70
     0
102
RTVSPropertyOp51
 70
     0
102
RTVSPropertyOp52
 70
     0
102
RTVSPropertyOp53
 70
     0
102
RTVSPropertyOp54
 70
     0
102
RTVSPropertyOp55
 70
     0
102
RTVSPropertyOp56
 70
     0
102
RTVSPropertyOp57
 70
     0
102
RTVSPost2010Prop28
280
     0
102
RTVSPost2010PropOp28
 70
     0
102
RTVSPost2010Prop29
280
     1
102
RTVSPost2010PropOp29
 70
     0
102
RTVSPost2010Prop30
280
     1
102
RTVSPost2010PropOp30
 70
     0
102
RTVSPost2010Prop31
280
     0
102
RTVSPost2010PropOp31
 70
     0
102
RTVSPost2010Prop32
280
     0
102
RTVSPost2010PropOp32
 70
     0
102
RTVSPost2010Prop33
280
     0
102
RTVSPost2010PropOp33
 70
     0
102
RTVSPost2010Prop34
280
     0
102
RTVSPost2010PropOp34
 70
     0
102
RTVSPost2010Prop35
280
     0
102
RTVSPost2010PropOp35
 70
     0
102
RTVSPost2010Prop36
280
     0
102
RTVSPost2010PropOp36
 70
     0
102
RTVSPost2010Prop37
 90
       50
102
RTVSPost2010PropOp37
 70
     0
102
RTVSPost2010Prop38
140
0.0
102
RTVSPost2010PropOp38
 70
     0
102
RTVSPost2010Prop39
140
1.0
102
RTVSPost2010PropOp39
 70
     0
102
RTVSPost2010Prop40
 90
        0
102
RTVSPost2010PropOp40
 70
     0
102
RTVSPost2010Prop41ColorIndex
 90
       18
102
RTVSPost2010Prop41ColorRGB
 90
        0
102
RTVSPost2010PropOp41
 70
     0
102
RTVSPost2010Prop42
 90
       50
102
RTVSPost2010PropOp42
 70
     0
102
RTVSPost2010Prop43
 90
        3
102
RTVSPost2010PropOp43
 70
     0
102
RTVSPost2010Prop44ColorIndex
 90
        5
102
RTVSPost2010Prop44ColorRGB
 90
      255
102
RTVSPost2010PropOp44
 70
     0
102
RTVSPost2010Prop45
280
     0
102
RTVSPost2010PropOp45
 70
     0
102
RTVSPost2010Prop46
 90
       50
102
RTVSPost2010PropOp46
 70
     0
102
RTVSPost2010Prop47
 90
       50
102
RTVSPost2010PropOp47
 70
     0
102
RTVSPost2010Prop48
 90
       50
102
RTVSPost2010PropOp48
 70
     0
102
RTVSPost2010Prop49
280
     0
102
RTVSPost2010PropOp49
 70
     0
102
RTVSPost2010Prop50
 90
       50
102
RTVSPost2010PropOp50
 70
     0
102
RTVSPost2010Prop51ColorIndex
 90
      256
102
RTVSPost2010Prop51ColorRGB
 90
-16777216
102
RTVSPost2010PropOp51
 70
     0
102
RTVSPost2010Prop52
140
1.0
102
RTVSPost2010PropOp52
 70
     0
102
RTVSPost2010Prop53
 90
        2
102
RTVSPost2010PropOp53
 70
     0
102
RTVSPost2010Prop54
  1
strokes_ogs.tif
102
RTVSPost2010PropOp54
 70
     0
102
RTVSPost2010Prop55
280
     0
102
RTVSPost2010PropOp55
 70
     0
102
RTVSPost2010Prop56
140
1.0
102
RTVSPost2010PropOp56
 70
     0
102
RTVSPost2010Prop57
140
1.0
102
RTVSPost2010PropOp57
 70
     0
  0
XRECORD
  5
445
102
{ACAD_REACTORS
330
444
102
}
330
444
100
AcDbXrecord
280
     1
102
RTVSPropertyOp0
 70
     1
102
RTVSPropertyOp1
 70
     1
102
RTVSPropertyOp2
 70
     1
102
RTVSPropertyOp3
 70
     1
102
RTVSPropertyOp4
 70
     1
102
RTVSPropertyOp5
 70
     1
102
RTVSPropertyOp6
 70
     1
102
RTVSPropertyOp7
 70
     1
102
RTVSPropertyOp8
 70
     1
102
RTVSPropertyOp9
 70
     1
102
RTVSPropertyOp10
 70
     1
102
RTVSPropertyOp11
 70
     1
102
RTVSPropertyOp12
 70
     1
102
RTVSPropertyOp13
 70
     1
102
RTVSPropertyOp14
 70
     1
102
RTVSPropertyOp15
 70
     1
102
RTVSPropertyOp16
 70
     1
102
RTVSPropertyOp17
 70
     1
102
RTVSPropertyOp18
 70
     1
102
RTVSPropertyOp19
 70
     1
102
RTVSPropertyOp20
 70
     1
102
RTVSPropertyOp21
 70
     1
102
RTVSPropertyOp22
 70
     1
102
RTVSPropertyOp23
 70
     1
102
RTVSPropertyOp24
 70
     1
102
RTVSPropertyOp25
 70
     1
102
RTVSPropertyOp26
 70
     1
102
RTVSPropertyOp27
 70
     1
102
RTVSPropertyOp28
 70
     1
102
RTVSPropertyOp29
 70
     1
102
RTVSPropertyOp30
 70
     1
102
RTVSPropertyOp31
 70
     1
102
RTVSPropertyOp32
 70
     1
102
RTVSPropertyOp33
 70
     1
102
RTVSPropertyOp34
 70
     1
102
RTVSPropertyOp35
 70
     1
102
RTVSPropertyOp36
 70
     1
102
RTVSPropertyOp37
 70
     1
102
RTVSPropertyOp38
 70
     1
102
RTVSPropertyOp39
 70
     1
102
RTVSPropertyOp40
 70
     1
102
RTVSPropertyOp41
 70
     1
102
RTVSPropertyOp42
 70
     1
102
RTVSPropertyOp43
 70
     1
102
RTVSPropertyOp44
 70
     1
102
RTVSPropertyOp45
 70
     1
102
RTVSPropertyOp46
 70
     1
102
RTVSPropertyOp47
 70
     1
102
RTVSPropertyOp48
 70
     1
102
RTVSPropertyOp49
 70
     1
102
RTVSPropertyOp50
 70
     1
102
RTVSPropertyOp51
 70
     0
102
RTVSPropertyOp52
 70
     0
102
RTVSPropertyOp53
 70
     1
102
RTVSPropertyOp54
 70
     1
102
RTVSPropertyOp55
 70
     1
102
RTVSPropertyOp56
 70
     1
102
RTVSPropertyOp57
 70
     1
102
RTVSPost2010Prop28
280
     0
102
RTVSPost2010PropOp28
 70
     1
102
RTVSPost2010Prop29
280
     1
102
RTVSPost2010PropOp29
 70
     1
102
RTVSPost2010Prop30
280
     1
102
RTVSPost2010PropOp30
 70
     1
102
RTVSPost2010Prop31
280
     0
102
RTVSPost2010PropOp31
 70
     1
102
RTVSPost2010Prop32
280
     0
102
RTVSPost2010PropOp32
 70
     1
102
RTVSPost2010Prop33
280
     0
102
RTVSPost2010PropOp33
 70
     1
102
RTVSPost2010Prop34
280
     0
102
RTVSPost2010PropOp34
 70
     1
102
RTVSPost2010Prop35
280
     0
102
RTVSPost2010PropOp35
 70
     1
102
RTVSPost2010Prop36
280
     0
102
RTVSPost2010PropOp36
 70
     1
102
RTVSPost2010Prop37
 90
       50
102
RTVSPost2010PropOp37
 70
     1
102
RTVSPost2010Prop38
140
0.0
102
RTVSPost2010PropOp38
 70
     1
102
RTVSPost2010Prop39
140
1.0
102
RTVSPost2010PropOp39
 70
     1
102
RTVSPost2010Prop40
 90
        0
102
RTVSPost2010PropOp40
 70
     1
102
RTVSPost2010Prop41ColorIndex
 90
       18
102
RTVSPost2010Prop41ColorRGB
 90
        0
102
RTVSPost2010PropOp41
 70
     1
102
RTVSPost2010Prop42
 90
       50
102
RTVSPost2010PropOp42
 70
     1
102
RTVSPost2010Prop43
 90
        3
102
RTVSPost2010PropOp43
 70
     1
102
RTVSPost2010Prop44ColorIndex
 90
        5
102
RTVSPost2010Prop44ColorRGB
 90
      255
102
RTVSPost2010PropOp44
 70
     1
102
RTVSPost2010Prop45
280
     0
102
RTVSPost2010PropOp45
 70
     1
102
RTVSPost2010Prop46
 90
       50
102
RTVSPost2010PropOp46
 70
     1
102
RTVSPost2010Prop47
 90
       50
102
RTVSPost2010PropOp47
 70
     1
102
RTVSPost2010Prop48
 90
       50
102
RTVSPost2010PropOp48
 70
     1
102
RTVSPost2010Prop49
280
     0
102
RTVSPost2010PropOp49
 70
     1
102
RTVSPost2010Prop50
 90
       50
102
RTVSPost2010PropOp50
 70
     1
102
RTVSPost2010Prop51ColorIndex
 90
      256
102
RTVSPost2010Prop51ColorRGB
 90
-16777216
102
RTVSPost2010PropOp51
 70
     0
102
RTVSPost2010Prop52
140
1.0
102
RTVSPost2010PropOp52
 70
     0
102
RTVSPost2010Prop53
 90
        2
102
RTVSPost2010PropOp53
 70
     1
102
RTVSPost2010Prop54
  1
strokes_ogs.tif
102
RTVSPost2010PropOp54
 70
     1
102
RTVSPost2010Prop55
280
     0
102
RTVSPost2010PropOp55
 70
     1
102
RTVSPost2010Prop56
140
1.0
102
RTVSPost2010PropOp56
 70
     1
102
RTVSPost2010Prop57
140
1.0
102
RTVSPost2010PropOp57
 70
     1
  0
XRECORD
  5
44D
102
{ACAD_REACTORS
330
44C
102
}
330
44C
100
AcDbXrecord
280
     1
102
RTVSPropertyOp0
 70
     0
102
RTVSPropertyOp1
 70
     0
102
RTVSPropertyOp2
 70
     0
102
RTVSPropertyOp3
 70
     0
102
RTVSPropertyOp4
 70
     0
102
RTVSPropertyOp5
 70
     0
102
RTVSPropertyOp6
 70
     0
102
RTVSPropertyOp7
 70
     0
102
RTVSPropertyOp8
 70
     0
102
RTVSPropertyOp9
 70
     0
102
RTVSPropertyOp10
 70
     0
102
RTVSPropertyOp11
 70
     0
102
RTVSPropertyOp12
 70
     0
102
RTVSPropertyOp13
 70
     0
102
RTVSPropertyOp14
 70
     2
102
RTVSPropertyOp15
 70
     0
102
RTVSPropertyOp16
 70
     0
102
RTVSPropertyOp17
 70
     0
102
RTVSPropertyOp18
 70
     0
102
RTVSPropertyOp19
 70
     0
102
RTVSPropertyOp20
 70
     0
102
RTVSPropertyOp21
 70
     0
102
RTVSPropertyOp22
 70
     0
102
RTVSPropertyOp23
 70
     0
102
RTVSPropertyOp24
 70
     0
102
RTVSPropertyOp25
 70
     0
102
RTVSPropertyOp26
 70
     0
102
RTVSPropertyOp27
 70
     0
102
RTVSPropertyOp28
 70
     0
102
RTVSPropertyOp29
 70
     0
102
RTVSPropertyOp30
 70
     0
102
RTVSPropertyOp31
 70
     0
102
RTVSPropertyOp32
 70
     0
102
RTVSPropertyOp33
 70
     0
102
RTVSPropertyOp34
 70
     0
102
RTVSPropertyOp35
 70
     0
102
RTVSPropertyOp36
 70
     0
102
RTVSPropertyOp37
 70
     0
102
RTVSPropertyOp38
 70
     0
102
RTVSPropertyOp39
 70
     0
102
RTVSPropertyOp40
 70
     0
102
RTVSPropertyOp41
 70
     0
102
RTVSPropertyOp42
 70
     0
102
RTVSPropertyOp43
 70
     0
102
RTVSPropertyOp44
 70
     0
102
RTVSPropertyOp45
 70
     0
102
RTVSPropertyOp46
 70
     0
102
RTVSPropertyOp47
 70
     0
102
RTVSPropertyOp48
 70
     0
102
RTVSPropertyOp49
 70
     0
102
RTVSPropertyOp50
 70
     0
102
RTVSPropertyOp51
 70
     0
102
RTVSPropertyOp52
 70
     0
102
RTVSPropertyOp53
 70
     0
102
RTVSPropertyOp54
 70
     0
102
RTVSPropertyOp55
 70
     0
102
RTVSPropertyOp56
 70
     0
102
RTVSPropertyOp57
 70
     0
102
RTVSPost2010Prop28
280
     0
102
RTVSPost2010PropOp28
 70
     0
102
RTVSPost2010Prop29
280
     1
102
RTVSPost2010PropOp29
 70
     0
102
RTVSPost2010Prop30
280
     1
102
RTVSPost2010PropOp30
 70
     0
102
RTVSPost2010Prop31
280
     0
102
RTVSPost2010PropOp31
 70
     0
102
RTVSPost2010Prop32
280
     0
102
RTVSPost2010PropOp32
 70
     0
102
RTVSPost2010Prop33
280
     0
102
RTVSPost2010PropOp33
 70
     0
102
RTVSPost2010Prop34
280
     0
102
RTVSPost2010PropOp34
 70
     0
102
RTVSPost2010Prop35
280
     0
102
RTVSPost2010PropOp35
 70
     0
102
RTVSPost2010Prop36
280
     0
102
RTVSPost2010PropOp36
 70
     0
102
RTVSPost2010Prop37
 90
       50
102
RTVSPost2010PropOp37
 70
     0
102
RTVSPost2010Prop38
140
0.0
102
RTVSPost2010PropOp38
 70
     0
102
RTVSPost2010Prop39
140
1.0
102
RTVSPost2010PropOp39
 70
     0
102
RTVSPost2010Prop40
 90
        0
102
RTVSPost2010PropOp40
 70
     0
102
RTVSPost2010Prop41ColorIndex
 90
       18
102
RTVSPost2010Prop41ColorRGB
 90
        0
102
RTVSPost2010PropOp41
 70
     0
102
RTVSPost2010Prop42
 90
       50
102
RTVSPost2010PropOp42
 70
     0
102
RTVSPost2010Prop43
 90
        3
102
RTVSPost2010PropOp43
 70
     0
102
RTVSPost2010Prop44ColorIndex
 90
        5
102
RTVSPost2010Prop44ColorRGB
 90
      255
102
RTVSPost2010PropOp44
 70
     0
102
RTVSPost2010Prop45
280
     0
102
RTVSPost2010PropOp45
 70
     0
102
RTVSPost2010Prop46
 90
       50
102
RTVSPost2010PropOp46
 70
     0
102
RTVSPost2010Prop47
 90
       50
102
RTVSPost2010PropOp47
 70
     0
102
RTVSPost2010Prop48
 90
       50
102
RTVSPost2010PropOp48
 70
     0
102
RTVSPost2010Prop49
280
     0
102
RTVSPost2010PropOp49
 70
     0
102
RTVSPost2010Prop50
 90
       50
102
RTVSPost2010PropOp50
 70
     0
102
RTVSPost2010Prop51ColorIndex
 90
      256
102
RTVSPost2010Prop51ColorRGB
 90
-16777216
102
RTVSPost2010PropOp51
 70
     0
102
RTVSPost2010Prop52
140
1.0
102
RTVSPost2010PropOp52
 70
     0
102
RTVSPost2010Prop53
 90
        2
102
RTVSPost2010PropOp53
 70
     0
102
RTVSPost2010Prop54
  1
strokes_ogs.tif
102
RTVSPost2010PropOp54
 70
     0
102
RTVSPost2010Prop55
280
     0
102
RTVSPost2010PropOp55
 70
     0
102
RTVSPost2010Prop56
140
1.0
102
RTVSPost2010PropOp56
 70
     0
102
RTVSPost2010Prop57
140
1.0
102
RTVSPost2010PropOp57
 70
     0
  0
XRECORD
  5
43B
102
{ACAD_REACTORS
330
43A
102
}
330
43A
100
AcDbXrecord
280
     1
102
RTVSPropertyOp0
 70
     1
102
RTVSPropertyOp1
 70
     1
102
RTVSPropertyOp2
 70
     1
102
RTVSPropertyOp3
 70
     1
102
RTVSPropertyOp4
 70
     1
102
RTVSPropertyOp5
 70
     1
102
RTVSPropertyOp6
 70
     1
102
RTVSPropertyOp7
 70
     1
102
RTVSPropertyOp8
 70
     1
102
RTVSPropertyOp9
 70
     1
102
RTVSPropertyOp10
 70
     1
102
RTVSPropertyOp11
 70
     1
102
RTVSPropertyOp12
 70
     1
102
RTVSPropertyOp13
 70
     1
102
RTVSPropertyOp14
 70
     1
102
RTVSPropertyOp15
 70
     1
102
RTVSPropertyOp16
 70
     1
102
RTVSPropertyOp17
 70
     1
102
RTVSPropertyOp18
 70
     1
102
RTVSPropertyOp19
 70
     1
102
RTVSPropertyOp20
 70
     1
102
RTVSPropertyOp21
 70
     1
102
RTVSPropertyOp22
 70
     1
102
RTVSPropertyOp23
 70
     1
102
RTVSPropertyOp24
 70
     1
102
RTVSPropertyOp25
 70
     1
102
RTVSPropertyOp26
 70
     1
102
RTVSPropertyOp27
 70
     1
102
RTVSPropertyOp28
 70
     1
102
RTVSPropertyOp29
 70
     1
102
RTVSPropertyOp30
 70
     1
102
RTVSPropertyOp31
 70
     1
102
RTVSPropertyOp32
 70
     1
102
RTVSPropertyOp33
 70
     1
102
RTVSPropertyOp34
 70
     1
102
RTVSPropertyOp35
 70
     1
102
RTVSPropertyOp36
 70
     1
102
RTVSPropertyOp37
 70
     1
102
RTVSPropertyOp38
 70
     1
102
RTVSPropertyOp39
 70
     1
102
RTVSPropertyOp40
 70
     1
102
RTVSPropertyOp41
 70
     1
102
RTVSPropertyOp42
 70
     1
102
RTVSPropertyOp43
 70
     1
102
RTVSPropertyOp44
 70
     1
102
RTVSPropertyOp45
 70
     1
102
RTVSPropertyOp46
 70
     1
102
RTVSPropertyOp47
 70
     1
102
RTVSPropertyOp48
 70
     1
102
RTVSPropertyOp49
 70
     1
102
RTVSPropertyOp50
 70
     1
102
RTVSPropertyOp51
 70
     0
102
RTVSPropertyOp52
 70
     0
102
RTVSPropertyOp53
 70
     1
102
RTVSPropertyOp54
 70
     1
102
RTVSPropertyOp55
 70
     1
102
RTVSPropertyOp56
 70
     1
102
RTVSPropertyOp57
 70
     1
102
RTVSPost2010Prop28
280
     0
102
RTVSPost2010PropOp28
 70
     1
102
RTVSPost2010Prop29
280
     1
102
RTVSPost2010PropOp29
 70
     1
102
RTVSPost2010Prop30
280
     1
102
RTVSPost2010PropOp30
 70
     1
102
RTVSPost2010Prop31
280
     0
102
RTVSPost2010PropOp31
 70
     1
102
RTVSPost2010Prop32
280
     0
102
RTVSPost2010PropOp32
 70
     1
102
RTVSPost2010Prop33
280
     0
102
RTVSPost2010PropOp33
 70
     1
102
RTVSPost2010Prop34
280
     0
102
RTVSPost2010PropOp34
 70
     1
102
RTVSPost2010Prop35
280
     0
102
RTVSPost2010PropOp35
 70
     1
102
RTVSPost2010Prop36
280
     0
102
RTVSPost2010PropOp36
 70
     1
102
RTVSPost2010Prop37
 90
       50
102
RTVSPost2010PropOp37
 70
     1
102
RTVSPost2010Prop38
140
0.0
102
RTVSPost2010PropOp38
 70
     1
102
RTVSPost2010Prop39
140
1.0
102
RTVSPost2010PropOp39
 70
     1
102
RTVSPost2010Prop40
 90
        0
102
RTVSPost2010PropOp40
 70
     1
102
RTVSPost2010Prop41ColorIndex
 90
       18
102
RTVSPost2010Prop41ColorRGB
 90
        0
102
RTVSPost2010PropOp41
 70
     1
102
RTVSPost2010Prop42
 90
       50
102
RTVSPost2010PropOp42
 70
     1
102
RTVSPost2010Prop43
 90
        3
102
RTVSPost2010PropOp43
 70
     1
102
RTVSPost2010Prop44ColorIndex
 90
        5
102
RTVSPost2010Prop44ColorRGB
 90
      255
102
RTVSPost2010PropOp44
 70
     1
102
RTVSPost2010Prop45
280
     0
102
RTVSPost2010PropOp45
 70
     1
102
RTVSPost2010Prop46
 90
       50
102
RTVSPost2010PropOp46
 70
     1
102
RTVSPost2010Prop47
 90
       50
102
RTVSPost2010PropOp47
 70
     1
102
RTVSPost2010Prop48
 90
       50
102
RTVSPost2010PropOp48
 70
     1
102
RTVSPost2010Prop49
280
     0
102
RTVSPost2010PropOp49
 70
     1
102
RTVSPost2010Prop50
 90
       50
102
RTVSPost2010PropOp50
 70
     1
102
RTVSPost2010Prop51ColorIndex
 90
      256
102
RTVSPost2010Prop51ColorRGB
 90
-16777216
102
RTVSPost2010PropOp51
 70
     0
102
RTVSPost2010Prop52
140
1.0
102
RTVSPost2010PropOp52
 70
     0
102
RTVSPost2010Prop53
 90
        2
102
RTVSPost2010PropOp53
 70
     1
102
RTVSPost2010Prop54
  1
strokes_ogs.tif
102
RTVSPost2010PropOp54
 70
     1
102
RTVSPost2010Prop55
280
     0
102
RTVSPost2010PropOp55
 70
     1
102
RTVSPost2010Prop56
140
1.0
102
RTVSPost2010PropOp56
 70
     1
102
RTVSPost2010Prop57
140
1.0
102
RTVSPost2010PropOp57
 70
     1
  0
XRECORD
  5
459
102
{ACAD_REACTORS
330
458
102
}
330
458
100
AcDbXrecord
280
     1
102
RTVSPropertyOp0
 70
     1
102
RTVSPropertyOp1
 70
     1
102
RTVSPropertyOp2
 70
     1
102
RTVSPropertyOp3
 70
     1
102
RTVSPropertyOp4
 70
     1
102
RTVSPropertyOp5
 70
     1
102
RTVSPropertyOp6
 70
     1
102
RTVSPropertyOp7
 70
     1
102
RTVSPropertyOp8
 70
     1
102
RTVSPropertyOp9
 70
     1
102
RTVSPropertyOp10
 70
     1
102
RTVSPropertyOp11
 70
     1
102
RTVSPropertyOp12
 70
     1
102
RTVSPropertyOp13
 70
     1
102
RTVSPropertyOp14
 70
     1
102
RTVSPropertyOp15
 70
     1
102
RTVSPropertyOp16
 70
     1
102
RTVSPropertyOp17
 70
     1
102
RTVSPropertyOp18
 70
     1
102
RTVSPropertyOp19
 70
     1
102
RTVSPropertyOp20
 70
     1
102
RTVSPropertyOp21
 70
     1
102
RTVSPropertyOp22
 70
     1
102
RTVSPropertyOp23
 70
     1
102
RTVSPropertyOp24
 70
     1
102
RTVSPropertyOp25
 70
     1
102
RTVSPropertyOp26
 70
     1
102
RTVSPropertyOp27
 70
     1
102
RTVSPropertyOp28
 70
     1
102
RTVSPropertyOp29
 70
     1
102
RTVSPropertyOp30
 70
     1
102
RTVSPropertyOp31
 70
     1
102
RTVSPropertyOp32
 70
     1
102
RTVSPropertyOp33
 70
     1
102
RTVSPropertyOp34
 70
     1
102
RTVSPropertyOp35
 70
     1
102
RTVSPropertyOp36
 70
     1
102
RTVSPropertyOp37
 70
     1
102
RTVSPropertyOp38
 70
     1
102
RTVSPropertyOp39
 70
     1
102
RTVSPropertyOp40
 70
     1
102
RTVSPropertyOp41
 70
     1
102
RTVSPropertyOp42
 70
     1
102
RTVSPropertyOp43
 70
     1
102
RTVSPropertyOp44
 70
     1
102
RTVSPropertyOp45
 70
     1
102
RTVSPropertyOp46
 70
     1
102
RTVSPropertyOp47
 70
     1
102
RTVSPropertyOp48
 70
     1
102
RTVSPropertyOp49
 70
     1
102
RTVSPropertyOp50
 70
     1
102
RTVSPropertyOp51
 70
     0
102
RTVSPropertyOp52
 70
     0
102
RTVSPropertyOp53
 70
     1
102
RTVSPropertyOp54
 70
     1
102
RTVSPropertyOp55
 70
     1
102
RTVSPropertyOp56
 70
     1
102
RTVSPropertyOp57
 70
     1
102
RTVSPost2010Prop28
280
     0
102
RTVSPost2010PropOp28
 70
     1
102
RTVSPost2010Prop29
280
     1
102
RTVSPost2010PropOp29
 70
     1
102
RTVSPost2010Prop30
280
     1
102
RTVSPost2010PropOp30
 70
     1
102
RTVSPost2010Prop31
280
     0
102
RTVSPost2010PropOp31
 70
     1
102
RTVSPost2010Prop32
280
     0
102
RTVSPost2010PropOp32
 70
     1
102
RTVSPost2010Prop33
280
     0
102
RTVSPost2010PropOp33
 70
     1
102
RTVSPost2010Prop34
280
     0
102
RTVSPost2010PropOp34
 70
     1
102
RTVSPost2010Prop35
280
     0
102
RTVSPost2010PropOp35
 70
     1
102
RTVSPost2010Prop36
280
     0
102
RTVSPost2010PropOp36
 70
     1
102
RTVSPost2010Prop37
 90
       50
102
RTVSPost2010PropOp37
 70
     1
102
RTVSPost2010Prop38
140
0.0
102
RTVSPost2010PropOp38
 70
     1
102
RTVSPost2010Prop39
140
1.0
102
RTVSPost2010PropOp39
 70
     1
102
RTVSPost2010Prop40
 90
        0
102
RTVSPost2010PropOp40
 70
     1
102
RTVSPost2010Prop41ColorIndex
 90
       18
102
RTVSPost2010Prop41ColorRGB
 90
        0
102
RTVSPost2010PropOp41
 70
     1
102
RTVSPost2010Prop42
 90
       50
102
RTVSPost2010PropOp42
 70
     1
102
RTVSPost2010Prop43
 90
        3
102
RTVSPost2010PropOp43
 70
     1
102
RTVSPost2010Prop44ColorIndex
 90
        5
102
RTVSPost2010Prop44ColorRGB
 90
      255
102
RTVSPost2010PropOp44
 70
     1
102
RTVSPost2010Prop45
280
     0
102
RTVSPost2010PropOp45
 70
     1
102
RTVSPost2010Prop46
 90
       50
102
RTVSPost2010PropOp46
 70
     1
102
RTVSPost2010Prop47
 90
       50
102
RTVSPost2010PropOp47
 70
     1
102
RTVSPost2010Prop48
 90
       50
102
RTVSPost2010PropOp48
 70
     1
102
RTVSPost2010Prop49
280
     0
102
RTVSPost2010PropOp49
 70
     1
102
RTVSPost2010Prop50
 90
       50
102
RTVSPost2010PropOp50
 70
     1
102
RTVSPost2010Prop51ColorIndex
 90
      256
102
RTVSPost2010Prop51ColorRGB
 90
-16777216
102
RTVSPost2010PropOp51
 70
     0
102
RTVSPost2010Prop52
140
1.0
102
RTVSPost2010PropOp52
 70
     0
102
RTVSPost2010Prop53
 90
        2
102
RTVSPost2010PropOp53
 70
     1
102
RTVSPost2010Prop54
  1
strokes_ogs.tif
102
RTVSPost2010PropOp54
 70
     1
102
RTVSPost2010Prop55
280
     0
102
RTVSPost2010PropOp55
 70
     1
102
RTVSPost2010Prop56
140
1.0
102
RTVSPost2010PropOp56
 70
     1
102
RTVSPost2010Prop57
140
1.0
102
RTVSPost2010PropOp57
 70
     1
  0
XRECORD
  5
457
102
{ACAD_REACTORS
330
456
102
}
330
456
100
AcDbXrecord
280
     1
102
RTVSPropertyOp0
 70
     1
102
RTVSPropertyOp1
 70
     1
102
RTVSPropertyOp2
 70
     1
102
RTVSPropertyOp3
 70
     1
102
RTVSPropertyOp4
 70
     1
102
RTVSPropertyOp5
 70
     1
102
RTVSPropertyOp6
 70
     1
102
RTVSPropertyOp7
 70
     1
102
RTVSPropertyOp8
 70
     1
102
RTVSPropertyOp9
 70
     1
102
RTVSPropertyOp10
 70
     1
102
RTVSPropertyOp11
 70
     1
102
RTVSPropertyOp12
 70
     1
102
RTVSPropertyOp13
 70
     1
102
RTVSPropertyOp14
 70
     1
102
RTVSPropertyOp15
 70
     1
102
RTVSPropertyOp16
 70
     1
102
RTVSPropertyOp17
 70
     1
102
RTVSPropertyOp18
 70
     1
102
RTVSPropertyOp19
 70
     1
102
RTVSPropertyOp20
 70
     1
102
RTVSPropertyOp21
 70
     1
102
RTVSPropertyOp22
 70
     1
102
RTVSPropertyOp23
 70
     1
102
RTVSPropertyOp24
 70
     1
102
RTVSPropertyOp25
 70
     1
102
RTVSPropertyOp26
 70
     1
102
RTVSPropertyOp27
 70
     1
102
RTVSPropertyOp28
 70
     1
102
RTVSPropertyOp29
 70
     1
102
RTVSPropertyOp30
 70
     1
102
RTVSPropertyOp31
 70
     1
102
RTVSPropertyOp32
 70
     1
102
RTVSPropertyOp33
 70
     1
102
RTVSPropertyOp34
 70
     1
102
RTVSPropertyOp35
 70
     1
102
RTVSPropertyOp36
 70
     1
102
RTVSPropertyOp37
 70
     1
102
RTVSPropertyOp38
 70
     1
102
RTVSPropertyOp39
 70
     1
102
RTVSPropertyOp40
 70
     1
102
RTVSPropertyOp41
 70
     1
102
RTVSPropertyOp42
 70
     1
102
RTVSPropertyOp43
 70
     1
102
RTVSPropertyOp44
 70
     1
102
RTVSPropertyOp45
 70
     1
102
RTVSPropertyOp46
 70
     1
102
RTVSPropertyOp47
 70
     1
102
RTVSPropertyOp48
 70
     1
102
RTVSPropertyOp49
 70
     1
102
RTVSPropertyOp50
 70
     1
102
RTVSPropertyOp51
 70
     0
102
RTVSPropertyOp52
 70
     0
102
RTVSPropertyOp53
 70
     1
102
RTVSPropertyOp54
 70
     1
102
RTVSPropertyOp55
 70
     1
102
RTVSPropertyOp56
 70
     1
102
RTVSPropertyOp57
 70
     1
102
RTVSPost2010Prop28
280
     0
102
RTVSPost2010PropOp28
 70
     1
102
RTVSPost2010Prop29
280
     1
102
RTVSPost2010PropOp29
 70
     1
102
RTVSPost2010Prop30
280
     1
102
RTVSPost2010PropOp30
 70
     1
102
RTVSPost2010Prop31
280
     0
102
RTVSPost2010PropOp31
 70
     1
102
RTVSPost2010Prop32
280
     0
102
RTVSPost2010PropOp32
 70
     1
102
RTVSPost2010Prop33
280
     0
102
RTVSPost2010PropOp33
 70
     1
102
RTVSPost2010Prop34
280
     0
102
RTVSPost2010PropOp34
 70
     1
102
RTVSPost2010Prop35
280
     0
102
RTVSPost2010PropOp35
 70
     1
102
RTVSPost2010Prop36
280
     0
102
RTVSPost2010PropOp36
 70
     1
102
RTVSPost2010Prop37
 90
       50
102
RTVSPost2010PropOp37
 70
     1
102
RTVSPost2010Prop38
140
0.0
102
RTVSPost2010PropOp38
 70
     1
102
RTVSPost2010Prop39
140
1.0
102
RTVSPost2010PropOp39
 70
     1
102
RTVSPost2010Prop40
 90
        0
102
RTVSPost2010PropOp40
 70
     1
102
RTVSPost2010Prop41ColorIndex
 90
       18
102
RTVSPost2010Prop41ColorRGB
 90
        0
102
RTVSPost2010PropOp41
 70
     1
102
RTVSPost2010Prop42
 90
       50
102
RTVSPost2010PropOp42
 70
     1
102
RTVSPost2010Prop43
 90
        3
102
RTVSPost2010PropOp43
 70
     1
102
RTVSPost2010Prop44ColorIndex
 90
        5
102
RTVSPost2010Prop44ColorRGB
 90
      255
102
RTVSPost2010PropOp44
 70
     1
102
RTVSPost2010Prop45
280
     0
102
RTVSPost2010PropOp45
 70
     1
102
RTVSPost2010Prop46
 90
       50
102
RTVSPost2010PropOp46
 70
     1
102
RTVSPost2010Prop47
 90
       50
102
RTVSPost2010PropOp47
 70
     1
102
RTVSPost2010Prop48
 90
       50
102
RTVSPost2010PropOp48
 70
     1
102
RTVSPost2010Prop49
280
     0
102
RTVSPost2010PropOp49
 70
     1
102
RTVSPost2010Prop50
 90
       50
102
RTVSPost2010PropOp50
 70
     1
102
RTVSPost2010Prop51ColorIndex
 90
      256
102
RTVSPost2010Prop51ColorRGB
 90
-16777216
102
RTVSPost2010PropOp51
 70
     0
102
RTVSPost2010Prop52
140
1.0
102
RTVSPost2010PropOp52
 70
     0
102
RTVSPost2010Prop53
 90
        2
102
RTVSPost2010PropOp53
 70
     1
102
RTVSPost2010Prop54
  1
strokes_ogs.tif
102
RTVSPost2010PropOp54
 70
     1
102
RTVSPost2010Prop55
280
     0
102
RTVSPost2010PropOp55
 70
     1
102
RTVSPost2010Prop56
140
1.0
102
RTVSPost2010PropOp56
 70
     1
102
RTVSPost2010Prop57
140
1.0
102
RTVSPost2010PropOp57
 70
     1
  0
XRECORD
  5
451
102
{ACAD_REACTORS
330
450
102
}
330
450
100
AcDbXrecord
280
     1
102
RTVSPropertyOp0
 70
     1
102
RTVSPropertyOp1
 70
     1
102
RTVSPropertyOp2
 70
     1
102
RTVSPropertyOp3
 70
     1
102
RTVSPropertyOp4
 70
     1
102
RTVSPropertyOp5
 70
     1
102
RTVSPropertyOp6
 70
     1
102
RTVSPropertyOp7
 70
     1
102
RTVSPropertyOp8
 70
     1
102
RTVSPropertyOp9
 70
     1
102
RTVSPropertyOp10
 70
     1
102
RTVSPropertyOp11
 70
     1
102
RTVSPropertyOp12
 70
     1
102
RTVSPropertyOp13
 70
     1
102
RTVSPropertyOp14
 70
     1
102
RTVSPropertyOp15
 70
     1
102
RTVSPropertyOp16
 70
     1
102
RTVSPropertyOp17
 70
     1
102
RTVSPropertyOp18
 70
     1
102
RTVSPropertyOp19
 70
     1
102
RTVSPropertyOp20
 70
     1
102
RTVSPropertyOp21
 70
     1
102
RTVSPropertyOp22
 70
     1
102
RTVSPropertyOp23
 70
     1
102
RTVSPropertyOp24
 70
     1
102
RTVSPropertyOp25
 70
     1
102
RTVSPropertyOp26
 70
     1
102
RTVSPropertyOp27
 70
     1
102
RTVSPropertyOp28
 70
     1
102
RTVSPropertyOp29
 70
     1
102
RTVSPropertyOp30
 70
     1
102
RTVSPropertyOp31
 70
     1
102
RTVSPropertyOp32
 70
     1
102
RTVSPropertyOp33
 70
     1
102
RTVSPropertyOp34
 70
     1
102
RTVSPropertyOp35
 70
     1
102
RTVSPropertyOp36
 70
     1
102
RTVSPropertyOp37
 70
     1
102
RTVSPropertyOp38
 70
     1
102
RTVSPropertyOp39
 70
     1
102
RTVSPropertyOp40
 70
     1
102
RTVSPropertyOp41
 70
     1
102
RTVSPropertyOp42
 70
     1
102
RTVSPropertyOp43
 70
     1
102
RTVSPropertyOp44
 70
     1
102
RTVSPropertyOp45
 70
     1
102
RTVSPropertyOp46
 70
     1
102
RTVSPropertyOp47
 70
     1
102
RTVSPropertyOp48
 70
     1
102
RTVSPropertyOp49
 70
     1
102
RTVSPropertyOp50
 70
     1
102
RTVSPropertyOp51
 70
     0
102
RTVSPropertyOp52
 70
     0
102
RTVSPropertyOp53
 70
     1
102
RTVSPropertyOp54
 70
     1
102
RTVSPropertyOp55
 70
     1
102
RTVSPropertyOp56
 70
     1
102
RTVSPropertyOp57
 70
     1
102
RTVSPost2010Prop28
280
     0
102
RTVSPost2010PropOp28
 70
     1
102
RTVSPost2010Prop29
280
     1
102
RTVSPost2010PropOp29
 70
     1
102
RTVSPost2010Prop30
280
     1
102
RTVSPost2010PropOp30
 70
     1
102
RTVSPost2010Prop31
280
     0
102
RTVSPost2010PropOp31
 70
     1
102
RTVSPost2010Prop32
280
     0
102
RTVSPost2010PropOp32
 70
     1
102
RTVSPost2010Prop33
280
     0
102
RTVSPost2010PropOp33
 70
     1
102
RTVSPost2010Prop34
280
     0
102
RTVSPost2010PropOp34
 70
     1
102
RTVSPost2010Prop35
280
     0
102
RTVSPost2010PropOp35
 70
     1
102
RTVSPost2010Prop36
280
     0
102
RTVSPost2010PropOp36
 70
     1
102
RTVSPost2010Prop37
 90
       50
102
RTVSPost2010PropOp37
 70
     1
102
RTVSPost2010Prop38
140
0.0
102
RTVSPost2010PropOp38
 70
     1
102
RTVSPost2010Prop39
140
1.0
102
RTVSPost2010PropOp39
 70
     1
102
RTVSPost2010Prop40
 90
        0
102
RTVSPost2010PropOp40
 70
     1
102
RTVSPost2010Prop41ColorIndex
 90
       18
102
RTVSPost2010Prop41ColorRGB
 90
        0
102
RTVSPost2010PropOp41
 70
     1
102
RTVSPost2010Prop42
 90
       50
102
RTVSPost2010PropOp42
 70
     1
102
RTVSPost2010Prop43
 90
        3
102
RTVSPost2010PropOp43
 70
     1
102
RTVSPost2010Prop44ColorIndex
 90
        5
102
RTVSPost2010Prop44ColorRGB
 90
      255
102
RTVSPost2010PropOp44
 70
     1
102
RTVSPost2010Prop45
280
     0
102
RTVSPost2010PropOp45
 70
     1
102
RTVSPost2010Prop46
 90
       50
102
RTVSPost2010PropOp46
 70
     1
102
RTVSPost2010Prop47
 90
       50
102
RTVSPost2010PropOp47
 70
     1
102
RTVSPost2010Prop48
 90
       50
102
RTVSPost2010PropOp48
 70
     1
102
RTVSPost2010Prop49
280
     0
102
RTVSPost2010PropOp49
 70
     1
102
RTVSPost2010Prop50
 90
       50
102
RTVSPost2010PropOp50
 70
     1
102
RTVSPost2010Prop51ColorIndex
 90
      256
102
RTVSPost2010Prop51ColorRGB
 90
-16777216
102
RTVSPost2010PropOp51
 70
     0
102
RTVSPost2010Prop52
140
1.0
102
RTVSPost2010PropOp52
 70
     0
102
RTVSPost2010Prop53
 90
        2
102
RTVSPost2010PropOp53
 70
     1
102
RTVSPost2010Prop54
  1
strokes_ogs.tif
102
RTVSPost2010PropOp54
 70
     1
102
RTVSPost2010Prop55
280
     0
102
RTVSPost2010PropOp55
 70
     1
102
RTVSPost2010Prop56
140
1.0
102
RTVSPost2010PropOp56
 70
     1
102
RTVSPost2010Prop57
140
1.0
102
RTVSPost2010PropOp57
 70
     1
  0
XRECORD
  5
453
102
{ACAD_REACTORS
330
452
102
}
330
452
100
AcDbXrecord
280
     1
102
RTVSPropertyOp0
 70
     1
102
RTVSPropertyOp1
 70
     1
102
RTVSPropertyOp2
 70
     1
102
RTVSPropertyOp3
 70
     1
102
RTVSPropertyOp4
 70
     1
102
RTVSPropertyOp5
 70
     1
102
RTVSPropertyOp6
 70
     1
102
RTVSPropertyOp7
 70
     1
102
RTVSPropertyOp8
 70
     1
102
RTVSPropertyOp9
 70
     1
102
RTVSPropertyOp10
 70
     1
102
RTVSPropertyOp11
 70
     1
102
RTVSPropertyOp12
 70
     1
102
RTVSPropertyOp13
 70
     1
102
RTVSPropertyOp14
 70
     1
102
RTVSPropertyOp15
 70
     1
102
RTVSPropertyOp16
 70
     1
102
RTVSPropertyOp17
 70
     1
102
RTVSPropertyOp18
 70
     1
102
RTVSPropertyOp19
 70
     1
102
RTVSPropertyOp20
 70
     1
102
RTVSPropertyOp21
 70
     1
102
RTVSPropertyOp22
 70
     1
102
RTVSPropertyOp23
 70
     1
102
RTVSPropertyOp24
 70
     1
102
RTVSPropertyOp25
 70
     1
102
RTVSPropertyOp26
 70
     1
102
RTVSPropertyOp27
 70
     1
102
RTVSPropertyOp28
 70
     1
102
RTVSPropertyOp29
 70
     1
102
RTVSPropertyOp30
 70
     1
102
RTVSPropertyOp31
 70
     1
102
RTVSPropertyOp32
 70
     1
102
RTVSPropertyOp33
 70
     1
102
RTVSPropertyOp34
 70
     1
102
RTVSPropertyOp35
 70
     1
102
RTVSPropertyOp36
 70
     1
102
RTVSPropertyOp37
 70
     1
102
RTVSPropertyOp38
 70
     1
102
RTVSPropertyOp39
 70
     1
102
RTVSPropertyOp40
 70
     1
102
RTVSPropertyOp41
 70
     1
102
RTVSPropertyOp42
 70
     1
102
RTVSPropertyOp43
 70
     1
102
RTVSPropertyOp44
 70
     1
102
RTVSPropertyOp45
 70
     1
102
RTVSPropertyOp46
 70
     1
102
RTVSPropertyOp47
 70
     1
102
RTVSPropertyOp48
 70
     1
102
RTVSPropertyOp49
 70
     1
102
RTVSPropertyOp50
 70
     1
102
RTVSPropertyOp51
 70
     0
102
RTVSPropertyOp52
 70
     0
102
RTVSPropertyOp53
 70
     1
102
RTVSPropertyOp54
 70
     1
102
RTVSPropertyOp55
 70
     1
102
RTVSPropertyOp56
 70
     1
102
RTVSPropertyOp57
 70
     1
102
RTVSPost2010Prop28
280
     0
102
RTVSPost2010PropOp28
 70
     1
102
RTVSPost2010Prop29
280
     1
102
RTVSPost2010PropOp29
 70
     1
102
RTVSPost2010Prop30
280
     1
102
RTVSPost2010PropOp30
 70
     1
102
RTVSPost2010Prop31
280
     0
102
RTVSPost2010PropOp31
 70
     1
102
RTVSPost2010Prop32
280
     0
102
RTVSPost2010PropOp32
 70
     1
102
RTVSPost2010Prop33
280
     0
102
RTVSPost2010PropOp33
 70
     1
102
RTVSPost2010Prop34
280
     0
102
RTVSPost2010PropOp34
 70
     1
102
RTVSPost2010Prop35
280
     0
102
RTVSPost2010PropOp35
 70
     1
102
RTVSPost2010Prop36
280
     0
102
RTVSPost2010PropOp36
 70
     1
102
RTVSPost2010Prop37
 90
       50
102
RTVSPost2010PropOp37
 70
     1
102
RTVSPost2010Prop38
140
0.0
102
RTVSPost2010PropOp38
 70
     1
102
RTVSPost2010Prop39
140
1.0
102
RTVSPost2010PropOp39
 70
     1
102
RTVSPost2010Prop40
 90
        0
102
RTVSPost2010PropOp40
 70
     1
102
RTVSPost2010Prop41ColorIndex
 90
       18
102
RTVSPost2010Prop41ColorRGB
 90
        0
102
RTVSPost2010PropOp41
 70
     1
102
RTVSPost2010Prop42
 90
       50
102
RTVSPost2010PropOp42
 70
     1
102
RTVSPost2010Prop43
 90
        3
102
RTVSPost2010PropOp43
 70
     1
102
RTVSPost2010Prop44ColorIndex
 90
        5
102
RTVSPost2010Prop44ColorRGB
 90
      255
102
RTVSPost2010PropOp44
 70
     1
102
RTVSPost2010Prop45
280
     0
102
RTVSPost2010PropOp45
 70
     1
102
RTVSPost2010Prop46
 90
       50
102
RTVSPost2010PropOp46
 70
     1
102
RTVSPost2010Prop47
 90
       50
102
RTVSPost2010PropOp47
 70
     1
102
RTVSPost2010Prop48
 90
       50
102
RTVSPost2010PropOp48
 70
     1
102
RTVSPost2010Prop49
280
     0
102
RTVSPost2010PropOp49
 70
     1
102
RTVSPost2010Prop50
 90
       50
102
RTVSPost2010PropOp50
 70
     1
102
RTVSPost2010Prop51ColorIndex
 90
      256
102
RTVSPost2010Prop51ColorRGB
 90
-16777216
102
RTVSPost2010PropOp51
 70
     0
102
RTVSPost2010Prop52
140
1.0
102
RTVSPost2010PropOp52
 70
     0
102
RTVSPost2010Prop53
 90
        2
102
RTVSPost2010PropOp53
 70
     1
102
RTVSPost2010Prop54
  1
strokes_ogs.tif
102
RTVSPost2010PropOp54
 70
     1
102
RTVSPost2010Prop55
280
     0
102
RTVSPost2010PropOp55
 70
     1
102
RTVSPost2010Prop56
140
1.0
102
RTVSPost2010PropOp56
 70
     1
102
RTVSPost2010Prop57
140
1.0
102
RTVSPost2010PropOp57
 70
     1
  0
XRECORD
  5
443
102
{ACAD_REACTORS
330
442
102
}
330
442
100
AcDbXrecord
280
     1
102
RTVSPropertyOp0
 70
     1
102
RTVSPropertyOp1
 70
     1
102
RTVSPropertyOp2
 70
     1
102
RTVSPropertyOp3
 70
     1
102
RTVSPropertyOp4
 70
     1
102
RTVSPropertyOp5
 70
     1
102
RTVSPropertyOp6
 70
     1
102
RTVSPropertyOp7
 70
     1
102
RTVSPropertyOp8
 70
     1
102
RTVSPropertyOp9
 70
     1
102
RTVSPropertyOp10
 70
     1
102
RTVSPropertyOp11
 70
     1
102
RTVSPropertyOp12
 70
     1
102
RTVSPropertyOp13
 70
     1
102
RTVSPropertyOp14
 70
     1
102
RTVSPropertyOp15
 70
     1
102
RTVSPropertyOp16
 70
     1
102
RTVSPropertyOp17
 70
     1
102
RTVSPropertyOp18
 70
     1
102
RTVSPropertyOp19
 70
     1
102
RTVSPropertyOp20
 70
     1
102
RTVSPropertyOp21
 70
     1
102
RTVSPropertyOp22
 70
     1
102
RTVSPropertyOp23
 70
     1
102
RTVSPropertyOp24
 70
     1
102
RTVSPropertyOp25
 70
     1
102
RTVSPropertyOp26
 70
     1
102
RTVSPropertyOp27
 70
     1
102
RTVSPropertyOp28
 70
     1
102
RTVSPropertyOp29
 70
     1
102
RTVSPropertyOp30
 70
     1
102
RTVSPropertyOp31
 70
     1
102
RTVSPropertyOp32
 70
     1
102
RTVSPropertyOp33
 70
     1
102
RTVSPropertyOp34
 70
     1
102
RTVSPropertyOp35
 70
     1
102
RTVSPropertyOp36
 70
     1
102
RTVSPropertyOp37
 70
     1
102
RTVSPropertyOp38
 70
     1
102
RTVSPropertyOp39
 70
     1
102
RTVSPropertyOp40
 70
     1
102
RTVSPropertyOp41
 70
     1
102
RTVSPropertyOp42
 70
     1
102
RTVSPropertyOp43
 70
     1
102
RTVSPropertyOp44
 70
     1
102
RTVSPropertyOp45
 70
     1
102
RTVSPropertyOp46
 70
     1
102
RTVSPropertyOp47
 70
     1
102
RTVSPropertyOp48
 70
     1
102
RTVSPropertyOp49
 70
     1
102
RTVSPropertyOp50
 70
     1
102
RTVSPropertyOp51
 70
     0
102
RTVSPropertyOp52
 70
     0
102
RTVSPropertyOp53
 70
     1
102
RTVSPropertyOp54
 70
     1
102
RTVSPropertyOp55
 70
     1
102
RTVSPropertyOp56
 70
     1
102
RTVSPropertyOp57
 70
     1
102
RTVSPost2010Prop28
280
     0
102
RTVSPost2010PropOp28
 70
     1
102
RTVSPost2010Prop29
280
     1
102
RTVSPost2010PropOp29
 70
     1
102
RTVSPost2010Prop30
280
     1
102
RTVSPost2010PropOp30
 70
     1
102
RTVSPost2010Prop31
280
     0
102
RTVSPost2010PropOp31
 70
     1
102
RTVSPost2010Prop32
280
     0
102
RTVSPost2010PropOp32
 70
     1
102
RTVSPost2010Prop33
280
     0
102
RTVSPost2010PropOp33
 70
     1
102
RTVSPost2010Prop34
280
     0
102
RTVSPost2010PropOp34
 70
     1
102
RTVSPost2010Prop35
280
     0
102
RTVSPost2010PropOp35
 70
     1
102
RTVSPost2010Prop36
280
     0
102
RTVSPost2010PropOp36
 70
     1
102
RTVSPost2010Prop37
 90
       50
102
RTVSPost2010PropOp37
 70
     1
102
RTVSPost2010Prop38
140
0.0
102
RTVSPost2010PropOp38
 70
     1
102
RTVSPost2010Prop39
140
1.0
102
RTVSPost2010PropOp39
 70
     1
102
RTVSPost2010Prop40
 90
        0
102
RTVSPost2010PropOp40
 70
     1
102
RTVSPost2010Prop41ColorIndex
 90
       18
102
RTVSPost2010Prop41ColorRGB
 90
        0
102
RTVSPost2010PropOp41
 70
     1
102
RTVSPost2010Prop42
 90
       50
102
RTVSPost2010PropOp42
 70
     1
102
RTVSPost2010Prop43
 90
        3
102
RTVSPost2010PropOp43
 70
     1
102
RTVSPost2010Prop44ColorIndex
 90
        5
102
RTVSPost2010Prop44ColorRGB
 90
      255
102
RTVSPost2010PropOp44
 70
     1
102
RTVSPost2010Prop45
280
     0
102
RTVSPost2010PropOp45
 70
     1
102
RTVSPost2010Prop46
 90
       50
102
RTVSPost2010PropOp46
 70
     1
102
RTVSPost2010Prop47
 90
       50
102
RTVSPost2010PropOp47
 70
     1
102
RTVSPost2010Prop48
 90
       50
102
RTVSPost2010PropOp48
 70
     1
102
RTVSPost2010Prop49
280
     0
102
RTVSPost2010PropOp49
 70
     1
102
RTVSPost2010Prop50
 90
       50
102
RTVSPost2010PropOp50
 70
     1
102
RTVSPost2010Prop51ColorIndex
 90
      256
102
RTVSPost2010Prop51ColorRGB
 90
-16777216
102
RTVSPost2010PropOp51
 70
     0
102
RTVSPost2010Prop52
140
1.0
102
RTVSPost2010PropOp52
 70
     0
102
RTVSPost2010Prop53
 90
        2
102
RTVSPost2010PropOp53
 70
     1
102
RTVSPost2010Prop54
  1
strokes_ogs.tif
102
RTVSPost2010PropOp54
 70
     1
102
RTVSPost2010Prop55
280
     0
102
RTVSPost2010PropOp55
 70
     1
102
RTVSPost2010Prop56
140
1.0
102
RTVSPost2010PropOp56
 70
     1
102
RTVSPost2010Prop57
140
1.0
102
RTVSPost2010PropOp57
 70
     1
  0
XRECORD
  5
435
102
{ACAD_REACTORS
330
434
102
}
330
434
100
AcDbXrecord
280
     1
102
RTVSPropertyOp0
 70
     1
102
RTVSPropertyOp1
 70
     1
102
RTVSPropertyOp2
 70
     1
102
RTVSPropertyOp3
 70
     1
102
RTVSPropertyOp4
 70
     1
102
RTVSPropertyOp5
 70
     1
102
RTVSPropertyOp6
 70
     1
102
RTVSPropertyOp7
 70
     1
102
RTVSPropertyOp8
 70
     1
102
RTVSPropertyOp9
 70
     1
102
RTVSPropertyOp10
 70
     1
102
RTVSPropertyOp11
 70
     1
102
RTVSPropertyOp12
 70
     1
102
RTVSPropertyOp13
 70
     1
102
RTVSPropertyOp14
 70
     1
102
RTVSPropertyOp15
 70
     1
102
RTVSPropertyOp16
 70
     1
102
RTVSPropertyOp17
 70
     1
102
RTVSPropertyOp18
 70
     1
102
RTVSPropertyOp19
 70
     1
102
RTVSPropertyOp20
 70
     1
102
RTVSPropertyOp21
 70
     1
102
RTVSPropertyOp22
 70
     1
102
RTVSPropertyOp23
 70
     1
102
RTVSPropertyOp24
 70
     1
102
RTVSPropertyOp25
 70
     1
102
RTVSPropertyOp26
 70
     1
102
RTVSPropertyOp27
 70
     1
102
RTVSPropertyOp28
 70
     1
102
RTVSPropertyOp29
 70
     1
102
RTVSPropertyOp30
 70
     1
102
RTVSPropertyOp31
 70
     1
102
RTVSPropertyOp32
 70
     1
102
RTVSPropertyOp33
 70
     1
102
RTVSPropertyOp34
 70
     1
102
RTVSPropertyOp35
 70
     1
102
RTVSPropertyOp36
 70
     1
102
RTVSPropertyOp37
 70
     1
102
RTVSPropertyOp38
 70
     1
102
RTVSPropertyOp39
 70
     1
102
RTVSPropertyOp40
 70
     1
102
RTVSPropertyOp41
 70
     1
102
RTVSPropertyOp42
 70
     1
102
RTVSPropertyOp43
 70
     1
102
RTVSPropertyOp44
 70
     1
102
RTVSPropertyOp45
 70
     1
102
RTVSPropertyOp46
 70
     1
102
RTVSPropertyOp47
 70
     1
102
RTVSPropertyOp48
 70
     1
102
RTVSPropertyOp49
 70
     1
102
RTVSPropertyOp50
 70
     1
102
RTVSPropertyOp51
 70
     0
102
RTVSPropertyOp52
 70
     0
102
RTVSPropertyOp53
 70
     1
102
RTVSPropertyOp54
 70
     1
102
RTVSPropertyOp55
 70
     1
102
RTVSPropertyOp56
 70
     1
102
RTVSPropertyOp57
 70
     1
102
RTVSPost2010Prop28
280
     0
102
RTVSPost2010PropOp28
 70
     1
102
RTVSPost2010Prop29
280
     1
102
RTVSPost2010PropOp29
 70
     1
102
RTVSPost2010Prop30
280
     1
102
RTVSPost2010PropOp30
 70
     1
102
RTVSPost2010Prop31
280
     0
102
RTVSPost2010PropOp31
 70
     1
102
RTVSPost2010Prop32
280
     0
102
RTVSPost2010PropOp32
 70
     1
102
RTVSPost2010Prop33
280
     0
102
RTVSPost2010PropOp33
 70
     1
102
RTVSPost2010Prop34
280
     0
102
RTVSPost2010PropOp34
 70
     1
102
RTVSPost2010Prop35
280
     0
102
RTVSPost2010PropOp35
 70
     1
102
RTVSPost2010Prop36
280
     0
102
RTVSPost2010PropOp36
 70
     1
102
RTVSPost2010Prop37
 90
       50
102
RTVSPost2010PropOp37
 70
     1
102
RTVSPost2010Prop38
140
0.0
102
RTVSPost2010PropOp38
 70
     1
102
RTVSPost2010Prop39
140
1.0
102
RTVSPost2010PropOp39
 70
     1
102
RTVSPost2010Prop40
 90
        0
102
RTVSPost2010PropOp40
 70
     1
102
RTVSPost2010Prop41ColorIndex
 90
       18
102
RTVSPost2010Prop41ColorRGB
 90
        0
102
RTVSPost2010PropOp41
 70
     1
102
RTVSPost2010Prop42
 90
       50
102
RTVSPost2010PropOp42
 70
     1
102
RTVSPost2010Prop43
 90
        3
102
RTVSPost2010PropOp43
 70
     1
102
RTVSPost2010Prop44ColorIndex
 90
        5
102
RTVSPost2010Prop44ColorRGB
 90
      255
102
RTVSPost2010PropOp44
 70
     1
102
RTVSPost2010Prop45
280
     0
102
RTVSPost2010PropOp45
 70
     1
102
RTVSPost2010Prop46
 90
       50
102
RTVSPost2010PropOp46
 70
     1
102
RTVSPost2010Prop47
 90
       50
102
RTVSPost2010PropOp47
 70
     1
102
RTVSPost2010Prop48
 90
       50
102
RTVSPost2010PropOp48
 70
     1
102
RTVSPost2010Prop49
280
     0
102
RTVSPost2010PropOp49
 70
     1
102
RTVSPost2010Prop50
 90
       50
102
RTVSPost2010PropOp50
 70
     1
102
RTVSPost2010Prop51ColorIndex
 90
      256
102
RTVSPost2010Prop51ColorRGB
 90
-16777216
102
RTVSPost2010PropOp51
 70
     0
102
RTVSPost2010Prop52
140
1.0
102
RTVSPost2010PropOp52
 70
     0
102
RTVSPost2010Prop53
 90
        2
102
RTVSPost2010PropOp53
 70
     1
102
RTVSPost2010Prop54
  1
strokes_ogs.tif
102
RTVSPost2010PropOp54
 70
     1
102
RTVSPost2010Prop55
280
     0
102
RTVSPost2010PropOp55
 70
     1
102
RTVSPost2010Prop56
140
1.0
102
RTVSPost2010PropOp56
 70
     1
102
RTVSPost2010Prop57
140
1.0
102
RTVSPost2010PropOp57
 70
     1
  0
XRECORD
  5
455
102
{ACAD_REACTORS
330
454
102
}
330
454
100
AcDbXrecord
280
     1
102
RTVSPropertyOp0
 70
     1
102
RTVSPropertyOp1
 70
     1
102
RTVSPropertyOp2
 70
     1
102
RTVSPropertyOp3
 70
     1
102
RTVSPropertyOp4
 70
     1
102
RTVSPropertyOp5
 70
     1
102
RTVSPropertyOp6
 70
     1
102
RTVSPropertyOp7
 70
     1
102
RTVSPropertyOp8
 70
     1
102
RTVSPropertyOp9
 70
     1
102
RTVSPropertyOp10
 70
     1
102
RTVSPropertyOp11
 70
     1
102
RTVSPropertyOp12
 70
     1
102
RTVSPropertyOp13
 70
     1
102
RTVSPropertyOp14
 70
     1
102
RTVSPropertyOp15
 70
     1
102
RTVSPropertyOp16
 70
     1
102
RTVSPropertyOp17
 70
     1
102
RTVSPropertyOp18
 70
     1
102
RTVSPropertyOp19
 70
     1
102
RTVSPropertyOp20
 70
     1
102
RTVSPropertyOp21
 70
     1
102
RTVSPropertyOp22
 70
     1
102
RTVSPropertyOp23
 70
     1
102
RTVSPropertyOp24
 70
     1
102
RTVSPropertyOp25
 70
     1
102
RTVSPropertyOp26
 70
     1
102
RTVSPropertyOp27
 70
     1
102
RTVSPropertyOp28
 70
     1
102
RTVSPropertyOp29
 70
     1
102
RTVSPropertyOp30
 70
     1
102
RTVSPropertyOp31
 70
     1
102
RTVSPropertyOp32
 70
     1
102
RTVSPropertyOp33
 70
     1
102
RTVSPropertyOp34
 70
     1
102
RTVSPropertyOp35
 70
     1
102
RTVSPropertyOp36
 70
     1
102
RTVSPropertyOp37
 70
     1
102
RTVSPropertyOp38
 70
     1
102
RTVSPropertyOp39
 70
     1
102
RTVSPropertyOp40
 70
     1
102
RTVSPropertyOp41
 70
     1
102
RTVSPropertyOp42
 70
     1
102
RTVSPropertyOp43
 70
     1
102
RTVSPropertyOp44
 70
     1
102
RTVSPropertyOp45
 70
     1
102
RTVSPropertyOp46
 70
     1
102
RTVSPropertyOp47
 70
     1
102
RTVSPropertyOp48
 70
     1
102
RTVSPropertyOp49
 70
     1
102
RTVSPropertyOp50
 70
     1
102
RTVSPropertyOp51
 70
     0
102
RTVSPropertyOp52
 70
     0
102
RTVSPropertyOp53
 70
     1
102
RTVSPropertyOp54
 70
     1
102
RTVSPropertyOp55
 70
     1
102
RTVSPropertyOp56
 70
     1
102
RTVSPropertyOp57
 70
     1
102
RTVSPost2010Prop28
280
     0
102
RTVSPost2010PropOp28
 70
     1
102
RTVSPost2010Prop29
280
     1
102
RTVSPost2010PropOp29
 70
     1
102
RTVSPost2010Prop30
280
     1
102
RTVSPost2010PropOp30
 70
     1
102
RTVSPost2010Prop31
280
     0
102
RTVSPost2010PropOp31
 70
     1
102
RTVSPost2010Prop32
280
     0
102
RTVSPost2010PropOp32
 70
     1
102
RTVSPost2010Prop33
280
     0
102
RTVSPost2010PropOp33
 70
     1
102
RTVSPost2010Prop34
280
     0
102
RTVSPost2010PropOp34
 70
     1
102
RTVSPost2010Prop35
280
     0
102
RTVSPost2010PropOp35
 70
     1
102
RTVSPost2010Prop36
280
     0
102
RTVSPost2010PropOp36
 70
     1
102
RTVSPost2010Prop37
 90
       50
102
RTVSPost2010PropOp37
 70
     1
102
RTVSPost2010Prop38
140
0.0
102
RTVSPost2010PropOp38
 70
     1
102
RTVSPost2010Prop39
140
1.0
102
RTVSPost2010PropOp39
 70
     1
102
RTVSPost2010Prop40
 90
        0
102
RTVSPost2010PropOp40
 70
     1
102
RTVSPost2010Prop41ColorIndex
 90
       18
102
RTVSPost2010Prop41ColorRGB
 90
        0
102
RTVSPost2010PropOp41
 70
     1
102
RTVSPost2010Prop42
 90
       50
102
RTVSPost2010PropOp42
 70
     1
102
RTVSPost2010Prop43
 90
        3
102
RTVSPost2010PropOp43
 70
     1
102
RTVSPost2010Prop44ColorIndex
 90
        5
102
RTVSPost2010Prop44ColorRGB
 90
      255
102
RTVSPost2010PropOp44
 70
     1
102
RTVSPost2010Prop45
280
     0
102
RTVSPost2010PropOp45
 70
     1
102
RTVSPost2010Prop46
 90
       50
102
RTVSPost2010PropOp46
 70
     1
102
RTVSPost2010Prop47
 90
       50
102
RTVSPost2010PropOp47
 70
     1
102
RTVSPost2010Prop48
 90
       50
102
RTVSPost2010PropOp48
 70
     1
102
RTVSPost2010Prop49
280
     0
102
RTVSPost2010PropOp49
 70
     1
102
RTVSPost2010Prop50
 90
       50
102
RTVSPost2010PropOp50
 70
     1
102
RTVSPost2010Prop51ColorIndex
 90
      256
102
RTVSPost2010Prop51ColorRGB
 90
-16777216
102
RTVSPost2010PropOp51
 70
     0
102
RTVSPost2010Prop52
140
1.0
102
RTVSPost2010PropOp52
 70
     0
102
RTVSPost2010Prop53
 90
        2
102
RTVSPost2010PropOp53
 70
     1
102
RTVSPost2010Prop54
  1
strokes_ogs.tif
102
RTVSPost2010PropOp54
 70
     1
102
RTVSPost2010Prop55
280
     0
102
RTVSPost2010PropOp55
 70
     1
102
RTVSPost2010Prop56
140
1.0
102
RTVSPost2010PropOp56
 70
     1
102
RTVSPost2010Prop57
140
1.0
102
RTVSPost2010PropOp57
 70
     1
  0
ENDSEC
  0
EOF
