  0
SECTION
  2
HEADER
  9
$ACADVER
  1
AC1018
  9
$ACADMAINTVER
 70
     0
  9
$DWGCODEPAGE
  3
ANSI_932
  9
$INSBASE
 10
0.0
 20
0.0
 30
0.0
  9
$EXTMIN
 10
-2970.0
 20
-2100.0
 30
0.0
  9
$EXTMAX
 10
2970.0
 20
2100.0
 30
0.0
  9
$LIMMIN
 10
-2970.0
 20
-2100.0
  9
$LIMMAX
 10
2970.0
 20
2100.0
  9
$ORTHOMODE
 70
     0
  9
$REGENMODE
 70
     1
  9
$FILLMODE
 70
     1
  9
$QTEXTMODE
 70
     0
  9
$MIRRTEXT
 70
     1
  9
$LTSCALE
 40
10.0
  9
$ATTMODE
 70
     1
  9
$TEXTSIZE
 40
2.5
  9
$TRACEWID
 40
1.0
  9
$TEXTSTYLE
  7
Standard
  9
$CLAYER
  8
0
  9
$CELTYPE
  6
ByLayer
  9
$CECOLOR
 62
   256
  9
$CELTSCALE
 40
1.0
  9
$DISPSILH
 70
     0
  9
$DIMSCALE
 40
1.0
  9
$DIMASZ
 40
2.5
  9
$DIMEXO
 40
0.625
  9
$DIMDLI
 40
3.75
  9
$DIMRND
 40
0.0
  9
$DIMDLE
 40
0.0
  9
$DIMEXE
 40
1.25
  9
$DIMTP
 40
0.0
  9
$DIMTM
 40
0.0
  9
$DIMTXT
 40
2.5
  9
$DIMCEN
 40
2.5
  9
$DIMTSZ
 40
0.0
  9
$DIMTOL
 70
     0
  9
$DIMLIM
 70
     0
  9
$DIMTIH
 70
     0
  9
$DIMTOH
 70
     0
  9
$DIMSE1
 70
     0
  9
$DIMSE2
 70
     0
  9
$DIMTAD
 70
     1
  9
$DIMZIN
 70
     8
  9
$DIMBLK
  1

  9
$DIMASO
 70
     1
  9
$DIMSHO
 70
     1
  9
$DIMPOST
  1

  9
$DIMAPOST
  1

  9
$DIMALT
 70
     0
  9
$DIMALTD
 70
     3
  9
$DIMALTF
 40
0.03937007874016
  9
$DIMLFAC
 40
1.0
  9
$DIMTOFL
 70
     1
  9
$DIMTVP
 40
0.0
  9
$DIMTIX
 70
     0
  9
$DIMSOXD
 70
     0
  9
$DIMSAH
 70
     0
  9
$DIMBLK1
  1

  9
$DIMBLK2
  1

  9
$DIMSTYLE
  2
ISO-25
  9
$DIMCLRD
 70
     0
  9
$DIMCLRE
 70
     0
  9
$DIMCLRT
 70
     0
  9
$DIMTFAC
 40
1.0
  9
$DIMGAP
 40
0.625
  9
$DIMJUST
 70
     0
  9
$DIMSD1
 70
     0
  9
$DIMSD2
 70
     0
  9
$DIMTOLJ
 70
     0
  9
$DIMTZIN
 70
     8
  9
$DIMALTZ
 70
     0
  9
$DIMALTTZ
 70
     0
  9
$DIMUPT
 70
     0
  9
$DIMDEC
 70
     2
  9
$DIMTDEC
 70
     2
  9
$DIMALTU
 70
     2
  9
$DIMALTTD
 70
     3
  9
$DIMTXSTY
  7
Standard
  9
$DIMAUNIT
 70
     0
  9
$DIMADEC
 70
     0
  9
$DIMALTRND
 40
0.0
  9
$DIMAZIN
 70
     0
  9
$DIMDSEP
 70
    44
  9
$DIMATFIT
 70
     3
  9
$DIMFRAC
 70
     0
  9
$DIMLDRBLK
  1

  9
$DIMLUNIT
 70
     2
  9
$DIMLWD
 70
    -2
  9
$DIMLWE
 70
    -2
  9
$DIMTMOVE
 70
     0
  9
$LUNITS
 70
     2
  9
$LUPREC
 70
     4
  9
$SKETCHINC
 40
1.0
  9
$FILLETRAD
 40
10.0
  9
$AUNITS
 70
     0
  9
$AUPREC
 70
     0
  9
$MENU
  1
.
  9
$ELEVATION
 40
0.0
  9
$PELEVATION
 40
0.0
  9
$THICKNESS
 40
0.0
  9
$LIMCHECK
 70
     0
  9
$CHAMFERA
 40
0.0
  9
$CHAMFERB
 40
0.0
  9
$CHAMFERC
 40
0.0
  9
$CHAMFERD
 40
0.0
  9
$SKPOLY
 70
     0
  9
$TDCREATE
 40
2459494.360118912
  9
$TDUCREATE
 40
2459493.985118912
  9
$TDUPDATE
 40
2459494.360119097
  9
$TDUUPDATE
 40
2459493.985119097
  9
$TDINDWG
 40
0.0000000116
  9
$TDUSRTIMER
 40
0.0000000116
  9
$USRTIMER
 70
     1
  9
$ANGBASE
 50
0.0
  9
$ANGDIR
 70
     0
  9
$PDMODE
 70
     0
  9
$PDSIZE
 40
0.0
  9
$PLINEWID
 40
0.0
  9
$SPLFRAME
 70
     0
  9
$SPLINETYPE
 70
     6
  9
$SPLINESEGS
 70
     8
  9
$HANDSEED
  5
46E
  9
$SURFTAB1
 70
     6
  9
$SURFTAB2
 70
     6
  9
$SURFTYPE
 70
     6
  9
$SURFU
 70
     6
  9
$SURFV
 70
     6
  9
$UCSBASE
  2

  9
$UCSNAME
  2

  9
$UCSORG
 10
0.0
 20
0.0
 30
0.0
  9
$UCSXDIR
 10
1.0
 20
0.0
 30
0.0
  9
$UCSYDIR
 10
0.0
 20
1.0
 30
0.0
  9
$UCSORTHOREF
  2

  9
$UCSORTHOVIEW
 70
     0
  9
$UCSORGTOP
 10
0.0
 20
0.0
 30
0.0
  9
$UCSORGBOTTOM
 10
0.0
 20
0.0
 30
0.0
  9
$UCSORGLEFT
 10
0.0
 20
0.0
 30
0.0
  9
$UCSORGRIGHT
 10
0.0
 20
0.0
 30
0.0
  9
$UCSORGFRONT
 10
0.0
 20
0.0
 30
0.0
  9
$UCSORGBACK
 10
0.0
 20
0.0
 30
0.0
  9
$PUCSBASE
  2

  9
$PUCSNAME
  2

  9
$PUCSORG
 10
0.0
 20
0.0
 30
0.0
  9
$PUCSXDIR
 10
1.0
 20
0.0
 30
0.0
  9
$PUCSYDIR
 10
0.0
 20
1.0
 30
0.0
  9
$PUCSORTHOREF
  2

  9
$PUCSORTHOVIEW
 70
     0
  9
$PUCSORGTOP
 10
0.0
 20
0.0
 30
0.0
  9
$PUCSORGBOTTOM
 10
0.0
 20
0.0
 30
0.0
  9
$PUCSORGLEFT
 10
0.0
 20
0.0
 30
0.0
  9
$PUCSORGRIGHT
 10
0.0
 20
0.0
 30
0.0
  9
$PUCSORGFRONT
 10
0.0
 20
0.0
 30
0.0
  9
$PUCSORGBACK
 10
0.0
 20
0.0
 30
0.0
  9
$USERI1
 70
     0
  9
$USERI2
 70
     0
  9
$USERI3
 70
     0
  9
$USERI4
 70
     0
  9
$USERI5
 70
     0
  9
$USERR1
 40
0.0
  9
$USERR2
 40
0.0
  9
$USERR3
 40
0.0
  9
$USERR4
 40
0.0
  9
$USERR5
 40
0.0
  9
$WORLDVIEW
 70
     1
  9
$SHADEDGE
 70
     3
  9
$SHADEDIF
 70
    70
  9
$TILEMODE
 70
     1
  9
$MAXACTVP
 70
    64
  9
$PINSBASE
 10
0.0
 20
0.0
 30
0.0
  9
$PLIMCHECK
 70
     0
  9
$PEXTMIN
 10
1.000000000000000E+20
 20
1.000000000000000E+20
 30
1.000000000000000E+20
  9
$PEXTMAX
 10
-1.000000000000000E+20
 20
-1.000000000000000E+20
 30
-1.000000000000000E+20
  9
$PLIMMIN
 10
0.0
 20
0.0
  9
$PLIMMAX
 10
420.0
 20
297.0
  9
$UNITMODE
 70
     0
  9
$VISRETAIN
 70
     1
  9
$PLINEGEN
 70
     0
  9
$PSLTSCALE
 70
     1
  9
$TREEDEPTH
 70
  3020
  9
$CMLSTYLE
  2
Standard
  9
$CMLJUST
 70
     0
  9
$CMLSCALE
 40
20.0
  9
$PROXYGRAPHICS
 70
     1
  9
$MEASUREMENT
 70
     1
  9
$CELWEIGHT
370
    -1
  9
$ENDCAPS
280
     0
  9
$JOINSTYLE
280
     0
  9
$LWDISPLAY
290
     0
  9
$INSUNITS
 70
     4
  9
$HYPERLINKBASE
  1

  9
$STYLESHEET
  1

  9
$XEDIT
290
     1
  9
$CEPSNTYPE
380
     0
  9
$PSTYLEMODE
290
     1
  9
$FINGERPRINTGUID
  2
{D3236B12-CC26-4498-9795-6B60466F02D8}
  9
$VERSIONGUID
  2
{FAEB1C32-E019-11D5-929B-00C0DF256EC4}
  9
$EXTNAMES
290
     1
  9
$PSVPSCALE
 40
0.0
  9
$OLESTARTUP
290
     0
  9
$SORTENTS
280
   127
  9
$INDEXCTL
280
     0
  9
$HIDETEXT
280
     1
  9
$XCLIPFRAME
290
     0
  9
$HALOGAP
280
     0
  9
$OBSCOLOR
 70
   257
  9
$OBSLTYPE
280
     0
  9
$INTERSECTIONDISPLAY
280
     0
  9
$INTERSECTIONCOLOR
 70
   257
  9
$DIMASSOC
280
     2
  9
$PROJECTNAME
  1

  0
ENDSEC
  0
SECTION
  2
CLASSES
  0
CLASS
  1
ACDBDICTIONARYWDFLT
  2
AcDbDictionaryWithDefault
  3
ObjectDBX Classes
 90
        0
 91
        4
280
     0
281
     0
  0
CLASS
  1
VISUALSTYLE
  2
AcDbVisualStyle
  3
ObjectDBX Classes
 90
     4095
 91
        4
280
     0
281
     0
  0
CLASS
  1
MATERIAL
  2
AcDbMaterial
  3
ObjectDBX Classes
 90
     1153
 91
        4
280
     0
281
     0
  0
CLASS
  1
SCALE
  2
AcDbScale
  3
ObjectDBX Classes
 90
     1153
 91
        4
280
     0
281
     0
  0
CLASS
  1
TABLESTYLE
  2
AcDbTableStyle
  3
ObjectDBX Classes
 90
     4095
 91
        4
280
     0
281
     0
  0
CLASS
  1
MLEADERSTYLE
  2
AcDbMLeaderStyle
  3
ACDB_MLEADERSTYLE_CLASS
 90
     4095
 91
        4
280
     0
281
     0
  0
CLASS
  1
SUN
  2
AcDbSun
  3
SCENEOE
 90
     1153
 91
        4
280
     0
281
     0
  0
CLASS
  1
DICTIONARYVAR
  2
AcDbDictionaryVar
  3
ObjectDBX Classes
 90
        0
 91
        4
280
     0
281
     0
  0
CLASS
  1
CELLSTYLEMAP
  2
AcDbCellStyleMap
  3
ObjectDBX Classes
 90
     1152
 91
        4
280
     0
281
     0
  0
ENDSEC
  0
SECTION
  2
TABLES
  0
TABLE
  2
VPORT
  5
8
102
{ACAD_XDICTIONARY
360
425
102
}
330
0
100
AcDbSymbolTable
 70
     1
  0
VPORT
  5
29
330
8
100
AcDbSymbolTableRecord
100
AcDbViewportTableRecord
  2
*Active
 70
     0
 10
0.0
 20
0.0
 11
1.0
 21
1.0
 12
0.0
 22
0.0
 13
0.0
 23
0.0
 14
10.0
 24
10.0
 15
10.0
 25
10.0
 16
0.0
 26
0.0
 36
1.0
 17
0.0
 27
0.0
 37
0.0
 40
4620.0
 41
1.414285714285715
 42
50.0
 43
0.0
 44
0.0
 50
0.0
 51
0.0
 71
     0
 72
 10000
 73
     1
 74
     3
 75
     0
 76
     0
 77
     0
 78
     0
281
     0
 65
     1
110
0.0
120
0.0
130
0.0
111
1.0
121
0.0
131
0.0
112
0.0
122
1.0
132
0.0
 79
     0
146
0.0
  0
ENDTAB
  0
TABLE
  2
LTYPE
  5
5
330
0
100
AcDbSymbolTable
 70
     6
  0
LTYPE
  5
14
330
5
100
AcDbSymbolTableRecord
100
AcDbLinetypeTableRecord
  2
ByBlock
 70
     0
  3

 72
    65
 73
     0
 40
0.0
  0
LTYPE
  5
15
330
5
100
AcDbSymbolTableRecord
100
AcDbLinetypeTableRecord
  2
ByLayer
 70
     0
  3

 72
    65
 73
     0
 40
0.0
  0
LTYPE
  5
16
330
5
100
AcDbSymbolTableRecord
100
AcDbLinetypeTableRecord
  2
Continuous
 70
     0
  3
Solid line
 72
    65
 73
     0
 40
0.0
  0
LTYPE
  5
6F
330
5
100
AcDbSymbolTableRecord
100
AcDbLinetypeTableRecord
  2
JWW_CENTER1
 70
     0
  3
-----  --  ----------  --  -----
 72
    65
 73
     4
 40
6.773333333333333
 49
4.233333333333333
 74
     0
 49
-0.8466666666666667
 74
     0
 49
0.8466666666666667
 74
     0
 49
-0.8466666666666667
 74
     0
  0
LTYPE
  5
70
330
5
100
AcDbSymbolTableRecord
100
AcDbLinetypeTableRecord
  2
JWW_DASHED1
 70
     0
  3
-  --  --  --  --  --  --  --  -
 72
    65
 73
     2
 40
1.693333333333333
 49
0.8466666666666667
 74
     0
 49
-0.8466666666666667
 74
     0
  0
LTYPE
  5
71
330
5
100
AcDbSymbolTableRecord
100
AcDbLinetypeTableRecord
  2
JWW_HOJO
 70
     0
  3
  -   -   -   -   -   -   -   - 
 72
    65
 73
     2
 40
1.693333333333333
 49
-1.27
 74
     0
 49
0.4233333333333333
 74
     0
  0
LTYPE
  5
72
330
5
100
AcDbSymbolTableRecord
100
AcDbLinetypeTableRecord
  2
JWW_PHANTOM1
 70
     0
  3
----  -  -  --------  -  -  ----
 72
    65
 73
     6
 40
6.773333333333333
 49
3.386666666666667
 74
     0
 49
-0.8466666666666667
 74
     0
 49
0.4233333333333333
 74
     0
 49
-0.8466666666666667
 74
     0
 49
0.4233333333333333
 74
     0
 49
-0.8466666666666667
 74
     0
  0
LTYPE
  5
73
330
5
100
AcDbSymbolTableRecord
100
AcDbLinetypeTableRecord
  2
JWW_DASHED2
 70
     0
  3
--    ----    ----    ----    --
 72
    65
 73
     2
 40
3.386666666666667
 49
1.693333333333333
 74
     0
 49
-1.693333333333333
 74
     0
  0
ENDTAB
  0
TABLE
  2
LAYER
  5
2
330
0
100
AcDbSymbolTable
 70
    20
  0
LAYER
  5
10
330
2
100
AcDbSymbolTableRecord
100
AcDbLayerTableRecord
  2
0
 70
     0
 62
     7
  6
Continuous
370
    -3
390
F
  0
LAYER
  5
74
330
2
100
AcDbSymbolTableRecord
100
AcDbLayerTableRecord
  2
寸法
 70
     0
 62
     7
  6
Continuous
370
    -3
390
F
  0
LAYER
  5
75
330
2
100
AcDbSymbolTableRecord
100
AcDbLayerTableRecord
  2
0-F
 70
     0
 62
     7
  6
Continuous
370
    -3
390
F
  0
LAYER
  5
76
330
2
100
AcDbSymbolTableRecord
100
AcDbLayerTableRecord
  2
F-Fﾚｲﾔ
 70
     0
 62
     7
  6
Continuous
370
    -3
390
F
  0
LAYER
  5
77
330
2
100
AcDbSymbolTableRecord
100
AcDbLayerTableRecord
  2
F-5ﾚｲﾔ
 70
     0
 62
     7
  6
Continuous
370
    -3
390
F
  0
LAYER
  5
78
330
2
100
AcDbSymbolTableRecord
100
AcDbLayerTableRecord
  2
D-9
 70
     0
 62
     7
  6
Continuous
370
    -3
390
F
  0
LAYER
  5
79
330
2
100
AcDbSymbolTableRecord
100
AcDbLayerTableRecord
  2
D-2
 70
     0
 62
     7
  6
Continuous
370
    -3
390
F
  0
LAYER
  5
7A
330
2
100
AcDbSymbolTableRecord
100
AcDbLayerTableRecord
  2
D-3
 70
     0
 62
     7
  6
Continuous
370
    -3
390
F
  0
LAYER
  5
7B
330
2
100
AcDbSymbolTableRecord
100
AcDbLayerTableRecord
  2
D-C
 70
     0
 62
     7
  6
Continuous
370
    -3
390
F
  0
LAYER
  5
7C
330
2
100
AcDbSymbolTableRecord
100
AcDbLayerTableRecord
  2
D-5
 70
     0
 62
     7
  6
Continuous
370
    -3
390
F
  0
LAYER
  5
7D
330
2
100
AcDbSymbolTableRecord
100
AcDbLayerTableRecord
  2
D-F
 70
     0
 62
     7
  6
Continuous
370
    -3
390
F
  0
LAYER
  5
7E
330
2
100
AcDbSymbolTableRecord
100
AcDbLayerTableRecord
  2
D-E
 70
     0
 62
     7
  6
Continuous
370
    -3
390
F
  0
LAYER
  5
7F
330
2
100
AcDbSymbolTableRecord
100
AcDbLayerTableRecord
  2
D-7
 70
     0
 62
     7
  6
Continuous
370
    -3
390
F
  0
LAYER
  5
80
330
2
100
AcDbSymbolTableRecord
100
AcDbLayerTableRecord
  2
D-6
 70
     0
 62
     7
  6
Continuous
370
    -3
390
F
  0
LAYER
  5
81
330
2
100
AcDbSymbolTableRecord
100
AcDbLayerTableRecord
  2
D-1
 70
     0
 62
     7
  6
Continuous
370
    -3
390
F
  0
LAYER
  5
82
330
2
100
AcDbSymbolTableRecord
100
AcDbLayerTableRecord
  2
D-4
 70
     0
 62
     7
  6
Continuous
370
    -3
390
F
  0
LAYER
  5
83
330
2
100
AcDbSymbolTableRecord
100
AcDbLayerTableRecord
  2
D-8
 70
     0
 62
     7
  6
Continuous
370
    -3
390
F
  0
LAYER
  5
84
330
2
100
AcDbSymbolTableRecord
100
AcDbLayerTableRecord
  2
0-E
 70
     0
 62
     7
  6
Continuous
370
    -3
390
F
  0
LAYER
  5
85
330
2
100
AcDbSymbolTableRecord
100
AcDbLayerTableRecord
  2
建具
 70
     0
 62
     7
  6
Continuous
370
    -3
390
F
  0
LAYER
  5
86
330
2
100
AcDbSymbolTableRecord
100
AcDbLayerTableRecord
  2
躯体
 70
     0
 62
     7
  6
Continuous
370
    -3
390
F
  0
ENDTAB
  0
TABLE
  2
STYLE
  5
3
330
0
100
AcDbSymbolTable
 70
     2
  0
STYLE
  5
11
330
3
100
AcDbSymbolTableRecord
100
AcDbTextStyleTableRecord
  2
Standard
 70
     0
 40
0.0
 41
1.0
 50
0.0
 71
     0
 42
2.5
  3
txt
  4

  0
STYLE
  5
6E
330
3
100
AcDbSymbolTableRecord
100
AcDbTextStyleTableRecord
  2
ＭＳ ゴシック
 70
     0
 40
1.0
 41
1.0
 50
0.0
 71
     0
 42
2.5
  3

  4

1001
ACAD
1000
MS Gothic
1071
    32817
  0
ENDTAB
  0
TABLE
  2
VIEW
  5
6
330
0
100
AcDbSymbolTable
 70
     0
  0
ENDTAB
  0
TABLE
  2
UCS
  5
7
330
0
100
AcDbSymbolTable
 70
     0
  0
ENDTAB
  0
TABLE
  2
APPID
  5
9
330
0
100
AcDbSymbolTable
 70
     2
  0
APPID
  5
12
330
9
100
AcDbSymbolTableRecord
100
AcDbRegAppTableRecord
  2
ACAD
 70
     0
  0
APPID
  5
464
330
9
100
AcDbSymbolTableRecord
100
AcDbRegAppTableRecord
  2
ACAD_MLEADERVER
 70
     0
  0
ENDTAB
  0
TABLE
  2
DIMSTYLE
  5
A
330
0
100
AcDbSymbolTable
 70
     1
100
AcDbDimStyleTable
  0
DIMSTYLE
105
27
330
A
100
AcDbSymbolTableRecord
100
AcDbDimStyleTableRecord
  2
ISO-25
 70
     0
 41
2.5
 42
0.625
 43
3.75
 44
1.25
 73
     0
 74
     0
 77
     1
 78
     8
140
2.5
141
2.5
143
0.03937007874016
147
0.625
171
     3
172
     1
178
     0
271
     2
272
     2
274
     3
278
    44
283
     0
284
     8
340
11
  0
ENDTAB
  0
TABLE
  2
BLOCK_RECORD
  5
1
330
0
100
AcDbSymbolTable
 70
     1
  0
BLOCK_RECORD
  5
1F
330
1
100
AcDbSymbolTableRecord
100
AcDbBlockTableRecord
  2
*Model_Space
340
22
  0
BLOCK_RECORD
  5
1B
330
1
100
AcDbSymbolTableRecord
100
AcDbBlockTableRecord
  2
*Paper_Space
340
1E
  0
BLOCK_RECORD
  5
23
330
1
100
AcDbSymbolTableRecord
100
AcDbBlockTableRecord
  2
*Paper_Space0
340
26
  0
ENDTAB
  0
ENDSEC
  0
SECTION
  2
BLOCKS
  0
BLOCK
  5
20
330
1F
100
AcDbEntity
  8
0
100
AcDbBlockBegin
  2
*Model_Space
 70
     0
 10
0.0
 20
0.0
 30
0.0
  3
*Model_Space
  1

  0
ENDBLK
  5
21
330
1F
100
AcDbEntity
  8
0
100
AcDbBlockEnd
  0
BLOCK
  5
1C
330
1B
100
AcDbEntity
 67
     1
  8
0
100
AcDbBlockBegin
  2
*Paper_Space
 70
     0
 10
0.0
 20
0.0
 30
0.0
  3
*Paper_Space
  1

  0
ENDBLK
  5
1D
330
1B
100
AcDbEntity
 67
     1
  8
0
100
AcDbBlockEnd
  0
BLOCK
  5
24
330
23
100
AcDbEntity
  8
0
100
AcDbBlockBegin
  2
*Paper_Space0
 70
     0
 10
0.0
 20
0.0
 30
0.0
  3
*Paper_Space0
  1

  0
ENDBLK
  5
25
330
23
100
AcDbEntity
  8
0
100
AcDbBlockEnd
  0
ENDSEC
  0
SECTION
  2
ENTITIES
  0
SOLID
  5
87
330
1F
100
AcDbEntity
  8
寸法
  6
Continuous
 62
     4
370
     9
100
AcDbTrace
 10
-340.6572202300026
 20
1170.979045700257
 30
0.0
 11
-340.6572202300026
 21
1210.979045700257
 31
0.0
 12
-344.6572202300035
 22
1170.979045700257
 32
0.0
 13
-344.6572202300035
 23
1210.979045700257
 33
0.0
  0
SOLID
  5
88
330
1F
100
AcDbEntity
  8
寸法
  6
Continuous
 62
     4
370
     9
100
AcDbTrace
 10
-340.6572202300021
 20
1546.103058164076
 30
0.0
 11
-340.6572202300021
 21
1506.103058164076
 31
0.0
 12
-344.657220230003
 22
1546.103058164076
 32
0.0
 13
-344.657220230003
 23
1506.103058164076
 33
0.0
  0
LINE
  5
89
330
1F
100
AcDbEntity
  8
0-F
  6
Continuous
 62
     4
370
     9
100
AcDbLine
 10
-1759.657220230004
 20
1270.286671822644
 30
0.0
 11
-1759.657220230004
 21
1240.286671822644
 31
0.0
  0
LINE
  5
8A
330
1F
100
AcDbEntity
  8
0-F
  6
Continuous
 62
     4
370
     9
100
AcDbLine
 10
-1744.657220230004
 20
1270.286671822644
 30
0.0
 11
-1744.657220230004
 21
1240.286671822644
 31
0.0
  0
LINE
  5
8B
330
1F
100
AcDbEntity
  8
0-F
  6
Continuous
 62
     4
370
     9
100
AcDbLine
 10
-1775.245675430199
 20
1270.286671822644
 30
0.0
 11
-1775.245675430199
 21
1240.286671822644
 31
0.0
  0
LINE
  5
8C
330
1F
100
AcDbEntity
  8
0-F
  6
Continuous
 62
     4
370
     9
100
AcDbLine
 10
-1775.245675430199
 20
1270.286671822644
 30
0.0
 11
-1729.068765029808
 21
1270.286671822644
 31
0.0
  0
LINE
  5
8D
330
1F
100
AcDbEntity
  8
0-F
  6
Continuous
 62
     4
370
     9
100
AcDbLine
 10
-1775.245675430199
 20
1240.286671822644
 30
0.0
 11
-1729.068765029808
 21
1240.286671822644
 31
0.0
  0
LINE
  5
8E
330
1F
100
AcDbEntity
  8
0-F
  6
Continuous
 62
     4
370
     9
100
AcDbLine
 10
-1729.068765029808
 20
1270.286671822644
 30
0.0
 11
-1729.068765029808
 21
1240.286671822644
 31
0.0
  0
LINE
  5
8F
330
1F
100
AcDbEntity
  8
0-F
  6
JWW_CENTER1
 62
     4
370
     9
100
AcDbLine
 10
-1781.566248662705
 20
1255.286671822644
 30
0.0
 11
-1722.748191797302
 21
1255.286671822644
 31
0.0
  0
LINE
  5
90
330
1F
100
AcDbEntity
  8
0-F
  6
JWW_CENTER1
 62
     4
370
     9
100
AcDbLine
 10
-1752.157220230004
 20
1277.404042428114
 30
0.0
 11
-1752.157220230004
 21
1234.16499823866
 31
0.0
  0
LINE
  5
91
330
1F
100
AcDbEntity
  8
0-F
  6
Continuous
 62
     2
370
     9
100
AcDbLine
 10
-1753.657200434811
 20
1366.688451409848
 30
0.0
 11
-1753.657200434811
 21
1343.884892235435
 31
0.0
  0
LINE
  5
92
330
1F
100
AcDbEntity
  8
0-F
  6
Continuous
 62
     2
370
     9
100
AcDbLine
 10
-1750.656992585366
 20
1366.688451409848
 30
0.0
 11
-1750.656992585366
 21
1343.884892235435
 31
0.0
  0
CIRCLE
  5
93
330
1F
100
AcDbEntity
  8
0-F
  6
Continuous
 62
     2
370
     9
100
AcDbCircle
 10
-1752.157220230004
 20
1355.286671822644
 30
0.0
 40
16.00000117276166
  0
CIRCLE
  5
94
330
1F
100
AcDbEntity
  8
0-F
  6
Continuous
 62
     2
370
     9
100
AcDbCircle
 10
-1752.157220230004
 20
1355.286671822644
 30
0.0
 40
11.50000063148705
  0
CIRCLE
  5
95
330
1F
100
AcDbEntity
  8
0-F
  6
Continuous
 62
     2
370
     9
100
AcDbCircle
 10
-1752.157220230004
 20
1355.286671822644
 30
0.0
 40
12.0000011212117
  0
LINE
  5
96
330
1F
100
AcDbEntity
  8
0-F
  6
JWW_CENTER1
 62
     2
370
     9
100
AcDbLine
 10
-1783.157223529199
 20
1355.286548102729
 30
0.0
 11
-1721.157216930808
 21
1355.286548102729
 31
0.0
  0
LINE
  5
97
330
1F
100
AcDbEntity
  8
0-F
  6
JWW_CENTER1
 62
     2
370
     9
100
AcDbLine
 10
-1752.157096510093
 20
1324.286668523448
 30
0.0
 11
-1752.157096510093
 21
1386.28667512184
 31
0.0
  0
LINE
  5
98
330
1F
100
AcDbEntity
  8
0-F
  6
Continuous
 62
     4
370
     9
100
AcDbLine
 10
-1759.657220230004
 20
148.2858239288522
 30
0.0
 11
-1759.657220230004
 21
178.2858239288528
 31
0.0
  0
LINE
  5
99
330
1F
100
AcDbEntity
  8
0-F
  6
Continuous
 62
     4
370
     9
100
AcDbLine
 10
-1744.657220230004
 20
148.2858239288522
 30
0.0
 11
-1744.657220230004
 21
178.2858239288528
 31
0.0
  0
LINE
  5
9A
330
1F
100
AcDbEntity
  8
0-F
  6
Continuous
 62
     4
370
     9
100
AcDbLine
 10
-1775.245675430199
 20
148.2858239288522
 30
0.0
 11
-1775.245675430199
 21
178.2858239288528
 31
0.0
  0
LINE
  5
9B
330
1F
100
AcDbEntity
  8
0-F
  6
Continuous
 62
     4
370
     9
100
AcDbLine
 10
-1775.245675430199
 20
148.2858239288522
 30
0.0
 11
-1729.068765029808
 21
148.2858239288522
 31
0.0
  0
LINE
  5
9C
330
1F
100
AcDbEntity
  8
0-F
  6
Continuous
 62
     4
370
     9
100
AcDbLine
 10
-1775.245675430199
 20
178.2858239288528
 30
0.0
 11
-1729.068765029808
 21
178.2858239288528
 31
0.0
  0
LINE
  5
9D
330
1F
100
AcDbEntity
  8
0-F
  6
Continuous
 62
     4
370
     9
100
AcDbLine
 10
-1729.068765029808
 20
148.2858239288522
 30
0.0
 11
-1729.068765029808
 21
178.2858239288528
 31
0.0
  0
LINE
  5
9E
330
1F
100
AcDbEntity
  8
0-F
  6
JWW_CENTER1
 62
     4
370
     9
100
AcDbLine
 10
-1781.566248662705
 20
163.2858239288527
 30
0.0
 11
-1722.748191797302
 21
163.2858239288527
 31
0.0
  0
LINE
  5
9F
330
1F
100
AcDbEntity
  8
0-F
  6
JWW_CENTER1
 62
     4
370
     9
100
AcDbLine
 10
-1752.157220230004
 20
141.1684533233825
 30
0.0
 11
-1752.157220230004
 21
184.407497512837
 31
0.0
  0
LINE
  5
A0
330
1F
100
AcDbEntity
  8
0-F
  6
Continuous
 62
     2
370
     9
100
AcDbLine
 10
-1753.657200434811
 20
51.88404434164788
 30
0.0
 11
-1753.657200434811
 21
74.68760351606072
 31
0.0
  0
LINE
  5
A1
330
1F
100
AcDbEntity
  8
0-F
  6
Continuous
 62
     2
370
     9
100
AcDbLine
 10
-1750.656992585366
 20
51.88404434164788
 30
0.0
 11
-1750.656992585366
 21
74.68760351606072
 31
0.0
  0
CIRCLE
  5
A2
330
1F
100
AcDbEntity
  8
0-F
  6
Continuous
 62
     2
370
     9
100
AcDbCircle
 10
-1752.157220230004
 20
63.28582392885203
 30
0.0
 40
16.00000117276166
  0
CIRCLE
  5
A3
330
1F
100
AcDbEntity
  8
0-F
  6
Continuous
 62
     2
370
     9
100
AcDbCircle
 10
-1752.157220230004
 20
63.28582392885203
 30
0.0
 40
11.50000063148704
  0
CIRCLE
  5
A4
330
1F
100
AcDbEntity
  8
0-F
  6
Continuous
 62
     2
370
     9
100
AcDbCircle
 10
-1752.157220230004
 20
63.28582392885203
 30
0.0
 40
12.00000112121169
  0
LINE
  5
A5
330
1F
100
AcDbEntity
  8
0-F
  6
JWW_CENTER1
 62
     2
370
     9
100
AcDbLine
 10
-1783.157223529199
 20
63.28594764876691
 30
0.0
 11
-1721.157216930808
 21
63.28594764876691
 31
0.0
  0
LINE
  5
A6
330
1F
100
AcDbEntity
  8
0-F
  6
JWW_CENTER1
 62
     2
370
     9
100
AcDbLine
 10
-1752.157096510093
 20
94.2858272280477
 30
0.0
 11
-1752.157096510093
 21
32.2858206296565
 31
0.0
  0
LINE
  5
A7
330
1F
100
AcDbEntity
  8
0-F
  6
Continuous
 62
     4
370
     9
100
AcDbLine
 10
-1519.657220230004
 20
1270.286671822644
 30
0.0
 11
-1519.657220230004
 21
1240.286671822644
 31
0.0
  0
LINE
  5
A8
330
1F
100
AcDbEntity
  8
0-F
  6
Continuous
 62
     4
370
     9
100
AcDbLine
 10
-1504.657220230004
 20
1270.286671822644
 30
0.0
 11
-1504.657220230004
 21
1240.286671822644
 31
0.0
  0
LINE
  5
A9
330
1F
100
AcDbEntity
  8
0-F
  6
Continuous
 62
     4
370
     9
100
AcDbLine
 10
-1535.245675430199
 20
1270.286671822644
 30
0.0
 11
-1535.245675430199
 21
1240.286671822644
 31
0.0
  0
LINE
  5
AA
330
1F
100
AcDbEntity
  8
0-F
  6
Continuous
 62
     4
370
     9
100
AcDbLine
 10
-1535.245675430199
 20
1270.286671822644
 30
0.0
 11
-1489.068765029808
 21
1270.286671822644
 31
0.0
  0
LINE
  5
AB
330
1F
100
AcDbEntity
  8
0-F
  6
Continuous
 62
     4
370
     9
100
AcDbLine
 10
-1535.245675430199
 20
1240.286671822644
 30
0.0
 11
-1489.068765029808
 21
1240.286671822644
 31
0.0
  0
LINE
  5
AC
330
1F
100
AcDbEntity
  8
0-F
  6
Continuous
 62
     4
370
     9
100
AcDbLine
 10
-1489.068765029808
 20
1270.286671822644
 30
0.0
 11
-1489.068765029808
 21
1240.286671822644
 31
0.0
  0
LINE
  5
AD
330
1F
100
AcDbEntity
  8
0-F
  6
JWW_CENTER1
 62
     4
370
     9
100
AcDbLine
 10
-1512.157220230004
 20
1277.404042428114
 30
0.0
 11
-1512.157220230004
 21
1234.16499823866
 31
0.0
  0
LINE
  5
AE
330
1F
100
AcDbEntity
  8
0-F
  6
Continuous
 62
     2
370
     9
100
AcDbLine
 10
-1513.657200434811
 20
1366.688451409848
 30
0.0
 11
-1513.657200434811
 21
1343.884892235435
 31
0.0
  0
LINE
  5
AF
330
1F
100
AcDbEntity
  8
0-F
  6
Continuous
 62
     2
370
     9
100
AcDbLine
 10
-1510.656992585366
 20
1366.688451409848
 30
0.0
 11
-1510.656992585366
 21
1343.884892235435
 31
0.0
  0
CIRCLE
  5
B0
330
1F
100
AcDbEntity
  8
0-F
  6
Continuous
 62
     2
370
     9
100
AcDbCircle
 10
-1512.157220230004
 20
1355.286671822644
 30
0.0
 40
16.00000117276166
  0
CIRCLE
  5
B1
330
1F
100
AcDbEntity
  8
0-F
  6
Continuous
 62
     2
370
     9
100
AcDbCircle
 10
-1512.157220230004
 20
1355.286671822644
 30
0.0
 40
11.50000063148705
  0
CIRCLE
  5
B2
330
1F
100
AcDbEntity
  8
0-F
  6
Continuous
 62
     2
370
     9
100
AcDbCircle
 10
-1512.157220230004
 20
1355.286671822644
 30
0.0
 40
12.0000011212117
  0
LINE
  5
B3
330
1F
100
AcDbEntity
  8
0-F
  6
JWW_CENTER1
 62
     2
370
     9
100
AcDbLine
 10
-1512.157096510093
 20
1324.286668523448
 30
0.0
 11
-1512.157096510093
 21
1386.28667512184
 31
0.0
  0
LINE
  5
B4
330
1F
100
AcDbEntity
  8
0-F
  6
JWW_CENTER1
 62
     2
370
     9
100
AcDbLine
 10
-1543.157223529199
 20
1355.286795542559
 30
0.0
 11
-1481.157216930808
 21
1355.286795542559
 31
0.0
  0
LINE
  5
B5
330
1F
100
AcDbEntity
  8
0-F
  6
JWW_CENTER1
 62
     4
370
     9
100
AcDbLine
 10
-1541.566248662705
 20
1255.286671822644
 30
0.0
 11
-1482.748191797302
 21
1255.286671822644
 31
0.0
  0
LINE
  5
B6
330
1F
100
AcDbEntity
  8
0-F
  6
Continuous
 62
     4
370
     9
100
AcDbLine
 10
-1519.657220230004
 20
148.2858239288522
 30
0.0
 11
-1519.657220230004
 21
178.2858239288528
 31
0.0
  0
LINE
  5
B7
330
1F
100
AcDbEntity
  8
0-F
  6
Continuous
 62
     4
370
     9
100
AcDbLine
 10
-1504.657220230004
 20
148.2858239288522
 30
0.0
 11
-1504.657220230004
 21
178.2858239288528
 31
0.0
  0
LINE
  5
B8
330
1F
100
AcDbEntity
  8
0-F
  6
Continuous
 62
     4
370
     9
100
AcDbLine
 10
-1535.245675430199
 20
148.2858239288522
 30
0.0
 11
-1535.245675430199
 21
178.2858239288528
 31
0.0
  0
LINE
  5
B9
330
1F
100
AcDbEntity
  8
0-F
  6
Continuous
 62
     4
370
     9
100
AcDbLine
 10
-1535.245675430199
 20
148.2858239288522
 30
0.0
 11
-1489.068765029808
 21
148.2858239288522
 31
0.0
  0
LINE
  5
BA
330
1F
100
AcDbEntity
  8
0-F
  6
Continuous
 62
     4
370
     9
100
AcDbLine
 10
-1535.245675430199
 20
178.2858239288528
 30
0.0
 11
-1489.068765029808
 21
178.2858239288528
 31
0.0
  0
LINE
  5
BB
330
1F
100
AcDbEntity
  8
0-F
  6
Continuous
 62
     4
370
     9
100
AcDbLine
 10
-1489.068765029808
 20
148.2858239288522
 30
0.0
 11
-1489.068765029808
 21
178.2858239288528
 31
0.0
  0
LINE
  5
BC
330
1F
100
AcDbEntity
  8
0-F
  6
JWW_CENTER1
 62
     4
370
     9
100
AcDbLine
 10
-1512.157220230004
 20
141.1684533233825
 30
0.0
 11
-1512.157220230004
 21
184.407497512837
 31
0.0
  0
LINE
  5
BD
330
1F
100
AcDbEntity
  8
0-F
  6
Continuous
 62
     2
370
     9
100
AcDbLine
 10
-1513.657200434811
 20
51.88404434164788
 30
0.0
 11
-1513.657200434811
 21
74.68760351606072
 31
0.0
  0
LINE
  5
BE
330
1F
100
AcDbEntity
  8
0-F
  6
Continuous
 62
     2
370
     9
100
AcDbLine
 10
-1510.656992585366
 20
51.88404434164788
 30
0.0
 11
-1510.656992585366
 21
74.68760351606072
 31
0.0
  0
CIRCLE
  5
BF
330
1F
100
AcDbEntity
  8
0-F
  6
Continuous
 62
     2
370
     9
100
AcDbCircle
 10
-1512.157220230004
 20
63.28582392885203
 30
0.0
 40
16.00000117276166
  0
CIRCLE
  5
C0
330
1F
100
AcDbEntity
  8
0-F
  6
Continuous
 62
     2
370
     9
100
AcDbCircle
 10
-1512.157220230004
 20
63.28582392885203
 30
0.0
 40
11.50000063148705
  0
CIRCLE
  5
C1
330
1F
100
AcDbEntity
  8
0-F
  6
Continuous
 62
     2
370
     9
100
AcDbCircle
 10
-1512.157220230004
 20
63.28582392885203
 30
0.0
 40
12.0000011212117
  0
LINE
  5
C2
330
1F
100
AcDbEntity
  8
0-F
  6
JWW_CENTER1
 62
     2
370
     9
100
AcDbLine
 10
-1512.157096510093
 20
94.2858272280477
 30
0.0
 11
-1512.157096510093
 21
32.2858206296565
 31
0.0
  0
LINE
  5
C3
330
1F
100
AcDbEntity
  8
0-F
  6
JWW_CENTER1
 62
     2
370
     9
100
AcDbLine
 10
-1543.157223529199
 20
63.28594764876691
 30
0.0
 11
-1481.157216930808
 21
63.28594764876691
 31
0.0
  0
LINE
  5
C4
330
1F
100
AcDbEntity
  8
0-F
  6
JWW_CENTER1
 62
     4
370
     9
100
AcDbLine
 10
-1541.566248662705
 20
163.2858239288528
 30
0.0
 11
-1482.748191797302
 21
163.2858239288528
 31
0.0
  0
TEXT
  5
C5
330
1F
100
AcDbEntity
  8
F-Fﾚｲﾔ
  6
Continuous
 62
     2
370
     9
100
AcDbText
 10
-2540.105761574603
 20
-863.5357349004513
 30
0.0
 40
30.48
  1
強度
 41
1.0625
  7
ＭＳ ゴシック
100
AcDbText
  0
TEXT
  5
C6
330
1F
100
AcDbEntity
  8
F-Fﾚｲﾔ
  6
Continuous
 62
     2
370
     9
100
AcDbText
 10
-2540.105761574603
 20
-763.6033922554767
 30
0.0
 40
30.48
  1
強度性能・質量
 41
1.107142857142857
  7
ＭＳ ゴシック
100
AcDbText
  0
TEXT
  5
C7
330
1F
100
AcDbEntity
  8
F-Fﾚｲﾔ
  6
Continuous
 62
     2
370
     9
100
AcDbText
 10
-2540.105761574603
 20
-953.5357349004513
 30
0.0
 40
30.48
  1
主な設置場所
 41
1.104166666666667
  7
ＭＳ ゴシック
100
AcDbText
  0
TEXT
  5
C8
330
1F
100
AcDbEntity
  8
F-Fﾚｲﾔ
  6
Continuous
 62
     2
370
     9
100
AcDbText
 10
-2540.105761574603
 20
-1136.035743245103
 30
0.0
 40
30.48
  1
後輪一輪荷重
 41
1.104166666666667
  7
ＭＳ ゴシック
100
AcDbText
  0
TEXT
  5
C9
330
1F
100
AcDbEntity
  8
F-Fﾚｲﾔ
  6
Continuous
 62
     2
370
     9
100
AcDbText
 10
-2540.105761574603
 20
-1316.036057957627
 30
0.0
 40
30.48
  1
荷重条件
 41
1.09375
  7
ＭＳ ゴシック
100
AcDbText
  0
TEXT
  5
CA
330
1F
100
AcDbEntity
  8
F-Fﾚｲﾔ
  6
Continuous
 62
     2
370
     9
100
AcDbText
 10
-2540.105761574603
 20
-1406.036344059922
 30
0.0
 40
30.48
  1
許容応力
 41
1.09375
  7
ＭＳ ゴシック
100
AcDbText
  0
TEXT
  5
CB
330
1F
100
AcDbEntity
  8
F-Fﾚｲﾔ
  6
Continuous
 62
     2
370
     9
100
AcDbText
 10
-2540.105761574603
 20
-1226.035514363267
 30
0.0
 40
30.48
  1
衝撃係数
 41
1.09375
  7
ＭＳ ゴシック
100
AcDbText
  0
TEXT
  5
CC
330
1F
100
AcDbEntity
  8
F-Fﾚｲﾔ
  6
Continuous
 62
     2
370
     9
100
AcDbText
 10
-2540.105761574603
 20
-1496.036630162217
 30
0.0
 40
30.48
  1
質量
 41
1.0625
  7
ＭＳ ゴシック
100
AcDbText
  0
TEXT
  5
CD
330
1F
100
AcDbEntity
  8
F-Fﾚｲﾔ
  6
Continuous
 62
     2
370
     9
100
AcDbText
 10
-2540.105761574603
 20
-1586.036916264512
 30
0.0
 40
30.48
  1
充填時の蓋質量
 41
1.107142857142857
  7
ＭＳ ゴシック
100
AcDbText
  0
TEXT
  5
CE
330
1F
100
AcDbEntity
  8
F-Fﾚｲﾔ
  6
Continuous
 62
     2
370
     9
100
AcDbText
 10
-2158.770859680577
 20
-1406.036601551987
 30
0.0
 40
30.48
  1
約235N/mm
 41
1.111111111111109
  7
ＭＳ ゴシック
100
AcDbText
  0
TEXT
  5
CF
330
1F
100
AcDbEntity
  8
F-Fﾚｲﾔ
  6
Continuous
 62
     2
370
     9
100
AcDbText
 10
-2158.770859680577
 20
-1226.035514363267
 30
0.0
 40
30.48
  1
0
 41
0.9999999999999998
  7
ＭＳ ゴシック
100
AcDbText
  0
TEXT
  5
D0
330
1F
100
AcDbEntity
  8
F-5ﾚｲﾔ
  6
Continuous
 62
     6
370
     9
100
AcDbText
 10
-1956.047549725833
 20
-1379.634547147684
 30
0.0
 40
15.24
  1
2
 41
0.9999999999999998
  7
ＭＳ ゴシック
100
AcDbText
  0
LINE
  5
D1
330
1F
100
AcDbEntity
  8
F-Fﾚｲﾔ
  6
Continuous
 62
     7
370
     9
100
AcDbLine
 10
-2570.105761574603
 20
-696.675464295364
 30
0.0
 11
-2570.105761574603
 21
-1616.677059315659
 31
0.0
  0
LINE
  5
D2
330
1F
100
AcDbEntity
  8
F-Fﾚｲﾔ
  6
Continuous
 62
     7
370
     9
100
AcDbLine
 10
-2570.105761574603
 20
-696.675464295364
 30
0.0
 11
-1050.105761574603
 21
-696.675464295364
 31
0.0
  0
LINE
  5
D3
330
1F
100
AcDbEntity
  8
F-Fﾚｲﾔ
  6
Continuous
 62
     7
370
     9
100
AcDbLine
 10
-1050.105761574603
 20
-1616.677059315659
 30
0.0
 11
-2570.105761574603
 21
-1616.677059315659
 31
0.0
  0
LINE
  5
D4
330
1F
100
AcDbEntity
  8
F-Fﾚｲﾔ
  6
Continuous
 62
     7
370
     9
100
AcDbLine
 10
-2570.105761574603
 20
-796.6755715837246
 30
0.0
 11
-1050.105761574603
 21
-796.6755715837246
 31
0.0
  0
LINE
  5
D5
330
1F
100
AcDbEntity
  8
F-Fﾚｲﾔ
  6
Continuous
 62
     7
370
     9
100
AcDbLine
 10
-2570.105761574603
 20
-806.6755715837246
 30
0.0
 11
-1050.105761574603
 21
-806.6755715837246
 31
0.0
  0
LINE
  5
D6
330
1F
100
AcDbEntity
  8
F-5ﾚｲﾔ
  6
Continuous
 62
     7
370
     9
100
AcDbLine
 10
-2570.105761574603
 20
-896.6758576860207
 30
0.0
 11
-1050.105761574603
 21
-896.6758576860207
 31
0.0
  0
LINE
  5
D7
330
1F
100
AcDbEntity
  8
F-Fﾚｲﾔ
  6
Continuous
 62
     7
370
     9
100
AcDbLine
 10
-2570.105761574603
 20
-896.6758576860207
 30
0.0
 11
-1050.105761574603
 21
-896.6758576860207
 31
0.0
  0
LINE
  5
D8
330
1F
100
AcDbEntity
  8
F-5ﾚｲﾔ
  6
Continuous
 62
     7
370
     9
100
AcDbLine
 10
-2570.105761574603
 20
-1076.675857686021
 30
0.0
 11
-1050.105761574603
 21
-1076.675857686021
 31
0.0
  0
LINE
  5
D9
330
1F
100
AcDbEntity
  8
F-Fﾚｲﾔ
  6
Continuous
 62
     7
370
     9
100
AcDbLine
 10
-2570.105761574603
 20
-1166.675628804185
 30
0.0
 11
-1050.105761574603
 21
-1166.675628804185
 31
0.0
  0
LINE
  5
DA
330
1F
100
AcDbEntity
  8
F-Fﾚｲﾔ
  6
Continuous
 62
     7
370
     9
100
AcDbLine
 10
-1050.105761574603
 20
-1346.676201008775
 30
0.0
 11
-2570.105761574603
 21
-1346.676201008775
 31
0.0
  0
LINE
  5
DB
330
1F
100
AcDbEntity
  8
F-Fﾚｲﾔ
  6
Continuous
 62
     7
370
     9
100
AcDbLine
 10
-1050.105761574603
 20
-1436.676487111069
 30
0.0
 11
-2570.105761574603
 21
-1436.676487111069
 31
0.0
  0
LINE
  5
DC
330
1F
100
AcDbEntity
  8
F-Fﾚｲﾔ
  6
Continuous
 62
     7
370
     9
100
AcDbLine
 10
-2570.105761574603
 20
-1256.675399922349
 30
0.0
 11
-1050.105761574603
 21
-1256.675399922349
 31
0.0
  0
LINE
  5
DD
330
1F
100
AcDbEntity
  8
F-Fﾚｲﾔ
  6
Continuous
 62
     7
370
     9
100
AcDbLine
 10
-1050.105761574603
 20
-1526.676773213364
 30
0.0
 11
-2570.105761574603
 21
-1526.676773213364
 31
0.0
  0
LINE
  5
DE
330
1F
100
AcDbEntity
  8
F-Fﾚｲﾔ
  6
Continuous
 62
     7
370
     9
100
AcDbLine
 10
-2570.105761574603
 20
-1076.675857686021
 30
0.0
 11
-1050.105761574603
 21
-1076.675857686021
 31
0.0
  0
TEXT
  5
DF
330
1F
100
AcDbEntity
  8
F-Fﾚｲﾔ
  6
Continuous
 62
     2
370
     9
100
AcDbText
 10
-2158.770859680577
 20
-947.1056071661161
 30
0.0
 40
30.48
  1
車道以外で、車両が走行することはまれで、走行する
 41
1.119791666666667
  7
ＭＳ ゴシック
100
AcDbText
  0
TEXT
  5
E0
330
1F
100
AcDbEntity
  8
F-Fﾚｲﾔ
  6
Continuous
 62
     2
370
     9
100
AcDbText
 10
-2158.770859680577
 20
-1001.589081513182
 30
0.0
 40
30.48
  1
ことがあっても一時的な通過などで低速で走行するよ
 41
1.119791666666667
  7
ＭＳ ゴシック
100
AcDbText
  0
TEXT
  5
E1
330
1F
100
AcDbEntity
  8
F-Fﾚｲﾔ
  6
Continuous
 62
     2
370
     9
100
AcDbText
 10
-2158.770859680577
 20
-1056.072555860248
 30
0.0
 40
30.48
  1
うな、車両が乗り入れる可能性のある建物内
 41
1.11875
  7
ＭＳ ゴシック
100
AcDbText
  0
LINE
  5
E2
330
1F
100
AcDbEntity
  8
F-5ﾚｲﾔ
  6
Continuous
 62
     7
370
     9
100
AcDbLine
 10
-1050.105761574603
 20
-696.675464295364
 30
0.0
 11
-1050.105761574603
 21
-1616.677059315659
 31
0.0
  0
LINE
  5
E3
330
1F
100
AcDbEntity
  8
F-Fﾚｲﾔ
  6
Continuous
 62
     7
370
     9
100
AcDbLine
 10
-2200.105761574603
 20
-796.6755715837246
 30
0.0
 11
-2200.105761574603
 21
-1616.677059315659
 31
0.0
  0
TEXT
  5
E4
330
1F
100
AcDbEntity
  8
F-Fﾚｲﾔ
  6
Continuous
 62
     2
370
     9
100
AcDbText
 10
-2158.770859680577
 20
-863.5357349004513
 30
0.0
 40
30.48
  1
T-2：総重量2,000kgfまでの車両の乗り入れが可能
 41
1.119444444444444
  7
ＭＳ ゴシック
100
AcDbText
  0
TEXT
  5
E5
330
1F
100
AcDbEntity
  8
F-Fﾚｲﾔ
  6
Continuous
 62
     2
370
     9
100
AcDbText
 10
-2158.770859680577
 20
-1136.035743245103
 30
0.0
 40
30.48
  1
7.8kN（800kgf）
 41
1.108333333333333
  7
ＭＳ ゴシック
100
AcDbText
  0
TEXT
  5
E6
330
1F
100
AcDbEntity
  8
F-Fﾚｲﾔ
  6
Continuous
 62
     2
370
     9
100
AcDbText
 10
-2158.770859680577
 20
-1316.036315449692
 30
0.0
 40
30.48
  1
載荷板寸法：200×160 mm
 41
1.119565217391304
  7
ＭＳ ゴシック
100
AcDbText
  0
ARC
  5
E7
330
1F
100
AcDbEntity
  8
D-9
  6
Continuous
 62
   211
370
     5
100
AcDbCircle
 10
1470.54204934258
 20
747.9125473381134
 30
0.0
 40
34.53062160595044
100
AcDbArc
 50
267.8605499267578
 51
302.8109436035156
  0
ARC
  5
E8
330
1F
100
AcDbEntity
  8
D-9
  6
Continuous
 62
   211
370
     5
100
AcDbCircle
 10
1587.964122294429
 20
747.9125473381134
 30
0.0
 40
34.53062160595044
100
AcDbArc
 50
237.1890563964843
 51
272.1394500732421
  0
ARC
  5
E9
330
1F
100
AcDbEntity
  8
D-9
  6
Continuous
 62
   211
370
     5
100
AcDbCircle
 10
1529.252590938863
 20
862.0035853976549
 30
0.0
 40
148.5985781695392
100
AcDbArc
 50
254.3844604492188
 51
285.6155395507812
  0
LINE
  5
EA
330
1F
100
AcDbEntity
  8
D-9
  6
Continuous
 62
   211
370
     5
100
AcDbLine
 10
1489.253943609888
 20
718.8908254208798
 30
0.0
 11
1489.253943609888
 21
763.4062392722342
 31
0.0
  0
LINE
  5
EB
330
1F
100
AcDbEntity
  8
D-9
  6
Continuous
 62
   211
370
     5
100
AcDbLine
 10
1569.253712666055
 20
718.8908254208798
 30
0.0
 11
1569.253712666055
 21
763.4062392722342
 31
0.0
  0
LINE
  5
EC
330
1F
100
AcDbEntity
  8
D-9
  6
Continuous
 62
   211
370
     5
100
AcDbLine
 10
1589.253283770372
 20
713.4050845530589
 30
0.0
 11
1469.502802087513
 21
713.4050845530589
 31
0.0
  0
LINE
  5
ED
330
1F
100
AcDbEntity
  8
D-9
  6
Continuous
 62
   211
370
     5
100
AcDbLine
 10
1598.753488320613
 20
763.4062392722342
 30
0.0
 11
1598.753488320613
 21
718.8908254208798
 31
0.0
  0
LINE
  5
EE
330
1F
100
AcDbEntity
  8
D-9
  6
Continuous
 62
   211
370
     5
100
AcDbLine
 10
1589.253283770372
 20
713.4050845530589
 30
0.0
 11
1598.753488320613
 21
718.8908254208798
 31
0.0
  0
LINE
  5
EF
330
1F
100
AcDbEntity
  8
D-9
  6
Continuous
 62
   211
370
     5
100
AcDbLine
 10
1459.752683316387
 20
763.4062392722342
 30
0.0
 11
1459.752683316387
 21
719.0343405180136
 31
0.0
  0
LINE
  5
F0
330
1F
100
AcDbEntity
  8
D-9
  6
Continuous
 62
   211
370
     5
100
AcDbLine
 10
1469.295942395779
 20
713.5258351865048
 30
0.0
 11
1459.752683316387
 21
719.0343405180136
 31
0.0
  0
ARC
  5
F1
330
1F
100
AcDbEntity
  8
D-2
  6
Continuous
 62
     3
370
     9
100
AcDbCircle
 10
1917.253531210197
 20
815.4062392722233
 30
0.0
 40
16.0
100
AcDbArc
 50
270.0
 51
0.0
  0
ARC
  5
F2
330
1F
100
AcDbEntity
  8
D-2
  6
Continuous
 62
     3
370
     9
100
AcDbCircle
 10
1917.253531210197
 20
815.4062392722233
 30
0.0
 40
32.00000000000001
100
AcDbArc
 50
270.0
 51
0.0
  0
LINE
  5
F3
330
1F
100
AcDbEntity
  8
D-2
  6
Continuous
 62
     3
370
     9
100
AcDbLine
 10
1949.253531210202
 20
984.4062392722287
 30
0.0
 11
1949.253531210202
 21
815.4062392722233
 31
0.0
  0
LINE
  5
F4
330
1F
100
AcDbEntity
  8
D-2
  6
Continuous
 62
     3
370
     9
100
AcDbLine
 10
1949.253531210202
 20
984.4062392722287
 30
0.0
 11
1933.253531210205
 21
984.4062392722287
 31
0.0
  0
LINE
  5
F5
330
1F
100
AcDbEntity
  8
D-2
  6
Continuous
 62
     3
370
     9
100
AcDbLine
 10
1933.253531210205
 20
815.4062392722233
 30
0.0
 11
1933.253531210205
 21
984.4062392722287
 31
0.0
  0
LINE
  5
F6
330
1F
100
AcDbEntity
  8
D-3
  6
Continuous
 62
     4
370
     9
100
AcDbLine
 10
1949.253531210202
 20
984.4062392722287
 30
0.0
 11
1949.253531210202
 21
924.4057938805406
 31
0.0
  0
ARC
  5
F7
330
1F
100
AcDbEntity
  8
D-3
  6
Continuous
 62
     4
370
     9
100
AcDbCircle
 10
1954.253333258334
 20
989.4060413203613
 30
0.0
 40
10.0
100
AcDbArc
 50
0.0
 51
90.0
  0
LINE
  5
F8
330
1F
100
AcDbEntity
  8
D-3
  6
Continuous
 62
     4
370
     9
100
AcDbLine
 10
1964.253333258325
 20
989.4060413203613
 30
0.0
 11
1964.253333258325
 21
924.4057938805406
 31
0.0
  0
LINE
  5
F9
330
1F
100
AcDbEntity
  8
D-3
  6
Continuous
 62
     4
370
     9
100
AcDbLine
 10
1954.253333258334
 20
999.4060413203977
 30
0.0
 11
1904.253630186117
 21
999.4060413203977
 31
0.0
  0
LINE
  5
FA
330
1F
100
AcDbEntity
  8
D-3
  6
Continuous
 62
     4
370
     9
100
AcDbLine
 10
1904.253630186117
 20
999.4060413203977
 30
0.0
 11
1904.253630186117
 21
984.4062392722287
 31
0.0
  0
LINE
  5
FB
330
1F
100
AcDbEntity
  8
D-3
  6
Continuous
 62
     4
370
     9
100
AcDbLine
 10
1949.253531210202
 20
924.4057938805406
 30
0.0
 11
1964.253333258325
 21
924.4057938805406
 31
0.0
  0
LINE
  5
FC
330
1F
100
AcDbEntity
  8
D-3
  6
Continuous
 62
     4
370
     9
100
AcDbLine
 10
1904.253630186117
 20
984.4062392722287
 30
0.0
 11
1949.253531210202
 21
984.4062392722287
 31
0.0
  0
LINE
  5
FD
330
1F
100
AcDbEntity
  8
D-3
  6
Continuous
 62
     4
370
     9
100
AcDbLine
 10
1904.253630186117
 20
999.4060413203977
 30
0.0
 11
864.253333258325
 21
999.4060413203977
 31
0.0
  0
LINE
  5
FE
330
1F
100
AcDbEntity
  8
D-C
  6
Continuous
 62
     2
370
     9
100
AcDbLine
 10
1586.753151802454
 20
999.4064042321213
 30
0.0
 11
1471.753019834555
 21
999.4064042321213
 31
0.0
  0
LINE
  5
FF
330
1F
100
AcDbEntity
  8
D-C
  6
Continuous
 62
     2
370
     9
100
AcDbLine
 10
1449.252821882705
 20
999.4068991117672
 30
0.0
 11
1469.252392889043
 21
999.4068991117672
 31
0.0
  0
LINE
  5
100
330
1F
100
AcDbEntity
  8
D-C
  6
Continuous
 62
     2
370
     9
100
AcDbLine
 10
1609.253844633972
 20
999.4068991117672
 30
0.0
 11
1589.253778747984
 21
999.4068991117672
 31
0.0
  0
LINE
  5
101
330
1F
100
AcDbEntity
  8
D-C
  6
Continuous
 62
     2
370
     9
100
AcDbLine
 10
1609.253844633972
 20
799.4062392722378
 30
0.0
 11
1609.253844633972
 21
999.4068991117672
 31
0.0
  0
LINE
  5
102
330
1F
100
AcDbEntity
  8
D-C
  6
Continuous
 62
     2
370
     9
100
AcDbLine
 10
1589.253778747984
 20
999.4068991117672
 30
0.0
 11
1586.753151802454
 21
996.9067671438586
 31
0.0
  0
LINE
  5
103
330
1F
100
AcDbEntity
  8
D-C
  6
Continuous
 62
     2
370
     9
100
AcDbLine
 10
1586.753151802454
 20
974.4060743123543
 30
0.0
 11
1586.753151802454
 21
999.4068991117672
 31
0.0
  0
LINE
  5
104
330
1F
100
AcDbEntity
  8
D-C
  6
Continuous
 62
     2
370
     9
100
AcDbLine
 10
1471.753019834555
 20
974.4060743123543
 30
0.0
 11
1471.753019834555
 21
999.4068991117672
 31
0.0
  0
LINE
  5
105
330
1F
100
AcDbEntity
  8
D-C
  6
Continuous
 62
     2
370
     9
100
AcDbLine
 10
1471.753019834555
 20
996.9067671438586
 30
0.0
 11
1469.252392889043
 21
999.4068991117672
 31
0.0
  0
LINE
  5
106
330
1F
100
AcDbEntity
  8
D-C
  6
Continuous
 62
     2
370
     9
100
AcDbLine
 10
1449.252821882705
 20
799.4062392722378
 30
0.0
 11
1449.252821882705
 21
999.4068991117672
 31
0.0
  0
LINE
  5
107
330
1F
100
AcDbEntity
  8
D-C
  6
Continuous
 62
     2
370
     9
100
AcDbLine
 10
1582.718398054581
 20
974.4060743123543
 30
0.0
 11
1572.718859942247
 21
984.4066021839751
 31
0.0
  0
LINE
  5
108
330
1F
100
AcDbEntity
  8
D-C
  6
Continuous
 62
     2
370
     9
100
AcDbLine
 10
1489.253943609888
 20
983.0179698993504
 30
0.0
 11
1487.865311325263
 21
984.4066021839751
 31
0.0
  0
LINE
  5
109
330
1F
100
AcDbEntity
  8
D-C
  6
Continuous
 62
     2
370
     9
100
AcDbLine
 10
1476.65232832272
 20
974.4060743123543
 30
0.0
 11
1471.753019834555
 21
979.3048879208834
 31
0.0
  0
LINE
  5
10A
330
1F
100
AcDbEntity
  8
D-C
  6
Continuous
 62
     2
370
     9
100
AcDbLine
 10
1586.753151802454
 20
980.9775811219004
 30
0.0
 11
1583.324130740389
 21
984.4066021839751
 31
0.0
  0
LINE
  5
10B
330
1F
100
AcDbEntity
  8
D-C
  6
Continuous
 62
     2
370
     9
100
AcDbLine
 10
1572.111147737846
 20
974.4060743123543
 30
0.0
 11
1569.253712666055
 21
977.264004263792
 31
0.0
  0
LINE
  5
10C
330
1F
100
AcDbEntity
  8
D-C
  6
Continuous
 62
     2
370
     9
100
AcDbLine
 10
1487.258588880154
 20
974.4060743123543
 30
0.0
 11
1477.258555888179
 21
984.4066021839751
 31
0.0
  0
LINE
  5
10D
330
1F
100
AcDbEntity
  8
D-C
  6
Continuous
 62
     2
370
     9
100
AcDbLine
 10
1489.253943609888
 20
974.4060743123543
 30
0.0
 11
1471.753019834555
 21
974.4060743123543
 31
0.0
  0
LINE
  5
10E
330
1F
100
AcDbEntity
  8
D-C
  6
Continuous
 62
     2
370
     9
100
AcDbLine
 10
1586.753151802454
 20
974.4060743123543
 30
0.0
 11
1569.253712666055
 21
974.4060743123543
 31
0.0
  0
LINE
  5
10F
330
1F
100
AcDbEntity
  8
D-C
  6
Continuous
 62
     2
370
     9
100
AcDbLine
 10
1564.252953850596
 20
934.4059423444503
 30
0.0
 11
1494.253712666054
 21
934.4059423444503
 31
0.0
  0
LINE
  5
110
330
1F
100
AcDbEntity
  8
D-C
  6
Continuous
 62
     2
370
     9
100
AcDbLine
 10
1494.253712666054
 20
934.4059423444503
 30
0.0
 11
1489.253943609888
 21
939.4067011599088
 31
0.0
  0
LINE
  5
111
330
1F
100
AcDbEntity
  8
D-C
  6
Continuous
 62
     2
370
     9
100
AcDbLine
 10
1569.253712666055
 20
939.6778952055172
 30
0.0
 11
1564.252953850596
 21
934.4059423444503
 31
0.0
  0
LINE
  5
112
330
1F
100
AcDbEntity
  8
D-C
  6
Continuous
 62
     2
370
     9
100
AcDbLine
 10
1569.253712666055
 20
939.4067011599088
 30
0.0
 11
1489.253943609888
 21
939.4067011599088
 31
0.0
  0
LINE
  5
113
330
1F
100
AcDbEntity
  8
D-C
  6
Continuous
 62
     2
370
     9
100
AcDbLine
 10
1569.253712666055
 20
958.184414420042
 30
0.0
 11
1569.253712666055
 21
984.4066021839751
 31
0.0
  0
LINE
  5
114
330
1F
100
AcDbEntity
  8
D-C
  6
Continuous
 62
     2
370
     9
100
AcDbLine
 10
1586.753151802454
 20
984.4066021839751
 30
0.0
 11
1471.753019834555
 21
984.4066021839751
 31
0.0
  0
LINE
  5
115
330
1F
100
AcDbEntity
  8
D-C
  6
Continuous
 62
     2
370
     9
100
AcDbLine
 10
1494.253712666054
 20
874.4060413203522
 30
0.0
 11
1489.253943609888
 21
869.4057773845395
 31
0.0
  0
LINE
  5
116
330
1F
100
AcDbEntity
  8
D-C
  6
Continuous
 62
     2
370
     9
100
AcDbLine
 10
1569.253712666055
 20
869.4057773845395
 30
0.0
 11
1564.252953850596
 21
874.4060413203522
 31
0.0
  0
LINE
  5
117
330
1F
100
AcDbEntity
  8
D-C
  6
Continuous
 62
     2
370
     9
100
AcDbLine
 10
1569.253712666055
 20
869.4057773845395
 30
0.0
 11
1489.253943609888
 21
869.4057773845395
 31
0.0
  0
LINE
  5
118
330
1F
100
AcDbEntity
  8
D-C
  6
Continuous
 62
     2
370
     9
100
AcDbLine
 10
1564.252953850596
 20
874.4060413203522
 30
0.0
 11
1494.253712666054
 21
874.4060413203522
 31
0.0
  0
LINE
  5
119
330
1F
100
AcDbEntity
  8
D-C
  6
Continuous
 62
     2
370
     9
100
AcDbLine
 10
1449.252821882705
 20
799.4062392722378
 30
0.0
 11
1494.253712666054
 21
799.4062392722378
 31
0.0
  0
LINE
  5
11A
330
1F
100
AcDbEntity
  8
D-C
  6
Continuous
 62
     2
370
     9
100
AcDbLine
 10
1609.253844633972
 20
799.4062392722378
 30
0.0
 11
1564.252953850596
 21
799.4062392722378
 31
0.0
  0
LINE
  5
11B
330
1F
100
AcDbEntity
  8
D-3
  6
Continuous
 62
     4
370
     9
100
AcDbLine
 10
954.253333258325
 20
849.4060413203522
 30
0.0
 11
954.253333258325
 21
799.4062392722378
 31
0.0
  0
LINE
  5
11C
330
1F
100
AcDbEntity
  8
D-3
  6
Continuous
 62
     4
370
     9
100
AcDbLine
 10
1104.253333258325
 20
849.4060413203522
 30
0.0
 11
954.253333258325
 21
849.4060413203522
 31
0.0
  0
LINE
  5
11D
330
1F
100
AcDbEntity
  8
D-3
  6
Continuous
 62
     4
370
     9
100
AcDbLine
 10
1104.253333258325
 20
849.4060413203522
 30
0.0
 11
1104.253333258325
 21
799.4062392722378
 31
0.0
  0
LINE
  5
11E
330
1F
100
AcDbEntity
  8
D-3
  6
Continuous
 62
     4
370
     9
100
AcDbLine
 10
1104.253333258325
 20
799.4062392722378
 30
0.0
 11
954.253333258325
 21
799.4062392722378
 31
0.0
  0
LINE
  5
11F
330
1F
100
AcDbEntity
  8
D-3
  6
Continuous
 62
     4
370
     9
100
AcDbLine
 10
1104.253333258325
 20
804.4062392722378
 30
0.0
 11
954.253333258325
 21
804.4062392722378
 31
0.0
  0
LINE
  5
120
330
1F
100
AcDbEntity
  8
D-3
  6
JWW_DASHED1
 62
     4
370
     9
100
AcDbLine
 10
1104.253333258325
 20
845.0759143014318
 30
0.0
 11
954.253333258325
 21
845.0759143014318
 31
0.0
  0
TEXT
  5
121
330
1F
100
AcDbEntity
  8
D-5
  6
Continuous
 62
     7
370
     9
100
AcDbText
 10
1087.010171164409
 20
1068.193738508981
 30
0.0
 40
22.86
  1
（ＳＵＳ３０４）
 41
1.145833333333336
  7
ＭＳ ゴシック
100
AcDbText
  0
TEXT
  5
122
330
1F
100
AcDbEntity
  8
D-5
  6
Continuous
 62
     7
370
     9
100
AcDbText
 10
1107.453912022623
 20
1111.270537231532
 30
0.0
 40
22.86
  1
把手
 41
1.083333333333333
  7
ＭＳ ゴシック
100
AcDbText
  0
LINE
  5
123
330
1F
100
AcDbEntity
  8
D-5
  6
Continuous
 62
     7
370
     9
100
AcDbLine
 10
1365.205567793949
 20
1097.201835003914
 30
0.0
 11
1091.950843342935
 21
1097.201835003914
 31
0.0
  0
LINE
  5
124
330
1F
100
AcDbEntity
  8
D-5
  6
Continuous
 62
     7
370
     9
100
AcDbLine
 10
1449.252821882705
 20
922.5607929706698
 30
0.0
 11
1432.82628181725
 21
947.6638104168271
 31
0.0
  0
LINE
  5
125
330
1F
100
AcDbEntity
  8
D-5
  6
Continuous
 62
     7
370
     9
100
AcDbLine
 10
1449.252821882705
 20
922.5607929706698
 30
0.0
 11
1439.883018118981
 21
951.0601694223167
 31
0.0
  0
LINE
  5
126
330
1F
100
AcDbEntity
  8
D-5
  6
Continuous
 62
     7
370
     9
100
AcDbLine
 10
1365.205567793949
 20
1097.201835003914
 30
0.0
 11
1449.252821882705
 21
922.5607929706698
 31
0.0
  0
LINE
  5
127
330
1F
100
AcDbEntity
  8
D-5
  6
Continuous
 62
     7
370
     9
100
AcDbLine
 10
1089.516886142302
 20
849.4060413203522
 30
0.0
 11
1073.090346076847
 21
874.5090587665095
 31
0.0
  0
LINE
  5
128
330
1F
100
AcDbEntity
  8
D-5
  6
Continuous
 62
     7
370
     9
100
AcDbLine
 10
1089.516886142302
 20
849.4060413203522
 30
0.0
 11
1080.147082378578
 21
877.905417771999
 31
0.0
  0
TEXT
  5
129
330
1F
100
AcDbEntity
  8
D-F
  6
Continuous
 62
     2
370
     9
100
AcDbText
 10
1485.503366250294
 20
1136.618744852099
 30
0.0
 40
30.48
  1
φ32
 41
1.09375
  7
ＭＳ ゴシック
100
AcDbText
  0
LINE
  5
12A
330
1F
100
AcDbEntity
  8
D-F
  6
Continuous
 62
     7
370
     9
100
AcDbLine
 10
1609.253877625928
 20
1124.978824032842
 30
0.0
 11
1449.252854874661
 21
1124.978824032842
 31
0.0
  0
LINE
  5
12B
330
1F
100
AcDbEntity
  8
D-F
  6
Continuous
 62
     7
370
     9
100
AcDbLine
 10
1609.253877625928
 20
1014.406087509113
 30
0.0
 11
1609.253877625928
 21
1129.97884052883
 31
0.0
  0
LINE
  5
12C
330
1F
100
AcDbEntity
  8
D-F
  6
Continuous
 62
     7
370
     9
100
AcDbLine
 10
1449.252854874661
 20
1014.406087509113
 30
0.0
 11
1449.252854874661
 21
1129.97884052883
 31
0.0
  0
LWPOLYLINE
  5
12D
330
1F
100
AcDbEntity
  8
D-F
  6
Continuous
 62
     7
370
     9
100
AcDbPolyline
 90
        4
 70
     1
 43
2.0
 10
1610.253877625928
 20
1124.978824032842
 42
0.4142135623731
 10
1609.253877625928
 20
1125.978824032842
 42
0.4142135623731
 10
1608.253877625928
 20
1124.978824032842
 42
0.4142135623731
 10
1609.253877625928
 20
1123.978824032842
 42
0.4142135623731
  0
LWPOLYLINE
  5
12E
330
1F
100
AcDbEntity
  8
D-F
  6
Continuous
 62
     7
370
     9
100
AcDbPolyline
 90
        4
 70
     1
 43
2.0
 10
1450.252854874661
 20
1124.978824032842
 42
0.4142135623731
 10
1449.252854874661
 20
1125.978824032842
 42
0.4142135623731
 10
1448.252854874661
 20
1124.978824032842
 42
0.4142135623731
 10
1449.252854874661
 20
1123.978824032842
 42
0.4142135623731
  0
LINE
  5
12F
330
1F
100
AcDbEntity
  8
D-5
  6
Continuous
 62
     7
370
     9
100
AcDbLine
 10
551.329671503306
 20
1097.201835003914
 30
0.0
 11
970.2633831204706
 21
1097.201835003914
 31
0.0
  0
LINE
  5
130
330
1F
100
AcDbEntity
  8
D-5
  6
Continuous
 62
     7
370
     9
100
AcDbLine
 10
970.2633831204706
 20
1097.201835003914
 30
0.0
 11
1089.516886142302
 21
849.4060413203522
 31
0.0
  0
LINE
  5
131
330
1F
100
AcDbEntity
  8
D-C
  6
Continuous
 62
   211
370
     5
100
AcDbLine
 10
1459.252590938881
 20
783.4062392722296
 30
0.0
 11
1599.2525909389
 21
783.4062392722296
 31
0.0
  0
LINE
  5
132
330
1F
100
AcDbEntity
  8
D-C
  6
Continuous
 62
   211
370
     5
100
AcDbLine
 10
1459.252590938881
 20
783.4062392722296
 30
0.0
 11
1459.252590938881
 21
763.4062392722342
 31
0.0
  0
LINE
  5
133
330
1F
100
AcDbEntity
  8
D-C
  6
Continuous
 62
   211
370
     5
100
AcDbLine
 10
1459.252590938881
 20
763.4062392722342
 30
0.0
 11
1599.2525909389
 21
763.4062392722342
 31
0.0
  0
LINE
  5
134
330
1F
100
AcDbEntity
  8
D-C
  6
Continuous
 62
   211
370
     5
100
AcDbLine
 10
1599.2525909389
 20
783.4062392722296
 30
0.0
 11
1599.2525909389
 21
763.4062392722342
 31
0.0
  0
LINE
  5
135
330
1F
100
AcDbEntity
  8
D-C
  6
JWW_HOJO
 62
   211
370
     5
100
AcDbLine
 10
1488.752590938888
 20
783.4062392722296
 30
0.0
 11
1488.752590938888
 21
763.4062392722342
 31
0.0
  0
LINE
  5
136
330
1F
100
AcDbEntity
  8
D-C
  6
JWW_HOJO
 62
   211
370
     5
100
AcDbLine
 10
1569.752590938892
 20
783.4062392722296
 30
0.0
 11
1569.752590938892
 21
763.4062392722342
 31
0.0
  0
LINE
  5
137
330
1F
100
AcDbEntity
  8
D-C
  6
Continuous
 62
     2
370
     9
100
AcDbLine
 10
1494.253712666054
 20
783.4064372241244
 30
0.0
 11
1494.253712666054
 21
984.4066021839751
 31
0.0
  0
LINE
  5
138
330
1F
100
AcDbEntity
  8
D-C
  6
Continuous
 62
     2
370
     9
100
AcDbLine
 10
1489.253943609888
 20
783.4064372241244
 30
0.0
 11
1489.253943609888
 21
984.4066021839751
 31
0.0
  0
LINE
  5
139
330
1F
100
AcDbEntity
  8
D-C
  6
Continuous
 62
     2
370
     9
100
AcDbLine
 10
1569.253712666055
 20
783.4064372241244
 30
0.0
 11
1569.253712666055
 21
958.184414420042
 31
0.0
  0
LINE
  5
13A
330
1F
100
AcDbEntity
  8
D-C
  6
Continuous
 62
     2
370
     9
100
AcDbLine
 10
1564.252953850596
 20
783.4064372241244
 30
0.0
 11
1564.252953850596
 21
984.4066021839751
 31
0.0
  0
LINE
  5
13B
330
1F
100
AcDbEntity
  8
D-2
  6
Continuous
 62
     3
370
     9
100
AcDbLine
 10
1484.252590938863
 20
799.4062392722378
 30
0.0
 11
1484.252590938863
 21
783.4064372241244
 31
0.0
  0
LINE
  5
13C
330
1F
100
AcDbEntity
  8
D-2
  6
Continuous
 62
     3
370
     9
100
AcDbLine
 10
1574.252590938872
 20
799.4062392722378
 30
0.0
 11
1574.252590938872
 21
783.4064372241244
 31
0.0
  0
LINE
  5
13D
330
1F
100
AcDbEntity
  8
D-C
  6
JWW_CENTER1
 62
     2
370
     9
100
AcDbLine
 10
1529.253333258325
 20
1027.082145936832
 30
0.0
 11
1529.253333258325
 21
687.7752440740858
 31
0.0
  0
LINE
  5
13E
330
1F
100
AcDbEntity
  8
D-2
  6
Continuous
 62
     3
370
     9
100
AcDbLine
 10
1917.253531210197
 20
799.4062392722378
 30
0.0
 11
1569.253712666055
 21
799.4062392722378
 31
0.0
  0
LINE
  5
13F
330
1F
100
AcDbEntity
  8
D-5
  6
Continuous
 62
     7
370
     9
100
AcDbLine
 10
1529.253333258325
 20
713.4050845530589
 30
0.0
 11
1521.735688270718
 21
689.5621607843532
 31
0.0
  0
LINE
  5
140
330
1F
100
AcDbEntity
  8
D-5
  6
Continuous
 62
     7
370
     9
100
AcDbLine
 10
1529.253333258325
 20
713.4050845530589
 30
0.0
 11
1515.820843049654
 21
692.3202984077369
 31
0.0
  0
LINE
  5
141
330
1F
100
AcDbEntity
  8
D-3
  6
Continuous
 62
     4
370
     9
100
AcDbLine
 10
2029.253283770354
 20
999.4060413203977
 30
0.0
 11
2029.253283770354
 21
984.4062392722515
 31
0.0
  0
LINE
  5
142
330
1F
100
AcDbEntity
  8
D-3
  6
Continuous
 62
     4
370
     9
100
AcDbLine
 10
2029.253283770354
 20
984.4062392722515
 30
0.0
 11
1984.253135306458
 21
984.4062392722515
 31
0.0
  0
LINE
  5
143
330
1F
100
AcDbEntity
  8
D-3
  6
Continuous
 62
     4
370
     9
100
AcDbLine
 10
1984.253135306458
 20
924.4057938805634
 30
0.0
 11
1984.253135306458
 21
984.4062392722515
 31
0.0
  0
LINE
  5
144
330
1F
100
AcDbEntity
  8
D-3
  6
Continuous
 62
     4
370
     9
100
AcDbLine
 10
1984.253135306458
 20
924.4057938805634
 30
0.0
 11
1969.253333258325
 21
924.4057938805634
 31
0.0
  0
LINE
  5
145
330
1F
100
AcDbEntity
  8
D-3
  6
Continuous
 62
     4
370
     9
100
AcDbLine
 10
1979.253333258325
 20
999.4060413203977
 30
0.0
 11
2029.253283770354
 21
999.4060413203977
 31
0.0
  0
LINE
  5
146
330
1F
100
AcDbEntity
  8
D-3
  6
Continuous
 62
     4
370
     9
100
AcDbLine
 10
1969.253333258325
 20
989.4060413203977
 30
0.0
 11
1969.253333258325
 21
924.4057938805634
 31
0.0
  0
ARC
  5
147
330
1F
100
AcDbEntity
  8
D-3
  6
Continuous
 62
     4
370
     9
100
AcDbCircle
 10
1979.253333258325
 20
989.4060413203977
 30
0.0
 40
10.0
100
AcDbArc
 50
90.0
 51
180.0
  0
LINE
  5
148
330
1F
100
AcDbEntity
  8
D-F
  6
Continuous
 62
     7
370
     9
100
AcDbLine
 10
2044.253626886909
 20
999.4060413203977
 30
0.0
 11
2302.943634316032
 21
999.4060413203977
 31
0.0
  0
LWPOLYLINE
  5
149
330
1F
100
AcDbEntity
  8
D-F
  6
Continuous
 62
     7
370
     9
100
AcDbPolyline
 90
        4
 70
     1
 43
2.0
 10
2298.943617820043
 20
999.4060413203977
 42
0.4142135623731
 10
2297.943617820043
 20
1000.406041320398
 42
0.4142135623731
 10
2296.943617820044
 20
999.4060413203977
 42
0.4142135623731
 10
2297.943617820043
 20
998.4060413203977
 42
0.4142135623731
  0
TEXT
  5
14A
330
1F
100
AcDbEntity
  8
D-5
  6
Continuous
 62
     7
370
     9
100
AcDbText
 10
2190.701858310731
 20
1178.200131533617
 30
0.0
 40
22.86
  1
（ＳＵＳ３０４）
 41
1.145833333333333
  7
ＭＳ ゴシック
100
AcDbText
  0
TEXT
  5
14B
330
1F
100
AcDbEntity
  8
D-5
  6
Continuous
 62
     7
370
     9
100
AcDbText
 10
2196.45058598641
 20
1262.367722875149
 30
0.0
 40
22.86
  1
ステンレス目地
 41
1.142857142857143
  7
ＭＳ ゴシック
100
AcDbText
  0
TEXT
  5
14C
330
1F
100
AcDbEntity
  8
D-5
  6
Continuous
 62
     7
370
     9
100
AcDbText
 10
2196.45058598641
 20
1221.041614984842
 30
0.0
 40
22.86
  1
Ｌ１２×１５×３
 41
1.145833333333333
  7
ＭＳ ゴシック
100
AcDbText
  0
LINE
  5
14D
330
1F
100
AcDbEntity
  8
D-5
  6
Continuous
 62
     7
370
     9
100
AcDbLine
 10
2473.571155414962
 20
1208.817824074791
 30
0.0
 11
2192.117432709331
 21
1208.817824074791
 31
0.0
  0
LINE
  5
14E
330
1F
100
AcDbEntity
  8
D-5
  6
Continuous
 62
     7
370
     9
100
AcDbLine
 10
2515.339521603011
 20
1096.309787709803
 30
0.0
 11
2213.77594936378
 21
1096.309787709803
 31
0.0
  0
TEXT
  5
14F
330
1F
100
AcDbEntity
  8
D-5
  6
Continuous
 62
     7
370
     9
100
AcDbText
 10
2222.108260067023
 20
1064.695160123232
 30
0.0
 40
22.86
  1
（ＳＰＨＣ）
 41
1.138888888888889
  7
ＭＳ ゴシック
100
AcDbText
  0
LINE
  5
150
330
1F
100
AcDbEntity
  8
D-5
  6
Continuous
 62
     7
370
     9
100
AcDbLine
 10
2213.77594936378
 20
1096.309787709803
 30
0.0
 11
2000.253135306461
 21
878.9739868081364
 31
0.0
  0
LINE
  5
151
330
1F
100
AcDbEntity
  8
D-5
  6
Continuous
 62
     7
370
     9
100
AcDbLine
 10
2000.253135306461
 20
878.9739868081364
 30
0.0
 11
2023.891061562795
 21
897.4468542067848
 31
0.0
  0
LINE
  5
152
330
1F
100
AcDbEntity
  8
D-5
  6
Continuous
 62
     7
370
     9
100
AcDbLine
 10
2000.253135306461
 20
878.9739868081364
 30
0.0
 11
2018.304612687162
 21
902.9351931927437
 31
0.0
  0
TEXT
  5
153
330
1F
100
AcDbEntity
  8
D-F
  6
Continuous
 62
     2
370
     9
100
AcDbText
 10
1858.280787531439
 20
1136.618744852109
 30
0.0
 40
30.48
  1
12
 41
1.0625
  7
ＭＳ ゴシック
100
AcDbText
  0
TEXT
  5
154
330
1F
100
AcDbEntity
  8
D-F
  6
Continuous
 62
     2
370
     9
100
AcDbText
 10
1956.75295385059
 20
1136.618744852109
 30
0.0
 40
30.48
  1
1
 41
0.9999999999999998
  7
ＭＳ ゴシック
100
AcDbText
  0
TEXT
  5
155
330
1F
100
AcDbEntity
  8
D-F
  6
Continuous
 62
     2
370
     9
100
AcDbText
 10
2035.898535895037
 20
1136.618744852109
 30
0.0
 40
30.48
  1
12
 41
1.0625
  7
ＭＳ ゴシック
100
AcDbText
  0
LINE
  5
156
330
1F
100
AcDbEntity
  8
D-F
  6
Continuous
 62
     7
370
     9
100
AcDbLine
 10
2078.496777752617
 20
1124.978824032852
 30
0.0
 11
1969.253333258318
 21
1124.978824032852
 31
0.0
  0
LINE
  5
157
330
1F
100
AcDbEntity
  8
D-F
  6
Continuous
 62
     7
370
     9
100
AcDbLine
 10
1969.253333258318
 20
1014.406087509123
 30
0.0
 11
1969.253333258318
 21
1129.97884052884
 31
0.0
  0
LINE
  5
158
330
1F
100
AcDbEntity
  8
D-F
  6
Continuous
 62
     7
370
     9
100
AcDbLine
 10
1969.253333258318
 20
1124.978824032852
 30
0.0
 11
1964.252574442862
 21
1124.978824032852
 31
0.0
  0
LINE
  5
159
330
1F
100
AcDbEntity
  8
D-F
  6
Continuous
 62
     7
370
     9
100
AcDbLine
 10
1964.252574442862
 20
1014.406087509123
 30
0.0
 11
1964.252574442862
 21
1129.97884052884
 31
0.0
  0
LINE
  5
15A
330
1F
100
AcDbEntity
  8
D-F
  6
Continuous
 62
     7
370
     9
100
AcDbLine
 10
1964.252574442862
 20
1124.978824032852
 30
0.0
 11
1849.643149954898
 21
1124.978824032852
 31
0.0
  0
LINE
  5
15B
330
1F
100
AcDbEntity
  8
D-F
  6
Continuous
 62
     7
370
     9
100
AcDbLine
 10
1904.252871370649
 20
1014.406087509123
 30
0.0
 11
1904.252871370649
 21
1129.97884052884
 31
0.0
  0
LWPOLYLINE
  5
15C
330
1F
100
AcDbEntity
  8
D-F
  6
Continuous
 62
     7
370
     9
100
AcDbPolyline
 90
        4
 70
     1
 43
2.0
 10
2030.253283770353
 20
1124.978824032852
 42
0.4142135623731
 10
2029.253283770353
 20
1125.978824032852
 42
0.4142135623731
 10
2028.253283770353
 20
1124.978824032852
 42
0.4142135623731
 10
2029.253283770353
 20
1123.978824032852
 42
0.4142135623731
  0
LWPOLYLINE
  5
15D
330
1F
100
AcDbEntity
  8
D-F
  6
Continuous
 62
     7
370
     9
100
AcDbPolyline
 90
        4
 70
     1
 43
2.0
 10
1970.253333258318
 20
1124.978824032852
 42
0.4142135623731
 10
1969.253333258318
 20
1125.978824032852
 42
0.4142135623731
 10
1968.253333258318
 20
1124.978824032852
 42
0.4142135623731
 10
1969.253333258318
 20
1123.978824032852
 42
0.4142135623731
  0
LWPOLYLINE
  5
15E
330
1F
100
AcDbEntity
  8
D-F
  6
Continuous
 62
     7
370
     9
100
AcDbPolyline
 90
        4
 70
     1
 43
2.0
 10
1965.252574442862
 20
1124.978824032852
 42
0.4142135623731
 10
1964.252574442862
 20
1125.978824032852
 42
0.4142135623731
 10
1963.252574442862
 20
1124.978824032852
 42
0.4142135623731
 10
1964.252574442862
 20
1123.978824032852
 42
0.4142135623731
  0
LWPOLYLINE
  5
15F
330
1F
100
AcDbEntity
  8
D-F
  6
Continuous
 62
     7
370
     9
100
AcDbPolyline
 90
        4
 70
     1
 43
2.0
 10
1905.252871370649
 20
1124.978824032852
 42
0.4142135623731
 10
1904.252871370649
 20
1125.978824032852
 42
0.4142135623731
 10
1903.252871370649
 20
1124.978824032852
 42
0.4142135623731
 10
1904.252871370649
 20
1123.978824032852
 42
0.4142135623731
  0
LINE
  5
160
330
1F
100
AcDbEntity
  8
D-F
  6
Continuous
 62
     7
370
     9
100
AcDbLine
 10
2029.253283770354
 20
1014.406087509124
 30
0.0
 11
2029.253283770354
 21
1364.430584486842
 31
0.0
  0
LWPOLYLINE
  5
161
330
1F
100
AcDbEntity
  8
D-F
  6
Continuous
 62
     7
370
     9
100
AcDbPolyline
 90
        4
 70
     1
 43
2.0
 10
2030.253283770354
 20
1359.430567990853
 42
0.4142135623731
 10
2029.253283770354
 20
1360.430567990853
 42
0.4142135623731
 10
2028.253283770354
 20
1359.430567990853
 42
0.4142135623731
 10
2029.253283770354
 20
1358.430567990854
 42
0.4142135623731
  0
LINE
  5
162
330
1F
100
AcDbEntity
  8
D-F
  6
Continuous
 62
     7
370
     9
100
AcDbLine
 10
2029.253283770354
 20
1359.430567990853
 30
0.0
 11
864.253333258325
 21
1359.430567990853
 31
0.0
  0
LINE
  5
163
330
1F
100
AcDbEntity
  8
D-F
  6
Continuous
 62
     7
370
     9
100
AcDbLine
 10
2029.253531210177
 20
1251.609620313398
 30
0.0
 11
1529.252871370649
 21
1251.609620313398
 31
0.0
  0
LINE
  5
164
330
1F
100
AcDbEntity
  8
D-F
  6
Continuous
 62
     7
370
     9
100
AcDbLine
 10
2029.253531210177
 20
1251.430426063173
 30
0.0
 11
2029.253531210177
 21
1246.609603817409
 31
0.0
  0
LWPOLYLINE
  5
165
330
1F
100
AcDbEntity
  8
D-F
  6
Continuous
 62
     7
370
     9
100
AcDbPolyline
 90
        4
 70
     1
 43
2.0
 10
2030.253531210177
 20
1251.609620313398
 42
0.4142135623731
 10
2029.253531210177
 20
1252.609620313398
 42
0.4142135623731
 10
2028.253531210177
 20
1251.609620313398
 42
0.4142135623731
 10
2029.253531210177
 20
1250.609620313398
 42
0.4142135623731
  0
LWPOLYLINE
  5
166
330
1F
100
AcDbEntity
  8
D-F
  6
Continuous
 62
     7
370
     9
100
AcDbPolyline
 90
        4
 70
     1
 43
2.0
 10
1530.252871370649
 20
1251.609620313398
 42
0.4142135623731
 10
1529.252871370649
 20
1252.609620313398
 42
0.4142135623731
 10
1528.252871370649
 20
1251.609620313398
 42
0.4142135623731
 10
1529.252871370649
 20
1250.609620313398
 42
0.4142135623731
  0
TEXT
  5
167
330
1F
100
AcDbEntity
  8
D-F
  6
Continuous
 62
     2
370
     9
100
AcDbText
 10
1746.753201290413
 20
1263.249541132654
 30
0.0
 40
30.48
  1
100
 41
1.083333333333333
  7
ＭＳ ゴシック
100
AcDbText
  0
LINE
  5
168
330
1F
100
AcDbEntity
  8
D-F
  6
Continuous
 62
     7
370
     9
100
AcDbLine
 10
1529.252871370649
 20
1191.6937474253
 30
0.0
 11
1529.252871370649
 21
1256.609636809386
 31
0.0
  0
LINE
  5
169
330
1F
100
AcDbEntity
  8
D-5
  6
Continuous
 62
     7
370
     9
100
AcDbLine
 10
2192.117432709331
 20
1208.817824074791
 30
0.0
 11
1945.464208248754
 21
999.4060380211592
 31
0.0
  0
LINE
  5
16A
330
1F
100
AcDbEntity
  8
D-5
  6
Continuous
 62
     7
370
     9
100
AcDbLine
 10
2192.117432709331
 20
1208.817824074791
 30
0.0
 11
1986.379612849771
 21
999.4060380211592
 31
0.0
  0
LINE
  5
16B
330
1F
100
AcDbEntity
  8
D-5
  6
Continuous
 62
     7
370
     9
100
AcDbLine
 10
1986.379612849771
 20
999.4060380211592
 30
0.0
 11
2001.422469427051
 21
1019.373689388347
 31
0.0
  0
LINE
  5
16C
330
1F
100
AcDbEntity
  8
D-5
  6
Continuous
 62
     7
370
     9
100
AcDbLine
 10
1986.379612849771
 20
999.4060380211592
 30
0.0
 11
2006.078049689932
 21
1014.800011706759
 31
0.0
  0
LINE
  5
16D
330
1F
100
AcDbEntity
  8
D-5
  6
Continuous
 62
     7
370
     9
100
AcDbLine
 10
1945.464208248754
 20
999.4060380211592
 30
0.0
 11
1962.247061658805
 21
1017.935321699369
 31
0.0
  0
LINE
  5
16E
330
1F
100
AcDbEntity
  8
D-5
  6
Continuous
 62
     7
370
     9
100
AcDbLine
 10
1945.464208248754
 20
999.4060380211592
 30
0.0
 11
1966.470859431187
 21
1012.960296625467
 31
0.0
  0
LINE
  5
16F
330
1F
100
AcDbEntity
  8
D-5
  6
Continuous
 62
     7
370
     9
100
AcDbLine
 10
1260.885121554074
 20
783.4062392722296
 30
0.0
 11
1247.452631345403
 21
762.3214531269076
 31
0.0
  0
LINE
  5
170
330
1F
100
AcDbEntity
  8
D-5
  6
Continuous
 62
     7
370
     9
100
AcDbLine
 10
1260.885121554074
 20
783.4062392722296
 30
0.0
 11
1253.367476566467
 21
759.5633155035239
 31
0.0
  0
TEXT
  5
171
330
1F
100
AcDbEntity
  8
D-5
  6
Continuous
 62
     7
370
     9
100
AcDbText
 10
2235.721593433141
 20
1112.859321599161
 30
0.0
 40
22.86
  1
受枠：ｔ＝３．２
 41
1.145833333333333
  7
ＭＳ ゴシック
100
AcDbText
  0
TEXT
  5
172
330
1F
100
AcDbEntity
  8
D-5
  6
Continuous
 62
     7
370
     9
100
AcDbText
 10
550.9316052551798
 20
1110.436062236245
 30
0.0
 40
22.86
  1
モルタル止め：ｔ＝１．０
 41
1.152777777777778
  7
ＭＳ ゴシック
100
AcDbText
  0
TEXT
  5
173
330
1F
100
AcDbEntity
  8
D-5
  6
Continuous
 62
     7
370
     9
100
AcDbText
 10
537.3711119665653
 20
1065.526832100618
 30
0.0
 40
22.86
  1
（ＳＵＳ３０４）
 41
1.145833333333333
  7
ＭＳ ゴシック
100
AcDbText
  0
ARC
  5
174
330
1F
100
AcDbEntity
  8
D-E
  6
Continuous
 62
     3
370
     9
100
AcDbCircle
 10
2047.753044707383
 20
799.905947422123
 30
0.0
 40
22.5
100
AcDbArc
 50
180.0
 51
270.0
  0
LINE
  5
175
330
1F
100
AcDbEntity
  8
D-E
  6
Continuous
 62
     3
370
     9
100
AcDbLine
 10
2200.253059012516
 20
752.4060380211739
 30
0.0
 11
2000.253135306461
 21
752.4060380211739
 31
0.0
  0
LINE
  5
176
330
1F
100
AcDbEntity
  8
D-E
  6
Continuous
 62
     3
370
     9
100
AcDbLine
 10
2047.753044707383
 20
777.4059974900155
 30
0.0
 11
2185.253001792057
 21
777.4059974900155
 31
0.0
  0
ARC
  5
177
330
1F
100
AcDbEntity
  8
D-E
  6
Continuous
 62
     3
370
     9
100
AcDbCircle
 10
2185.253001792057
 20
762.405947422123
 30
0.0
 40
15.00000000000001
100
AcDbArc
 50
0.0
 51
90.0
  0
LINE
  5
178
330
1F
100
AcDbEntity
  8
D-E
  6
Continuous
 62
     3
370
     9
100
AcDbLine
 10
2200.253059012516
 20
762.405947422123
 30
0.0
 11
2200.253059012516
 21
752.4060380211739
 31
0.0
  0
LINE
  5
179
330
1F
100
AcDbEntity
  8
D-E
  6
Continuous
 62
     3
370
     9
100
AcDbLine
 10
2010.253044707383
 20
952.4059617272286
 30
0.0
 11
2000.253135306461
 21
952.4059617272286
 31
0.0
  0
LINE
  5
17A
330
1F
100
AcDbEntity
  8
D-E
  6
Continuous
 62
     3
370
     9
100
AcDbLine
 10
2025.253094775303
 20
799.905947422123
 30
0.0
 11
2025.253094775303
 21
937.4059045067696
 31
0.0
  0
ARC
  5
17B
330
1F
100
AcDbEntity
  8
D-E
  6
Continuous
 62
     3
370
     9
100
AcDbCircle
 10
2010.253044707383
 20
937.4059045067696
 30
0.0
 40
15.00000000000001
100
AcDbArc
 50
0.0
 51
90.0
  0
LINE
  5
17C
330
1F
100
AcDbEntity
  8
D-E
  6
Continuous
 62
     3
370
     9
100
AcDbLine
 10
2000.253135306461
 20
752.4060380211739
 30
0.0
 11
2000.253135306461
 21
952.4059617272286
 31
0.0
  0
LINE
  5
17D
330
1F
100
AcDbEntity
  8
D-E
  6
JWW_DASHED1
 62
     3
370
     9
100
AcDbLine
 10
2160.253059012516
 20
777.4059974900155
 30
0.0
 11
2160.253059012516
 21
752.4060380211739
 31
0.0
  0
LINE
  5
17E
330
1F
100
AcDbEntity
  8
D-E
  6
JWW_DASHED1
 62
     3
370
     9
100
AcDbLine
 10
2090.253059012534
 20
777.4059974900155
 30
0.0
 11
2090.253059012534
 21
752.4060380211739
 31
0.0
  0
LINE
  5
17F
330
1F
100
AcDbEntity
  8
D-7
  6
JWW_CENTER1
 62
     4
370
     9
100
AcDbLine
 10
2125.253059012516
 20
793.4527776489358
 30
0.0
 11
2125.253059012516
 21
734.985273724289
 31
0.0
  0
TEXT
  5
180
330
1F
100
AcDbEntity
  8
D-5
  6
Continuous
 62
     7
370
     9
100
AcDbText
 10
2182.779348392233
 20
687.6479959459681
 30
0.0
 40
22.86
  1
Φ１４
 41
1.111111111111111
  7
ＭＳ ゴシック
100
AcDbText
  0
LINE
  5
181
330
1F
100
AcDbEntity
  8
D-5
  6
Continuous
 62
     7
370
     9
100
AcDbLine
 10
2125.253059012516
 20
752.4060380211739
 30
0.0
 11
2136.470001052212
 21
724.5819248454978
 31
0.0
  0
LINE
  5
182
330
1F
100
AcDbEntity
  8
D-5
  6
Continuous
 62
     7
370
     9
100
AcDbLine
 10
2125.253059012516
 20
752.4060380211739
 30
0.0
 11
2143.289195124213
 21
728.4330782449911
 31
0.0
  0
LINE
  5
183
330
1F
100
AcDbEntity
  8
D-5
  6
Continuous
 62
     7
370
     9
100
AcDbLine
 10
2167.581754827566
 20
677.4566323298183
 30
0.0
 11
2125.253059012516
 21
752.4060380211739
 31
0.0
  0
LINE
  5
184
330
1F
100
AcDbEntity
  8
D-5
  6
Continuous
 62
     7
370
     9
100
AcDbLine
 10
2167.581754827566
 20
677.4566323298183
 30
0.0
 11
2283.726240472966
 21
677.4566323298183
 31
0.0
  0
LINE
  5
185
330
1F
100
AcDbEntity
  8
D-6
  6
Continuous
 62
     6
370
     9
100
AcDbLine
 10
1913.14066235989
 20
768.4062392722296
 30
0.0
 11
1924.252937354612
 21
779.5182668271286
 31
0.0
  0
LINE
  5
186
330
1F
100
AcDbEntity
  8
D-6
  6
Continuous
 62
     6
370
     9
100
AcDbLine
 10
1898.998981616647
 20
768.4062392722296
 30
0.0
 11
1913.998834647159
 21
783.4062392722296
 31
0.0
  0
LINE
  5
187
330
1F
100
AcDbEntity
  8
D-6
  6
Continuous
 62
     6
370
     9
100
AcDbLine
 10
1884.856558553936
 20
768.4062392722296
 30
0.0
 11
1899.856805994984
 21
783.4062392722296
 31
0.0
  0
LINE
  5
188
330
1F
100
AcDbEntity
  8
D-6
  6
Continuous
 62
     6
370
     9
100
AcDbLine
 10
1870.714382931048
 20
768.4062392722296
 30
0.0
 11
1885.714259210525
 21
783.4062392722296
 31
0.0
  0
LINE
  5
189
330
1F
100
AcDbEntity
  8
D-6
  6
Continuous
 62
     6
370
     9
100
AcDbLine
 10
1856.571959868337
 20
768.4062392722296
 30
0.0
 11
1871.572331029907
 21
783.4062392722296
 31
0.0
  0
LINE
  5
18A
330
1F
100
AcDbEntity
  8
D-6
  6
Continuous
 62
     6
370
     9
100
AcDbLine
 10
1842.430031685271
 20
768.4062392722296
 30
0.0
 11
1857.430031685271
 21
783.4062392722296
 31
0.0
  0
LINE
  5
18B
330
1F
100
AcDbEntity
  8
D-6
  6
Continuous
 62
     6
370
     9
100
AcDbLine
 10
1828.287856062382
 20
768.4062392722296
 30
0.0
 11
1843.288227223953
 21
783.4062392722296
 31
0.0
  0
LINE
  5
18C
330
1F
100
AcDbEntity
  8
D-6
  6
Continuous
 62
     6
370
     9
100
AcDbLine
 10
1814.145680439494
 20
768.4062392722296
 30
0.0
 11
1829.145804160017
 21
783.4062392722296
 31
0.0
  0
LINE
  5
18D
330
1F
100
AcDbEntity
  8
D-6
  6
Continuous
 62
     6
370
     9
100
AcDbLine
 10
1800.004247136073
 20
768.4062392722296
 30
0.0
 11
1815.004370856597
 21
783.4062392722296
 31
0.0
  0
LINE
  5
18E
330
1F
100
AcDbEntity
  8
D-6
  6
Continuous
 62
     6
370
     9
100
AcDbLine
 10
1799.253514714198
 20
781.7970638736864
 30
0.0
 11
1800.862654152711
 21
783.4062392722296
 31
0.0
  0
LINE
  5
18F
330
1F
100
AcDbEntity
  8
D-6
  6
Continuous
 62
     6
370
     9
100
AcDbLine
 10
1924.25268991479
 20
783.4062392722296
 30
0.0
 11
1924.25268991479
 21
768.4062392722296
 31
0.0
  0
LINE
  5
190
330
1F
100
AcDbEntity
  8
D-6
  6
Continuous
 62
     6
370
     9
100
AcDbLine
 10
1799.253267274376
 20
783.4062392722296
 30
0.0
 11
1924.25268991479
 21
783.4062392722296
 31
0.0
  0
LINE
  5
191
330
1F
100
AcDbEntity
  8
D-6
  6
Continuous
 62
     6
370
     9
100
AcDbLine
 10
1799.253267274376
 20
783.4062392722296
 30
0.0
 11
1799.253267274376
 21
768.4062392722296
 31
0.0
  0
LINE
  5
192
330
1F
100
AcDbEntity
  8
D-5
  6
Continuous
 62
     7
370
     9
100
AcDbLine
 10
2027.534212079062
 20
752.4060380211739
 30
0.0
 11
2045.570348190759
 21
728.4330782449911
 31
0.0
  0
LINE
  5
193
330
1F
100
AcDbEntity
  8
D-5
  6
Continuous
 62
     7
370
     9
100
AcDbLine
 10
2027.534212079062
 20
752.4060380211739
 30
0.0
 11
2038.751154118758
 21
724.5819248454978
 31
0.0
  0
LINE
  5
194
330
1F
100
AcDbEntity
  8
D-5
  6
Continuous
 62
     7
370
     9
100
AcDbLine
 10
2118.845847415493
 20
590.7248742292568
 30
0.0
 11
2027.534212079062
 21
752.4060380211739
 31
0.0
  0
TEXT
  5
195
330
1F
100
AcDbEntity
  8
D-5
  6
Continuous
 62
     7
370
     9
100
AcDbText
 10
2122.626728025448
 20
560.678149078813
 30
0.0
 40
22.86
  1
（ＳＳ４００）
 41
1.142857142857143
  7
ＭＳ ゴシック
100
AcDbText
  0
LINE
  5
196
330
1F
100
AcDbEntity
  8
D-5
  6
Continuous
 62
     7
370
     9
100
AcDbLine
 10
2118.845847415493
 20
590.7248742292568
 30
0.0
 11
2572.626728025448
 21
590.7248742292568
 31
0.0
  0
TEXT
  5
197
330
1F
100
AcDbEntity
  8
D-F
  6
Continuous
 62
     2
370
   211
100
AcDbText
 10
2141.503059012516
 20
880.5357917531891
 30
0.0
 40
30.48
  1
15
 41
1.0625
  7
ＭＳ ゴシック
100
AcDbText
  0
LWPOLYLINE
  5
198
330
1F
100
AcDbEntity
  8
D-F
  6
Continuous
 62
     7
370
     9
100
AcDbPolyline
 90
        4
 70
     1
 43
2.0
 10
2298.943617820043
 20
752.4055760046298
 42
0.4142135623731
 10
2297.943617820043
 20
753.4055760046297
 42
0.4142135623731
 10
2296.943617820044
 20
752.4055760046298
 42
0.4142135623731
 10
2297.943617820043
 20
751.4055760046299
 42
0.4142135623731
  0
LINE
  5
199
330
1F
100
AcDbEntity
  8
D-F
  6
Continuous
 62
     7
370
     9
100
AcDbLine
 10
2125.253059012516
 20
868.8957917531889
 30
0.0
 11
2200.253059012516
 21
868.8957917531889
 31
0.0
  0
LWPOLYLINE
  5
19A
330
1F
100
AcDbEntity
  8
D-F
  6
Continuous
 62
     7
370
     9
100
AcDbPolyline
 90
        4
 70
     1
 43
2.0
 10
2126.253059012516
 20
868.8957917531889
 42
0.4142135623731
 10
2125.253059012516
 20
869.8957917531889
 42
0.4142135623731
 10
2124.253059012516
 20
868.8957917531889
 42
0.4142135623731
 10
2125.253059012516
 20
867.8957917531889
 42
0.4142135623731
  0
LWPOLYLINE
  5
19B
330
1F
100
AcDbEntity
  8
D-F
  6
Continuous
 62
     7
370
     9
100
AcDbPolyline
 90
        4
 70
     1
 43
2.0
 10
2201.253059012516
 20
868.8957917531889
 42
0.4142135623731
 10
2200.253059012516
 20
869.8957917531889
 42
0.4142135623731
 10
2199.253059012516
 20
868.8957917531889
 42
0.4142135623731
 10
2200.253059012516
 20
867.8957917531889
 42
0.4142135623731
  0
LINE
  5
19C
330
1F
100
AcDbEntity
  8
D-F
  6
Continuous
 62
     7
370
     9
100
AcDbLine
 10
2125.253059012516
 20
871.895791753189
 30
0.0
 11
2125.253059012516
 21
813.4527776489313
 31
0.0
  0
LINE
  5
19D
330
1F
100
AcDbEntity
  8
D-F
  6
Continuous
 62
     7
370
     9
100
AcDbLine
 10
2200.253059012516
 20
871.895791753189
 30
0.0
 11
2200.253059012516
 21
772.4060380211739
 31
0.0
  0
LINE
  5
19E
330
1F
100
AcDbEntity
  8
D-F
  6
Continuous
 62
     7
370
     9
100
AcDbLine
 10
2302.943634316032
 20
752.4055760046298
 30
0.0
 11
2206.269552471744
 21
752.4055760046298
 31
0.0
  0
ARC
  5
19F
330
1F
100
AcDbEntity
  8
D-1
  6
Continuous
 62
     2
370
     9
100
AcDbCircle
 10
1961.753135306458
 20
790.9060380211685
 30
0.0
 40
22.5
100
AcDbArc
 50
270.0
 51
0.0
  0
LINE
  5
1A0
330
1F
100
AcDbEntity
  8
D-1
  6
Continuous
 62
     2
370
     9
100
AcDbLine
 10
1799.253267274376
 20
768.4060380211776
 30
0.0
 11
1961.753135306458
 21
768.4060380211776
 31
0.0
  0
ARC
  5
1A1
330
1F
100
AcDbEntity
  8
D-1
  6
Continuous
 62
     2
370
     9
100
AcDbCircle
 10
1961.753135306458
 20
790.9060380211685
 30
0.0
 40
38.5
100
AcDbArc
 50
270.0
 51
0.0
  0
LINE
  5
1A2
330
1F
100
AcDbEntity
  8
D-1
  6
Continuous
 62
     2
370
     9
100
AcDbLine
 10
1799.253267274376
 20
768.4060380211776
 30
0.0
 11
1799.253267274376
 21
752.4060380211739
 31
0.0
  0
LINE
  5
1A3
330
1F
100
AcDbEntity
  8
D-1
  6
Continuous
 62
     2
370
     9
100
AcDbLine
 10
1799.253267274376
 20
752.4060380211739
 30
0.0
 11
1961.753135306458
 21
752.4060380211739
 31
0.0
  0
LINE
  5
1A4
330
1F
100
AcDbEntity
  8
D-1
  6
Continuous
 62
     2
370
     9
100
AcDbLine
 10
1984.253135306458
 20
790.9060380211685
 30
0.0
 11
1984.253135306458
 21
984.4062392722515
 31
0.0
  0
LINE
  5
1A5
330
1F
100
AcDbEntity
  8
D-1
  6
Continuous
 62
     2
370
     9
100
AcDbLine
 10
2000.253135306461
 20
790.9060380211685
 30
0.0
 11
2000.253135306461
 21
984.4062392722515
 31
0.0
  0
TEXT
  5
1A6
330
1F
100
AcDbEntity
  8
D-5
  6
Continuous
 62
     7
370
     9
100
AcDbText
 10
2122.626728025448
 20
600.9162378454066
 30
0.0
 40
22.86
  1
アンカー：Ｌ４０×４０×５
 41
1.153846153846154
  7
ＭＳ ゴシック
100
AcDbText
  0
TEXT
  5
1A7
330
1F
100
AcDbEntity
  8
D-F
  6
Continuous
 62
     2
370
   211
100
AcDbText
 10
795.843914558876
 20
817.1561402963096
 30
0.0
 40
30.48
  1
10
 50
90.0
 41
1.0625
  7
ＭＳ ゴシック
100
AcDbText
  0
TEXT
  5
1A8
330
1F
100
AcDbEntity
  8
D-F
  6
Continuous
 62
     2
370
   211
100
AcDbText
 10
795.843914558876
 20
917.1561402963096
 30
0.0
 40
30.48
  1
30
 50
90.0
 41
1.0625
  7
ＭＳ ゴシック
100
AcDbText
  0
LWPOLYLINE
  5
1A9
330
1F
100
AcDbEntity
  8
D-F
  6
Continuous
 62
     7
370
     9
100
AcDbPolyline
 90
        4
 70
     1
 43
2.0
 10
807.483914558876
 20
799.4062392722424
 42
0.4142135623731
 10
806.483914558876
 20
800.4062392722424
 42
0.4142135623731
 10
805.4839145588761
 20
799.4062392722424
 42
0.4142135623731
 10
806.483914558876
 20
798.4062392722424
 42
0.4142135623731
  0
LWPOLYLINE
  5
1AA
330
1F
100
AcDbEntity
  8
D-F
  6
Continuous
 62
     7
370
     9
100
AcDbPolyline
 90
        4
 70
     1
 43
2.0
 10
807.483914558876
 20
999.4060413204022
 42
0.4142135623731
 10
806.483914558876
 20
1000.406041320402
 42
0.4142135623731
 10
805.4839145588761
 20
999.4060413204022
 42
0.4142135623731
 10
806.483914558876
 20
998.4060413204022
 42
0.4142135623731
  0
LWPOLYLINE
  5
1AB
330
1F
100
AcDbEntity
  8
D-F
  6
Continuous
 62
     7
370
     9
100
AcDbPolyline
 90
        4
 70
     1
 43
2.0
 10
807.483914558876
 20
849.4060413203573
 42
0.4142135623731
 10
806.483914558876
 20
850.4060413203572
 42
0.4142135623731
 10
805.4839145588761
 20
849.4060413203573
 42
0.4142135623731
 10
806.483914558876
 20
848.4060413203574
 42
0.4142135623731
  0
LINE
  5
1AC
330
1F
100
AcDbEntity
  8
D-F
  6
Continuous
 62
     7
370
     9
100
AcDbLine
 10
803.483914558876
 20
849.4060413203573
 30
0.0
 11
934.253333258325
 21
849.4060413203573
 31
0.0
  0
LINE
  5
1AD
330
1F
100
AcDbEntity
  8
D-F
  6
Continuous
 62
     7
370
     9
100
AcDbLine
 10
806.483914558876
 20
799.4062392722424
 30
0.0
 11
806.483914558876
 21
849.4060413203573
 31
0.0
  0
LINE
  5
1AE
330
1F
100
AcDbEntity
  8
D-F
  6
Continuous
 62
     7
370
     9
100
AcDbLine
 10
806.483914558876
 20
849.4060413203573
 30
0.0
 11
806.483914558876
 21
999.4060413204022
 31
0.0
  0
LWPOLYLINE
  5
1AF
330
1F
100
AcDbEntity
  8
D-F
  6
Continuous
 62
     7
370
     9
100
AcDbPolyline
 90
        4
 70
     1
 43
2.0
 10
716.8642276986265
 20
783.4062392722342
 42
0.4142135623731
 10
715.8642276986266
 20
784.4062392722342
 42
0.4142135623731
 10
714.8642276986266
 20
783.4062392722342
 42
0.4142135623731
 10
715.8642276986266
 20
782.4062392722342
 42
0.4142135623731
  0
LWPOLYLINE
  5
1B0
330
1F
100
AcDbEntity
  8
D-F
  6
Continuous
 62
     7
370
     9
100
AcDbPolyline
 90
        4
 70
     1
 43
2.0
 10
716.8642276986265
 20
799.4062392722424
 42
0.4142135623731
 10
715.8642276986266
 20
800.4062392722424
 42
0.4142135623731
 10
714.8642276986266
 20
799.4062392722424
 42
0.4142135623731
 10
715.8642276986266
 20
798.4062392722424
 42
0.4142135623731
  0
LINE
  5
1B1
330
1F
100
AcDbEntity
  8
D-F
  6
Continuous
 62
     7
370
     9
100
AcDbLine
 10
712.864227698627
 20
799.4062392722424
 30
0.0
 11
844.253333258325
 21
799.4062392722424
 31
0.0
  0
LWPOLYLINE
  5
1B2
330
1F
100
AcDbEntity
  8
D-F
  6
Continuous
 62
     7
370
     9
100
AcDbPolyline
 90
        4
 70
     1
 43
2.0
 10
716.8642276986265
 20
999.4060413204022
 42
0.4142135623731
 10
715.8642276986266
 20
1000.406041320402
 42
0.4142135623731
 10
714.8642276986266
 20
999.4060413204022
 42
0.4142135623731
 10
715.8642276986266
 20
998.4060413204022
 42
0.4142135623731
  0
LINE
  5
1B3
330
1F
100
AcDbEntity
  8
D-F
  6
Continuous
 62
     7
370
     9
100
AcDbLine
 10
715.8642276986266
 20
799.4062392722424
 30
0.0
 11
715.8642276986266
 21
999.4060413204022
 31
0.0
  0
TEXT
  5
1B4
330
1F
100
AcDbEntity
  8
D-F
  6
Continuous
 62
     2
370
   211
100
AcDbText
 10
705.2242276986266
 20
878.1561402963223
 30
0.0
 40
30.48
  1
40
 50
90.0
 41
1.0625
  7
ＭＳ ゴシック
100
AcDbText
  0
LINE
  5
1B5
330
1F
100
AcDbEntity
  8
D-F
  6
Continuous
 62
     7
370
     9
100
AcDbLine
 10
715.8642276986266
 20
783.4062392722342
 30
0.0
 11
715.8642276986266
 21
799.4062392722424
 31
0.0
  0
TEXT
  5
1B6
330
1F
100
AcDbEntity
  8
D-F
  6
Continuous
 62
     2
370
   211
100
AcDbText
 10
705.2242276986266
 20
694.0655906081272
 30
0.0
 40
30.48
  1
3.2
 50
90.0
 41
1.083333333333333
  7
ＭＳ ゴシック
100
AcDbText
  0
LINE
  5
1B7
330
1F
100
AcDbEntity
  8
D-F
  6
Continuous
 62
     7
370
     9
100
AcDbLine
 10
715.8642276986266
 20
783.4062392722342
 30
0.0
 11
715.8642276986266
 21
697.5297695283305
 31
0.0
  0
LWPOLYLINE
  5
1B8
330
1F
100
AcDbEntity
  8
D-F
  6
Continuous
 62
     7
370
     9
100
AcDbPolyline
 90
        4
 70
     1
 43
2.0
 10
626.437553259703
 20
999.4060413204022
 42
0.4142135623731
 10
625.437553259703
 20
1000.406041320402
 42
0.4142135623731
 10
624.4375532597029
 20
999.4060413204022
 42
0.4142135623731
 10
625.437553259703
 20
998.4060413204022
 42
0.4142135623731
  0
LINE
  5
1B9
330
1F
100
AcDbEntity
  8
D-F
  6
Continuous
 62
     7
370
     9
100
AcDbLine
 10
622.4375532597028
 20
999.4060413204022
 30
0.0
 11
844.253333258325
 21
999.4060413204022
 31
0.0
  0
LWPOLYLINE
  5
1BA
330
1F
100
AcDbEntity
  8
D-F
  6
Continuous
 62
     7
370
     9
100
AcDbPolyline
 90
        4
 70
     1
 43
2.0
 10
626.437553259703
 20
783.4062392722342
 42
0.4142135623731
 10
625.437553259703
 20
784.4062392722342
 42
0.4142135623731
 10
624.4375532597029
 20
783.4062392722342
 42
0.4142135623731
 10
625.437553259703
 20
782.4062392722342
 42
0.4142135623731
  0
LINE
  5
1BB
330
1F
100
AcDbEntity
  8
D-F
  6
Continuous
 62
     7
370
     9
100
AcDbLine
 10
622.4375532597028
 20
783.4062392722342
 30
0.0
 11
844.253333258325
 21
783.4062392722342
 31
0.0
  0
LINE
  5
1BC
330
1F
100
AcDbEntity
  8
D-F
  6
Continuous
 62
     7
370
     9
100
AcDbLine
 10
2297.943617820043
 20
752.4055760046298
 30
0.0
 11
2297.943617820043
 21
999.4060413203977
 31
0.0
  0
TEXT
  5
1BD
330
1F
100
AcDbEntity
  8
D-F
  6
Continuous
 62
     2
370
   211
100
AcDbText
 10
2286.303697000787
 20
832.1558086625137
 30
0.0
 40
30.48
  1
49.4
 50
90.0
 41
1.09375
  7
ＭＳ ゴシック
100
AcDbText
  0
LINE
  5
1BE
330
1F
100
AcDbEntity
  8
D-F
  6
Continuous
 62
     7
370
     9
100
AcDbLine
 10
625.437553259703
 20
783.4062392722342
 30
0.0
 11
625.437553259703
 21
999.4060413204022
 31
0.0
  0
TEXT
  5
1BF
330
1F
100
AcDbEntity
  8
D-F
  6
Continuous
 62
     2
370
   211
100
AcDbText
 10
614.797553259703
 20
847.6561402963182
 30
0.0
 40
30.48
  1
43.2
 50
90.0
 41
1.09375
  7
ＭＳ ゴシック
100
AcDbText
  0
LINE
  5
1C0
330
1F
100
AcDbEntity
  8
D-F
  6
Continuous
 62
     7
370
     9
100
AcDbLine
 10
622.4375532597029
 20
533.4062392722298
 30
0.0
 11
844.2525744428624
 21
533.4062392722298
 31
0.0
  0
LWPOLYLINE
  5
1C1
330
1F
100
AcDbEntity
  8
D-F
  6
Continuous
 62
     7
370
     9
100
AcDbPolyline
 90
        4
 70
     1
 43
2.0
 10
626.437553259703
 20
533.4062392722298
 42
0.4142135623731
 10
625.437553259703
 20
534.4062392722298
 42
0.4142135623731
 10
624.4375532597029
 20
533.4062392722298
 42
0.4142135623731
 10
625.437553259703
 20
532.4062392722296
 42
0.4142135623731
  0
LINE
  5
1C2
330
1F
100
AcDbEntity
  8
D-5
  6
Continuous
 62
     7
370
     9
100
AcDbLine
 10
1288.150569047375
 20
533.4062392722298
 30
0.0
 11
1280.632924059769
 21
509.5633155035239
 31
0.0
  0
LINE
  5
1C3
330
1F
100
AcDbEntity
  8
D-5
  6
Continuous
 62
     7
370
     9
100
AcDbLine
 10
1288.150569047375
 20
533.4062392722298
 30
0.0
 11
1274.718078838705
 21
512.3214531269077
 31
0.0
  0
LINE
  5
1C4
330
1F
100
AcDbEntity
  8
D-5
  6
Continuous
 62
     7
370
     9
100
AcDbLine
 10
1199.922997462762
 20
344.2016014292744
 30
0.0
 11
1288.150569047375
 21
533.4062392722298
 31
0.0
  0
LINE
  5
1C5
330
1F
100
AcDbEntity
  8
D-F
  6
Continuous
 62
     7
370
     9
100
AcDbLine
 10
2000.252841677881
 20
731.0239627233494
 30
0.0
 11
2000.252841677881
 21
65.92829856813687
 31
0.0
  0
LINE
  5
1C6
330
1F
100
AcDbEntity
  8
D-F
  6
Continuous
 62
     7
370
     9
100
AcDbLine
 10
1799.253267274376
 20
737.4061122531208
 30
0.0
 11
1799.253267274376
 21
65.92829856813687
 31
0.0
  0
LINE
  5
1C7
330
1F
100
AcDbEntity
  8
D-F
  6
Continuous
 62
     7
370
     9
100
AcDbLine
 10
1799.253267274376
 20
70.92831506412487
 30
0.0
 11
864.253333258325
 21
70.92831506412487
 31
0.0
  0
TEXT
  5
1C8
330
1F
100
AcDbEntity
  8
D-F
  6
Continuous
 62
     2
370
   211
100
AcDbText
 10
1856.003054476128
 20
82.56835960329312
 30
0.0
 40
30.48
  1
40.2
 41
1.09375
  7
ＭＳ ゴシック
100
AcDbText
  0
LINE
  5
1C9
330
1F
100
AcDbEntity
  8
D-F
  6
Continuous
 62
     7
370
     9
100
AcDbLine
 10
2000.252841677881
 20
70.92831506412487
 30
0.0
 11
1799.253267274376
 21
70.92831506412487
 31
0.0
  0
LWPOLYLINE
  5
1CA
330
1F
100
AcDbEntity
  8
D-F
  6
Continuous
 62
     7
370
     9
100
AcDbPolyline
 90
        4
 70
     1
 43
2.0
 10
2001.252841677881
 20
70.92831506412487
 42
0.4142135623731
 10
2000.252841677881
 20
71.92831506412487
 42
0.4142135623731
 10
1999.252841677881
 20
70.92831506412487
 42
0.4142135623731
 10
2000.252841677881
 20
69.92831506412487
 42
0.4142135623731
  0
LWPOLYLINE
  5
1CB
330
1F
100
AcDbEntity
  8
D-F
  6
Continuous
 62
     7
370
     9
100
AcDbPolyline
 90
        4
 70
     1
 43
2.0
 10
1800.253267274376
 20
70.92831506412487
 42
0.4142135623731
 10
1799.253267274376
 20
71.92831506412487
 42
0.4142135623731
 10
1798.253267274376
 20
70.92831506412487
 42
0.4142135623731
 10
1799.253267274376
 20
69.92831506412487
 42
0.4142135623731
  0
TEXT
  5
1CC
330
1F
100
AcDbEntity
  8
D-4
  6
Continuous
 62
     7
370
     9
100
AcDbText
 10
847.214839120634
 20
-118.3453555114938
 30
0.0
 40
22.86
  1
表面処理：下塗り＋焼付塗装（但し目地、把手、クッション材を除く）
 41
1.161458333333333
  7
ＭＳ ゴシック
100
AcDbText
  0
LINE
  5
1CD
330
1F
100
AcDbEntity
  8
D-4
  6
Continuous
 62
     7
370
     9
100
AcDbLine
 10
1693.923299011225
 20
-66.44474522591572
 30
0.0
 11
1136.423299011225
 21
-66.44474522591572
 31
0.0
  0
TEXT
  5
1CE
330
1F
100
AcDbEntity
  8
D-4
  6
Continuous
 62
     2
370
     9
100
AcDbText
 10
1136.423299011225
 20
-50.17658624418033
 30
0.0
 40
30.48
  1
A-A断面詳細図　Ｓ＝１：２
 41
1.115
  7
ＭＳ ゴシック
100
AcDbText
  0
LINE
  5
1CF
330
1F
100
AcDbEntity
  8
D-5
  6
Continuous
 62
     7
370
     9
100
AcDbLine
 10
1199.922997462762
 20
344.2016014292744
 30
0.0
 11
963.9063986462738
 21
344.2016014292744
 31
0.0
  0
TEXT
  5
1D0
330
1F
100
AcDbEntity
  8
D-5
  6
Continuous
 62
     7
370
     9
100
AcDbText
 10
963.9063986462738
 20
359.9083552827369
 30
0.0
 40
22.86
  1
補強材
 41
1.111111111111111
  7
ＭＳ ゴシック
100
AcDbText
  0
TEXT
  5
1D1
330
1F
100
AcDbEntity
  8
D-5
  6
Continuous
 62
     7
370
     9
100
AcDbText
 10
953.7060287330347
 20
309.3854736975384
 30
0.0
 40
22.86
  1
（ＳＳ４００）
 41
1.142857142857145
  7
ＭＳ ゴシック
100
AcDbText
  0
LINE
  5
1D2
330
1F
100
AcDbEntity
  8
D-5
  6
Continuous
 62
     7
370
     9
100
AcDbLine
 10
1101.620201872492
 20
441.8615168206774
 30
0.0
 11
1260.885121554074
 21
783.4062392722296
 31
0.0
  0
LINE
  5
1D3
330
1F
100
AcDbEntity
  8
D-5
  6
Continuous
 62
     7
370
     9
100
AcDbLine
 10
1281.783229657954
 20
182.7037347628468
 30
0.0
 11
1529.253333258325
 21
713.4050845530589
 31
0.0
  0
TEXT
  5
1D4
330
1F
100
AcDbEntity
  8
D-5
  6
Continuous
 62
     7
370
     9
100
AcDbText
 10
862.0172750206764
 20
150.0059813523328
 30
0.0
 40
22.86
  1
（ＳＵＳ３０４）
 41
1.145833333333333
  7
ＭＳ ゴシック
100
AcDbText
  0
TEXT
  5
1D5
330
1F
100
AcDbEntity
  8
D-5
  6
Continuous
 62
     7
370
     9
100
AcDbText
 10
870.2791484854749
 20
195.5652370738878
 30
0.0
 40
22.86
  1
ばね座金
 41
1.125
  7
ＭＳ ゴシック
100
AcDbText
  0
LINE
  5
1D6
330
1F
100
AcDbEntity
  8
D-5
  6
Continuous
 62
     7
370
     9
100
AcDbLine
 10
1281.783229657954
 20
182.7037347628468
 30
0.0
 11
864.798089250349
 21
182.7037347628468
 31
0.0
  0
TEXT
  5
1D7
330
1F
100
AcDbEntity
  8
D-5
  6
Continuous
 62
     7
370
     9
100
AcDbText
 10
871.3263194349254
 20
232.2868709232213
 30
0.0
 40
22.86
  1
六角ボルト：Ｍ１６×２５
 41
1.152777777777777
  7
ＭＳ ゴシック
100
AcDbText
  0
TEXT
  5
1D8
330
1F
100
AcDbEntity
  8
D-5
  6
Continuous
 62
     7
370
     9
100
AcDbText
 10
695.4215903352754
 20
409.9745817092967
 30
0.0
 40
22.86
  1
（ＳＰＨＣ）
 41
1.138888888888889
  7
ＭＳ ゴシック
100
AcDbText
  0
TEXT
  5
1D9
330
1F
100
AcDbEntity
  8
D-5
  6
Continuous
 62
     7
370
     9
100
AcDbText
 10
705.469548961279
 20
455.3333941960998
 30
0.0
 40
22.86
  1
蓋プレート：ｔ＝３．２
 41
1.151515151515152
  7
ＭＳ ゴシック
100
AcDbText
  0
LINE
  5
1DA
330
1F
100
AcDbEntity
  8
D-5
  6
Continuous
 62
     7
370
     9
100
AcDbLine
 10
1101.620201872492
 20
441.8615168206774
 30
0.0
 11
701.9523338909921
 21
441.8615168206774
 31
0.0
  0
LINE
  5
1DB
330
1F
100
AcDbEntity
  8
D-F
  6
Continuous
 62
     7
370
     9
100
AcDbLine
 10
864.253333258325
 20
731.9986431996074
 30
0.0
 11
829.8463310412646
 21
731.9986431996074
 31
0.0
  0
LINE
  5
1DC
330
1F
100
AcDbEntity
  8
D-F
  6
Continuous
 62
     7
370
     9
100
AcDbLine
 10
864.253333258325
 20
800.8136373930199
 30
0.0
 11
898.6613252346765
 21
800.8136373930199
 31
0.0
  0
LINE
  5
1DD
330
1F
100
AcDbEntity
  8
D-F
  6
Continuous
 62
     7
370
     9
100
AcDbLine
 10
898.6613252346765
 20
800.8136373930199
 30
0.0
 11
829.8463310412646
 21
731.9986431996074
 31
0.0
  0
LINE
  5
1DE
330
1F
100
AcDbEntity
  8
D-F
  6
Continuous
 62
     7
370
     9
100
AcDbLine
 10
864.253333258325
 20
1034.406041320398
 30
0.0
 11
864.253333258325
 21
800.8136373930199
 31
0.0
  0
LINE
  5
1DF
330
1F
100
AcDbEntity
  8
D-F
  6
Continuous
 62
     7
370
     9
100
AcDbLine
 10
864.253333258325
 20
731.9986431996074
 30
0.0
 11
864.253333258325
 21
505.1963387012381
 31
0.0
  0
LINE
  5
1E0
330
1F
100
AcDbEntity
  8
D-2
  6
Continuous
 62
     3
370
     9
100
AcDbLine
 10
881.2539271138862
 20
783.4062392722296
 30
0.0
 11
1917.253531210197
 21
783.4062392722296
 31
0.0
  0
LINE
  5
1E1
330
1F
100
AcDbEntity
  8
D-2
  6
Continuous
 62
     3
370
     9
100
AcDbLine
 10
1489.253943609888
 20
799.4062392722378
 30
0.0
 11
897.2539271138944
 21
799.4062392722378
 31
0.0
  0
LINE
  5
1E2
330
1F
100
AcDbEntity
  8
D-9
  6
JWW_PHANTOM1
 62
   211
370
     5
100
AcDbLine
 10
864.2525744428624
 20
533.4062392722298
 30
0.0
 11
1719.252772394739
 21
533.4062392722298
 31
0.0
  0
LINE
  5
1E3
330
1F
100
AcDbEntity
  8
D-9
  6
JWW_PHANTOM1
 62
   211
370
     5
100
AcDbLine
 10
1719.252772394739
 20
533.4062392722298
 30
0.0
 11
1719.252772394739
 21
783.4062392722296
 31
0.0
  0
LINE
  5
1E4
330
1F
100
AcDbEntity
  8
D-8
  6
JWW_CENTER1
 62
    30
370
     5
100
AcDbLine
 10
1749.252772394739
 20
533.4062392722298
 30
0.0
 11
1749.252772394739
 21
783.4062392722296
 31
0.0
  0
LINE
  5
1E5
330
1F
100
AcDbEntity
  8
D-8
  6
JWW_CENTER1
 62
    30
370
     5
100
AcDbLine
 10
1749.252772394739
 20
533.4062392722298
 30
0.0
 11
1719.252772394739
 21
533.4062392722298
 31
0.0
  0
LINE
  5
1E6
330
1F
100
AcDbEntity
  8
D-8
  6
JWW_CENTER1
 62
    30
370
     5
100
AcDbLine
 10
1719.252772394739
 20
533.4062392722298
 30
0.0
 11
1719.252772394739
 21
783.4062392722296
 31
0.0
  0
LINE
  5
1E7
330
1F
100
AcDbEntity
  8
D-8
  6
JWW_CENTER1
 62
    30
370
     5
100
AcDbLine
 10
1719.252772394739
 20
783.4062392722296
 30
0.0
 11
1749.252772394739
 21
783.4062392722296
 31
0.0
  0
LINE
  5
1E8
330
1F
100
AcDbEntity
  8
D-9
  6
JWW_PHANTOM1
 62
   211
370
     5
100
AcDbLine
 10
864.2525744428624
 20
563.4062392722298
 30
0.0
 11
1719.252772394739
 21
563.4062392722298
 31
0.0
  0
TEXT
  5
1E9
330
1F
100
AcDbEntity
  8
F-5ﾚｲﾔ
  6
Continuous
 62
     2
370
     0
100
AcDbText
 10
-500.1060031230026
 20
-1962.068919403209
 30
0.0
 40
30.48
  1
大口径マシンハッチ　Ｓ－２Ｅ－１４００×１７００
 41
1.119791666666667
  7
ＭＳ ゴシック
100
AcDbText
  0
TEXT
  5
1EA
330
1F
100
AcDbEntity
  8
D-F
  6
Continuous
 62
     2
370
     9
100
AcDbText
 10
864.2533167623369
 20
82.56835960329255
 30
0.0
 40
30.48
  1
1400
 41
1.09375
  7
ＭＳ ゴシック
100
AcDbText
  0
TEXT
  5
1EB
330
1F
100
AcDbEntity
  8
D-F
  6
Continuous
 62
     2
370
     9
100
AcDbText
 10
864.2533167623369
 20
1371.070488810111
 30
0.0
 40
30.48
  1
1492
 41
1.09375
  7
ＭＳ ゴシック
100
AcDbText
  0
LINE
  5
1EC
330
1F
100
AcDbEntity
  8
0-E
  6
Continuous
 62
     3
370
     9
100
AcDbLine
 10
-1855.106921240224
 20
1335.286328706088
 30
0.0
 11
-1855.106921240224
 21
1375.286328706088
 31
0.0
  0
LINE
  5
1ED
330
1F
100
AcDbEntity
  8
0-E
  6
Continuous
 62
     3
370
     9
100
AcDbLine
 10
-1855.106921240224
 20
1335.286328706088
 30
0.0
 11
-1820.90696619179
 21
1335.286328706088
 31
0.0
  0
LINE
  5
1EE
330
1F
100
AcDbEntity
  8
0-E
  6
Continuous
 62
     3
370
     9
100
AcDbLine
 10
-1855.106921240224
 20
1375.286328706088
 30
0.0
 11
-1820.90696619179
 21
1375.286328706088
 31
0.0
  0
CIRCLE
  5
1EF
330
1F
100
AcDbEntity
  8
0-E
  6
Continuous
 62
     3
370
     9
100
AcDbCircle
 10
-1840.106921240224
 20
1355.286328706088
 30
0.0
 40
6.999999999998181
  0
LINE
  5
1F0
330
1F
100
AcDbEntity
  8
0-E
  6
JWW_CENTER1
 62
     3
370
     9
100
AcDbLine
 10
-1862.079920266495
 20
1355.286328706088
 30
0.0
 11
-1820.90696619179
 21
1355.286328706088
 31
0.0
  0
LINE
  5
1F1
330
1F
100
AcDbEntity
  8
0-E
  6
JWW_CENTER1
 62
     3
370
     9
100
AcDbLine
 10
-1840.106921240224
 20
1379.663570169295
 30
0.0
 11
-1840.106921240224
 21
1330.909087242881
 31
0.0
  0
LINE
  5
1F2
330
1F
100
AcDbEntity
  8
0-E
  6
Continuous
 62
     3
370
     9
100
AcDbLine
 10
-1740.907028051745
 20
1489.486221894571
 30
0.0
 11
-1700.907028051745
 21
1489.486221894571
 31
0.0
  0
LINE
  5
1F3
330
1F
100
AcDbEntity
  8
0-E
  6
Continuous
 62
     3
370
     9
100
AcDbLine
 10
-1740.907028051745
 20
1489.486221894571
 30
0.0
 11
-1740.907028051745
 21
1455.286266846137
 31
0.0
  0
LINE
  5
1F4
330
1F
100
AcDbEntity
  8
0-E
  6
Continuous
 62
     3
370
     9
100
AcDbLine
 10
-1700.907028051745
 20
1489.486221894571
 30
0.0
 11
-1700.907028051745
 21
1455.286266846137
 31
0.0
  0
CIRCLE
  5
1F5
330
1F
100
AcDbEntity
  8
0-E
  6
Continuous
 62
     3
370
     9
100
AcDbCircle
 10
-1720.907028051745
 20
1474.486221894571
 30
0.0
 40
6.999999999998181
  0
LINE
  5
1F6
330
1F
100
AcDbEntity
  8
0-E
  6
JWW_CENTER1
 62
     3
370
     9
100
AcDbLine
 10
-1720.907028051745
 20
1496.459220920842
 30
0.0
 11
-1720.907028051745
 21
1455.286266846137
 31
0.0
  0
LINE
  5
1F7
330
1F
100
AcDbEntity
  8
0-E
  6
JWW_CENTER1
 62
     3
370
     9
100
AcDbLine
 10
-1696.529786588538
 20
1474.486221894571
 30
0.0
 11
-1745.284269514953
 21
1474.486221894571
 31
0.0
  0
LINE
  5
1F8
330
1F
100
AcDbEntity
  8
0-F
  6
Continuous
 62
     7
370
     9
100
AcDbLine
 10
-1820.9070899117
 20
1470.2863163341
 30
0.0
 11
-1820.9070899117
 21
1750.286559649926
 31
0.0
  0
LINE
  5
1F9
330
1F
100
AcDbEntity
  8
0-F
  6
Continuous
 62
     7
370
     9
100
AcDbLine
 10
-1807.907096510095
 20
1457.286322932496
 30
0.0
 11
-1807.907096510095
 21
1660.286262722139
 31
0.0
  0
LINE
  5
1FA
330
1F
100
AcDbEntity
  8
0-F
  6
Continuous
 62
     7
370
     9
100
AcDbLine
 10
-1774.907037124538
 20
1424.286263546939
 30
0.0
 11
-1774.907037124538
 21
1570.285470914706
 31
0.0
  0
LWPOLYLINE
  5
1FB
330
1F
100
AcDbEntity
  8
0-F
  6
Continuous
 62
     7
370
     9
100
AcDbPolyline
 90
        4
 70
     1
 43
2.0
 10
-1773.907037124538
 20
1565.285454418719
 42
0.4142135623731
 10
-1774.907037124538
 20
1566.285454418719
 42
0.4142135623731
 10
-1775.907037124538
 20
1565.285454418719
 42
0.4142135623731
 10
-1774.907037124538
 20
1564.285454418719
 42
0.4142135623731
  0
LWPOLYLINE
  5
1FC
330
1F
100
AcDbEntity
  8
0-F
  6
Continuous
 62
     7
370
     9
100
AcDbPolyline
 90
        4
 70
     1
 43
2.0
 10
-1806.907096510095
 20
1655.286246226151
 42
0.4142135623731
 10
-1807.907096510095
 20
1656.286246226151
 42
0.4142135623731
 10
-1808.907096510095
 20
1655.286246226151
 42
0.4142135623731
 10
-1807.907096510095
 20
1654.286246226151
 42
0.4142135623731
  0
LWPOLYLINE
  5
1FD
330
1F
100
AcDbEntity
  8
0-F
  6
Continuous
 62
     7
370
     9
100
AcDbPolyline
 90
        4
 70
     1
 43
2.0
 10
-1819.907089911701
 20
1745.286543153938
 42
0.4142135623731
 10
-1820.9070899117
 20
1746.286543153938
 42
0.4142135623731
 10
-1821.9070899117
 20
1745.286543153938
 42
0.4142135623731
 10
-1820.9070899117
 20
1744.286543153938
 42
0.4142135623731
  0
LINE
  5
1FE
330
1F
100
AcDbEntity
  8
建具
  6
Continuous
 62
     2
370
     9
100
AcDbLine
 10
-1820.90696619179
 20
1455.286328706088
 30
0.0
 11
-1808.907000833363
 21
1443.286487067575
 31
0.0
  0
LINE
  5
1FF
330
1F
100
AcDbEntity
  8
0-F
  6
Continuous
 62
     7
370
     9
100
AcDbLine
 10
20.01972481195921
 20
1355.286246226151
 30
0.0
 11
101.07697636756
 21
1355.286246226151
 31
0.0
  0
LWPOLYLINE
  5
200
330
1F
100
AcDbEntity
  8
0-F
  6
Continuous
 62
     7
370
     9
100
AcDbPolyline
 90
        4
 70
     1
 43
2.0
 10
97.07695987157143
 20
1355.286246226151
 42
0.4142135623731
 10
96.07695987157143
 20
1356.286246226151
 42
0.4142135623731
 10
95.07695987157143
 20
1355.286246226151
 42
0.4142135623731
 10
96.07695987157143
 20
1354.286246226152
 42
0.4142135623731
  0
LINE
  5
201
330
1F
100
AcDbEntity
  8
0-E
  6
Continuous
 62
     3
370
     9
100
AcDbLine
 10
5.292970711058871
 20
1375.286328706092
 30
0.0
 11
5.292970711058871
 21
1335.286328706092
 31
0.0
  0
LINE
  5
202
330
1F
100
AcDbEntity
  8
0-E
  6
Continuous
 62
     3
370
     9
100
AcDbLine
 10
5.292970711058871
 20
1375.286328706092
 30
0.0
 11
-28.90698433737541
 21
1375.286328706092
 31
0.0
  0
LINE
  5
203
330
1F
100
AcDbEntity
  8
0-E
  6
Continuous
 62
     3
370
     9
100
AcDbLine
 10
5.292970711058871
 20
1335.286328706092
 30
0.0
 11
-28.90698433737541
 21
1335.286328706092
 31
0.0
  0
CIRCLE
  5
204
330
1F
100
AcDbEntity
  8
0-E
  6
Continuous
 62
     3
370
     9
100
AcDbCircle
 10
-9.70702928894113
 20
1355.286328706092
 30
0.0
 40
6.999999999998181
  0
LINE
  5
205
330
1F
100
AcDbEntity
  8
0-E
  6
JWW_CENTER1
 62
     3
370
     9
100
AcDbLine
 10
12.26596973732924
 20
1355.286328706092
 30
0.0
 11
-28.90698433737541
 21
1355.286328706092
 31
0.0
  0
LINE
  5
206
330
1F
100
AcDbEntity
  8
0-E
  6
JWW_CENTER1
 62
     3
370
     9
100
AcDbLine
 10
-9.70702928894113
 20
1330.909087242885
 30
0.0
 11
-9.70702928894113
 21
1379.663570169299
 31
0.0
  0
LINE
  5
207
330
1F
100
AcDbEntity
  8
0-E
  6
Continuous
 62
     3
370
     9
100
AcDbLine
 10
-148.9069224774248
 20
1489.486221894571
 30
0.0
 11
-108.9069224774248
 21
1489.486221894571
 31
0.0
  0
LINE
  5
208
330
1F
100
AcDbEntity
  8
0-E
  6
Continuous
 62
     3
370
     9
100
AcDbLine
 10
-148.9069224774248
 20
1489.486221894571
 30
0.0
 11
-148.9069224774248
 21
1455.286266846137
 31
0.0
  0
LINE
  5
209
330
1F
100
AcDbEntity
  8
0-E
  6
Continuous
 62
     3
370
     9
100
AcDbLine
 10
-108.9069224774248
 20
1489.486221894571
 30
0.0
 11
-108.9069224774248
 21
1455.286266846137
 31
0.0
  0
CIRCLE
  5
20A
330
1F
100
AcDbEntity
  8
0-E
  6
Continuous
 62
     3
370
     9
100
AcDbCircle
 10
-128.9069224774248
 20
1474.486221894571
 30
0.0
 40
6.999999999998181
  0
LINE
  5
20B
330
1F
100
AcDbEntity
  8
0-E
  6
JWW_CENTER1
 62
     3
370
     9
100
AcDbLine
 10
-128.9069224774248
 20
1496.459220920842
 30
0.0
 11
-128.9069224774248
 21
1455.286266846137
 31
0.0
  0
LINE
  5
20C
330
1F
100
AcDbEntity
  8
0-E
  6
JWW_CENTER1
 62
     3
370
     9
100
AcDbLine
 10
-104.5296810142172
 20
1474.486221894571
 30
0.0
 11
-153.2841639406324
 21
1474.486221894571
 31
0.0
  0
LINE
  5
20D
330
1F
100
AcDbEntity
  8
0-F
  6
Continuous
 62
     7
370
     9
100
AcDbLine
 10
-28.90698433737597
 20
1470.2863163341
 30
0.0
 11
-28.90698433737597
 21
1750.286559649926
 31
0.0
  0
LINE
  5
20E
330
1F
100
AcDbEntity
  8
0-F
  6
Continuous
 62
     7
370
     9
100
AcDbLine
 10
-41.90697773898066
 20
1457.286322932496
 30
0.0
 11
-41.90697773898066
 21
1660.286262722139
 31
0.0
  0
LINE
  5
20F
330
1F
100
AcDbEntity
  8
0-F
  6
Continuous
 62
     7
370
     9
100
AcDbLine
 10
-74.9070371245385
 20
1424.286263546939
 30
0.0
 11
-74.9070371245385
 21
1570.285470914706
 31
0.0
  0
LWPOLYLINE
  5
210
330
1F
100
AcDbEntity
  8
0-F
  6
Continuous
 62
     7
370
     9
100
AcDbPolyline
 90
        4
 70
     1
 43
2.0
 10
-73.9070371245385
 20
1565.285454418719
 42
0.4142135623731
 10
-74.9070371245385
 20
1566.285454418719
 42
0.4142135623731
 10
-75.9070371245385
 20
1565.285454418719
 42
0.4142135623731
 10
-74.9070371245385
 20
1564.285454418719
 42
0.4142135623731
  0
LWPOLYLINE
  5
211
330
1F
100
AcDbEntity
  8
0-F
  6
Continuous
 62
     7
370
     9
100
AcDbPolyline
 90
        4
 70
     1
 43
2.0
 10
-40.90697773898066
 20
1655.286246226151
 42
0.4142135623731
 10
-41.90697773898066
 20
1656.286246226151
 42
0.4142135623731
 10
-42.90697773898066
 20
1655.286246226151
 42
0.4142135623731
 10
-41.90697773898066
 20
1654.286246226151
 42
0.4142135623731
  0
LWPOLYLINE
  5
212
330
1F
100
AcDbEntity
  8
0-F
  6
Continuous
 62
     7
370
     9
100
AcDbPolyline
 90
        4
 70
     1
 43
2.0
 10
-27.90698433737597
 20
1745.286543153938
 42
0.4142135623731
 10
-28.90698433737597
 20
1746.286543153938
 42
0.4142135623731
 10
-29.90698433737597
 20
1745.286543153938
 42
0.4142135623731
 10
-28.90698433737597
 20
1744.286543153938
 42
0.4142135623731
  0
LINE
  5
213
330
1F
100
AcDbEntity
  8
建具
  6
Continuous
 62
     2
370
     9
100
AcDbLine
 10
-40.90682597588781
 20
1443.286487067575
 30
0.0
 11
-28.90698433737541
 21
1455.286328706088
 31
0.0
  0
LINE
  5
214
330
1F
100
AcDbEntity
  8
0-F
  6
Continuous
 62
     7
370
     9
100
AcDbLine
 10
96.07695987157143
 20
1355.286246226151
 30
0.0
 11
96.07695987157143
 21
1455.286328706092
 31
0.0
  0
LINE
  5
215
330
1F
100
AcDbEntity
  8
0-F
  6
Continuous
 62
     7
370
     9
100
AcDbLine
 10
-13.90699670936712
 20
1455.286328706092
 30
0.0
 11
101.07697636756
 21
1455.286328706092
 31
0.0
  0
TEXT
  5
216
330
1F
100
AcDbEntity
  8
0-F
  6
Continuous
 62
     2
370
     9
100
AcDbText
 10
84.43697719235892
 20
1372.786287466121
 30
0.0
 40
30.48
  1
100
 50
90.0
 41
1.083333333333333
  7
ＭＳ ゴシック
100
AcDbText
  0
LWPOLYLINE
  5
217
330
1F
100
AcDbEntity
  8
0-F
  6
Continuous
 62
     7
370
     9
100
AcDbPolyline
 90
        4
 70
     1
 43
2.0
 10
97.07695987157143
 20
1455.286328706092
 42
0.4142135623731
 10
96.07695987157143
 20
1456.286328706092
 42
0.4142135623731
 10
95.07695987157143
 20
1455.286328706092
 42
0.4142135623731
 10
96.07695987157143
 20
1454.286328706092
 42
0.4142135623731
  0
LINE
  5
218
330
1F
100
AcDbEntity
  8
0-F
  6
Continuous
 62
     7
370
     9
100
AcDbLine
 10
96.07695987157143
 20
1455.286328706092
 30
0.0
 11
96.07695987157143
 21
1489.487071533324
 31
0.0
  0
LWPOLYLINE
  5
219
330
1F
100
AcDbEntity
  8
0-F
  6
Continuous
 62
     7
370
     9
100
AcDbPolyline
 90
        4
 70
     1
 43
2.0
 10
97.07695987157143
 20
1489.487071533324
 42
0.4142135623731
 10
96.07695987157143
 20
1490.487071533323
 42
0.4142135623731
 10
95.07695987157143
 20
1489.487071533324
 42
0.4142135623731
 10
96.07695987157143
 20
1488.487071533324
 42
0.4142135623731
  0
LINE
  5
21A
330
1F
100
AcDbEntity
  8
0-F
  6
Continuous
 62
     7
370
     9
100
AcDbLine
 10
101.0769598715714
 20
1489.487071533324
 30
0.0
 11
-88.90694309740681
 21
1489.487071533324
 31
0.0
  0
TEXT
  5
21B
330
1F
100
AcDbEntity
  8
0-F
  6
Continuous
 62
     2
370
   211
100
AcDbText
 10
84.43697719235892
 20
1502.164918392474
 30
0.0
 40
30.48
  1
34
 50
90.0
 41
1.0625
  7
ＭＳ ゴシック
100
AcDbText
  0
LINE
  5
21C
330
1F
100
AcDbEntity
  8
0-F
  6
Continuous
 62
     7
370
     9
100
AcDbLine
 10
96.07695987157143
 20
1489.487071533324
 30
0.0
 11
96.07695987157143
 21
1544.664918392474
 31
0.0
  0
LINE
  5
21D
330
1F
100
AcDbEntity
  8
躯体
  6
JWW_DASHED2
 62
     2
370
     9
100
AcDbLine
 10
-1774.907037124538
 20
1409.28627591893
 30
0.0
 11
-74.9069134046276
 21
1409.28627591893
 31
0.0
  0
LINE
  5
21E
330
1F
100
AcDbEntity
  8
建具
  6
Continuous
 62
     2
370
     9
100
AcDbLine
 10
-1808.907000833363
 20
1443.286487067575
 30
0.0
 11
-40.90682597588781
 21
1443.286487067575
 31
0.0
  0
LINE
  5
21F
330
1F
100
AcDbEntity
  8
建具
  6
Continuous
 62
     2
370
     9
100
AcDbLine
 10
-1820.90696619179
 20
1455.286328706088
 30
0.0
 11
-28.90710805728574
 21
1455.286328706088
 31
0.0
  0
LINE
  5
220
330
1F
100
AcDbEntity
  8
0-E
  6
Continuous
 62
     3
370
     9
100
AcDbLine
 10
-679.4069843373801
 20
1489.486221894566
 30
0.0
 11
-639.4069843373801
 21
1489.486221894566
 31
0.0
  0
LINE
  5
221
330
1F
100
AcDbEntity
  8
0-E
  6
Continuous
 62
     3
370
     9
100
AcDbLine
 10
-679.4069843373801
 20
1489.486221894566
 30
0.0
 11
-679.4069843373801
 21
1455.286266846132
 31
0.0
  0
LINE
  5
222
330
1F
100
AcDbEntity
  8
0-E
  6
Continuous
 62
     3
370
     9
100
AcDbLine
 10
-639.4069843373801
 20
1489.486221894566
 30
0.0
 11
-639.4069843373801
 21
1455.286266846132
 31
0.0
  0
CIRCLE
  5
223
330
1F
100
AcDbEntity
  8
0-E
  6
Continuous
 62
     3
370
     9
100
AcDbCircle
 10
-659.4069843373801
 20
1474.486221894566
 30
0.0
 40
6.999999999998181
  0
LINE
  5
224
330
1F
100
AcDbEntity
  8
0-E
  6
JWW_CENTER1
 62
     3
370
     9
100
AcDbLine
 10
-659.4069843373801
 20
1496.459220920837
 30
0.0
 11
-659.4069843373801
 21
1455.286266846132
 31
0.0
  0
LINE
  5
225
330
1F
100
AcDbEntity
  8
0-E
  6
JWW_CENTER1
 62
     3
370
     9
100
AcDbLine
 10
-635.0297428741725
 20
1474.486221894566
 30
0.0
 11
-683.7842258005877
 21
1474.486221894566
 31
0.0
  0
LINE
  5
226
330
1F
100
AcDbEntity
  8
0-E
  6
Continuous
 62
     3
370
     9
100
AcDbLine
 10
-1210.407089911701
 20
1489.486221894567
 30
0.0
 11
-1170.407089911701
 21
1489.486221894567
 31
0.0
  0
LINE
  5
227
330
1F
100
AcDbEntity
  8
0-E
  6
Continuous
 62
     3
370
     9
100
AcDbLine
 10
-1210.407089911701
 20
1489.486221894567
 30
0.0
 11
-1210.407089911701
 21
1455.286266846133
 31
0.0
  0
LINE
  5
228
330
1F
100
AcDbEntity
  8
0-E
  6
Continuous
 62
     3
370
     9
100
AcDbLine
 10
-1170.407089911701
 20
1489.486221894567
 30
0.0
 11
-1170.407089911701
 21
1455.286266846133
 31
0.0
  0
CIRCLE
  5
229
330
1F
100
AcDbEntity
  8
0-E
  6
Continuous
 62
     3
370
     9
100
AcDbCircle
 10
-1190.407089911701
 20
1474.486221894567
 30
0.0
 40
6.999999999998181
  0
LINE
  5
22A
330
1F
100
AcDbEntity
  8
0-E
  6
JWW_CENTER1
 62
     3
370
     9
100
AcDbLine
 10
-1190.407089911701
 20
1496.459220920837
 30
0.0
 11
-1190.407089911701
 21
1455.286266846133
 31
0.0
  0
LINE
  5
22B
330
1F
100
AcDbEntity
  8
0-E
  6
JWW_CENTER1
 62
     3
370
     9
100
AcDbLine
 10
-1166.029848448493
 20
1474.486221894567
 30
0.0
 11
-1214.784331374908
 21
1474.486221894567
 31
0.0
  0
LINE
  5
22C
330
1F
100
AcDbEntity
  8
0-F
  6
Continuous
 62
     7
370
     9
100
AcDbLine
 10
-1774.907037124538
 20
1565.285454418719
 30
0.0
 11
-74.9070371245385
 21
1565.285454418719
 31
0.0
  0
LINE
  5
22D
330
1F
100
AcDbEntity
  8
0-F
  6
Continuous
 62
     7
370
     9
100
AcDbLine
 10
-1789.907086612503
 20
1409.28627591893
 30
0.0
 11
-1916.530928433815
 21
1409.28627591893
 31
0.0
  0
LWPOLYLINE
  5
22E
330
1F
100
AcDbEntity
  8
0-F
  6
Continuous
 62
     7
370
     9
100
AcDbPolyline
 90
        4
 70
     1
 43
2.0
 10
-1910.530911937826
 20
1409.28627591893
 42
0.4142135623731
 10
-1911.530911937826
 20
1410.28627591893
 42
0.4142135623731
 10
-1912.530911937826
 20
1409.28627591893
 42
0.4142135623731
 10
-1911.530911937826
 20
1408.28627591893
 42
0.4142135623731
  0
LINE
  5
22F
330
1F
100
AcDbEntity
  8
0-F
  6
Continuous
 62
     7
370
     9
100
AcDbLine
 10
-1822.90714599806
 20
1442.286335304487
 30
0.0
 11
-2022.700275748243
 21
1442.286335304487
 31
0.0
  0
LWPOLYLINE
  5
230
330
1F
100
AcDbEntity
  8
0-F
  6
Continuous
 62
     7
370
     9
100
AcDbPolyline
 90
        4
 70
     1
 43
2.0
 10
-2016.700259252255
 20
1442.286335304487
 42
0.4142135623731
 10
-2017.700259252255
 20
1443.286335304487
 42
0.4142135623731
 10
-2018.700259252255
 20
1442.286335304487
 42
0.4142135623731
 10
-2017.700259252255
 20
1441.286335304487
 42
0.4142135623731
  0
LINE
  5
231
330
1F
100
AcDbEntity
  8
0-F
  6
Continuous
 62
     7
370
     9
100
AcDbLine
 10
-1835.907139399665
 20
1455.286328706092
 30
0.0
 11
-2125.163498297584
 21
1455.286328706092
 31
0.0
  0
LWPOLYLINE
  5
232
330
1F
100
AcDbEntity
  8
0-F
  6
Continuous
 62
     7
370
     9
100
AcDbPolyline
 90
        4
 70
     1
 43
2.0
 10
-2119.163481801596
 20
1455.286328706092
 42
0.4142135623731
 10
-2120.163481801596
 20
1456.286328706092
 42
0.4142135623731
 10
-2121.163481801596
 20
1455.286328706092
 42
0.4142135623731
 10
-2120.163481801596
 20
1454.286328706092
 42
0.4142135623731
  0
LINE
  5
233
330
1F
100
AcDbEntity
  8
0-F
  6
Continuous
 62
     3
370
     9
100
AcDbLine
 10
-1807.907096510095
 20
1442.286335304487
 30
0.0
 11
-1795.907007431758
 21
1430.285998786324
 31
0.0
  0
LINE
  5
234
330
1F
100
AcDbEntity
  8
0-F
  6
Continuous
 62
     3
370
     9
100
AcDbLine
 10
-1468.407185588429
 20
1430.285998786324
 30
0.0
 11
-1456.407096510092
 21
1442.286335304487
 31
0.0
  0
LINE
  5
235
330
1F
100
AcDbEntity
  8
0-F
  6
Continuous
 62
     3
370
     9
100
AcDbLine
 10
-1795.907007431758
 20
1430.285998786324
 30
0.0
 11
-1468.407185588429
 21
1430.285998786324
 31
0.0
  0
LINE
  5
236
330
1F
100
AcDbEntity
  8
0-F
  6
Continuous
 62
     3
370
     9
100
AcDbLine
 10
-1807.907096510095
 20
1442.286335304487
 30
0.0
 11
-1456.407096510092
 21
1442.286335304487
 31
0.0
  0
LINE
  5
237
330
1F
100
AcDbEntity
  8
0-F
  6
Continuous
 62
     3
370
     9
100
AcDbLine
 10
-1454.282096510095
 20
1442.286335304487
 30
0.0
 11
-1442.282007431758
 21
1430.285998786324
 31
0.0
  0
LINE
  5
238
330
1F
100
AcDbEntity
  8
0-F
  6
Continuous
 62
     3
370
     9
100
AcDbLine
 10
-1114.782185588429
 20
1430.285998786324
 30
0.0
 11
-1102.782096510091
 21
1442.286335304487
 31
0.0
  0
LINE
  5
239
330
1F
100
AcDbEntity
  8
0-F
  6
Continuous
 62
     3
370
     9
100
AcDbLine
 10
-1442.282007431758
 20
1430.285998786324
 30
0.0
 11
-1114.782185588429
 21
1430.285998786324
 31
0.0
  0
LINE
  5
23A
330
1F
100
AcDbEntity
  8
0-F
  6
Continuous
 62
     3
370
     9
100
AcDbLine
 10
-1454.282096510095
 20
1442.286335304487
 30
0.0
 11
-1102.782096510091
 21
1442.286335304487
 31
0.0
  0
LINE
  5
23B
330
1F
100
AcDbEntity
  8
0-F
  6
Continuous
 62
     3
370
     9
100
AcDbLine
 10
-1100.657096510095
 20
1442.286335304487
 30
0.0
 11
-1088.657007431757
 21
1430.285998786324
 31
0.0
  0
LINE
  5
23C
330
1F
100
AcDbEntity
  8
0-F
  6
Continuous
 62
     3
370
     9
100
AcDbLine
 10
-761.157185588429
 20
1430.285998786324
 30
0.0
 11
-749.1570965100914
 21
1442.286335304487
 31
0.0
  0
LINE
  5
23D
330
1F
100
AcDbEntity
  8
0-F
  6
Continuous
 62
     3
370
     9
100
AcDbLine
 10
-1088.657007431757
 20
1430.285998786324
 30
0.0
 11
-761.157185588429
 21
1430.285998786324
 31
0.0
  0
LINE
  5
23E
330
1F
100
AcDbEntity
  8
0-F
  6
Continuous
 62
     3
370
     9
100
AcDbLine
 10
-1100.657096510095
 20
1442.286335304487
 30
0.0
 11
-749.1570965100914
 21
1442.286335304487
 31
0.0
  0
LINE
  5
23F
330
1F
100
AcDbEntity
  8
0-F
  6
Continuous
 62
     3
370
     9
100
AcDbLine
 10
-747.032096510095
 20
1442.286335304487
 30
0.0
 11
-735.0320074317574
 21
1430.285998786324
 31
0.0
  0
LINE
  5
240
330
1F
100
AcDbEntity
  8
0-F
  6
Continuous
 62
     3
370
     9
100
AcDbLine
 10
-407.5321855884289
 20
1430.285998786324
 30
0.0
 11
-395.5320965100913
 21
1442.286335304487
 31
0.0
  0
LINE
  5
241
330
1F
100
AcDbEntity
  8
0-F
  6
Continuous
 62
     3
370
     9
100
AcDbLine
 10
-735.0320074317574
 20
1430.285998786324
 30
0.0
 11
-407.5321855884289
 21
1430.285998786324
 31
0.0
  0
LINE
  5
242
330
1F
100
AcDbEntity
  8
0-F
  6
Continuous
 62
     3
370
     9
100
AcDbLine
 10
-747.032096510095
 20
1442.286335304487
 30
0.0
 11
-395.5320965100913
 21
1442.286335304487
 31
0.0
  0
LINE
  5
243
330
1F
100
AcDbEntity
  8
0-F
  6
Continuous
 62
     3
370
     9
100
AcDbLine
 10
-393.4070965100949
 20
1442.286335304487
 30
0.0
 11
-381.4070074317573
 21
1430.285998786324
 31
0.0
  0
LINE
  5
244
330
1F
100
AcDbEntity
  8
0-F
  6
Continuous
 62
     3
370
     9
100
AcDbLine
 10
-53.90718558842877
 20
1430.285998786324
 30
0.0
 11
-41.90709651009115
 21
1442.286335304487
 31
0.0
  0
LINE
  5
245
330
1F
100
AcDbEntity
  8
0-F
  6
Continuous
 62
     3
370
     9
100
AcDbLine
 10
-381.4070074317573
 20
1430.285998786324
 30
0.0
 11
-53.90718558842877
 21
1430.285998786324
 31
0.0
  0
LINE
  5
246
330
1F
100
AcDbEntity
  8
0-F
  6
Continuous
 62
     3
370
     9
100
AcDbLine
 10
-393.4070965100949
 20
1442.286335304487
 30
0.0
 11
-41.90709651009115
 21
1442.286335304487
 31
0.0
  0
LINE
  5
247
330
1F
100
AcDbEntity
  8
0-F
  6
Continuous
 62
     7
370
     9
100
AcDbLine
 10
-1807.907096510095
 20
1655.286246226151
 30
0.0
 11
-1456.407096510092
 21
1655.286246226151
 31
0.0
  0
LWPOLYLINE
  5
248
330
1F
100
AcDbEntity
  8
0-F
  6
Continuous
 62
     7
370
     9
100
AcDbPolyline
 90
        4
 70
     1
 43
2.0
 10
-1455.407096510092
 20
1655.286246226151
 42
0.4142135623731
 10
-1456.407096510092
 20
1656.286246226151
 42
0.4142135623731
 10
-1457.407096510092
 20
1655.286246226151
 42
0.4142135623731
 10
-1456.407096510092
 20
1654.286246226151
 42
0.4142135623731
  0
TEXT
  5
249
330
1F
100
AcDbEntity
  8
0-F
  6
Continuous
 62
     2
370
   211
100
AcDbText
 10
-1687.157096510093
 20
1665.926246226151
 30
0.0
 40
30.48
  1
351.5
 41
1.1
  7
ＭＳ ゴシック
100
AcDbText
  0
LINE
  5
24A
330
1F
100
AcDbEntity
  8
0-F
  6
Continuous
 62
     7
370
     9
100
AcDbLine
 10
-1456.407096510092
 20
1655.286246226151
 30
0.0
 11
-1454.282096510095
 21
1655.286246226151
 31
0.0
  0
LWPOLYLINE
  5
24B
330
1F
100
AcDbEntity
  8
0-F
  6
Continuous
 62
     7
370
     9
100
AcDbPolyline
 90
        4
 70
     1
 43
2.0
 10
-1453.282096510095
 20
1655.286246226151
 42
0.4142135623731
 10
-1454.282096510095
 20
1656.286246226151
 42
0.4142135623731
 10
-1455.282096510095
 20
1655.286246226151
 42
0.4142135623731
 10
-1454.282096510095
 20
1654.286246226151
 42
0.4142135623731
  0
TEXT
  5
24C
330
1F
100
AcDbEntity
  8
0-F
  6
Continuous
 62
     2
370
   211
100
AcDbText
 10
-1487.844596510093
 20
1665.926246226151
 30
0.0
 40
30.48
  1
2.1
 41
1.083333333333333
  7
ＭＳ ゴシック
100
AcDbText
  0
LINE
  5
24D
330
1F
100
AcDbEntity
  8
0-F
  6
Continuous
 62
     7
370
     9
100
AcDbLine
 10
-1454.282096510095
 20
1655.286246226151
 30
0.0
 11
-1102.782096510091
 21
1655.286246226151
 31
0.0
  0
LWPOLYLINE
  5
24E
330
1F
100
AcDbEntity
  8
0-F
  6
Continuous
 62
     7
370
     9
100
AcDbPolyline
 90
        4
 70
     1
 43
2.0
 10
-1101.782096510092
 20
1655.286246226151
 42
0.4142135623731
 10
-1102.782096510091
 20
1656.286246226151
 42
0.4142135623731
 10
-1103.782096510091
 20
1655.286246226151
 42
0.4142135623731
 10
-1102.782096510091
 20
1654.286246226151
 42
0.4142135623731
  0
TEXT
  5
24F
330
1F
100
AcDbEntity
  8
0-F
  6
Continuous
 62
     2
370
   211
100
AcDbText
 10
-1333.532096510093
 20
1665.926246226151
 30
0.0
 40
30.48
  1
351.5
 41
1.1
  7
ＭＳ ゴシック
100
AcDbText
  0
LINE
  5
250
330
1F
100
AcDbEntity
  8
0-F
  6
Continuous
 62
     7
370
     9
100
AcDbLine
 10
-1102.782096510091
 20
1655.286246226151
 30
0.0
 11
-1100.657096510095
 21
1655.286246226151
 31
0.0
  0
LWPOLYLINE
  5
251
330
1F
100
AcDbEntity
  8
0-F
  6
Continuous
 62
     7
370
     9
100
AcDbPolyline
 90
        4
 70
     1
 43
2.0
 10
-1099.657096510095
 20
1655.286246226151
 42
0.4142135623731
 10
-1100.657096510095
 20
1656.286246226151
 42
0.4142135623731
 10
-1101.657096510095
 20
1655.286246226151
 42
0.4142135623731
 10
-1100.657096510095
 20
1654.286246226151
 42
0.4142135623731
  0
TEXT
  5
252
330
1F
100
AcDbEntity
  8
0-F
  6
Continuous
 62
     2
370
   211
100
AcDbText
 10
-1134.219596510093
 20
1665.926246226151
 30
0.0
 40
30.48
  1
2.1
 41
1.083333333333333
  7
ＭＳ ゴシック
100
AcDbText
  0
LINE
  5
253
330
1F
100
AcDbEntity
  8
0-F
  6
Continuous
 62
     7
370
     9
100
AcDbLine
 10
-1100.657096510095
 20
1655.286246226151
 30
0.0
 11
-749.1570965100914
 21
1655.286246226151
 31
0.0
  0
LWPOLYLINE
  5
254
330
1F
100
AcDbEntity
  8
0-F
  6
Continuous
 62
     7
370
     9
100
AcDbPolyline
 90
        4
 70
     1
 43
2.0
 10
-748.1570965100914
 20
1655.286246226151
 42
0.4142135623731
 10
-749.1570965100914
 20
1656.286246226151
 42
0.4142135623731
 10
-750.1570965100914
 20
1655.286246226151
 42
0.4142135623731
 10
-749.1570965100914
 20
1654.286246226151
 42
0.4142135623731
  0
TEXT
  5
255
330
1F
100
AcDbEntity
  8
0-F
  6
Continuous
 62
     2
370
   211
100
AcDbText
 10
-979.9070965100932
 20
1665.926246226151
 30
0.0
 40
30.48
  1
351.5
 41
1.1
  7
ＭＳ ゴシック
100
AcDbText
  0
LINE
  5
256
330
1F
100
AcDbEntity
  8
0-F
  6
Continuous
 62
     7
370
     9
100
AcDbLine
 10
-749.1570965100914
 20
1655.286246226151
 30
0.0
 11
-747.032096510095
 21
1655.286246226151
 31
0.0
  0
LWPOLYLINE
  5
257
330
1F
100
AcDbEntity
  8
0-F
  6
Continuous
 62
     7
370
     9
100
AcDbPolyline
 90
        4
 70
     1
 43
2.0
 10
-746.032096510095
 20
1655.286246226151
 42
0.4142135623731
 10
-747.032096510095
 20
1656.286246226151
 42
0.4142135623731
 10
-748.032096510095
 20
1655.286246226151
 42
0.4142135623731
 10
-747.032096510095
 20
1654.286246226151
 42
0.4142135623731
  0
TEXT
  5
258
330
1F
100
AcDbEntity
  8
0-F
  6
Continuous
 62
     2
370
   211
100
AcDbText
 10
-780.5945965100932
 20
1665.926246226151
 30
0.0
 40
30.48
  1
2.1
 41
1.083333333333333
  7
ＭＳ ゴシック
100
AcDbText
  0
LINE
  5
259
330
1F
100
AcDbEntity
  8
0-F
  6
Continuous
 62
     7
370
     9
100
AcDbLine
 10
-747.032096510095
 20
1655.286246226151
 30
0.0
 11
-395.5320965100913
 21
1655.286246226151
 31
0.0
  0
LWPOLYLINE
  5
25A
330
1F
100
AcDbEntity
  8
0-F
  6
Continuous
 62
     7
370
     9
100
AcDbPolyline
 90
        4
 70
     1
 43
2.0
 10
-394.5320965100913
 20
1655.286246226151
 42
0.4142135623731
 10
-395.5320965100913
 20
1656.286246226151
 42
0.4142135623731
 10
-396.5320965100913
 20
1655.286246226151
 42
0.4142135623731
 10
-395.5320965100913
 20
1654.286246226151
 42
0.4142135623731
  0
TEXT
  5
25B
330
1F
100
AcDbEntity
  8
0-F
  6
Continuous
 62
     2
370
   211
100
AcDbText
 10
-626.2820965100932
 20
1665.926246226151
 30
0.0
 40
30.48
  1
351.5
 41
1.1
  7
ＭＳ ゴシック
100
AcDbText
  0
LINE
  5
25C
330
1F
100
AcDbEntity
  8
0-F
  6
Continuous
 62
     7
370
     9
100
AcDbLine
 10
-395.5320965100913
 20
1655.286246226151
 30
0.0
 11
-393.4070965100949
 21
1655.286246226151
 31
0.0
  0
LWPOLYLINE
  5
25D
330
1F
100
AcDbEntity
  8
0-F
  6
Continuous
 62
     7
370
     9
100
AcDbPolyline
 90
        4
 70
     1
 43
2.0
 10
-392.4070965100949
 20
1655.286246226151
 42
0.4142135623731
 10
-393.4070965100949
 20
1656.286246226151
 42
0.4142135623731
 10
-394.4070965100949
 20
1655.286246226151
 42
0.4142135623731
 10
-393.4070965100949
 20
1654.286246226151
 42
0.4142135623731
  0
TEXT
  5
25E
330
1F
100
AcDbEntity
  8
0-F
  6
Continuous
 62
     2
370
   211
100
AcDbText
 10
-426.9695965100931
 20
1665.926246226151
 30
0.0
 40
30.48
  1
2.1
 41
1.083333333333333
  7
ＭＳ ゴシック
100
AcDbText
  0
LINE
  5
25F
330
1F
100
AcDbEntity
  8
0-F
  6
Continuous
 62
     7
370
     9
100
AcDbLine
 10
-393.4070965100949
 20
1655.286246226151
 30
0.0
 11
-41.9069777389808
 21
1655.286246226151
 31
0.0
  0
TEXT
  5
260
330
1F
100
AcDbEntity
  8
0-F
  6
Continuous
 62
     2
370
   211
100
AcDbText
 10
-272.6570371245379
 20
1665.926246226151
 30
0.0
 40
30.48
  1
351.5
 41
1.1
  7
ＭＳ ゴシック
100
AcDbText
  0
LINE
  5
261
330
1F
100
AcDbEntity
  8
0-F
  6
Continuous
 62
     7
370
     9
100
AcDbLine
 10
-1456.407096510092
 20
1658.286246226151
 30
0.0
 11
-1456.407096510092
 21
1590.428561527531
 31
0.0
  0
LINE
  5
262
330
1F
100
AcDbEntity
  8
0-F
  6
Continuous
 62
     7
370
     9
100
AcDbLine
 10
-1454.282096510095
 20
1658.286246226151
 30
0.0
 11
-1454.282096510095
 21
1590.428561527531
 31
0.0
  0
LINE
  5
263
330
1F
100
AcDbEntity
  8
0-F
  6
Continuous
 62
     7
370
     9
100
AcDbLine
 10
-1102.782096510091
 20
1658.286246226151
 30
0.0
 11
-1102.782096510091
 21
1590.428561527531
 31
0.0
  0
LINE
  5
264
330
1F
100
AcDbEntity
  8
0-F
  6
Continuous
 62
     7
370
     9
100
AcDbLine
 10
-1100.657096510095
 20
1658.286246226151
 30
0.0
 11
-1100.657096510095
 21
1590.428561527531
 31
0.0
  0
LINE
  5
265
330
1F
100
AcDbEntity
  8
0-F
  6
Continuous
 62
     7
370
     9
100
AcDbLine
 10
-749.1570965100914
 20
1658.286246226151
 30
0.0
 11
-749.1570965100914
 21
1590.428561527531
 31
0.0
  0
LINE
  5
266
330
1F
100
AcDbEntity
  8
0-F
  6
Continuous
 62
     7
370
     9
100
AcDbLine
 10
-747.032096510095
 20
1658.286246226151
 30
0.0
 11
-747.032096510095
 21
1590.428561527531
 31
0.0
  0
LINE
  5
267
330
1F
100
AcDbEntity
  8
0-F
  6
Continuous
 62
     7
370
     9
100
AcDbLine
 10
-395.5320965100913
 20
1658.286246226151
 30
0.0
 11
-395.5320965100913
 21
1590.428561527531
 31
0.0
  0
LINE
  5
268
330
1F
100
AcDbEntity
  8
0-F
  6
Continuous
 62
     7
370
     9
100
AcDbLine
 10
-393.4070965100949
 20
1658.286246226151
 30
0.0
 11
-393.4070965100949
 21
1590.428561527531
 31
0.0
  0
TEXT
  5
269
330
1F
100
AcDbEntity
  8
0-F
  6
Continuous
 62
     2
370
   211
100
AcDbText
 10
-968.6570371245384
 20
1576.925454418718
 30
0.0
 40
30.48
  1
1700
 41
1.09375
  7
ＭＳ ゴシック
100
AcDbText
  0
LINE
  5
26A
330
1F
100
AcDbEntity
  8
0-F
  6
Continuous
 62
     7
370
     9
100
AcDbLine
 10
-1617.233097420129
 20
1455.286176943
 30
0.0
 11
-1617.233097420129
 21
1355.286548102729
 31
0.0
  0
LWPOLYLINE
  5
26B
330
1F
100
AcDbEntity
  8
0-F
  6
Continuous
 62
     7
370
     9
100
AcDbPolyline
 90
        4
 70
     1
 43
2.0
 10
-1616.233097420129
 20
1355.286548102729
 42
0.4142135623731
 10
-1617.233097420129
 20
1356.286548102729
 42
0.4142135623731
 10
-1618.233097420129
 20
1355.286548102729
 42
0.4142135623731
 10
-1617.233097420129
 20
1354.28654810273
 42
0.4142135623731
  0
LWPOLYLINE
  5
26C
330
1F
100
AcDbEntity
  8
0-F
  6
Continuous
 62
     7
370
     9
100
AcDbPolyline
 90
        4
 70
     1
 43
2.0
 10
-1616.233097420129
 20
1455.286176943
 42
0.4142135623731
 10
-1617.233097420129
 20
1456.286176942999
 42
0.4142135623731
 10
-1618.233097420129
 20
1455.286176943
 42
0.4142135623731
 10
-1617.233097420129
 20
1454.286176943
 42
0.4142135623731
  0
TEXT
  5
26D
330
1F
100
AcDbEntity
  8
0-F
  6
Continuous
 62
     2
370
   211
100
AcDbText
 10
-1627.873097420129
 20
1360.374607297686
 30
0.0
 40
30.48
  1
100
 50
90.0
 41
1.083333333333333
  7
ＭＳ ゴシック
100
AcDbText
  0
LINE
  5
26E
330
1F
100
AcDbEntity
  8
寸法
  6
Continuous
 62
     4
370
     9
100
AcDbLine
 10
-340.6572202300026
 20
1190.979045700257
 30
0.0
 11
-315.8710986956578
 21
1194.242200505759
 31
0.0
  0
LINE
  5
26F
330
1F
100
AcDbEntity
  8
寸法
  6
Continuous
 62
     4
370
     9
100
AcDbLine
 10
-340.6572202300026
 20
1190.979045700257
 30
0.0
 11
-315.8710986956578
 21
1187.715890894756
 31
0.0
  0
LINE
  5
270
330
1F
100
AcDbEntity
  8
寸法
  6
Continuous
 62
     4
370
     9
100
AcDbLine
 10
-340.6572202300026
 20
1190.979045700257
 30
0.0
 11
-293.1918175380667
 21
1190.979045700257
 31
0.0
  0
TEXT
  5
271
330
1F
100
AcDbEntity
  8
寸法
  6
Continuous
 62
     2
370
     9
100
AcDbText
 10
-285.6263693537258
 20
1176.223488017091
 30
0.0
 40
30.48
  1
A
 41
0.9999999999999998
  7
ＭＳ ゴシック
100
AcDbText
  0
LINE
  5
272
330
1F
100
AcDbEntity
  8
寸法
  6
JWW_CENTER1
 62
     4
370
     9
100
AcDbLine
 10
-342.6572202300031
 20
1190.979045700257
 30
0.0
 11
-342.6572202300031
 21
1506.103058164076
 31
0.0
  0
LINE
  5
273
330
1F
100
AcDbEntity
  8
寸法
  6
Continuous
 62
     4
370
     9
100
AcDbLine
 10
-340.6572202300026
 20
1526.103058164076
 30
0.0
 11
-315.8710986956578
 21
1529.366212969576
 31
0.0
  0
LINE
  5
274
330
1F
100
AcDbEntity
  8
寸法
  6
Continuous
 62
     4
370
     9
100
AcDbLine
 10
-340.6572202300026
 20
1526.103058164076
 30
0.0
 11
-315.8710986956578
 21
1522.839903358574
 31
0.0
  0
LINE
  5
275
330
1F
100
AcDbEntity
  8
寸法
  6
Continuous
 62
     4
370
     9
100
AcDbLine
 10
-340.6572202300026
 20
1526.103058164076
 30
0.0
 11
-293.1918175380667
 21
1526.103058164076
 31
0.0
  0
TEXT
  5
276
330
1F
100
AcDbEntity
  8
寸法
  6
Continuous
 62
     2
370
     9
100
AcDbText
 10
-285.6263693537258
 20
1511.34750048091
 30
0.0
 40
30.48
  1
A
 41
0.9999999999999998
  7
ＭＳ ゴシック
100
AcDbText
  0
LINE
  5
277
330
1F
100
AcDbEntity
  8
寸法
  6
Continuous
 62
     7
370
     9
100
AcDbLine
 10
-1207.433517309558
 20
-362.4894600996015
 30
0.0
 11
-642.380433219608
 21
-362.4894600996015
 31
0.0
  0
TEXT
  5
278
330
1F
100
AcDbEntity
  8
寸法
  6
Continuous
 62
     2
370
     9
100
AcDbText
 10
-1192.406975264583
 20
-347.0449045675067
 30
0.0
 40
30.48
  1
平面詳細図　Ｓ＝１：１０
 41
1.114583333333334
  7
ＭＳ ゴシック
100
AcDbText
  0
LINE
  5
279
330
1F
100
AcDbEntity
  8
0-E
  6
Continuous
 62
     3
370
     9
100
AcDbLine
 10
-1855.106921240224
 20
43.28622313176695
 30
0.0
 11
-1855.106921240224
 21
83.28622313176695
 31
0.0
  0
LINE
  5
27A
330
1F
100
AcDbEntity
  8
0-E
  6
Continuous
 62
     3
370
     9
100
AcDbLine
 10
-1855.106921240224
 20
43.28622313176695
 30
0.0
 11
-1820.90696619179
 21
43.28622313176695
 31
0.0
  0
LINE
  5
27B
330
1F
100
AcDbEntity
  8
0-E
  6
Continuous
 62
     3
370
     9
100
AcDbLine
 10
-1855.106921240224
 20
83.28622313176695
 30
0.0
 11
-1820.90696619179
 21
83.28622313176695
 31
0.0
  0
CIRCLE
  5
27C
330
1F
100
AcDbEntity
  8
0-E
  6
Continuous
 62
     3
370
     9
100
AcDbCircle
 10
-1840.106921240224
 20
63.28622313176695
 30
0.0
 40
6.999999999998181
  0
LINE
  5
27D
330
1F
100
AcDbEntity
  8
0-E
  6
JWW_CENTER1
 62
     3
370
     9
100
AcDbLine
 10
-1862.079920266495
 20
63.28622313176695
 30
0.0
 11
-1820.90696619179
 21
63.28622313176695
 31
0.0
  0
LINE
  5
27E
330
1F
100
AcDbEntity
  8
0-E
  6
JWW_CENTER1
 62
     3
370
     9
100
AcDbLine
 10
-1840.106921240224
 20
87.66346459497456
 30
0.0
 11
-1840.106921240224
 21
38.90898166856047
 31
0.0
  0
LINE
  5
27F
330
1F
100
AcDbEntity
  8
0-E
  6
Continuous
 62
     3
370
     9
100
AcDbLine
 10
-1700.907028051741
 20
-70.91367005671216
 30
0.0
 11
-1740.907028051741
 21
-70.91367005671216
 31
0.0
  0
LINE
  5
280
330
1F
100
AcDbEntity
  8
0-E
  6
Continuous
 62
     3
370
     9
100
AcDbLine
 10
-1700.907028051741
 20
-70.91367005671216
 30
0.0
 11
-1700.907028051741
 21
-36.71371500827789
 31
0.0
  0
LINE
  5
281
330
1F
100
AcDbEntity
  8
0-E
  6
Continuous
 62
     3
370
     9
100
AcDbLine
 10
-1740.907028051741
 20
-70.91367005671216
 30
0.0
 11
-1740.907028051741
 21
-36.71371500827789
 31
0.0
  0
CIRCLE
  5
282
330
1F
100
AcDbEntity
  8
0-E
  6
Continuous
 62
     3
370
     9
100
AcDbCircle
 10
-1720.907028051741
 20
-55.91367005671216
 30
0.0
 40
6.999999999998181
  0
LINE
  5
283
330
1F
100
AcDbEntity
  8
0-E
  6
JWW_CENTER1
 62
     3
370
     9
100
AcDbLine
 10
-1720.907028051741
 20
-77.88666908298254
 30
0.0
 11
-1720.907028051741
 21
-36.71371500827789
 31
0.0
  0
LINE
  5
284
330
1F
100
AcDbEntity
  8
0-E
  6
JWW_CENTER1
 62
     3
370
     9
100
AcDbLine
 10
-1745.284269514948
 20
-55.91367005671216
 30
0.0
 11
-1696.529786588533
 21
-55.91367005671216
 31
0.0
  0
LINE
  5
285
330
1F
100
AcDbEntity
  8
0-F
  6
Continuous
 62
     7
370
     9
100
AcDbLine
 10
-1720.906613997079
 20
-100.2242785626784
 30
0.0
 11
-1720.906613997079
 21
-203.0805589152961
 31
0.0
  0
LINE
  5
286
330
1F
100
AcDbEntity
  8
0-F
  6
Continuous
 62
     7
370
     9
100
AcDbLine
 10
-1820.906943916843
 20
-62.92470481901276
 30
0.0
 11
-1820.906943916843
 21
-203.0805589152961
 31
0.0
  0
LWPOLYLINE
  5
287
330
1F
100
AcDbEntity
  8
0-F
  6
Continuous
 62
     7
370
     9
100
AcDbPolyline
 90
        4
 70
     1
 43
2.0
 10
-1819.906943916843
 20
-198.0805424193086
 42
0.4142135623731
 10
-1820.906943916843
 20
-197.0805424193086
 42
0.4142135623731
 10
-1821.906943916843
 20
-198.0805424193086
 42
0.4142135623731
 10
-1820.906943916843
 20
-199.0805424193086
 42
0.4142135623731
  0
LINE
  5
288
330
1F
100
AcDbEntity
  8
0-F
  6
Continuous
 62
     7
370
     9
100
AcDbLine
 10
-1855.107191864428
 20
-203.0805424193086
 30
0.0
 11
-1855.107191864428
 21
12.07542714889243
 31
0.0
  0
LINE
  5
289
330
1F
100
AcDbEntity
  8
0-F
  6
Continuous
 62
     7
370
     9
100
AcDbLine
 10
-1855.107191864428
 20
-198.0805424193086
 30
0.0
 11
-1820.906943916843
 21
-198.0805424193086
 31
0.0
  0
LWPOLYLINE
  5
28A
330
1F
100
AcDbEntity
  8
0-F
  6
Continuous
 62
     7
370
     9
100
AcDbPolyline
 90
        4
 70
     1
 43
2.0
 10
-1854.107191864428
 20
-198.0805424193086
 42
0.4142135623731
 10
-1855.107191864428
 20
-197.0805424193086
 42
0.4142135623731
 10
-1856.107191864428
 20
-198.0805424193086
 42
0.4142135623731
 10
-1855.107191864428
 20
-199.0805424193086
 42
0.4142135623731
  0
LINE
  5
28B
330
1F
100
AcDbEntity
  8
0-F
  6
Continuous
 62
     7
370
     9
100
AcDbLine
 10
-1820.906943916843
 20
-198.0805424193086
 30
0.0
 11
-1720.906613997079
 21
-198.0805424193086
 31
0.0
  0
LWPOLYLINE
  5
28C
330
1F
100
AcDbEntity
  8
0-F
  6
Continuous
 62
     7
370
     9
100
AcDbPolyline
 90
        4
 70
     1
 43
2.0
 10
-1719.906613997079
 20
-198.0805424193086
 42
0.4142135623731
 10
-1720.906613997079
 20
-197.0805424193086
 42
0.4142135623731
 10
-1721.906613997079
 20
-198.0805424193086
 42
0.4142135623731
 10
-1720.906613997079
 20
-199.0805424193086
 42
0.4142135623731
  0
TEXT
  5
28D
330
1F
100
AcDbEntity
  8
0-F
  6
Continuous
 62
     2
370
   211
100
AcDbText
 10
-1803.406778956961
 20
-186.4405424193084
 30
0.0
 40
30.48
  1
100
 41
1.083333333333333
  7
ＭＳ ゴシック
100
AcDbText
  0
TEXT
  5
28E
330
1F
100
AcDbEntity
  8
0-F
  6
Continuous
 62
     2
370
   211
100
AcDbText
 10
-1859.257067890635
 20
-256.6621178785002
 30
0.0
 40
30.48
  1
34
 41
1.0625
  7
ＭＳ ゴシック
100
AcDbText
  0
LINE
  5
28F
330
1F
100
AcDbEntity
  8
建具
  6
Continuous
 62
     2
370
     9
100
AcDbLine
 10
-1808.907000833363
 20
-24.71368778989998
 30
0.0
 11
-1820.90696619179
 21
-36.71377686823305
 31
0.0
  0
LINE
  5
290
330
1F
100
AcDbEntity
  8
0-E
  6
Continuous
 62
     3
370
     9
100
AcDbLine
 10
-108.9069224774202
 20
-70.91367005671216
 30
0.0
 11
-148.9069224774202
 21
-70.91367005671216
 31
0.0
  0
LINE
  5
291
330
1F
100
AcDbEntity
  8
0-E
  6
Continuous
 62
     3
370
     9
100
AcDbLine
 10
-108.9069224774202
 20
-70.91367005671216
 30
0.0
 11
-108.9069224774202
 21
-36.71371500827789
 31
0.0
  0
LINE
  5
292
330
1F
100
AcDbEntity
  8
0-E
  6
Continuous
 62
     3
370
     9
100
AcDbLine
 10
-148.9069224774202
 20
-70.91367005671216
 30
0.0
 11
-148.9069224774202
 21
-36.71371500827789
 31
0.0
  0
CIRCLE
  5
293
330
1F
100
AcDbEntity
  8
0-E
  6
Continuous
 62
     3
370
     9
100
AcDbCircle
 10
-128.9069224774202
 20
-55.91367005671216
 30
0.0
 40
6.999999999998181
  0
LINE
  5
294
330
1F
100
AcDbEntity
  8
0-E
  6
JWW_CENTER1
 62
     3
370
     9
100
AcDbLine
 10
-128.9069224774202
 20
-77.88666908298254
 30
0.0
 11
-128.9069224774202
 21
-36.71371500827789
 31
0.0
  0
LINE
  5
295
330
1F
100
AcDbEntity
  8
0-E
  6
JWW_CENTER1
 62
     3
370
     9
100
AcDbLine
 10
-153.2841639406278
 20
-55.91367005671216
 30
0.0
 11
-104.5296810142126
 21
-55.91367005671216
 31
0.0
  0
LINE
  5
296
330
1F
100
AcDbEntity
  8
0-E
  6
Continuous
 62
     3
370
     9
100
AcDbLine
 10
5.292970711058871
 20
83.2862231317715
 30
0.0
 11
5.292970711058871
 21
43.28622313177149
 31
0.0
  0
LINE
  5
297
330
1F
100
AcDbEntity
  8
0-E
  6
Continuous
 62
     3
370
     9
100
AcDbLine
 10
5.292970711058871
 20
83.2862231317715
 30
0.0
 11
-28.90698433737541
 21
83.2862231317715
 31
0.0
  0
LINE
  5
298
330
1F
100
AcDbEntity
  8
0-E
  6
Continuous
 62
     3
370
     9
100
AcDbLine
 10
5.292970711058871
 20
43.28622313177149
 30
0.0
 11
-28.90698433737541
 21
43.28622313177149
 31
0.0
  0
CIRCLE
  5
299
330
1F
100
AcDbEntity
  8
0-E
  6
Continuous
 62
     3
370
     9
100
AcDbCircle
 10
-9.70702928894113
 20
63.28622313177149
 30
0.0
 40
6.999999999998181
  0
LINE
  5
29A
330
1F
100
AcDbEntity
  8
0-E
  6
JWW_CENTER1
 62
     3
370
     9
100
AcDbLine
 10
12.26596973732924
 20
63.28622313177149
 30
0.0
 11
-28.90698433737541
 21
63.28622313177149
 31
0.0
  0
LINE
  5
29B
330
1F
100
AcDbEntity
  8
0-E
  6
JWW_CENTER1
 62
     3
370
     9
100
AcDbLine
 10
-9.70702928894113
 20
38.90898166856388
 30
0.0
 11
-9.70702928894113
 21
87.66346459497797
 31
0.0
  0
LINE
  5
29C
330
1F
100
AcDbEntity
  8
0-F
  6
Continuous
 62
     7
370
     9
100
AcDbLine
 10
-128.906425942814
 20
-96.85241609962944
 30
0.0
 11
-128.9053124636119
 21
-203.0805589152961
 31
0.0
  0
LWPOLYLINE
  5
29D
330
1F
100
AcDbEntity
  8
0-F
  6
Continuous
 62
     7
370
     9
100
AcDbPolyline
 90
        4
 70
     1
 43
2.0
 10
-27.90535370358222
 20
-198.079552660018
 42
0.4142135623731
 10
-28.90535370358222
 20
-197.079552660018
 42
0.4142135623731
 10
-29.90535370358222
 20
-198.079552660018
 42
0.4142135623731
 10
-28.90535370358222
 20
-199.079552660018
 42
0.4142135623731
  0
LINE
  5
29E
330
1F
100
AcDbEntity
  8
0-F
  6
Continuous
 62
     7
370
     9
100
AcDbLine
 10
5.293162165244922
 20
-203.079552660018
 30
0.0
 11
5.293162165244922
 21
12.07542714889243
 31
0.0
  0
LWPOLYLINE
  5
29F
330
1F
100
AcDbEntity
  8
0-F
  6
Continuous
 62
     7
370
     9
100
AcDbPolyline
 90
        4
 70
     1
 43
2.0
 10
-127.9053124636119
 20
-198.0805424193086
 42
0.4142135623731
 10
-128.9053124636119
 20
-197.0805424193086
 42
0.4142135623731
 10
-129.9053124636119
 20
-198.0805424193086
 42
0.4142135623731
 10
-128.9053124636119
 20
-199.0805424193086
 42
0.4142135623731
  0
LINE
  5
2A0
330
1F
100
AcDbEntity
  8
0-F
  6
Continuous
 62
     7
370
     9
100
AcDbLine
 10
-128.9053124636119
 20
-198.0805424193086
 30
0.0
 11
-28.90535370358222
 21
-198.0805424193086
 31
0.0
  0
TEXT
  5
2A1
330
1F
100
AcDbEntity
  8
0-F
  6
Continuous
 62
     2
370
   211
100
AcDbText
 10
-111.4053330835971
 20
-186.4405424193084
 30
0.0
 40
30.48
  1
100
 41
1.083333333333333
  7
ＭＳ ゴシック
100
AcDbText
  0
LINE
  5
2A2
330
1F
100
AcDbEntity
  8
0-F
  6
Continuous
 62
     7
370
     9
100
AcDbLine
 10
-28.90535370358222
 20
-198.0805424193086
 30
0.0
 11
5.293162165245207
 21
-198.0805424193086
 31
0.0
  0
LWPOLYLINE
  5
2A3
330
1F
100
AcDbEntity
  8
0-F
  6
Continuous
 62
     7
370
     9
100
AcDbPolyline
 90
        4
 70
     1
 43
2.0
 10
6.293162165245207
 20
-198.0805424193086
 42
0.4142135623731
 10
5.293162165245207
 20
-197.0805424193086
 42
0.4142135623731
 10
4.293162165245207
 20
-198.0805424193086
 42
0.4142135623731
 10
5.293162165245207
 20
-199.0805424193086
 42
0.4142135623731
  0
LINE
  5
2A4
330
1F
100
AcDbEntity
  8
0-F
  6
Continuous
 62
     7
370
     9
100
AcDbLine
 10
-28.9067146226067
 20
-62.92458109910129
 30
0.0
 11
-28.90522998440801
 21
-203.0794996307277
 31
0.0
  0
TEXT
  5
2A5
330
1F
100
AcDbEntity
  8
0-F
  6
Continuous
 62
     2
370
   211
100
AcDbText
 10
-33.05609576916865
 20
-256.6621178785002
 30
0.0
 40
30.48
  1
34
 41
1.0625
  7
ＭＳ ゴシック
100
AcDbText
  0
LINE
  5
2A6
330
1F
100
AcDbEntity
  8
建具
  6
Continuous
 62
     2
370
     9
100
AcDbLine
 10
-40.90682597588781
 20
-24.71368778989998
 30
0.0
 11
-28.90698433737541
 21
-36.71377686823305
 31
0.0
  0
LINE
  5
2A7
330
1F
100
AcDbEntity
  8
0-F
  6
Continuous
 62
     7
370
     9
100
AcDbLine
 10
96.07695987157143
 20
-36.71377686823305
 30
0.0
 11
96.07695987157143
 21
63.28655305153049
 31
0.0
  0
LINE
  5
2A8
330
1F
100
AcDbEntity
  8
0-F
  6
Continuous
 62
     7
370
     9
100
AcDbLine
 10
-13.90699670936712
 20
-36.71377686823305
 30
0.0
 11
101.07697636756
 21
-36.71377686823305
 31
0.0
  0
LINE
  5
2A9
330
1F
100
AcDbEntity
  8
0-F
  6
Continuous
 62
     7
370
     9
100
AcDbLine
 10
26.60892356882172
 20
63.28655305153049
 30
0.0
 11
101.07697636756
 21
63.28655305153049
 31
0.0
  0
TEXT
  5
2AA
330
1F
100
AcDbEntity
  8
0-F
  6
Continuous
 62
     2
370
     9
100
AcDbText
 10
84.43697719235892
 20
-19.21358097837313
 30
0.0
 40
30.48
  1
100
 50
90.0
 41
1.083333333333333
  7
ＭＳ ゴシック
100
AcDbText
  0
LWPOLYLINE
  5
2AB
330
1F
100
AcDbEntity
  8
0-F
  6
Continuous
 62
     7
370
     9
100
AcDbPolyline
 90
        4
 70
     1
 43
2.0
 10
97.07695987157143
 20
-36.71377686823305
 42
0.4142135623731
 10
96.07695987157143
 20
-35.71377686823305
 42
0.4142135623731
 10
95.07695987157143
 20
-36.71377686823305
 42
0.4142135623731
 10
96.07695987157143
 20
-37.71377686823305
 42
0.4142135623731
  0
LWPOLYLINE
  5
2AC
330
1F
100
AcDbEntity
  8
0-F
  6
Continuous
 62
     7
370
     9
100
AcDbPolyline
 90
        4
 70
     1
 43
2.0
 10
97.07695987157143
 20
63.28655305153049
 42
0.4142135623731
 10
96.07695987157143
 20
64.28655305153049
 42
0.4142135623731
 10
95.07695987157143
 20
63.28655305153049
 42
0.4142135623731
 10
96.07695987157143
 20
62.28655305153049
 42
0.4142135623731
  0
LINE
  5
2AD
330
1F
100
AcDbEntity
  8
0-F
  6
Continuous
 62
     7
370
     9
100
AcDbLine
 10
96.07695987157143
 20
-36.71377686823305
 30
0.0
 11
96.07695987157143
 21
-70.91402481581966
 31
0.0
  0
LWPOLYLINE
  5
2AE
330
1F
100
AcDbEntity
  8
0-F
  6
Continuous
 62
     7
370
     9
100
AcDbPolyline
 90
        4
 70
     1
 43
2.0
 10
97.07695987157143
 20
-70.91402481581966
 42
0.4142135623731
 10
96.07695987157143
 20
-69.91402481581966
 42
0.4142135623731
 10
95.07695987157143
 20
-70.91402481581966
 42
0.4142135623731
 10
96.07695987157143
 20
-71.91402481581966
 42
0.4142135623731
  0
LINE
  5
2AF
330
1F
100
AcDbEntity
  8
0-F
  6
Continuous
 62
     7
370
     9
100
AcDbLine
 10
101.0769598715714
 20
-70.91402481581966
 30
0.0
 11
-88.90694309740681
 21
-70.91402481581966
 31
0.0
  0
TEXT
  5
2B0
330
1F
100
AcDbEntity
  8
0-F
  6
Continuous
 62
     2
370
   211
100
AcDbText
 10
84.43697719235892
 20
-128.8657291598203
 30
0.0
 40
30.48
  1
34
 50
90.0
 41
1.0625
  7
ＭＳ ゴシック
100
AcDbText
  0
LINE
  5
2B1
330
1F
100
AcDbEntity
  8
0-F
  6
Continuous
 62
     7
370
     9
100
AcDbLine
 10
96.07695987157143
 20
-70.91402481581966
 30
0.0
 11
96.07695987157143
 21
-128.8657291598203
 31
0.0
  0
LINE
  5
2B2
330
1F
100
AcDbEntity
  8
躯体
  6
JWW_DASHED2
 62
     2
370
     9
100
AcDbLine
 10
-74.9069134046276
 20
9.286275918929476
 30
0.0
 11
-1774.907037124538
 21
9.286275918929476
 31
0.0
  0
LINE
  5
2B3
330
1F
100
AcDbEntity
  8
建具
  6
Continuous
 62
     2
370
     9
100
AcDbLine
 10
-40.90682597588781
 20
-24.71368778989998
 30
0.0
 11
-1808.907000833363
 21
-24.71368778989998
 31
0.0
  0
LINE
  5
2B4
330
1F
100
AcDbEntity
  8
建具
  6
Continuous
 62
     2
370
     9
100
AcDbLine
 10
-28.90698433737541
 20
-36.71377686823305
 30
0.0
 11
-1820.90696619179
 21
-36.71377686823305
 31
0.0
  0
LINE
  5
2B5
330
1F
100
AcDbEntity
  8
0-E
  6
Continuous
 62
     3
370
     9
100
AcDbLine
 10
-1170.407028051741
 20
-70.91367005671216
 30
0.0
 11
-1210.407028051741
 21
-70.91367005671216
 31
0.0
  0
LINE
  5
2B6
330
1F
100
AcDbEntity
  8
0-E
  6
Continuous
 62
     3
370
     9
100
AcDbLine
 10
-1170.407028051741
 20
-70.91367005671216
 30
0.0
 11
-1170.407028051741
 21
-36.71371500827789
 31
0.0
  0
LINE
  5
2B7
330
1F
100
AcDbEntity
  8
0-E
  6
Continuous
 62
     3
370
     9
100
AcDbLine
 10
-1210.407028051741
 20
-70.91367005671216
 30
0.0
 11
-1210.407028051741
 21
-36.71371500827789
 31
0.0
  0
CIRCLE
  5
2B8
330
1F
100
AcDbEntity
  8
0-E
  6
Continuous
 62
     3
370
     9
100
AcDbCircle
 10
-1190.407028051741
 20
-55.91367005671216
 30
0.0
 40
6.999999999998181
  0
LINE
  5
2B9
330
1F
100
AcDbEntity
  8
0-E
  6
JWW_CENTER1
 62
     3
370
     9
100
AcDbLine
 10
-1190.407028051741
 20
-77.88666908298254
 30
0.0
 11
-1190.407028051741
 21
-36.71371500827789
 31
0.0
  0
LINE
  5
2BA
330
1F
100
AcDbEntity
  8
0-E
  6
JWW_CENTER1
 62
     3
370
     9
100
AcDbLine
 10
-1214.784269514949
 20
-55.91367005671216
 30
0.0
 11
-1166.029786588533
 21
-55.91367005671216
 31
0.0
  0
LINE
  5
2BB
330
1F
100
AcDbEntity
  8
0-E
  6
Continuous
 62
     3
370
     9
100
AcDbLine
 10
-639.4069224774203
 20
-70.91367005671216
 30
0.0
 11
-679.4069224774203
 21
-70.91367005671216
 31
0.0
  0
LINE
  5
2BC
330
1F
100
AcDbEntity
  8
0-E
  6
Continuous
 62
     3
370
     9
100
AcDbLine
 10
-639.4069224774203
 20
-70.91367005671216
 30
0.0
 11
-639.4069224774203
 21
-36.71371500827789
 31
0.0
  0
LINE
  5
2BD
330
1F
100
AcDbEntity
  8
0-E
  6
Continuous
 62
     3
370
     9
100
AcDbLine
 10
-679.4069224774203
 20
-70.91367005671216
 30
0.0
 11
-679.4069224774203
 21
-36.71371500827789
 31
0.0
  0
CIRCLE
  5
2BE
330
1F
100
AcDbEntity
  8
0-E
  6
Continuous
 62
     3
370
     9
100
AcDbCircle
 10
-659.4069224774203
 20
-55.91367005671216
 30
0.0
 40
6.999999999998181
  0
LINE
  5
2BF
330
1F
100
AcDbEntity
  8
0-E
  6
JWW_CENTER1
 62
     3
370
     9
100
AcDbLine
 10
-659.4069224774203
 20
-77.88666908298254
 30
0.0
 11
-659.4069224774203
 21
-36.71371500827789
 31
0.0
  0
LINE
  5
2C0
330
1F
100
AcDbEntity
  8
0-E
  6
JWW_CENTER1
 62
     3
370
     9
100
AcDbLine
 10
-683.7841639406279
 20
-55.91367005671216
 30
0.0
 11
-635.0296810142127
 21
-55.91367005671216
 31
0.0
  0
LWPOLYLINE
  5
2C1
330
1F
100
AcDbEntity
  8
0-F
  6
Continuous
 62
     7
370
     9
100
AcDbPolyline
 90
        4
 70
     1
 43
2.0
 10
-658.4069224774203
 20
-198.0805424193086
 42
0.4142135623731
 10
-659.4069224774203
 20
-197.0805424193086
 42
0.4142135623731
 10
-660.4069224774202
 20
-198.0805424193086
 42
0.4142135623731
 10
-659.4069224774203
 20
-199.0805424193086
 42
0.4142135623731
  0
LINE
  5
2C2
330
1F
100
AcDbEntity
  8
0-F
  6
Continuous
 62
     7
370
     9
100
AcDbLine
 10
-659.4069224774203
 20
-201.0805424193086
 30
0.0
 11
-659.4069224774203
 21
-97.88666908298254
 31
0.0
  0
LWPOLYLINE
  5
2C3
330
1F
100
AcDbEntity
  8
0-F
  6
Continuous
 62
     7
370
     9
100
AcDbPolyline
 90
        4
 70
     1
 43
2.0
 10
-1189.407028051741
 20
-198.0805424193086
 42
0.4142135623731
 10
-1190.407028051741
 20
-197.0805424193086
 42
0.4142135623731
 10
-1191.407028051741
 20
-198.0805424193086
 42
0.4142135623731
 10
-1190.407028051741
 20
-199.0805424193086
 42
0.4142135623731
  0
LINE
  5
2C4
330
1F
100
AcDbEntity
  8
0-F
  6
Continuous
 62
     7
370
     9
100
AcDbLine
 10
-1190.407028051741
 20
-201.0805424193086
 30
0.0
 11
-1190.407028051741
 21
-97.88666908298254
 31
0.0
  0
LINE
  5
2C5
330
1F
100
AcDbEntity
  8
0-F
  6
Continuous
 62
     7
370
     9
100
AcDbLine
 10
-1789.907086612503
 20
9.286275918929476
 30
0.0
 11
-1916.530928433815
 21
9.286275918929476
 31
0.0
  0
LWPOLYLINE
  5
2C6
330
1F
100
AcDbEntity
  8
0-F
  6
Continuous
 62
     7
370
     9
100
AcDbPolyline
 90
        4
 70
     1
 43
2.0
 10
-1910.530911937826
 20
9.286275918929476
 42
0.4142135623731
 10
-1911.530911937826
 20
10.28627591892948
 42
0.4142135623731
 10
-1912.530911937826
 20
9.286275918929476
 42
0.4142135623731
 10
-1911.530911937826
 20
8.286275918929476
 42
0.4142135623731
  0
LINE
  5
2C7
330
1F
100
AcDbEntity
  8
0-F
  6
Continuous
 62
     7
370
     9
100
AcDbLine
 10
-1822.90714599806
 20
-23.7137834666278
 30
0.0
 11
-2022.700275748243
 21
-23.7137834666278
 31
0.0
  0
LWPOLYLINE
  5
2C8
330
1F
100
AcDbEntity
  8
0-F
  6
Continuous
 62
     7
370
     9
100
AcDbPolyline
 90
        4
 70
     1
 43
2.0
 10
-2016.700259252255
 20
-23.7137834666278
 42
0.4142135623731
 10
-2017.700259252255
 20
-22.7137834666278
 42
0.4142135623731
 10
-2018.700259252255
 20
-23.7137834666278
 42
0.4142135623731
 10
-2017.700259252255
 20
-24.7137834666278
 42
0.4142135623731
  0
LINE
  5
2C9
330
1F
100
AcDbEntity
  8
0-F
  6
Continuous
 62
     7
370
     9
100
AcDbLine
 10
-1835.907139399665
 20
-36.71377686823305
 30
0.0
 11
-2125.163498297584
 21
-36.71377686823305
 31
0.0
  0
LWPOLYLINE
  5
2CA
330
1F
100
AcDbEntity
  8
0-F
  6
Continuous
 62
     7
370
     9
100
AcDbPolyline
 90
        4
 70
     1
 43
2.0
 10
-2119.163481801596
 20
-36.71377686823305
 42
0.4142135623731
 10
-2120.163481801596
 20
-35.71377686823305
 42
0.4142135623731
 10
-2121.163481801596
 20
-36.71377686823305
 42
0.4142135623731
 10
-2120.163481801596
 20
-37.71377686823305
 42
0.4142135623731
  0
LINE
  5
2CB
330
1F
100
AcDbEntity
  8
0-F
  6
Continuous
 62
     3
370
     9
100
AcDbLine
 10
-1807.907096510095
 20
-23.71383955299056
 30
0.0
 11
-1795.907007431758
 21
-11.71375047465293
 31
0.0
  0
LINE
  5
2CC
330
1F
100
AcDbEntity
  8
0-F
  6
Continuous
 62
     3
370
     9
100
AcDbLine
 10
-1456.407096510092
 20
-23.71383955299056
 30
0.0
 11
-1468.407185588429
 21
-11.71375047465293
 31
0.0
  0
LINE
  5
2CD
330
1F
100
AcDbEntity
  8
0-F
  6
Continuous
 62
     3
370
     9
100
AcDbLine
 10
-1468.407185588429
 20
-11.71375047465293
 30
0.0
 11
-1795.907007431758
 21
-11.71375047465293
 31
0.0
  0
LINE
  5
2CE
330
1F
100
AcDbEntity
  8
0-F
  6
Continuous
 62
     3
370
     9
100
AcDbLine
 10
-1456.407096510092
 20
-23.71383955299056
 30
0.0
 11
-1807.907096510095
 21
-23.71383955299056
 31
0.0
  0
LINE
  5
2CF
330
1F
100
AcDbEntity
  8
0-F
  6
Continuous
 62
     3
370
     9
100
AcDbLine
 10
-1454.282096510095
 20
-23.71383955299056
 30
0.0
 11
-1442.282007431758
 21
-11.71375047465293
 31
0.0
  0
LINE
  5
2D0
330
1F
100
AcDbEntity
  8
0-F
  6
Continuous
 62
     3
370
     9
100
AcDbLine
 10
-1102.782096510091
 20
-23.71383955299056
 30
0.0
 11
-1114.782185588429
 21
-11.71375047465293
 31
0.0
  0
LINE
  5
2D1
330
1F
100
AcDbEntity
  8
0-F
  6
Continuous
 62
     3
370
     9
100
AcDbLine
 10
-1114.782185588429
 20
-11.71375047465293
 30
0.0
 11
-1442.282007431758
 21
-11.71375047465293
 31
0.0
  0
LINE
  5
2D2
330
1F
100
AcDbEntity
  8
0-F
  6
Continuous
 62
     3
370
     9
100
AcDbLine
 10
-1102.782096510091
 20
-23.71383955299056
 30
0.0
 11
-1454.282096510095
 21
-23.71383955299056
 31
0.0
  0
LINE
  5
2D3
330
1F
100
AcDbEntity
  8
0-F
  6
Continuous
 62
     3
370
     9
100
AcDbLine
 10
-1100.657096510095
 20
-23.71383955299056
 30
0.0
 11
-1088.657007431757
 21
-11.71375047465293
 31
0.0
  0
LINE
  5
2D4
330
1F
100
AcDbEntity
  8
0-F
  6
Continuous
 62
     3
370
     9
100
AcDbLine
 10
-749.1570965100914
 20
-23.71383955299056
 30
0.0
 11
-761.157185588429
 21
-11.71375047465293
 31
0.0
  0
LINE
  5
2D5
330
1F
100
AcDbEntity
  8
0-F
  6
Continuous
 62
     3
370
     9
100
AcDbLine
 10
-761.157185588429
 20
-11.71375047465293
 30
0.0
 11
-1088.657007431757
 21
-11.71375047465293
 31
0.0
  0
LINE
  5
2D6
330
1F
100
AcDbEntity
  8
0-F
  6
Continuous
 62
     3
370
     9
100
AcDbLine
 10
-749.1570965100914
 20
-23.71383955299056
 30
0.0
 11
-1100.657096510095
 21
-23.71383955299056
 31
0.0
  0
LINE
  5
2D7
330
1F
100
AcDbEntity
  8
0-F
  6
Continuous
 62
     3
370
     9
100
AcDbLine
 10
-747.032096510095
 20
-23.71383955299056
 30
0.0
 11
-735.0320074317574
 21
-11.71375047465293
 31
0.0
  0
LINE
  5
2D8
330
1F
100
AcDbEntity
  8
0-F
  6
Continuous
 62
     3
370
     9
100
AcDbLine
 10
-395.5320965100913
 20
-23.71383955299056
 30
0.0
 11
-407.5321855884289
 21
-11.71375047465293
 31
0.0
  0
LINE
  5
2D9
330
1F
100
AcDbEntity
  8
0-F
  6
Continuous
 62
     3
370
     9
100
AcDbLine
 10
-407.5321855884289
 20
-11.71375047465293
 30
0.0
 11
-735.0320074317574
 21
-11.71375047465293
 31
0.0
  0
LINE
  5
2DA
330
1F
100
AcDbEntity
  8
0-F
  6
Continuous
 62
     3
370
     9
100
AcDbLine
 10
-395.5320965100913
 20
-23.71383955299056
 30
0.0
 11
-747.032096510095
 21
-23.71383955299056
 31
0.0
  0
LINE
  5
2DB
330
1F
100
AcDbEntity
  8
0-F
  6
Continuous
 62
     3
370
     9
100
AcDbLine
 10
-393.4070965100949
 20
-23.71383955299056
 30
0.0
 11
-381.4070074317573
 21
-11.71375047465293
 31
0.0
  0
LINE
  5
2DC
330
1F
100
AcDbEntity
  8
0-F
  6
Continuous
 62
     3
370
     9
100
AcDbLine
 10
-41.90709651009115
 20
-23.71383955299056
 30
0.0
 11
-53.90718558842877
 21
-11.71375047465293
 31
0.0
  0
LINE
  5
2DD
330
1F
100
AcDbEntity
  8
0-F
  6
Continuous
 62
     3
370
     9
100
AcDbLine
 10
-53.90718558842877
 20
-11.71375047465293
 30
0.0
 11
-381.4070074317573
 21
-11.71375047465293
 31
0.0
  0
LINE
  5
2DE
330
1F
100
AcDbEntity
  8
0-F
  6
Continuous
 62
     3
370
     9
100
AcDbLine
 10
-41.90709651009115
 20
-23.71383955299056
 30
0.0
 11
-393.4070965100949
 21
-23.71383955299056
 31
0.0
  0
LINE
  5
2DF
330
1F
100
AcDbEntity
  8
躯体
  6
JWW_DASHED2
 62
     2
370
     9
100
AcDbLine
 10
-1774.907037124538
 20
9.286275918929476
 30
0.0
 11
-1774.907037124538
 21
1409.28627591893
 31
0.0
  0
LINE
  5
2E0
330
1F
100
AcDbEntity
  8
建具
  6
Continuous
 62
     2
370
     9
100
AcDbLine
 10
-1808.907000833363
 20
-24.71368778989998
 30
0.0
 11
-1808.907000833363
 21
1443.286487067575
 31
0.0
  0
LINE
  5
2E1
330
1F
100
AcDbEntity
  8
建具
  6
Continuous
 62
     2
370
     9
100
AcDbLine
 10
-1820.90696619179
 20
-36.71377686823305
 30
0.0
 11
-1820.90696619179
 21
1455.286328706088
 31
0.0
  0
LINE
  5
2E2
330
1F
100
AcDbEntity
  8
躯体
  6
JWW_DASHED2
 62
     2
370
     9
100
AcDbLine
 10
-74.9069134046276
 20
1409.28627591893
 30
0.0
 11
-74.9069134046276
 21
9.286275918929476
 31
0.0
  0
LINE
  5
2E3
330
1F
100
AcDbEntity
  8
建具
  6
Continuous
 62
     2
370
     9
100
AcDbLine
 10
-40.90694969580269
 20
-24.71368778989998
 30
0.0
 11
-40.90694969580269
 21
1443.286487067575
 31
0.0
  0
LINE
  5
2E4
330
1F
100
AcDbEntity
  8
建具
  6
Continuous
 62
     2
370
     9
100
AcDbLine
 10
-28.90698433737541
 20
1455.286328706088
 30
0.0
 11
-28.90698433737541
 21
-36.71377686823305
 31
0.0
  0
LINE
  5
2E5
330
1F
100
AcDbEntity
  8
0-F
  6
Continuous
 62
     3
370
     9
100
AcDbLine
 10
-1807.907096510095
 20
-23.71383955299056
 30
0.0
 11
-1807.907096510095
 21
1442.286335304487
 31
0.0
  0
LINE
  5
2E6
330
1F
100
AcDbEntity
  8
0-F
  6
Continuous
 62
     3
370
     9
100
AcDbLine
 10
-1795.907007431758
 20
-11.71375047465293
 30
0.0
 11
-1795.907007431758
 21
1430.285998786324
 31
0.0
  0
LINE
  5
2E7
330
1F
100
AcDbEntity
  8
0-F
  6
Continuous
 62
     3
370
     9
100
AcDbLine
 10
-1468.407185588429
 20
-11.71375047465293
 30
0.0
 11
-1468.407185588429
 21
1430.285998786324
 31
0.0
  0
LINE
  5
2E8
330
1F
100
AcDbEntity
  8
0-F
  6
Continuous
 62
     3
370
     9
100
AcDbLine
 10
-1456.407096510092
 20
-23.71383955299056
 30
0.0
 11
-1456.407096510092
 21
1442.286335304487
 31
0.0
  0
LINE
  5
2E9
330
1F
100
AcDbEntity
  8
0-F
  6
Continuous
 62
     3
370
     9
100
AcDbLine
 10
-1454.282096510095
 20
-23.71383955299056
 30
0.0
 11
-1454.282096510095
 21
1442.286335304487
 31
0.0
  0
LINE
  5
2EA
330
1F
100
AcDbEntity
  8
0-F
  6
Continuous
 62
     3
370
     9
100
AcDbLine
 10
-1442.282007431758
 20
-11.71375047465293
 30
0.0
 11
-1442.282007431758
 21
1430.285998786324
 31
0.0
  0
LINE
  5
2EB
330
1F
100
AcDbEntity
  8
0-F
  6
Continuous
 62
     3
370
     9
100
AcDbLine
 10
-1114.782185588429
 20
-11.71375047465293
 30
0.0
 11
-1114.782185588429
 21
1430.285998786324
 31
0.0
  0
LINE
  5
2EC
330
1F
100
AcDbEntity
  8
0-F
  6
Continuous
 62
     3
370
     9
100
AcDbLine
 10
-1102.782096510091
 20
-23.71383955299056
 30
0.0
 11
-1102.782096510091
 21
1442.286335304487
 31
0.0
  0
LINE
  5
2ED
330
1F
100
AcDbEntity
  8
0-F
  6
Continuous
 62
     3
370
     9
100
AcDbLine
 10
-1100.657096510095
 20
-23.71383955299056
 30
0.0
 11
-1100.657096510095
 21
1442.286335304487
 31
0.0
  0
LINE
  5
2EE
330
1F
100
AcDbEntity
  8
0-F
  6
Continuous
 62
     3
370
     9
100
AcDbLine
 10
-1088.657007431757
 20
-11.71375047465293
 30
0.0
 11
-1088.657007431757
 21
1430.285998786324
 31
0.0
  0
LINE
  5
2EF
330
1F
100
AcDbEntity
  8
0-F
  6
Continuous
 62
     3
370
     9
100
AcDbLine
 10
-761.157185588429
 20
-11.71375047465293
 30
0.0
 11
-761.157185588429
 21
1430.285998786324
 31
0.0
  0
LINE
  5
2F0
330
1F
100
AcDbEntity
  8
0-F
  6
Continuous
 62
     3
370
     9
100
AcDbLine
 10
-749.1570965100914
 20
-23.71383955299056
 30
0.0
 11
-749.1570965100914
 21
1442.286335304487
 31
0.0
  0
LINE
  5
2F1
330
1F
100
AcDbEntity
  8
0-F
  6
Continuous
 62
     3
370
     9
100
AcDbLine
 10
-747.032096510095
 20
-23.71383955299056
 30
0.0
 11
-747.032096510095
 21
1442.286335304487
 31
0.0
  0
LINE
  5
2F2
330
1F
100
AcDbEntity
  8
0-F
  6
Continuous
 62
     3
370
     9
100
AcDbLine
 10
-735.0320074317574
 20
-11.71375047465293
 30
0.0
 11
-735.0320074317574
 21
1430.285998786324
 31
0.0
  0
LINE
  5
2F3
330
1F
100
AcDbEntity
  8
0-F
  6
Continuous
 62
     3
370
     9
100
AcDbLine
 10
-407.5321855884289
 20
-11.71375047465293
 30
0.0
 11
-407.5321855884289
 21
1430.285998786324
 31
0.0
  0
LINE
  5
2F4
330
1F
100
AcDbEntity
  8
0-F
  6
Continuous
 62
     3
370
     9
100
AcDbLine
 10
-395.5320965100913
 20
-23.71383955299056
 30
0.0
 11
-395.5320965100913
 21
1442.286335304487
 31
0.0
  0
LINE
  5
2F5
330
1F
100
AcDbEntity
  8
0-F
  6
Continuous
 62
     3
370
     9
100
AcDbLine
 10
-393.4070965100949
 20
-23.71383955299056
 30
0.0
 11
-393.4070965100949
 21
1442.286335304487
 31
0.0
  0
LINE
  5
2F6
330
1F
100
AcDbEntity
  8
0-F
  6
Continuous
 62
     3
370
     9
100
AcDbLine
 10
-381.4070074317573
 20
-11.71375047465293
 30
0.0
 11
-381.4070074317573
 21
1430.285998786324
 31
0.0
  0
LINE
  5
2F7
330
1F
100
AcDbEntity
  8
0-F
  6
Continuous
 62
     3
370
     9
100
AcDbLine
 10
-53.90718558842877
 20
-11.71375047465293
 30
0.0
 11
-53.90718558842877
 21
1430.285998786324
 31
0.0
  0
LINE
  5
2F8
330
1F
100
AcDbEntity
  8
0-F
  6
Continuous
 62
     3
370
     9
100
AcDbLine
 10
-41.90709651009115
 20
-23.71383955299056
 30
0.0
 11
-41.90709651009115
 21
1442.286335304487
 31
0.0
  0
LWPOLYLINE
  5
2F9
330
1F
100
AcDbEntity
  8
0-F
  6
Continuous
 62
     7
370
     9
100
AcDbPolyline
 90
        4
 70
     1
 43
2.0
 10
-1751.157096510093
 20
1181.98489540625
 42
0.4142135623731
 10
-1752.157096510093
 20
1182.98489540625
 42
0.4142135623731
 10
-1753.157096510093
 20
1181.98489540625
 42
0.4142135623731
 10
-1752.157096510093
 20
1180.98489540625
 42
0.4142135623731
  0
LINE
  5
2FA
330
1F
100
AcDbEntity
  8
0-F
  6
Continuous
 62
     7
370
     9
100
AcDbLine
 10
-1752.157096510093
 20
1178.98489540625
 30
0.0
 11
-1752.157096510093
 21
1304.286668523448
 31
0.0
  0
LINE
  5
2FB
330
1F
100
AcDbEntity
  8
0-F
  6
Continuous
 62
     7
370
     9
100
AcDbLine
 10
-1614.233097420129
 20
1355.286548102729
 30
0.0
 11
-1701.157216930808
 21
1355.286548102729
 31
0.0
  0
LWPOLYLINE
  5
2FC
330
1F
100
AcDbEntity
  8
0-F
  6
Continuous
 62
     7
370
     9
100
AcDbPolyline
 90
        4
 70
     1
 43
2.0
 10
-1511.157096510093
 20
1181.98489540625
 42
0.4142135623731
 10
-1512.157096510093
 20
1182.98489540625
 42
0.4142135623731
 10
-1513.157096510093
 20
1181.98489540625
 42
0.4142135623731
 10
-1512.157096510093
 20
1180.98489540625
 42
0.4142135623731
  0
LINE
  5
2FD
330
1F
100
AcDbEntity
  8
0-F
  6
Continuous
 62
     7
370
     9
100
AcDbLine
 10
-1512.157096510093
 20
1178.98489540625
 30
0.0
 11
-1512.157096510093
 21
1304.286668523448
 31
0.0
  0
LINE
  5
2FE
330
1F
100
AcDbEntity
  8
0-F
  6
Continuous
 62
     4
370
     9
100
AcDbLine
 10
-1406.032220230004
 20
1270.286671822644
 30
0.0
 11
-1406.032220230004
 21
1240.286671822644
 31
0.0
  0
LINE
  5
2FF
330
1F
100
AcDbEntity
  8
0-F
  6
Continuous
 62
     4
370
     9
100
AcDbLine
 10
-1391.032220230004
 20
1270.286671822644
 30
0.0
 11
-1391.032220230004
 21
1240.286671822644
 31
0.0
  0
LINE
  5
300
330
1F
100
AcDbEntity
  8
0-F
  6
Continuous
 62
     4
370
     9
100
AcDbLine
 10
-1421.620675430199
 20
1270.286671822644
 30
0.0
 11
-1421.620675430199
 21
1240.286671822644
 31
0.0
  0
LINE
  5
301
330
1F
100
AcDbEntity
  8
0-F
  6
Continuous
 62
     4
370
     9
100
AcDbLine
 10
-1421.620675430199
 20
1270.286671822644
 30
0.0
 11
-1375.443765029808
 21
1270.286671822644
 31
0.0
  0
LINE
  5
302
330
1F
100
AcDbEntity
  8
0-F
  6
Continuous
 62
     4
370
     9
100
AcDbLine
 10
-1421.620675430199
 20
1240.286671822644
 30
0.0
 11
-1375.443765029808
 21
1240.286671822644
 31
0.0
  0
LINE
  5
303
330
1F
100
AcDbEntity
  8
0-F
  6
Continuous
 62
     4
370
     9
100
AcDbLine
 10
-1375.443765029808
 20
1270.286671822644
 30
0.0
 11
-1375.443765029808
 21
1240.286671822644
 31
0.0
  0
LINE
  5
304
330
1F
100
AcDbEntity
  8
0-F
  6
JWW_CENTER1
 62
     4
370
     9
100
AcDbLine
 10
-1427.941248662705
 20
1255.286671822644
 30
0.0
 11
-1369.123191797302
 21
1255.286671822644
 31
0.0
  0
LINE
  5
305
330
1F
100
AcDbEntity
  8
0-F
  6
JWW_CENTER1
 62
     4
370
     9
100
AcDbLine
 10
-1398.532220230004
 20
1277.404042428114
 30
0.0
 11
-1398.532220230004
 21
1234.16499823866
 31
0.0
  0
LINE
  5
306
330
1F
100
AcDbEntity
  8
0-F
  6
Continuous
 62
     2
370
     9
100
AcDbLine
 10
-1400.032200434811
 20
1366.688451409848
 30
0.0
 11
-1400.032200434811
 21
1343.884892235435
 31
0.0
  0
LINE
  5
307
330
1F
100
AcDbEntity
  8
0-F
  6
Continuous
 62
     2
370
     9
100
AcDbLine
 10
-1397.031992585366
 20
1366.688451409848
 30
0.0
 11
-1397.031992585366
 21
1343.884892235435
 31
0.0
  0
CIRCLE
  5
308
330
1F
100
AcDbEntity
  8
0-F
  6
Continuous
 62
     2
370
     9
100
AcDbCircle
 10
-1398.532220230004
 20
1355.286671822644
 30
0.0
 40
16.00000117276166
  0
CIRCLE
  5
309
330
1F
100
AcDbEntity
  8
0-F
  6
Continuous
 62
     2
370
     9
100
AcDbCircle
 10
-1398.532220230004
 20
1355.286671822644
 30
0.0
 40
11.50000063148705
  0
CIRCLE
  5
30A
330
1F
100
AcDbEntity
  8
0-F
  6
Continuous
 62
     2
370
     9
100
AcDbCircle
 10
-1398.532220230004
 20
1355.286671822644
 30
0.0
 40
12.0000011212117
  0
LINE
  5
30B
330
1F
100
AcDbEntity
  8
0-F
  6
JWW_CENTER1
 62
     2
370
     9
100
AcDbLine
 10
-1429.532223529199
 20
1355.286548102729
 30
0.0
 11
-1367.532216930808
 21
1355.286548102729
 31
0.0
  0
LINE
  5
30C
330
1F
100
AcDbEntity
  8
0-F
  6
JWW_CENTER1
 62
     2
370
     9
100
AcDbLine
 10
-1398.532096510093
 20
1324.286668523448
 30
0.0
 11
-1398.532096510093
 21
1386.28667512184
 31
0.0
  0
LINE
  5
30D
330
1F
100
AcDbEntity
  8
0-F
  6
Continuous
 62
     4
370
     9
100
AcDbLine
 10
-1406.032220230004
 20
148.2858239288522
 30
0.0
 11
-1406.032220230004
 21
178.2858239288528
 31
0.0
  0
LINE
  5
30E
330
1F
100
AcDbEntity
  8
0-F
  6
Continuous
 62
     4
370
     9
100
AcDbLine
 10
-1391.032220230004
 20
148.2858239288522
 30
0.0
 11
-1391.032220230004
 21
178.2858239288528
 31
0.0
  0
LINE
  5
30F
330
1F
100
AcDbEntity
  8
0-F
  6
Continuous
 62
     4
370
     9
100
AcDbLine
 10
-1421.620675430199
 20
148.2858239288522
 30
0.0
 11
-1421.620675430199
 21
178.2858239288528
 31
0.0
  0
LINE
  5
310
330
1F
100
AcDbEntity
  8
0-F
  6
Continuous
 62
     4
370
     9
100
AcDbLine
 10
-1421.620675430199
 20
148.2858239288522
 30
0.0
 11
-1375.443765029808
 21
148.2858239288522
 31
0.0
  0
LINE
  5
311
330
1F
100
AcDbEntity
  8
0-F
  6
Continuous
 62
     4
370
     9
100
AcDbLine
 10
-1421.620675430199
 20
178.2858239288528
 30
0.0
 11
-1375.443765029808
 21
178.2858239288528
 31
0.0
  0
LINE
  5
312
330
1F
100
AcDbEntity
  8
0-F
  6
Continuous
 62
     4
370
     9
100
AcDbLine
 10
-1375.443765029808
 20
148.2858239288522
 30
0.0
 11
-1375.443765029808
 21
178.2858239288528
 31
0.0
  0
LINE
  5
313
330
1F
100
AcDbEntity
  8
0-F
  6
JWW_CENTER1
 62
     4
370
     9
100
AcDbLine
 10
-1427.941248662705
 20
163.2858239288527
 30
0.0
 11
-1369.123191797302
 21
163.2858239288527
 31
0.0
  0
LINE
  5
314
330
1F
100
AcDbEntity
  8
0-F
  6
JWW_CENTER1
 62
     4
370
     9
100
AcDbLine
 10
-1398.532220230004
 20
141.1684533233825
 30
0.0
 11
-1398.532220230004
 21
184.407497512837
 31
0.0
  0
LINE
  5
315
330
1F
100
AcDbEntity
  8
0-F
  6
Continuous
 62
     2
370
     9
100
AcDbLine
 10
-1400.032200434811
 20
51.88404434164788
 30
0.0
 11
-1400.032200434811
 21
74.68760351606072
 31
0.0
  0
LINE
  5
316
330
1F
100
AcDbEntity
  8
0-F
  6
Continuous
 62
     2
370
     9
100
AcDbLine
 10
-1397.031992585366
 20
51.88404434164788
 30
0.0
 11
-1397.031992585366
 21
74.68760351606072
 31
0.0
  0
CIRCLE
  5
317
330
1F
100
AcDbEntity
  8
0-F
  6
Continuous
 62
     2
370
     9
100
AcDbCircle
 10
-1398.532220230004
 20
63.28582392885203
 30
0.0
 40
16.00000117276166
  0
CIRCLE
  5
318
330
1F
100
AcDbEntity
  8
0-F
  6
Continuous
 62
     2
370
     9
100
AcDbCircle
 10
-1398.532220230004
 20
63.28582392885203
 30
0.0
 40
11.50000063148704
  0
CIRCLE
  5
319
330
1F
100
AcDbEntity
  8
0-F
  6
Continuous
 62
     2
370
     9
100
AcDbCircle
 10
-1398.532220230004
 20
63.28582392885203
 30
0.0
 40
12.00000112121169
  0
LINE
  5
31A
330
1F
100
AcDbEntity
  8
0-F
  6
JWW_CENTER1
 62
     2
370
     9
100
AcDbLine
 10
-1429.532223529199
 20
63.28594764876691
 30
0.0
 11
-1367.532216930808
 21
63.28594764876691
 31
0.0
  0
LINE
  5
31B
330
1F
100
AcDbEntity
  8
0-F
  6
JWW_CENTER1
 62
     2
370
     9
100
AcDbLine
 10
-1398.532096510093
 20
94.2858272280477
 30
0.0
 11
-1398.532096510093
 21
32.2858206296565
 31
0.0
  0
LINE
  5
31C
330
1F
100
AcDbEntity
  8
0-F
  6
Continuous
 62
     4
370
     9
100
AcDbLine
 10
-1166.032220230004
 20
1270.286671822644
 30
0.0
 11
-1166.032220230004
 21
1240.286671822644
 31
0.0
  0
LINE
  5
31D
330
1F
100
AcDbEntity
  8
0-F
  6
Continuous
 62
     4
370
     9
100
AcDbLine
 10
-1151.032220230004
 20
1270.286671822644
 30
0.0
 11
-1151.032220230004
 21
1240.286671822644
 31
0.0
  0
LINE
  5
31E
330
1F
100
AcDbEntity
  8
0-F
  6
Continuous
 62
     4
370
     9
100
AcDbLine
 10
-1181.620675430199
 20
1270.286671822644
 30
0.0
 11
-1181.620675430199
 21
1240.286671822644
 31
0.0
  0
LINE
  5
31F
330
1F
100
AcDbEntity
  8
0-F
  6
Continuous
 62
     4
370
     9
100
AcDbLine
 10
-1181.620675430199
 20
1270.286671822644
 30
0.0
 11
-1135.443765029808
 21
1270.286671822644
 31
0.0
  0
LINE
  5
320
330
1F
100
AcDbEntity
  8
0-F
  6
Continuous
 62
     4
370
     9
100
AcDbLine
 10
-1181.620675430199
 20
1240.286671822644
 30
0.0
 11
-1135.443765029808
 21
1240.286671822644
 31
0.0
  0
LINE
  5
321
330
1F
100
AcDbEntity
  8
0-F
  6
Continuous
 62
     4
370
     9
100
AcDbLine
 10
-1135.443765029808
 20
1270.286671822644
 30
0.0
 11
-1135.443765029808
 21
1240.286671822644
 31
0.0
  0
LINE
  5
322
330
1F
100
AcDbEntity
  8
0-F
  6
JWW_CENTER1
 62
     4
370
     9
100
AcDbLine
 10
-1158.532220230004
 20
1277.404042428114
 30
0.0
 11
-1158.532220230004
 21
1234.16499823866
 31
0.0
  0
LINE
  5
323
330
1F
100
AcDbEntity
  8
0-F
  6
Continuous
 62
     2
370
     9
100
AcDbLine
 10
-1160.032200434811
 20
1366.688451409848
 30
0.0
 11
-1160.032200434811
 21
1343.884892235435
 31
0.0
  0
LINE
  5
324
330
1F
100
AcDbEntity
  8
0-F
  6
Continuous
 62
     2
370
     9
100
AcDbLine
 10
-1157.031992585366
 20
1366.688451409848
 30
0.0
 11
-1157.031992585366
 21
1343.884892235435
 31
0.0
  0
CIRCLE
  5
325
330
1F
100
AcDbEntity
  8
0-F
  6
Continuous
 62
     2
370
     9
100
AcDbCircle
 10
-1158.532220230004
 20
1355.286671822644
 30
0.0
 40
16.00000117276166
  0
CIRCLE
  5
326
330
1F
100
AcDbEntity
  8
0-F
  6
Continuous
 62
     2
370
     9
100
AcDbCircle
 10
-1158.532220230004
 20
1355.286671822644
 30
0.0
 40
11.50000063148705
  0
CIRCLE
  5
327
330
1F
100
AcDbEntity
  8
0-F
  6
Continuous
 62
     2
370
     9
100
AcDbCircle
 10
-1158.532220230004
 20
1355.286671822644
 30
0.0
 40
12.0000011212117
  0
LINE
  5
328
330
1F
100
AcDbEntity
  8
0-F
  6
JWW_CENTER1
 62
     2
370
     9
100
AcDbLine
 10
-1158.532096510093
 20
1324.286668523448
 30
0.0
 11
-1158.532096510093
 21
1386.28667512184
 31
0.0
  0
LINE
  5
329
330
1F
100
AcDbEntity
  8
0-F
  6
JWW_CENTER1
 62
     2
370
     9
100
AcDbLine
 10
-1189.532223529199
 20
1355.286795542559
 30
0.0
 11
-1127.532216930808
 21
1355.286795542559
 31
0.0
  0
LINE
  5
32A
330
1F
100
AcDbEntity
  8
0-F
  6
JWW_CENTER1
 62
     4
370
     9
100
AcDbLine
 10
-1187.941248662705
 20
1255.286671822644
 30
0.0
 11
-1129.123191797302
 21
1255.286671822644
 31
0.0
  0
LINE
  5
32B
330
1F
100
AcDbEntity
  8
0-F
  6
Continuous
 62
     4
370
     9
100
AcDbLine
 10
-1166.032220230004
 20
148.2858239288522
 30
0.0
 11
-1166.032220230004
 21
178.2858239288528
 31
0.0
  0
LINE
  5
32C
330
1F
100
AcDbEntity
  8
0-F
  6
Continuous
 62
     4
370
     9
100
AcDbLine
 10
-1151.032220230004
 20
148.2858239288522
 30
0.0
 11
-1151.032220230004
 21
178.2858239288528
 31
0.0
  0
LINE
  5
32D
330
1F
100
AcDbEntity
  8
0-F
  6
Continuous
 62
     4
370
     9
100
AcDbLine
 10
-1181.620675430199
 20
148.2858239288522
 30
0.0
 11
-1181.620675430199
 21
178.2858239288528
 31
0.0
  0
LINE
  5
32E
330
1F
100
AcDbEntity
  8
0-F
  6
Continuous
 62
     4
370
     9
100
AcDbLine
 10
-1181.620675430199
 20
148.2858239288522
 30
0.0
 11
-1135.443765029808
 21
148.2858239288522
 31
0.0
  0
LINE
  5
32F
330
1F
100
AcDbEntity
  8
0-F
  6
Continuous
 62
     4
370
     9
100
AcDbLine
 10
-1181.620675430199
 20
178.2858239288528
 30
0.0
 11
-1135.443765029808
 21
178.2858239288528
 31
0.0
  0
LINE
  5
330
330
1F
100
AcDbEntity
  8
0-F
  6
Continuous
 62
     4
370
     9
100
AcDbLine
 10
-1135.443765029808
 20
148.2858239288522
 30
0.0
 11
-1135.443765029808
 21
178.2858239288528
 31
0.0
  0
LINE
  5
331
330
1F
100
AcDbEntity
  8
0-F
  6
JWW_CENTER1
 62
     4
370
     9
100
AcDbLine
 10
-1158.532220230004
 20
141.1684533233825
 30
0.0
 11
-1158.532220230004
 21
184.407497512837
 31
0.0
  0
LINE
  5
332
330
1F
100
AcDbEntity
  8
0-F
  6
Continuous
 62
     2
370
     9
100
AcDbLine
 10
-1160.032200434811
 20
51.88404434164788
 30
0.0
 11
-1160.032200434811
 21
74.68760351606072
 31
0.0
  0
LINE
  5
333
330
1F
100
AcDbEntity
  8
0-F
  6
Continuous
 62
     2
370
     9
100
AcDbLine
 10
-1157.031992585366
 20
51.88404434164788
 30
0.0
 11
-1157.031992585366
 21
74.68760351606072
 31
0.0
  0
CIRCLE
  5
334
330
1F
100
AcDbEntity
  8
0-F
  6
Continuous
 62
     2
370
     9
100
AcDbCircle
 10
-1158.532220230004
 20
63.28582392885203
 30
0.0
 40
16.00000117276166
  0
CIRCLE
  5
335
330
1F
100
AcDbEntity
  8
0-F
  6
Continuous
 62
     2
370
     9
100
AcDbCircle
 10
-1158.532220230004
 20
63.28582392885203
 30
0.0
 40
11.50000063148705
  0
CIRCLE
  5
336
330
1F
100
AcDbEntity
  8
0-F
  6
Continuous
 62
     2
370
     9
100
AcDbCircle
 10
-1158.532220230004
 20
63.28582392885203
 30
0.0
 40
12.0000011212117
  0
LINE
  5
337
330
1F
100
AcDbEntity
  8
0-F
  6
JWW_CENTER1
 62
     2
370
     9
100
AcDbLine
 10
-1158.532096510093
 20
94.2858272280477
 30
0.0
 11
-1158.532096510093
 21
32.2858206296565
 31
0.0
  0
LINE
  5
338
330
1F
100
AcDbEntity
  8
0-F
  6
JWW_CENTER1
 62
     2
370
     9
100
AcDbLine
 10
-1189.532223529199
 20
63.28594764876691
 30
0.0
 11
-1127.532216930808
 21
63.28594764876691
 31
0.0
  0
LINE
  5
339
330
1F
100
AcDbEntity
  8
0-F
  6
JWW_CENTER1
 62
     4
370
     9
100
AcDbLine
 10
-1187.941248662705
 20
163.2858239288528
 30
0.0
 11
-1129.123191797302
 21
163.2858239288528
 31
0.0
  0
LINE
  5
33A
330
1F
100
AcDbEntity
  8
0-F
  6
Continuous
 62
     4
370
     9
100
AcDbLine
 10
-1052.407220230003
 20
1270.286671822644
 30
0.0
 11
-1052.407220230003
 21
1240.286671822644
 31
0.0
  0
LINE
  5
33B
330
1F
100
AcDbEntity
  8
0-F
  6
Continuous
 62
     4
370
     9
100
AcDbLine
 10
-1037.407220230003
 20
1270.286671822644
 30
0.0
 11
-1037.407220230003
 21
1240.286671822644
 31
0.0
  0
LINE
  5
33C
330
1F
100
AcDbEntity
  8
0-F
  6
Continuous
 62
     4
370
     9
100
AcDbLine
 10
-1067.995675430199
 20
1270.286671822644
 30
0.0
 11
-1067.995675430199
 21
1240.286671822644
 31
0.0
  0
LINE
  5
33D
330
1F
100
AcDbEntity
  8
0-F
  6
Continuous
 62
     4
370
     9
100
AcDbLine
 10
-1067.995675430199
 20
1270.286671822644
 30
0.0
 11
-1021.818765029808
 21
1270.286671822644
 31
0.0
  0
LINE
  5
33E
330
1F
100
AcDbEntity
  8
0-F
  6
Continuous
 62
     4
370
     9
100
AcDbLine
 10
-1067.995675430199
 20
1240.286671822644
 30
0.0
 11
-1021.818765029808
 21
1240.286671822644
 31
0.0
  0
LINE
  5
33F
330
1F
100
AcDbEntity
  8
0-F
  6
Continuous
 62
     4
370
     9
100
AcDbLine
 10
-1021.818765029808
 20
1270.286671822644
 30
0.0
 11
-1021.818765029808
 21
1240.286671822644
 31
0.0
  0
LINE
  5
340
330
1F
100
AcDbEntity
  8
0-F
  6
JWW_CENTER1
 62
     4
370
     9
100
AcDbLine
 10
-1074.316248662705
 20
1255.286671822644
 30
0.0
 11
-1015.498191797302
 21
1255.286671822644
 31
0.0
  0
LINE
  5
341
330
1F
100
AcDbEntity
  8
0-F
  6
JWW_CENTER1
 62
     4
370
     9
100
AcDbLine
 10
-1044.907220230003
 20
1277.404042428114
 30
0.0
 11
-1044.907220230003
 21
1234.16499823866
 31
0.0
  0
LINE
  5
342
330
1F
100
AcDbEntity
  8
0-F
  6
Continuous
 62
     2
370
     9
100
AcDbLine
 10
-1046.407200434811
 20
1366.688451409848
 30
0.0
 11
-1046.407200434811
 21
1343.884892235435
 31
0.0
  0
LINE
  5
343
330
1F
100
AcDbEntity
  8
0-F
  6
Continuous
 62
     2
370
     9
100
AcDbLine
 10
-1043.406992585366
 20
1366.688451409848
 30
0.0
 11
-1043.406992585366
 21
1343.884892235435
 31
0.0
  0
CIRCLE
  5
344
330
1F
100
AcDbEntity
  8
0-F
  6
Continuous
 62
     2
370
     9
100
AcDbCircle
 10
-1044.907220230003
 20
1355.286671822644
 30
0.0
 40
16.00000117276166
  0
CIRCLE
  5
345
330
1F
100
AcDbEntity
  8
0-F
  6
Continuous
 62
     2
370
     9
100
AcDbCircle
 10
-1044.907220230003
 20
1355.286671822644
 30
0.0
 40
11.50000063148705
  0
CIRCLE
  5
346
330
1F
100
AcDbEntity
  8
0-F
  6
Continuous
 62
     2
370
     9
100
AcDbCircle
 10
-1044.907220230003
 20
1355.286671822644
 30
0.0
 40
12.0000011212117
  0
LINE
  5
347
330
1F
100
AcDbEntity
  8
0-F
  6
JWW_CENTER1
 62
     2
370
     9
100
AcDbLine
 10
-1075.907223529199
 20
1355.286548102729
 30
0.0
 11
-1013.907216930808
 21
1355.286548102729
 31
0.0
  0
LINE
  5
348
330
1F
100
AcDbEntity
  8
0-F
  6
JWW_CENTER1
 62
     2
370
     9
100
AcDbLine
 10
-1044.907096510093
 20
1324.286668523448
 30
0.0
 11
-1044.907096510093
 21
1386.28667512184
 31
0.0
  0
LINE
  5
349
330
1F
100
AcDbEntity
  8
0-F
  6
Continuous
 62
     4
370
     9
100
AcDbLine
 10
-1052.407220230003
 20
148.2858239288522
 30
0.0
 11
-1052.407220230003
 21
178.2858239288528
 31
0.0
  0
LINE
  5
34A
330
1F
100
AcDbEntity
  8
0-F
  6
Continuous
 62
     4
370
     9
100
AcDbLine
 10
-1037.407220230003
 20
148.2858239288522
 30
0.0
 11
-1037.407220230003
 21
178.2858239288528
 31
0.0
  0
LINE
  5
34B
330
1F
100
AcDbEntity
  8
0-F
  6
Continuous
 62
     4
370
     9
100
AcDbLine
 10
-1067.995675430199
 20
148.2858239288522
 30
0.0
 11
-1067.995675430199
 21
178.2858239288528
 31
0.0
  0
LINE
  5
34C
330
1F
100
AcDbEntity
  8
0-F
  6
Continuous
 62
     4
370
     9
100
AcDbLine
 10
-1067.995675430199
 20
148.2858239288522
 30
0.0
 11
-1021.818765029808
 21
148.2858239288522
 31
0.0
  0
LINE
  5
34D
330
1F
100
AcDbEntity
  8
0-F
  6
Continuous
 62
     4
370
     9
100
AcDbLine
 10
-1067.995675430199
 20
178.2858239288528
 30
0.0
 11
-1021.818765029808
 21
178.2858239288528
 31
0.0
  0
LINE
  5
34E
330
1F
100
AcDbEntity
  8
0-F
  6
Continuous
 62
     4
370
     9
100
AcDbLine
 10
-1021.818765029808
 20
148.2858239288522
 30
0.0
 11
-1021.818765029808
 21
178.2858239288528
 31
0.0
  0
LINE
  5
34F
330
1F
100
AcDbEntity
  8
0-F
  6
JWW_CENTER1
 62
     4
370
     9
100
AcDbLine
 10
-1074.316248662705
 20
163.2858239288527
 30
0.0
 11
-1015.498191797302
 21
163.2858239288527
 31
0.0
  0
LINE
  5
350
330
1F
100
AcDbEntity
  8
0-F
  6
JWW_CENTER1
 62
     4
370
     9
100
AcDbLine
 10
-1044.907220230003
 20
141.1684533233825
 30
0.0
 11
-1044.907220230003
 21
184.407497512837
 31
0.0
  0
LINE
  5
351
330
1F
100
AcDbEntity
  8
0-F
  6
Continuous
 62
     2
370
     9
100
AcDbLine
 10
-1046.407200434811
 20
51.88404434164788
 30
0.0
 11
-1046.407200434811
 21
74.68760351606072
 31
0.0
  0
LINE
  5
352
330
1F
100
AcDbEntity
  8
0-F
  6
Continuous
 62
     2
370
     9
100
AcDbLine
 10
-1043.406992585366
 20
51.88404434164788
 30
0.0
 11
-1043.406992585366
 21
74.68760351606072
 31
0.0
  0
CIRCLE
  5
353
330
1F
100
AcDbEntity
  8
0-F
  6
Continuous
 62
     2
370
     9
100
AcDbCircle
 10
-1044.907220230003
 20
63.28582392885203
 30
0.0
 40
16.00000117276166
  0
CIRCLE
  5
354
330
1F
100
AcDbEntity
  8
0-F
  6
Continuous
 62
     2
370
     9
100
AcDbCircle
 10
-1044.907220230003
 20
63.28582392885203
 30
0.0
 40
11.50000063148704
  0
CIRCLE
  5
355
330
1F
100
AcDbEntity
  8
0-F
  6
Continuous
 62
     2
370
     9
100
AcDbCircle
 10
-1044.907220230003
 20
63.28582392885203
 30
0.0
 40
12.00000112121169
  0
LINE
  5
356
330
1F
100
AcDbEntity
  8
0-F
  6
JWW_CENTER1
 62
     2
370
     9
100
AcDbLine
 10
-1075.907223529199
 20
63.28594764876691
 30
0.0
 11
-1013.907216930808
 21
63.28594764876691
 31
0.0
  0
LINE
  5
357
330
1F
100
AcDbEntity
  8
0-F
  6
JWW_CENTER1
 62
     2
370
     9
100
AcDbLine
 10
-1044.907096510093
 20
94.2858272280477
 30
0.0
 11
-1044.907096510093
 21
32.2858206296565
 31
0.0
  0
LINE
  5
358
330
1F
100
AcDbEntity
  8
0-F
  6
Continuous
 62
     4
370
     9
100
AcDbLine
 10
-812.4072202300033
 20
1270.286671822644
 30
0.0
 11
-812.4072202300033
 21
1240.286671822644
 31
0.0
  0
LINE
  5
359
330
1F
100
AcDbEntity
  8
0-F
  6
Continuous
 62
     4
370
     9
100
AcDbLine
 10
-797.4072202300033
 20
1270.286671822644
 30
0.0
 11
-797.4072202300033
 21
1240.286671822644
 31
0.0
  0
LINE
  5
35A
330
1F
100
AcDbEntity
  8
0-F
  6
Continuous
 62
     4
370
     9
100
AcDbLine
 10
-827.9956754301986
 20
1270.286671822644
 30
0.0
 11
-827.9956754301986
 21
1240.286671822644
 31
0.0
  0
LINE
  5
35B
330
1F
100
AcDbEntity
  8
0-F
  6
Continuous
 62
     4
370
     9
100
AcDbLine
 10
-827.9956754301986
 20
1270.286671822644
 30
0.0
 11
-781.818765029808
 21
1270.286671822644
 31
0.0
  0
LINE
  5
35C
330
1F
100
AcDbEntity
  8
0-F
  6
Continuous
 62
     4
370
     9
100
AcDbLine
 10
-827.9956754301986
 20
1240.286671822644
 30
0.0
 11
-781.818765029808
 21
1240.286671822644
 31
0.0
  0
LINE
  5
35D
330
1F
100
AcDbEntity
  8
0-F
  6
Continuous
 62
     4
370
     9
100
AcDbLine
 10
-781.818765029808
 20
1270.286671822644
 30
0.0
 11
-781.818765029808
 21
1240.286671822644
 31
0.0
  0
LINE
  5
35E
330
1F
100
AcDbEntity
  8
0-F
  6
JWW_CENTER1
 62
     4
370
     9
100
AcDbLine
 10
-804.9072202300033
 20
1277.404042428114
 30
0.0
 11
-804.9072202300033
 21
1234.16499823866
 31
0.0
  0
LINE
  5
35F
330
1F
100
AcDbEntity
  8
0-F
  6
Continuous
 62
     2
370
     9
100
AcDbLine
 10
-806.4072004348111
 20
1366.688451409848
 30
0.0
 11
-806.4072004348111
 21
1343.884892235435
 31
0.0
  0
LINE
  5
360
330
1F
100
AcDbEntity
  8
0-F
  6
Continuous
 62
     2
370
     9
100
AcDbLine
 10
-803.4069925853657
 20
1366.688451409848
 30
0.0
 11
-803.4069925853657
 21
1343.884892235435
 31
0.0
  0
CIRCLE
  5
361
330
1F
100
AcDbEntity
  8
0-F
  6
Continuous
 62
     2
370
     9
100
AcDbCircle
 10
-804.9072202300033
 20
1355.286671822644
 30
0.0
 40
16.00000117276166
  0
CIRCLE
  5
362
330
1F
100
AcDbEntity
  8
0-F
  6
Continuous
 62
     2
370
     9
100
AcDbCircle
 10
-804.9072202300033
 20
1355.286671822644
 30
0.0
 40
11.50000063148705
  0
CIRCLE
  5
363
330
1F
100
AcDbEntity
  8
0-F
  6
Continuous
 62
     2
370
     9
100
AcDbCircle
 10
-804.9072202300033
 20
1355.286671822644
 30
0.0
 40
12.0000011212117
  0
LINE
  5
364
330
1F
100
AcDbEntity
  8
0-F
  6
JWW_CENTER1
 62
     2
370
     9
100
AcDbLine
 10
-804.907096510093
 20
1324.286668523448
 30
0.0
 11
-804.907096510093
 21
1386.28667512184
 31
0.0
  0
LINE
  5
365
330
1F
100
AcDbEntity
  8
0-F
  6
JWW_CENTER1
 62
     2
370
     9
100
AcDbLine
 10
-835.907223529199
 20
1355.286795542559
 30
0.0
 11
-773.9072169308076
 21
1355.286795542559
 31
0.0
  0
LINE
  5
366
330
1F
100
AcDbEntity
  8
0-F
  6
JWW_CENTER1
 62
     4
370
     9
100
AcDbLine
 10
-834.3162486627045
 20
1255.286671822644
 30
0.0
 11
-775.4981917973021
 21
1255.286671822644
 31
0.0
  0
LINE
  5
367
330
1F
100
AcDbEntity
  8
0-F
  6
Continuous
 62
     4
370
     9
100
AcDbLine
 10
-812.4072202300033
 20
148.2858239288522
 30
0.0
 11
-812.4072202300033
 21
178.2858239288528
 31
0.0
  0
LINE
  5
368
330
1F
100
AcDbEntity
  8
0-F
  6
Continuous
 62
     4
370
     9
100
AcDbLine
 10
-797.4072202300033
 20
148.2858239288522
 30
0.0
 11
-797.4072202300033
 21
178.2858239288528
 31
0.0
  0
LINE
  5
369
330
1F
100
AcDbEntity
  8
0-F
  6
Continuous
 62
     4
370
     9
100
AcDbLine
 10
-827.9956754301986
 20
148.2858239288522
 30
0.0
 11
-827.9956754301986
 21
178.2858239288528
 31
0.0
  0
LINE
  5
36A
330
1F
100
AcDbEntity
  8
0-F
  6
Continuous
 62
     4
370
     9
100
AcDbLine
 10
-827.9956754301986
 20
148.2858239288522
 30
0.0
 11
-781.818765029808
 21
148.2858239288522
 31
0.0
  0
LINE
  5
36B
330
1F
100
AcDbEntity
  8
0-F
  6
Continuous
 62
     4
370
     9
100
AcDbLine
 10
-827.9956754301986
 20
178.2858239288528
 30
0.0
 11
-781.818765029808
 21
178.2858239288528
 31
0.0
  0
LINE
  5
36C
330
1F
100
AcDbEntity
  8
0-F
  6
Continuous
 62
     4
370
     9
100
AcDbLine
 10
-781.818765029808
 20
148.2858239288522
 30
0.0
 11
-781.818765029808
 21
178.2858239288528
 31
0.0
  0
LINE
  5
36D
330
1F
100
AcDbEntity
  8
0-F
  6
JWW_CENTER1
 62
     4
370
     9
100
AcDbLine
 10
-804.9072202300033
 20
141.1684533233825
 30
0.0
 11
-804.9072202300033
 21
184.407497512837
 31
0.0
  0
LINE
  5
36E
330
1F
100
AcDbEntity
  8
0-F
  6
Continuous
 62
     2
370
     9
100
AcDbLine
 10
-806.4072004348111
 20
51.88404434164788
 30
0.0
 11
-806.4072004348111
 21
74.68760351606072
 31
0.0
  0
LINE
  5
36F
330
1F
100
AcDbEntity
  8
0-F
  6
Continuous
 62
     2
370
     9
100
AcDbLine
 10
-803.4069925853657
 20
51.88404434164788
 30
0.0
 11
-803.4069925853657
 21
74.68760351606072
 31
0.0
  0
CIRCLE
  5
370
330
1F
100
AcDbEntity
  8
0-F
  6
Continuous
 62
     2
370
     9
100
AcDbCircle
 10
-804.9072202300033
 20
63.28582392885203
 30
0.0
 40
16.00000117276166
  0
CIRCLE
  5
371
330
1F
100
AcDbEntity
  8
0-F
  6
Continuous
 62
     2
370
     9
100
AcDbCircle
 10
-804.9072202300033
 20
63.28582392885203
 30
0.0
 40
11.50000063148705
  0
CIRCLE
  5
372
330
1F
100
AcDbEntity
  8
0-F
  6
Continuous
 62
     2
370
     9
100
AcDbCircle
 10
-804.9072202300033
 20
63.28582392885203
 30
0.0
 40
12.0000011212117
  0
LINE
  5
373
330
1F
100
AcDbEntity
  8
0-F
  6
JWW_CENTER1
 62
     2
370
     9
100
AcDbLine
 10
-804.907096510093
 20
94.2858272280477
 30
0.0
 11
-804.907096510093
 21
32.2858206296565
 31
0.0
  0
LINE
  5
374
330
1F
100
AcDbEntity
  8
0-F
  6
JWW_CENTER1
 62
     2
370
     9
100
AcDbLine
 10
-835.907223529199
 20
63.28594764876691
 30
0.0
 11
-773.9072169308076
 21
63.28594764876691
 31
0.0
  0
LINE
  5
375
330
1F
100
AcDbEntity
  8
0-F
  6
JWW_CENTER1
 62
     4
370
     9
100
AcDbLine
 10
-834.3162486627045
 20
163.2858239288528
 30
0.0
 11
-775.4981917973021
 21
163.2858239288528
 31
0.0
  0
LINE
  5
376
330
1F
100
AcDbEntity
  8
0-F
  6
Continuous
 62
     4
370
     9
100
AcDbLine
 10
-698.7822202300032
 20
1270.286671822644
 30
0.0
 11
-698.7822202300032
 21
1240.286671822644
 31
0.0
  0
LINE
  5
377
330
1F
100
AcDbEntity
  8
0-F
  6
Continuous
 62
     4
370
     9
100
AcDbLine
 10
-683.7822202300032
 20
1270.286671822644
 30
0.0
 11
-683.7822202300032
 21
1240.286671822644
 31
0.0
  0
LINE
  5
378
330
1F
100
AcDbEntity
  8
0-F
  6
Continuous
 62
     4
370
     9
100
AcDbLine
 10
-714.3706754301985
 20
1270.286671822644
 30
0.0
 11
-714.3706754301985
 21
1240.286671822644
 31
0.0
  0
LINE
  5
379
330
1F
100
AcDbEntity
  8
0-F
  6
Continuous
 62
     4
370
     9
100
AcDbLine
 10
-714.3706754301985
 20
1270.286671822644
 30
0.0
 11
-668.1937650298079
 21
1270.286671822644
 31
0.0
  0
LINE
  5
37A
330
1F
100
AcDbEntity
  8
0-F
  6
Continuous
 62
     4
370
     9
100
AcDbLine
 10
-714.3706754301985
 20
1240.286671822644
 30
0.0
 11
-668.1937650298079
 21
1240.286671822644
 31
0.0
  0
LINE
  5
37B
330
1F
100
AcDbEntity
  8
0-F
  6
Continuous
 62
     4
370
     9
100
AcDbLine
 10
-668.1937650298079
 20
1270.286671822644
 30
0.0
 11
-668.1937650298079
 21
1240.286671822644
 31
0.0
  0
LINE
  5
37C
330
1F
100
AcDbEntity
  8
0-F
  6
JWW_CENTER1
 62
     4
370
     9
100
AcDbLine
 10
-720.6912486627044
 20
1255.286671822644
 30
0.0
 11
-661.873191797302
 21
1255.286671822644
 31
0.0
  0
LINE
  5
37D
330
1F
100
AcDbEntity
  8
0-F
  6
JWW_CENTER1
 62
     4
370
     9
100
AcDbLine
 10
-691.2822202300032
 20
1277.404042428114
 30
0.0
 11
-691.2822202300032
 21
1234.16499823866
 31
0.0
  0
LINE
  5
37E
330
1F
100
AcDbEntity
  8
0-F
  6
Continuous
 62
     2
370
     9
100
AcDbLine
 10
-692.782200434811
 20
1366.688451409848
 30
0.0
 11
-692.782200434811
 21
1343.884892235435
 31
0.0
  0
LINE
  5
37F
330
1F
100
AcDbEntity
  8
0-F
  6
Continuous
 62
     2
370
     9
100
AcDbLine
 10
-689.7819925853656
 20
1366.688451409848
 30
0.0
 11
-689.7819925853656
 21
1343.884892235435
 31
0.0
  0
CIRCLE
  5
380
330
1F
100
AcDbEntity
  8
0-F
  6
Continuous
 62
     2
370
     9
100
AcDbCircle
 10
-691.2822202300032
 20
1355.286671822644
 30
0.0
 40
16.00000117276166
  0
CIRCLE
  5
381
330
1F
100
AcDbEntity
  8
0-F
  6
Continuous
 62
     2
370
     9
100
AcDbCircle
 10
-691.2822202300032
 20
1355.286671822644
 30
0.0
 40
11.50000063148705
  0
CIRCLE
  5
382
330
1F
100
AcDbEntity
  8
0-F
  6
Continuous
 62
     2
370
     9
100
AcDbCircle
 10
-691.2822202300032
 20
1355.286671822644
 30
0.0
 40
12.0000011212117
  0
LINE
  5
383
330
1F
100
AcDbEntity
  8
0-F
  6
JWW_CENTER1
 62
     2
370
     9
100
AcDbLine
 10
-722.2822235291989
 20
1355.286548102729
 30
0.0
 11
-660.2822169308075
 21
1355.286548102729
 31
0.0
  0
LINE
  5
384
330
1F
100
AcDbEntity
  8
0-F
  6
JWW_CENTER1
 62
     2
370
     9
100
AcDbLine
 10
-691.2820965100929
 20
1324.286668523448
 30
0.0
 11
-691.2820965100929
 21
1386.28667512184
 31
0.0
  0
LINE
  5
385
330
1F
100
AcDbEntity
  8
0-F
  6
Continuous
 62
     4
370
     9
100
AcDbLine
 10
-698.7822202300032
 20
148.2858239288522
 30
0.0
 11
-698.7822202300032
 21
178.2858239288528
 31
0.0
  0
LINE
  5
386
330
1F
100
AcDbEntity
  8
0-F
  6
Continuous
 62
     4
370
     9
100
AcDbLine
 10
-683.7822202300032
 20
148.2858239288522
 30
0.0
 11
-683.7822202300032
 21
178.2858239288528
 31
0.0
  0
LINE
  5
387
330
1F
100
AcDbEntity
  8
0-F
  6
Continuous
 62
     4
370
     9
100
AcDbLine
 10
-714.3706754301985
 20
148.2858239288522
 30
0.0
 11
-714.3706754301985
 21
178.2858239288528
 31
0.0
  0
LINE
  5
388
330
1F
100
AcDbEntity
  8
0-F
  6
Continuous
 62
     4
370
     9
100
AcDbLine
 10
-714.3706754301985
 20
148.2858239288522
 30
0.0
 11
-668.1937650298079
 21
148.2858239288522
 31
0.0
  0
LINE
  5
389
330
1F
100
AcDbEntity
  8
0-F
  6
Continuous
 62
     4
370
     9
100
AcDbLine
 10
-714.3706754301985
 20
178.2858239288528
 30
0.0
 11
-668.1937650298079
 21
178.2858239288528
 31
0.0
  0
LINE
  5
38A
330
1F
100
AcDbEntity
  8
0-F
  6
Continuous
 62
     4
370
     9
100
AcDbLine
 10
-668.1937650298079
 20
148.2858239288522
 30
0.0
 11
-668.1937650298079
 21
178.2858239288528
 31
0.0
  0
LINE
  5
38B
330
1F
100
AcDbEntity
  8
0-F
  6
JWW_CENTER1
 62
     4
370
     9
100
AcDbLine
 10
-720.6912486627044
 20
163.2858239288527
 30
0.0
 11
-661.873191797302
 21
163.2858239288527
 31
0.0
  0
LINE
  5
38C
330
1F
100
AcDbEntity
  8
0-F
  6
JWW_CENTER1
 62
     4
370
     9
100
AcDbLine
 10
-691.2822202300032
 20
141.1684533233825
 30
0.0
 11
-691.2822202300032
 21
184.407497512837
 31
0.0
  0
LINE
  5
38D
330
1F
100
AcDbEntity
  8
0-F
  6
Continuous
 62
     2
370
     9
100
AcDbLine
 10
-692.782200434811
 20
51.88404434164788
 30
0.0
 11
-692.782200434811
 21
74.68760351606072
 31
0.0
  0
LINE
  5
38E
330
1F
100
AcDbEntity
  8
0-F
  6
Continuous
 62
     2
370
     9
100
AcDbLine
 10
-689.7819925853656
 20
51.88404434164788
 30
0.0
 11
-689.7819925853656
 21
74.68760351606072
 31
0.0
  0
CIRCLE
  5
38F
330
1F
100
AcDbEntity
  8
0-F
  6
Continuous
 62
     2
370
     9
100
AcDbCircle
 10
-691.2822202300032
 20
63.28582392885203
 30
0.0
 40
16.00000117276166
  0
CIRCLE
  5
390
330
1F
100
AcDbEntity
  8
0-F
  6
Continuous
 62
     2
370
     9
100
AcDbCircle
 10
-691.2822202300032
 20
63.28582392885203
 30
0.0
 40
11.50000063148704
  0
CIRCLE
  5
391
330
1F
100
AcDbEntity
  8
0-F
  6
Continuous
 62
     2
370
     9
100
AcDbCircle
 10
-691.2822202300032
 20
63.28582392885203
 30
0.0
 40
12.00000112121169
  0
LINE
  5
392
330
1F
100
AcDbEntity
  8
0-F
  6
JWW_CENTER1
 62
     2
370
     9
100
AcDbLine
 10
-722.2822235291989
 20
63.28594764876691
 30
0.0
 11
-660.2822169308075
 21
63.28594764876691
 31
0.0
  0
LINE
  5
393
330
1F
100
AcDbEntity
  8
0-F
  6
JWW_CENTER1
 62
     2
370
     9
100
AcDbLine
 10
-691.2820965100929
 20
94.2858272280477
 30
0.0
 11
-691.2820965100929
 21
32.2858206296565
 31
0.0
  0
LINE
  5
394
330
1F
100
AcDbEntity
  8
0-F
  6
Continuous
 62
     4
370
     9
100
AcDbLine
 10
-458.7822202300032
 20
1270.286671822644
 30
0.0
 11
-458.7822202300032
 21
1240.286671822644
 31
0.0
  0
LINE
  5
395
330
1F
100
AcDbEntity
  8
0-F
  6
Continuous
 62
     4
370
     9
100
AcDbLine
 10
-443.7822202300032
 20
1270.286671822644
 30
0.0
 11
-443.7822202300032
 21
1240.286671822644
 31
0.0
  0
LINE
  5
396
330
1F
100
AcDbEntity
  8
0-F
  6
Continuous
 62
     4
370
     9
100
AcDbLine
 10
-474.3706754301985
 20
1270.286671822644
 30
0.0
 11
-474.3706754301985
 21
1240.286671822644
 31
0.0
  0
LINE
  5
397
330
1F
100
AcDbEntity
  8
0-F
  6
Continuous
 62
     4
370
     9
100
AcDbLine
 10
-474.3706754301985
 20
1270.286671822644
 30
0.0
 11
-428.1937650298079
 21
1270.286671822644
 31
0.0
  0
LINE
  5
398
330
1F
100
AcDbEntity
  8
0-F
  6
Continuous
 62
     4
370
     9
100
AcDbLine
 10
-474.3706754301985
 20
1240.286671822644
 30
0.0
 11
-428.1937650298079
 21
1240.286671822644
 31
0.0
  0
LINE
  5
399
330
1F
100
AcDbEntity
  8
0-F
  6
Continuous
 62
     4
370
     9
100
AcDbLine
 10
-428.1937650298079
 20
1270.286671822644
 30
0.0
 11
-428.1937650298079
 21
1240.286671822644
 31
0.0
  0
LINE
  5
39A
330
1F
100
AcDbEntity
  8
0-F
  6
JWW_CENTER1
 62
     4
370
     9
100
AcDbLine
 10
-451.2822202300032
 20
1277.404042428114
 30
0.0
 11
-451.2822202300032
 21
1234.16499823866
 31
0.0
  0
LINE
  5
39B
330
1F
100
AcDbEntity
  8
0-F
  6
Continuous
 62
     2
370
     9
100
AcDbLine
 10
-452.782200434811
 20
1366.688451409848
 30
0.0
 11
-452.782200434811
 21
1343.884892235435
 31
0.0
  0
LINE
  5
39C
330
1F
100
AcDbEntity
  8
0-F
  6
Continuous
 62
     2
370
     9
100
AcDbLine
 10
-449.7819925853656
 20
1366.688451409848
 30
0.0
 11
-449.7819925853656
 21
1343.884892235435
 31
0.0
  0
CIRCLE
  5
39D
330
1F
100
AcDbEntity
  8
0-F
  6
Continuous
 62
     2
370
     9
100
AcDbCircle
 10
-451.2822202300032
 20
1355.286671822644
 30
0.0
 40
16.00000117276166
  0
CIRCLE
  5
39E
330
1F
100
AcDbEntity
  8
0-F
  6
Continuous
 62
     2
370
     9
100
AcDbCircle
 10
-451.2822202300032
 20
1355.286671822644
 30
0.0
 40
11.50000063148705
  0
CIRCLE
  5
39F
330
1F
100
AcDbEntity
  8
0-F
  6
Continuous
 62
     2
370
     9
100
AcDbCircle
 10
-451.2822202300032
 20
1355.286671822644
 30
0.0
 40
12.0000011212117
  0
LINE
  5
3A0
330
1F
100
AcDbEntity
  8
0-F
  6
JWW_CENTER1
 62
     2
370
     9
100
AcDbLine
 10
-451.2820965100929
 20
1324.286668523448
 30
0.0
 11
-451.2820965100929
 21
1386.28667512184
 31
0.0
  0
LINE
  5
3A1
330
1F
100
AcDbEntity
  8
0-F
  6
JWW_CENTER1
 62
     2
370
     9
100
AcDbLine
 10
-482.2822235291989
 20
1355.286795542559
 30
0.0
 11
-420.2822169308075
 21
1355.286795542559
 31
0.0
  0
LINE
  5
3A2
330
1F
100
AcDbEntity
  8
0-F
  6
JWW_CENTER1
 62
     4
370
     9
100
AcDbLine
 10
-480.6912486627044
 20
1255.286671822644
 30
0.0
 11
-421.873191797302
 21
1255.286671822644
 31
0.0
  0
LINE
  5
3A3
330
1F
100
AcDbEntity
  8
0-F
  6
Continuous
 62
     4
370
     9
100
AcDbLine
 10
-458.7822202300032
 20
148.2858239288522
 30
0.0
 11
-458.7822202300032
 21
178.2858239288528
 31
0.0
  0
LINE
  5
3A4
330
1F
100
AcDbEntity
  8
0-F
  6
Continuous
 62
     4
370
     9
100
AcDbLine
 10
-443.7822202300032
 20
148.2858239288522
 30
0.0
 11
-443.7822202300032
 21
178.2858239288528
 31
0.0
  0
LINE
  5
3A5
330
1F
100
AcDbEntity
  8
0-F
  6
Continuous
 62
     4
370
     9
100
AcDbLine
 10
-474.3706754301985
 20
148.2858239288522
 30
0.0
 11
-474.3706754301985
 21
178.2858239288528
 31
0.0
  0
LINE
  5
3A6
330
1F
100
AcDbEntity
  8
0-F
  6
Continuous
 62
     4
370
     9
100
AcDbLine
 10
-474.3706754301985
 20
148.2858239288522
 30
0.0
 11
-428.1937650298079
 21
148.2858239288522
 31
0.0
  0
LINE
  5
3A7
330
1F
100
AcDbEntity
  8
0-F
  6
Continuous
 62
     4
370
     9
100
AcDbLine
 10
-474.3706754301985
 20
178.2858239288528
 30
0.0
 11
-428.1937650298079
 21
178.2858239288528
 31
0.0
  0
LINE
  5
3A8
330
1F
100
AcDbEntity
  8
0-F
  6
Continuous
 62
     4
370
     9
100
AcDbLine
 10
-428.1937650298079
 20
148.2858239288522
 30
0.0
 11
-428.1937650298079
 21
178.2858239288528
 31
0.0
  0
LINE
  5
3A9
330
1F
100
AcDbEntity
  8
0-F
  6
JWW_CENTER1
 62
     4
370
     9
100
AcDbLine
 10
-451.2822202300032
 20
141.1684533233825
 30
0.0
 11
-451.2822202300032
 21
184.407497512837
 31
0.0
  0
LINE
  5
3AA
330
1F
100
AcDbEntity
  8
0-F
  6
Continuous
 62
     2
370
     9
100
AcDbLine
 10
-452.782200434811
 20
51.88404434164788
 30
0.0
 11
-452.782200434811
 21
74.68760351606072
 31
0.0
  0
LINE
  5
3AB
330
1F
100
AcDbEntity
  8
0-F
  6
Continuous
 62
     2
370
     9
100
AcDbLine
 10
-449.7819925853656
 20
51.88404434164788
 30
0.0
 11
-449.7819925853656
 21
74.68760351606072
 31
0.0
  0
CIRCLE
  5
3AC
330
1F
100
AcDbEntity
  8
0-F
  6
Continuous
 62
     2
370
     9
100
AcDbCircle
 10
-451.2822202300032
 20
63.28582392885203
 30
0.0
 40
16.00000117276166
  0
CIRCLE
  5
3AD
330
1F
100
AcDbEntity
  8
0-F
  6
Continuous
 62
     2
370
     9
100
AcDbCircle
 10
-451.2822202300032
 20
63.28582392885203
 30
0.0
 40
11.50000063148705
  0
CIRCLE
  5
3AE
330
1F
100
AcDbEntity
  8
0-F
  6
Continuous
 62
     2
370
     9
100
AcDbCircle
 10
-451.2822202300032
 20
63.28582392885203
 30
0.0
 40
12.0000011212117
  0
LINE
  5
3AF
330
1F
100
AcDbEntity
  8
0-F
  6
JWW_CENTER1
 62
     2
370
     9
100
AcDbLine
 10
-451.2820965100929
 20
94.2858272280477
 30
0.0
 11
-451.2820965100929
 21
32.2858206296565
 31
0.0
  0
LINE
  5
3B0
330
1F
100
AcDbEntity
  8
0-F
  6
JWW_CENTER1
 62
     2
370
     9
100
AcDbLine
 10
-482.2822235291989
 20
63.28594764876691
 30
0.0
 11
-420.2822169308075
 21
63.28594764876691
 31
0.0
  0
LINE
  5
3B1
330
1F
100
AcDbEntity
  8
0-F
  6
JWW_CENTER1
 62
     4
370
     9
100
AcDbLine
 10
-480.6912486627044
 20
163.2858239288528
 30
0.0
 11
-421.873191797302
 21
163.2858239288528
 31
0.0
  0
LINE
  5
3B2
330
1F
100
AcDbEntity
  8
0-F
  6
Continuous
 62
     4
370
     9
100
AcDbLine
 10
-345.1572202300031
 20
1270.286671822644
 30
0.0
 11
-345.1572202300031
 21
1240.286671822644
 31
0.0
  0
LINE
  5
3B3
330
1F
100
AcDbEntity
  8
0-F
  6
Continuous
 62
     4
370
     9
100
AcDbLine
 10
-330.1572202300031
 20
1270.286671822644
 30
0.0
 11
-330.1572202300031
 21
1240.286671822644
 31
0.0
  0
LINE
  5
3B4
330
1F
100
AcDbEntity
  8
0-F
  6
Continuous
 62
     4
370
     9
100
AcDbLine
 10
-360.7456754301984
 20
1270.286671822644
 30
0.0
 11
-360.7456754301984
 21
1240.286671822644
 31
0.0
  0
LINE
  5
3B5
330
1F
100
AcDbEntity
  8
0-F
  6
Continuous
 62
     4
370
     9
100
AcDbLine
 10
-360.7456754301984
 20
1270.286671822644
 30
0.0
 11
-314.5687650298078
 21
1270.286671822644
 31
0.0
  0
LINE
  5
3B6
330
1F
100
AcDbEntity
  8
0-F
  6
Continuous
 62
     4
370
     9
100
AcDbLine
 10
-360.7456754301984
 20
1240.286671822644
 30
0.0
 11
-314.5687650298078
 21
1240.286671822644
 31
0.0
  0
LINE
  5
3B7
330
1F
100
AcDbEntity
  8
0-F
  6
Continuous
 62
     4
370
     9
100
AcDbLine
 10
-314.5687650298078
 20
1270.286671822644
 30
0.0
 11
-314.5687650298078
 21
1240.286671822644
 31
0.0
  0
LINE
  5
3B8
330
1F
100
AcDbEntity
  8
0-F
  6
JWW_CENTER1
 62
     4
370
     9
100
AcDbLine
 10
-367.0662486627043
 20
1255.286671822644
 30
0.0
 11
-308.2481917973018
 21
1255.286671822644
 31
0.0
  0
LINE
  5
3B9
330
1F
100
AcDbEntity
  8
0-F
  6
JWW_CENTER1
 62
     4
370
     9
100
AcDbLine
 10
-337.6572202300031
 20
1277.404042428114
 30
0.0
 11
-337.6572202300031
 21
1234.16499823866
 31
0.0
  0
LINE
  5
3BA
330
1F
100
AcDbEntity
  8
0-F
  6
Continuous
 62
     2
370
     9
100
AcDbLine
 10
-339.1572004348109
 20
1366.688451409848
 30
0.0
 11
-339.1572004348109
 21
1343.884892235435
 31
0.0
  0
LINE
  5
3BB
330
1F
100
AcDbEntity
  8
0-F
  6
Continuous
 62
     2
370
     9
100
AcDbLine
 10
-336.1569925853655
 20
1366.688451409848
 30
0.0
 11
-336.1569925853655
 21
1343.884892235435
 31
0.0
  0
CIRCLE
  5
3BC
330
1F
100
AcDbEntity
  8
0-F
  6
Continuous
 62
     2
370
     9
100
AcDbCircle
 10
-337.6572202300031
 20
1355.286671822644
 30
0.0
 40
16.00000117276166
  0
CIRCLE
  5
3BD
330
1F
100
AcDbEntity
  8
0-F
  6
Continuous
 62
     2
370
     9
100
AcDbCircle
 10
-337.6572202300031
 20
1355.286671822644
 30
0.0
 40
11.50000063148705
  0
CIRCLE
  5
3BE
330
1F
100
AcDbEntity
  8
0-F
  6
Continuous
 62
     2
370
     9
100
AcDbCircle
 10
-337.6572202300031
 20
1355.286671822644
 30
0.0
 40
12.0000011212117
  0
LINE
  5
3BF
330
1F
100
AcDbEntity
  8
0-F
  6
JWW_CENTER1
 62
     2
370
     9
100
AcDbLine
 10
-368.6572235291987
 20
1355.286548102729
 30
0.0
 11
-306.6572169308074
 21
1355.286548102729
 31
0.0
  0
LINE
  5
3C0
330
1F
100
AcDbEntity
  8
0-F
  6
JWW_CENTER1
 62
     2
370
     9
100
AcDbLine
 10
-337.6570965100927
 20
1324.286668523448
 30
0.0
 11
-337.6570965100927
 21
1386.28667512184
 31
0.0
  0
LINE
  5
3C1
330
1F
100
AcDbEntity
  8
0-F
  6
Continuous
 62
     4
370
     9
100
AcDbLine
 10
-345.1572202300031
 20
148.2858239288522
 30
0.0
 11
-345.1572202300031
 21
178.2858239288528
 31
0.0
  0
LINE
  5
3C2
330
1F
100
AcDbEntity
  8
0-F
  6
Continuous
 62
     4
370
     9
100
AcDbLine
 10
-330.1572202300031
 20
148.2858239288522
 30
0.0
 11
-330.1572202300031
 21
178.2858239288528
 31
0.0
  0
LINE
  5
3C3
330
1F
100
AcDbEntity
  8
0-F
  6
Continuous
 62
     4
370
     9
100
AcDbLine
 10
-360.7456754301984
 20
148.2858239288522
 30
0.0
 11
-360.7456754301984
 21
178.2858239288528
 31
0.0
  0
LINE
  5
3C4
330
1F
100
AcDbEntity
  8
0-F
  6
Continuous
 62
     4
370
     9
100
AcDbLine
 10
-360.7456754301984
 20
148.2858239288522
 30
0.0
 11
-314.5687650298078
 21
148.2858239288522
 31
0.0
  0
LINE
  5
3C5
330
1F
100
AcDbEntity
  8
0-F
  6
Continuous
 62
     4
370
     9
100
AcDbLine
 10
-360.7456754301984
 20
178.2858239288528
 30
0.0
 11
-314.5687650298078
 21
178.2858239288528
 31
0.0
  0
LINE
  5
3C6
330
1F
100
AcDbEntity
  8
0-F
  6
Continuous
 62
     4
370
     9
100
AcDbLine
 10
-314.5687650298078
 20
148.2858239288522
 30
0.0
 11
-314.5687650298078
 21
178.2858239288528
 31
0.0
  0
LINE
  5
3C7
330
1F
100
AcDbEntity
  8
0-F
  6
JWW_CENTER1
 62
     4
370
     9
100
AcDbLine
 10
-367.0662486627043
 20
163.2858239288527
 30
0.0
 11
-308.2481917973018
 21
163.2858239288527
 31
0.0
  0
LINE
  5
3C8
330
1F
100
AcDbEntity
  8
0-F
  6
JWW_CENTER1
 62
     4
370
     9
100
AcDbLine
 10
-337.6572202300031
 20
141.1684533233825
 30
0.0
 11
-337.6572202300031
 21
184.407497512837
 31
0.0
  0
LINE
  5
3C9
330
1F
100
AcDbEntity
  8
0-F
  6
Continuous
 62
     2
370
     9
100
AcDbLine
 10
-339.1572004348109
 20
51.88404434164788
 30
0.0
 11
-339.1572004348109
 21
74.68760351606072
 31
0.0
  0
LINE
  5
3CA
330
1F
100
AcDbEntity
  8
0-F
  6
Continuous
 62
     2
370
     9
100
AcDbLine
 10
-336.1569925853655
 20
51.88404434164788
 30
0.0
 11
-336.1569925853655
 21
74.68760351606072
 31
0.0
  0
CIRCLE
  5
3CB
330
1F
100
AcDbEntity
  8
0-F
  6
Continuous
 62
     2
370
     9
100
AcDbCircle
 10
-337.6572202300031
 20
63.28582392885203
 30
0.0
 40
16.00000117276166
  0
CIRCLE
  5
3CC
330
1F
100
AcDbEntity
  8
0-F
  6
Continuous
 62
     2
370
     9
100
AcDbCircle
 10
-337.6572202300031
 20
63.28582392885203
 30
0.0
 40
11.50000063148704
  0
CIRCLE
  5
3CD
330
1F
100
AcDbEntity
  8
0-F
  6
Continuous
 62
     2
370
     9
100
AcDbCircle
 10
-337.6572202300031
 20
63.28582392885203
 30
0.0
 40
12.00000112121169
  0
LINE
  5
3CE
330
1F
100
AcDbEntity
  8
0-F
  6
JWW_CENTER1
 62
     2
370
     9
100
AcDbLine
 10
-368.6572235291987
 20
63.28594764876691
 30
0.0
 11
-306.6572169308074
 21
63.28594764876691
 31
0.0
  0
LINE
  5
3CF
330
1F
100
AcDbEntity
  8
0-F
  6
JWW_CENTER1
 62
     2
370
     9
100
AcDbLine
 10
-337.6570965100927
 20
94.2858272280477
 30
0.0
 11
-337.6570965100927
 21
32.2858206296565
 31
0.0
  0
LINE
  5
3D0
330
1F
100
AcDbEntity
  8
0-F
  6
Continuous
 62
     4
370
     9
100
AcDbLine
 10
-105.1572202300031
 20
1270.286671822644
 30
0.0
 11
-105.1572202300031
 21
1240.286671822644
 31
0.0
  0
LINE
  5
3D1
330
1F
100
AcDbEntity
  8
0-F
  6
Continuous
 62
     4
370
     9
100
AcDbLine
 10
-90.15722023000308
 20
1270.286671822644
 30
0.0
 11
-90.15722023000308
 21
1240.286671822644
 31
0.0
  0
LINE
  5
3D2
330
1F
100
AcDbEntity
  8
0-F
  6
Continuous
 62
     4
370
     9
100
AcDbLine
 10
-120.7456754301984
 20
1270.286671822644
 30
0.0
 11
-120.7456754301984
 21
1240.286671822644
 31
0.0
  0
LINE
  5
3D3
330
1F
100
AcDbEntity
  8
0-F
  6
Continuous
 62
     4
370
     9
100
AcDbLine
 10
-120.7456754301984
 20
1270.286671822644
 30
0.0
 11
-74.56876502980776
 21
1270.286671822644
 31
0.0
  0
LINE
  5
3D4
330
1F
100
AcDbEntity
  8
0-F
  6
Continuous
 62
     4
370
     9
100
AcDbLine
 10
-120.7456754301984
 20
1240.286671822644
 30
0.0
 11
-74.56876502980776
 21
1240.286671822644
 31
0.0
  0
LINE
  5
3D5
330
1F
100
AcDbEntity
  8
0-F
  6
Continuous
 62
     4
370
     9
100
AcDbLine
 10
-74.56876502980776
 20
1270.286671822644
 30
0.0
 11
-74.56876502980776
 21
1240.286671822644
 31
0.0
  0
LINE
  5
3D6
330
1F
100
AcDbEntity
  8
0-F
  6
JWW_CENTER1
 62
     4
370
     9
100
AcDbLine
 10
-97.65722023000308
 20
1277.404042428114
 30
0.0
 11
-97.65722023000308
 21
1234.16499823866
 31
0.0
  0
LINE
  5
3D7
330
1F
100
AcDbEntity
  8
0-F
  6
Continuous
 62
     2
370
     9
100
AcDbLine
 10
-99.15720043481087
 20
1366.688451409848
 30
0.0
 11
-99.15720043481087
 21
1343.884892235435
 31
0.0
  0
LINE
  5
3D8
330
1F
100
AcDbEntity
  8
0-F
  6
Continuous
 62
     2
370
     9
100
AcDbLine
 10
-96.15699258536551
 20
1366.688451409848
 30
0.0
 11
-96.15699258536551
 21
1343.884892235435
 31
0.0
  0
CIRCLE
  5
3D9
330
1F
100
AcDbEntity
  8
0-F
  6
Continuous
 62
     2
370
     9
100
AcDbCircle
 10
-97.65722023000308
 20
1355.286671822644
 30
0.0
 40
16.00000117276166
  0
CIRCLE
  5
3DA
330
1F
100
AcDbEntity
  8
0-F
  6
Continuous
 62
     2
370
     9
100
AcDbCircle
 10
-97.65722023000308
 20
1355.286671822644
 30
0.0
 40
11.50000063148705
  0
CIRCLE
  5
3DB
330
1F
100
AcDbEntity
  8
0-F
  6
Continuous
 62
     2
370
     9
100
AcDbCircle
 10
-97.65722023000308
 20
1355.286671822644
 30
0.0
 40
12.0000011212117
  0
LINE
  5
3DC
330
1F
100
AcDbEntity
  8
0-F
  6
JWW_CENTER1
 62
     2
370
     9
100
AcDbLine
 10
-97.65709651009274
 20
1324.286668523448
 30
0.0
 11
-97.65709651009274
 21
1386.28667512184
 31
0.0
  0
LINE
  5
3DD
330
1F
100
AcDbEntity
  8
0-F
  6
JWW_CENTER1
 62
     2
370
     9
100
AcDbLine
 10
-128.6572235291987
 20
1355.286795542559
 30
0.0
 11
-66.65721693080741
 21
1355.286795542559
 31
0.0
  0
LINE
  5
3DE
330
1F
100
AcDbEntity
  8
0-F
  6
JWW_CENTER1
 62
     4
370
     9
100
AcDbLine
 10
-127.0662486627043
 20
1255.286671822644
 30
0.0
 11
-68.24819179730184
 21
1255.286671822644
 31
0.0
  0
LINE
  5
3DF
330
1F
100
AcDbEntity
  8
0-F
  6
Continuous
 62
     4
370
     9
100
AcDbLine
 10
-105.1572202300031
 20
148.2858239288522
 30
0.0
 11
-105.1572202300031
 21
178.2858239288528
 31
0.0
  0
LINE
  5
3E0
330
1F
100
AcDbEntity
  8
0-F
  6
Continuous
 62
     4
370
     9
100
AcDbLine
 10
-90.15722023000308
 20
148.2858239288522
 30
0.0
 11
-90.15722023000308
 21
178.2858239288528
 31
0.0
  0
LINE
  5
3E1
330
1F
100
AcDbEntity
  8
0-F
  6
Continuous
 62
     4
370
     9
100
AcDbLine
 10
-120.7456754301984
 20
148.2858239288522
 30
0.0
 11
-120.7456754301984
 21
178.2858239288528
 31
0.0
  0
LINE
  5
3E2
330
1F
100
AcDbEntity
  8
0-F
  6
Continuous
 62
     4
370
     9
100
AcDbLine
 10
-120.7456754301984
 20
148.2858239288522
 30
0.0
 11
-74.56876502980776
 21
148.2858239288522
 31
0.0
  0
LINE
  5
3E3
330
1F
100
AcDbEntity
  8
0-F
  6
Continuous
 62
     4
370
     9
100
AcDbLine
 10
-120.7456754301984
 20
178.2858239288528
 30
0.0
 11
-74.56876502980776
 21
178.2858239288528
 31
0.0
  0
LINE
  5
3E4
330
1F
100
AcDbEntity
  8
0-F
  6
Continuous
 62
     4
370
     9
100
AcDbLine
 10
-74.56876502980776
 20
148.2858239288522
 30
0.0
 11
-74.56876502980776
 21
178.2858239288528
 31
0.0
  0
LINE
  5
3E5
330
1F
100
AcDbEntity
  8
0-F
  6
JWW_CENTER1
 62
     4
370
     9
100
AcDbLine
 10
-97.65722023000308
 20
141.1684533233825
 30
0.0
 11
-97.65722023000308
 21
184.407497512837
 31
0.0
  0
LINE
  5
3E6
330
1F
100
AcDbEntity
  8
0-F
  6
Continuous
 62
     2
370
     9
100
AcDbLine
 10
-99.15720043481087
 20
51.88404434164788
 30
0.0
 11
-99.15720043481087
 21
74.68760351606072
 31
0.0
  0
LINE
  5
3E7
330
1F
100
AcDbEntity
  8
0-F
  6
Continuous
 62
     2
370
     9
100
AcDbLine
 10
-96.15699258536551
 20
51.88404434164788
 30
0.0
 11
-96.15699258536551
 21
74.68760351606072
 31
0.0
  0
CIRCLE
  5
3E8
330
1F
100
AcDbEntity
  8
0-F
  6
Continuous
 62
     2
370
     9
100
AcDbCircle
 10
-97.65722023000308
 20
63.28582392885203
 30
0.0
 40
16.00000117276166
  0
CIRCLE
  5
3E9
330
1F
100
AcDbEntity
  8
0-F
  6
Continuous
 62
     2
370
     9
100
AcDbCircle
 10
-97.65722023000308
 20
63.28582392885203
 30
0.0
 40
11.50000063148705
  0
CIRCLE
  5
3EA
330
1F
100
AcDbEntity
  8
0-F
  6
Continuous
 62
     2
370
     9
100
AcDbCircle
 10
-97.65722023000308
 20
63.28582392885203
 30
0.0
 40
12.0000011212117
  0
LINE
  5
3EB
330
1F
100
AcDbEntity
  8
0-F
  6
JWW_CENTER1
 62
     2
370
     9
100
AcDbLine
 10
-97.65709651009274
 20
94.2858272280477
 30
0.0
 11
-97.65709651009274
 21
32.2858206296565
 31
0.0
  0
LINE
  5
3EC
330
1F
100
AcDbEntity
  8
0-F
  6
JWW_CENTER1
 62
     2
370
     9
100
AcDbLine
 10
-128.6572235291987
 20
63.28594764876691
 30
0.0
 11
-66.65721693080741
 21
63.28594764876691
 31
0.0
  0
LINE
  5
3ED
330
1F
100
AcDbEntity
  8
0-F
  6
JWW_CENTER1
 62
     4
370
     9
100
AcDbLine
 10
-127.0662486627043
 20
163.2858239288528
 30
0.0
 11
-68.24819179730184
 21
163.2858239288528
 31
0.0
  0
LINE
  5
3EE
330
1F
100
AcDbEntity
  8
0-E
  6
Continuous
 62
     3
370
     9
100
AcDbLine
 10
5.292970711058871
 20
944.7863287060921
 30
0.0
 11
5.292970711058871
 21
904.7863287060921
 31
0.0
  0
LINE
  5
3EF
330
1F
100
AcDbEntity
  8
0-E
  6
Continuous
 62
     3
370
     9
100
AcDbLine
 10
5.292970711058871
 20
944.7863287060921
 30
0.0
 11
-28.90698433737541
 21
944.7863287060921
 31
0.0
  0
LINE
  5
3F0
330
1F
100
AcDbEntity
  8
0-E
  6
Continuous
 62
     3
370
     9
100
AcDbLine
 10
5.292970711058871
 20
904.7863287060921
 30
0.0
 11
-28.90698433737541
 21
904.7863287060921
 31
0.0
  0
CIRCLE
  5
3F1
330
1F
100
AcDbEntity
  8
0-E
  6
Continuous
 62
     3
370
     9
100
AcDbCircle
 10
-9.70702928894113
 20
924.7863287060921
 30
0.0
 40
6.999999999998181
  0
LINE
  5
3F2
330
1F
100
AcDbEntity
  8
0-E
  6
JWW_CENTER1
 62
     3
370
     9
100
AcDbLine
 10
12.26596973732924
 20
924.7863287060921
 30
0.0
 11
-28.90698433737541
 21
924.7863287060921
 31
0.0
  0
LINE
  5
3F3
330
1F
100
AcDbEntity
  8
0-E
  6
JWW_CENTER1
 62
     3
370
     9
100
AcDbLine
 10
-9.70702928894113
 20
900.4090872428845
 30
0.0
 11
-9.70702928894113
 21
949.1635701692986
 31
0.0
  0
LINE
  5
3F4
330
1F
100
AcDbEntity
  8
0-E
  6
Continuous
 62
     3
370
     9
100
AcDbLine
 10
5.292970711058871
 20
513.7862231317715
 30
0.0
 11
5.292970711058871
 21
473.7862231317715
 31
0.0
  0
LINE
  5
3F5
330
1F
100
AcDbEntity
  8
0-E
  6
Continuous
 62
     3
370
     9
100
AcDbLine
 10
5.292970711058871
 20
513.7862231317715
 30
0.0
 11
-28.90698433737541
 21
513.7862231317715
 31
0.0
  0
LINE
  5
3F6
330
1F
100
AcDbEntity
  8
0-E
  6
Continuous
 62
     3
370
     9
100
AcDbLine
 10
5.292970711058871
 20
473.7862231317715
 30
0.0
 11
-28.90698433737541
 21
473.7862231317715
 31
0.0
  0
CIRCLE
  5
3F7
330
1F
100
AcDbEntity
  8
0-E
  6
Continuous
 62
     3
370
     9
100
AcDbCircle
 10
-9.70702928894113
 20
493.7862231317715
 30
0.0
 40
6.999999999998181
  0
LINE
  5
3F8
330
1F
100
AcDbEntity
  8
0-E
  6
JWW_CENTER1
 62
     3
370
     9
100
AcDbLine
 10
12.26596973732924
 20
493.7862231317715
 30
0.0
 11
-28.90698433737541
 21
493.7862231317715
 31
0.0
  0
LINE
  5
3F9
330
1F
100
AcDbEntity
  8
0-E
  6
JWW_CENTER1
 62
     3
370
     9
100
AcDbLine
 10
-9.70702928894113
 20
469.4089816685639
 30
0.0
 11
-9.70702928894113
 21
518.163464594978
 31
0.0
  0
LINE
  5
3FA
330
1F
100
AcDbEntity
  8
0-F
  6
Continuous
 62
     7
370
     9
100
AcDbLine
 10
96.0769598715714
 20
63.28655305153056
 30
0.0
 11
96.07695987157142
 21
493.7862231317715
 31
0.0
  0
LWPOLYLINE
  5
3FB
330
1F
100
AcDbEntity
  8
0-F
  6
Continuous
 62
     7
370
     9
100
AcDbPolyline
 90
        4
 70
     1
 43
2.0
 10
97.0769598715714
 20
493.7862231317715
 42
0.4142135623731
 10
96.07695987157142
 20
494.7862231317715
 42
0.4142135623731
 10
95.07695987157142
 20
493.7862231317715
 42
0.4142135623731
 10
96.07695987157142
 20
492.7862231317715
 42
0.4142135623731
  0
LINE
  5
3FC
330
1F
100
AcDbEntity
  8
0-F
  6
Continuous
 62
     7
370
     9
100
AcDbLine
 10
99.07695987157142
 20
493.7862231317715
 30
0.0
 11
32.26596973732924
 21
493.7862231317715
 31
0.0
  0
TEXT
  5
3FD
330
1F
100
AcDbEntity
  8
0-F
  6
Continuous
 62
     2
370
   211
100
AcDbText
 10
85.43695987157142
 20
223.536388091651
 30
0.0
 40
30.48
  1
430.5
 50
90.0
 41
1.1
  7
ＭＳ ゴシック
100
AcDbText
  0
LINE
  5
3FE
330
1F
100
AcDbEntity
  8
0-F
  6
Continuous
 62
     7
370
     9
100
AcDbLine
 10
96.07695987157142
 20
493.7862231317715
 30
0.0
 11
96.07695987157145
 21
924.7863287060923
 31
0.0
  0
LWPOLYLINE
  5
3FF
330
1F
100
AcDbEntity
  8
0-F
  6
Continuous
 62
     7
370
     9
100
AcDbPolyline
 90
        4
 70
     1
 43
2.0
 10
97.07695987157145
 20
924.7863287060923
 42
0.4142135623731
 10
96.07695987157145
 20
925.7863287060923
 42
0.4142135623731
 10
95.07695987157146
 20
924.7863287060923
 42
0.4142135623731
 10
96.07695987157145
 20
923.7863287060924
 42
0.4142135623731
  0
LINE
  5
400
330
1F
100
AcDbEntity
  8
0-F
  6
Continuous
 62
     7
370
     9
100
AcDbLine
 10
99.07695987157146
 20
924.7863287060923
 30
0.0
 11
32.26596973732924
 21
924.7863287060923
 31
0.0
  0
TEXT
  5
401
330
1F
100
AcDbEntity
  8
0-F
  6
Continuous
 62
     2
370
   211
100
AcDbText
 10
85.43695987157143
 20
676.7862759189319
 30
0.0
 40
30.48
  1
431
 50
90.0
 41
1.083333333333333
  7
ＭＳ ゴシック
100
AcDbText
  0
LINE
  5
402
330
1F
100
AcDbEntity
  8
0-F
  6
Continuous
 62
     7
370
     9
100
AcDbLine
 10
96.07695987157145
 20
924.7863287060923
 30
0.0
 11
96.07695987157146
 21
1355.286246226151
 31
0.0
  0
TEXT
  5
403
330
1F
100
AcDbEntity
  8
0-F
  6
Continuous
 62
     2
370
   211
100
AcDbText
 10
85.43695987157146
 20
1085.036287466122
 30
0.0
 40
30.48
  1
430.5
 50
90.0
 41
1.1
  7
ＭＳ ゴシック
100
AcDbText
  0
LINE
  5
404
330
1F
100
AcDbEntity
  8
0-E
  6
Continuous
 62
     3
370
     9
100
AcDbLine
 10
-1855.106921240224
 20
473.7862231317625
 30
0.0
 11
-1855.106921240224
 21
513.7862231317625
 31
0.0
  0
LINE
  5
405
330
1F
100
AcDbEntity
  8
0-E
  6
Continuous
 62
     3
370
     9
100
AcDbLine
 10
-1855.106921240224
 20
473.7862231317625
 30
0.0
 11
-1820.90696619179
 21
473.7862231317625
 31
0.0
  0
LINE
  5
406
330
1F
100
AcDbEntity
  8
0-E
  6
Continuous
 62
     3
370
     9
100
AcDbLine
 10
-1855.106921240224
 20
513.7862231317625
 30
0.0
 11
-1820.90696619179
 21
513.7862231317625
 31
0.0
  0
CIRCLE
  5
407
330
1F
100
AcDbEntity
  8
0-E
  6
Continuous
 62
     3
370
     9
100
AcDbCircle
 10
-1840.106921240224
 20
493.7862231317625
 30
0.0
 40
6.999999999998181
  0
LINE
  5
408
330
1F
100
AcDbEntity
  8
0-E
  6
JWW_CENTER1
 62
     3
370
     9
100
AcDbLine
 10
-1862.079920266495
 20
493.7862231317625
 30
0.0
 11
-1820.90696619179
 21
493.7862231317625
 31
0.0
  0
LINE
  5
409
330
1F
100
AcDbEntity
  8
0-E
  6
JWW_CENTER1
 62
     3
370
     9
100
AcDbLine
 10
-1840.106921240224
 20
518.1634645949702
 30
0.0
 11
-1840.106921240224
 21
469.4089816685561
 31
0.0
  0
LINE
  5
40A
330
1F
100
AcDbEntity
  8
0-E
  6
Continuous
 62
     3
370
     9
100
AcDbLine
 10
-1855.106921240224
 20
904.7863287060832
 30
0.0
 11
-1855.106921240224
 21
944.7863287060832
 31
0.0
  0
LINE
  5
40B
330
1F
100
AcDbEntity
  8
0-E
  6
Continuous
 62
     3
370
     9
100
AcDbLine
 10
-1855.106921240224
 20
904.7863287060832
 30
0.0
 11
-1820.90696619179
 21
904.7863287060832
 31
0.0
  0
LINE
  5
40C
330
1F
100
AcDbEntity
  8
0-E
  6
Continuous
 62
     3
370
     9
100
AcDbLine
 10
-1855.106921240224
 20
944.7863287060832
 30
0.0
 11
-1820.90696619179
 21
944.7863287060832
 31
0.0
  0
CIRCLE
  5
40D
330
1F
100
AcDbEntity
  8
0-E
  6
Continuous
 62
     3
370
     9
100
AcDbCircle
 10
-1840.106921240224
 20
924.7863287060832
 30
0.0
 40
6.999999999998181
  0
LINE
  5
40E
330
1F
100
AcDbEntity
  8
0-E
  6
JWW_CENTER1
 62
     3
370
     9
100
AcDbLine
 10
-1862.079920266495
 20
924.7863287060832
 30
0.0
 11
-1820.90696619179
 21
924.7863287060832
 31
0.0
  0
LINE
  5
40F
330
1F
100
AcDbEntity
  8
0-E
  6
JWW_CENTER1
 62
     3
370
     9
100
AcDbLine
 10
-1840.106921240224
 20
949.1635701692908
 30
0.0
 11
-1840.106921240224
 21
900.4090872428767
 31
0.0
  0
TEXT
  5
410
330
1F
100
AcDbEntity
  8
F-Fﾚｲﾔ
  6
Continuous
 62
     2
370
     9
100
AcDbText
 10
-2170.020859680577
 20
-1586.037173756577
 30
0.0
 40
30.48
  1
約82kg/枚
 41
1.097222222222222
  7
ＭＳ ゴシック
100
AcDbText
  0
TEXT
  5
411
330
1F
100
AcDbEntity
  8
F-Fﾚｲﾔ
  6
Continuous
 62
     2
370
     9
100
AcDbText
 10
-2170.020859680577
 20
-1496.036887654282
 30
0.0
 40
30.48
  1
190kg/組
 41
1.09375
  7
ＭＳ ゴシック
100
AcDbText
  0
TEXT
  5
412
330
1F
100
AcDbEntity
  8
F-5ﾚｲﾔ
  6
Continuous
 62
     2
370
     0
100
AcDbText
 10
-500.1060031230026
 20
-1912.862728200519
 30
0.0
 40
30.48
  1
充填用（充填深さ：３０ｍｍ）　屋内用　一般形　スチール製　ステンレス目地
 41
1.121527777777778
  7
ＭＳ ゴシック
100
AcDbText
  0
LINE
  5
413
330
1F
100
AcDbEntity
  8
D-F
  6
Continuous
 62
     7
370
     9
100
AcDbLine
 10
625.437553259703
 20
783.4062392722342
 30
0.0
 11
625.437553259703
 21
533.4062392722298
 31
0.0
  0
TEXT
  5
414
330
1F
100
AcDbEntity
  8
D-F
  6
Continuous
 62
     2
370
   211
100
AcDbText
 10
614.797553259703
 20
637.1562392722319
 30
0.0
 40
30.48
  1
50
 50
90.0
 41
1.0625
  7
ＭＳ ゴシック
100
AcDbText
  0
LINE
  5
415
330
1F
100
AcDbEntity
  8
0-F
  6
Continuous
 62
     7
370
     9
100
AcDbLine
 10
-1820.9070899117
 20
1745.286543153938
 30
0.0
 11
-28.90698433737597
 21
1745.286543153938
 31
0.0
  0
TEXT
  5
416
330
1F
100
AcDbEntity
  8
0-F
  6
Continuous
 62
     2
370
   211
100
AcDbText
 10
-968.6570371245384
 20
1756.926543153938
 30
0.0
 40
30.48
  1
1792
 41
1.09375
  7
ＭＳ ゴシック
100
AcDbText
  0
LINE
  5
417
330
1F
100
AcDbEntity
  8
0-F
  6
Continuous
 62
     7
370
     9
100
AcDbLine
 10
-659.4069224774203
 20
-198.0805424193086
 30
0.0
 11
-128.9053124636119
 21
-198.0805424193086
 31
0.0
  0
TEXT
  5
418
330
1F
100
AcDbEntity
  8
0-F
  6
Continuous
 62
     2
370
   211
100
AcDbText
 10
-449.1561174705161
 20
-187.4405424193086
 30
0.0
 40
30.48
  1
530.5
 41
1.1
  7
ＭＳ ゴシック
100
AcDbText
  0
LINE
  5
419
330
1F
100
AcDbEntity
  8
0-F
  6
Continuous
 62
     7
370
     9
100
AcDbLine
 10
-1720.906613997079
 20
-198.0805424193086
 30
0.0
 11
-1190.407028051741
 21
-198.0805424193086
 31
0.0
  0
TEXT
  5
41A
330
1F
100
AcDbEntity
  8
0-F
  6
Continuous
 62
     2
370
   211
100
AcDbText
 10
-1510.65682102441
 20
-187.4405424193086
 30
0.0
 40
30.48
  1
530.5
 41
1.1
  7
ＭＳ ゴシック
100
AcDbText
  0
LINE
  5
41B
330
1F
100
AcDbEntity
  8
0-F
  6
Continuous
 62
     7
370
     9
100
AcDbLine
 10
-1190.407028051741
 20
-198.0805424193086
 30
0.0
 11
-659.4069224774203
 21
-198.0805424193086
 31
0.0
  0
TEXT
  5
41C
330
1F
100
AcDbEntity
  8
0-F
  6
Continuous
 62
     2
370
   211
100
AcDbText
 10
-957.4069752645806
 20
-187.4405424193086
 30
0.0
 40
30.48
  1
531
 41
1.083333333333333
  7
ＭＳ ゴシック
100
AcDbText
  0
LINE
  5
41D
330
1F
100
AcDbEntity
  8
0-F
  6
Continuous
 62
     7
370
     9
100
AcDbLine
 10
-1911.530911937826
 20
9.286275918929476
 30
0.0
 11
-1911.530911937826
 21
1409.28627591893
 31
0.0
  0
TEXT
  5
41E
330
1F
100
AcDbEntity
  8
0-F
  6
Continuous
 62
     2
370
   211
100
AcDbText
 10
-1923.170832757084
 20
665.5362759189295
 30
0.0
 40
30.48
  1
1400
 50
90.0
 41
1.09375
  7
ＭＳ ゴシック
100
AcDbText
  0
LINE
  5
41F
330
1F
100
AcDbEntity
  8
0-F
  6
Continuous
 62
     7
370
     9
100
AcDbLine
 10
-2017.700259252255
 20
-23.7137834666278
 30
0.0
 11
-2017.700259252255
 21
1442.286335304487
 31
0.0
  0
TEXT
  5
420
330
1F
100
AcDbEntity
  8
0-F
  6
Continuous
 62
     2
370
   211
100
AcDbText
 10
-2029.340180071512
 20
665.5362759189295
 30
0.0
 40
30.48
  1
1466
 50
90.0
 41
1.09375
  7
ＭＳ ゴシック
100
AcDbText
  0
LINE
  5
421
330
1F
100
AcDbEntity
  8
0-F
  6
Continuous
 62
     7
370
     9
100
AcDbLine
 10
-2120.163481801596
 20
-36.71377686823305
 30
0.0
 11
-2120.163481801596
 21
1455.286328706092
 31
0.0
  0
TEXT
  5
422
330
1F
100
AcDbEntity
  8
0-F
  6
Continuous
 62
     2
370
   211
100
AcDbText
 10
-2131.803402620852
 20
665.5362759189295
 30
0.0
 40
30.48
  1
1492
 50
90.0
 41
1.09375
  7
ＭＳ ゴシック
100
AcDbText
  0
LINE
  5
423
330
1F
100
AcDbEntity
  8
0-F
  6
Continuous
 62
     7
370
     9
100
AcDbLine
 10
-1752.157096510093
 20
1181.98489540625
 30
0.0
 11
-1512.157096510093
 21
1181.98489540625
 31
0.0
  0
TEXT
  5
424
330
1F
100
AcDbEntity
  8
0-F
  6
Continuous
 62
     2
370
   211
100
AcDbText
 10
-1664.657096510093
 20
1192.62489540625
 30
0.0
 40
30.48
  1
240
 41
1.083333333333333
  7
ＭＳ ゴシック
100
AcDbText
  0
ENDSEC
  0
SECTION
  2
OBJECTS
  0
DICTIONARY
  5
C
330
0
100
AcDbDictionary
281
     1
  3
ACAD_DETAILVIEWSTYLE
350
46A
  3
ACAD_GROUP
350
D
  3
ACAD_LAYOUT
350
1A
  3
ACAD_MATERIAL
350
43
  3
ACAD_MLEADERSTYLE
350
6B
  3
ACAD_MLINESTYLE
350
17
  3
ACAD_PLOTSETTINGS
350
19
  3
ACAD_PLOTSTYLENAME
350
E
  3
ACAD_SCALELIST
350
47
  3
ACAD_SECTIONVIEWSTYLE
350
46B
  3
ACAD_TABLESTYLE
350
69
  3
ACAD_VISUALSTYLE
350
2A
  3
ACDB_RECOMPOSE_DATA
350
467
  3
AcDbVariableDictionary
350
427
  0
DICTIONARY
  5
425
330
8
100
AcDbDictionary
280
     1
281
     1
  3
ACAD_XREC_ROUNDTRIP
360
426
  0
DICTIONARY
  5
46A
102
{ACAD_REACTORS
330
C
102
}
330
C
100
AcDbDictionary
281
     1
  0
DICTIONARY
  5
D
102
{ACAD_REACTORS
330
C
102
}
330
C
100
AcDbDictionary
281
     1
  0
DICTIONARY
  5
1A
102
{ACAD_REACTORS
330
C
102
}
330
C
100
AcDbDictionary
281
     1
  3
Layout1
350
1E
  3
Layout2
350
26
  3
Model
350
22
  0
DICTIONARY
  5
43
102
{ACAD_REACTORS
330
C
102
}
330
C
100
AcDbDictionary
281
     1
  3
ByBlock
350
45
  3
ByLayer
350
44
  3
Global
350
46
  0
DICTIONARY
  5
6B
102
{ACAD_REACTORS
330
C
102
}
330
C
100
AcDbDictionary
281
     1
  3
Standard
350
6C
  0
DICTIONARY
  5
17
102
{ACAD_REACTORS
330
C
102
}
330
C
100
AcDbDictionary
281
     1
  3
Standard
350
18
  0
DICTIONARY
  5
19
102
{ACAD_REACTORS
330
C
102
}
330
C
100
AcDbDictionary
281
     1
  0
ACDBDICTIONARYWDFLT
  5
E
102
{ACAD_REACTORS
330
C
102
}
330
C
100
AcDbDictionary
281
     1
  3
Normal
350
F
100
AcDbDictionaryWithDefault
340
F
  0
DICTIONARY
  5
47
102
{ACAD_REACTORS
330
C
102
}
330
C
100
AcDbDictionary
281
     1
  3
A0
350
48
  3
A1
350
49
  3
A2
350
4A
  3
A3
350
4B
  3
A4
350
4C
  3
A5
350
4D
  3
A6
350
4E
  3
A7
350
4F
  3
A8
350
50
  3
A9
350
51
  3
B0
350
52
  3
B1
350
53
  3
B2
350
54
  3
B3
350
55
  3
B4
350
56
  3
B5
350
57
  3
B6
350
58
  3
B7
350
59
  3
B8
350
5A
  3
B9
350
5B
  3
C0
350
5C
  3
C1
350
5D
  3
C2
350
5E
  3
C3
350
5F
  3
C4
350
60
  3
C5
350
61
  3
C6
350
62
  3
C7
350
63
  3
C8
350
64
  3
C9
350
65
  3
D0
350
66
  3
D1
350
67
  3
D2
350
68
  0
DICTIONARY
  5
46B
102
{ACAD_REACTORS
330
C
102
}
330
C
100
AcDbDictionary
281
     1
  0
DICTIONARY
  5
69
102
{ACAD_REACTORS
330
C
102
}
330
C
100
AcDbDictionary
281
     1
  3
Standard
350
6A
  0
DICTIONARY
  5
2A
102
{ACAD_REACTORS
330
C
102
}
330
C
100
AcDbDictionary
281
     1
  3
2dWireframe
350
2F
  3
Basic
350
32
  3
Brighten
350
36
  3
ColorChange
350
3A
  3
Conceptual
350
34
  3
Dim
350
35
  3
EdgeColorOff
350
3D
  3
Facepattern
350
39
  3
Flat
350
2B
  3
FlatWithEdges
350
2C
  3
Gouraud
350
2D
  3
GouraudWithEdges
350
2E
  3
Hidden
350
31
  3
JitterOff
350
3B
  3
Linepattern
350
38
  3
OverhangOff
350
3C
  3
Realistic
350
33
  3
Shaded
350
42
  3
Shaded with edges
350
41
  3
Shades of Gray
350
3E
  3
Sketchy
350
3F
  3
Thicken
350
37
  3
Wireframe
350
30
  3
X-Ray
350
40
  0
XRECORD
  5
467
102
{ACAD_REACTORS
330
C
102
}
330
C
100
AcDbXrecord
280
     1
 90
        1
330
6A
  0
DICTIONARY
  5
427
102
{ACAD_REACTORS
330
C
102
}
330
C
100
AcDbDictionary
281
     1
  3
CANNOSCALE
350
428
  3
CENTEREXE
350
46C
  3
CENTERLTYPEFILE
350
46D
  3
CMLEADERSTYLE
350
469
  3
CTABLESTYLE
350
468
  3
MSLTSCALE
350
429
  3
XCLIPFRAME
350
42A
  0
XRECORD
  5
426
102
{ACAD_REACTORS
330
425
102
}
330
425
100
AcDbXrecord
280
     1
102
VTR_0.000_0.000_1.000_1.000_VISUALSTYLE
340
2F
102
VTR_0.000_0.000_1.000_1.000_GRIDDISPLAY
 70
     3
102
VTR_0.000_0.000_1.000_1.000_GRIDMAJOR
 70
     5
102
VTR_0.000_0.000_1.000_1.000_DEFAULTLIGHTING
280
     1
102
VTR_0.000_0.000_1.000_1.000_DEFAULTLIGHTINGTYPE
 70
     1
102
VTR_0.000_0.000_1.000_1.000_BRIGHTNESS
141
0.0
102
VTR_0.000_0.000_1.000_1.000_CONTRAST
142
0.0
  0
LAYOUT
  5
1E
102
{ACAD_REACTORS
330
1A
102
}
330
1A
100
AcDbPlotSettings
  1

  2
none_device
  4

  6

 40
0.0
 41
0.0
 42
0.0
 43
0.0
 44
0.0
 45
0.0
 46
0.0
 47
0.0
 48
0.0
 49
0.0
140
0.0
141
0.0
142
1.0
143
1.0
 70
   688
 72
     1
 73
     0
 74
     5
  7

 75
    16
 76
     0
 77
     5
 78
   300
147
1.0
148
0.0
149
0.0
100
AcDbLayout
  1
Layout1
 70
     1
 71
     1
 10
0.0
 20
0.0
 11
420.0
 21
297.0
 12
0.0
 22
0.0
 32
0.0
 14
1.000000000000000E+20
 24
1.000000000000000E+20
 34
1.000000000000000E+20
 15
-1.000000000000000E+20
 25
-1.000000000000000E+20
 35
-1.000000000000000E+20
146
0.0
 13
0.0
 23
0.0
 33
0.0
 16
1.0
 26
0.0
 36
0.0
 17
0.0
 27
1.0
 37
0.0
 76
     0
330
1B
  0
LAYOUT
  5
26
102
{ACAD_REACTORS
330
1A
102
}
330
1A
100
AcDbPlotSettings
  1

  2
none_device
  4

  6

 40
0.0
 41
0.0
 42
0.0
 43
0.0
 44
0.0
 45
0.0
 46
0.0
 47
0.0
 48
0.0
 49
0.0
140
0.0
141
0.0
142
1.0
143
1.0
 70
   688
 72
     1
 73
     0
 74
     5
  7

 75
    16
 76
     0
 77
     5
 78
   300
147
1.0
148
0.0
149
0.0
100
AcDbLayout
  1
Layout2
 70
     1
 71
     2
 10
0.0
 20
0.0
 11
0.0
 21
0.0
 12
0.0
 22
0.0
 32
0.0
 14
0.0
 24
0.0
 34
0.0
 15
0.0
 25
0.0
 35
0.0
146
0.0
 13
0.0
 23
0.0
 33
0.0
 16
1.0
 26
0.0
 36
0.0
 17
0.0
 27
1.0
 37
0.0
 76
     0
330
23
  0
LAYOUT
  5
22
102
{ACAD_REACTORS
330
1A
102
}
330
1A
100
AcDbPlotSettings
  1

  2
none_device
  4
Letter_(8.50_x_11.00_Inches)
  6

 40
6.35
 41
6.35
 42
6.35000508
 43
6.35000508
 44
215.9
 45
279.4
 46
0.0
 47
0.0
 48
0.0
 49
0.0
140
0.0
141
0.0
142
1.0
143
1.0
 70
  1712
 72
     1
 73
     0
 74
     0
  7

 75
     0
 76
     0
 77
     5
 78
   300
147
1.0
148
0.0
149
0.0
100
AcDbLayout
  1
Model
 70
     1
 71
     0
 10
-2970.0
 20
-2100.0
 11
2970.0
 21
2100.0
 12
0.0
 22
0.0
 32
0.0
 14
-2970.0
 24
-2100.0
 34
0.0
 15
2970.0
 25
2100.0
 35
0.0
146
0.0
 13
0.0
 23
0.0
 33
0.0
 16
1.0
 26
0.0
 36
0.0
 17
0.0
 27
1.0
 37
0.0
 76
     0
330
1F
331
29
  0
MATERIAL
  5
45
102
{ACAD_REACTORS
330
43
102
}
102
{ACAD_XDICTIONARY
360
45D
102
}
330
43
100
AcDbMaterial
  1
ByBlock
  0
MATERIAL
  5
44
102
{ACAD_REACTORS
330
43
102
}
102
{ACAD_XDICTIONARY
360
45B
102
}
330
43
100
AcDbMaterial
  1
ByLayer
  0
MATERIAL
  5
46
102
{ACAD_REACTORS
330
43
102
}
102
{ACAD_XDICTIONARY
360
45F
102
}
330
43
100
AcDbMaterial
  1
Global
  0
MLEADERSTYLE
  5
6C
102
{ACAD_REACTORS
330
6B
102
}
102
{ACAD_XDICTIONARY
360
465
102
}
330
6B
100
AcDbMLeaderStyle
170
     2
171
     1
172
     0
 90
        2
 40
0.0
 41
0.0
173
     1
 91
-1056964608
340
14
 92
       -2
290
     1
 42
2.0
291
     1
 43
8.0
  3
Standard
341
0
 44
4.0
300

342
11
174
     1
178
     6
175
     1
176
     0
 93
-1056964608
 45
4.0
292
     0
297
     0
 46
4.0
343
0
 94
-1056964608
 47
1.0
 49
1.0
140
1.0
293
     1
141
0.0
294
     1
177
     0
142
1.0
295
     0
296
     0
143
3.75
1001
ACAD_MLEADERVER
1070
     2
  0
MLINESTYLE
  5
18
102
{ACAD_REACTORS
330
17
102
}
330
17
100
AcDbMlineStyle
  2
Standard
 70
     0
  3

 62
   256
 51
90.0
 52
90.0
 71
     2
 49
0.5
 62
   256
  6
BYLAYER
 49
-0.5
 62
   256
  6
BYLAYER
  0
ACDBPLACEHOLDER
  5
F
102
{ACAD_REACTORS
330
E
102
}
330
E
  0
SCALE
  5
48
102
{ACAD_REACTORS
330
47
102
}
330
47
100
AcDbScale
 70
     0
300
1:1
140
1.0
141
1.0
290
     1
  0
SCALE
  5
49
102
{ACAD_REACTORS
330
47
102
}
330
47
100
AcDbScale
 70
     0
300
1:2
140
1.0
141
2.0
290
     0
  0
SCALE
  5
4A
102
{ACAD_REACTORS
330
47
102
}
330
47
100
AcDbScale
 70
     0
300
1:4
140
1.0
141
4.0
290
     0
  0
SCALE
  5
4B
102
{ACAD_REACTORS
330
47
102
}
330
47
100
AcDbScale
 70
     0
300
1:5
140
1.0
141
5.0
290
     0
  0
SCALE
  5
4C
102
{ACAD_REACTORS
330
47
102
}
330
47
100
AcDbScale
 70
     0
300
1:8
140
1.0
141
8.0
290
     0
  0
SCALE
  5
4D
102
{ACAD_REACTORS
330
47
102
}
330
47
100
AcDbScale
 70
     0
300
1:10
140
1.0
141
10.0
290
     0
  0
SCALE
  5
4E
102
{ACAD_REACTORS
330
47
102
}
330
47
100
AcDbScale
 70
     0
300
1:16
140
1.0
141
16.0
290
     0
  0
SCALE
  5
4F
102
{ACAD_REACTORS
330
47
102
}
330
47
100
AcDbScale
 70
     0
300
1:20
140
1.0
141
20.0
290
     0
  0
SCALE
  5
50
102
{ACAD_REACTORS
330
47
102
}
330
47
100
AcDbScale
 70
     0
300
1:30
140
1.0
141
30.0
290
     0
  0
SCALE
  5
51
102
{ACAD_REACTORS
330
47
102
}
330
47
100
AcDbScale
 70
     0
300
1:40
140
1.0
141
40.0
290
     0
  0
SCALE
  5
52
102
{ACAD_REACTORS
330
47
102
}
330
47
100
AcDbScale
 70
     0
300
1:50
140
1.0
141
50.0
290
     0
  0
SCALE
  5
53
102
{ACAD_REACTORS
330
47
102
}
330
47
100
AcDbScale
 70
     0
300
1:100
140
1.0
141
100.0
290
     0
  0
SCALE
  5
54
102
{ACAD_REACTORS
330
47
102
}
330
47
100
AcDbScale
 70
     0
300
2:1
140
2.0
141
1.0
290
     0
  0
SCALE
  5
55
102
{ACAD_REACTORS
330
47
102
}
330
47
100
AcDbScale
 70
     0
300
4:1
140
4.0
141
1.0
290
     0
  0
SCALE
  5
56
102
{ACAD_REACTORS
330
47
102
}
330
47
100
AcDbScale
 70
     0
300
8:1
140
8.0
141
1.0
290
     0
  0
SCALE
  5
57
102
{ACAD_REACTORS
330
47
102
}
330
47
100
AcDbScale
 70
     0
300
10:1
140
10.0
141
1.0
290
     0
  0
SCALE
  5
58
102
{ACAD_REACTORS
330
47
102
}
330
47
100
AcDbScale
 70
     0
300
100:1
140
100.0
141
1.0
290
     0
  0
SCALE
  5
59
102
{ACAD_REACTORS
330
47
102
}
330
47
100
AcDbScale
 70
     0
300
1/128" = 1'-0"
140
0.0078125
141
12.0
290
     0
  0
SCALE
  5
5A
102
{ACAD_REACTORS
330
47
102
}
330
47
100
AcDbScale
 70
     0
300
1/64" = 1'-0"
140
0.015625
141
12.0
290
     0
  0
SCALE
  5
5B
102
{ACAD_REACTORS
330
47
102
}
330
47
100
AcDbScale
 70
     0
300
1/32" = 1'-0"
140
0.03125
141
12.0
290
     0
  0
SCALE
  5
5C
102
{ACAD_REACTORS
330
47
102
}
330
47
100
AcDbScale
 70
     0
300
1/16" = 1'-0"
140
0.0625
141
12.0
290
     0
  0
SCALE
  5
5D
102
{ACAD_REACTORS
330
47
102
}
330
47
100
AcDbScale
 70
     0
300
3/32" = 1'-0"
140
0.09375
141
12.0
290
     0
  0
SCALE
  5
5E
102
{ACAD_REACTORS
330
47
102
}
330
47
100
AcDbScale
 70
     0
300
1/8" = 1'-0"
140
0.125
141
12.0
290
     0
  0
SCALE
  5
5F
102
{ACAD_REACTORS
330
47
102
}
330
47
100
AcDbScale
 70
     0
300
3/16" = 1'-0"
140
0.1875
141
12.0
290
     0
  0
SCALE
  5
60
102
{ACAD_REACTORS
330
47
102
}
330
47
100
AcDbScale
 70
     0
300
1/4" = 1'-0"
140
0.25
141
12.0
290
     0
  0
SCALE
  5
61
102
{ACAD_REACTORS
330
47
102
}
330
47
100
AcDbScale
 70
     0
300
3/8" = 1'-0"
140
0.375
141
12.0
290
     0
  0
SCALE
  5
62
102
{ACAD_REACTORS
330
47
102
}
330
47
100
AcDbScale
 70
     0
300
1/2" = 1'-0"
140
0.5
141
12.0
290
     0
  0
SCALE
  5
63
102
{ACAD_REACTORS
330
47
102
}
330
47
100
AcDbScale
 70
     0
300
3/4" = 1'-0"
140
0.75
141
12.0
290
     0
  0
SCALE
  5
64
102
{ACAD_REACTORS
330
47
102
}
330
47
100
AcDbScale
 70
     0
300
1" = 1'-0"
140
1.0
141
12.0
290
     0
  0
SCALE
  5
65
102
{ACAD_REACTORS
330
47
102
}
330
47
100
AcDbScale
 70
     0
300
1-1/2" = 1'-0"
140
1.5
141
12.0
290
     0
  0
SCALE
  5
66
102
{ACAD_REACTORS
330
47
102
}
330
47
100
AcDbScale
 70
     0
300
3" = 1'-0"
140
3.0
141
12.0
290
     0
  0
SCALE
  5
67
102
{ACAD_REACTORS
330
47
102
}
330
47
100
AcDbScale
 70
     0
300
6" = 1'-0"
140
6.0
141
12.0
290
     0
  0
SCALE
  5
68
102
{ACAD_REACTORS
330
47
102
}
330
47
100
AcDbScale
 70
     0
300
1'-0" = 1'-0"
140
12.0
141
12.0
290
     0
  0
TABLESTYLE
  5
6A
102
{ACAD_REACTORS
330
69
102
}
102
{ACAD_XDICTIONARY
360
461
102
}
330
69
100
AcDbTableStyle
  3
Standard
 70
     0
 71
     0
 40
0.06
 41
0.06
280
     0
281
     0
  7
Standard
140
4.5
170
     2
 62
     0
 63
   257
283
     0
274
    -2
284
     1
 64
     0
275
    -2
285
     1
 65
     0
276
    -2
286
     1
 66
     0
277
    -2
287
     1
 67
     0
278
    -2
288
     1
 68
     0
279
    -2
289
     1
 69
     0
  7
Standard
140
6.0
170
     5
 62
     0
 63
   257
283
     0
274
    -2
284
     1
 64
     0
275
    -2
285
     1
 65
     0
276
    -2
286
     1
 66
     0
277
    -2
287
     1
 67
     0
278
    -2
288
     1
 68
     0
279
    -2
289
     1
 69
     0
  7
Standard
140
4.5
170
     5
 62
     0
 63
   257
283
     0
274
    -2
284
     1
 64
     0
275
    -2
285
     1
 65
     0
276
    -2
286
     1
 66
     0
277
    -2
287
     1
 67
     0
278
    -2
288
     1
 68
     0
279
    -2
289
     1
 69
     0
  0
VISUALSTYLE
  5
2F
102
{ACAD_REACTORS
330
2A
102
}
102
{ACAD_XDICTIONARY
360
433
102
}
330
2A
100
AcDbVisualStyle
  2
2dWireframe
 70
     4
 71
     0
 72
     2
 73
     0
 90
        0
 40
0.6
 41
30.0
 62
     5
 63
     7
421
 16777215
 74
     1
 91
        4
 64
     7
 65
   257
 75
     1
175
     1
 42
1.0
 92
        0
 66
   257
 43
1.0
 76
     1
 77
     6
 78
     2
 67
     7
 79
     5
170
     0
171
     0
290
     0
174
     0
 93
        1
 44
0.0
173
     0
291
     0
 45
0.0
1001
ACAD
1000
AcDbSavedByObjectVersion
1070
     0
  0
VISUALSTYLE
  5
32
102
{ACAD_REACTORS
330
2A
102
}
102
{ACAD_XDICTIONARY
360
439
102
}
330
2A
100
AcDbVisualStyle
  2
Basic
 70
     7
 71
     1
 72
     0
 73
     1
 90
        0
 40
0.6
 41
30.0
 62
     5
 63
     7
421
 16777215
 74
     0
 91
        4
 64
     7
 65
   257
 75
     1
175
     1
 42
1.0
 92
        8
 66
     7
 43
1.0
 76
     1
 77
     6
 78
     2
 67
     7
 79
     5
170
     0
171
     0
290
     0
174
     0
 93
        1
 44
0.0
173
     0
291
     1
 45
0.0
1001
ACAD
1000
AcDbSavedByObjectVersion
1070
     0
  0
VISUALSTYLE
  5
36
102
{ACAD_REACTORS
330
2A
102
}
102
{ACAD_XDICTIONARY
360
441
102
}
330
2A
100
AcDbVisualStyle
  2
Brighten
 70
    12
 71
     2
 72
     2
 73
     0
 90
        0
 40
0.6
 41
30.0
 62
     5
 63
     7
421
 16777215
 74
     1
 91
        4
 64
     7
 65
   257
 75
     1
175
     1
 42
1.0
 92
        8
 66
     7
 43
1.0
 76
     1
 77
     6
 78
     2
 67
     7
 79
     5
170
     0
171
     0
290
     0
174
     0
 93
        1
 44
50.0
173
     0
291
     1
 45
0.0
1001
ACAD
1000
AcDbSavedByObjectVersion
1070
     0
  0
VISUALSTYLE
  5
3A
102
{ACAD_REACTORS
330
2A
102
}
102
{ACAD_XDICTIONARY
360
449
102
}
330
2A
100
AcDbVisualStyle
  2
ColorChange
 70
    16
 71
     2
 72
     2
 73
     3
 90
        0
 40
0.6
 41
30.0
 62
     5
 63
     8
421
  8421504
 74
     1
 91
        4
 64
     7
 65
   257
 75
     1
175
     1
 42
1.0
 92
        8
 66
     8
424
  8421504
 43
1.0
 76
     1
 77
     6
 78
     2
 67
     7
 79
     5
170
     0
171
     0
290
     0
174
     0
 93
        1
 44
0.0
173
     0
291
     1
 45
0.0
1001
ACAD
1000
AcDbSavedByObjectVersion
1070
     0
  0
VISUALSTYLE
  5
34
102
{ACAD_REACTORS
330
2A
102
}
102
{ACAD_XDICTIONARY
360
43D
102
}
330
2A
100
AcDbVisualStyle
  2
Conceptual
 70
     9
 71
     3
 72
     2
 73
     0
 90
        0
 40
0.6
 41
30.0
 62
     5
 63
     7
421
 16777215
 74
     2
 91
        2
 64
     7
 65
   257
 75
     1
175
     1
 42
179.0
 92
        8
 66
     7
 43
1.0
 76
     1
 77
     6
 78
     2
 67
     7
 79
     3
170
     0
171
     0
290
     0
174
     0
 93
        1
 44
0.0
173
     0
291
     0
 45
0.0
1001
ACAD
1000
AcDbSavedByObjectVersion
1070
     0
  0
VISUALSTYLE
  5
35
102
{ACAD_REACTORS
330
2A
102
}
102
{ACAD_XDICTIONARY
360
43F
102
}
330
2A
100
AcDbVisualStyle
  2
Dim
 70
    11
 71
     2
 72
     2
 73
     0
 90
        0
 40
0.6
 41
30.0
 62
     5
 63
     7
421
 16777215
 74
     1
 91
        4
 64
     7
 65
   257
 75
     1
175
     1
 42
1.0
 92
        8
 66
     7
 43
1.0
 76
     1
 77
     6
 78
     2
 67
     7
 79
     5
170
     0
171
     0
290
     0
174
     0
 93
        1
 44
-50.0
173
     0
291
     1
 45
0.0
1001
ACAD
1000
AcDbSavedByObjectVersion
1070
     0
  0
VISUALSTYLE
  5
3D
102
{ACAD_REACTORS
330
2A
102
}
102
{ACAD_XDICTIONARY
360
44F
102
}
330
2A
100
AcDbVisualStyle
  2
EdgeColorOff
 70
    22
 71
     2
 72
     2
 73
     0
 90
        0
 40
0.6
 41
30.0
 62
     5
 63
     7
421
 16777215
 74
     1
 91
        4
 64
     7
 65
   257
 75
     1
175
     1
 42
1.0
 92
        8
 66
     7
 43
1.0
 76
     1
 77
     6
 78
     2
 67
     7
 79
     5
170
     0
171
     0
290
     0
174
     0
 93
        1
 44
0.0
173
     0
291
     1
 45
0.0
1001
ACAD
1000
AcDbSavedByObjectVersion
1070
     0
  0
VISUALSTYLE
  5
39
102
{ACAD_REACTORS
330
2A
102
}
102
{ACAD_XDICTIONARY
360
447
102
}
330
2A
100
AcDbVisualStyle
  2
Facepattern
 70
    15
 71
     2
 72
     2
 73
     0
 90
        0
 40
0.6
 41
30.0
 62
     5
 63
     7
421
 16777215
 74
     1
 91
        4
 64
     7
 65
   257
 75
     1
175
     1
 42
1.0
 92
        8
 66
     7
 43
1.0
 76
     1
 77
     6
 78
     2
 67
     7
 79
     5
170
     0
171
     0
290
     0
174
     0
 93
        1
 44
0.0
173
     0
291
     1
 45
0.0
1001
ACAD
1000
AcDbSavedByObjectVersion
1070
     0
  0
VISUALSTYLE
  5
2B
102
{ACAD_REACTORS
330
2A
102
}
102
{ACAD_XDICTIONARY
360
42B
102
}
330
2A
100
AcDbVisualStyle
  2
Flat
 70
     0
 71
     2
 72
     1
 73
     1
 90
        2
 40
0.6
 41
30.0
 62
     5
 63
     7
421
 16777215
 74
     0
 91
        0
 64
     7
 65
   257
 75
     1
175
     1
 42
1.0
 92
        8
 66
     7
 43
1.0
 76
     1
 77
     6
 78
     2
 67
     7
 79
     5
170
     0
171
     0
290
     0
174
     0
 93
       13
 44
0.0
173
     0
291
     1
 45
0.0
1001
ACAD
1000
AcDbSavedByObjectVersion
1070
     0
  0
VISUALSTYLE
  5
2C
102
{ACAD_REACTORS
330
2A
102
}
102
{ACAD_XDICTIONARY
360
42D
102
}
330
2A
100
AcDbVisualStyle
  2
FlatWithEdges
 70
     1
 71
     2
 72
     1
 73
     1
 90
        2
 40
0.6
 41
30.0
 62
     5
 63
     7
421
 16777215
 74
     1
 91
        0
 64
     7
 65
   257
 75
     1
175
     1
 42
1.0
 92
        0
 66
   257
 43
1.0
 76
     1
 77
     6
 78
     2
 67
     7
 79
     5
170
     0
171
     0
290
     0
174
     0
 93
       13
 44
0.0
173
     0
291
     1
 45
0.0
1001
ACAD
1000
AcDbSavedByObjectVersion
1070
     0
  0
VISUALSTYLE
  5
2D
102
{ACAD_REACTORS
330
2A
102
}
102
{ACAD_XDICTIONARY
360
42F
102
}
330
2A
100
AcDbVisualStyle
  2
Gouraud
 70
     2
 71
     2
 72
     2
 73
     1
 90
        2
 40
0.6
 41
30.0
 62
     5
 63
     7
421
 16777215
 74
     0
 91
        0
 64
     7
 65
   257
 75
     1
175
     1
 42
1.0
 92
        0
 66
     7
 43
1.0
 76
     1
 77
     6
 78
     2
 67
     7
 79
     5
170
     0
171
     0
290
     0
174
     0
 93
       13
 44
0.0
173
     0
291
     1
 45
0.0
1001
ACAD
1000
AcDbSavedByObjectVersion
1070
     0
  0
VISUALSTYLE
  5
2E
102
{ACAD_REACTORS
330
2A
102
}
102
{ACAD_XDICTIONARY
360
431
102
}
330
2A
100
AcDbVisualStyle
  2
GouraudWithEdges
 70
     3
 71
     2
 72
     2
 73
     1
 90
        2
 40
0.6
 41
30.0
 62
     5
 63
     7
421
 16777215
 74
     1
 91
        0
 64
     7
 65
   257
 75
     1
175
     1
 42
1.0
 92
        0
 66
   257
 43
1.0
 76
     1
 77
     6
 78
     2
 67
     7
 79
     5
170
     0
171
     0
290
     0
174
     0
 93
       13
 44
0.0
173
     0
291
     1
 45
0.0
1001
ACAD
1000
AcDbSavedByObjectVersion
1070
     0
  0
VISUALSTYLE
  5
31
102
{ACAD_REACTORS
330
2A
102
}
102
{ACAD_XDICTIONARY
360
437
102
}
330
2A
100
AcDbVisualStyle
  2
Hidden
 70
     6
 71
     1
 72
     2
 73
     2
 90
        0
 40
0.6
 41
30.0
 62
     5
 63
     7
421
 16777215
 74
     2
 91
        2
 64
     7
 65
   257
 75
     2
175
     1
 42
40.0
 92
        0
 66
   257
 43
1.0
 76
     1
 77
     6
 78
     2
 67
     7
 79
     3
170
     0
171
     0
290
     0
174
     0
 93
        1
 44
0.0
173
     0
291
     0
 45
0.0
1001
ACAD
1000
AcDbSavedByObjectVersion
1070
     0
  0
VISUALSTYLE
  5
3B
102
{ACAD_REACTORS
330
2A
102
}
102
{ACAD_XDICTIONARY
360
44B
102
}
330
2A
100
AcDbVisualStyle
  2
JitterOff
 70
    20
 71
     2
 72
     2
 73
     0
 90
        0
 40
0.6
 41
30.0
 62
     5
 63
     7
421
 16777215
 74
     1
 91
        4
 64
     7
 65
   257
 75
     1
175
     1
 42
1.0
 92
       10
 66
     7
 43
1.0
 76
     1
 77
     6
 78
     2
 67
     7
 79
     5
170
     0
171
     0
290
     0
174
     0
 93
        1
 44
0.0
173
     0
291
     1
 45
0.0
1001
ACAD
1000
AcDbSavedByObjectVersion
1070
     0
  0
VISUALSTYLE
  5
38
102
{ACAD_REACTORS
330
2A
102
}
102
{ACAD_XDICTIONARY
360
445
102
}
330
2A
100
AcDbVisualStyle
  2
Linepattern
 70
    14
 71
     2
 72
     2
 73
     0
 90
        0
 40
0.6
 41
30.0
 62
     5
 63
     7
421
 16777215
 74
     1
 91
        4
 64
     7
 65
   257
 75
     7
175
     7
 42
1.0
 92
        8
 66
     7
 43
1.0
 76
     1
 77
     6
 78
     2
 67
     7
 79
     5
170
     0
171
     0
290
     0
174
     0
 93
        1
 44
0.0
173
     0
291
     1
 45
0.0
1001
ACAD
1000
AcDbSavedByObjectVersion
1070
     0
  0
VISUALSTYLE
  5
3C
102
{ACAD_REACTORS
330
2A
102
}
102
{ACAD_XDICTIONARY
360
44D
102
}
330
2A
100
AcDbVisualStyle
  2
OverhangOff
 70
    21
 71
     2
 72
     2
 73
     0
 90
        0
 40
0.6
 41
30.0
 62
     5
 63
     7
421
 16777215
 74
     1
 91
        4
 64
     7
 65
   257
 75
     1
175
     1
 42
1.0
 92
        9
 66
     7
 43
1.0
 76
     1
 77
     6
 78
     2
 67
     7
 79
     5
170
     0
171
     0
290
     0
174
     0
 93
        1
 44
0.0
173
     0
291
     1
 45
0.0
1001
ACAD
1000
AcDbSavedByObjectVersion
1070
     0
  0
VISUALSTYLE
  5
33
102
{ACAD_REACTORS
330
2A
102
}
102
{ACAD_XDICTIONARY
360
43B
102
}
330
2A
100
AcDbVisualStyle
  2
Realistic
 70
     8
 71
     2
 72
     3
 73
     0
 90
        2
 40
0.6
 41
30.0
 62
     5
 63
     7
421
 16777215
 74
     0
 91
        0
 64
     7
 65
   257
 75
     1
175
     1
 42
1.0
 92
        8
 66
   257
 43
1.0
 76
     1
 77
     6
 78
     2
 67
     7
 79
     3
170
     0
171
     0
290
     0
174
     0
 93
       13
 44
0.0
173
     0
291
     0
 45
0.0
1001
ACAD
1000
AcDbSavedByObjectVersion
1070
     0
  0
VISUALSTYLE
  5
42
102
{ACAD_REACTORS
330
2A
102
}
102
{ACAD_XDICTIONARY
360
459
102
}
330
2A
100
AcDbVisualStyle
  2
Shaded
 70
    27
 71
     2
 72
     2
 73
     1
 90
        2
 40
0.6
 41
30.0
 62
     5
 63
     7
421
 16777215
 74
     0
 91
        4
 64
     7
 65
   257
 75
     1
175
     1
 42
1.0
 92
        8
 66
   257
 43
1.0
 76
     1
 77
     6
 78
     2
 67
     8
425
  7895160
 79
     3
170
     0
171
     0
290
     0
174
     0
 93
        5
 44
0.0
173
     0
291
     0
 45
0.0
1001
ACAD
1000
AcDbSavedByObjectVersion
1070
     0
  0
VISUALSTYLE
  5
41
102
{ACAD_REACTORS
330
2A
102
}
102
{ACAD_XDICTIONARY
360
457
102
}
330
2A
100
AcDbVisualStyle
  2
Shaded with edges
 70
    26
 71
     2
 72
     2
 73
     1
 90
        2
 40
0.6
 41
30.0
 62
     5
 63
     7
421
 16777215
 74
     1
 91
       10
 64
     7
 65
   257
 75
     2
175
     1
 42
1.0
 92
        8
 66
   257
 43
1.0
 76
     1
 77
     6
 78
     2
 67
     7
 79
     3
170
     0
171
     0
290
     0
174
     0
 93
        5
 44
0.0
173
     0
291
     0
 45
0.0
1001
ACAD
1000
AcDbSavedByObjectVersion
1070
     0
  0
VISUALSTYLE
  5
3E
102
{ACAD_REACTORS
330
2A
102
}
102
{ACAD_XDICTIONARY
360
451
102
}
330
2A
100
AcDbVisualStyle
  2
Shades of Gray
 70
    23
 71
     2
 72
     2
 73
     3
 90
        0
 40
0.6
 41
30.0
 62
     5
 63
     7
421
 16777215
 74
     2
 91
        2
 64
     7
 65
     7
 75
     1
175
     1
 42
40.0
 92
        8
 66
     7
 43
1.0
 76
     1
 77
     6
 78
     2
 67
     7
 79
     3
170
     0
171
     0
290
     0
174
     0
 93
        1
 44
0.0
173
     0
291
     0
 45
0.0
1001
ACAD
1000
AcDbSavedByObjectVersion
1070
     0
  0
VISUALSTYLE
  5
3F
102
{ACAD_REACTORS
330
2A
102
}
102
{ACAD_XDICTIONARY
360
453
102
}
330
2A
100
AcDbVisualStyle
  2
Sketchy
 70
    24
 71
     1
 72
     2
 73
     2
 90
        0
 40
0.6
 41
30.0
 62
     5
 63
     7
421
 16777215
 74
     2
 91
        2
 64
     7
 65
     7
 75
     1
175
     1
 42
40.0
 92
       11
 66
     7
 43
1.0
 76
     1
 77
     6
 78
     2
 67
     7
 79
     6
170
     0
171
     0
290
     0
174
     0
 93
        1
 44
0.0
173
     0
291
     0
 45
0.0
1001
ACAD
1000
AcDbSavedByObjectVersion
1070
     0
  0
VISUALSTYLE
  5
37
102
{ACAD_REACTORS
330
2A
102
}
102
{ACAD_XDICTIONARY
360
443
102
}
330
2A
100
AcDbVisualStyle
  2
Thicken
 70
    13
 71
     2
 72
     2
 73
     0
 90
        0
 40
0.6
 41
30.0
 62
     5
 63
     7
421
 16777215
 74
     1
 91
        4
 64
     7
 65
   257
 75
     1
175
     1
 42
1.0
 92
       12
 66
     7
 43
1.0
 76
     1
 77
     6
 78
     2
 67
     7
 79
     5
170
     0
171
     0
290
     0
174
     0
 93
        1
 44
0.0
173
     0
291
     1
 45
0.0
1001
ACAD
1000
AcDbSavedByObjectVersion
1070
     0
  0
VISUALSTYLE
  5
30
102
{ACAD_REACTORS
330
2A
102
}
102
{ACAD_XDICTIONARY
360
435
102
}
330
2A
100
AcDbVisualStyle
  2
Wireframe
 70
     5
 71
     0
 72
     2
 73
     0
 90
        0
 40
0.6
 41
30.0
 62
     5
 63
     7
421
 16777215
 74
     1
 91
        4
 64
     7
 65
   257
 75
     1
175
     1
 42
1.0
 92
        0
 66
   257
 43
1.0
 76
     1
 77
     6
 78
     2
 67
     7
 79
     3
170
     0
171
     0
290
     0
174
     0
 93
        1
 44
0.0
173
     0
291
     0
 45
0.0
1001
ACAD
1000
AcDbSavedByObjectVersion
1070
     0
  0
VISUALSTYLE
  5
40
102
{ACAD_REACTORS
330
2A
102
}
102
{ACAD_XDICTIONARY
360
455
102
}
330
2A
100
AcDbVisualStyle
  2
X-Ray
 70
    25
 71
     2
 72
     2
 73
     1
 90
        1
 40
0.5
 41
30.0
 62
     5
 63
     7
421
 16777215
 74
     1
 91
        0
 64
     7
 65
   257
 75
     1
175
     1
 42
1.0
 92
        8
 66
     7
 43
1.0
 76
     1
 77
     6
 78
     2
 67
     7
 79
     3
170
     0
171
     0
290
     0
174
     0
 93
       13
 44
0.0
173
     0
291
     0
 45
0.0
1001
ACAD
1000
AcDbSavedByObjectVersion
1070
     0
  0
DICTIONARYVAR
  5
428
102
{ACAD_REACTORS
330
427
102
}
330
427
100
DictionaryVariables
280
     0
  1
1:1
  0
DICTIONARYVAR
  5
46C
102
{ACAD_REACTORS
330
427
102
}
330
427
100
DictionaryVariables
280
     0
  1
3.500000
  0
DICTIONARYVAR
  5
46D
102
{ACAD_REACTORS
330
427
102
}
330
427
100
DictionaryVariables
280
     0
  1
acadiso.lin
  0
DICTIONARYVAR
  5
469
102
{ACAD_REACTORS
330
427
102
}
330
427
100
DictionaryVariables
280
     0
  1
Standard
  0
DICTIONARYVAR
  5
468
102
{ACAD_REACTORS
330
427
102
}
330
427
100
DictionaryVariables
280
     0
  1
Standard
  0
DICTIONARYVAR
  5
429
102
{ACAD_REACTORS
330
427
102
}
330
427
100
DictionaryVariables
280
     0
  1
1
  0
DICTIONARYVAR
  5
42A
102
{ACAD_REACTORS
330
427
102
}
330
427
100
DictionaryVariables
280
     0
  1
2
  0
DICTIONARY
  5
45D
330
45
100
AcDbDictionary
280
     1
281
     1
  3
ACAD_XREC_ROUNDTRIP
360
45E
  0
DICTIONARY
  5
45B
330
44
100
AcDbDictionary
280
     1
281
     1
  3
ACAD_XREC_ROUNDTRIP
360
45C
  0
DICTIONARY
  5
45F
330
46
100
AcDbDictionary
280
     1
281
     1
  3
ACAD_XREC_ROUNDTRIP
360
460
  0
DICTIONARY
  5
465
330
6C
100
AcDbDictionary
280
     1
281
     1
  3
ACAD_XREC_ROUNDTRIP
360
466
  0
DICTIONARY
  5
461
330
6A
100
AcDbDictionary
280
     1
281
     1
  3
ACAD_ROUNDTRIP_2008_TABLESTYLE_CELLSTYLEMAP
360
463
  3
ACAD_XREC_ROUNDTRIP
360
462
  0
DICTIONARY
  5
433
330
2F
100
AcDbDictionary
280
     1
281
     1
  3
ACAD_XREC_ROUNDTRIP
360
434
  0
DICTIONARY
  5
439
330
32
100
AcDbDictionary
280
     1
281
     1
  3
ACAD_XREC_ROUNDTRIP
360
43A
  0
DICTIONARY
  5
441
330
36
100
AcDbDictionary
280
     1
281
     1
  3
ACAD_XREC_ROUNDTRIP
360
442
  0
DICTIONARY
  5
449
330
3A
100
AcDbDictionary
280
     1
281
     1
  3
ACAD_XREC_ROUNDTRIP
360
44A
  0
DICTIONARY
  5
43D
330
34
100
AcDbDictionary
280
     1
281
     1
  3
ACAD_XREC_ROUNDTRIP
360
43E
  0
DICTIONARY
  5
43F
330
35
100
AcDbDictionary
280
     1
281
     1
  3
ACAD_XREC_ROUNDTRIP
360
440
  0
DICTIONARY
  5
44F
330
3D
100
AcDbDictionary
280
     1
281
     1
  3
ACAD_XREC_ROUNDTRIP
360
450
  0
DICTIONARY
  5
447
330
39
100
AcDbDictionary
280
     1
281
     1
  3
ACAD_XREC_ROUNDTRIP
360
448
  0
DICTIONARY
  5
42B
330
2B
100
AcDbDictionary
280
     1
281
     1
  3
ACAD_XREC_ROUNDTRIP
360
42C
  0
DICTIONARY
  5
42D
330
2C
100
AcDbDictionary
280
     1
281
     1
  3
ACAD_XREC_ROUNDTRIP
360
42E
  0
DICTIONARY
  5
42F
330
2D
100
AcDbDictionary
280
     1
281
     1
  3
ACAD_XREC_ROUNDTRIP
360
430
  0
DICTIONARY
  5
431
330
2E
100
AcDbDictionary
280
     1
281
     1
  3
ACAD_XREC_ROUNDTRIP
360
432
  0
DICTIONARY
  5
437
330
31
100
AcDbDictionary
280
     1
281
     1
  3
ACAD_XREC_ROUNDTRIP
360
438
  0
DICTIONARY
  5
44B
330
3B
100
AcDbDictionary
280
     1
281
     1
  3
ACAD_XREC_ROUNDTRIP
360
44C
  0
DICTIONARY
  5
445
330
38
100
AcDbDictionary
280
     1
281
     1
  3
ACAD_XREC_ROUNDTRIP
360
446
  0
DICTIONARY
  5
44D
330
3C
100
AcDbDictionary
280
     1
281
     1
  3
ACAD_XREC_ROUNDTRIP
360
44E
  0
DICTIONARY
  5
43B
330
33
100
AcDbDictionary
280
     1
281
     1
  3
ACAD_XREC_ROUNDTRIP
360
43C
  0
DICTIONARY
  5
459
330
42
100
AcDbDictionary
280
     1
281
     1
  3
ACAD_XREC_ROUNDTRIP
360
45A
  0
DICTIONARY
  5
457
330
41
100
AcDbDictionary
280
     1
281
     1
  3
ACAD_XREC_ROUNDTRIP
360
458
  0
DICTIONARY
  5
451
330
3E
100
AcDbDictionary
280
     1
281
     1
  3
ACAD_XREC_ROUNDTRIP
360
452
  0
DICTIONARY
  5
453
330
3F
100
AcDbDictionary
280
     1
281
     1
  3
ACAD_XREC_ROUNDTRIP
360
454
  0
DICTIONARY
  5
443
330
37
100
AcDbDictionary
280
     1
281
     1
  3
ACAD_XREC_ROUNDTRIP
360
444
  0
DICTIONARY
  5
435
330
30
100
AcDbDictionary
280
     1
281
     1
  3
ACAD_XREC_ROUNDTRIP
360
436
  0
DICTIONARY
  5
455
330
40
100
AcDbDictionary
280
     1
281
     1
  3
ACAD_XREC_ROUNDTRIP
360
456
  0
XRECORD
  5
45E
102
{ACAD_REACTORS
330
45D
102
}
330
45D
100
AcDbXrecord
280
     1
102
MATERIAL
148
0.0
149
0.0
149
0.0
 93
        0
 94
      127
282
     0
 72
     1
 77
     1
171
     1
175
     1
179
     1
273
     0
  0
XRECORD
  5
45C
102
{ACAD_REACTORS
330
45B
102
}
330
45B
100
AcDbXrecord
280
     1
102
MATERIAL
148
0.0
149
0.0
149
0.0
 93
        0
 94
      127
282
     0
 72
     1
 77
     1
171
     1
175
     1
179
     1
273
     0
  0
XRECORD
  5
460
102
{ACAD_REACTORS
330
45F
102
}
330
45F
100
AcDbXrecord
280
     1
102
MATERIAL
148
0.0
149
0.0
149
0.0
 93
        0
 94
      127
282
     0
 72
     1
 77
     1
171
     1
175
     1
179
     1
273
     0
  0
XRECORD
  5
466
102
{ACAD_REACTORS
330
465
102
}
330
465
100
AcDbXrecord
280
     1
102
ACAD_ROUNDTRIP_2010_MLEADER_STYLE
  0
CELLSTYLEMAP
  5
463
102
{ACAD_REACTORS
330
461
102
}
330
461
100
AcDbCellStyleMap
 90
        3
300
CELLSTYLE
  1
TABLEFORMAT_BEGIN
 90
        5
170
     1
 91
        0
 92
    32768
 62
   257
 93
        1
300
CONTENTFORMAT
  1
CONTENTFORMAT_BEGIN
 90
        0
 91
        0
 92
        4
 93
        0
300

 40
0.0
140
1.0
 94
        5
 62
     0
340
11
144
6.0
309
CONTENTFORMAT_END
171
     1
301
MARGIN
  1
CELLMARGIN_BEGIN
 40
1.5
 40
1.5
 40
1.5
 40
1.5
 40
1.5
 40
1.5
309
CELLMARGIN_END
 94
        6
 95
        1
302
GRIDFORMAT
  1
GRIDFORMAT_BEGIN
 90
        0
 91
        1
 62
     0
 92
       -2
340
14
 93
        0
 40
0.045
309
GRIDFORMAT_END
 95
        2
302
GRIDFORMAT
  1
GRIDFORMAT_BEGIN
 90
        0
 91
        1
 62
     0
 92
       -2
340
14
 93
        0
 40
0.045
309
GRIDFORMAT_END
 95
        4
302
GRIDFORMAT
  1
GRIDFORMAT_BEGIN
 90
        0
 91
        1
 62
     0
 92
       -2
340
14
 93
        0
 40
0.045
309
GRIDFORMAT_END
 95
        8
302
GRIDFORMAT
  1
GRIDFORMAT_BEGIN
 90
        0
 91
        1
 62
     0
 92
       -2
340
14
 93
        0
 40
0.045
309
GRIDFORMAT_END
 95
       16
302
GRIDFORMAT
  1
GRIDFORMAT_BEGIN
 90
        0
 91
        1
 62
     0
 92
       -2
340
14
 93
        0
 40
0.045
309
GRIDFORMAT_END
 95
       32
302
GRIDFORMAT
  1
GRIDFORMAT_BEGIN
 90
        0
 91
        1
 62
     0
 92
       -2
340
14
 93
        0
 40
0.045
309
GRIDFORMAT_END
309
TABLEFORMAT_END
  1
CELLSTYLE_BEGIN
 90
        1
 91
        1
300
_TITLE
309
CELLSTYLE_END
300
CELLSTYLE
  1
TABLEFORMAT_BEGIN
 90
        5
170
     1
 91
        0
 92
        0
 62
   257
 93
        1
300
CONTENTFORMAT
  1
CONTENTFORMAT_BEGIN
 90
        0
 91
        0
 92
        4
 93
        0
300

 40
0.0
140
1.0
 94
        5
 62
     0
340
11
144
4.5
309
CONTENTFORMAT_END
171
     1
301
MARGIN
  1
CELLMARGIN_BEGIN
 40
1.5
 40
1.5
 40
1.5
 40
1.5
 40
1.5
 40
1.5
309
CELLMARGIN_END
 94
        6
 95
        1
302
GRIDFORMAT
  1
GRIDFORMAT_BEGIN
 90
        0
 91
        1
 62
     0
 92
       -2
340
14
 93
        0
 40
0.045
309
GRIDFORMAT_END
 95
        2
302
GRIDFORMAT
  1
GRIDFORMAT_BEGIN
 90
        0
 91
        1
 62
     0
 92
       -2
340
14
 93
        0
 40
0.045
309
GRIDFORMAT_END
 95
        4
302
GRIDFORMAT
  1
GRIDFORMAT_BEGIN
 90
        0
 91
        1
 62
     0
 92
       -2
340
14
 93
        0
 40
0.045
309
GRIDFORMAT_END
 95
        8
302
GRIDFORMAT
  1
GRIDFORMAT_BEGIN
 90
        0
 91
        1
 62
     0
 92
       -2
340
14
 93
        0
 40
0.045
309
GRIDFORMAT_END
 95
       16
302
GRIDFORMAT
  1
GRIDFORMAT_BEGIN
 90
        0
 91
        1
 62
     0
 92
       -2
340
14
 93
        0
 40
0.045
309
GRIDFORMAT_END
 95
       32
302
GRIDFORMAT
  1
GRIDFORMAT_BEGIN
 90
        0
 91
        1
 62
     0
 92
       -2
340
14
 93
        0
 40
0.045
309
GRIDFORMAT_END
309
TABLEFORMAT_END
  1
CELLSTYLE_BEGIN
 90
        2
 91
        1
300
_HEADER
309
CELLSTYLE_END
300
CELLSTYLE
  1
TABLEFORMAT_BEGIN
 90
        5
170
     1
 91
        0
 92
        0
 62
   257
 93
        1
300
CONTENTFORMAT
  1
CONTENTFORMAT_BEGIN
 90
        0
 91
        0
 92
        4
 93
        0
300

 40
0.0
140
1.0
 94
        2
 62
     0
340
11
144
4.5
309
CONTENTFORMAT_END
171
     1
301
MARGIN
  1
CELLMARGIN_BEGIN
 40
1.5
 40
1.5
 40
1.5
 40
1.5
 40
1.5
 40
1.5
309
CELLMARGIN_END
 94
        6
 95
        1
302
GRIDFORMAT
  1
GRIDFORMAT_BEGIN
 90
        0
 91
        1
 62
     0
 92
       -2
340
14
 93
        0
 40
0.045
309
GRIDFORMAT_END
 95
        2
302
GRIDFORMAT
  1
GRIDFORMAT_BEGIN
 90
        0
 91
        1
 62
     0
 92
       -2
340
14
 93
        0
 40
0.045
309
GRIDFORMAT_END
 95
        4
302
GRIDFORMAT
  1
GRIDFORMAT_BEGIN
 90
        0
 91
        1
 62
     0
 92
       -2
340
14
 93
        0
 40
0.045
309
GRIDFORMAT_END
 95
        8
302
GRIDFORMAT
  1
GRIDFORMAT_BEGIN
 90
        0
 91
        1
 62
     0
 92
       -2
340
14
 93
        0
 40
0.045
309
GRIDFORMAT_END
 95
       16
302
GRIDFORMAT
  1
GRIDFORMAT_BEGIN
 90
        0
 91
        1
 62
     0
 92
       -2
340
14
 93
        0
 40
0.045
309
GRIDFORMAT_END
 95
       32
302
GRIDFORMAT
  1
GRIDFORMAT_BEGIN
 90
        0
 91
        1
 62
     0
 92
       -2
340
14
 93
        0
 40
0.045
309
GRIDFORMAT_END
309
TABLEFORMAT_END
  1
CELLSTYLE_BEGIN
 90
        3
 91
        2
300
_DATA
309
CELLSTYLE_END
  0
XRECORD
  5
462
102
{ACAD_REACTORS
330
461
102
}
330
461
100
AcDbXrecord
280
     1
102
ACAD_ROUNDTRIP_PRE2007_TABLESTYLE
 90
        4
 91
        0
  1

 92
        4
 93
        0
  2

 94
        4
 95
        0
  3

  0
XRECORD
  5
434
102
{ACAD_REACTORS
330
433
102
}
330
433
100
AcDbXrecord
280
     1
102
RTVSPropertyOp0
 70
     1
102
RTVSPropertyOp1
 70
     1
102
RTVSPropertyOp2
 70
     1
102
RTVSPropertyOp3
 70
     1
102
RTVSPropertyOp4
 70
     1
102
RTVSPropertyOp5
 70
     1
102
RTVSPropertyOp6
 70
     1
102
RTVSPropertyOp7
 70
     1
102
RTVSPropertyOp8
 70
     1
102
RTVSPropertyOp9
 70
     1
102
RTVSPropertyOp10
 70
     1
102
RTVSPropertyOp11
 70
     1
102
RTVSPropertyOp12
 70
     1
102
RTVSPropertyOp13
 70
     1
102
RTVSPropertyOp14
 70
     1
102
RTVSPropertyOp15
 70
     1
102
RTVSPropertyOp16
 70
     1
102
RTVSPropertyOp17
 70
     1
102
RTVSPropertyOp18
 70
     1
102
RTVSPropertyOp19
 70
     1
102
RTVSPropertyOp20
 70
     1
102
RTVSPropertyOp21
 70
     1
102
RTVSPropertyOp22
 70
     1
102
RTVSPropertyOp23
 70
     1
102
RTVSPropertyOp24
 70
     1
102
RTVSPropertyOp25
 70
     1
102
RTVSPropertyOp26
 70
     1
102
RTVSPropertyOp27
 70
     1
102
RTVSPropertyOp28
 70
     1
102
RTVSPropertyOp29
 70
     1
102
RTVSPropertyOp30
 70
     1
102
RTVSPropertyOp31
 70
     1
102
RTVSPropertyOp32
 70
     1
102
RTVSPropertyOp33
 70
     1
102
RTVSPropertyOp34
 70
     1
102
RTVSPropertyOp35
 70
     1
102
RTVSPropertyOp36
 70
     1
102
RTVSPropertyOp37
 70
     1
102
RTVSPropertyOp38
 70
     1
102
RTVSPropertyOp39
 70
     1
102
RTVSPropertyOp40
 70
     1
102
RTVSPropertyOp41
 70
     1
102
RTVSPropertyOp42
 70
     1
102
RTVSPropertyOp43
 70
     1
102
RTVSPropertyOp44
 70
     1
102
RTVSPropertyOp45
 70
     1
102
RTVSPropertyOp46
 70
     1
102
RTVSPropertyOp47
 70
     1
102
RTVSPropertyOp48
 70
     1
102
RTVSPropertyOp49
 70
     1
102
RTVSPropertyOp50
 70
     1
102
RTVSPropertyOp51
 70
     0
102
RTVSPropertyOp52
 70
     0
102
RTVSPropertyOp53
 70
     1
102
RTVSPropertyOp54
 70
     1
102
RTVSPropertyOp55
 70
     1
102
RTVSPropertyOp56
 70
     1
102
RTVSPropertyOp57
 70
     1
102
RTVSPost2010Prop28
280
     1
102
RTVSPost2010PropOp28
 70
     1
102
RTVSPost2010Prop29
280
     1
102
RTVSPost2010PropOp29
 70
     1
102
RTVSPost2010Prop30
280
     0
102
RTVSPost2010PropOp30
 70
     1
102
RTVSPost2010Prop31
280
     0
102
RTVSPost2010PropOp31
 70
     1
102
RTVSPost2010Prop32
280
     0
102
RTVSPost2010PropOp32
 70
     1
102
RTVSPost2010Prop33
280
     0
102
RTVSPost2010PropOp33
 70
     1
102
RTVSPost2010Prop34
280
     0
102
RTVSPost2010PropOp34
 70
     1
102
RTVSPost2010Prop35
280
     0
102
RTVSPost2010PropOp35
 70
     1
102
RTVSPost2010Prop36
280
     0
102
RTVSPost2010PropOp36
 70
     1
102
RTVSPost2010Prop37
 90
       50
102
RTVSPost2010PropOp37
 70
     1
102
RTVSPost2010Prop38
140
0.0
102
RTVSPost2010PropOp38
 70
     1
102
RTVSPost2010Prop39
140
1.0
102
RTVSPost2010PropOp39
 70
     1
102
RTVSPost2010Prop40
 90
        0
102
RTVSPost2010PropOp40
 70
     1
102
RTVSPost2010Prop41ColorIndex
 90
       18
102
RTVSPost2010Prop41ColorRGB
 90
        0
102
RTVSPost2010PropOp41
 70
     1
102
RTVSPost2010Prop42
 90
       50
102
RTVSPost2010PropOp42
 70
     1
102
RTVSPost2010Prop43
 90
        3
102
RTVSPost2010PropOp43
 70
     1
102
RTVSPost2010Prop44ColorIndex
 90
        5
102
RTVSPost2010Prop44ColorRGB
 90
      255
102
RTVSPost2010PropOp44
 70
     1
102
RTVSPost2010Prop45
280
     0
102
RTVSPost2010PropOp45
 70
     1
102
RTVSPost2010Prop46
 90
       50
102
RTVSPost2010PropOp46
 70
     1
102
RTVSPost2010Prop47
 90
       50
102
RTVSPost2010PropOp47
 70
     1
102
RTVSPost2010Prop48
 90
       50
102
RTVSPost2010PropOp48
 70
     1
102
RTVSPost2010Prop49
280
     0
102
RTVSPost2010PropOp49
 70
     1
102
RTVSPost2010Prop50
 90
       50
102
RTVSPost2010PropOp50
 70
     1
102
RTVSPost2010Prop51ColorIndex
 90
      256
102
RTVSPost2010Prop51ColorRGB
 90
-16777216
102
RTVSPost2010PropOp51
 70
     0
102
RTVSPost2010Prop52
140
1.0
102
RTVSPost2010PropOp52
 70
     0
102
RTVSPost2010Prop53
 90
        2
102
RTVSPost2010PropOp53
 70
     1
102
RTVSPost2010Prop54
  1
strokes_ogs.tif
102
RTVSPost2010PropOp54
 70
     1
102
RTVSPost2010Prop55
280
     0
102
RTVSPost2010PropOp55
 70
     1
102
RTVSPost2010Prop56
140
1.0
102
RTVSPost2010PropOp56
 70
     1
102
RTVSPost2010Prop57
140
1.0
102
RTVSPost2010PropOp57
 70
     1
  0
XRECORD
  5
43A
102
{ACAD_REACTORS
330
439
102
}
330
439
100
AcDbXrecord
280
     1
102
RTVSPropertyOp0
 70
     1
102
RTVSPropertyOp1
 70
     1
102
RTVSPropertyOp2
 70
     1
102
RTVSPropertyOp3
 70
     1
102
RTVSPropertyOp4
 70
     1
102
RTVSPropertyOp5
 70
     1
102
RTVSPropertyOp6
 70
     1
102
RTVSPropertyOp7
 70
     1
102
RTVSPropertyOp8
 70
     1
102
RTVSPropertyOp9
 70
     1
102
RTVSPropertyOp10
 70
     1
102
RTVSPropertyOp11
 70
     1
102
RTVSPropertyOp12
 70
     1
102
RTVSPropertyOp13
 70
     1
102
RTVSPropertyOp14
 70
     1
102
RTVSPropertyOp15
 70
     1
102
RTVSPropertyOp16
 70
     1
102
RTVSPropertyOp17
 70
     1
102
RTVSPropertyOp18
 70
     1
102
RTVSPropertyOp19
 70
     1
102
RTVSPropertyOp20
 70
     1
102
RTVSPropertyOp21
 70
     1
102
RTVSPropertyOp22
 70
     1
102
RTVSPropertyOp23
 70
     1
102
RTVSPropertyOp24
 70
     1
102
RTVSPropertyOp25
 70
     1
102
RTVSPropertyOp26
 70
     1
102
RTVSPropertyOp27
 70
     1
102
RTVSPropertyOp28
 70
     1
102
RTVSPropertyOp29
 70
     1
102
RTVSPropertyOp30
 70
     1
102
RTVSPropertyOp31
 70
     1
102
RTVSPropertyOp32
 70
     1
102
RTVSPropertyOp33
 70
     1
102
RTVSPropertyOp34
 70
     1
102
RTVSPropertyOp35
 70
     1
102
RTVSPropertyOp36
 70
     1
102
RTVSPropertyOp37
 70
     1
102
RTVSPropertyOp38
 70
     1
102
RTVSPropertyOp39
 70
     1
102
RTVSPropertyOp40
 70
     1
102
RTVSPropertyOp41
 70
     1
102
RTVSPropertyOp42
 70
     1
102
RTVSPropertyOp43
 70
     1
102
RTVSPropertyOp44
 70
     1
102
RTVSPropertyOp45
 70
     1
102
RTVSPropertyOp46
 70
     1
102
RTVSPropertyOp47
 70
     1
102
RTVSPropertyOp48
 70
     1
102
RTVSPropertyOp49
 70
     1
102
RTVSPropertyOp50
 70
     1
102
RTVSPropertyOp51
 70
     0
102
RTVSPropertyOp52
 70
     0
102
RTVSPropertyOp53
 70
     1
102
RTVSPropertyOp54
 70
     1
102
RTVSPropertyOp55
 70
     1
102
RTVSPropertyOp56
 70
     1
102
RTVSPropertyOp57
 70
     1
102
RTVSPost2010Prop28
280
     0
102
RTVSPost2010PropOp28
 70
     1
102
RTVSPost2010Prop29
280
     1
102
RTVSPost2010PropOp29
 70
     1
102
RTVSPost2010Prop30
280
     1
102
RTVSPost2010PropOp30
 70
     1
102
RTVSPost2010Prop31
280
     0
102
RTVSPost2010PropOp31
 70
     1
102
RTVSPost2010Prop32
280
     0
102
RTVSPost2010PropOp32
 70
     1
102
RTVSPost2010Prop33
280
     0
102
RTVSPost2010PropOp33
 70
     1
102
RTVSPost2010Prop34
280
     0
102
RTVSPost2010PropOp34
 70
     1
102
RTVSPost2010Prop35
280
     0
102
RTVSPost2010PropOp35
 70
     1
102
RTVSPost2010Prop36
280
     0
102
RTVSPost2010PropOp36
 70
     1
102
RTVSPost2010Prop37
 90
       50
102
RTVSPost2010PropOp37
 70
     1
102
RTVSPost2010Prop38
140
0.0
102
RTVSPost2010PropOp38
 70
     1
102
RTVSPost2010Prop39
140
1.0
102
RTVSPost2010PropOp39
 70
     1
102
RTVSPost2010Prop40
 90
        0
102
RTVSPost2010PropOp40
 70
     1
102
RTVSPost2010Prop41ColorIndex
 90
       18
102
RTVSPost2010Prop41ColorRGB
 90
        0
102
RTVSPost2010PropOp41
 70
     1
102
RTVSPost2010Prop42
 90
       50
102
RTVSPost2010PropOp42
 70
     1
102
RTVSPost2010Prop43
 90
        3
102
RTVSPost2010PropOp43
 70
     1
102
RTVSPost2010Prop44ColorIndex
 90
        5
102
RTVSPost2010Prop44ColorRGB
 90
      255
102
RTVSPost2010PropOp44
 70
     1
102
RTVSPost2010Prop45
280
     0
102
RTVSPost2010PropOp45
 70
     1
102
RTVSPost2010Prop46
 90
       50
102
RTVSPost2010PropOp46
 70
     1
102
RTVSPost2010Prop47
 90
       50
102
RTVSPost2010PropOp47
 70
     1
102
RTVSPost2010Prop48
 90
       50
102
RTVSPost2010PropOp48
 70
     1
102
RTVSPost2010Prop49
280
     0
102
RTVSPost2010PropOp49
 70
     1
102
RTVSPost2010Prop50
 90
       50
102
RTVSPost2010PropOp50
 70
     1
102
RTVSPost2010Prop51ColorIndex
 90
      256
102
RTVSPost2010Prop51ColorRGB
 90
-16777216
102
RTVSPost2010PropOp51
 70
     0
102
RTVSPost2010Prop52
140
1.0
102
RTVSPost2010PropOp52
 70
     0
102
RTVSPost2010Prop53
 90
        2
102
RTVSPost2010PropOp53
 70
     1
102
RTVSPost2010Prop54
  1
strokes_ogs.tif
102
RTVSPost2010PropOp54
 70
     1
102
RTVSPost2010Prop55
280
     0
102
RTVSPost2010PropOp55
 70
     1
102
RTVSPost2010Prop56
140
1.0
102
RTVSPost2010PropOp56
 70
     1
102
RTVSPost2010Prop57
140
1.0
102
RTVSPost2010PropOp57
 70
     1
  0
XRECORD
  5
442
102
{ACAD_REACTORS
330
441
102
}
330
441
100
AcDbXrecord
280
     1
102
RTVSPropertyOp0
 70
     1
102
RTVSPropertyOp1
 70
     1
102
RTVSPropertyOp2
 70
     1
102
RTVSPropertyOp3
 70
     1
102
RTVSPropertyOp4
 70
     1
102
RTVSPropertyOp5
 70
     1
102
RTVSPropertyOp6
 70
     1
102
RTVSPropertyOp7
 70
     1
102
RTVSPropertyOp8
 70
     1
102
RTVSPropertyOp9
 70
     1
102
RTVSPropertyOp10
 70
     1
102
RTVSPropertyOp11
 70
     1
102
RTVSPropertyOp12
 70
     1
102
RTVSPropertyOp13
 70
     1
102
RTVSPropertyOp14
 70
     1
102
RTVSPropertyOp15
 70
     1
102
RTVSPropertyOp16
 70
     1
102
RTVSPropertyOp17
 70
     1
102
RTVSPropertyOp18
 70
     1
102
RTVSPropertyOp19
 70
     1
102
RTVSPropertyOp20
 70
     1
102
RTVSPropertyOp21
 70
     1
102
RTVSPropertyOp22
 70
     1
102
RTVSPropertyOp23
 70
     1
102
RTVSPropertyOp24
 70
     1
102
RTVSPropertyOp25
 70
     1
102
RTVSPropertyOp26
 70
     1
102
RTVSPropertyOp27
 70
     1
102
RTVSPropertyOp28
 70
     1
102
RTVSPropertyOp29
 70
     1
102
RTVSPropertyOp30
 70
     1
102
RTVSPropertyOp31
 70
     1
102
RTVSPropertyOp32
 70
     1
102
RTVSPropertyOp33
 70
     1
102
RTVSPropertyOp34
 70
     1
102
RTVSPropertyOp35
 70
     1
102
RTVSPropertyOp36
 70
     1
102
RTVSPropertyOp37
 70
     1
102
RTVSPropertyOp38
 70
     1
102
RTVSPropertyOp39
 70
     1
102
RTVSPropertyOp40
 70
     1
102
RTVSPropertyOp41
 70
     1
102
RTVSPropertyOp42
 70
     1
102
RTVSPropertyOp43
 70
     1
102
RTVSPropertyOp44
 70
     1
102
RTVSPropertyOp45
 70
     1
102
RTVSPropertyOp46
 70
     1
102
RTVSPropertyOp47
 70
     1
102
RTVSPropertyOp48
 70
     1
102
RTVSPropertyOp49
 70
     1
102
RTVSPropertyOp50
 70
     1
102
RTVSPropertyOp51
 70
     0
102
RTVSPropertyOp52
 70
     0
102
RTVSPropertyOp53
 70
     1
102
RTVSPropertyOp54
 70
     1
102
RTVSPropertyOp55
 70
     1
102
RTVSPropertyOp56
 70
     1
102
RTVSPropertyOp57
 70
     1
102
RTVSPost2010Prop28
280
     0
102
RTVSPost2010PropOp28
 70
     1
102
RTVSPost2010Prop29
280
     1
102
RTVSPost2010PropOp29
 70
     1
102
RTVSPost2010Prop30
280
     1
102
RTVSPost2010PropOp30
 70
     1
102
RTVSPost2010Prop31
280
     0
102
RTVSPost2010PropOp31
 70
     1
102
RTVSPost2010Prop32
280
     0
102
RTVSPost2010PropOp32
 70
     1
102
RTVSPost2010Prop33
280
     0
102
RTVSPost2010PropOp33
 70
     1
102
RTVSPost2010Prop34
280
     0
102
RTVSPost2010PropOp34
 70
     1
102
RTVSPost2010Prop35
280
     0
102
RTVSPost2010PropOp35
 70
     1
102
RTVSPost2010Prop36
280
     0
102
RTVSPost2010PropOp36
 70
     1
102
RTVSPost2010Prop37
 90
       50
102
RTVSPost2010PropOp37
 70
     1
102
RTVSPost2010Prop38
140
0.0
102
RTVSPost2010PropOp38
 70
     1
102
RTVSPost2010Prop39
140
1.0
102
RTVSPost2010PropOp39
 70
     1
102
RTVSPost2010Prop40
 90
        0
102
RTVSPost2010PropOp40
 70
     1
102
RTVSPost2010Prop41ColorIndex
 90
       18
102
RTVSPost2010Prop41ColorRGB
 90
        0
102
RTVSPost2010PropOp41
 70
     1
102
RTVSPost2010Prop42
 90
       50
102
RTVSPost2010PropOp42
 70
     1
102
RTVSPost2010Prop43
 90
        3
102
RTVSPost2010PropOp43
 70
     1
102
RTVSPost2010Prop44ColorIndex
 90
        5
102
RTVSPost2010Prop44ColorRGB
 90
      255
102
RTVSPost2010PropOp44
 70
     1
102
RTVSPost2010Prop45
280
     0
102
RTVSPost2010PropOp45
 70
     1
102
RTVSPost2010Prop46
 90
       50
102
RTVSPost2010PropOp46
 70
     1
102
RTVSPost2010Prop47
 90
       50
102
RTVSPost2010PropOp47
 70
     1
102
RTVSPost2010Prop48
 90
       50
102
RTVSPost2010PropOp48
 70
     1
102
RTVSPost2010Prop49
280
     0
102
RTVSPost2010PropOp49
 70
     1
102
RTVSPost2010Prop50
 90
       50
102
RTVSPost2010PropOp50
 70
     1
102
RTVSPost2010Prop51ColorIndex
 90
      256
102
RTVSPost2010Prop51ColorRGB
 90
-16777216
102
RTVSPost2010PropOp51
 70
     0
102
RTVSPost2010Prop52
140
1.0
102
RTVSPost2010PropOp52
 70
     0
102
RTVSPost2010Prop53
 90
        2
102
RTVSPost2010PropOp53
 70
     1
102
RTVSPost2010Prop54
  1
strokes_ogs.tif
102
RTVSPost2010PropOp54
 70
     1
102
RTVSPost2010Prop55
280
     0
102
RTVSPost2010PropOp55
 70
     1
102
RTVSPost2010Prop56
140
1.0
102
RTVSPost2010PropOp56
 70
     1
102
RTVSPost2010Prop57
140
1.0
102
RTVSPost2010PropOp57
 70
     1
  0
XRECORD
  5
44A
102
{ACAD_REACTORS
330
449
102
}
330
449
100
AcDbXrecord
280
     1
102
RTVSPropertyOp0
 70
     1
102
RTVSPropertyOp1
 70
     1
102
RTVSPropertyOp2
 70
     1
102
RTVSPropertyOp3
 70
     1
102
RTVSPropertyOp4
 70
     1
102
RTVSPropertyOp5
 70
     1
102
RTVSPropertyOp6
 70
     1
102
RTVSPropertyOp7
 70
     1
102
RTVSPropertyOp8
 70
     1
102
RTVSPropertyOp9
 70
     1
102
RTVSPropertyOp10
 70
     1
102
RTVSPropertyOp11
 70
     1
102
RTVSPropertyOp12
 70
     1
102
RTVSPropertyOp13
 70
     1
102
RTVSPropertyOp14
 70
     1
102
RTVSPropertyOp15
 70
     1
102
RTVSPropertyOp16
 70
     1
102
RTVSPropertyOp17
 70
     1
102
RTVSPropertyOp18
 70
     1
102
RTVSPropertyOp19
 70
     1
102
RTVSPropertyOp20
 70
     1
102
RTVSPropertyOp21
 70
     1
102
RTVSPropertyOp22
 70
     1
102
RTVSPropertyOp23
 70
     1
102
RTVSPropertyOp24
 70
     1
102
RTVSPropertyOp25
 70
     1
102
RTVSPropertyOp26
 70
     1
102
RTVSPropertyOp27
 70
     1
102
RTVSPropertyOp28
 70
     1
102
RTVSPropertyOp29
 70
     1
102
RTVSPropertyOp30
 70
     1
102
RTVSPropertyOp31
 70
     1
102
RTVSPropertyOp32
 70
     1
102
RTVSPropertyOp33
 70
     1
102
RTVSPropertyOp34
 70
     1
102
RTVSPropertyOp35
 70
     1
102
RTVSPropertyOp36
 70
     1
102
RTVSPropertyOp37
 70
     1
102
RTVSPropertyOp38
 70
     1
102
RTVSPropertyOp39
 70
     1
102
RTVSPropertyOp40
 70
     1
102
RTVSPropertyOp41
 70
     1
102
RTVSPropertyOp42
 70
     1
102
RTVSPropertyOp43
 70
     1
102
RTVSPropertyOp44
 70
     1
102
RTVSPropertyOp45
 70
     1
102
RTVSPropertyOp46
 70
     1
102
RTVSPropertyOp47
 70
     1
102
RTVSPropertyOp48
 70
     1
102
RTVSPropertyOp49
 70
     1
102
RTVSPropertyOp50
 70
     1
102
RTVSPropertyOp51
 70
     0
102
RTVSPropertyOp52
 70
     0
102
RTVSPropertyOp53
 70
     1
102
RTVSPropertyOp54
 70
     1
102
RTVSPropertyOp55
 70
     1
102
RTVSPropertyOp56
 70
     1
102
RTVSPropertyOp57
 70
     1
102
RTVSPost2010Prop28
280
     0
102
RTVSPost2010PropOp28
 70
     1
102
RTVSPost2010Prop29
280
     1
102
RTVSPost2010PropOp29
 70
     1
102
RTVSPost2010Prop30
280
     1
102
RTVSPost2010PropOp30
 70
     1
102
RTVSPost2010Prop31
280
     0
102
RTVSPost2010PropOp31
 70
     1
102
RTVSPost2010Prop32
280
     0
102
RTVSPost2010PropOp32
 70
     1
102
RTVSPost2010Prop33
280
     0
102
RTVSPost2010PropOp33
 70
     1
102
RTVSPost2010Prop34
280
     0
102
RTVSPost2010PropOp34
 70
     1
102
RTVSPost2010Prop35
280
     0
102
RTVSPost2010PropOp35
 70
     1
102
RTVSPost2010Prop36
280
     0
102
RTVSPost2010PropOp36
 70
     1
102
RTVSPost2010Prop37
 90
       50
102
RTVSPost2010PropOp37
 70
     1
102
RTVSPost2010Prop38
140
0.0
102
RTVSPost2010PropOp38
 70
     1
102
RTVSPost2010Prop39
140
1.0
102
RTVSPost2010PropOp39
 70
     1
102
RTVSPost2010Prop40
 90
        0
102
RTVSPost2010PropOp40
 70
     1
102
RTVSPost2010Prop41ColorIndex
 90
       18
102
RTVSPost2010Prop41ColorRGB
 90
        0
102
RTVSPost2010PropOp41
 70
     1
102
RTVSPost2010Prop42
 90
       50
102
RTVSPost2010PropOp42
 70
     1
102
RTVSPost2010Prop43
 90
        3
102
RTVSPost2010PropOp43
 70
     1
102
RTVSPost2010Prop44ColorIndex
 90
        5
102
RTVSPost2010Prop44ColorRGB
 90
      255
102
RTVSPost2010PropOp44
 70
     1
102
RTVSPost2010Prop45
280
     0
102
RTVSPost2010PropOp45
 70
     1
102
RTVSPost2010Prop46
 90
       50
102
RTVSPost2010PropOp46
 70
     1
102
RTVSPost2010Prop47
 90
       50
102
RTVSPost2010PropOp47
 70
     1
102
RTVSPost2010Prop48
 90
       50
102
RTVSPost2010PropOp48
 70
     1
102
RTVSPost2010Prop49
280
     0
102
RTVSPost2010PropOp49
 70
     1
102
RTVSPost2010Prop50
 90
       50
102
RTVSPost2010PropOp50
 70
     1
102
RTVSPost2010Prop51ColorIndex
 90
      256
102
RTVSPost2010Prop51ColorRGB
 90
-16777216
102
RTVSPost2010PropOp51
 70
     0
102
RTVSPost2010Prop52
140
1.0
102
RTVSPost2010PropOp52
 70
     0
102
RTVSPost2010Prop53
 90
        2
102
RTVSPost2010PropOp53
 70
     1
102
RTVSPost2010Prop54
  1
strokes_ogs.tif
102
RTVSPost2010PropOp54
 70
     1
102
RTVSPost2010Prop55
280
     0
102
RTVSPost2010PropOp55
 70
     1
102
RTVSPost2010Prop56
140
1.0
102
RTVSPost2010PropOp56
 70
     1
102
RTVSPost2010Prop57
140
1.0
102
RTVSPost2010PropOp57
 70
     1
  0
XRECORD
  5
43E
102
{ACAD_REACTORS
330
43D
102
}
330
43D
100
AcDbXrecord
280
     1
102
RTVSPropertyOp0
 70
     1
102
RTVSPropertyOp1
 70
     1
102
RTVSPropertyOp2
 70
     1
102
RTVSPropertyOp3
 70
     1
102
RTVSPropertyOp4
 70
     1
102
RTVSPropertyOp5
 70
     1
102
RTVSPropertyOp6
 70
     1
102
RTVSPropertyOp7
 70
     1
102
RTVSPropertyOp8
 70
     1
102
RTVSPropertyOp9
 70
     1
102
RTVSPropertyOp10
 70
     1
102
RTVSPropertyOp11
 70
     1
102
RTVSPropertyOp12
 70
     1
102
RTVSPropertyOp13
 70
     1
102
RTVSPropertyOp14
 70
     1
102
RTVSPropertyOp15
 70
     1
102
RTVSPropertyOp16
 70
     1
102
RTVSPropertyOp17
 70
     1
102
RTVSPropertyOp18
 70
     1
102
RTVSPropertyOp19
 70
     1
102
RTVSPropertyOp20
 70
     1
102
RTVSPropertyOp21
 70
     1
102
RTVSPropertyOp22
 70
     1
102
RTVSPropertyOp23
 70
     1
102
RTVSPropertyOp24
 70
     1
102
RTVSPropertyOp25
 70
     1
102
RTVSPropertyOp26
 70
     1
102
RTVSPropertyOp27
 70
     1
102
RTVSPropertyOp28
 70
     1
102
RTVSPropertyOp29
 70
     1
102
RTVSPropertyOp30
 70
     1
102
RTVSPropertyOp31
 70
     1
102
RTVSPropertyOp32
 70
     1
102
RTVSPropertyOp33
 70
     1
102
RTVSPropertyOp34
 70
     1
102
RTVSPropertyOp35
 70
     1
102
RTVSPropertyOp36
 70
     1
102
RTVSPropertyOp37
 70
     1
102
RTVSPropertyOp38
 70
     1
102
RTVSPropertyOp39
 70
     1
102
RTVSPropertyOp40
 70
     1
102
RTVSPropertyOp41
 70
     1
102
RTVSPropertyOp42
 70
     1
102
RTVSPropertyOp43
 70
     1
102
RTVSPropertyOp44
 70
     1
102
RTVSPropertyOp45
 70
     1
102
RTVSPropertyOp46
 70
     1
102
RTVSPropertyOp47
 70
     1
102
RTVSPropertyOp48
 70
     1
102
RTVSPropertyOp49
 70
     1
102
RTVSPropertyOp50
 70
     1
102
RTVSPropertyOp51
 70
     0
102
RTVSPropertyOp52
 70
     0
102
RTVSPropertyOp53
 70
     1
102
RTVSPropertyOp54
 70
     1
102
RTVSPropertyOp55
 70
     1
102
RTVSPropertyOp56
 70
     1
102
RTVSPropertyOp57
 70
     1
102
RTVSPost2010Prop28
280
     0
102
RTVSPost2010PropOp28
 70
     1
102
RTVSPost2010Prop29
280
     1
102
RTVSPost2010PropOp29
 70
     1
102
RTVSPost2010Prop30
280
     1
102
RTVSPost2010PropOp30
 70
     1
102
RTVSPost2010Prop31
280
     0
102
RTVSPost2010PropOp31
 70
     1
102
RTVSPost2010Prop32
280
     0
102
RTVSPost2010PropOp32
 70
     1
102
RTVSPost2010Prop33
280
     0
102
RTVSPost2010PropOp33
 70
     1
102
RTVSPost2010Prop34
280
     0
102
RTVSPost2010PropOp34
 70
     1
102
RTVSPost2010Prop35
280
     0
102
RTVSPost2010PropOp35
 70
     1
102
RTVSPost2010Prop36
280
     0
102
RTVSPost2010PropOp36
 70
     1
102
RTVSPost2010Prop37
 90
       50
102
RTVSPost2010PropOp37
 70
     1
102
RTVSPost2010Prop38
140
0.0
102
RTVSPost2010PropOp38
 70
     1
102
RTVSPost2010Prop39
140
1.0
102
RTVSPost2010PropOp39
 70
     1
102
RTVSPost2010Prop40
 90
        0
102
RTVSPost2010PropOp40
 70
     1
102
RTVSPost2010Prop41ColorIndex
 90
       18
102
RTVSPost2010Prop41ColorRGB
 90
        0
102
RTVSPost2010PropOp41
 70
     1
102
RTVSPost2010Prop42
 90
       50
102
RTVSPost2010PropOp42
 70
     1
102
RTVSPost2010Prop43
 90
        3
102
RTVSPost2010PropOp43
 70
     1
102
RTVSPost2010Prop44ColorIndex
 90
        5
102
RTVSPost2010Prop44ColorRGB
 90
      255
102
RTVSPost2010PropOp44
 70
     1
102
RTVSPost2010Prop45
280
     0
102
RTVSPost2010PropOp45
 70
     1
102
RTVSPost2010Prop46
 90
       50
102
RTVSPost2010PropOp46
 70
     1
102
RTVSPost2010Prop47
 90
       50
102
RTVSPost2010PropOp47
 70
     1
102
RTVSPost2010Prop48
 90
       50
102
RTVSPost2010PropOp48
 70
     1
102
RTVSPost2010Prop49
280
     0
102
RTVSPost2010PropOp49
 70
     1
102
RTVSPost2010Prop50
 90
       50
102
RTVSPost2010PropOp50
 70
     1
102
RTVSPost2010Prop51ColorIndex
 90
      256
102
RTVSPost2010Prop51ColorRGB
 90
-16777216
102
RTVSPost2010PropOp51
 70
     0
102
RTVSPost2010Prop52
140
1.0
102
RTVSPost2010PropOp52
 70
     0
102
RTVSPost2010Prop53
 90
        2
102
RTVSPost2010PropOp53
 70
     1
102
RTVSPost2010Prop54
  1
strokes_ogs.tif
102
RTVSPost2010PropOp54
 70
     1
102
RTVSPost2010Prop55
280
     0
102
RTVSPost2010PropOp55
 70
     1
102
RTVSPost2010Prop56
140
1.0
102
RTVSPost2010PropOp56
 70
     1
102
RTVSPost2010Prop57
140
1.0
102
RTVSPost2010PropOp57
 70
     1
  0
XRECORD
  5
440
102
{ACAD_REACTORS
330
43F
102
}
330
43F
100
AcDbXrecord
280
     1
102
RTVSPropertyOp0
 70
     1
102
RTVSPropertyOp1
 70
     1
102
RTVSPropertyOp2
 70
     1
102
RTVSPropertyOp3
 70
     1
102
RTVSPropertyOp4
 70
     1
102
RTVSPropertyOp5
 70
     1
102
RTVSPropertyOp6
 70
     1
102
RTVSPropertyOp7
 70
     1
102
RTVSPropertyOp8
 70
     1
102
RTVSPropertyOp9
 70
     1
102
RTVSPropertyOp10
 70
     1
102
RTVSPropertyOp11
 70
     1
102
RTVSPropertyOp12
 70
     1
102
RTVSPropertyOp13
 70
     1
102
RTVSPropertyOp14
 70
     1
102
RTVSPropertyOp15
 70
     1
102
RTVSPropertyOp16
 70
     1
102
RTVSPropertyOp17
 70
     1
102
RTVSPropertyOp18
 70
     1
102
RTVSPropertyOp19
 70
     1
102
RTVSPropertyOp20
 70
     1
102
RTVSPropertyOp21
 70
     1
102
RTVSPropertyOp22
 70
     1
102
RTVSPropertyOp23
 70
     1
102
RTVSPropertyOp24
 70
     1
102
RTVSPropertyOp25
 70
     1
102
RTVSPropertyOp26
 70
     1
102
RTVSPropertyOp27
 70
     1
102
RTVSPropertyOp28
 70
     1
102
RTVSPropertyOp29
 70
     1
102
RTVSPropertyOp30
 70
     1
102
RTVSPropertyOp31
 70
     1
102
RTVSPropertyOp32
 70
     1
102
RTVSPropertyOp33
 70
     1
102
RTVSPropertyOp34
 70
     1
102
RTVSPropertyOp35
 70
     1
102
RTVSPropertyOp36
 70
     1
102
RTVSPropertyOp37
 70
     1
102
RTVSPropertyOp38
 70
     1
102
RTVSPropertyOp39
 70
     1
102
RTVSPropertyOp40
 70
     1
102
RTVSPropertyOp41
 70
     1
102
RTVSPropertyOp42
 70
     1
102
RTVSPropertyOp43
 70
     1
102
RTVSPropertyOp44
 70
     1
102
RTVSPropertyOp45
 70
     1
102
RTVSPropertyOp46
 70
     1
102
RTVSPropertyOp47
 70
     1
102
RTVSPropertyOp48
 70
     1
102
RTVSPropertyOp49
 70
     1
102
RTVSPropertyOp50
 70
     1
102
RTVSPropertyOp51
 70
     0
102
RTVSPropertyOp52
 70
     0
102
RTVSPropertyOp53
 70
     1
102
RTVSPropertyOp54
 70
     1
102
RTVSPropertyOp55
 70
     1
102
RTVSPropertyOp56
 70
     1
102
RTVSPropertyOp57
 70
     1
102
RTVSPost2010Prop28
280
     0
102
RTVSPost2010PropOp28
 70
     1
102
RTVSPost2010Prop29
280
     1
102
RTVSPost2010PropOp29
 70
     1
102
RTVSPost2010Prop30
280
     1
102
RTVSPost2010PropOp30
 70
     1
102
RTVSPost2010Prop31
280
     0
102
RTVSPost2010PropOp31
 70
     1
102
RTVSPost2010Prop32
280
     0
102
RTVSPost2010PropOp32
 70
     1
102
RTVSPost2010Prop33
280
     0
102
RTVSPost2010PropOp33
 70
     1
102
RTVSPost2010Prop34
280
     0
102
RTVSPost2010PropOp34
 70
     1
102
RTVSPost2010Prop35
280
     0
102
RTVSPost2010PropOp35
 70
     1
102
RTVSPost2010Prop36
280
     0
102
RTVSPost2010PropOp36
 70
     1
102
RTVSPost2010Prop37
 90
       50
102
RTVSPost2010PropOp37
 70
     1
102
RTVSPost2010Prop38
140
0.0
102
RTVSPost2010PropOp38
 70
     1
102
RTVSPost2010Prop39
140
1.0
102
RTVSPost2010PropOp39
 70
     1
102
RTVSPost2010Prop40
 90
        0
102
RTVSPost2010PropOp40
 70
     1
102
RTVSPost2010Prop41ColorIndex
 90
       18
102
RTVSPost2010Prop41ColorRGB
 90
        0
102
RTVSPost2010PropOp41
 70
     1
102
RTVSPost2010Prop42
 90
       50
102
RTVSPost2010PropOp42
 70
     1
102
RTVSPost2010Prop43
 90
        3
102
RTVSPost2010PropOp43
 70
     1
102
RTVSPost2010Prop44ColorIndex
 90
        5
102
RTVSPost2010Prop44ColorRGB
 90
      255
102
RTVSPost2010PropOp44
 70
     1
102
RTVSPost2010Prop45
280
     0
102
RTVSPost2010PropOp45
 70
     1
102
RTVSPost2010Prop46
 90
       50
102
RTVSPost2010PropOp46
 70
     1
102
RTVSPost2010Prop47
 90
       50
102
RTVSPost2010PropOp47
 70
     1
102
RTVSPost2010Prop48
 90
       50
102
RTVSPost2010PropOp48
 70
     1
102
RTVSPost2010Prop49
280
     0
102
RTVSPost2010PropOp49
 70
     1
102
RTVSPost2010Prop50
 90
       50
102
RTVSPost2010PropOp50
 70
     1
102
RTVSPost2010Prop51ColorIndex
 90
      256
102
RTVSPost2010Prop51ColorRGB
 90
-16777216
102
RTVSPost2010PropOp51
 70
     0
102
RTVSPost2010Prop52
140
1.0
102
RTVSPost2010PropOp52
 70
     0
102
RTVSPost2010Prop53
 90
        2
102
RTVSPost2010PropOp53
 70
     1
102
RTVSPost2010Prop54
  1
strokes_ogs.tif
102
RTVSPost2010PropOp54
 70
     1
102
RTVSPost2010Prop55
280
     0
102
RTVSPost2010PropOp55
 70
     1
102
RTVSPost2010Prop56
140
1.0
102
RTVSPost2010PropOp56
 70
     1
102
RTVSPost2010Prop57
140
1.0
102
RTVSPost2010PropOp57
 70
     1
  0
XRECORD
  5
450
102
{ACAD_REACTORS
330
44F
102
}
330
44F
100
AcDbXrecord
280
     1
102
RTVSPropertyOp0
 70
     0
102
RTVSPropertyOp1
 70
     0
102
RTVSPropertyOp2
 70
     0
102
RTVSPropertyOp3
 70
     0
102
RTVSPropertyOp4
 70
     0
102
RTVSPropertyOp5
 70
     0
102
RTVSPropertyOp6
 70
     0
102
RTVSPropertyOp7
 70
     0
102
RTVSPropertyOp8
 70
     0
102
RTVSPropertyOp9
 70
     0
102
RTVSPropertyOp10
 70
     0
102
RTVSPropertyOp11
 70
     0
102
RTVSPropertyOp12
 70
     0
102
RTVSPropertyOp13
 70
     0
102
RTVSPropertyOp14
 70
     2
102
RTVSPropertyOp15
 70
     0
102
RTVSPropertyOp16
 70
     0
102
RTVSPropertyOp17
 70
     0
102
RTVSPropertyOp18
 70
     0
102
RTVSPropertyOp19
 70
     0
102
RTVSPropertyOp20
 70
     0
102
RTVSPropertyOp21
 70
     0
102
RTVSPropertyOp22
 70
     0
102
RTVSPropertyOp23
 70
     0
102
RTVSPropertyOp24
 70
     0
102
RTVSPropertyOp25
 70
     0
102
RTVSPropertyOp26
 70
     0
102
RTVSPropertyOp27
 70
     0
102
RTVSPropertyOp28
 70
     0
102
RTVSPropertyOp29
 70
     0
102
RTVSPropertyOp30
 70
     0
102
RTVSPropertyOp31
 70
     0
102
RTVSPropertyOp32
 70
     0
102
RTVSPropertyOp33
 70
     0
102
RTVSPropertyOp34
 70
     0
102
RTVSPropertyOp35
 70
     0
102
RTVSPropertyOp36
 70
     0
102
RTVSPropertyOp37
 70
     0
102
RTVSPropertyOp38
 70
     0
102
RTVSPropertyOp39
 70
     0
102
RTVSPropertyOp40
 70
     0
102
RTVSPropertyOp41
 70
     0
102
RTVSPropertyOp42
 70
     0
102
RTVSPropertyOp43
 70
     0
102
RTVSPropertyOp44
 70
     0
102
RTVSPropertyOp45
 70
     0
102
RTVSPropertyOp46
 70
     0
102
RTVSPropertyOp47
 70
     0
102
RTVSPropertyOp48
 70
     0
102
RTVSPropertyOp49
 70
     0
102
RTVSPropertyOp50
 70
     0
102
RTVSPropertyOp51
 70
     0
102
RTVSPropertyOp52
 70
     0
102
RTVSPropertyOp53
 70
     0
102
RTVSPropertyOp54
 70
     0
102
RTVSPropertyOp55
 70
     0
102
RTVSPropertyOp56
 70
     0
102
RTVSPropertyOp57
 70
     0
102
RTVSPost2010Prop28
280
     0
102
RTVSPost2010PropOp28
 70
     0
102
RTVSPost2010Prop29
280
     1
102
RTVSPost2010PropOp29
 70
     0
102
RTVSPost2010Prop30
280
     1
102
RTVSPost2010PropOp30
 70
     0
102
RTVSPost2010Prop31
280
     0
102
RTVSPost2010PropOp31
 70
     0
102
RTVSPost2010Prop32
280
     0
102
RTVSPost2010PropOp32
 70
     0
102
RTVSPost2010Prop33
280
     0
102
RTVSPost2010PropOp33
 70
     0
102
RTVSPost2010Prop34
280
     0
102
RTVSPost2010PropOp34
 70
     0
102
RTVSPost2010Prop35
280
     0
102
RTVSPost2010PropOp35
 70
     0
102
RTVSPost2010Prop36
280
     0
102
RTVSPost2010PropOp36
 70
     0
102
RTVSPost2010Prop37
 90
       50
102
RTVSPost2010PropOp37
 70
     0
102
RTVSPost2010Prop38
140
0.0
102
RTVSPost2010PropOp38
 70
     0
102
RTVSPost2010Prop39
140
1.0
102
RTVSPost2010PropOp39
 70
     0
102
RTVSPost2010Prop40
 90
        0
102
RTVSPost2010PropOp40
 70
     0
102
RTVSPost2010Prop41ColorIndex
 90
       18
102
RTVSPost2010Prop41ColorRGB
 90
        0
102
RTVSPost2010PropOp41
 70
     0
102
RTVSPost2010Prop42
 90
       50
102
RTVSPost2010PropOp42
 70
     0
102
RTVSPost2010Prop43
 90
        3
102
RTVSPost2010PropOp43
 70
     0
102
RTVSPost2010Prop44ColorIndex
 90
        5
102
RTVSPost2010Prop44ColorRGB
 90
      255
102
RTVSPost2010PropOp44
 70
     0
102
RTVSPost2010Prop45
280
     0
102
RTVSPost2010PropOp45
 70
     0
102
RTVSPost2010Prop46
 90
       50
102
RTVSPost2010PropOp46
 70
     0
102
RTVSPost2010Prop47
 90
       50
102
RTVSPost2010PropOp47
 70
     0
102
RTVSPost2010Prop48
 90
       50
102
RTVSPost2010PropOp48
 70
     0
102
RTVSPost2010Prop49
280
     0
102
RTVSPost2010PropOp49
 70
     0
102
RTVSPost2010Prop50
 90
       50
102
RTVSPost2010PropOp50
 70
     0
102
RTVSPost2010Prop51ColorIndex
 90
      256
102
RTVSPost2010Prop51ColorRGB
 90
-16777216
102
RTVSPost2010PropOp51
 70
     0
102
RTVSPost2010Prop52
140
1.0
102
RTVSPost2010PropOp52
 70
     0
102
RTVSPost2010Prop53
 90
        2
102
RTVSPost2010PropOp53
 70
     0
102
RTVSPost2010Prop54
  1
strokes_ogs.tif
102
RTVSPost2010PropOp54
 70
     0
102
RTVSPost2010Prop55
280
     0
102
RTVSPost2010PropOp55
 70
     0
102
RTVSPost2010Prop56
140
1.0
102
RTVSPost2010PropOp56
 70
     0
102
RTVSPost2010Prop57
140
1.0
102
RTVSPost2010PropOp57
 70
     0
  0
XRECORD
  5
448
102
{ACAD_REACTORS
330
447
102
}
330
447
100
AcDbXrecord
280
     1
102
RTVSPropertyOp0
 70
     1
102
RTVSPropertyOp1
 70
     1
102
RTVSPropertyOp2
 70
     1
102
RTVSPropertyOp3
 70
     1
102
RTVSPropertyOp4
 70
     1
102
RTVSPropertyOp5
 70
     1
102
RTVSPropertyOp6
 70
     1
102
RTVSPropertyOp7
 70
     1
102
RTVSPropertyOp8
 70
     1
102
RTVSPropertyOp9
 70
     1
102
RTVSPropertyOp10
 70
     1
102
RTVSPropertyOp11
 70
     1
102
RTVSPropertyOp12
 70
     1
102
RTVSPropertyOp13
 70
     1
102
RTVSPropertyOp14
 70
     1
102
RTVSPropertyOp15
 70
     1
102
RTVSPropertyOp16
 70
     1
102
RTVSPropertyOp17
 70
     1
102
RTVSPropertyOp18
 70
     1
102
RTVSPropertyOp19
 70
     1
102
RTVSPropertyOp20
 70
     1
102
RTVSPropertyOp21
 70
     1
102
RTVSPropertyOp22
 70
     1
102
RTVSPropertyOp23
 70
     1
102
RTVSPropertyOp24
 70
     1
102
RTVSPropertyOp25
 70
     1
102
RTVSPropertyOp26
 70
     1
102
RTVSPropertyOp27
 70
     1
102
RTVSPropertyOp28
 70
     1
102
RTVSPropertyOp29
 70
     1
102
RTVSPropertyOp30
 70
     1
102
RTVSPropertyOp31
 70
     1
102
RTVSPropertyOp32
 70
     1
102
RTVSPropertyOp33
 70
     1
102
RTVSPropertyOp34
 70
     1
102
RTVSPropertyOp35
 70
     1
102
RTVSPropertyOp36
 70
     1
102
RTVSPropertyOp37
 70
     1
102
RTVSPropertyOp38
 70
     1
102
RTVSPropertyOp39
 70
     1
102
RTVSPropertyOp40
 70
     1
102
RTVSPropertyOp41
 70
     1
102
RTVSPropertyOp42
 70
     1
102
RTVSPropertyOp43
 70
     1
102
RTVSPropertyOp44
 70
     1
102
RTVSPropertyOp45
 70
     1
102
RTVSPropertyOp46
 70
     1
102
RTVSPropertyOp47
 70
     1
102
RTVSPropertyOp48
 70
     1
102
RTVSPropertyOp49
 70
     1
102
RTVSPropertyOp50
 70
     1
102
RTVSPropertyOp51
 70
     0
102
RTVSPropertyOp52
 70
     0
102
RTVSPropertyOp53
 70
     1
102
RTVSPropertyOp54
 70
     1
102
RTVSPropertyOp55
 70
     1
102
RTVSPropertyOp56
 70
     1
102
RTVSPropertyOp57
 70
     1
102
RTVSPost2010Prop28
280
     0
102
RTVSPost2010PropOp28
 70
     1
102
RTVSPost2010Prop29
280
     1
102
RTVSPost2010PropOp29
 70
     1
102
RTVSPost2010Prop30
280
     1
102
RTVSPost2010PropOp30
 70
     1
102
RTVSPost2010Prop31
280
     0
102
RTVSPost2010PropOp31
 70
     1
102
RTVSPost2010Prop32
280
     0
102
RTVSPost2010PropOp32
 70
     1
102
RTVSPost2010Prop33
280
     0
102
RTVSPost2010PropOp33
 70
     1
102
RTVSPost2010Prop34
280
     0
102
RTVSPost2010PropOp34
 70
     1
102
RTVSPost2010Prop35
280
     0
102
RTVSPost2010PropOp35
 70
     1
102
RTVSPost2010Prop36
280
     0
102
RTVSPost2010PropOp36
 70
     1
102
RTVSPost2010Prop37
 90
       50
102
RTVSPost2010PropOp37
 70
     1
102
RTVSPost2010Prop38
140
0.0
102
RTVSPost2010PropOp38
 70
     1
102
RTVSPost2010Prop39
140
1.0
102
RTVSPost2010PropOp39
 70
     1
102
RTVSPost2010Prop40
 90
        0
102
RTVSPost2010PropOp40
 70
     1
102
RTVSPost2010Prop41ColorIndex
 90
       18
102
RTVSPost2010Prop41ColorRGB
 90
        0
102
RTVSPost2010PropOp41
 70
     1
102
RTVSPost2010Prop42
 90
       50
102
RTVSPost2010PropOp42
 70
     1
102
RTVSPost2010Prop43
 90
        3
102
RTVSPost2010PropOp43
 70
     1
102
RTVSPost2010Prop44ColorIndex
 90
        5
102
RTVSPost2010Prop44ColorRGB
 90
      255
102
RTVSPost2010PropOp44
 70
     1
102
RTVSPost2010Prop45
280
     0
102
RTVSPost2010PropOp45
 70
     1
102
RTVSPost2010Prop46
 90
       50
102
RTVSPost2010PropOp46
 70
     1
102
RTVSPost2010Prop47
 90
       50
102
RTVSPost2010PropOp47
 70
     1
102
RTVSPost2010Prop48
 90
       50
102
RTVSPost2010PropOp48
 70
     1
102
RTVSPost2010Prop49
280
     0
102
RTVSPost2010PropOp49
 70
     1
102
RTVSPost2010Prop50
 90
       50
102
RTVSPost2010PropOp50
 70
     1
102
RTVSPost2010Prop51ColorIndex
 90
      256
102
RTVSPost2010Prop51ColorRGB
 90
-16777216
102
RTVSPost2010PropOp51
 70
     0
102
RTVSPost2010Prop52
140
1.0
102
RTVSPost2010PropOp52
 70
     0
102
RTVSPost2010Prop53
 90
        2
102
RTVSPost2010PropOp53
 70
     1
102
RTVSPost2010Prop54
  1
strokes_ogs.tif
102
RTVSPost2010PropOp54
 70
     1
102
RTVSPost2010Prop55
280
     0
102
RTVSPost2010PropOp55
 70
     1
102
RTVSPost2010Prop56
140
1.0
102
RTVSPost2010PropOp56
 70
     1
102
RTVSPost2010Prop57
140
1.0
102
RTVSPost2010PropOp57
 70
     1
  0
XRECORD
  5
42C
102
{ACAD_REACTORS
330
42B
102
}
330
42B
100
AcDbXrecord
280
     1
102
RTVSPropertyOp0
 70
     1
102
RTVSPropertyOp1
 70
     1
102
RTVSPropertyOp2
 70
     1
102
RTVSPropertyOp3
 70
     1
102
RTVSPropertyOp4
 70
     1
102
RTVSPropertyOp5
 70
     1
102
RTVSPropertyOp6
 70
     1
102
RTVSPropertyOp7
 70
     1
102
RTVSPropertyOp8
 70
     1
102
RTVSPropertyOp9
 70
     1
102
RTVSPropertyOp10
 70
     1
102
RTVSPropertyOp11
 70
     1
102
RTVSPropertyOp12
 70
     1
102
RTVSPropertyOp13
 70
     1
102
RTVSPropertyOp14
 70
     1
102
RTVSPropertyOp15
 70
     1
102
RTVSPropertyOp16
 70
     1
102
RTVSPropertyOp17
 70
     1
102
RTVSPropertyOp18
 70
     1
102
RTVSPropertyOp19
 70
     1
102
RTVSPropertyOp20
 70
     1
102
RTVSPropertyOp21
 70
     1
102
RTVSPropertyOp22
 70
     1
102
RTVSPropertyOp23
 70
     1
102
RTVSPropertyOp24
 70
     1
102
RTVSPropertyOp25
 70
     1
102
RTVSPropertyOp26
 70
     1
102
RTVSPropertyOp27
 70
     1
102
RTVSPropertyOp28
 70
     1
102
RTVSPropertyOp29
 70
     1
102
RTVSPropertyOp30
 70
     1
102
RTVSPropertyOp31
 70
     1
102
RTVSPropertyOp32
 70
     1
102
RTVSPropertyOp33
 70
     1
102
RTVSPropertyOp34
 70
     1
102
RTVSPropertyOp35
 70
     1
102
RTVSPropertyOp36
 70
     1
102
RTVSPropertyOp37
 70
     1
102
RTVSPropertyOp38
 70
     1
102
RTVSPropertyOp39
 70
     1
102
RTVSPropertyOp40
 70
     1
102
RTVSPropertyOp41
 70
     1
102
RTVSPropertyOp42
 70
     1
102
RTVSPropertyOp43
 70
     1
102
RTVSPropertyOp44
 70
     1
102
RTVSPropertyOp45
 70
     1
102
RTVSPropertyOp46
 70
     1
102
RTVSPropertyOp47
 70
     1
102
RTVSPropertyOp48
 70
     1
102
RTVSPropertyOp49
 70
     1
102
RTVSPropertyOp50
 70
     1
102
RTVSPropertyOp51
 70
     0
102
RTVSPropertyOp52
 70
     0
102
RTVSPropertyOp53
 70
     1
102
RTVSPropertyOp54
 70
     1
102
RTVSPropertyOp55
 70
     1
102
RTVSPropertyOp56
 70
     1
102
RTVSPropertyOp57
 70
     1
102
RTVSPost2010Prop28
280
     0
102
RTVSPost2010PropOp28
 70
     1
102
RTVSPost2010Prop29
280
     1
102
RTVSPost2010PropOp29
 70
     1
102
RTVSPost2010Prop30
280
     1
102
RTVSPost2010PropOp30
 70
     1
102
RTVSPost2010Prop31
280
     0
102
RTVSPost2010PropOp31
 70
     1
102
RTVSPost2010Prop32
280
     0
102
RTVSPost2010PropOp32
 70
     1
102
RTVSPost2010Prop33
280
     0
102
RTVSPost2010PropOp33
 70
     1
102
RTVSPost2010Prop34
280
     0
102
RTVSPost2010PropOp34
 70
     1
102
RTVSPost2010Prop35
280
     0
102
RTVSPost2010PropOp35
 70
     1
102
RTVSPost2010Prop36
280
     0
102
RTVSPost2010PropOp36
 70
     1
102
RTVSPost2010Prop37
 90
       50
102
RTVSPost2010PropOp37
 70
     1
102
RTVSPost2010Prop38
140
0.0
102
RTVSPost2010PropOp38
 70
     1
102
RTVSPost2010Prop39
140
1.0
102
RTVSPost2010PropOp39
 70
     1
102
RTVSPost2010Prop40
 90
        0
102
RTVSPost2010PropOp40
 70
     1
102
RTVSPost2010Prop41ColorIndex
 90
       18
102
RTVSPost2010Prop41ColorRGB
 90
        0
102
RTVSPost2010PropOp41
 70
     1
102
RTVSPost2010Prop42
 90
       50
102
RTVSPost2010PropOp42
 70
     1
102
RTVSPost2010Prop43
 90
        3
102
RTVSPost2010PropOp43
 70
     1
102
RTVSPost2010Prop44ColorIndex
 90
        5
102
RTVSPost2010Prop44ColorRGB
 90
      255
102
RTVSPost2010PropOp44
 70
     1
102
RTVSPost2010Prop45
280
     0
102
RTVSPost2010PropOp45
 70
     1
102
RTVSPost2010Prop46
 90
       50
102
RTVSPost2010PropOp46
 70
     1
102
RTVSPost2010Prop47
 90
       50
102
RTVSPost2010PropOp47
 70
     1
102
RTVSPost2010Prop48
 90
       50
102
RTVSPost2010PropOp48
 70
     1
102
RTVSPost2010Prop49
280
     0
102
RTVSPost2010PropOp49
 70
     1
102
RTVSPost2010Prop50
 90
       50
102
RTVSPost2010PropOp50
 70
     1
102
RTVSPost2010Prop51ColorIndex
 90
      256
102
RTVSPost2010Prop51ColorRGB
 90
-16777216
102
RTVSPost2010PropOp51
 70
     0
102
RTVSPost2010Prop52
140
1.0
102
RTVSPost2010PropOp52
 70
     0
102
RTVSPost2010Prop53
 90
        2
102
RTVSPost2010PropOp53
 70
     1
102
RTVSPost2010Prop54
  1
strokes_ogs.tif
102
RTVSPost2010PropOp54
 70
     1
102
RTVSPost2010Prop55
280
     0
102
RTVSPost2010PropOp55
 70
     1
102
RTVSPost2010Prop56
140
1.0
102
RTVSPost2010PropOp56
 70
     1
102
RTVSPost2010Prop57
140
1.0
102
RTVSPost2010PropOp57
 70
     1
  0
XRECORD
  5
42E
102
{ACAD_REACTORS
330
42D
102
}
330
42D
100
AcDbXrecord
280
     1
102
RTVSPropertyOp0
 70
     1
102
RTVSPropertyOp1
 70
     1
102
RTVSPropertyOp2
 70
     1
102
RTVSPropertyOp3
 70
     1
102
RTVSPropertyOp4
 70
     1
102
RTVSPropertyOp5
 70
     1
102
RTVSPropertyOp6
 70
     1
102
RTVSPropertyOp7
 70
     1
102
RTVSPropertyOp8
 70
     1
102
RTVSPropertyOp9
 70
     1
102
RTVSPropertyOp10
 70
     1
102
RTVSPropertyOp11
 70
     1
102
RTVSPropertyOp12
 70
     1
102
RTVSPropertyOp13
 70
     1
102
RTVSPropertyOp14
 70
     1
102
RTVSPropertyOp15
 70
     1
102
RTVSPropertyOp16
 70
     1
102
RTVSPropertyOp17
 70
     1
102
RTVSPropertyOp18
 70
     1
102
RTVSPropertyOp19
 70
     1
102
RTVSPropertyOp20
 70
     1
102
RTVSPropertyOp21
 70
     1
102
RTVSPropertyOp22
 70
     1
102
RTVSPropertyOp23
 70
     1
102
RTVSPropertyOp24
 70
     1
102
RTVSPropertyOp25
 70
     1
102
RTVSPropertyOp26
 70
     1
102
RTVSPropertyOp27
 70
     1
102
RTVSPropertyOp28
 70
     1
102
RTVSPropertyOp29
 70
     1
102
RTVSPropertyOp30
 70
     1
102
RTVSPropertyOp31
 70
     1
102
RTVSPropertyOp32
 70
     1
102
RTVSPropertyOp33
 70
     1
102
RTVSPropertyOp34
 70
     1
102
RTVSPropertyOp35
 70
     1
102
RTVSPropertyOp36
 70
     1
102
RTVSPropertyOp37
 70
     1
102
RTVSPropertyOp38
 70
     1
102
RTVSPropertyOp39
 70
     1
102
RTVSPropertyOp40
 70
     1
102
RTVSPropertyOp41
 70
     1
102
RTVSPropertyOp42
 70
     1
102
RTVSPropertyOp43
 70
     1
102
RTVSPropertyOp44
 70
     1
102
RTVSPropertyOp45
 70
     1
102
RTVSPropertyOp46
 70
     1
102
RTVSPropertyOp47
 70
     1
102
RTVSPropertyOp48
 70
     1
102
RTVSPropertyOp49
 70
     1
102
RTVSPropertyOp50
 70
     1
102
RTVSPropertyOp51
 70
     0
102
RTVSPropertyOp52
 70
     0
102
RTVSPropertyOp53
 70
     1
102
RTVSPropertyOp54
 70
     1
102
RTVSPropertyOp55
 70
     1
102
RTVSPropertyOp56
 70
     1
102
RTVSPropertyOp57
 70
     1
102
RTVSPost2010Prop28
280
     0
102
RTVSPost2010PropOp28
 70
     1
102
RTVSPost2010Prop29
280
     1
102
RTVSPost2010PropOp29
 70
     1
102
RTVSPost2010Prop30
280
     1
102
RTVSPost2010PropOp30
 70
     1
102
RTVSPost2010Prop31
280
     0
102
RTVSPost2010PropOp31
 70
     1
102
RTVSPost2010Prop32
280
     0
102
RTVSPost2010PropOp32
 70
     1
102
RTVSPost2010Prop33
280
     0
102
RTVSPost2010PropOp33
 70
     1
102
RTVSPost2010Prop34
280
     0
102
RTVSPost2010PropOp34
 70
     1
102
RTVSPost2010Prop35
280
     0
102
RTVSPost2010PropOp35
 70
     1
102
RTVSPost2010Prop36
280
     0
102
RTVSPost2010PropOp36
 70
     1
102
RTVSPost2010Prop37
 90
       50
102
RTVSPost2010PropOp37
 70
     1
102
RTVSPost2010Prop38
140
0.0
102
RTVSPost2010PropOp38
 70
     1
102
RTVSPost2010Prop39
140
1.0
102
RTVSPost2010PropOp39
 70
     1
102
RTVSPost2010Prop40
 90
        0
102
RTVSPost2010PropOp40
 70
     1
102
RTVSPost2010Prop41ColorIndex
 90
       18
102
RTVSPost2010Prop41ColorRGB
 90
        0
102
RTVSPost2010PropOp41
 70
     1
102
RTVSPost2010Prop42
 90
       50
102
RTVSPost2010PropOp42
 70
     1
102
RTVSPost2010Prop43
 90
        3
102
RTVSPost2010PropOp43
 70
     1
102
RTVSPost2010Prop44ColorIndex
 90
        5
102
RTVSPost2010Prop44ColorRGB
 90
      255
102
RTVSPost2010PropOp44
 70
     1
102
RTVSPost2010Prop45
280
     0
102
RTVSPost2010PropOp45
 70
     1
102
RTVSPost2010Prop46
 90
       50
102
RTVSPost2010PropOp46
 70
     1
102
RTVSPost2010Prop47
 90
       50
102
RTVSPost2010PropOp47
 70
     1
102
RTVSPost2010Prop48
 90
       50
102
RTVSPost2010PropOp48
 70
     1
102
RTVSPost2010Prop49
280
     0
102
RTVSPost2010PropOp49
 70
     1
102
RTVSPost2010Prop50
 90
       50
102
RTVSPost2010PropOp50
 70
     1
102
RTVSPost2010Prop51ColorIndex
 90
      256
102
RTVSPost2010Prop51ColorRGB
 90
-16777216
102
RTVSPost2010PropOp51
 70
     0
102
RTVSPost2010Prop52
140
1.0
102
RTVSPost2010PropOp52
 70
     0
102
RTVSPost2010Prop53
 90
        2
102
RTVSPost2010PropOp53
 70
     1
102
RTVSPost2010Prop54
  1
strokes_ogs.tif
102
RTVSPost2010PropOp54
 70
     1
102
RTVSPost2010Prop55
280
     0
102
RTVSPost2010PropOp55
 70
     1
102
RTVSPost2010Prop56
140
1.0
102
RTVSPost2010PropOp56
 70
     1
102
RTVSPost2010Prop57
140
1.0
102
RTVSPost2010PropOp57
 70
     1
  0
XRECORD
  5
430
102
{ACAD_REACTORS
330
42F
102
}
330
42F
100
AcDbXrecord
280
     1
102
RTVSPropertyOp0
 70
     1
102
RTVSPropertyOp1
 70
     1
102
RTVSPropertyOp2
 70
     1
102
RTVSPropertyOp3
 70
     1
102
RTVSPropertyOp4
 70
     1
102
RTVSPropertyOp5
 70
     1
102
RTVSPropertyOp6
 70
     1
102
RTVSPropertyOp7
 70
     1
102
RTVSPropertyOp8
 70
     1
102
RTVSPropertyOp9
 70
     1
102
RTVSPropertyOp10
 70
     1
102
RTVSPropertyOp11
 70
     1
102
RTVSPropertyOp12
 70
     1
102
RTVSPropertyOp13
 70
     1
102
RTVSPropertyOp14
 70
     1
102
RTVSPropertyOp15
 70
     1
102
RTVSPropertyOp16
 70
     1
102
RTVSPropertyOp17
 70
     1
102
RTVSPropertyOp18
 70
     1
102
RTVSPropertyOp19
 70
     1
102
RTVSPropertyOp20
 70
     1
102
RTVSPropertyOp21
 70
     1
102
RTVSPropertyOp22
 70
     1
102
RTVSPropertyOp23
 70
     1
102
RTVSPropertyOp24
 70
     1
102
RTVSPropertyOp25
 70
     1
102
RTVSPropertyOp26
 70
     1
102
RTVSPropertyOp27
 70
     1
102
RTVSPropertyOp28
 70
     1
102
RTVSPropertyOp29
 70
     1
102
RTVSPropertyOp30
 70
     1
102
RTVSPropertyOp31
 70
     1
102
RTVSPropertyOp32
 70
     1
102
RTVSPropertyOp33
 70
     1
102
RTVSPropertyOp34
 70
     1
102
RTVSPropertyOp35
 70
     1
102
RTVSPropertyOp36
 70
     1
102
RTVSPropertyOp37
 70
     1
102
RTVSPropertyOp38
 70
     1
102
RTVSPropertyOp39
 70
     1
102
RTVSPropertyOp40
 70
     1
102
RTVSPropertyOp41
 70
     1
102
RTVSPropertyOp42
 70
     1
102
RTVSPropertyOp43
 70
     1
102
RTVSPropertyOp44
 70
     1
102
RTVSPropertyOp45
 70
     1
102
RTVSPropertyOp46
 70
     1
102
RTVSPropertyOp47
 70
     1
102
RTVSPropertyOp48
 70
     1
102
RTVSPropertyOp49
 70
     1
102
RTVSPropertyOp50
 70
     1
102
RTVSPropertyOp51
 70
     0
102
RTVSPropertyOp52
 70
     0
102
RTVSPropertyOp53
 70
     1
102
RTVSPropertyOp54
 70
     1
102
RTVSPropertyOp55
 70
     1
102
RTVSPropertyOp56
 70
     1
102
RTVSPropertyOp57
 70
     1
102
RTVSPost2010Prop28
280
     0
102
RTVSPost2010PropOp28
 70
     1
102
RTVSPost2010Prop29
280
     1
102
RTVSPost2010PropOp29
 70
     1
102
RTVSPost2010Prop30
280
     1
102
RTVSPost2010PropOp30
 70
     1
102
RTVSPost2010Prop31
280
     0
102
RTVSPost2010PropOp31
 70
     1
102
RTVSPost2010Prop32
280
     0
102
RTVSPost2010PropOp32
 70
     1
102
RTVSPost2010Prop33
280
     0
102
RTVSPost2010PropOp33
 70
     1
102
RTVSPost2010Prop34
280
     0
102
RTVSPost2010PropOp34
 70
     1
102
RTVSPost2010Prop35
280
     0
102
RTVSPost2010PropOp35
 70
     1
102
RTVSPost2010Prop36
280
     0
102
RTVSPost2010PropOp36
 70
     1
102
RTVSPost2010Prop37
 90
       50
102
RTVSPost2010PropOp37
 70
     1
102
RTVSPost2010Prop38
140
0.0
102
RTVSPost2010PropOp38
 70
     1
102
RTVSPost2010Prop39
140
1.0
102
RTVSPost2010PropOp39
 70
     1
102
RTVSPost2010Prop40
 90
        0
102
RTVSPost2010PropOp40
 70
     1
102
RTVSPost2010Prop41ColorIndex
 90
       18
102
RTVSPost2010Prop41ColorRGB
 90
        0
102
RTVSPost2010PropOp41
 70
     1
102
RTVSPost2010Prop42
 90
       50
102
RTVSPost2010PropOp42
 70
     1
102
RTVSPost2010Prop43
 90
        3
102
RTVSPost2010PropOp43
 70
     1
102
RTVSPost2010Prop44ColorIndex
 90
        5
102
RTVSPost2010Prop44ColorRGB
 90
      255
102
RTVSPost2010PropOp44
 70
     1
102
RTVSPost2010Prop45
280
     0
102
RTVSPost2010PropOp45
 70
     1
102
RTVSPost2010Prop46
 90
       50
102
RTVSPost2010PropOp46
 70
     1
102
RTVSPost2010Prop47
 90
       50
102
RTVSPost2010PropOp47
 70
     1
102
RTVSPost2010Prop48
 90
       50
102
RTVSPost2010PropOp48
 70
     1
102
RTVSPost2010Prop49
280
     0
102
RTVSPost2010PropOp49
 70
     1
102
RTVSPost2010Prop50
 90
       50
102
RTVSPost2010PropOp50
 70
     1
102
RTVSPost2010Prop51ColorIndex
 90
      256
102
RTVSPost2010Prop51ColorRGB
 90
-16777216
102
RTVSPost2010PropOp51
 70
     0
102
RTVSPost2010Prop52
140
1.0
102
RTVSPost2010PropOp52
 70
     0
102
RTVSPost2010Prop53
 90
        2
102
RTVSPost2010PropOp53
 70
     1
102
RTVSPost2010Prop54
  1
strokes_ogs.tif
102
RTVSPost2010PropOp54
 70
     1
102
RTVSPost2010Prop55
280
     0
102
RTVSPost2010PropOp55
 70
     1
102
RTVSPost2010Prop56
140
1.0
102
RTVSPost2010PropOp56
 70
     1
102
RTVSPost2010Prop57
140
1.0
102
RTVSPost2010PropOp57
 70
     1
  0
XRECORD
  5
432
102
{ACAD_REACTORS
330
431
102
}
330
431
100
AcDbXrecord
280
     1
102
RTVSPropertyOp0
 70
     1
102
RTVSPropertyOp1
 70
     1
102
RTVSPropertyOp2
 70
     1
102
RTVSPropertyOp3
 70
     1
102
RTVSPropertyOp4
 70
     1
102
RTVSPropertyOp5
 70
     1
102
RTVSPropertyOp6
 70
     1
102
RTVSPropertyOp7
 70
     1
102
RTVSPropertyOp8
 70
     1
102
RTVSPropertyOp9
 70
     1
102
RTVSPropertyOp10
 70
     1
102
RTVSPropertyOp11
 70
     1
102
RTVSPropertyOp12
 70
     1
102
RTVSPropertyOp13
 70
     1
102
RTVSPropertyOp14
 70
     1
102
RTVSPropertyOp15
 70
     1
102
RTVSPropertyOp16
 70
     1
102
RTVSPropertyOp17
 70
     1
102
RTVSPropertyOp18
 70
     1
102
RTVSPropertyOp19
 70
     1
102
RTVSPropertyOp20
 70
     1
102
RTVSPropertyOp21
 70
     1
102
RTVSPropertyOp22
 70
     1
102
RTVSPropertyOp23
 70
     1
102
RTVSPropertyOp24
 70
     1
102
RTVSPropertyOp25
 70
     1
102
RTVSPropertyOp26
 70
     1
102
RTVSPropertyOp27
 70
     1
102
RTVSPropertyOp28
 70
     1
102
RTVSPropertyOp29
 70
     1
102
RTVSPropertyOp30
 70
     1
102
RTVSPropertyOp31
 70
     1
102
RTVSPropertyOp32
 70
     1
102
RTVSPropertyOp33
 70
     1
102
RTVSPropertyOp34
 70
     1
102
RTVSPropertyOp35
 70
     1
102
RTVSPropertyOp36
 70
     1
102
RTVSPropertyOp37
 70
     1
102
RTVSPropertyOp38
 70
     1
102
RTVSPropertyOp39
 70
     1
102
RTVSPropertyOp40
 70
     1
102
RTVSPropertyOp41
 70
     1
102
RTVSPropertyOp42
 70
     1
102
RTVSPropertyOp43
 70
     1
102
RTVSPropertyOp44
 70
     1
102
RTVSPropertyOp45
 70
     1
102
RTVSPropertyOp46
 70
     1
102
RTVSPropertyOp47
 70
     1
102
RTVSPropertyOp48
 70
     1
102
RTVSPropertyOp49
 70
     1
102
RTVSPropertyOp50
 70
     1
102
RTVSPropertyOp51
 70
     0
102
RTVSPropertyOp52
 70
     0
102
RTVSPropertyOp53
 70
     1
102
RTVSPropertyOp54
 70
     1
102
RTVSPropertyOp55
 70
     1
102
RTVSPropertyOp56
 70
     1
102
RTVSPropertyOp57
 70
     1
102
RTVSPost2010Prop28
280
     0
102
RTVSPost2010PropOp28
 70
     1
102
RTVSPost2010Prop29
280
     1
102
RTVSPost2010PropOp29
 70
     1
102
RTVSPost2010Prop30
280
     1
102
RTVSPost2010PropOp30
 70
     1
102
RTVSPost2010Prop31
280
     0
102
RTVSPost2010PropOp31
 70
     1
102
RTVSPost2010Prop32
280
     0
102
RTVSPost2010PropOp32
 70
     1
102
RTVSPost2010Prop33
280
     0
102
RTVSPost2010PropOp33
 70
     1
102
RTVSPost2010Prop34
280
     0
102
RTVSPost2010PropOp34
 70
     1
102
RTVSPost2010Prop35
280
     0
102
RTVSPost2010PropOp35
 70
     1
102
RTVSPost2010Prop36
280
     0
102
RTVSPost2010PropOp36
 70
     1
102
RTVSPost2010Prop37
 90
       50
102
RTVSPost2010PropOp37
 70
     1
102
RTVSPost2010Prop38
140
0.0
102
RTVSPost2010PropOp38
 70
     1
102
RTVSPost2010Prop39
140
1.0
102
RTVSPost2010PropOp39
 70
     1
102
RTVSPost2010Prop40
 90
        0
102
RTVSPost2010PropOp40
 70
     1
102
RTVSPost2010Prop41ColorIndex
 90
       18
102
RTVSPost2010Prop41ColorRGB
 90
        0
102
RTVSPost2010PropOp41
 70
     1
102
RTVSPost2010Prop42
 90
       50
102
RTVSPost2010PropOp42
 70
     1
102
RTVSPost2010Prop43
 90
        3
102
RTVSPost2010PropOp43
 70
     1
102
RTVSPost2010Prop44ColorIndex
 90
        5
102
RTVSPost2010Prop44ColorRGB
 90
      255
102
RTVSPost2010PropOp44
 70
     1
102
RTVSPost2010Prop45
280
     0
102
RTVSPost2010PropOp45
 70
     1
102
RTVSPost2010Prop46
 90
       50
102
RTVSPost2010PropOp46
 70
     1
102
RTVSPost2010Prop47
 90
       50
102
RTVSPost2010PropOp47
 70
     1
102
RTVSPost2010Prop48
 90
       50
102
RTVSPost2010PropOp48
 70
     1
102
RTVSPost2010Prop49
280
     0
102
RTVSPost2010PropOp49
 70
     1
102
RTVSPost2010Prop50
 90
       50
102
RTVSPost2010PropOp50
 70
     1
102
RTVSPost2010Prop51ColorIndex
 90
      256
102
RTVSPost2010Prop51ColorRGB
 90
-16777216
102
RTVSPost2010PropOp51
 70
     0
102
RTVSPost2010Prop52
140
1.0
102
RTVSPost2010PropOp52
 70
     0
102
RTVSPost2010Prop53
 90
        2
102
RTVSPost2010PropOp53
 70
     1
102
RTVSPost2010Prop54
  1
strokes_ogs.tif
102
RTVSPost2010PropOp54
 70
     1
102
RTVSPost2010Prop55
280
     0
102
RTVSPost2010PropOp55
 70
     1
102
RTVSPost2010Prop56
140
1.0
102
RTVSPost2010PropOp56
 70
     1
102
RTVSPost2010Prop57
140
1.0
102
RTVSPost2010PropOp57
 70
     1
  0
XRECORD
  5
438
102
{ACAD_REACTORS
330
437
102
}
330
437
100
AcDbXrecord
280
     1
102
RTVSPropertyOp0
 70
     1
102
RTVSPropertyOp1
 70
     1
102
RTVSPropertyOp2
 70
     1
102
RTVSPropertyOp3
 70
     1
102
RTVSPropertyOp4
 70
     1
102
RTVSPropertyOp5
 70
     1
102
RTVSPropertyOp6
 70
     1
102
RTVSPropertyOp7
 70
     1
102
RTVSPropertyOp8
 70
     1
102
RTVSPropertyOp9
 70
     1
102
RTVSPropertyOp10
 70
     1
102
RTVSPropertyOp11
 70
     1
102
RTVSPropertyOp12
 70
     1
102
RTVSPropertyOp13
 70
     1
102
RTVSPropertyOp14
 70
     1
102
RTVSPropertyOp15
 70
     1
102
RTVSPropertyOp16
 70
     1
102
RTVSPropertyOp17
 70
     1
102
RTVSPropertyOp18
 70
     1
102
RTVSPropertyOp19
 70
     1
102
RTVSPropertyOp20
 70
     1
102
RTVSPropertyOp21
 70
     1
102
RTVSPropertyOp22
 70
     1
102
RTVSPropertyOp23
 70
     1
102
RTVSPropertyOp24
 70
     1
102
RTVSPropertyOp25
 70
     1
102
RTVSPropertyOp26
 70
     1
102
RTVSPropertyOp27
 70
     1
102
RTVSPropertyOp28
 70
     1
102
RTVSPropertyOp29
 70
     1
102
RTVSPropertyOp30
 70
     1
102
RTVSPropertyOp31
 70
     1
102
RTVSPropertyOp32
 70
     1
102
RTVSPropertyOp33
 70
     1
102
RTVSPropertyOp34
 70
     1
102
RTVSPropertyOp35
 70
     1
102
RTVSPropertyOp36
 70
     1
102
RTVSPropertyOp37
 70
     1
102
RTVSPropertyOp38
 70
     1
102
RTVSPropertyOp39
 70
     1
102
RTVSPropertyOp40
 70
     1
102
RTVSPropertyOp41
 70
     1
102
RTVSPropertyOp42
 70
     1
102
RTVSPropertyOp43
 70
     1
102
RTVSPropertyOp44
 70
     1
102
RTVSPropertyOp45
 70
     1
102
RTVSPropertyOp46
 70
     1
102
RTVSPropertyOp47
 70
     1
102
RTVSPropertyOp48
 70
     1
102
RTVSPropertyOp49
 70
     1
102
RTVSPropertyOp50
 70
     1
102
RTVSPropertyOp51
 70
     0
102
RTVSPropertyOp52
 70
     0
102
RTVSPropertyOp53
 70
     1
102
RTVSPropertyOp54
 70
     1
102
RTVSPropertyOp55
 70
     1
102
RTVSPropertyOp56
 70
     1
102
RTVSPropertyOp57
 70
     1
102
RTVSPost2010Prop28
280
     0
102
RTVSPost2010PropOp28
 70
     1
102
RTVSPost2010Prop29
280
     1
102
RTVSPost2010PropOp29
 70
     1
102
RTVSPost2010Prop30
280
     1
102
RTVSPost2010PropOp30
 70
     1
102
RTVSPost2010Prop31
280
     0
102
RTVSPost2010PropOp31
 70
     1
102
RTVSPost2010Prop32
280
     0
102
RTVSPost2010PropOp32
 70
     1
102
RTVSPost2010Prop33
280
     0
102
RTVSPost2010PropOp33
 70
     1
102
RTVSPost2010Prop34
280
     0
102
RTVSPost2010PropOp34
 70
     1
102
RTVSPost2010Prop35
280
     0
102
RTVSPost2010PropOp35
 70
     1
102
RTVSPost2010Prop36
280
     0
102
RTVSPost2010PropOp36
 70
     1
102
RTVSPost2010Prop37
 90
       50
102
RTVSPost2010PropOp37
 70
     1
102
RTVSPost2010Prop38
140
0.0
102
RTVSPost2010PropOp38
 70
     1
102
RTVSPost2010Prop39
140
1.0
102
RTVSPost2010PropOp39
 70
     1
102
RTVSPost2010Prop40
 90
        0
102
RTVSPost2010PropOp40
 70
     1
102
RTVSPost2010Prop41ColorIndex
 90
       18
102
RTVSPost2010Prop41ColorRGB
 90
        0
102
RTVSPost2010PropOp41
 70
     1
102
RTVSPost2010Prop42
 90
       50
102
RTVSPost2010PropOp42
 70
     1
102
RTVSPost2010Prop43
 90
        3
102
RTVSPost2010PropOp43
 70
     1
102
RTVSPost2010Prop44ColorIndex
 90
        5
102
RTVSPost2010Prop44ColorRGB
 90
      255
102
RTVSPost2010PropOp44
 70
     1
102
RTVSPost2010Prop45
280
     0
102
RTVSPost2010PropOp45
 70
     1
102
RTVSPost2010Prop46
 90
       50
102
RTVSPost2010PropOp46
 70
     1
102
RTVSPost2010Prop47
 90
       50
102
RTVSPost2010PropOp47
 70
     1
102
RTVSPost2010Prop48
 90
       50
102
RTVSPost2010PropOp48
 70
     1
102
RTVSPost2010Prop49
280
     0
102
RTVSPost2010PropOp49
 70
     1
102
RTVSPost2010Prop50
 90
       50
102
RTVSPost2010PropOp50
 70
     1
102
RTVSPost2010Prop51ColorIndex
 90
      256
102
RTVSPost2010Prop51ColorRGB
 90
-16777216
102
RTVSPost2010PropOp51
 70
     0
102
RTVSPost2010Prop52
140
1.0
102
RTVSPost2010PropOp52
 70
     0
102
RTVSPost2010Prop53
 90
        2
102
RTVSPost2010PropOp53
 70
     1
102
RTVSPost2010Prop54
  1
strokes_ogs.tif
102
RTVSPost2010PropOp54
 70
     1
102
RTVSPost2010Prop55
280
     0
102
RTVSPost2010PropOp55
 70
     1
102
RTVSPost2010Prop56
140
1.0
102
RTVSPost2010PropOp56
 70
     1
102
RTVSPost2010Prop57
140
1.0
102
RTVSPost2010PropOp57
 70
     1
  0
XRECORD
  5
44C
102
{ACAD_REACTORS
330
44B
102
}
330
44B
100
AcDbXrecord
280
     1
102
RTVSPropertyOp0
 70
     0
102
RTVSPropertyOp1
 70
     0
102
RTVSPropertyOp2
 70
     0
102
RTVSPropertyOp3
 70
     0
102
RTVSPropertyOp4
 70
     0
102
RTVSPropertyOp5
 70
     0
102
RTVSPropertyOp6
 70
     0
102
RTVSPropertyOp7
 70
     0
102
RTVSPropertyOp8
 70
     0
102
RTVSPropertyOp9
 70
     0
102
RTVSPropertyOp10
 70
     0
102
RTVSPropertyOp11
 70
     0
102
RTVSPropertyOp12
 70
     0
102
RTVSPropertyOp13
 70
     0
102
RTVSPropertyOp14
 70
     2
102
RTVSPropertyOp15
 70
     0
102
RTVSPropertyOp16
 70
     0
102
RTVSPropertyOp17
 70
     0
102
RTVSPropertyOp18
 70
     0
102
RTVSPropertyOp19
 70
     0
102
RTVSPropertyOp20
 70
     0
102
RTVSPropertyOp21
 70
     0
102
RTVSPropertyOp22
 70
     0
102
RTVSPropertyOp23
 70
     0
102
RTVSPropertyOp24
 70
     0
102
RTVSPropertyOp25
 70
     0
102
RTVSPropertyOp26
 70
     0
102
RTVSPropertyOp27
 70
     0
102
RTVSPropertyOp28
 70
     0
102
RTVSPropertyOp29
 70
     0
102
RTVSPropertyOp30
 70
     0
102
RTVSPropertyOp31
 70
     0
102
RTVSPropertyOp32
 70
     0
102
RTVSPropertyOp33
 70
     0
102
RTVSPropertyOp34
 70
     0
102
RTVSPropertyOp35
 70
     0
102
RTVSPropertyOp36
 70
     0
102
RTVSPropertyOp37
 70
     0
102
RTVSPropertyOp38
 70
     0
102
RTVSPropertyOp39
 70
     0
102
RTVSPropertyOp40
 70
     0
102
RTVSPropertyOp41
 70
     0
102
RTVSPropertyOp42
 70
     0
102
RTVSPropertyOp43
 70
     0
102
RTVSPropertyOp44
 70
     0
102
RTVSPropertyOp45
 70
     0
102
RTVSPropertyOp46
 70
     0
102
RTVSPropertyOp47
 70
     0
102
RTVSPropertyOp48
 70
     0
102
RTVSPropertyOp49
 70
     0
102
RTVSPropertyOp50
 70
     0
102
RTVSPropertyOp51
 70
     0
102
RTVSPropertyOp52
 70
     0
102
RTVSPropertyOp53
 70
     0
102
RTVSPropertyOp54
 70
     0
102
RTVSPropertyOp55
 70
     0
102
RTVSPropertyOp56
 70
     0
102
RTVSPropertyOp57
 70
     0
102
RTVSPost2010Prop28
280
     0
102
RTVSPost2010PropOp28
 70
     0
102
RTVSPost2010Prop29
280
     1
102
RTVSPost2010PropOp29
 70
     0
102
RTVSPost2010Prop30
280
     1
102
RTVSPost2010PropOp30
 70
     0
102
RTVSPost2010Prop31
280
     0
102
RTVSPost2010PropOp31
 70
     0
102
RTVSPost2010Prop32
280
     0
102
RTVSPost2010PropOp32
 70
     0
102
RTVSPost2010Prop33
280
     0
102
RTVSPost2010PropOp33
 70
     0
102
RTVSPost2010Prop34
280
     0
102
RTVSPost2010PropOp34
 70
     0
102
RTVSPost2010Prop35
280
     0
102
RTVSPost2010PropOp35
 70
     0
102
RTVSPost2010Prop36
280
     0
102
RTVSPost2010PropOp36
 70
     0
102
RTVSPost2010Prop37
 90
       50
102
RTVSPost2010PropOp37
 70
     0
102
RTVSPost2010Prop38
140
0.0
102
RTVSPost2010PropOp38
 70
     0
102
RTVSPost2010Prop39
140
1.0
102
RTVSPost2010PropOp39
 70
     0
102
RTVSPost2010Prop40
 90
        0
102
RTVSPost2010PropOp40
 70
     0
102
RTVSPost2010Prop41ColorIndex
 90
       18
102
RTVSPost2010Prop41ColorRGB
 90
        0
102
RTVSPost2010PropOp41
 70
     0
102
RTVSPost2010Prop42
 90
       50
102
RTVSPost2010PropOp42
 70
     0
102
RTVSPost2010Prop43
 90
        3
102
RTVSPost2010PropOp43
 70
     0
102
RTVSPost2010Prop44ColorIndex
 90
        5
102
RTVSPost2010Prop44ColorRGB
 90
      255
102
RTVSPost2010PropOp44
 70
     0
102
RTVSPost2010Prop45
280
     0
102
RTVSPost2010PropOp45
 70
     0
102
RTVSPost2010Prop46
 90
       50
102
RTVSPost2010PropOp46
 70
     0
102
RTVSPost2010Prop47
 90
       50
102
RTVSPost2010PropOp47
 70
     0
102
RTVSPost2010Prop48
 90
       50
102
RTVSPost2010PropOp48
 70
     0
102
RTVSPost2010Prop49
280
     0
102
RTVSPost2010PropOp49
 70
     0
102
RTVSPost2010Prop50
 90
       50
102
RTVSPost2010PropOp50
 70
     0
102
RTVSPost2010Prop51ColorIndex
 90
      256
102
RTVSPost2010Prop51ColorRGB
 90
-16777216
102
RTVSPost2010PropOp51
 70
     0
102
RTVSPost2010Prop52
140
1.0
102
RTVSPost2010PropOp52
 70
     0
102
RTVSPost2010Prop53
 90
        2
102
RTVSPost2010PropOp53
 70
     0
102
RTVSPost2010Prop54
  1
strokes_ogs.tif
102
RTVSPost2010PropOp54
 70
     0
102
RTVSPost2010Prop55
280
     0
102
RTVSPost2010PropOp55
 70
     0
102
RTVSPost2010Prop56
140
1.0
102
RTVSPost2010PropOp56
 70
     0
102
RTVSPost2010Prop57
140
1.0
102
RTVSPost2010PropOp57
 70
     0
  0
XRECORD
  5
446
102
{ACAD_REACTORS
330
445
102
}
330
445
100
AcDbXrecord
280
     1
102
RTVSPropertyOp0
 70
     1
102
RTVSPropertyOp1
 70
     1
102
RTVSPropertyOp2
 70
     1
102
RTVSPropertyOp3
 70
     1
102
RTVSPropertyOp4
 70
     1
102
RTVSPropertyOp5
 70
     1
102
RTVSPropertyOp6
 70
     1
102
RTVSPropertyOp7
 70
     1
102
RTVSPropertyOp8
 70
     1
102
RTVSPropertyOp9
 70
     1
102
RTVSPropertyOp10
 70
     1
102
RTVSPropertyOp11
 70
     1
102
RTVSPropertyOp12
 70
     1
102
RTVSPropertyOp13
 70
     1
102
RTVSPropertyOp14
 70
     1
102
RTVSPropertyOp15
 70
     1
102
RTVSPropertyOp16
 70
     1
102
RTVSPropertyOp17
 70
     1
102
RTVSPropertyOp18
 70
     1
102
RTVSPropertyOp19
 70
     1
102
RTVSPropertyOp20
 70
     1
102
RTVSPropertyOp21
 70
     1
102
RTVSPropertyOp22
 70
     1
102
RTVSPropertyOp23
 70
     1
102
RTVSPropertyOp24
 70
     1
102
RTVSPropertyOp25
 70
     1
102
RTVSPropertyOp26
 70
     1
102
RTVSPropertyOp27
 70
     1
102
RTVSPropertyOp28
 70
     1
102
RTVSPropertyOp29
 70
     1
102
RTVSPropertyOp30
 70
     1
102
RTVSPropertyOp31
 70
     1
102
RTVSPropertyOp32
 70
     1
102
RTVSPropertyOp33
 70
     1
102
RTVSPropertyOp34
 70
     1
102
RTVSPropertyOp35
 70
     1
102
RTVSPropertyOp36
 70
     1
102
RTVSPropertyOp37
 70
     1
102
RTVSPropertyOp38
 70
     1
102
RTVSPropertyOp39
 70
     1
102
RTVSPropertyOp40
 70
     1
102
RTVSPropertyOp41
 70
     1
102
RTVSPropertyOp42
 70
     1
102
RTVSPropertyOp43
 70
     1
102
RTVSPropertyOp44
 70
     1
102
RTVSPropertyOp45
 70
     1
102
RTVSPropertyOp46
 70
     1
102
RTVSPropertyOp47
 70
     1
102
RTVSPropertyOp48
 70
     1
102
RTVSPropertyOp49
 70
     1
102
RTVSPropertyOp50
 70
     1
102
RTVSPropertyOp51
 70
     0
102
RTVSPropertyOp52
 70
     0
102
RTVSPropertyOp53
 70
     1
102
RTVSPropertyOp54
 70
     1
102
RTVSPropertyOp55
 70
     1
102
RTVSPropertyOp56
 70
     1
102
RTVSPropertyOp57
 70
     1
102
RTVSPost2010Prop28
280
     0
102
RTVSPost2010PropOp28
 70
     1
102
RTVSPost2010Prop29
280
     1
102
RTVSPost2010PropOp29
 70
     1
102
RTVSPost2010Prop30
280
     1
102
RTVSPost2010PropOp30
 70
     1
102
RTVSPost2010Prop31
280
     0
102
RTVSPost2010PropOp31
 70
     1
102
RTVSPost2010Prop32
280
     0
102
RTVSPost2010PropOp32
 70
     1
102
RTVSPost2010Prop33
280
     0
102
RTVSPost2010PropOp33
 70
     1
102
RTVSPost2010Prop34
280
     0
102
RTVSPost2010PropOp34
 70
     1
102
RTVSPost2010Prop35
280
     0
102
RTVSPost2010PropOp35
 70
     1
102
RTVSPost2010Prop36
280
     0
102
RTVSPost2010PropOp36
 70
     1
102
RTVSPost2010Prop37
 90
       50
102
RTVSPost2010PropOp37
 70
     1
102
RTVSPost2010Prop38
140
0.0
102
RTVSPost2010PropOp38
 70
     1
102
RTVSPost2010Prop39
140
1.0
102
RTVSPost2010PropOp39
 70
     1
102
RTVSPost2010Prop40
 90
        0
102
RTVSPost2010PropOp40
 70
     1
102
RTVSPost2010Prop41ColorIndex
 90
       18
102
RTVSPost2010Prop41ColorRGB
 90
        0
102
RTVSPost2010PropOp41
 70
     1
102
RTVSPost2010Prop42
 90
       50
102
RTVSPost2010PropOp42
 70
     1
102
RTVSPost2010Prop43
 90
        3
102
RTVSPost2010PropOp43
 70
     1
102
RTVSPost2010Prop44ColorIndex
 90
        5
102
RTVSPost2010Prop44ColorRGB
 90
      255
102
RTVSPost2010PropOp44
 70
     1
102
RTVSPost2010Prop45
280
     0
102
RTVSPost2010PropOp45
 70
     1
102
RTVSPost2010Prop46
 90
       50
102
RTVSPost2010PropOp46
 70
     1
102
RTVSPost2010Prop47
 90
       50
102
RTVSPost2010PropOp47
 70
     1
102
RTVSPost2010Prop48
 90
       50
102
RTVSPost2010PropOp48
 70
     1
102
RTVSPost2010Prop49
280
     0
102
RTVSPost2010PropOp49
 70
     1
102
RTVSPost2010Prop50
 90
       50
102
RTVSPost2010PropOp50
 70
     1
102
RTVSPost2010Prop51ColorIndex
 90
      256
102
RTVSPost2010Prop51ColorRGB
 90
-16777216
102
RTVSPost2010PropOp51
 70
     0
102
RTVSPost2010Prop52
140
1.0
102
RTVSPost2010PropOp52
 70
     0
102
RTVSPost2010Prop53
 90
        2
102
RTVSPost2010PropOp53
 70
     1
102
RTVSPost2010Prop54
  1
strokes_ogs.tif
102
RTVSPost2010PropOp54
 70
     1
102
RTVSPost2010Prop55
280
     0
102
RTVSPost2010PropOp55
 70
     1
102
RTVSPost2010Prop56
140
1.0
102
RTVSPost2010PropOp56
 70
     1
102
RTVSPost2010Prop57
140
1.0
102
RTVSPost2010PropOp57
 70
     1
  0
XRECORD
  5
44E
102
{ACAD_REACTORS
330
44D
102
}
330
44D
100
AcDbXrecord
280
     1
102
RTVSPropertyOp0
 70
     0
102
RTVSPropertyOp1
 70
     0
102
RTVSPropertyOp2
 70
     0
102
RTVSPropertyOp3
 70
     0
102
RTVSPropertyOp4
 70
     0
102
RTVSPropertyOp5
 70
     0
102
RTVSPropertyOp6
 70
     0
102
RTVSPropertyOp7
 70
     0
102
RTVSPropertyOp8
 70
     0
102
RTVSPropertyOp9
 70
     0
102
RTVSPropertyOp10
 70
     0
102
RTVSPropertyOp11
 70
     0
102
RTVSPropertyOp12
 70
     0
102
RTVSPropertyOp13
 70
     0
102
RTVSPropertyOp14
 70
     2
102
RTVSPropertyOp15
 70
     0
102
RTVSPropertyOp16
 70
     0
102
RTVSPropertyOp17
 70
     0
102
RTVSPropertyOp18
 70
     0
102
RTVSPropertyOp19
 70
     0
102
RTVSPropertyOp20
 70
     0
102
RTVSPropertyOp21
 70
     0
102
RTVSPropertyOp22
 70
     0
102
RTVSPropertyOp23
 70
     0
102
RTVSPropertyOp24
 70
     0
102
RTVSPropertyOp25
 70
     0
102
RTVSPropertyOp26
 70
     0
102
RTVSPropertyOp27
 70
     0
102
RTVSPropertyOp28
 70
     0
102
RTVSPropertyOp29
 70
     0
102
RTVSPropertyOp30
 70
     0
102
RTVSPropertyOp31
 70
     0
102
RTVSPropertyOp32
 70
     0
102
RTVSPropertyOp33
 70
     0
102
RTVSPropertyOp34
 70
     0
102
RTVSPropertyOp35
 70
     0
102
RTVSPropertyOp36
 70
     0
102
RTVSPropertyOp37
 70
     0
102
RTVSPropertyOp38
 70
     0
102
RTVSPropertyOp39
 70
     0
102
RTVSPropertyOp40
 70
     0
102
RTVSPropertyOp41
 70
     0
102
RTVSPropertyOp42
 70
     0
102
RTVSPropertyOp43
 70
     0
102
RTVSPropertyOp44
 70
     0
102
RTVSPropertyOp45
 70
     0
102
RTVSPropertyOp46
 70
     0
102
RTVSPropertyOp47
 70
     0
102
RTVSPropertyOp48
 70
     0
102
RTVSPropertyOp49
 70
     0
102
RTVSPropertyOp50
 70
     0
102
RTVSPropertyOp51
 70
     0
102
RTVSPropertyOp52
 70
     0
102
RTVSPropertyOp53
 70
     0
102
RTVSPropertyOp54
 70
     0
102
RTVSPropertyOp55
 70
     0
102
RTVSPropertyOp56
 70
     0
102
RTVSPropertyOp57
 70
     0
102
RTVSPost2010Prop28
280
     0
102
RTVSPost2010PropOp28
 70
     0
102
RTVSPost2010Prop29
280
     1
102
RTVSPost2010PropOp29
 70
     0
102
RTVSPost2010Prop30
280
     1
102
RTVSPost2010PropOp30
 70
     0
102
RTVSPost2010Prop31
280
     0
102
RTVSPost2010PropOp31
 70
     0
102
RTVSPost2010Prop32
280
     0
102
RTVSPost2010PropOp32
 70
     0
102
RTVSPost2010Prop33
280
     0
102
RTVSPost2010PropOp33
 70
     0
102
RTVSPost2010Prop34
280
     0
102
RTVSPost2010PropOp34
 70
     0
102
RTVSPost2010Prop35
280
     0
102
RTVSPost2010PropOp35
 70
     0
102
RTVSPost2010Prop36
280
     0
102
RTVSPost2010PropOp36
 70
     0
102
RTVSPost2010Prop37
 90
       50
102
RTVSPost2010PropOp37
 70
     0
102
RTVSPost2010Prop38
140
0.0
102
RTVSPost2010PropOp38
 70
     0
102
RTVSPost2010Prop39
140
1.0
102
RTVSPost2010PropOp39
 70
     0
102
RTVSPost2010Prop40
 90
        0
102
RTVSPost2010PropOp40
 70
     0
102
RTVSPost2010Prop41ColorIndex
 90
       18
102
RTVSPost2010Prop41ColorRGB
 90
        0
102
RTVSPost2010PropOp41
 70
     0
102
RTVSPost2010Prop42
 90
       50
102
RTVSPost2010PropOp42
 70
     0
102
RTVSPost2010Prop43
 90
        3
102
RTVSPost2010PropOp43
 70
     0
102
RTVSPost2010Prop44ColorIndex
 90
        5
102
RTVSPost2010Prop44ColorRGB
 90
      255
102
RTVSPost2010PropOp44
 70
     0
102
RTVSPost2010Prop45
280
     0
102
RTVSPost2010PropOp45
 70
     0
102
RTVSPost2010Prop46
 90
       50
102
RTVSPost2010PropOp46
 70
     0
102
RTVSPost2010Prop47
 90
       50
102
RTVSPost2010PropOp47
 70
     0
102
RTVSPost2010Prop48
 90
       50
102
RTVSPost2010PropOp48
 70
     0
102
RTVSPost2010Prop49
280
     0
102
RTVSPost2010PropOp49
 70
     0
102
RTVSPost2010Prop50
 90
       50
102
RTVSPost2010PropOp50
 70
     0
102
RTVSPost2010Prop51ColorIndex
 90
      256
102
RTVSPost2010Prop51ColorRGB
 90
-16777216
102
RTVSPost2010PropOp51
 70
     0
102
RTVSPost2010Prop52
140
1.0
102
RTVSPost2010PropOp52
 70
     0
102
RTVSPost2010Prop53
 90
        2
102
RTVSPost2010PropOp53
 70
     0
102
RTVSPost2010Prop54
  1
strokes_ogs.tif
102
RTVSPost2010PropOp54
 70
     0
102
RTVSPost2010Prop55
280
     0
102
RTVSPost2010PropOp55
 70
     0
102
RTVSPost2010Prop56
140
1.0
102
RTVSPost2010PropOp56
 70
     0
102
RTVSPost2010Prop57
140
1.0
102
RTVSPost2010PropOp57
 70
     0
  0
XRECORD
  5
43C
102
{ACAD_REACTORS
330
43B
102
}
330
43B
100
AcDbXrecord
280
     1
102
RTVSPropertyOp0
 70
     1
102
RTVSPropertyOp1
 70
     1
102
RTVSPropertyOp2
 70
     1
102
RTVSPropertyOp3
 70
     1
102
RTVSPropertyOp4
 70
     1
102
RTVSPropertyOp5
 70
     1
102
RTVSPropertyOp6
 70
     1
102
RTVSPropertyOp7
 70
     1
102
RTVSPropertyOp8
 70
     1
102
RTVSPropertyOp9
 70
     1
102
RTVSPropertyOp10
 70
     1
102
RTVSPropertyOp11
 70
     1
102
RTVSPropertyOp12
 70
     1
102
RTVSPropertyOp13
 70
     1
102
RTVSPropertyOp14
 70
     1
102
RTVSPropertyOp15
 70
     1
102
RTVSPropertyOp16
 70
     1
102
RTVSPropertyOp17
 70
     1
102
RTVSPropertyOp18
 70
     1
102
RTVSPropertyOp19
 70
     1
102
RTVSPropertyOp20
 70
     1
102
RTVSPropertyOp21
 70
     1
102
RTVSPropertyOp22
 70
     1
102
RTVSPropertyOp23
 70
     1
102
RTVSPropertyOp24
 70
     1
102
RTVSPropertyOp25
 70
     1
102
RTVSPropertyOp26
 70
     1
102
RTVSPropertyOp27
 70
     1
102
RTVSPropertyOp28
 70
     1
102
RTVSPropertyOp29
 70
     1
102
RTVSPropertyOp30
 70
     1
102
RTVSPropertyOp31
 70
     1
102
RTVSPropertyOp32
 70
     1
102
RTVSPropertyOp33
 70
     1
102
RTVSPropertyOp34
 70
     1
102
RTVSPropertyOp35
 70
     1
102
RTVSPropertyOp36
 70
     1
102
RTVSPropertyOp37
 70
     1
102
RTVSPropertyOp38
 70
     1
102
RTVSPropertyOp39
 70
     1
102
RTVSPropertyOp40
 70
     1
102
RTVSPropertyOp41
 70
     1
102
RTVSPropertyOp42
 70
     1
102
RTVSPropertyOp43
 70
     1
102
RTVSPropertyOp44
 70
     1
102
RTVSPropertyOp45
 70
     1
102
RTVSPropertyOp46
 70
     1
102
RTVSPropertyOp47
 70
     1
102
RTVSPropertyOp48
 70
     1
102
RTVSPropertyOp49
 70
     1
102
RTVSPropertyOp50
 70
     1
102
RTVSPropertyOp51
 70
     0
102
RTVSPropertyOp52
 70
     0
102
RTVSPropertyOp53
 70
     1
102
RTVSPropertyOp54
 70
     1
102
RTVSPropertyOp55
 70
     1
102
RTVSPropertyOp56
 70
     1
102
RTVSPropertyOp57
 70
     1
102
RTVSPost2010Prop28
280
     0
102
RTVSPost2010PropOp28
 70
     1
102
RTVSPost2010Prop29
280
     1
102
RTVSPost2010PropOp29
 70
     1
102
RTVSPost2010Prop30
280
     1
102
RTVSPost2010PropOp30
 70
     1
102
RTVSPost2010Prop31
280
     0
102
RTVSPost2010PropOp31
 70
     1
102
RTVSPost2010Prop32
280
     0
102
RTVSPost2010PropOp32
 70
     1
102
RTVSPost2010Prop33
280
     0
102
RTVSPost2010PropOp33
 70
     1
102
RTVSPost2010Prop34
280
     0
102
RTVSPost2010PropOp34
 70
     1
102
RTVSPost2010Prop35
280
     0
102
RTVSPost2010PropOp35
 70
     1
102
RTVSPost2010Prop36
280
     0
102
RTVSPost2010PropOp36
 70
     1
102
RTVSPost2010Prop37
 90
       50
102
RTVSPost2010PropOp37
 70
     1
102
RTVSPost2010Prop38
140
0.0
102
RTVSPost2010PropOp38
 70
     1
102
RTVSPost2010Prop39
140
1.0
102
RTVSPost2010PropOp39
 70
     1
102
RTVSPost2010Prop40
 90
        0
102
RTVSPost2010PropOp40
 70
     1
102
RTVSPost2010Prop41ColorIndex
 90
       18
102
RTVSPost2010Prop41ColorRGB
 90
        0
102
RTVSPost2010PropOp41
 70
     1
102
RTVSPost2010Prop42
 90
       50
102
RTVSPost2010PropOp42
 70
     1
102
RTVSPost2010Prop43
 90
        3
102
RTVSPost2010PropOp43
 70
     1
102
RTVSPost2010Prop44ColorIndex
 90
        5
102
RTVSPost2010Prop44ColorRGB
 90
      255
102
RTVSPost2010PropOp44
 70
     1
102
RTVSPost2010Prop45
280
     0
102
RTVSPost2010PropOp45
 70
     1
102
RTVSPost2010Prop46
 90
       50
102
RTVSPost2010PropOp46
 70
     1
102
RTVSPost2010Prop47
 90
       50
102
RTVSPost2010PropOp47
 70
     1
102
RTVSPost2010Prop48
 90
       50
102
RTVSPost2010PropOp48
 70
     1
102
RTVSPost2010Prop49
280
     0
102
RTVSPost2010PropOp49
 70
     1
102
RTVSPost2010Prop50
 90
       50
102
RTVSPost2010PropOp50
 70
     1
102
RTVSPost2010Prop51ColorIndex
 90
      256
102
RTVSPost2010Prop51ColorRGB
 90
-16777216
102
RTVSPost2010PropOp51
 70
     0
102
RTVSPost2010Prop52
140
1.0
102
RTVSPost2010PropOp52
 70
     0
102
RTVSPost2010Prop53
 90
        2
102
RTVSPost2010PropOp53
 70
     1
102
RTVSPost2010Prop54
  1
strokes_ogs.tif
102
RTVSPost2010PropOp54
 70
     1
102
RTVSPost2010Prop55
280
     0
102
RTVSPost2010PropOp55
 70
     1
102
RTVSPost2010Prop56
140
1.0
102
RTVSPost2010PropOp56
 70
     1
102
RTVSPost2010Prop57
140
1.0
102
RTVSPost2010PropOp57
 70
     1
  0
XRECORD
  5
45A
102
{ACAD_REACTORS
330
459
102
}
330
459
100
AcDbXrecord
280
     1
102
RTVSPropertyOp0
 70
     1
102
RTVSPropertyOp1
 70
     1
102
RTVSPropertyOp2
 70
     1
102
RTVSPropertyOp3
 70
     1
102
RTVSPropertyOp4
 70
     1
102
RTVSPropertyOp5
 70
     1
102
RTVSPropertyOp6
 70
     1
102
RTVSPropertyOp7
 70
     1
102
RTVSPropertyOp8
 70
     1
102
RTVSPropertyOp9
 70
     1
102
RTVSPropertyOp10
 70
     1
102
RTVSPropertyOp11
 70
     1
102
RTVSPropertyOp12
 70
     1
102
RTVSPropertyOp13
 70
     1
102
RTVSPropertyOp14
 70
     1
102
RTVSPropertyOp15
 70
     1
102
RTVSPropertyOp16
 70
     1
102
RTVSPropertyOp17
 70
     1
102
RTVSPropertyOp18
 70
     1
102
RTVSPropertyOp19
 70
     1
102
RTVSPropertyOp20
 70
     1
102
RTVSPropertyOp21
 70
     1
102
RTVSPropertyOp22
 70
     1
102
RTVSPropertyOp23
 70
     1
102
RTVSPropertyOp24
 70
     1
102
RTVSPropertyOp25
 70
     1
102
RTVSPropertyOp26
 70
     1
102
RTVSPropertyOp27
 70
     1
102
RTVSPropertyOp28
 70
     1
102
RTVSPropertyOp29
 70
     1
102
RTVSPropertyOp30
 70
     1
102
RTVSPropertyOp31
 70
     1
102
RTVSPropertyOp32
 70
     1
102
RTVSPropertyOp33
 70
     1
102
RTVSPropertyOp34
 70
     1
102
RTVSPropertyOp35
 70
     1
102
RTVSPropertyOp36
 70
     1
102
RTVSPropertyOp37
 70
     1
102
RTVSPropertyOp38
 70
     1
102
RTVSPropertyOp39
 70
     1
102
RTVSPropertyOp40
 70
     1
102
RTVSPropertyOp41
 70
     1
102
RTVSPropertyOp42
 70
     1
102
RTVSPropertyOp43
 70
     1
102
RTVSPropertyOp44
 70
     1
102
RTVSPropertyOp45
 70
     1
102
RTVSPropertyOp46
 70
     1
102
RTVSPropertyOp47
 70
     1
102
RTVSPropertyOp48
 70
     1
102
RTVSPropertyOp49
 70
     1
102
RTVSPropertyOp50
 70
     1
102
RTVSPropertyOp51
 70
     0
102
RTVSPropertyOp52
 70
     0
102
RTVSPropertyOp53
 70
     1
102
RTVSPropertyOp54
 70
     1
102
RTVSPropertyOp55
 70
     1
102
RTVSPropertyOp56
 70
     1
102
RTVSPropertyOp57
 70
     1
102
RTVSPost2010Prop28
280
     0
102
RTVSPost2010PropOp28
 70
     1
102
RTVSPost2010Prop29
280
     1
102
RTVSPost2010PropOp29
 70
     1
102
RTVSPost2010Prop30
280
     1
102
RTVSPost2010PropOp30
 70
     1
102
RTVSPost2010Prop31
280
     0
102
RTVSPost2010PropOp31
 70
     1
102
RTVSPost2010Prop32
280
     0
102
RTVSPost2010PropOp32
 70
     1
102
RTVSPost2010Prop33
280
     0
102
RTVSPost2010PropOp33
 70
     1
102
RTVSPost2010Prop34
280
     0
102
RTVSPost2010PropOp34
 70
     1
102
RTVSPost2010Prop35
280
     0
102
RTVSPost2010PropOp35
 70
     1
102
RTVSPost2010Prop36
280
     0
102
RTVSPost2010PropOp36
 70
     1
102
RTVSPost2010Prop37
 90
       50
102
RTVSPost2010PropOp37
 70
     1
102
RTVSPost2010Prop38
140
0.0
102
RTVSPost2010PropOp38
 70
     1
102
RTVSPost2010Prop39
140
1.0
102
RTVSPost2010PropOp39
 70
     1
102
RTVSPost2010Prop40
 90
        0
102
RTVSPost2010PropOp40
 70
     1
102
RTVSPost2010Prop41ColorIndex
 90
       18
102
RTVSPost2010Prop41ColorRGB
 90
        0
102
RTVSPost2010PropOp41
 70
     1
102
RTVSPost2010Prop42
 90
       50
102
RTVSPost2010PropOp42
 70
     1
102
RTVSPost2010Prop43
 90
        3
102
RTVSPost2010PropOp43
 70
     1
102
RTVSPost2010Prop44ColorIndex
 90
        5
102
RTVSPost2010Prop44ColorRGB
 90
      255
102
RTVSPost2010PropOp44
 70
     1
102
RTVSPost2010Prop45
280
     0
102
RTVSPost2010PropOp45
 70
     1
102
RTVSPost2010Prop46
 90
       50
102
RTVSPost2010PropOp46
 70
     1
102
RTVSPost2010Prop47
 90
       50
102
RTVSPost2010PropOp47
 70
     1
102
RTVSPost2010Prop48
 90
       50
102
RTVSPost2010PropOp48
 70
     1
102
RTVSPost2010Prop49
280
     0
102
RTVSPost2010PropOp49
 70
     1
102
RTVSPost2010Prop50
 90
       50
102
RTVSPost2010PropOp50
 70
     1
102
RTVSPost2010Prop51ColorIndex
 90
      256
102
RTVSPost2010Prop51ColorRGB
 90
-16777216
102
RTVSPost2010PropOp51
 70
     0
102
RTVSPost2010Prop52
140
1.0
102
RTVSPost2010PropOp52
 70
     0
102
RTVSPost2010Prop53
 90
        2
102
RTVSPost2010PropOp53
 70
     1
102
RTVSPost2010Prop54
  1
strokes_ogs.tif
102
RTVSPost2010PropOp54
 70
     1
102
RTVSPost2010Prop55
280
     0
102
RTVSPost2010PropOp55
 70
     1
102
RTVSPost2010Prop56
140
1.0
102
RTVSPost2010PropOp56
 70
     1
102
RTVSPost2010Prop57
140
1.0
102
RTVSPost2010PropOp57
 70
     1
  0
XRECORD
  5
458
102
{ACAD_REACTORS
330
457
102
}
330
457
100
AcDbXrecord
280
     1
102
RTVSPropertyOp0
 70
     1
102
RTVSPropertyOp1
 70
     1
102
RTVSPropertyOp2
 70
     1
102
RTVSPropertyOp3
 70
     1
102
RTVSPropertyOp4
 70
     1
102
RTVSPropertyOp5
 70
     1
102
RTVSPropertyOp6
 70
     1
102
RTVSPropertyOp7
 70
     1
102
RTVSPropertyOp8
 70
     1
102
RTVSPropertyOp9
 70
     1
102
RTVSPropertyOp10
 70
     1
102
RTVSPropertyOp11
 70
     1
102
RTVSPropertyOp12
 70
     1
102
RTVSPropertyOp13
 70
     1
102
RTVSPropertyOp14
 70
     1
102
RTVSPropertyOp15
 70
     1
102
RTVSPropertyOp16
 70
     1
102
RTVSPropertyOp17
 70
     1
102
RTVSPropertyOp18
 70
     1
102
RTVSPropertyOp19
 70
     1
102
RTVSPropertyOp20
 70
     1
102
RTVSPropertyOp21
 70
     1
102
RTVSPropertyOp22
 70
     1
102
RTVSPropertyOp23
 70
     1
102
RTVSPropertyOp24
 70
     1
102
RTVSPropertyOp25
 70
     1
102
RTVSPropertyOp26
 70
     1
102
RTVSPropertyOp27
 70
     1
102
RTVSPropertyOp28
 70
     1
102
RTVSPropertyOp29
 70
     1
102
RTVSPropertyOp30
 70
     1
102
RTVSPropertyOp31
 70
     1
102
RTVSPropertyOp32
 70
     1
102
RTVSPropertyOp33
 70
     1
102
RTVSPropertyOp34
 70
     1
102
RTVSPropertyOp35
 70
     1
102
RTVSPropertyOp36
 70
     1
102
RTVSPropertyOp37
 70
     1
102
RTVSPropertyOp38
 70
     1
102
RTVSPropertyOp39
 70
     1
102
RTVSPropertyOp40
 70
     1
102
RTVSPropertyOp41
 70
     1
102
RTVSPropertyOp42
 70
     1
102
RTVSPropertyOp43
 70
     1
102
RTVSPropertyOp44
 70
     1
102
RTVSPropertyOp45
 70
     1
102
RTVSPropertyOp46
 70
     1
102
RTVSPropertyOp47
 70
     1
102
RTVSPropertyOp48
 70
     1
102
RTVSPropertyOp49
 70
     1
102
RTVSPropertyOp50
 70
     1
102
RTVSPropertyOp51
 70
     0
102
RTVSPropertyOp52
 70
     0
102
RTVSPropertyOp53
 70
     1
102
RTVSPropertyOp54
 70
     1
102
RTVSPropertyOp55
 70
     1
102
RTVSPropertyOp56
 70
     1
102
RTVSPropertyOp57
 70
     1
102
RTVSPost2010Prop28
280
     0
102
RTVSPost2010PropOp28
 70
     1
102
RTVSPost2010Prop29
280
     1
102
RTVSPost2010PropOp29
 70
     1
102
RTVSPost2010Prop30
280
     1
102
RTVSPost2010PropOp30
 70
     1
102
RTVSPost2010Prop31
280
     0
102
RTVSPost2010PropOp31
 70
     1
102
RTVSPost2010Prop32
280
     0
102
RTVSPost2010PropOp32
 70
     1
102
RTVSPost2010Prop33
280
     0
102
RTVSPost2010PropOp33
 70
     1
102
RTVSPost2010Prop34
280
     0
102
RTVSPost2010PropOp34
 70
     1
102
RTVSPost2010Prop35
280
     0
102
RTVSPost2010PropOp35
 70
     1
102
RTVSPost2010Prop36
280
     0
102
RTVSPost2010PropOp36
 70
     1
102
RTVSPost2010Prop37
 90
       50
102
RTVSPost2010PropOp37
 70
     1
102
RTVSPost2010Prop38
140
0.0
102
RTVSPost2010PropOp38
 70
     1
102
RTVSPost2010Prop39
140
1.0
102
RTVSPost2010PropOp39
 70
     1
102
RTVSPost2010Prop40
 90
        0
102
RTVSPost2010PropOp40
 70
     1
102
RTVSPost2010Prop41ColorIndex
 90
       18
102
RTVSPost2010Prop41ColorRGB
 90
        0
102
RTVSPost2010PropOp41
 70
     1
102
RTVSPost2010Prop42
 90
       50
102
RTVSPost2010PropOp42
 70
     1
102
RTVSPost2010Prop43
 90
        3
102
RTVSPost2010PropOp43
 70
     1
102
RTVSPost2010Prop44ColorIndex
 90
        5
102
RTVSPost2010Prop44ColorRGB
 90
      255
102
RTVSPost2010PropOp44
 70
     1
102
RTVSPost2010Prop45
280
     0
102
RTVSPost2010PropOp45
 70
     1
102
RTVSPost2010Prop46
 90
       50
102
RTVSPost2010PropOp46
 70
     1
102
RTVSPost2010Prop47
 90
       50
102
RTVSPost2010PropOp47
 70
     1
102
RTVSPost2010Prop48
 90
       50
102
RTVSPost2010PropOp48
 70
     1
102
RTVSPost2010Prop49
280
     0
102
RTVSPost2010PropOp49
 70
     1
102
RTVSPost2010Prop50
 90
       50
102
RTVSPost2010PropOp50
 70
     1
102
RTVSPost2010Prop51ColorIndex
 90
      256
102
RTVSPost2010Prop51ColorRGB
 90
-16777216
102
RTVSPost2010PropOp51
 70
     0
102
RTVSPost2010Prop52
140
1.0
102
RTVSPost2010PropOp52
 70
     0
102
RTVSPost2010Prop53
 90
        2
102
RTVSPost2010PropOp53
 70
     1
102
RTVSPost2010Prop54
  1
strokes_ogs.tif
102
RTVSPost2010PropOp54
 70
     1
102
RTVSPost2010Prop55
280
     0
102
RTVSPost2010PropOp55
 70
     1
102
RTVSPost2010Prop56
140
1.0
102
RTVSPost2010PropOp56
 70
     1
102
RTVSPost2010Prop57
140
1.0
102
RTVSPost2010PropOp57
 70
     1
  0
XRECORD
  5
452
102
{ACAD_REACTORS
330
451
102
}
330
451
100
AcDbXrecord
280
     1
102
RTVSPropertyOp0
 70
     1
102
RTVSPropertyOp1
 70
     1
102
RTVSPropertyOp2
 70
     1
102
RTVSPropertyOp3
 70
     1
102
RTVSPropertyOp4
 70
     1
102
RTVSPropertyOp5
 70
     1
102
RTVSPropertyOp6
 70
     1
102
RTVSPropertyOp7
 70
     1
102
RTVSPropertyOp8
 70
     1
102
RTVSPropertyOp9
 70
     1
102
RTVSPropertyOp10
 70
     1
102
RTVSPropertyOp11
 70
     1
102
RTVSPropertyOp12
 70
     1
102
RTVSPropertyOp13
 70
     1
102
RTVSPropertyOp14
 70
     1
102
RTVSPropertyOp15
 70
     1
102
RTVSPropertyOp16
 70
     1
102
RTVSPropertyOp17
 70
     1
102
RTVSPropertyOp18
 70
     1
102
RTVSPropertyOp19
 70
     1
102
RTVSPropertyOp20
 70
     1
102
RTVSPropertyOp21
 70
     1
102
RTVSPropertyOp22
 70
     1
102
RTVSPropertyOp23
 70
     1
102
RTVSPropertyOp24
 70
     1
102
RTVSPropertyOp25
 70
     1
102
RTVSPropertyOp26
 70
     1
102
RTVSPropertyOp27
 70
     1
102
RTVSPropertyOp28
 70
     1
102
RTVSPropertyOp29
 70
     1
102
RTVSPropertyOp30
 70
     1
102
RTVSPropertyOp31
 70
     1
102
RTVSPropertyOp32
 70
     1
102
RTVSPropertyOp33
 70
     1
102
RTVSPropertyOp34
 70
     1
102
RTVSPropertyOp35
 70
     1
102
RTVSPropertyOp36
 70
     1
102
RTVSPropertyOp37
 70
     1
102
RTVSPropertyOp38
 70
     1
102
RTVSPropertyOp39
 70
     1
102
RTVSPropertyOp40
 70
     1
102
RTVSPropertyOp41
 70
     1
102
RTVSPropertyOp42
 70
     1
102
RTVSPropertyOp43
 70
     1
102
RTVSPropertyOp44
 70
     1
102
RTVSPropertyOp45
 70
     1
102
RTVSPropertyOp46
 70
     1
102
RTVSPropertyOp47
 70
     1
102
RTVSPropertyOp48
 70
     1
102
RTVSPropertyOp49
 70
     1
102
RTVSPropertyOp50
 70
     1
102
RTVSPropertyOp51
 70
     0
102
RTVSPropertyOp52
 70
     0
102
RTVSPropertyOp53
 70
     1
102
RTVSPropertyOp54
 70
     1
102
RTVSPropertyOp55
 70
     1
102
RTVSPropertyOp56
 70
     1
102
RTVSPropertyOp57
 70
     1
102
RTVSPost2010Prop28
280
     0
102
RTVSPost2010PropOp28
 70
     1
102
RTVSPost2010Prop29
280
     1
102
RTVSPost2010PropOp29
 70
     1
102
RTVSPost2010Prop30
280
     1
102
RTVSPost2010PropOp30
 70
     1
102
RTVSPost2010Prop31
280
     0
102
RTVSPost2010PropOp31
 70
     1
102
RTVSPost2010Prop32
280
     0
102
RTVSPost2010PropOp32
 70
     1
102
RTVSPost2010Prop33
280
     0
102
RTVSPost2010PropOp33
 70
     1
102
RTVSPost2010Prop34
280
     0
102
RTVSPost2010PropOp34
 70
     1
102
RTVSPost2010Prop35
280
     0
102
RTVSPost2010PropOp35
 70
     1
102
RTVSPost2010Prop36
280
     0
102
RTVSPost2010PropOp36
 70
     1
102
RTVSPost2010Prop37
 90
       50
102
RTVSPost2010PropOp37
 70
     1
102
RTVSPost2010Prop38
140
0.0
102
RTVSPost2010PropOp38
 70
     1
102
RTVSPost2010Prop39
140
1.0
102
RTVSPost2010PropOp39
 70
     1
102
RTVSPost2010Prop40
 90
        0
102
RTVSPost2010PropOp40
 70
     1
102
RTVSPost2010Prop41ColorIndex
 90
       18
102
RTVSPost2010Prop41ColorRGB
 90
        0
102
RTVSPost2010PropOp41
 70
     1
102
RTVSPost2010Prop42
 90
       50
102
RTVSPost2010PropOp42
 70
     1
102
RTVSPost2010Prop43
 90
        3
102
RTVSPost2010PropOp43
 70
     1
102
RTVSPost2010Prop44ColorIndex
 90
        5
102
RTVSPost2010Prop44ColorRGB
 90
      255
102
RTVSPost2010PropOp44
 70
     1
102
RTVSPost2010Prop45
280
     0
102
RTVSPost2010PropOp45
 70
     1
102
RTVSPost2010Prop46
 90
       50
102
RTVSPost2010PropOp46
 70
     1
102
RTVSPost2010Prop47
 90
       50
102
RTVSPost2010PropOp47
 70
     1
102
RTVSPost2010Prop48
 90
       50
102
RTVSPost2010PropOp48
 70
     1
102
RTVSPost2010Prop49
280
     0
102
RTVSPost2010PropOp49
 70
     1
102
RTVSPost2010Prop50
 90
       50
102
RTVSPost2010PropOp50
 70
     1
102
RTVSPost2010Prop51ColorIndex
 90
      256
102
RTVSPost2010Prop51ColorRGB
 90
-16777216
102
RTVSPost2010PropOp51
 70
     0
102
RTVSPost2010Prop52
140
1.0
102
RTVSPost2010PropOp52
 70
     0
102
RTVSPost2010Prop53
 90
        2
102
RTVSPost2010PropOp53
 70
     1
102
RTVSPost2010Prop54
  1
strokes_ogs.tif
102
RTVSPost2010PropOp54
 70
     1
102
RTVSPost2010Prop55
280
     0
102
RTVSPost2010PropOp55
 70
     1
102
RTVSPost2010Prop56
140
1.0
102
RTVSPost2010PropOp56
 70
     1
102
RTVSPost2010Prop57
140
1.0
102
RTVSPost2010PropOp57
 70
     1
  0
XRECORD
  5
454
102
{ACAD_REACTORS
330
453
102
}
330
453
100
AcDbXrecord
280
     1
102
RTVSPropertyOp0
 70
     1
102
RTVSPropertyOp1
 70
     1
102
RTVSPropertyOp2
 70
     1
102
RTVSPropertyOp3
 70
     1
102
RTVSPropertyOp4
 70
     1
102
RTVSPropertyOp5
 70
     1
102
RTVSPropertyOp6
 70
     1
102
RTVSPropertyOp7
 70
     1
102
RTVSPropertyOp8
 70
     1
102
RTVSPropertyOp9
 70
     1
102
RTVSPropertyOp10
 70
     1
102
RTVSPropertyOp11
 70
     1
102
RTVSPropertyOp12
 70
     1
102
RTVSPropertyOp13
 70
     1
102
RTVSPropertyOp14
 70
     1
102
RTVSPropertyOp15
 70
     1
102
RTVSPropertyOp16
 70
     1
102
RTVSPropertyOp17
 70
     1
102
RTVSPropertyOp18
 70
     1
102
RTVSPropertyOp19
 70
     1
102
RTVSPropertyOp20
 70
     1
102
RTVSPropertyOp21
 70
     1
102
RTVSPropertyOp22
 70
     1
102
RTVSPropertyOp23
 70
     1
102
RTVSPropertyOp24
 70
     1
102
RTVSPropertyOp25
 70
     1
102
RTVSPropertyOp26
 70
     1
102
RTVSPropertyOp27
 70
     1
102
RTVSPropertyOp28
 70
     1
102
RTVSPropertyOp29
 70
     1
102
RTVSPropertyOp30
 70
     1
102
RTVSPropertyOp31
 70
     1
102
RTVSPropertyOp32
 70
     1
102
RTVSPropertyOp33
 70
     1
102
RTVSPropertyOp34
 70
     1
102
RTVSPropertyOp35
 70
     1
102
RTVSPropertyOp36
 70
     1
102
RTVSPropertyOp37
 70
     1
102
RTVSPropertyOp38
 70
     1
102
RTVSPropertyOp39
 70
     1
102
RTVSPropertyOp40
 70
     1
102
RTVSPropertyOp41
 70
     1
102
RTVSPropertyOp42
 70
     1
102
RTVSPropertyOp43
 70
     1
102
RTVSPropertyOp44
 70
     1
102
RTVSPropertyOp45
 70
     1
102
RTVSPropertyOp46
 70
     1
102
RTVSPropertyOp47
 70
     1
102
RTVSPropertyOp48
 70
     1
102
RTVSPropertyOp49
 70
     1
102
RTVSPropertyOp50
 70
     1
102
RTVSPropertyOp51
 70
     0
102
RTVSPropertyOp52
 70
     0
102
RTVSPropertyOp53
 70
     1
102
RTVSPropertyOp54
 70
     1
102
RTVSPropertyOp55
 70
     1
102
RTVSPropertyOp56
 70
     1
102
RTVSPropertyOp57
 70
     1
102
RTVSPost2010Prop28
280
     0
102
RTVSPost2010PropOp28
 70
     1
102
RTVSPost2010Prop29
280
     1
102
RTVSPost2010PropOp29
 70
     1
102
RTVSPost2010Prop30
280
     1
102
RTVSPost2010PropOp30
 70
     1
102
RTVSPost2010Prop31
280
     0
102
RTVSPost2010PropOp31
 70
     1
102
RTVSPost2010Prop32
280
     0
102
RTVSPost2010PropOp32
 70
     1
102
RTVSPost2010Prop33
280
     0
102
RTVSPost2010PropOp33
 70
     1
102
RTVSPost2010Prop34
280
     0
102
RTVSPost2010PropOp34
 70
     1
102
RTVSPost2010Prop35
280
     0
102
RTVSPost2010PropOp35
 70
     1
102
RTVSPost2010Prop36
280
     0
102
RTVSPost2010PropOp36
 70
     1
102
RTVSPost2010Prop37
 90
       50
102
RTVSPost2010PropOp37
 70
     1
102
RTVSPost2010Prop38
140
0.0
102
RTVSPost2010PropOp38
 70
     1
102
RTVSPost2010Prop39
140
1.0
102
RTVSPost2010PropOp39
 70
     1
102
RTVSPost2010Prop40
 90
        0
102
RTVSPost2010PropOp40
 70
     1
102
RTVSPost2010Prop41ColorIndex
 90
       18
102
RTVSPost2010Prop41ColorRGB
 90
        0
102
RTVSPost2010PropOp41
 70
     1
102
RTVSPost2010Prop42
 90
       50
102
RTVSPost2010PropOp42
 70
     1
102
RTVSPost2010Prop43
 90
        3
102
RTVSPost2010PropOp43
 70
     1
102
RTVSPost2010Prop44ColorIndex
 90
        5
102
RTVSPost2010Prop44ColorRGB
 90
      255
102
RTVSPost2010PropOp44
 70
     1
102
RTVSPost2010Prop45
280
     0
102
RTVSPost2010PropOp45
 70
     1
102
RTVSPost2010Prop46
 90
       50
102
RTVSPost2010PropOp46
 70
     1
102
RTVSPost2010Prop47
 90
       50
102
RTVSPost2010PropOp47
 70
     1
102
RTVSPost2010Prop48
 90
       50
102
RTVSPost2010PropOp48
 70
     1
102
RTVSPost2010Prop49
280
     0
102
RTVSPost2010PropOp49
 70
     1
102
RTVSPost2010Prop50
 90
       50
102
RTVSPost2010PropOp50
 70
     1
102
RTVSPost2010Prop51ColorIndex
 90
      256
102
RTVSPost2010Prop51ColorRGB
 90
-16777216
102
RTVSPost2010PropOp51
 70
     0
102
RTVSPost2010Prop52
140
1.0
102
RTVSPost2010PropOp52
 70
     0
102
RTVSPost2010Prop53
 90
        2
102
RTVSPost2010PropOp53
 70
     1
102
RTVSPost2010Prop54
  1
strokes_ogs.tif
102
RTVSPost2010PropOp54
 70
     1
102
RTVSPost2010Prop55
280
     0
102
RTVSPost2010PropOp55
 70
     1
102
RTVSPost2010Prop56
140
1.0
102
RTVSPost2010PropOp56
 70
     1
102
RTVSPost2010Prop57
140
1.0
102
RTVSPost2010PropOp57
 70
     1
  0
XRECORD
  5
444
102
{ACAD_REACTORS
330
443
102
}
330
443
100
AcDbXrecord
280
     1
102
RTVSPropertyOp0
 70
     1
102
RTVSPropertyOp1
 70
     1
102
RTVSPropertyOp2
 70
     1
102
RTVSPropertyOp3
 70
     1
102
RTVSPropertyOp4
 70
     1
102
RTVSPropertyOp5
 70
     1
102
RTVSPropertyOp6
 70
     1
102
RTVSPropertyOp7
 70
     1
102
RTVSPropertyOp8
 70
     1
102
RTVSPropertyOp9
 70
     1
102
RTVSPropertyOp10
 70
     1
102
RTVSPropertyOp11
 70
     1
102
RTVSPropertyOp12
 70
     1
102
RTVSPropertyOp13
 70
     1
102
RTVSPropertyOp14
 70
     1
102
RTVSPropertyOp15
 70
     1
102
RTVSPropertyOp16
 70
     1
102
RTVSPropertyOp17
 70
     1
102
RTVSPropertyOp18
 70
     1
102
RTVSPropertyOp19
 70
     1
102
RTVSPropertyOp20
 70
     1
102
RTVSPropertyOp21
 70
     1
102
RTVSPropertyOp22
 70
     1
102
RTVSPropertyOp23
 70
     1
102
RTVSPropertyOp24
 70
     1
102
RTVSPropertyOp25
 70
     1
102
RTVSPropertyOp26
 70
     1
102
RTVSPropertyOp27
 70
     1
102
RTVSPropertyOp28
 70
     1
102
RTVSPropertyOp29
 70
     1
102
RTVSPropertyOp30
 70
     1
102
RTVSPropertyOp31
 70
     1
102
RTVSPropertyOp32
 70
     1
102
RTVSPropertyOp33
 70
     1
102
RTVSPropertyOp34
 70
     1
102
RTVSPropertyOp35
 70
     1
102
RTVSPropertyOp36
 70
     1
102
RTVSPropertyOp37
 70
     1
102
RTVSPropertyOp38
 70
     1
102
RTVSPropertyOp39
 70
     1
102
RTVSPropertyOp40
 70
     1
102
RTVSPropertyOp41
 70
     1
102
RTVSPropertyOp42
 70
     1
102
RTVSPropertyOp43
 70
     1
102
RTVSPropertyOp44
 70
     1
102
RTVSPropertyOp45
 70
     1
102
RTVSPropertyOp46
 70
     1
102
RTVSPropertyOp47
 70
     1
102
RTVSPropertyOp48
 70
     1
102
RTVSPropertyOp49
 70
     1
102
RTVSPropertyOp50
 70
     1
102
RTVSPropertyOp51
 70
     0
102
RTVSPropertyOp52
 70
     0
102
RTVSPropertyOp53
 70
     1
102
RTVSPropertyOp54
 70
     1
102
RTVSPropertyOp55
 70
     1
102
RTVSPropertyOp56
 70
     1
102
RTVSPropertyOp57
 70
     1
102
RTVSPost2010Prop28
280
     0
102
RTVSPost2010PropOp28
 70
     1
102
RTVSPost2010Prop29
280
     1
102
RTVSPost2010PropOp29
 70
     1
102
RTVSPost2010Prop30
280
     1
102
RTVSPost2010PropOp30
 70
     1
102
RTVSPost2010Prop31
280
     0
102
RTVSPost2010PropOp31
 70
     1
102
RTVSPost2010Prop32
280
     0
102
RTVSPost2010PropOp32
 70
     1
102
RTVSPost2010Prop33
280
     0
102
RTVSPost2010PropOp33
 70
     1
102
RTVSPost2010Prop34
280
     0
102
RTVSPost2010PropOp34
 70
     1
102
RTVSPost2010Prop35
280
     0
102
RTVSPost2010PropOp35
 70
     1
102
RTVSPost2010Prop36
280
     0
102
RTVSPost2010PropOp36
 70
     1
102
RTVSPost2010Prop37
 90
       50
102
RTVSPost2010PropOp37
 70
     1
102
RTVSPost2010Prop38
140
0.0
102
RTVSPost2010PropOp38
 70
     1
102
RTVSPost2010Prop39
140
1.0
102
RTVSPost2010PropOp39
 70
     1
102
RTVSPost2010Prop40
 90
        0
102
RTVSPost2010PropOp40
 70
     1
102
RTVSPost2010Prop41ColorIndex
 90
       18
102
RTVSPost2010Prop41ColorRGB
 90
        0
102
RTVSPost2010PropOp41
 70
     1
102
RTVSPost2010Prop42
 90
       50
102
RTVSPost2010PropOp42
 70
     1
102
RTVSPost2010Prop43
 90
        3
102
RTVSPost2010PropOp43
 70
     1
102
RTVSPost2010Prop44ColorIndex
 90
        5
102
RTVSPost2010Prop44ColorRGB
 90
      255
102
RTVSPost2010PropOp44
 70
     1
102
RTVSPost2010Prop45
280
     0
102
RTVSPost2010PropOp45
 70
     1
102
RTVSPost2010Prop46
 90
       50
102
RTVSPost2010PropOp46
 70
     1
102
RTVSPost2010Prop47
 90
       50
102
RTVSPost2010PropOp47
 70
     1
102
RTVSPost2010Prop48
 90
       50
102
RTVSPost2010PropOp48
 70
     1
102
RTVSPost2010Prop49
280
     0
102
RTVSPost2010PropOp49
 70
     1
102
RTVSPost2010Prop50
 90
       50
102
RTVSPost2010PropOp50
 70
     1
102
RTVSPost2010Prop51ColorIndex
 90
      256
102
RTVSPost2010Prop51ColorRGB
 90
-16777216
102
RTVSPost2010PropOp51
 70
     0
102
RTVSPost2010Prop52
140
1.0
102
RTVSPost2010PropOp52
 70
     0
102
RTVSPost2010Prop53
 90
        2
102
RTVSPost2010PropOp53
 70
     1
102
RTVSPost2010Prop54
  1
strokes_ogs.tif
102
RTVSPost2010PropOp54
 70
     1
102
RTVSPost2010Prop55
280
     0
102
RTVSPost2010PropOp55
 70
     1
102
RTVSPost2010Prop56
140
1.0
102
RTVSPost2010PropOp56
 70
     1
102
RTVSPost2010Prop57
140
1.0
102
RTVSPost2010PropOp57
 70
     1
  0
XRECORD
  5
436
102
{ACAD_REACTORS
330
435
102
}
330
435
100
AcDbXrecord
280
     1
102
RTVSPropertyOp0
 70
     1
102
RTVSPropertyOp1
 70
     1
102
RTVSPropertyOp2
 70
     1
102
RTVSPropertyOp3
 70
     1
102
RTVSPropertyOp4
 70
     1
102
RTVSPropertyOp5
 70
     1
102
RTVSPropertyOp6
 70
     1
102
RTVSPropertyOp7
 70
     1
102
RTVSPropertyOp8
 70
     1
102
RTVSPropertyOp9
 70
     1
102
RTVSPropertyOp10
 70
     1
102
RTVSPropertyOp11
 70
     1
102
RTVSPropertyOp12
 70
     1
102
RTVSPropertyOp13
 70
     1
102
RTVSPropertyOp14
 70
     1
102
RTVSPropertyOp15
 70
     1
102
RTVSPropertyOp16
 70
     1
102
RTVSPropertyOp17
 70
     1
102
RTVSPropertyOp18
 70
     1
102
RTVSPropertyOp19
 70
     1
102
RTVSPropertyOp20
 70
     1
102
RTVSPropertyOp21
 70
     1
102
RTVSPropertyOp22
 70
     1
102
RTVSPropertyOp23
 70
     1
102
RTVSPropertyOp24
 70
     1
102
RTVSPropertyOp25
 70
     1
102
RTVSPropertyOp26
 70
     1
102
RTVSPropertyOp27
 70
     1
102
RTVSPropertyOp28
 70
     1
102
RTVSPropertyOp29
 70
     1
102
RTVSPropertyOp30
 70
     1
102
RTVSPropertyOp31
 70
     1
102
RTVSPropertyOp32
 70
     1
102
RTVSPropertyOp33
 70
     1
102
RTVSPropertyOp34
 70
     1
102
RTVSPropertyOp35
 70
     1
102
RTVSPropertyOp36
 70
     1
102
RTVSPropertyOp37
 70
     1
102
RTVSPropertyOp38
 70
     1
102
RTVSPropertyOp39
 70
     1
102
RTVSPropertyOp40
 70
     1
102
RTVSPropertyOp41
 70
     1
102
RTVSPropertyOp42
 70
     1
102
RTVSPropertyOp43
 70
     1
102
RTVSPropertyOp44
 70
     1
102
RTVSPropertyOp45
 70
     1
102
RTVSPropertyOp46
 70
     1
102
RTVSPropertyOp47
 70
     1
102
RTVSPropertyOp48
 70
     1
102
RTVSPropertyOp49
 70
     1
102
RTVSPropertyOp50
 70
     1
102
RTVSPropertyOp51
 70
     0
102
RTVSPropertyOp52
 70
     0
102
RTVSPropertyOp53
 70
     1
102
RTVSPropertyOp54
 70
     1
102
RTVSPropertyOp55
 70
     1
102
RTVSPropertyOp56
 70
     1
102
RTVSPropertyOp57
 70
     1
102
RTVSPost2010Prop28
280
     0
102
RTVSPost2010PropOp28
 70
     1
102
RTVSPost2010Prop29
280
     1
102
RTVSPost2010PropOp29
 70
     1
102
RTVSPost2010Prop30
280
     1
102
RTVSPost2010PropOp30
 70
     1
102
RTVSPost2010Prop31
280
     0
102
RTVSPost2010PropOp31
 70
     1
102
RTVSPost2010Prop32
280
     0
102
RTVSPost2010PropOp32
 70
     1
102
RTVSPost2010Prop33
280
     0
102
RTVSPost2010PropOp33
 70
     1
102
RTVSPost2010Prop34
280
     0
102
RTVSPost2010PropOp34
 70
     1
102
RTVSPost2010Prop35
280
     0
102
RTVSPost2010PropOp35
 70
     1
102
RTVSPost2010Prop36
280
     0
102
RTVSPost2010PropOp36
 70
     1
102
RTVSPost2010Prop37
 90
       50
102
RTVSPost2010PropOp37
 70
     1
102
RTVSPost2010Prop38
140
0.0
102
RTVSPost2010PropOp38
 70
     1
102
RTVSPost2010Prop39
140
1.0
102
RTVSPost2010PropOp39
 70
     1
102
RTVSPost2010Prop40
 90
        0
102
RTVSPost2010PropOp40
 70
     1
102
RTVSPost2010Prop41ColorIndex
 90
       18
102
RTVSPost2010Prop41ColorRGB
 90
        0
102
RTVSPost2010PropOp41
 70
     1
102
RTVSPost2010Prop42
 90
       50
102
RTVSPost2010PropOp42
 70
     1
102
RTVSPost2010Prop43
 90
        3
102
RTVSPost2010PropOp43
 70
     1
102
RTVSPost2010Prop44ColorIndex
 90
        5
102
RTVSPost2010Prop44ColorRGB
 90
      255
102
RTVSPost2010PropOp44
 70
     1
102
RTVSPost2010Prop45
280
     0
102
RTVSPost2010PropOp45
 70
     1
102
RTVSPost2010Prop46
 90
       50
102
RTVSPost2010PropOp46
 70
     1
102
RTVSPost2010Prop47
 90
       50
102
RTVSPost2010PropOp47
 70
     1
102
RTVSPost2010Prop48
 90
       50
102
RTVSPost2010PropOp48
 70
     1
102
RTVSPost2010Prop49
280
     0
102
RTVSPost2010PropOp49
 70
     1
102
RTVSPost2010Prop50
 90
       50
102
RTVSPost2010PropOp50
 70
     1
102
RTVSPost2010Prop51ColorIndex
 90
      256
102
RTVSPost2010Prop51ColorRGB
 90
-16777216
102
RTVSPost2010PropOp51
 70
     0
102
RTVSPost2010Prop52
140
1.0
102
RTVSPost2010PropOp52
 70
     0
102
RTVSPost2010Prop53
 90
        2
102
RTVSPost2010PropOp53
 70
     1
102
RTVSPost2010Prop54
  1
strokes_ogs.tif
102
RTVSPost2010PropOp54
 70
     1
102
RTVSPost2010Prop55
280
     0
102
RTVSPost2010PropOp55
 70
     1
102
RTVSPost2010Prop56
140
1.0
102
RTVSPost2010PropOp56
 70
     1
102
RTVSPost2010Prop57
140
1.0
102
RTVSPost2010PropOp57
 70
     1
  0
XRECORD
  5
456
102
{ACAD_REACTORS
330
455
102
}
330
455
100
AcDbXrecord
280
     1
102
RTVSPropertyOp0
 70
     1
102
RTVSPropertyOp1
 70
     1
102
RTVSPropertyOp2
 70
     1
102
RTVSPropertyOp3
 70
     1
102
RTVSPropertyOp4
 70
     1
102
RTVSPropertyOp5
 70
     1
102
RTVSPropertyOp6
 70
     1
102
RTVSPropertyOp7
 70
     1
102
RTVSPropertyOp8
 70
     1
102
RTVSPropertyOp9
 70
     1
102
RTVSPropertyOp10
 70
     1
102
RTVSPropertyOp11
 70
     1
102
RTVSPropertyOp12
 70
     1
102
RTVSPropertyOp13
 70
     1
102
RTVSPropertyOp14
 70
     1
102
RTVSPropertyOp15
 70
     1
102
RTVSPropertyOp16
 70
     1
102
RTVSPropertyOp17
 70
     1
102
RTVSPropertyOp18
 70
     1
102
RTVSPropertyOp19
 70
     1
102
RTVSPropertyOp20
 70
     1
102
RTVSPropertyOp21
 70
     1
102
RTVSPropertyOp22
 70
     1
102
RTVSPropertyOp23
 70
     1
102
RTVSPropertyOp24
 70
     1
102
RTVSPropertyOp25
 70
     1
102
RTVSPropertyOp26
 70
     1
102
RTVSPropertyOp27
 70
     1
102
RTVSPropertyOp28
 70
     1
102
RTVSPropertyOp29
 70
     1
102
RTVSPropertyOp30
 70
     1
102
RTVSPropertyOp31
 70
     1
102
RTVSPropertyOp32
 70
     1
102
RTVSPropertyOp33
 70
     1
102
RTVSPropertyOp34
 70
     1
102
RTVSPropertyOp35
 70
     1
102
RTVSPropertyOp36
 70
     1
102
RTVSPropertyOp37
 70
     1
102
RTVSPropertyOp38
 70
     1
102
RTVSPropertyOp39
 70
     1
102
RTVSPropertyOp40
 70
     1
102
RTVSPropertyOp41
 70
     1
102
RTVSPropertyOp42
 70
     1
102
RTVSPropertyOp43
 70
     1
102
RTVSPropertyOp44
 70
     1
102
RTVSPropertyOp45
 70
     1
102
RTVSPropertyOp46
 70
     1
102
RTVSPropertyOp47
 70
     1
102
RTVSPropertyOp48
 70
     1
102
RTVSPropertyOp49
 70
     1
102
RTVSPropertyOp50
 70
     1
102
RTVSPropertyOp51
 70
     0
102
RTVSPropertyOp52
 70
     0
102
RTVSPropertyOp53
 70
     1
102
RTVSPropertyOp54
 70
     1
102
RTVSPropertyOp55
 70
     1
102
RTVSPropertyOp56
 70
     1
102
RTVSPropertyOp57
 70
     1
102
RTVSPost2010Prop28
280
     0
102
RTVSPost2010PropOp28
 70
     1
102
RTVSPost2010Prop29
280
     1
102
RTVSPost2010PropOp29
 70
     1
102
RTVSPost2010Prop30
280
     1
102
RTVSPost2010PropOp30
 70
     1
102
RTVSPost2010Prop31
280
     0
102
RTVSPost2010PropOp31
 70
     1
102
RTVSPost2010Prop32
280
     0
102
RTVSPost2010PropOp32
 70
     1
102
RTVSPost2010Prop33
280
     0
102
RTVSPost2010PropOp33
 70
     1
102
RTVSPost2010Prop34
280
     0
102
RTVSPost2010PropOp34
 70
     1
102
RTVSPost2010Prop35
280
     0
102
RTVSPost2010PropOp35
 70
     1
102
RTVSPost2010Prop36
280
     0
102
RTVSPost2010PropOp36
 70
     1
102
RTVSPost2010Prop37
 90
       50
102
RTVSPost2010PropOp37
 70
     1
102
RTVSPost2010Prop38
140
0.0
102
RTVSPost2010PropOp38
 70
     1
102
RTVSPost2010Prop39
140
1.0
102
RTVSPost2010PropOp39
 70
     1
102
RTVSPost2010Prop40
 90
        0
102
RTVSPost2010PropOp40
 70
     1
102
RTVSPost2010Prop41ColorIndex
 90
       18
102
RTVSPost2010Prop41ColorRGB
 90
        0
102
RTVSPost2010PropOp41
 70
     1
102
RTVSPost2010Prop42
 90
       50
102
RTVSPost2010PropOp42
 70
     1
102
RTVSPost2010Prop43
 90
        3
102
RTVSPost2010PropOp43
 70
     1
102
RTVSPost2010Prop44ColorIndex
 90
        5
102
RTVSPost2010Prop44ColorRGB
 90
      255
102
RTVSPost2010PropOp44
 70
     1
102
RTVSPost2010Prop45
280
     0
102
RTVSPost2010PropOp45
 70
     1
102
RTVSPost2010Prop46
 90
       50
102
RTVSPost2010PropOp46
 70
     1
102
RTVSPost2010Prop47
 90
       50
102
RTVSPost2010PropOp47
 70
     1
102
RTVSPost2010Prop48
 90
       50
102
RTVSPost2010PropOp48
 70
     1
102
RTVSPost2010Prop49
280
     0
102
RTVSPost2010PropOp49
 70
     1
102
RTVSPost2010Prop50
 90
       50
102
RTVSPost2010PropOp50
 70
     1
102
RTVSPost2010Prop51ColorIndex
 90
      256
102
RTVSPost2010Prop51ColorRGB
 90
-16777216
102
RTVSPost2010PropOp51
 70
     0
102
RTVSPost2010Prop52
140
1.0
102
RTVSPost2010PropOp52
 70
     0
102
RTVSPost2010Prop53
 90
        2
102
RTVSPost2010PropOp53
 70
     1
102
RTVSPost2010Prop54
  1
strokes_ogs.tif
102
RTVSPost2010PropOp54
 70
     1
102
RTVSPost2010Prop55
280
     0
102
RTVSPost2010PropOp55
 70
     1
102
RTVSPost2010Prop56
140
1.0
102
RTVSPost2010PropOp56
 70
     1
102
RTVSPost2010Prop57
140
1.0
102
RTVSPost2010PropOp57
 70
     1
  0
ENDSEC
  0
EOF
