  0
SECTION
  2
HEADER
  9
$ACADVER
  1
AC1018
  9
$ACADMAINTVER
 70
     0
  9
$DWGCODEPAGE
  3
ANSI_932
  9
$INSBASE
 10
0.0
 20
0.0
 30
0.0
  9
$EXTMIN
 10
-2970.0
 20
-2100.0
 30
0.0
  9
$EXTMAX
 10
2970.0
 20
2100.0
 30
0.0
  9
$LIMMIN
 10
-2970.0
 20
-2100.0
  9
$LIMMAX
 10
2970.0
 20
2100.0
  9
$ORTHOMODE
 70
     0
  9
$REGENMODE
 70
     1
  9
$FILLMODE
 70
     1
  9
$QTEXTMODE
 70
     0
  9
$MIRRTEXT
 70
     1
  9
$LTSCALE
 40
10.0
  9
$ATTMODE
 70
     1
  9
$TEXTSIZE
 40
2.5
  9
$TRACEWID
 40
1.0
  9
$TEXTSTYLE
  7
Standard
  9
$CLAYER
  8
0
  9
$CELTYPE
  6
ByLayer
  9
$CECOLOR
 62
   256
  9
$CELTSCALE
 40
1.0
  9
$DISPSILH
 70
     0
  9
$DIMSCALE
 40
1.0
  9
$DIMASZ
 40
2.5
  9
$DIMEXO
 40
0.625
  9
$DIMDLI
 40
3.75
  9
$DIMRND
 40
0.0
  9
$DIMDLE
 40
0.0
  9
$DIMEXE
 40
1.25
  9
$DIMTP
 40
0.0
  9
$DIMTM
 40
0.0
  9
$DIMTXT
 40
2.5
  9
$DIMCEN
 40
2.5
  9
$DIMTSZ
 40
0.0
  9
$DIMTOL
 70
     0
  9
$DIMLIM
 70
     0
  9
$DIMTIH
 70
     0
  9
$DIMTOH
 70
     0
  9
$DIMSE1
 70
     0
  9
$DIMSE2
 70
     0
  9
$DIMTAD
 70
     1
  9
$DIMZIN
 70
     8
  9
$DIMBLK
  1

  9
$DIMASO
 70
     1
  9
$DIMSHO
 70
     1
  9
$DIMPOST
  1

  9
$DIMAPOST
  1

  9
$DIMALT
 70
     0
  9
$DIMALTD
 70
     3
  9
$DIMALTF
 40
0.03937007874016
  9
$DIMLFAC
 40
1.0
  9
$DIMTOFL
 70
     1
  9
$DIMTVP
 40
0.0
  9
$DIMTIX
 70
     0
  9
$DIMSOXD
 70
     0
  9
$DIMSAH
 70
     0
  9
$DIMBLK1
  1

  9
$DIMBLK2
  1

  9
$DIMSTYLE
  2
ISO-25
  9
$DIMCLRD
 70
     0
  9
$DIMCLRE
 70
     0
  9
$DIMCLRT
 70
     0
  9
$DIMTFAC
 40
1.0
  9
$DIMGAP
 40
0.625
  9
$DIMJUST
 70
     0
  9
$DIMSD1
 70
     0
  9
$DIMSD2
 70
     0
  9
$DIMTOLJ
 70
     0
  9
$DIMTZIN
 70
     8
  9
$DIMALTZ
 70
     0
  9
$DIMALTTZ
 70
     0
  9
$DIMUPT
 70
     0
  9
$DIMDEC
 70
     2
  9
$DIMTDEC
 70
     2
  9
$DIMALTU
 70
     2
  9
$DIMALTTD
 70
     3
  9
$DIMTXSTY
  7
Standard
  9
$DIMAUNIT
 70
     0
  9
$DIMADEC
 70
     0
  9
$DIMALTRND
 40
0.0
  9
$DIMAZIN
 70
     0
  9
$DIMDSEP
 70
    44
  9
$DIMATFIT
 70
     3
  9
$DIMFRAC
 70
     0
  9
$DIMLDRBLK
  1

  9
$DIMLUNIT
 70
     2
  9
$DIMLWD
 70
    -2
  9
$DIMLWE
 70
    -2
  9
$DIMTMOVE
 70
     0
  9
$LUNITS
 70
     2
  9
$LUPREC
 70
     4
  9
$SKETCHINC
 40
1.0
  9
$FILLETRAD
 40
10.0
  9
$AUNITS
 70
     0
  9
$AUPREC
 70
     0
  9
$MENU
  1
.
  9
$ELEVATION
 40
0.0
  9
$PELEVATION
 40
0.0
  9
$THICKNESS
 40
0.0
  9
$LIMCHECK
 70
     0
  9
$CHAMFERA
 40
0.0
  9
$CHAMFERB
 40
0.0
  9
$CHAMFERC
 40
0.0
  9
$CHAMFERD
 40
0.0
  9
$SKPOLY
 70
     0
  9
$TDCREATE
 40
2459494.358450266
  9
$TDUCREATE
 40
2459493.983450266
  9
$TDUPDATE
 40
2459494.358450521
  9
$TDUUPDATE
 40
2459493.983450521
  9
$TDINDWG
 40
0.0000000116
  9
$TDUSRTIMER
 40
0.0000000116
  9
$USRTIMER
 70
     1
  9
$ANGBASE
 50
0.0
  9
$ANGDIR
 70
     0
  9
$PDMODE
 70
     0
  9
$PDSIZE
 40
0.0
  9
$PLINEWID
 40
0.0
  9
$SPLFRAME
 70
     0
  9
$SPLINETYPE
 70
     6
  9
$SPLINESEGS
 70
     8
  9
$HANDSEED
  5
46E
  9
$SURFTAB1
 70
     6
  9
$SURFTAB2
 70
     6
  9
$SURFTYPE
 70
     6
  9
$SURFU
 70
     6
  9
$SURFV
 70
     6
  9
$UCSBASE
  2

  9
$UCSNAME
  2

  9
$UCSORG
 10
0.0
 20
0.0
 30
0.0
  9
$UCSXDIR
 10
1.0
 20
0.0
 30
0.0
  9
$UCSYDIR
 10
0.0
 20
1.0
 30
0.0
  9
$UCSORTHOREF
  2

  9
$UCSORTHOVIEW
 70
     0
  9
$UCSORGTOP
 10
0.0
 20
0.0
 30
0.0
  9
$UCSORGBOTTOM
 10
0.0
 20
0.0
 30
0.0
  9
$UCSORGLEFT
 10
0.0
 20
0.0
 30
0.0
  9
$UCSORGRIGHT
 10
0.0
 20
0.0
 30
0.0
  9
$UCSORGFRONT
 10
0.0
 20
0.0
 30
0.0
  9
$UCSORGBACK
 10
0.0
 20
0.0
 30
0.0
  9
$PUCSBASE
  2

  9
$PUCSNAME
  2

  9
$PUCSORG
 10
0.0
 20
0.0
 30
0.0
  9
$PUCSXDIR
 10
1.0
 20
0.0
 30
0.0
  9
$PUCSYDIR
 10
0.0
 20
1.0
 30
0.0
  9
$PUCSORTHOREF
  2

  9
$PUCSORTHOVIEW
 70
     0
  9
$PUCSORGTOP
 10
0.0
 20
0.0
 30
0.0
  9
$PUCSORGBOTTOM
 10
0.0
 20
0.0
 30
0.0
  9
$PUCSORGLEFT
 10
0.0
 20
0.0
 30
0.0
  9
$PUCSORGRIGHT
 10
0.0
 20
0.0
 30
0.0
  9
$PUCSORGFRONT
 10
0.0
 20
0.0
 30
0.0
  9
$PUCSORGBACK
 10
0.0
 20
0.0
 30
0.0
  9
$USERI1
 70
     0
  9
$USERI2
 70
     0
  9
$USERI3
 70
     0
  9
$USERI4
 70
     0
  9
$USERI5
 70
     0
  9
$USERR1
 40
0.0
  9
$USERR2
 40
0.0
  9
$USERR3
 40
0.0
  9
$USERR4
 40
0.0
  9
$USERR5
 40
0.0
  9
$WORLDVIEW
 70
     1
  9
$SHADEDGE
 70
     3
  9
$SHADEDIF
 70
    70
  9
$TILEMODE
 70
     1
  9
$MAXACTVP
 70
    64
  9
$PINSBASE
 10
0.0
 20
0.0
 30
0.0
  9
$PLIMCHECK
 70
     0
  9
$PEXTMIN
 10
1.000000000000000E+20
 20
1.000000000000000E+20
 30
1.000000000000000E+20
  9
$PEXTMAX
 10
-1.000000000000000E+20
 20
-1.000000000000000E+20
 30
-1.000000000000000E+20
  9
$PLIMMIN
 10
0.0
 20
0.0
  9
$PLIMMAX
 10
420.0
 20
297.0
  9
$UNITMODE
 70
     0
  9
$VISRETAIN
 70
     1
  9
$PLINEGEN
 70
     0
  9
$PSLTSCALE
 70
     1
  9
$TREEDEPTH
 70
  3020
  9
$CMLSTYLE
  2
Standard
  9
$CMLJUST
 70
     0
  9
$CMLSCALE
 40
20.0
  9
$PROXYGRAPHICS
 70
     1
  9
$MEASUREMENT
 70
     1
  9
$CELWEIGHT
370
    -1
  9
$ENDCAPS
280
     0
  9
$JOINSTYLE
280
     0
  9
$LWDISPLAY
290
     0
  9
$INSUNITS
 70
     4
  9
$HYPERLINKBASE
  1

  9
$STYLESHEET
  1

  9
$XEDIT
290
     1
  9
$CEPSNTYPE
380
     0
  9
$PSTYLEMODE
290
     1
  9
$FINGERPRINTGUID
  2
{34775814-37EB-4589-ABEC-CEDB6F91F3EF}
  9
$VERSIONGUID
  2
{FAEB1C32-E019-11D5-929B-00C0DF256EC4}
  9
$EXTNAMES
290
     1
  9
$PSVPSCALE
 40
0.0
  9
$OLESTARTUP
290
     0
  9
$SORTENTS
280
   127
  9
$INDEXCTL
280
     0
  9
$HIDETEXT
280
     1
  9
$XCLIPFRAME
290
     0
  9
$HALOGAP
280
     0
  9
$OBSCOLOR
 70
   257
  9
$OBSLTYPE
280
     0
  9
$INTERSECTIONDISPLAY
280
     0
  9
$INTERSECTIONCOLOR
 70
   257
  9
$DIMASSOC
280
     2
  9
$PROJECTNAME
  1

  0
ENDSEC
  0
SECTION
  2
CLASSES
  0
CLASS
  1
ACDBDICTIONARYWDFLT
  2
AcDbDictionaryWithDefault
  3
ObjectDBX Classes
 90
        0
 91
        4
280
     0
281
     0
  0
CLASS
  1
VISUALSTYLE
  2
AcDbVisualStyle
  3
ObjectDBX Classes
 90
     4095
 91
        4
280
     0
281
     0
  0
CLASS
  1
MATERIAL
  2
AcDbMaterial
  3
ObjectDBX Classes
 90
     1153
 91
        4
280
     0
281
     0
  0
CLASS
  1
SCALE
  2
AcDbScale
  3
ObjectDBX Classes
 90
     1153
 91
        4
280
     0
281
     0
  0
CLASS
  1
TABLESTYLE
  2
AcDbTableStyle
  3
ObjectDBX Classes
 90
     4095
 91
        4
280
     0
281
     0
  0
CLASS
  1
MLEADERSTYLE
  2
AcDbMLeaderStyle
  3
ACDB_MLEADERSTYLE_CLASS
 90
     4095
 91
        4
280
     0
281
     0
  0
CLASS
  1
SUN
  2
AcDbSun
  3
SCENEOE
 90
     1153
 91
        4
280
     0
281
     0
  0
CLASS
  1
DICTIONARYVAR
  2
AcDbDictionaryVar
  3
ObjectDBX Classes
 90
        0
 91
        4
280
     0
281
     0
  0
CLASS
  1
CELLSTYLEMAP
  2
AcDbCellStyleMap
  3
ObjectDBX Classes
 90
     1152
 91
        4
280
     0
281
     0
  0
ENDSEC
  0
SECTION
  2
TABLES
  0
TABLE
  2
VPORT
  5
8
102
{ACAD_XDICTIONARY
360
425
102
}
330
0
100
AcDbSymbolTable
 70
     1
  0
VPORT
  5
29
330
8
100
AcDbSymbolTableRecord
100
AcDbViewportTableRecord
  2
*Active
 70
     0
 10
0.0
 20
0.0
 11
1.0
 21
1.0
 12
0.0
 22
0.0
 13
0.0
 23
0.0
 14
10.0
 24
10.0
 15
10.0
 25
10.0
 16
0.0
 26
0.0
 36
1.0
 17
0.0
 27
0.0
 37
0.0
 40
4620.0
 41
1.414285714285715
 42
50.0
 43
0.0
 44
0.0
 50
0.0
 51
0.0
 71
     0
 72
 10000
 73
     1
 74
     3
 75
     0
 76
     0
 77
     0
 78
     0
281
     0
 65
     1
110
0.0
120
0.0
130
0.0
111
1.0
121
0.0
131
0.0
112
0.0
122
1.0
132
0.0
 79
     0
146
0.0
  0
ENDTAB
  0
TABLE
  2
LTYPE
  5
5
330
0
100
AcDbSymbolTable
 70
     6
  0
LTYPE
  5
14
330
5
100
AcDbSymbolTableRecord
100
AcDbLinetypeTableRecord
  2
ByBlock
 70
     0
  3

 72
    65
 73
     0
 40
0.0
  0
LTYPE
  5
15
330
5
100
AcDbSymbolTableRecord
100
AcDbLinetypeTableRecord
  2
ByLayer
 70
     0
  3

 72
    65
 73
     0
 40
0.0
  0
LTYPE
  5
16
330
5
100
AcDbSymbolTableRecord
100
AcDbLinetypeTableRecord
  2
Continuous
 70
     0
  3
Solid line
 72
    65
 73
     0
 40
0.0
  0
LTYPE
  5
6F
330
5
100
AcDbSymbolTableRecord
100
AcDbLinetypeTableRecord
  2
JWW_DASHED1
 70
     0
  3
-  --  --  --  --  --  --  --  -
 72
    65
 73
     2
 40
1.693333333333333
 49
0.8466666666666667
 74
     0
 49
-0.8466666666666667
 74
     0
  0
LTYPE
  5
70
330
5
100
AcDbSymbolTableRecord
100
AcDbLinetypeTableRecord
  2
JWW_HOJO
 70
     0
  3
  -   -   -   -   -   -   -   - 
 72
    65
 73
     2
 40
1.693333333333333
 49
-1.27
 74
     0
 49
0.4233333333333333
 74
     0
  0
LTYPE
  5
71
330
5
100
AcDbSymbolTableRecord
100
AcDbLinetypeTableRecord
  2
JWW_CENTER1
 70
     0
  3
-----  --  ----------  --  -----
 72
    65
 73
     4
 40
6.773333333333333
 49
4.233333333333333
 74
     0
 49
-0.8466666666666667
 74
     0
 49
0.8466666666666667
 74
     0
 49
-0.8466666666666667
 74
     0
  0
LTYPE
  5
72
330
5
100
AcDbSymbolTableRecord
100
AcDbLinetypeTableRecord
  2
JWW_PHANTOM1
 70
     0
  3
----  -  -  --------  -  -  ----
 72
    65
 73
     6
 40
6.773333333333333
 49
3.386666666666667
 74
     0
 49
-0.8466666666666667
 74
     0
 49
0.4233333333333333
 74
     0
 49
-0.8466666666666667
 74
     0
 49
0.4233333333333333
 74
     0
 49
-0.8466666666666667
 74
     0
  0
LTYPE
  5
73
330
5
100
AcDbSymbolTableRecord
100
AcDbLinetypeTableRecord
  2
JWW_DASHED2
 70
     0
  3
--    ----    ----    ----    --
 72
    65
 73
     2
 40
3.386666666666667
 49
1.693333333333333
 74
     0
 49
-1.693333333333333
 74
     0
  0
ENDTAB
  0
TABLE
  2
LAYER
  5
2
330
0
100
AcDbSymbolTable
 70
    20
  0
LAYER
  5
10
330
2
100
AcDbSymbolTableRecord
100
AcDbLayerTableRecord
  2
0
 70
     0
 62
     7
  6
Continuous
370
    -3
390
F
  0
LAYER
  5
74
330
2
100
AcDbSymbolTableRecord
100
AcDbLayerTableRecord
  2
寸法
 70
     0
 62
     7
  6
Continuous
370
    -3
390
F
  0
LAYER
  5
75
330
2
100
AcDbSymbolTableRecord
100
AcDbLayerTableRecord
  2
F-Fﾚｲﾔ
 70
     0
 62
     7
  6
Continuous
370
    -3
390
F
  0
LAYER
  5
76
330
2
100
AcDbSymbolTableRecord
100
AcDbLayerTableRecord
  2
F-5ﾚｲﾔ
 70
     0
 62
     7
  6
Continuous
370
    -3
390
F
  0
LAYER
  5
77
330
2
100
AcDbSymbolTableRecord
100
AcDbLayerTableRecord
  2
D-9
 70
     0
 62
     7
  6
Continuous
370
    -3
390
F
  0
LAYER
  5
78
330
2
100
AcDbSymbolTableRecord
100
AcDbLayerTableRecord
  2
D-2
 70
     0
 62
     7
  6
Continuous
370
    -3
390
F
  0
LAYER
  5
79
330
2
100
AcDbSymbolTableRecord
100
AcDbLayerTableRecord
  2
D-3
 70
     0
 62
     7
  6
Continuous
370
    -3
390
F
  0
LAYER
  5
7A
330
2
100
AcDbSymbolTableRecord
100
AcDbLayerTableRecord
  2
D-C
 70
     0
 62
     7
  6
Continuous
370
    -3
390
F
  0
LAYER
  5
7B
330
2
100
AcDbSymbolTableRecord
100
AcDbLayerTableRecord
  2
D-5
 70
     0
 62
     7
  6
Continuous
370
    -3
390
F
  0
LAYER
  5
7C
330
2
100
AcDbSymbolTableRecord
100
AcDbLayerTableRecord
  2
D-F
 70
     0
 62
     7
  6
Continuous
370
    -3
390
F
  0
LAYER
  5
7D
330
2
100
AcDbSymbolTableRecord
100
AcDbLayerTableRecord
  2
D-E
 70
     0
 62
     7
  6
Continuous
370
    -3
390
F
  0
LAYER
  5
7E
330
2
100
AcDbSymbolTableRecord
100
AcDbLayerTableRecord
  2
D-7
 70
     0
 62
     7
  6
Continuous
370
    -3
390
F
  0
LAYER
  5
7F
330
2
100
AcDbSymbolTableRecord
100
AcDbLayerTableRecord
  2
D-6
 70
     0
 62
     7
  6
Continuous
370
    -3
390
F
  0
LAYER
  5
80
330
2
100
AcDbSymbolTableRecord
100
AcDbLayerTableRecord
  2
D-1
 70
     0
 62
     7
  6
Continuous
370
    -3
390
F
  0
LAYER
  5
81
330
2
100
AcDbSymbolTableRecord
100
AcDbLayerTableRecord
  2
D-8
 70
     0
 62
     7
  6
Continuous
370
    -3
390
F
  0
LAYER
  5
82
330
2
100
AcDbSymbolTableRecord
100
AcDbLayerTableRecord
  2
D-4
 70
     0
 62
     7
  6
Continuous
370
    -3
390
F
  0
LAYER
  5
83
330
2
100
AcDbSymbolTableRecord
100
AcDbLayerTableRecord
  2
0-F
 70
     0
 62
     7
  6
Continuous
370
    -3
390
F
  0
LAYER
  5
84
330
2
100
AcDbSymbolTableRecord
100
AcDbLayerTableRecord
  2
0-E
 70
     0
 62
     7
  6
Continuous
370
    -3
390
F
  0
LAYER
  5
85
330
2
100
AcDbSymbolTableRecord
100
AcDbLayerTableRecord
  2
建具
 70
     0
 62
     7
  6
Continuous
370
    -3
390
F
  0
LAYER
  5
86
330
2
100
AcDbSymbolTableRecord
100
AcDbLayerTableRecord
  2
躯体
 70
     0
 62
     7
  6
Continuous
370
    -3
390
F
  0
ENDTAB
  0
TABLE
  2
STYLE
  5
3
330
0
100
AcDbSymbolTable
 70
     2
  0
STYLE
  5
11
330
3
100
AcDbSymbolTableRecord
100
AcDbTextStyleTableRecord
  2
Standard
 70
     0
 40
0.0
 41
1.0
 50
0.0
 71
     0
 42
2.5
  3
txt
  4

  0
STYLE
  5
6E
330
3
100
AcDbSymbolTableRecord
100
AcDbTextStyleTableRecord
  2
ＭＳ ゴシック
 70
     0
 40
1.0
 41
1.0
 50
0.0
 71
     0
 42
2.5
  3

  4

1001
ACAD
1000
MS Gothic
1071
    32817
  0
ENDTAB
  0
TABLE
  2
VIEW
  5
6
330
0
100
AcDbSymbolTable
 70
     0
  0
ENDTAB
  0
TABLE
  2
UCS
  5
7
330
0
100
AcDbSymbolTable
 70
     0
  0
ENDTAB
  0
TABLE
  2
APPID
  5
9
330
0
100
AcDbSymbolTable
 70
     2
  0
APPID
  5
12
330
9
100
AcDbSymbolTableRecord
100
AcDbRegAppTableRecord
  2
ACAD
 70
     0
  0
APPID
  5
464
330
9
100
AcDbSymbolTableRecord
100
AcDbRegAppTableRecord
  2
ACAD_MLEADERVER
 70
     0
  0
ENDTAB
  0
TABLE
  2
DIMSTYLE
  5
A
330
0
100
AcDbSymbolTable
 70
     1
100
AcDbDimStyleTable
  0
DIMSTYLE
105
27
330
A
100
AcDbSymbolTableRecord
100
AcDbDimStyleTableRecord
  2
ISO-25
 70
     0
 41
2.5
 42
0.625
 43
3.75
 44
1.25
 73
     0
 74
     0
 77
     1
 78
     8
140
2.5
141
2.5
143
0.03937007874016
147
0.625
171
     3
172
     1
178
     0
271
     2
272
     2
274
     3
278
    44
283
     0
284
     8
340
11
  0
ENDTAB
  0
TABLE
  2
BLOCK_RECORD
  5
1
330
0
100
AcDbSymbolTable
 70
     1
  0
BLOCK_RECORD
  5
1F
330
1
100
AcDbSymbolTableRecord
100
AcDbBlockTableRecord
  2
*Model_Space
340
22
  0
BLOCK_RECORD
  5
1B
330
1
100
AcDbSymbolTableRecord
100
AcDbBlockTableRecord
  2
*Paper_Space
340
1E
  0
BLOCK_RECORD
  5
23
330
1
100
AcDbSymbolTableRecord
100
AcDbBlockTableRecord
  2
*Paper_Space0
340
26
  0
ENDTAB
  0
ENDSEC
  0
SECTION
  2
BLOCKS
  0
BLOCK
  5
20
330
1F
100
AcDbEntity
  8
0
100
AcDbBlockBegin
  2
*Model_Space
 70
     0
 10
0.0
 20
0.0
 30
0.0
  3
*Model_Space
  1

  0
ENDBLK
  5
21
330
1F
100
AcDbEntity
  8
0
100
AcDbBlockEnd
  0
BLOCK
  5
1C
330
1B
100
AcDbEntity
 67
     1
  8
0
100
AcDbBlockBegin
  2
*Paper_Space
 70
     0
 10
0.0
 20
0.0
 30
0.0
  3
*Paper_Space
  1

  0
ENDBLK
  5
1D
330
1B
100
AcDbEntity
 67
     1
  8
0
100
AcDbBlockEnd
  0
BLOCK
  5
24
330
23
100
AcDbEntity
  8
0
100
AcDbBlockBegin
  2
*Paper_Space0
 70
     0
 10
0.0
 20
0.0
 30
0.0
  3
*Paper_Space0
  1

  0
ENDBLK
  5
25
330
23
100
AcDbEntity
  8
0
100
AcDbBlockEnd
  0
ENDSEC
  0
SECTION
  2
ENTITIES
  0
SOLID
  5
87
330
1F
100
AcDbEntity
  8
寸法
  6
Continuous
 62
     4
370
     9
100
AcDbTrace
 10
-303.0374933932467
 20
1184.570122976979
 30
0.0
 11
-303.0374933932467
 21
1224.570122976979
 31
0.0
 12
-307.0374933932476
 22
1184.570122976979
 32
0.0
 13
-307.0374933932476
 23
1224.570122976979
 33
0.0
  0
SOLID
  5
88
330
1F
100
AcDbEntity
  8
寸法
  6
Continuous
 62
     4
370
     9
100
AcDbTrace
 10
-303.0374933932461
 20
1559.694135440798
 30
0.0
 11
-303.0374933932461
 21
1519.694135440798
 31
0.0
 12
-307.037493393247
 22
1559.694135440798
 32
0.0
 13
-307.037493393247
 23
1519.694135440798
 33
0.0
  0
TEXT
  5
89
330
1F
100
AcDbEntity
  8
F-Fﾚｲﾔ
  6
Continuous
 62
     2
370
     9
100
AcDbText
 10
-2540.105761574603
 20
-863.5357349004513
 30
0.0
 40
30.48
  1
強度
 41
1.0625
  7
ＭＳ ゴシック
100
AcDbText
  0
TEXT
  5
8A
330
1F
100
AcDbEntity
  8
F-Fﾚｲﾔ
  6
Continuous
 62
     2
370
     9
100
AcDbText
 10
-2540.105761574603
 20
-763.6033922554767
 30
0.0
 40
30.48
  1
強度性能・質量
 41
1.107142857142857
  7
ＭＳ ゴシック
100
AcDbText
  0
TEXT
  5
8B
330
1F
100
AcDbEntity
  8
F-Fﾚｲﾔ
  6
Continuous
 62
     2
370
     9
100
AcDbText
 10
-2540.105761574603
 20
-953.5357349004513
 30
0.0
 40
30.48
  1
主な設置場所
 41
1.104166666666667
  7
ＭＳ ゴシック
100
AcDbText
  0
TEXT
  5
8C
330
1F
100
AcDbEntity
  8
F-Fﾚｲﾔ
  6
Continuous
 62
     2
370
     9
100
AcDbText
 10
-2540.105761574603
 20
-1136.035743245103
 30
0.0
 40
30.48
  1
後輪一輪荷重
 41
1.104166666666667
  7
ＭＳ ゴシック
100
AcDbText
  0
TEXT
  5
8D
330
1F
100
AcDbEntity
  8
F-Fﾚｲﾔ
  6
Continuous
 62
     2
370
     9
100
AcDbText
 10
-2540.105761574603
 20
-1316.036057957627
 30
0.0
 40
30.48
  1
荷重条件
 41
1.09375
  7
ＭＳ ゴシック
100
AcDbText
  0
TEXT
  5
8E
330
1F
100
AcDbEntity
  8
F-Fﾚｲﾔ
  6
Continuous
 62
     2
370
     9
100
AcDbText
 10
-2540.105761574603
 20
-1406.036344059922
 30
0.0
 40
30.48
  1
許容応力
 41
1.09375
  7
ＭＳ ゴシック
100
AcDbText
  0
TEXT
  5
8F
330
1F
100
AcDbEntity
  8
F-Fﾚｲﾔ
  6
Continuous
 62
     2
370
     9
100
AcDbText
 10
-2540.105761574603
 20
-1226.035514363267
 30
0.0
 40
30.48
  1
衝撃係数
 41
1.09375
  7
ＭＳ ゴシック
100
AcDbText
  0
TEXT
  5
90
330
1F
100
AcDbEntity
  8
F-Fﾚｲﾔ
  6
Continuous
 62
     2
370
     9
100
AcDbText
 10
-2540.105761574603
 20
-1496.036630162217
 30
0.0
 40
30.48
  1
質量
 41
1.0625
  7
ＭＳ ゴシック
100
AcDbText
  0
TEXT
  5
91
330
1F
100
AcDbEntity
  8
F-Fﾚｲﾔ
  6
Continuous
 62
     2
370
     9
100
AcDbText
 10
-2540.105761574603
 20
-1586.036916264512
 30
0.0
 40
30.48
  1
充填時の蓋質量
 41
1.107142857142857
  7
ＭＳ ゴシック
100
AcDbText
  0
TEXT
  5
92
330
1F
100
AcDbEntity
  8
F-Fﾚｲﾔ
  6
Continuous
 62
     2
370
     9
100
AcDbText
 10
-2158.770859680577
 20
-1406.036601551987
 30
0.0
 40
30.48
  1
約235N/mm
 41
1.111111111111109
  7
ＭＳ ゴシック
100
AcDbText
  0
TEXT
  5
93
330
1F
100
AcDbEntity
  8
F-Fﾚｲﾔ
  6
Continuous
 62
     2
370
     9
100
AcDbText
 10
-2158.770859680577
 20
-1226.035514363267
 30
0.0
 40
30.48
  1
0
 41
0.9999999999999998
  7
ＭＳ ゴシック
100
AcDbText
  0
TEXT
  5
94
330
1F
100
AcDbEntity
  8
F-5ﾚｲﾔ
  6
Continuous
 62
     6
370
     9
100
AcDbText
 10
-1956.047549725833
 20
-1379.634547147684
 30
0.0
 40
15.24
  1
2
 41
0.9999999999999998
  7
ＭＳ ゴシック
100
AcDbText
  0
LINE
  5
95
330
1F
100
AcDbEntity
  8
F-Fﾚｲﾔ
  6
Continuous
 62
     7
370
     9
100
AcDbLine
 10
-2570.105761574603
 20
-696.675464295364
 30
0.0
 11
-2570.105761574603
 21
-1616.677059315659
 31
0.0
  0
LINE
  5
96
330
1F
100
AcDbEntity
  8
F-Fﾚｲﾔ
  6
Continuous
 62
     7
370
     9
100
AcDbLine
 10
-2570.105761574603
 20
-696.675464295364
 30
0.0
 11
-1050.105761574603
 21
-696.675464295364
 31
0.0
  0
LINE
  5
97
330
1F
100
AcDbEntity
  8
F-Fﾚｲﾔ
  6
Continuous
 62
     7
370
     9
100
AcDbLine
 10
-1050.105761574603
 20
-1616.677059315659
 30
0.0
 11
-2570.105761574603
 21
-1616.677059315659
 31
0.0
  0
LINE
  5
98
330
1F
100
AcDbEntity
  8
F-Fﾚｲﾔ
  6
Continuous
 62
     7
370
     9
100
AcDbLine
 10
-2570.105761574603
 20
-796.6755715837246
 30
0.0
 11
-1050.105761574603
 21
-796.6755715837246
 31
0.0
  0
LINE
  5
99
330
1F
100
AcDbEntity
  8
F-Fﾚｲﾔ
  6
Continuous
 62
     7
370
     9
100
AcDbLine
 10
-2570.105761574603
 20
-806.6755715837246
 30
0.0
 11
-1050.105761574603
 21
-806.6755715837246
 31
0.0
  0
LINE
  5
9A
330
1F
100
AcDbEntity
  8
F-5ﾚｲﾔ
  6
Continuous
 62
     7
370
     9
100
AcDbLine
 10
-2570.105761574603
 20
-896.6758576860207
 30
0.0
 11
-1050.105761574603
 21
-896.6758576860207
 31
0.0
  0
LINE
  5
9B
330
1F
100
AcDbEntity
  8
F-Fﾚｲﾔ
  6
Continuous
 62
     7
370
     9
100
AcDbLine
 10
-2570.105761574603
 20
-896.6758576860207
 30
0.0
 11
-1050.105761574603
 21
-896.6758576860207
 31
0.0
  0
LINE
  5
9C
330
1F
100
AcDbEntity
  8
F-5ﾚｲﾔ
  6
Continuous
 62
     7
370
     9
100
AcDbLine
 10
-2570.105761574603
 20
-1076.675857686021
 30
0.0
 11
-1050.105761574603
 21
-1076.675857686021
 31
0.0
  0
LINE
  5
9D
330
1F
100
AcDbEntity
  8
F-Fﾚｲﾔ
  6
Continuous
 62
     7
370
     9
100
AcDbLine
 10
-2570.105761574603
 20
-1166.675628804185
 30
0.0
 11
-1050.105761574603
 21
-1166.675628804185
 31
0.0
  0
LINE
  5
9E
330
1F
100
AcDbEntity
  8
F-Fﾚｲﾔ
  6
Continuous
 62
     7
370
     9
100
AcDbLine
 10
-1050.105761574603
 20
-1346.676201008775
 30
0.0
 11
-2570.105761574603
 21
-1346.676201008775
 31
0.0
  0
LINE
  5
9F
330
1F
100
AcDbEntity
  8
F-Fﾚｲﾔ
  6
Continuous
 62
     7
370
     9
100
AcDbLine
 10
-1050.105761574603
 20
-1436.676487111069
 30
0.0
 11
-2570.105761574603
 21
-1436.676487111069
 31
0.0
  0
LINE
  5
A0
330
1F
100
AcDbEntity
  8
F-Fﾚｲﾔ
  6
Continuous
 62
     7
370
     9
100
AcDbLine
 10
-2570.105761574603
 20
-1256.675399922349
 30
0.0
 11
-1050.105761574603
 21
-1256.675399922349
 31
0.0
  0
LINE
  5
A1
330
1F
100
AcDbEntity
  8
F-Fﾚｲﾔ
  6
Continuous
 62
     7
370
     9
100
AcDbLine
 10
-1050.105761574603
 20
-1526.676773213364
 30
0.0
 11
-2570.105761574603
 21
-1526.676773213364
 31
0.0
  0
LINE
  5
A2
330
1F
100
AcDbEntity
  8
F-Fﾚｲﾔ
  6
Continuous
 62
     7
370
     9
100
AcDbLine
 10
-2570.105761574603
 20
-1076.675857686021
 30
0.0
 11
-1050.105761574603
 21
-1076.675857686021
 31
0.0
  0
TEXT
  5
A3
330
1F
100
AcDbEntity
  8
F-Fﾚｲﾔ
  6
Continuous
 62
     2
370
     9
100
AcDbText
 10
-2158.770859680577
 20
-947.1056071661161
 30
0.0
 40
30.48
  1
車道以外で、車両が走行することはまれで、走行する
 41
1.119791666666667
  7
ＭＳ ゴシック
100
AcDbText
  0
TEXT
  5
A4
330
1F
100
AcDbEntity
  8
F-Fﾚｲﾔ
  6
Continuous
 62
     2
370
     9
100
AcDbText
 10
-2158.770859680577
 20
-1001.589081513182
 30
0.0
 40
30.48
  1
ことがあっても一時的な通過などで低速で走行するよ
 41
1.119791666666667
  7
ＭＳ ゴシック
100
AcDbText
  0
TEXT
  5
A5
330
1F
100
AcDbEntity
  8
F-Fﾚｲﾔ
  6
Continuous
 62
     2
370
     9
100
AcDbText
 10
-2158.770859680577
 20
-1056.072555860248
 30
0.0
 40
30.48
  1
うな、車両が乗り入れる可能性のある建物内
 41
1.11875
  7
ＭＳ ゴシック
100
AcDbText
  0
LINE
  5
A6
330
1F
100
AcDbEntity
  8
F-5ﾚｲﾔ
  6
Continuous
 62
     7
370
     9
100
AcDbLine
 10
-1050.105761574603
 20
-696.675464295364
 30
0.0
 11
-1050.105761574603
 21
-1616.677059315659
 31
0.0
  0
LINE
  5
A7
330
1F
100
AcDbEntity
  8
F-Fﾚｲﾔ
  6
Continuous
 62
     7
370
     9
100
AcDbLine
 10
-2200.105761574603
 20
-796.6755715837246
 30
0.0
 11
-2200.105761574603
 21
-1616.677059315659
 31
0.0
  0
TEXT
  5
A8
330
1F
100
AcDbEntity
  8
F-Fﾚｲﾔ
  6
Continuous
 62
     2
370
     9
100
AcDbText
 10
-2158.770859680577
 20
-863.5357349004513
 30
0.0
 40
30.48
  1
T-2：総重量2,000kgfまでの車両の乗り入れが可能
 41
1.119444444444444
  7
ＭＳ ゴシック
100
AcDbText
  0
TEXT
  5
A9
330
1F
100
AcDbEntity
  8
F-Fﾚｲﾔ
  6
Continuous
 62
     2
370
     9
100
AcDbText
 10
-2158.770859680577
 20
-1136.035743245103
 30
0.0
 40
30.48
  1
7.8kN（800kgf）
 41
1.108333333333333
  7
ＭＳ ゴシック
100
AcDbText
  0
TEXT
  5
AA
330
1F
100
AcDbEntity
  8
F-Fﾚｲﾔ
  6
Continuous
 62
     2
370
     9
100
AcDbText
 10
-2158.770859680577
 20
-1316.036315449692
 30
0.0
 40
30.48
  1
載荷板寸法：200×160 mm
 41
1.119565217391304
  7
ＭＳ ゴシック
100
AcDbText
  0
ARC
  5
AB
330
1F
100
AcDbEntity
  8
D-9
  6
Continuous
 62
   211
370
     5
100
AcDbCircle
 10
1533.161652459427
 20
761.5036246148359
 30
0.0
 40
34.53062160595044
100
AcDbArc
 50
267.8605499267578
 51
302.8109436035156
  0
ARC
  5
AC
330
1F
100
AcDbEntity
  8
D-9
  6
Continuous
 62
   211
370
     5
100
AcDbCircle
 10
1650.583725411276
 20
761.5036246148359
 30
0.0
 40
34.53062160595044
100
AcDbArc
 50
237.1890563964843
 51
272.1394500732421
  0
ARC
  5
AD
330
1F
100
AcDbEntity
  8
D-9
  6
Continuous
 62
   211
370
     5
100
AcDbCircle
 10
1591.87219405571
 20
875.5946626743773
 30
0.0
 40
148.5985781695392
100
AcDbArc
 50
254.3844604492188
 51
285.6155395507812
  0
LINE
  5
AE
330
1F
100
AcDbEntity
  8
D-9
  6
Continuous
 62
   211
370
     5
100
AcDbLine
 10
1551.873546726735
 20
732.4819026976022
 30
0.0
 11
1551.873546726735
 21
776.9973165489566
 31
0.0
  0
LINE
  5
AF
330
1F
100
AcDbEntity
  8
D-9
  6
Continuous
 62
   211
370
     5
100
AcDbLine
 10
1631.873315782901
 20
732.4819026976022
 30
0.0
 11
1631.873315782901
 21
776.9973165489566
 31
0.0
  0
LINE
  5
B0
330
1F
100
AcDbEntity
  8
D-9
  6
Continuous
 62
   211
370
     5
100
AcDbLine
 10
1651.872886887219
 20
726.9961618297814
 30
0.0
 11
1532.12240520436
 21
726.9961618297814
 31
0.0
  0
LINE
  5
B1
330
1F
100
AcDbEntity
  8
D-9
  6
Continuous
 62
   211
370
     5
100
AcDbLine
 10
1661.37309143746
 20
776.9973165489566
 30
0.0
 11
1661.37309143746
 21
732.4819026976022
 31
0.0
  0
LINE
  5
B2
330
1F
100
AcDbEntity
  8
D-9
  6
Continuous
 62
   211
370
     5
100
AcDbLine
 10
1651.872886887219
 20
726.9961618297814
 30
0.0
 11
1661.37309143746
 21
732.4819026976022
 31
0.0
  0
LINE
  5
B3
330
1F
100
AcDbEntity
  8
D-9
  6
Continuous
 62
   211
370
     5
100
AcDbLine
 10
1522.372286433234
 20
776.9973165489566
 30
0.0
 11
1522.372286433234
 21
732.625417794736
 31
0.0
  0
LINE
  5
B4
330
1F
100
AcDbEntity
  8
D-9
  6
Continuous
 62
   211
370
     5
100
AcDbLine
 10
1531.915545512626
 20
727.1169124632272
 30
0.0
 11
1522.372286433234
 21
732.625417794736
 31
0.0
  0
ARC
  5
B5
330
1F
100
AcDbEntity
  8
D-2
  6
Continuous
 62
     3
370
     9
100
AcDbCircle
 10
1979.873134327044
 20
828.9973165489457
 30
0.0
 40
16.0
100
AcDbArc
 50
270.0
 51
0.0
  0
ARC
  5
B6
330
1F
100
AcDbEntity
  8
D-2
  6
Continuous
 62
     3
370
     9
100
AcDbCircle
 10
1979.873134327044
 20
828.9973165489457
 30
0.0
 40
32.00000000000001
100
AcDbArc
 50
270.0
 51
0.0
  0
LINE
  5
B7
330
1F
100
AcDbEntity
  8
D-2
  6
Continuous
 62
     3
370
     9
100
AcDbLine
 10
2011.873134327049
 20
997.9973165489512
 30
0.0
 11
2011.873134327049
 21
828.9973165489457
 31
0.0
  0
LINE
  5
B8
330
1F
100
AcDbEntity
  8
D-2
  6
Continuous
 62
     3
370
     9
100
AcDbLine
 10
2011.873134327049
 20
997.9973165489512
 30
0.0
 11
1995.873134327052
 21
997.9973165489512
 31
0.0
  0
LINE
  5
B9
330
1F
100
AcDbEntity
  8
D-2
  6
Continuous
 62
     3
370
     9
100
AcDbLine
 10
1995.873134327052
 20
828.9973165489457
 30
0.0
 11
1995.873134327052
 21
997.9973165489512
 31
0.0
  0
LINE
  5
BA
330
1F
100
AcDbEntity
  8
D-3
  6
Continuous
 62
     4
370
     9
100
AcDbLine
 10
2011.873134327049
 20
997.9973165489512
 30
0.0
 11
2011.873134327049
 21
937.9968711572631
 31
0.0
  0
ARC
  5
BB
330
1F
100
AcDbEntity
  8
D-3
  6
Continuous
 62
     4
370
     9
100
AcDbCircle
 10
2016.872936375181
 20
1002.997118597084
 30
0.0
 40
10.0
100
AcDbArc
 50
0.0
 51
90.0
  0
LINE
  5
BC
330
1F
100
AcDbEntity
  8
D-3
  6
Continuous
 62
     4
370
     9
100
AcDbLine
 10
2026.872936375172
 20
1002.997118597084
 30
0.0
 11
2026.872936375172
 21
937.9968711572631
 31
0.0
  0
LINE
  5
BD
330
1F
100
AcDbEntity
  8
D-3
  6
Continuous
 62
     4
370
     9
100
AcDbLine
 10
2016.872936375181
 20
1012.99711859712
 30
0.0
 11
1966.873233302964
 21
1012.99711859712
 31
0.0
  0
LINE
  5
BE
330
1F
100
AcDbEntity
  8
D-3
  6
Continuous
 62
     4
370
     9
100
AcDbLine
 10
1966.873233302964
 20
1012.99711859712
 30
0.0
 11
1966.873233302964
 21
997.9973165489512
 31
0.0
  0
LINE
  5
BF
330
1F
100
AcDbEntity
  8
D-3
  6
Continuous
 62
     4
370
     9
100
AcDbLine
 10
2011.873134327049
 20
937.9968711572631
 30
0.0
 11
2026.872936375172
 21
937.9968711572631
 31
0.0
  0
LINE
  5
C0
330
1F
100
AcDbEntity
  8
D-3
  6
Continuous
 62
     4
370
     9
100
AcDbLine
 10
1966.873233302964
 20
997.9973165489512
 30
0.0
 11
2011.873134327049
 21
997.9973165489512
 31
0.0
  0
LINE
  5
C1
330
1F
100
AcDbEntity
  8
D-3
  6
Continuous
 62
     4
370
     9
100
AcDbLine
 10
1966.873233302964
 20
1012.99711859712
 30
0.0
 11
926.8729363751721
 21
1012.99711859712
 31
0.0
  0
LINE
  5
C2
330
1F
100
AcDbEntity
  8
D-C
  6
Continuous
 62
     2
370
     9
100
AcDbLine
 10
1649.372754919301
 20
1012.997481508844
 30
0.0
 11
1534.372622951402
 21
1012.997481508844
 31
0.0
  0
LINE
  5
C3
330
1F
100
AcDbEntity
  8
D-C
  6
Continuous
 62
     2
370
     9
100
AcDbLine
 10
1511.872424999552
 20
1012.99797638849
 30
0.0
 11
1531.87199600589
 21
1012.99797638849
 31
0.0
  0
LINE
  5
C4
330
1F
100
AcDbEntity
  8
D-C
  6
Continuous
 62
     2
370
     9
100
AcDbLine
 10
1671.873447750819
 20
1012.99797638849
 30
0.0
 11
1651.873381864831
 21
1012.99797638849
 31
0.0
  0
LINE
  5
C5
330
1F
100
AcDbEntity
  8
D-C
  6
Continuous
 62
     2
370
     9
100
AcDbLine
 10
1671.873447750819
 20
812.9973165489603
 30
0.0
 11
1671.873447750819
 21
1012.99797638849
 31
0.0
  0
LINE
  5
C6
330
1F
100
AcDbEntity
  8
D-C
  6
Continuous
 62
     2
370
     9
100
AcDbLine
 10
1651.873381864831
 20
1012.99797638849
 30
0.0
 11
1649.372754919301
 21
1010.497844420581
 31
0.0
  0
LINE
  5
C7
330
1F
100
AcDbEntity
  8
D-C
  6
Continuous
 62
     2
370
     9
100
AcDbLine
 10
1649.372754919301
 20
987.9971515890768
 30
0.0
 11
1649.372754919301
 21
1012.99797638849
 31
0.0
  0
LINE
  5
C8
330
1F
100
AcDbEntity
  8
D-C
  6
Continuous
 62
     2
370
     9
100
AcDbLine
 10
1534.372622951402
 20
987.9971515890768
 30
0.0
 11
1534.372622951402
 21
1012.99797638849
 31
0.0
  0
LINE
  5
C9
330
1F
100
AcDbEntity
  8
D-C
  6
Continuous
 62
     2
370
     9
100
AcDbLine
 10
1534.372622951402
 20
1010.497844420581
 30
0.0
 11
1531.87199600589
 21
1012.99797638849
 31
0.0
  0
LINE
  5
CA
330
1F
100
AcDbEntity
  8
D-C
  6
Continuous
 62
     2
370
     9
100
AcDbLine
 10
1511.872424999552
 20
812.9973165489603
 30
0.0
 11
1511.872424999552
 21
1012.99797638849
 31
0.0
  0
LINE
  5
CB
330
1F
100
AcDbEntity
  8
D-C
  6
Continuous
 62
     2
370
     9
100
AcDbLine
 10
1645.338001171428
 20
987.9971515890768
 30
0.0
 11
1635.338463059094
 21
997.9976794606976
 31
0.0
  0
LINE
  5
CC
330
1F
100
AcDbEntity
  8
D-C
  6
Continuous
 62
     2
370
     9
100
AcDbLine
 10
1551.873546726735
 20
996.6090471760729
 30
0.0
 11
1550.48491444211
 21
997.9976794606976
 31
0.0
  0
LINE
  5
CD
330
1F
100
AcDbEntity
  8
D-C
  6
Continuous
 62
     2
370
     9
100
AcDbLine
 10
1539.271931439567
 20
987.9971515890768
 30
0.0
 11
1534.372622951402
 21
992.8959651976058
 31
0.0
  0
LINE
  5
CE
330
1F
100
AcDbEntity
  8
D-C
  6
Continuous
 62
     2
370
     9
100
AcDbLine
 10
1649.372754919301
 20
994.5686583986228
 30
0.0
 11
1645.943733857236
 21
997.9976794606976
 31
0.0
  0
LINE
  5
CF
330
1F
100
AcDbEntity
  8
D-C
  6
Continuous
 62
     2
370
     9
100
AcDbLine
 10
1634.730750854693
 20
987.9971515890768
 30
0.0
 11
1631.873315782901
 21
990.8550815405144
 31
0.0
  0
LINE
  5
D0
330
1F
100
AcDbEntity
  8
D-C
  6
Continuous
 62
     2
370
     9
100
AcDbLine
 10
1549.878191997001
 20
987.9971515890768
 30
0.0
 11
1539.878159005026
 21
997.9976794606976
 31
0.0
  0
LINE
  5
D1
330
1F
100
AcDbEntity
  8
D-C
  6
Continuous
 62
     2
370
     9
100
AcDbLine
 10
1551.873546726735
 20
987.9971515890768
 30
0.0
 11
1534.372622951402
 21
987.9971515890768
 31
0.0
  0
LINE
  5
D2
330
1F
100
AcDbEntity
  8
D-C
  6
Continuous
 62
     2
370
     9
100
AcDbLine
 10
1649.372754919301
 20
987.9971515890768
 30
0.0
 11
1631.873315782901
 21
987.9971515890768
 31
0.0
  0
LINE
  5
D3
330
1F
100
AcDbEntity
  8
D-C
  6
Continuous
 62
     2
370
     9
100
AcDbLine
 10
1626.872556967443
 20
947.9970196211727
 30
0.0
 11
1556.873315782901
 21
947.9970196211727
 31
0.0
  0
LINE
  5
D4
330
1F
100
AcDbEntity
  8
D-C
  6
Continuous
 62
     2
370
     9
100
AcDbLine
 10
1556.873315782901
 20
947.9970196211727
 30
0.0
 11
1551.873546726735
 21
952.9977784366313
 31
0.0
  0
LINE
  5
D5
330
1F
100
AcDbEntity
  8
D-C
  6
Continuous
 62
     2
370
     9
100
AcDbLine
 10
1631.873315782901
 20
953.2689724822396
 30
0.0
 11
1626.872556967443
 21
947.9970196211727
 31
0.0
  0
LINE
  5
D6
330
1F
100
AcDbEntity
  8
D-C
  6
Continuous
 62
     2
370
     9
100
AcDbLine
 10
1631.873315782901
 20
952.9977784366313
 30
0.0
 11
1551.873546726735
 21
952.9977784366313
 31
0.0
  0
LINE
  5
D7
330
1F
100
AcDbEntity
  8
D-C
  6
Continuous
 62
     2
370
     9
100
AcDbLine
 10
1631.873315782901
 20
971.7754916967644
 30
0.0
 11
1631.873315782901
 21
997.9976794606976
 31
0.0
  0
LINE
  5
D8
330
1F
100
AcDbEntity
  8
D-C
  6
Continuous
 62
     2
370
     9
100
AcDbLine
 10
1649.372754919301
 20
997.9976794606976
 30
0.0
 11
1534.372622951402
 21
997.9976794606976
 31
0.0
  0
LINE
  5
D9
330
1F
100
AcDbEntity
  8
D-C
  6
Continuous
 62
     2
370
     9
100
AcDbLine
 10
1556.873315782901
 20
887.9971185970746
 30
0.0
 11
1551.873546726735
 21
882.996854661262
 31
0.0
  0
LINE
  5
DA
330
1F
100
AcDbEntity
  8
D-C
  6
Continuous
 62
     2
370
     9
100
AcDbLine
 10
1631.873315782901
 20
882.996854661262
 30
0.0
 11
1626.872556967443
 21
887.9971185970746
 31
0.0
  0
LINE
  5
DB
330
1F
100
AcDbEntity
  8
D-C
  6
Continuous
 62
     2
370
     9
100
AcDbLine
 10
1631.873315782901
 20
882.996854661262
 30
0.0
 11
1551.873546726735
 21
882.996854661262
 31
0.0
  0
LINE
  5
DC
330
1F
100
AcDbEntity
  8
D-C
  6
Continuous
 62
     2
370
     9
100
AcDbLine
 10
1626.872556967443
 20
887.9971185970746
 30
0.0
 11
1556.873315782901
 21
887.9971185970746
 31
0.0
  0
LINE
  5
DD
330
1F
100
AcDbEntity
  8
D-C
  6
Continuous
 62
     2
370
     9
100
AcDbLine
 10
1511.872424999552
 20
812.9973165489603
 30
0.0
 11
1556.873315782901
 21
812.9973165489603
 31
0.0
  0
LINE
  5
DE
330
1F
100
AcDbEntity
  8
D-C
  6
Continuous
 62
     2
370
     9
100
AcDbLine
 10
1671.873447750819
 20
812.9973165489603
 30
0.0
 11
1626.872556967443
 21
812.9973165489603
 31
0.0
  0
LINE
  5
DF
330
1F
100
AcDbEntity
  8
D-3
  6
Continuous
 62
     4
370
     9
100
AcDbLine
 10
1016.872936375172
 20
862.9971185970746
 30
0.0
 11
1016.872936375172
 21
812.9973165489603
 31
0.0
  0
LINE
  5
E0
330
1F
100
AcDbEntity
  8
D-3
  6
Continuous
 62
     4
370
     9
100
AcDbLine
 10
1166.872936375172
 20
862.9971185970746
 30
0.0
 11
1016.872936375172
 21
862.9971185970746
 31
0.0
  0
LINE
  5
E1
330
1F
100
AcDbEntity
  8
D-3
  6
Continuous
 62
     4
370
     9
100
AcDbLine
 10
1166.872936375172
 20
862.9971185970746
 30
0.0
 11
1166.872936375172
 21
812.9973165489603
 31
0.0
  0
LINE
  5
E2
330
1F
100
AcDbEntity
  8
D-3
  6
Continuous
 62
     4
370
     9
100
AcDbLine
 10
1166.872936375172
 20
812.9973165489603
 30
0.0
 11
1016.872936375172
 21
812.9973165489603
 31
0.0
  0
LINE
  5
E3
330
1F
100
AcDbEntity
  8
D-3
  6
Continuous
 62
     4
370
     9
100
AcDbLine
 10
1166.872936375172
 20
817.9973165489603
 30
0.0
 11
1016.872936375172
 21
817.9973165489603
 31
0.0
  0
LINE
  5
E4
330
1F
100
AcDbEntity
  8
D-3
  6
JWW_DASHED1
 62
     4
370
     9
100
AcDbLine
 10
1166.872936375172
 20
858.6669915781542
 30
0.0
 11
1016.872936375172
 21
858.6669915781542
 31
0.0
  0
TEXT
  5
E5
330
1F
100
AcDbEntity
  8
D-5
  6
Continuous
 62
     7
370
     9
100
AcDbText
 10
1149.629774281256
 20
1081.784815785703
 30
0.0
 40
22.86
  1
（ＳＵＳ３０４）
 41
1.145833333333335
  7
ＭＳ ゴシック
100
AcDbText
  0
TEXT
  5
E6
330
1F
100
AcDbEntity
  8
D-5
  6
Continuous
 62
     7
370
     9
100
AcDbText
 10
1170.07351513947
 20
1124.861614508254
 30
0.0
 40
22.86
  1
把手
 41
1.083333333333333
  7
ＭＳ ゴシック
100
AcDbText
  0
LINE
  5
E7
330
1F
100
AcDbEntity
  8
D-5
  6
Continuous
 62
     7
370
     9
100
AcDbLine
 10
1427.825170910796
 20
1110.792912280636
 30
0.0
 11
1154.570446459782
 21
1110.792912280636
 31
0.0
  0
LINE
  5
E8
330
1F
100
AcDbEntity
  8
D-5
  6
Continuous
 62
     7
370
     9
100
AcDbLine
 10
1511.872424999552
 20
936.1518702473921
 30
0.0
 11
1495.445884934097
 21
961.2548876935494
 31
0.0
  0
LINE
  5
E9
330
1F
100
AcDbEntity
  8
D-5
  6
Continuous
 62
     7
370
     9
100
AcDbLine
 10
1511.872424999552
 20
936.1518702473921
 30
0.0
 11
1502.502621235828
 21
964.651246699039
 31
0.0
  0
LINE
  5
EA
330
1F
100
AcDbEntity
  8
D-5
  6
Continuous
 62
     7
370
     9
100
AcDbLine
 10
1427.825170910796
 20
1110.792912280636
 30
0.0
 11
1511.872424999552
 21
936.1518702473921
 31
0.0
  0
LINE
  5
EB
330
1F
100
AcDbEntity
  8
D-5
  6
Continuous
 62
     7
370
     9
100
AcDbLine
 10
1152.13648925915
 20
862.9971185970746
 30
0.0
 11
1135.709949193694
 21
888.1001360432319
 31
0.0
  0
LINE
  5
EC
330
1F
100
AcDbEntity
  8
D-5
  6
Continuous
 62
     7
370
     9
100
AcDbLine
 10
1152.13648925915
 20
862.9971185970746
 30
0.0
 11
1142.766685495425
 21
891.4964950487215
 31
0.0
  0
TEXT
  5
ED
330
1F
100
AcDbEntity
  8
D-F
  6
Continuous
 62
     2
370
     9
100
AcDbText
 10
1548.122969367142
 20
1150.209822128822
 30
0.0
 40
30.48
  1
φ32
 41
1.093749999999996
  7
ＭＳ ゴシック
100
AcDbText
  0
LINE
  5
EE
330
1F
100
AcDbEntity
  8
D-F
  6
Continuous
 62
     7
370
     9
100
AcDbLine
 10
1671.873480742775
 20
1138.569901309565
 30
0.0
 11
1511.872457991508
 21
1138.569901309565
 31
0.0
  0
LINE
  5
EF
330
1F
100
AcDbEntity
  8
D-F
  6
Continuous
 62
     7
370
     9
100
AcDbLine
 10
1671.873480742775
 20
1027.997164785836
 30
0.0
 11
1671.873480742775
 21
1143.569917805553
 31
0.0
  0
LINE
  5
F0
330
1F
100
AcDbEntity
  8
D-F
  6
Continuous
 62
     7
370
     9
100
AcDbLine
 10
1511.872457991508
 20
1027.997164785836
 30
0.0
 11
1511.872457991508
 21
1143.569917805553
 31
0.0
  0
LWPOLYLINE
  5
F1
330
1F
100
AcDbEntity
  8
D-F
  6
Continuous
 62
     7
370
     9
100
AcDbPolyline
 90
        4
 70
     1
 43
2.0
 10
1672.873480742775
 20
1138.569901309565
 42
0.4142135623731
 10
1671.873480742775
 20
1139.569901309565
 42
0.4142135623731
 10
1670.873480742775
 20
1138.569901309565
 42
0.4142135623731
 10
1671.873480742775
 20
1137.569901309565
 42
0.4142135623731
  0
LWPOLYLINE
  5
F2
330
1F
100
AcDbEntity
  8
D-F
  6
Continuous
 62
     7
370
     9
100
AcDbPolyline
 90
        4
 70
     1
 43
2.0
 10
1512.872457991508
 20
1138.569901309565
 42
0.4142135623731
 10
1511.872457991508
 20
1139.569901309565
 42
0.4142135623731
 10
1510.872457991509
 20
1138.569901309565
 42
0.4142135623731
 10
1511.872457991508
 20
1137.569901309565
 42
0.4142135623731
  0
LINE
  5
F3
330
1F
100
AcDbEntity
  8
D-5
  6
Continuous
 62
     7
370
     9
100
AcDbLine
 10
613.9492746201531
 20
1110.792912280636
 30
0.0
 11
1032.882986237318
 21
1110.792912280636
 31
0.0
  0
LINE
  5
F4
330
1F
100
AcDbEntity
  8
D-5
  6
Continuous
 62
     7
370
     9
100
AcDbLine
 10
1032.882986237318
 20
1110.792912280636
 30
0.0
 11
1152.13648925915
 21
862.9971185970746
 31
0.0
  0
LINE
  5
F5
330
1F
100
AcDbEntity
  8
D-C
  6
Continuous
 62
   211
370
     5
100
AcDbLine
 10
1521.872194055728
 20
796.9973165489521
 30
0.0
 11
1661.872194055747
 21
796.9973165489521
 31
0.0
  0
LINE
  5
F6
330
1F
100
AcDbEntity
  8
D-C
  6
Continuous
 62
   211
370
     5
100
AcDbLine
 10
1521.872194055728
 20
796.9973165489521
 30
0.0
 11
1521.872194055728
 21
776.9973165489566
 31
0.0
  0
LINE
  5
F7
330
1F
100
AcDbEntity
  8
D-C
  6
Continuous
 62
   211
370
     5
100
AcDbLine
 10
1521.872194055728
 20
776.9973165489566
 30
0.0
 11
1661.872194055747
 21
776.9973165489566
 31
0.0
  0
LINE
  5
F8
330
1F
100
AcDbEntity
  8
D-C
  6
Continuous
 62
   211
370
     5
100
AcDbLine
 10
1661.872194055747
 20
796.9973165489521
 30
0.0
 11
1661.872194055747
 21
776.9973165489566
 31
0.0
  0
LINE
  5
F9
330
1F
100
AcDbEntity
  8
D-C
  6
JWW_HOJO
 62
   211
370
     5
100
AcDbLine
 10
1551.372194055735
 20
796.9973165489521
 30
0.0
 11
1551.372194055735
 21
776.9973165489566
 31
0.0
  0
LINE
  5
FA
330
1F
100
AcDbEntity
  8
D-C
  6
JWW_HOJO
 62
   211
370
     5
100
AcDbLine
 10
1632.372194055739
 20
796.9973165489521
 30
0.0
 11
1632.372194055739
 21
776.9973165489566
 31
0.0
  0
LINE
  5
FB
330
1F
100
AcDbEntity
  8
D-C
  6
Continuous
 62
     2
370
     9
100
AcDbLine
 10
1556.873315782901
 20
796.9975145008468
 30
0.0
 11
1556.873315782901
 21
997.9976794606976
 31
0.0
  0
LINE
  5
FC
330
1F
100
AcDbEntity
  8
D-C
  6
Continuous
 62
     2
370
     9
100
AcDbLine
 10
1551.873546726735
 20
796.9975145008468
 30
0.0
 11
1551.873546726735
 21
997.9976794606976
 31
0.0
  0
LINE
  5
FD
330
1F
100
AcDbEntity
  8
D-C
  6
Continuous
 62
     2
370
     9
100
AcDbLine
 10
1631.873315782901
 20
796.9975145008468
 30
0.0
 11
1631.873315782901
 21
971.7754916967644
 31
0.0
  0
LINE
  5
FE
330
1F
100
AcDbEntity
  8
D-C
  6
Continuous
 62
     2
370
     9
100
AcDbLine
 10
1626.872556967443
 20
796.9975145008468
 30
0.0
 11
1626.872556967443
 21
997.9976794606976
 31
0.0
  0
LINE
  5
FF
330
1F
100
AcDbEntity
  8
D-2
  6
Continuous
 62
     3
370
     9
100
AcDbLine
 10
1546.87219405571
 20
812.9973165489603
 30
0.0
 11
1546.87219405571
 21
796.9975145008468
 31
0.0
  0
LINE
  5
100
330
1F
100
AcDbEntity
  8
D-2
  6
Continuous
 62
     3
370
     9
100
AcDbLine
 10
1636.872194055719
 20
812.9973165489603
 30
0.0
 11
1636.872194055719
 21
796.9975145008468
 31
0.0
  0
LINE
  5
101
330
1F
100
AcDbEntity
  8
D-C
  6
JWW_CENTER1
 62
     2
370
     9
100
AcDbLine
 10
1591.872936375172
 20
1040.673223213555
 30
0.0
 11
1591.872936375172
 21
701.3663213508082
 31
0.0
  0
LINE
  5
102
330
1F
100
AcDbEntity
  8
D-2
  6
Continuous
 62
     3
370
     9
100
AcDbLine
 10
1979.873134327044
 20
812.9973165489603
 30
0.0
 11
1631.873315782901
 21
812.9973165489603
 31
0.0
  0
LINE
  5
103
330
1F
100
AcDbEntity
  8
D-5
  6
Continuous
 62
     7
370
     9
100
AcDbLine
 10
1591.872936375172
 20
726.9961618297814
 30
0.0
 11
1584.355291387565
 21
703.1532380610756
 31
0.0
  0
LINE
  5
104
330
1F
100
AcDbEntity
  8
D-5
  6
Continuous
 62
     7
370
     9
100
AcDbLine
 10
1591.872936375172
 20
726.9961618297814
 30
0.0
 11
1578.440446166501
 21
705.9113756844592
 31
0.0
  0
LINE
  5
105
330
1F
100
AcDbEntity
  8
D-3
  6
Continuous
 62
     4
370
     9
100
AcDbLine
 10
2091.872886887201
 20
1012.99711859712
 30
0.0
 11
2091.872886887201
 21
997.9973165489739
 31
0.0
  0
LINE
  5
106
330
1F
100
AcDbEntity
  8
D-3
  6
Continuous
 62
     4
370
     9
100
AcDbLine
 10
2091.872886887201
 20
997.9973165489739
 30
0.0
 11
2046.872738423305
 21
997.9973165489739
 31
0.0
  0
LINE
  5
107
330
1F
100
AcDbEntity
  8
D-3
  6
Continuous
 62
     4
370
     9
100
AcDbLine
 10
2046.872738423305
 20
937.9968711572858
 30
0.0
 11
2046.872738423305
 21
997.9973165489739
 31
0.0
  0
LINE
  5
108
330
1F
100
AcDbEntity
  8
D-3
  6
Continuous
 62
     4
370
     9
100
AcDbLine
 10
2046.872738423305
 20
937.9968711572858
 30
0.0
 11
2031.872936375172
 21
937.9968711572858
 31
0.0
  0
LINE
  5
109
330
1F
100
AcDbEntity
  8
D-3
  6
Continuous
 62
     4
370
     9
100
AcDbLine
 10
2041.872936375172
 20
1012.99711859712
 30
0.0
 11
2091.872886887201
 21
1012.99711859712
 31
0.0
  0
LINE
  5
10A
330
1F
100
AcDbEntity
  8
D-3
  6
Continuous
 62
     4
370
     9
100
AcDbLine
 10
2031.872936375172
 20
1002.99711859712
 30
0.0
 11
2031.872936375172
 21
937.9968711572858
 31
0.0
  0
ARC
  5
10B
330
1F
100
AcDbEntity
  8
D-3
  6
Continuous
 62
     4
370
     9
100
AcDbCircle
 10
2041.872936375172
 20
1002.99711859712
 30
0.0
 40
10.0
100
AcDbArc
 50
90.0
 51
180.0
  0
LINE
  5
10C
330
1F
100
AcDbEntity
  8
D-F
  6
Continuous
 62
     7
370
     9
100
AcDbLine
 10
2106.873230003756
 20
1012.99711859712
 30
0.0
 11
2365.563237432879
 21
1012.99711859712
 31
0.0
  0
LWPOLYLINE
  5
10D
330
1F
100
AcDbEntity
  8
D-F
  6
Continuous
 62
     7
370
     9
100
AcDbPolyline
 90
        4
 70
     1
 43
2.0
 10
2361.563220936891
 20
1012.99711859712
 42
0.4142135623731
 10
2360.563220936891
 20
1013.99711859712
 42
0.4142135623731
 10
2359.563220936891
 20
1012.99711859712
 42
0.4142135623731
 10
2360.563220936891
 20
1011.99711859712
 42
0.4142135623731
  0
TEXT
  5
10E
330
1F
100
AcDbEntity
  8
D-5
  6
Continuous
 62
     7
370
     9
100
AcDbText
 10
2253.321461427578
 20
1191.79120881034
 30
0.0
 40
22.86
  1
（ＳＵＳ３０４）
 41
1.145833333333333
  7
ＭＳ ゴシック
100
AcDbText
  0
TEXT
  5
10F
330
1F
100
AcDbEntity
  8
D-5
  6
Continuous
 62
     7
370
     9
100
AcDbText
 10
2259.070189103257
 20
1275.958800151871
 30
0.0
 40
22.86
  1
ステンレス目地
 41
1.142857142857143
  7
ＭＳ ゴシック
100
AcDbText
  0
TEXT
  5
110
330
1F
100
AcDbEntity
  8
D-5
  6
Continuous
 62
     7
370
     9
100
AcDbText
 10
2259.070189103257
 20
1234.632692261564
 30
0.0
 40
22.86
  1
Ｌ１２×１５×３
 41
1.145833333333333
  7
ＭＳ ゴシック
100
AcDbText
  0
LINE
  5
111
330
1F
100
AcDbEntity
  8
D-5
  6
Continuous
 62
     7
370
     9
100
AcDbLine
 10
2536.190758531809
 20
1222.408901351514
 30
0.0
 11
2254.737035826178
 21
1222.408901351514
 31
0.0
  0
LINE
  5
112
330
1F
100
AcDbEntity
  8
D-5
  6
Continuous
 62
     7
370
     9
100
AcDbLine
 10
2577.959124719859
 20
1109.900864986525
 30
0.0
 11
2276.395552480627
 21
1109.900864986525
 31
0.0
  0
TEXT
  5
113
330
1F
100
AcDbEntity
  8
D-5
  6
Continuous
 62
     7
370
     9
100
AcDbText
 10
2284.72786318387
 20
1078.286237399954
 30
0.0
 40
22.86
  1
（ＳＰＨＣ）
 41
1.138888888888889
  7
ＭＳ ゴシック
100
AcDbText
  0
LINE
  5
114
330
1F
100
AcDbEntity
  8
D-5
  6
Continuous
 62
     7
370
     9
100
AcDbLine
 10
2276.395552480627
 20
1109.900864986525
 30
0.0
 11
2062.872738423308
 21
892.5650640848589
 31
0.0
  0
LINE
  5
115
330
1F
100
AcDbEntity
  8
D-5
  6
Continuous
 62
     7
370
     9
100
AcDbLine
 10
2062.872738423308
 20
892.5650640848589
 30
0.0
 11
2086.510664679642
 21
911.0379314835074
 31
0.0
  0
LINE
  5
116
330
1F
100
AcDbEntity
  8
D-5
  6
Continuous
 62
     7
370
     9
100
AcDbLine
 10
2062.872738423308
 20
892.5650640848589
 30
0.0
 11
2080.924215804009
 21
916.5262704694662
 31
0.0
  0
TEXT
  5
117
330
1F
100
AcDbEntity
  8
D-F
  6
Continuous
 62
     2
370
     9
100
AcDbText
 10
1920.900390648286
 20
1150.209822128832
 30
0.0
 40
30.48
  1
12
 41
1.0625
  7
ＭＳ ゴシック
100
AcDbText
  0
TEXT
  5
118
330
1F
100
AcDbEntity
  8
D-F
  6
Continuous
 62
     2
370
     9
100
AcDbText
 10
2019.372556967437
 20
1150.209822128832
 30
0.0
 40
30.48
  1
1
 41
0.9999999999999998
  7
ＭＳ ゴシック
100
AcDbText
  0
TEXT
  5
119
330
1F
100
AcDbEntity
  8
D-F
  6
Continuous
 62
     2
370
     9
100
AcDbText
 10
2098.518139011884
 20
1150.209822128832
 30
0.0
 40
30.48
  1
12
 41
1.0625
  7
ＭＳ ゴシック
100
AcDbText
  0
LINE
  5
11A
330
1F
100
AcDbEntity
  8
D-F
  6
Continuous
 62
     7
370
     9
100
AcDbLine
 10
2141.116380869464
 20
1138.569901309575
 30
0.0
 11
2031.872936375165
 21
1138.569901309575
 31
0.0
  0
LINE
  5
11B
330
1F
100
AcDbEntity
  8
D-F
  6
Continuous
 62
     7
370
     9
100
AcDbLine
 10
2031.872936375165
 20
1027.997164785846
 30
0.0
 11
2031.872936375165
 21
1143.569917805563
 31
0.0
  0
LINE
  5
11C
330
1F
100
AcDbEntity
  8
D-F
  6
Continuous
 62
     7
370
     9
100
AcDbLine
 10
2031.872936375165
 20
1138.569901309575
 30
0.0
 11
2026.872177559709
 21
1138.569901309575
 31
0.0
  0
LINE
  5
11D
330
1F
100
AcDbEntity
  8
D-F
  6
Continuous
 62
     7
370
     9
100
AcDbLine
 10
2026.872177559709
 20
1027.997164785846
 30
0.0
 11
2026.872177559709
 21
1143.569917805563
 31
0.0
  0
LINE
  5
11E
330
1F
100
AcDbEntity
  8
D-F
  6
Continuous
 62
     7
370
     9
100
AcDbLine
 10
2026.872177559709
 20
1138.569901309575
 30
0.0
 11
1912.262753071745
 21
1138.569901309575
 31
0.0
  0
LINE
  5
11F
330
1F
100
AcDbEntity
  8
D-F
  6
Continuous
 62
     7
370
     9
100
AcDbLine
 10
1966.872474487496
 20
1027.997164785846
 30
0.0
 11
1966.872474487496
 21
1143.569917805563
 31
0.0
  0
LWPOLYLINE
  5
120
330
1F
100
AcDbEntity
  8
D-F
  6
Continuous
 62
     7
370
     9
100
AcDbPolyline
 90
        4
 70
     1
 43
2.0
 10
2092.8728868872
 20
1138.569901309575
 42
0.4142135623731
 10
2091.8728868872
 20
1139.569901309575
 42
0.4142135623731
 10
2090.8728868872
 20
1138.569901309575
 42
0.4142135623731
 10
2091.8728868872
 20
1137.569901309575
 42
0.4142135623731
  0
LWPOLYLINE
  5
121
330
1F
100
AcDbEntity
  8
D-F
  6
Continuous
 62
     7
370
     9
100
AcDbPolyline
 90
        4
 70
     1
 43
2.0
 10
2032.872936375165
 20
1138.569901309575
 42
0.4142135623731
 10
2031.872936375165
 20
1139.569901309575
 42
0.4142135623731
 10
2030.872936375165
 20
1138.569901309575
 42
0.4142135623731
 10
2031.872936375165
 20
1137.569901309575
 42
0.4142135623731
  0
LWPOLYLINE
  5
122
330
1F
100
AcDbEntity
  8
D-F
  6
Continuous
 62
     7
370
     9
100
AcDbPolyline
 90
        4
 70
     1
 43
2.0
 10
2027.872177559709
 20
1138.569901309575
 42
0.4142135623731
 10
2026.872177559709
 20
1139.569901309575
 42
0.4142135623731
 10
2025.872177559709
 20
1138.569901309575
 42
0.4142135623731
 10
2026.872177559709
 20
1137.569901309575
 42
0.4142135623731
  0
LWPOLYLINE
  5
123
330
1F
100
AcDbEntity
  8
D-F
  6
Continuous
 62
     7
370
     9
100
AcDbPolyline
 90
        4
 70
     1
 43
2.0
 10
1967.872474487496
 20
1138.569901309575
 42
0.4142135623731
 10
1966.872474487496
 20
1139.569901309575
 42
0.4142135623731
 10
1965.872474487496
 20
1138.569901309575
 42
0.4142135623731
 10
1966.872474487496
 20
1137.569901309575
 42
0.4142135623731
  0
LINE
  5
124
330
1F
100
AcDbEntity
  8
D-F
  6
Continuous
 62
     7
370
     9
100
AcDbLine
 10
2091.872886887201
 20
1027.997164785847
 30
0.0
 11
2091.872886887201
 21
1378.021661763565
 31
0.0
  0
LWPOLYLINE
  5
125
330
1F
100
AcDbEntity
  8
D-F
  6
Continuous
 62
     7
370
     9
100
AcDbPolyline
 90
        4
 70
     1
 43
2.0
 10
2092.872886887201
 20
1373.021645267576
 42
0.4142135623731
 10
2091.872886887201
 20
1374.021645267576
 42
0.4142135623731
 10
2090.872886887201
 20
1373.021645267576
 42
0.4142135623731
 10
2091.872886887201
 20
1372.021645267576
 42
0.4142135623731
  0
LINE
  5
126
330
1F
100
AcDbEntity
  8
D-F
  6
Continuous
 62
     7
370
     9
100
AcDbLine
 10
2091.872886887201
 20
1373.021645267576
 30
0.0
 11
926.8729363751721
 21
1373.021645267576
 31
0.0
  0
LINE
  5
127
330
1F
100
AcDbEntity
  8
D-F
  6
Continuous
 62
     7
370
     9
100
AcDbLine
 10
2091.873134327024
 20
1265.20069759012
 30
0.0
 11
1591.872474487496
 21
1265.20069759012
 31
0.0
  0
LINE
  5
128
330
1F
100
AcDbEntity
  8
D-F
  6
Continuous
 62
     7
370
     9
100
AcDbLine
 10
2091.873134327024
 20
1265.021503339895
 30
0.0
 11
2091.873134327024
 21
1260.200681094132
 31
0.0
  0
LWPOLYLINE
  5
129
330
1F
100
AcDbEntity
  8
D-F
  6
Continuous
 62
     7
370
     9
100
AcDbPolyline
 90
        4
 70
     1
 43
2.0
 10
2092.873134327024
 20
1265.20069759012
 42
0.4142135623731
 10
2091.873134327024
 20
1266.20069759012
 42
0.4142135623731
 10
2090.873134327024
 20
1265.20069759012
 42
0.4142135623731
 10
2091.873134327024
 20
1264.20069759012
 42
0.4142135623731
  0
LWPOLYLINE
  5
12A
330
1F
100
AcDbEntity
  8
D-F
  6
Continuous
 62
     7
370
     9
100
AcDbPolyline
 90
        4
 70
     1
 43
2.0
 10
1592.872474487496
 20
1265.20069759012
 42
0.4142135623731
 10
1591.872474487496
 20
1266.20069759012
 42
0.4142135623731
 10
1590.872474487496
 20
1265.20069759012
 42
0.4142135623731
 10
1591.872474487496
 20
1264.20069759012
 42
0.4142135623731
  0
TEXT
  5
12B
330
1F
100
AcDbEntity
  8
D-F
  6
Continuous
 62
     2
370
     9
100
AcDbText
 10
1809.37280440726
 20
1276.840618409377
 30
0.0
 40
30.48
  1
100
 41
1.083333333333333
  7
ＭＳ ゴシック
100
AcDbText
  0
LINE
  5
12C
330
1F
100
AcDbEntity
  8
D-F
  6
Continuous
 62
     7
370
     9
100
AcDbLine
 10
1591.872474487496
 20
1205.284824702023
 30
0.0
 11
1591.872474487496
 21
1270.200714086108
 31
0.0
  0
LINE
  5
12D
330
1F
100
AcDbEntity
  8
D-5
  6
Continuous
 62
     7
370
     9
100
AcDbLine
 10
2254.737035826178
 20
1222.408901351514
 30
0.0
 11
2008.083811365601
 21
1012.997115297882
 31
0.0
  0
LINE
  5
12E
330
1F
100
AcDbEntity
  8
D-5
  6
Continuous
 62
     7
370
     9
100
AcDbLine
 10
2254.737035826178
 20
1222.408901351514
 30
0.0
 11
2048.999215966618
 21
1012.997115297882
 31
0.0
  0
LINE
  5
12F
330
1F
100
AcDbEntity
  8
D-5
  6
Continuous
 62
     7
370
     9
100
AcDbLine
 10
2048.999215966618
 20
1012.997115297882
 30
0.0
 11
2064.042072543898
 21
1032.964766665069
 31
0.0
  0
LINE
  5
130
330
1F
100
AcDbEntity
  8
D-5
  6
Continuous
 62
     7
370
     9
100
AcDbLine
 10
2048.999215966618
 20
1012.997115297882
 30
0.0
 11
2068.697652806778
 21
1028.391088983481
 31
0.0
  0
LINE
  5
131
330
1F
100
AcDbEntity
  8
D-5
  6
Continuous
 62
     7
370
     9
100
AcDbLine
 10
2008.083811365601
 20
1012.997115297882
 30
0.0
 11
2024.866664775652
 21
1031.526398976091
 31
0.0
  0
LINE
  5
132
330
1F
100
AcDbEntity
  8
D-5
  6
Continuous
 62
     7
370
     9
100
AcDbLine
 10
2008.083811365601
 20
1012.997115297882
 30
0.0
 11
2029.090462548034
 21
1026.551373902189
 31
0.0
  0
LINE
  5
133
330
1F
100
AcDbEntity
  8
D-5
  6
Continuous
 62
     7
370
     9
100
AcDbLine
 10
1323.504724670921
 20
796.9973165489521
 30
0.0
 11
1310.07223446225
 21
775.91253040363
 31
0.0
  0
LINE
  5
134
330
1F
100
AcDbEntity
  8
D-5
  6
Continuous
 62
     7
370
     9
100
AcDbLine
 10
1323.504724670921
 20
796.9973165489521
 30
0.0
 11
1315.987079683314
 21
773.1543927802463
 31
0.0
  0
TEXT
  5
135
330
1F
100
AcDbEntity
  8
D-5
  6
Continuous
 62
     7
370
     9
100
AcDbText
 10
2298.341196549988
 20
1126.450398875883
 30
0.0
 40
22.86
  1
受枠：ｔ＝３．２
 41
1.145833333333335
  7
ＭＳ ゴシック
100
AcDbText
  0
TEXT
  5
136
330
1F
100
AcDbEntity
  8
D-5
  6
Continuous
 62
     7
370
     9
100
AcDbText
 10
613.5512083720268
 20
1124.027139512967
 30
0.0
 40
22.86
  1
モルタル止め：ｔ＝１．０
 41
1.152777777777778
  7
ＭＳ ゴシック
100
AcDbText
  0
TEXT
  5
137
330
1F
100
AcDbEntity
  8
D-5
  6
Continuous
 62
     7
370
     9
100
AcDbText
 10
599.9907150834124
 20
1079.11790937734
 30
0.0
 40
22.86
  1
（ＳＵＳ３０４）
 41
1.145833333333333
  7
ＭＳ ゴシック
100
AcDbText
  0
ARC
  5
138
330
1F
100
AcDbEntity
  8
D-E
  6
Continuous
 62
     3
370
     9
100
AcDbCircle
 10
2110.37264782423
 20
813.4970246988453
 30
0.0
 40
22.5
100
AcDbArc
 50
180.0
 51
270.0
  0
LINE
  5
139
330
1F
100
AcDbEntity
  8
D-E
  6
Continuous
 62
     3
370
     9
100
AcDbLine
 10
2262.872662129363
 20
765.9971152978962
 30
0.0
 11
2062.872738423308
 21
765.9971152978962
 31
0.0
  0
LINE
  5
13A
330
1F
100
AcDbEntity
  8
D-E
  6
Continuous
 62
     3
370
     9
100
AcDbLine
 10
2110.37264782423
 20
790.9970747667378
 30
0.0
 11
2247.872604908904
 21
790.9970747667378
 31
0.0
  0
ARC
  5
13B
330
1F
100
AcDbEntity
  8
D-E
  6
Continuous
 62
     3
370
     9
100
AcDbCircle
 10
2247.872604908904
 20
775.9970246988453
 30
0.0
 40
15.00000000000001
100
AcDbArc
 50
0.0
 51
90.0
  0
LINE
  5
13C
330
1F
100
AcDbEntity
  8
D-E
  6
Continuous
 62
     3
370
     9
100
AcDbLine
 10
2262.872662129363
 20
775.9970246988453
 30
0.0
 11
2262.872662129363
 21
765.9971152978962
 31
0.0
  0
LINE
  5
13D
330
1F
100
AcDbEntity
  8
D-E
  6
Continuous
 62
     3
370
     9
100
AcDbLine
 10
2072.87264782423
 20
965.9970390039509
 30
0.0
 11
2062.872738423308
 21
965.9970390039509
 31
0.0
  0
LINE
  5
13E
330
1F
100
AcDbEntity
  8
D-E
  6
Continuous
 62
     3
370
     9
100
AcDbLine
 10
2087.87269789215
 20
813.4970246988453
 30
0.0
 11
2087.87269789215
 21
950.996981783492
 31
0.0
  0
ARC
  5
13F
330
1F
100
AcDbEntity
  8
D-E
  6
Continuous
 62
     3
370
     9
100
AcDbCircle
 10
2072.87264782423
 20
950.996981783492
 30
0.0
 40
15.00000000000001
100
AcDbArc
 50
0.0
 51
90.0
  0
LINE
  5
140
330
1F
100
AcDbEntity
  8
D-E
  6
Continuous
 62
     3
370
     9
100
AcDbLine
 10
2062.872738423308
 20
765.9971152978962
 30
0.0
 11
2062.872738423308
 21
965.9970390039509
 31
0.0
  0
LINE
  5
141
330
1F
100
AcDbEntity
  8
D-E
  6
JWW_DASHED1
 62
     3
370
     9
100
AcDbLine
 10
2222.872662129363
 20
790.9970747667378
 30
0.0
 11
2222.872662129363
 21
765.9971152978962
 31
0.0
  0
LINE
  5
142
330
1F
100
AcDbEntity
  8
D-E
  6
JWW_DASHED1
 62
     3
370
     9
100
AcDbLine
 10
2152.872662129381
 20
790.9970747667378
 30
0.0
 11
2152.872662129381
 21
765.9971152978962
 31
0.0
  0
LINE
  5
143
330
1F
100
AcDbEntity
  8
D-7
  6
JWW_CENTER1
 62
     4
370
     9
100
AcDbLine
 10
2187.872662129363
 20
807.0438549256583
 30
0.0
 11
2187.872662129363
 21
748.5763510010113
 31
0.0
  0
TEXT
  5
144
330
1F
100
AcDbEntity
  8
D-5
  6
Continuous
 62
     7
370
     9
100
AcDbText
 10
2245.398951509081
 20
701.2390732226904
 30
0.0
 40
22.86
  1
Φ１４
 41
1.111111111111111
  7
ＭＳ ゴシック
100
AcDbText
  0
LINE
  5
145
330
1F
100
AcDbEntity
  8
D-5
  6
Continuous
 62
     7
370
     9
100
AcDbLine
 10
2187.872662129363
 20
765.9971152978962
 30
0.0
 11
2199.089604169059
 21
738.1730021222202
 31
0.0
  0
LINE
  5
146
330
1F
100
AcDbEntity
  8
D-5
  6
Continuous
 62
     7
370
     9
100
AcDbLine
 10
2187.872662129363
 20
765.9971152978962
 30
0.0
 11
2205.90879824106
 21
742.0241555217135
 31
0.0
  0
LINE
  5
147
330
1F
100
AcDbEntity
  8
D-5
  6
Continuous
 62
     7
370
     9
100
AcDbLine
 10
2230.201357944414
 20
691.0477096065406
 30
0.0
 11
2187.872662129363
 21
765.9971152978962
 31
0.0
  0
LINE
  5
148
330
1F
100
AcDbEntity
  8
D-5
  6
Continuous
 62
     7
370
     9
100
AcDbLine
 10
2230.201357944414
 20
691.0477096065406
 30
0.0
 11
2346.345843589814
 21
691.0477096065406
 31
0.0
  0
LINE
  5
149
330
1F
100
AcDbEntity
  8
D-6
  6
Continuous
 62
     6
370
     9
100
AcDbLine
 10
1975.760265476738
 20
781.9973165489521
 30
0.0
 11
1986.872540471459
 21
793.1093441038511
 31
0.0
  0
LINE
  5
14A
330
1F
100
AcDbEntity
  8
D-6
  6
Continuous
 62
     6
370
     9
100
AcDbLine
 10
1961.618584733494
 20
781.9973165489521
 30
0.0
 11
1976.618437764006
 21
796.9973165489521
 31
0.0
  0
LINE
  5
14B
330
1F
100
AcDbEntity
  8
D-6
  6
Continuous
 62
     6
370
     9
100
AcDbLine
 10
1947.476161670784
 20
781.9973165489521
 30
0.0
 11
1962.476409111831
 21
796.9973165489521
 31
0.0
  0
LINE
  5
14C
330
1F
100
AcDbEntity
  8
D-6
  6
Continuous
 62
     6
370
     9
100
AcDbLine
 10
1933.333986047895
 20
781.9973165489521
 30
0.0
 11
1948.333862327372
 21
796.9973165489521
 31
0.0
  0
LINE
  5
14D
330
1F
100
AcDbEntity
  8
D-6
  6
Continuous
 62
     6
370
     9
100
AcDbLine
 10
1919.191562985184
 20
781.9973165489521
 30
0.0
 11
1934.191934146754
 21
796.9973165489521
 31
0.0
  0
LINE
  5
14E
330
1F
100
AcDbEntity
  8
D-6
  6
Continuous
 62
     6
370
     9
100
AcDbLine
 10
1905.049634802118
 20
781.9973165489521
 30
0.0
 11
1920.049634802118
 21
796.9973165489521
 31
0.0
  0
LINE
  5
14F
330
1F
100
AcDbEntity
  8
D-6
  6
Continuous
 62
     6
370
     9
100
AcDbLine
 10
1890.907459179229
 20
781.9973165489521
 30
0.0
 11
1905.9078303408
 21
796.9973165489521
 31
0.0
  0
LINE
  5
150
330
1F
100
AcDbEntity
  8
D-6
  6
Continuous
 62
     6
370
     9
100
AcDbLine
 10
1876.765283556341
 20
781.9973165489521
 30
0.0
 11
1891.765407276864
 21
796.9973165489521
 31
0.0
  0
LINE
  5
151
330
1F
100
AcDbEntity
  8
D-6
  6
Continuous
 62
     6
370
     9
100
AcDbLine
 10
1862.62385025292
 20
781.9973165489521
 30
0.0
 11
1877.623973973444
 21
796.9973165489521
 31
0.0
  0
LINE
  5
152
330
1F
100
AcDbEntity
  8
D-6
  6
Continuous
 62
     6
370
     9
100
AcDbLine
 10
1861.873117831045
 20
795.3881411504087
 30
0.0
 11
1863.482257269559
 21
796.9973165489521
 31
0.0
  0
LINE
  5
153
330
1F
100
AcDbEntity
  8
D-6
  6
Continuous
 62
     6
370
     9
100
AcDbLine
 10
1986.872293031637
 20
796.9973165489521
 30
0.0
 11
1986.872293031637
 21
781.9973165489521
 31
0.0
  0
LINE
  5
154
330
1F
100
AcDbEntity
  8
D-6
  6
Continuous
 62
     6
370
     9
100
AcDbLine
 10
1861.872870391222
 20
796.9973165489521
 30
0.0
 11
1986.872293031637
 21
796.9973165489521
 31
0.0
  0
LINE
  5
155
330
1F
100
AcDbEntity
  8
D-6
  6
Continuous
 62
     6
370
     9
100
AcDbLine
 10
1861.872870391222
 20
796.9973165489521
 30
0.0
 11
1861.872870391222
 21
781.9973165489521
 31
0.0
  0
LINE
  5
156
330
1F
100
AcDbEntity
  8
D-5
  6
Continuous
 62
     7
370
     9
100
AcDbLine
 10
2090.153815195909
 20
765.9971152978962
 30
0.0
 11
2108.189951307606
 21
742.0241555217135
 31
0.0
  0
LINE
  5
157
330
1F
100
AcDbEntity
  8
D-5
  6
Continuous
 62
     7
370
     9
100
AcDbLine
 10
2090.153815195909
 20
765.9971152978962
 30
0.0
 11
2101.370757235605
 21
738.1730021222202
 31
0.0
  0
LINE
  5
158
330
1F
100
AcDbEntity
  8
D-5
  6
Continuous
 62
     7
370
     9
100
AcDbLine
 10
2181.46545053234
 20
604.3159515059792
 30
0.0
 11
2090.153815195909
 21
765.9971152978962
 31
0.0
  0
TEXT
  5
159
330
1F
100
AcDbEntity
  8
D-5
  6
Continuous
 62
     7
370
     9
100
AcDbText
 10
2185.246331142295
 20
574.2692263555355
 30
0.0
 40
22.86
  1
（ＳＳ４００）
 41
1.142857142857143
  7
ＭＳ ゴシック
100
AcDbText
  0
LINE
  5
15A
330
1F
100
AcDbEntity
  8
D-5
  6
Continuous
 62
     7
370
     9
100
AcDbLine
 10
2181.46545053234
 20
604.3159515059792
 30
0.0
 11
2635.246331142294
 21
604.3159515059792
 31
0.0
  0
TEXT
  5
15B
330
1F
100
AcDbEntity
  8
D-F
  6
Continuous
 62
     2
370
   211
100
AcDbText
 10
2204.122662129363
 20
894.1268690299115
 30
0.0
 40
30.48
  1
15
 41
1.0625
  7
ＭＳ ゴシック
100
AcDbText
  0
LWPOLYLINE
  5
15C
330
1F
100
AcDbEntity
  8
D-F
  6
Continuous
 62
     7
370
     9
100
AcDbPolyline
 90
        4
 70
     1
 43
2.0
 10
2361.563220936891
 20
765.9966532813521
 42
0.4142135623731
 10
2360.563220936891
 20
766.9966532813521
 42
0.4142135623731
 10
2359.563220936891
 20
765.9966532813521
 42
0.4142135623731
 10
2360.563220936891
 20
764.9966532813522
 42
0.4142135623731
  0
LINE
  5
15D
330
1F
100
AcDbEntity
  8
D-F
  6
Continuous
 62
     7
370
     9
100
AcDbLine
 10
2187.872662129363
 20
882.4868690299113
 30
0.0
 11
2262.872662129363
 21
882.4868690299113
 31
0.0
  0
LWPOLYLINE
  5
15E
330
1F
100
AcDbEntity
  8
D-F
  6
Continuous
 62
     7
370
     9
100
AcDbPolyline
 90
        4
 70
     1
 43
2.0
 10
2188.872662129363
 20
882.4868690299113
 42
0.4142135623731
 10
2187.872662129363
 20
883.4868690299112
 42
0.4142135623731
 10
2186.872662129363
 20
882.4868690299113
 42
0.4142135623731
 10
2187.872662129363
 20
881.4868690299113
 42
0.4142135623731
  0
LWPOLYLINE
  5
15F
330
1F
100
AcDbEntity
  8
D-F
  6
Continuous
 62
     7
370
     9
100
AcDbPolyline
 90
        4
 70
     1
 43
2.0
 10
2263.872662129363
 20
882.4868690299113
 42
0.4142135623731
 10
2262.872662129363
 20
883.4868690299112
 42
0.4142135623731
 10
2261.872662129363
 20
882.4868690299113
 42
0.4142135623731
 10
2262.872662129363
 20
881.4868690299113
 42
0.4142135623731
  0
LINE
  5
160
330
1F
100
AcDbEntity
  8
D-F
  6
Continuous
 62
     7
370
     9
100
AcDbLine
 10
2187.872662129363
 20
885.4868690299113
 30
0.0
 11
2187.872662129363
 21
827.0438549256537
 31
0.0
  0
LINE
  5
161
330
1F
100
AcDbEntity
  8
D-F
  6
Continuous
 62
     7
370
     9
100
AcDbLine
 10
2262.872662129363
 20
885.4868690299113
 30
0.0
 11
2262.872662129363
 21
785.9971152978962
 31
0.0
  0
LINE
  5
162
330
1F
100
AcDbEntity
  8
D-F
  6
Continuous
 62
     7
370
     9
100
AcDbLine
 10
2365.563237432879
 20
765.9966532813521
 30
0.0
 11
2268.889155588591
 21
765.9966532813521
 31
0.0
  0
ARC
  5
163
330
1F
100
AcDbEntity
  8
D-1
  6
Continuous
 62
     2
370
     9
100
AcDbCircle
 10
2024.372738423305
 20
804.4971152978908
 30
0.0
 40
22.5
100
AcDbArc
 50
270.0
 51
0.0
  0
LINE
  5
164
330
1F
100
AcDbEntity
  8
D-1
  6
Continuous
 62
     2
370
     9
100
AcDbLine
 10
1861.872870391222
 20
781.9971152978999
 30
0.0
 11
2024.372738423305
 21
781.9971152978999
 31
0.0
  0
ARC
  5
165
330
1F
100
AcDbEntity
  8
D-1
  6
Continuous
 62
     2
370
     9
100
AcDbCircle
 10
2024.372738423305
 20
804.4971152978908
 30
0.0
 40
38.5
100
AcDbArc
 50
270.0
 51
0.0
  0
LINE
  5
166
330
1F
100
AcDbEntity
  8
D-1
  6
Continuous
 62
     2
370
     9
100
AcDbLine
 10
1861.872870391222
 20
781.9971152978999
 30
0.0
 11
1861.872870391222
 21
765.9971152978962
 31
0.0
  0
LINE
  5
167
330
1F
100
AcDbEntity
  8
D-1
  6
Continuous
 62
     2
370
     9
100
AcDbLine
 10
1861.872870391222
 20
765.9971152978962
 30
0.0
 11
2024.372738423305
 21
765.9971152978962
 31
0.0
  0
LINE
  5
168
330
1F
100
AcDbEntity
  8
D-1
  6
Continuous
 62
     2
370
     9
100
AcDbLine
 10
2046.872738423305
 20
804.4971152978908
 30
0.0
 11
2046.872738423305
 21
997.9973165489739
 31
0.0
  0
LINE
  5
169
330
1F
100
AcDbEntity
  8
D-1
  6
Continuous
 62
     2
370
     9
100
AcDbLine
 10
2062.872738423308
 20
804.4971152978908
 30
0.0
 11
2062.872738423308
 21
997.9973165489739
 31
0.0
  0
TEXT
  5
16A
330
1F
100
AcDbEntity
  8
D-5
  6
Continuous
 62
     7
370
     9
100
AcDbText
 10
2185.246331142295
 20
614.5073151221291
 30
0.0
 40
22.86
  1
アンカー：Ｌ４０×４０×５
 41
1.153846153846153
  7
ＭＳ ゴシック
100
AcDbText
  0
TEXT
  5
16B
330
1F
100
AcDbEntity
  8
D-F
  6
Continuous
 62
     2
370
   211
100
AcDbText
 10
858.4635176757232
 20
830.747217573032
 30
0.0
 40
30.48
  1
10
 50
90.0
 41
1.0625
  7
ＭＳ ゴシック
100
AcDbText
  0
TEXT
  5
16C
330
1F
100
AcDbEntity
  8
D-F
  6
Continuous
 62
     2
370
   211
100
AcDbText
 10
858.4635176757232
 20
930.7472175730321
 30
0.0
 40
30.48
  1
30
 50
90.0
 41
1.0625
  7
ＭＳ ゴシック
100
AcDbText
  0
LWPOLYLINE
  5
16D
330
1F
100
AcDbEntity
  8
D-F
  6
Continuous
 62
     7
370
     9
100
AcDbPolyline
 90
        4
 70
     1
 43
2.0
 10
870.1035176757232
 20
812.9973165489648
 42
0.4142135623731
 10
869.1035176757232
 20
813.9973165489647
 42
0.4142135623731
 10
868.1035176757233
 20
812.9973165489648
 42
0.4142135623731
 10
869.1035176757232
 20
811.9973165489648
 42
0.4142135623731
  0
LWPOLYLINE
  5
16E
330
1F
100
AcDbEntity
  8
D-F
  6
Continuous
 62
     7
370
     9
100
AcDbPolyline
 90
        4
 70
     1
 43
2.0
 10
870.1035176757232
 20
1012.997118597125
 42
0.4142135623731
 10
869.1035176757232
 20
1013.997118597125
 42
0.4142135623731
 10
868.1035176757233
 20
1012.997118597125
 42
0.4142135623731
 10
869.1035176757232
 20
1011.997118597125
 42
0.4142135623731
  0
LWPOLYLINE
  5
16F
330
1F
100
AcDbEntity
  8
D-F
  6
Continuous
 62
     7
370
     9
100
AcDbPolyline
 90
        4
 70
     1
 43
2.0
 10
870.1035176757232
 20
862.9971185970796
 42
0.4142135623731
 10
869.1035176757232
 20
863.9971185970796
 42
0.4142135623731
 10
868.1035176757233
 20
862.9971185970796
 42
0.4142135623731
 10
869.1035176757232
 20
861.9971185970797
 42
0.4142135623731
  0
LINE
  5
170
330
1F
100
AcDbEntity
  8
D-F
  6
Continuous
 62
     7
370
     9
100
AcDbLine
 10
866.1035176757231
 20
862.9971185970796
 30
0.0
 11
996.8729363751721
 21
862.9971185970796
 31
0.0
  0
LINE
  5
171
330
1F
100
AcDbEntity
  8
D-F
  6
Continuous
 62
     7
370
     9
100
AcDbLine
 10
869.1035176757232
 20
812.9973165489648
 30
0.0
 11
869.1035176757232
 21
862.9971185970796
 31
0.0
  0
LINE
  5
172
330
1F
100
AcDbEntity
  8
D-F
  6
Continuous
 62
     7
370
     9
100
AcDbLine
 10
869.1035176757232
 20
862.9971185970796
 30
0.0
 11
869.1035176757232
 21
1012.997118597125
 31
0.0
  0
LWPOLYLINE
  5
173
330
1F
100
AcDbEntity
  8
D-F
  6
Continuous
 62
     7
370
     9
100
AcDbPolyline
 90
        4
 70
     1
 43
2.0
 10
779.4838308154737
 20
796.9973165489566
 42
0.4142135623731
 10
778.4838308154737
 20
797.9973165489565
 42
0.4142135623731
 10
777.4838308154738
 20
796.9973165489566
 42
0.4142135623731
 10
778.4838308154737
 20
795.9973165489566
 42
0.4142135623731
  0
LWPOLYLINE
  5
174
330
1F
100
AcDbEntity
  8
D-F
  6
Continuous
 62
     7
370
     9
100
AcDbPolyline
 90
        4
 70
     1
 43
2.0
 10
779.4838308154737
 20
812.9973165489648
 42
0.4142135623731
 10
778.4838308154737
 20
813.9973165489647
 42
0.4142135623731
 10
777.4838308154738
 20
812.9973165489648
 42
0.4142135623731
 10
778.4838308154737
 20
811.9973165489648
 42
0.4142135623731
  0
LINE
  5
175
330
1F
100
AcDbEntity
  8
D-F
  6
Continuous
 62
     7
370
     9
100
AcDbLine
 10
775.4838308154741
 20
812.9973165489648
 30
0.0
 11
906.8729363751721
 21
812.9973165489648
 31
0.0
  0
LWPOLYLINE
  5
176
330
1F
100
AcDbEntity
  8
D-F
  6
Continuous
 62
     7
370
     9
100
AcDbPolyline
 90
        4
 70
     1
 43
2.0
 10
779.4838308154737
 20
1012.997118597125
 42
0.4142135623731
 10
778.4838308154737
 20
1013.997118597125
 42
0.4142135623731
 10
777.4838308154738
 20
1012.997118597125
 42
0.4142135623731
 10
778.4838308154737
 20
1011.997118597125
 42
0.4142135623731
  0
LINE
  5
177
330
1F
100
AcDbEntity
  8
D-F
  6
Continuous
 62
     7
370
     9
100
AcDbLine
 10
778.4838308154737
 20
812.9973165489648
 30
0.0
 11
778.4838308154737
 21
1012.997118597125
 31
0.0
  0
TEXT
  5
178
330
1F
100
AcDbEntity
  8
D-F
  6
Continuous
 62
     2
370
   211
100
AcDbText
 10
767.8438308154737
 20
891.7472175730447
 30
0.0
 40
30.48
  1
40
 50
90.0
 41
1.0625
  7
ＭＳ ゴシック
100
AcDbText
  0
LINE
  5
179
330
1F
100
AcDbEntity
  8
D-F
  6
Continuous
 62
     7
370
     9
100
AcDbLine
 10
778.4838308154737
 20
796.9973165489566
 30
0.0
 11
778.4838308154737
 21
812.9973165489648
 31
0.0
  0
TEXT
  5
17A
330
1F
100
AcDbEntity
  8
D-F
  6
Continuous
 62
     2
370
   211
100
AcDbText
 10
767.8438308154737
 20
707.6566678848496
 30
0.0
 40
30.48
  1
3.2
 50
90.0
 41
1.083333333333333
  7
ＭＳ ゴシック
100
AcDbText
  0
LINE
  5
17B
330
1F
100
AcDbEntity
  8
D-F
  6
Continuous
 62
     7
370
     9
100
AcDbLine
 10
778.4838308154737
 20
796.9973165489566
 30
0.0
 11
778.4838308154737
 21
711.1208468050529
 31
0.0
  0
LWPOLYLINE
  5
17C
330
1F
100
AcDbEntity
  8
D-F
  6
Continuous
 62
     7
370
     9
100
AcDbPolyline
 90
        4
 70
     1
 43
2.0
 10
689.0571563765501
 20
1012.997118597125
 42
0.4142135623731
 10
688.0571563765501
 20
1013.997118597125
 42
0.4142135623731
 10
687.0571563765502
 20
1012.997118597125
 42
0.4142135623731
 10
688.0571563765501
 20
1011.997118597125
 42
0.4142135623731
  0
LINE
  5
17D
330
1F
100
AcDbEntity
  8
D-F
  6
Continuous
 62
     7
370
     9
100
AcDbLine
 10
685.05715637655
 20
1012.997118597125
 30
0.0
 11
906.8729363751721
 21
1012.997118597125
 31
0.0
  0
LWPOLYLINE
  5
17E
330
1F
100
AcDbEntity
  8
D-F
  6
Continuous
 62
     7
370
     9
100
AcDbPolyline
 90
        4
 70
     1
 43
2.0
 10
689.0571563765501
 20
796.9973165489566
 42
0.4142135623731
 10
688.0571563765501
 20
797.9973165489565
 42
0.4142135623731
 10
687.0571563765502
 20
796.9973165489566
 42
0.4142135623731
 10
688.0571563765501
 20
795.9973165489566
 42
0.4142135623731
  0
LINE
  5
17F
330
1F
100
AcDbEntity
  8
D-F
  6
Continuous
 62
     7
370
     9
100
AcDbLine
 10
685.05715637655
 20
796.9973165489566
 30
0.0
 11
906.8729363751721
 21
796.9973165489566
 31
0.0
  0
LINE
  5
180
330
1F
100
AcDbEntity
  8
D-F
  6
Continuous
 62
     7
370
     9
100
AcDbLine
 10
2360.563220936891
 20
765.9966532813521
 30
0.0
 11
2360.563220936891
 21
1012.99711859712
 31
0.0
  0
TEXT
  5
181
330
1F
100
AcDbEntity
  8
D-F
  6
Continuous
 62
     2
370
   211
100
AcDbText
 10
2348.923300117634
 20
845.7468859392361
 30
0.0
 40
30.48
  1
49.4
 50
90.0
 41
1.09375
  7
ＭＳ ゴシック
100
AcDbText
  0
LINE
  5
182
330
1F
100
AcDbEntity
  8
D-F
  6
Continuous
 62
     7
370
     9
100
AcDbLine
 10
688.0571563765501
 20
796.9973165489566
 30
0.0
 11
688.0571563765501
 21
1012.997118597125
 31
0.0
  0
TEXT
  5
183
330
1F
100
AcDbEntity
  8
D-F
  6
Continuous
 62
     2
370
   211
100
AcDbText
 10
677.4171563765501
 20
861.2472175730406
 30
0.0
 40
30.48
  1
43.2
 50
90.0
 41
1.09375
  7
ＭＳ ゴシック
100
AcDbText
  0
LINE
  5
184
330
1F
100
AcDbEntity
  8
D-8
  6
JWW_CENTER1
 62
    30
370
     5
100
AcDbLine
 10
1781.872375511586
 20
796.9973165489521
 30
0.0
 11
1811.872375511586
 21
796.9973165489521
 31
0.0
  0
TEXT
  5
185
330
1F
100
AcDbEntity
  8
F-5ﾚｲﾔ
  6
Continuous
 62
     2
370
     0
100
AcDbText
 10
-500.1060031230024
 20
-1962.068919403209
 30
0.0
 40
30.48
  1
大口径マシンハッチ　Ｓ－２Ｅ－１５００×１６００
 41
1.119791666666667
  7
ＭＳ ゴシック
100
AcDbText
  0
TEXT
  5
186
330
1F
100
AcDbEntity
  8
D-F
  6
Continuous
 62
     2
370
     9
100
AcDbText
 10
926.8729198791841
 20
1384.661566086834
 30
0.0
 40
30.48
  1
1592
 41
1.09375
  7
ＭＳ ゴシック
100
AcDbText
  0
TEXT
  5
187
330
1F
100
AcDbEntity
  8
D-5
  6
Continuous
 62
     7
370
     9
100
AcDbText
 10
1016.325631849882
 20
247.9765509742608
 30
0.0
 40
22.86
  1
（ＳＳ４００）
 41
1.142857142857145
  7
ＭＳ ゴシック
100
AcDbText
  0
TEXT
  5
188
330
1F
100
AcDbEntity
  8
D-5
  6
Continuous
 62
     7
370
     9
100
AcDbText
 10
1026.526001763121
 20
298.4994325594593
 30
0.0
 40
22.86
  1
補強材
 41
1.111111111111111
  7
ＭＳ ゴシック
100
AcDbText
  0
LINE
  5
189
330
1F
100
AcDbEntity
  8
D-5
  6
Continuous
 62
     7
370
     9
100
AcDbLine
 10
1262.542600579609
 20
282.7926787059968
 30
0.0
 11
1026.526001763121
 21
282.7926787059968
 31
0.0
  0
TEXT
  5
18A
330
1F
100
AcDbEntity
  8
D-4
  6
Continuous
 62
     2
370
     9
100
AcDbText
 10
1199.042902128072
 20
-111.5855089674579
 30
0.0
 40
30.48
  1
A-A断面詳細図　Ｓ＝１：２
 41
1.115
  7
ＭＳ ゴシック
100
AcDbText
  0
LINE
  5
18B
330
1F
100
AcDbEntity
  8
D-4
  6
Continuous
 62
     7
370
     9
100
AcDbLine
 10
1756.542902128072
 20
-127.8536679491933
 30
0.0
 11
1199.042902128072
 21
-127.8536679491933
 31
0.0
  0
TEXT
  5
18C
330
1F
100
AcDbEntity
  8
D-4
  6
Continuous
 62
     7
370
     9
100
AcDbText
 10
909.8344422374814
 20
-179.7542782347714
 30
0.0
 40
22.86
  1
表面処理：下塗り＋焼付塗装（但し目地、把手、クッション材を除く）
 41
1.161458333333333
  7
ＭＳ ゴシック
100
AcDbText
  0
LWPOLYLINE
  5
18D
330
1F
100
AcDbEntity
  8
D-F
  6
Continuous
 62
     7
370
     9
100
AcDbPolyline
 90
        4
 70
     1
 43
2.0
 10
1862.872870391222
 20
9.519392340847332
 42
0.4142135623731
 10
1861.872870391222
 20
10.51939234084733
 42
0.4142135623731
 10
1860.872870391222
 20
9.519392340847332
 42
0.4142135623731
 10
1861.872870391222
 20
8.519392340847332
 42
0.4142135623731
  0
LWPOLYLINE
  5
18E
330
1F
100
AcDbEntity
  8
D-F
  6
Continuous
 62
     7
370
     9
100
AcDbPolyline
 90
        4
 70
     1
 43
2.0
 10
2063.872444794728
 20
9.519392340847332
 42
0.4142135623731
 10
2062.872444794728
 20
10.51939234084733
 42
0.4142135623731
 10
2061.872444794728
 20
9.519392340847332
 42
0.4142135623731
 10
2062.872444794728
 20
8.519392340847332
 42
0.4142135623731
  0
LINE
  5
18F
330
1F
100
AcDbEntity
  8
D-F
  6
Continuous
 62
     7
370
     9
100
AcDbLine
 10
2062.872444794728
 20
9.519392340847332
 30
0.0
 11
1861.872870391222
 21
9.519392340847332
 31
0.0
  0
TEXT
  5
190
330
1F
100
AcDbEntity
  8
D-F
  6
Continuous
 62
     2
370
   211
100
AcDbText
 10
1918.622657592975
 20
21.15943688001558
 30
0.0
 40
30.48
  1
40.2
 41
1.09375
  7
ＭＳ ゴシック
100
AcDbText
  0
LINE
  5
191
330
1F
100
AcDbEntity
  8
D-F
  6
Continuous
 62
     7
370
     9
100
AcDbLine
 10
1861.872870391222
 20
9.519392340847332
 30
0.0
 11
926.8729363751721
 21
9.519392340847332
 31
0.0
  0
LINE
  5
192
330
1F
100
AcDbEntity
  8
D-F
  6
Continuous
 62
     7
370
     9
100
AcDbLine
 10
1861.872870391222
 20
750.9971895298431
 30
0.0
 11
1861.872870391222
 21
4.519375844859326
 31
0.0
  0
LINE
  5
193
330
1F
100
AcDbEntity
  8
D-F
  6
Continuous
 62
     7
370
     9
100
AcDbLine
 10
2062.872444794728
 20
744.6150400000718
 30
0.0
 11
2062.872444794728
 21
4.519375844859326
 31
0.0
  0
LINE
  5
194
330
1F
100
AcDbEntity
  8
D-5
  6
Continuous
 62
     7
370
     9
100
AcDbLine
 10
1262.542600579609
 20
282.7926787059968
 30
0.0
 11
1350.770172164222
 21
471.9973165489522
 31
0.0
  0
LINE
  5
195
330
1F
100
AcDbEntity
  8
D-5
  6
Continuous
 62
     7
370
     9
100
AcDbLine
 10
1350.770172164222
 20
471.9973165489522
 30
0.0
 11
1337.337681955552
 21
450.9125304036302
 31
0.0
  0
LINE
  5
196
330
1F
100
AcDbEntity
  8
D-5
  6
Continuous
 62
     7
370
     9
100
AcDbLine
 10
1350.770172164222
 20
471.9973165489522
 30
0.0
 11
1343.252527176616
 21
448.1543927802464
 31
0.0
  0
LWPOLYLINE
  5
197
330
1F
100
AcDbEntity
  8
D-F
  6
Continuous
 62
     7
370
     9
100
AcDbPolyline
 90
        4
 70
     1
 43
2.0
 10
689.0571563765501
 20
471.9973165489522
 42
0.4142135623731
 10
688.0571563765501
 20
472.9973165489522
 42
0.4142135623731
 10
687.0571563765502
 20
471.9973165489522
 42
0.4142135623731
 10
688.0571563765501
 20
470.9973165489521
 42
0.4142135623731
  0
LINE
  5
198
330
1F
100
AcDbEntity
  8
D-F
  6
Continuous
 62
     7
370
     9
100
AcDbLine
 10
685.0571563765502
 20
471.9973165489522
 30
0.0
 11
906.8721775597096
 21
471.9973165489522
 31
0.0
  0
LINE
  5
199
330
1F
100
AcDbEntity
  8
D-9
  6
JWW_PHANTOM1
 62
   211
370
     5
100
AcDbLine
 10
1781.872375511586
 20
471.9973165489522
 30
0.0
 11
1781.872375511586
 21
796.9973165489522
 31
0.0
  0
LINE
  5
19A
330
1F
100
AcDbEntity
  8
D-9
  6
JWW_PHANTOM1
 62
   211
370
     5
100
AcDbLine
 10
926.8721775597096
 20
471.9973165489522
 30
0.0
 11
1781.872375511586
 21
471.9973165489522
 31
0.0
  0
LINE
  5
19B
330
1F
100
AcDbEntity
  8
D-9
  6
JWW_PHANTOM1
 62
   211
370
     5
100
AcDbLine
 10
926.8721775597096
 20
501.9973165489522
 30
0.0
 11
1781.872375511586
 21
501.9973165489522
 31
0.0
  0
LINE
  5
19C
330
1F
100
AcDbEntity
  8
D-8
  6
JWW_CENTER1
 62
    30
370
     5
100
AcDbLine
 10
1811.872375511586
 20
471.9973165489522
 30
0.0
 11
1811.872375511586
 21
796.9973165489522
 31
0.0
  0
LINE
  5
19D
330
1F
100
AcDbEntity
  8
D-8
  6
JWW_CENTER1
 62
    30
370
     5
100
AcDbLine
 10
1811.872375511586
 20
471.9973165489522
 30
0.0
 11
1781.872375511586
 21
471.9973165489522
 31
0.0
  0
LINE
  5
19E
330
1F
100
AcDbEntity
  8
D-8
  6
JWW_CENTER1
 62
    30
370
     5
100
AcDbLine
 10
1781.872375511586
 20
471.9973165489522
 30
0.0
 11
1781.872375511586
 21
796.9973165489521
 31
0.0
  0
TEXT
  5
19F
330
1F
100
AcDbEntity
  8
D-F
  6
Continuous
 62
     2
370
     9
100
AcDbText
 10
926.8729198791841
 20
21.15943688001501
 30
0.0
 40
30.48
  1
1500
 41
1.09375
  7
ＭＳ ゴシック
100
AcDbText
  0
LINE
  5
1A0
330
1F
100
AcDbEntity
  8
D-5
  6
Continuous
 62
     7
370
     9
100
AcDbLine
 10
1129.266730627714
 20
380.4525940973998
 30
0.0
 11
1323.504724670921
 21
796.9973165489521
 31
0.0
  0
LINE
  5
1A1
330
1F
100
AcDbEntity
  8
D-5
  6
Continuous
 62
     7
370
     9
100
AcDbLine
 10
1309.429758413177
 20
121.2948120395693
 30
0.0
 11
1591.872936375172
 21
726.9961618297814
 31
0.0
  0
TEXT
  5
1A2
330
1F
100
AcDbEntity
  8
D-5
  6
Continuous
 62
     7
370
     9
100
AcDbText
 10
898.9728481901477
 20
170.8779481999437
 30
0.0
 40
22.86
  1
六角ボルト：Ｍ１６×２５
 41
1.152777777777778
  7
ＭＳ ゴシック
100
AcDbText
  0
LINE
  5
1A3
330
1F
100
AcDbEntity
  8
D-5
  6
Continuous
 62
     7
370
     9
100
AcDbLine
 10
1309.429758413177
 20
121.2948120395693
 30
0.0
 11
892.4446180055713
 21
121.2948120395693
 31
0.0
  0
TEXT
  5
1A4
330
1F
100
AcDbEntity
  8
D-5
  6
Continuous
 62
     7
370
     9
100
AcDbText
 10
897.9256772406973
 20
134.1563143506102
 30
0.0
 40
22.86
  1
ばね座金
 41
1.125
  7
ＭＳ ゴシック
100
AcDbText
  0
TEXT
  5
1A5
330
1F
100
AcDbEntity
  8
D-5
  6
Continuous
 62
     7
370
     9
100
AcDbText
 10
889.6638037758987
 20
88.59705862905527
 30
0.0
 40
22.86
  1
（ＳＵＳ３０４）
 41
1.145833333333333
  7
ＭＳ ゴシック
100
AcDbText
  0
LINE
  5
1A6
330
1F
100
AcDbEntity
  8
D-5
  6
Continuous
 62
     7
370
     9
100
AcDbLine
 10
1129.266730627714
 20
380.4525940973998
 30
0.0
 11
729.5988626462145
 21
380.4525940973998
 31
0.0
  0
TEXT
  5
1A7
330
1F
100
AcDbEntity
  8
D-5
  6
Continuous
 62
     7
370
     9
100
AcDbText
 10
733.1160777165013
 20
393.9244714728222
 30
0.0
 40
22.86
  1
蓋プレート：ｔ＝３．２
 41
1.151515151515152
  7
ＭＳ ゴシック
100
AcDbText
  0
TEXT
  5
1A8
330
1F
100
AcDbEntity
  8
D-5
  6
Continuous
 62
     7
370
     9
100
AcDbText
 10
723.0681190904977
 20
348.5656589860191
 30
0.0
 40
22.86
  1
（ＳＰＨＣ）
 41
1.138888888888889
  7
ＭＳ ゴシック
100
AcDbText
  0
LINE
  5
1A9
330
1F
100
AcDbEntity
  8
D-F
  6
Continuous
 62
     7
370
     9
100
AcDbLine
 10
926.8729363751721
 20
708.0897204763298
 30
0.0
 11
892.4659341581117
 21
708.0897204763298
 31
0.0
  0
LINE
  5
1AA
330
1F
100
AcDbEntity
  8
D-F
  6
Continuous
 62
     7
370
     9
100
AcDbLine
 10
926.8729363751721
 20
776.9047146697424
 30
0.0
 11
961.2809283515237
 21
776.9047146697424
 31
0.0
  0
LINE
  5
1AB
330
1F
100
AcDbEntity
  8
D-F
  6
Continuous
 62
     7
370
     9
100
AcDbLine
 10
961.2809283515237
 20
776.9047146697424
 30
0.0
 11
892.4659341581117
 21
708.0897204763298
 31
0.0
  0
LINE
  5
1AC
330
1F
100
AcDbEntity
  8
D-F
  6
Continuous
 62
     7
370
     9
100
AcDbLine
 10
926.8729363751721
 20
1047.99711859712
 30
0.0
 11
926.8729363751721
 21
776.9047146697424
 31
0.0
  0
LINE
  5
1AD
330
1F
100
AcDbEntity
  8
D-F
  6
Continuous
 62
     7
370
     9
100
AcDbLine
 10
926.8729363751721
 20
708.0897204763298
 30
0.0
 11
926.8729363751721
 21
443.7874159779606
 31
0.0
  0
LINE
  5
1AE
330
1F
100
AcDbEntity
  8
D-2
  6
Continuous
 62
     3
370
     9
100
AcDbLine
 10
926.8729363751721
 20
796.9973165489521
 30
0.0
 11
1979.873134327044
 21
796.9973165489521
 31
0.0
  0
LINE
  5
1AF
330
1F
100
AcDbEntity
  8
D-2
  6
Continuous
 62
     3
370
     9
100
AcDbLine
 10
1551.873546726735
 20
812.9973165489603
 30
0.0
 11
926.8729363751721
 21
812.9973165489603
 31
0.0
  0
LINE
  5
1B0
330
1F
100
AcDbEntity
  8
0-F
  6
Continuous
 62
     7
370
     9
100
AcDbLine
 10
32.63932792880638
 20
1368.877323502874
 30
0.0
 11
113.6965794844072
 21
1368.877323502874
 31
0.0
  0
LWPOLYLINE
  5
1B1
330
1F
100
AcDbEntity
  8
0-F
  6
Continuous
 62
     7
370
     9
100
AcDbPolyline
 90
        4
 70
     1
 43
2.0
 10
109.6965629884186
 20
1368.877323502874
 42
0.4142135623731
 10
108.6965629884186
 20
1369.877323502874
 42
0.4142135623731
 10
107.6965629884186
 20
1368.877323502874
 42
0.4142135623731
 10
108.6965629884186
 20
1367.877323502874
 42
0.4142135623731
  0
LINE
  5
1B2
330
1F
100
AcDbEntity
  8
0-E
  6
Continuous
 62
     3
370
     9
100
AcDbLine
 10
17.91257382790604
 20
1388.877405982814
 30
0.0
 11
17.91257382790604
 21
1348.877405982814
 31
0.0
  0
LINE
  5
1B3
330
1F
100
AcDbEntity
  8
0-E
  6
Continuous
 62
     3
370
     9
100
AcDbLine
 10
17.91257382790604
 20
1388.877405982814
 30
0.0
 11
-16.28738122052823
 21
1388.877405982814
 31
0.0
  0
LINE
  5
1B4
330
1F
100
AcDbEntity
  8
0-E
  6
Continuous
 62
     3
370
     9
100
AcDbLine
 10
17.91257382790604
 20
1348.877405982814
 30
0.0
 11
-16.28738122052823
 21
1348.877405982814
 31
0.0
  0
CIRCLE
  5
1B5
330
1F
100
AcDbEntity
  8
0-E
  6
Continuous
 62
     3
370
     9
100
AcDbCircle
 10
2.912573827906044
 20
1368.877405982814
 30
0.0
 40
6.999999999998181
  0
LINE
  5
1B6
330
1F
100
AcDbEntity
  8
0-E
  6
JWW_CENTER1
 62
     3
370
     9
100
AcDbLine
 10
24.88557285417642
 20
1368.877405982814
 30
0.0
 11
-16.28738122052823
 21
1368.877405982814
 31
0.0
  0
LINE
  5
1B7
330
1F
100
AcDbEntity
  8
0-E
  6
JWW_CENTER1
 62
     3
370
     9
100
AcDbLine
 10
2.912573827906044
 20
1344.500164519607
 30
0.0
 11
2.912573827906044
 21
1393.254647446021
 31
0.0
  0
LINE
  5
1B8
330
1F
100
AcDbEntity
  8
0-E
  6
Continuous
 62
     3
370
     9
100
AcDbLine
 10
-136.2873193605776
 20
1503.077299171294
 30
0.0
 11
-96.28731936057761
 21
1503.077299171294
 31
0.0
  0
LINE
  5
1B9
330
1F
100
AcDbEntity
  8
0-E
  6
Continuous
 62
     3
370
     9
100
AcDbLine
 10
-136.2873193605776
 20
1503.077299171294
 30
0.0
 11
-136.2873193605776
 21
1468.877344122859
 31
0.0
  0
LINE
  5
1BA
330
1F
100
AcDbEntity
  8
0-E
  6
Continuous
 62
     3
370
     9
100
AcDbLine
 10
-96.28731936057761
 20
1503.077299171294
 30
0.0
 11
-96.28731936057761
 21
1468.877344122859
 31
0.0
  0
CIRCLE
  5
1BB
330
1F
100
AcDbEntity
  8
0-E
  6
Continuous
 62
     3
370
     9
100
AcDbCircle
 10
-116.2873193605776
 20
1488.077299171294
 30
0.0
 40
6.999999999998181
  0
LINE
  5
1BC
330
1F
100
AcDbEntity
  8
0-E
  6
JWW_CENTER1
 62
     3
370
     9
100
AcDbLine
 10
-116.2873193605776
 20
1510.050298197564
 30
0.0
 11
-116.2873193605776
 21
1468.877344122859
 31
0.0
  0
LINE
  5
1BD
330
1F
100
AcDbEntity
  8
0-E
  6
JWW_CENTER1
 62
     3
370
     9
100
AcDbLine
 10
-91.91007789737
 20
1488.077299171294
 30
0.0
 11
-140.6645608237852
 21
1488.077299171294
 31
0.0
  0
LINE
  5
1BE
330
1F
100
AcDbEntity
  8
0-F
  6
Continuous
 62
     7
370
     9
100
AcDbLine
 10
-16.2873812205288
 20
1483.877393610823
 30
0.0
 11
-16.2873812205288
 21
1763.877636926649
 31
0.0
  0
LINE
  5
1BF
330
1F
100
AcDbEntity
  8
0-F
  6
Continuous
 62
     7
370
     9
100
AcDbLine
 10
-29.28737462213348
 20
1470.877400209219
 30
0.0
 11
-29.28737462213348
 21
1673.877339998861
 31
0.0
  0
LINE
  5
1C0
330
1F
100
AcDbEntity
  8
0-F
  6
Continuous
 62
     7
370
     9
100
AcDbLine
 10
-62.28743400769133
 20
1437.877340823661
 30
0.0
 11
-62.28743400769133
 21
1583.876548191429
 31
0.0
  0
LWPOLYLINE
  5
1C1
330
1F
100
AcDbEntity
  8
0-F
  6
Continuous
 62
     7
370
     9
100
AcDbPolyline
 90
        4
 70
     1
 43
2.0
 10
-61.28743400769133
 20
1578.876531695442
 42
0.4142135623731
 10
-62.28743400769133
 20
1579.876531695442
 42
0.4142135623731
 10
-63.28743400769133
 20
1578.876531695442
 42
0.4142135623731
 10
-62.28743400769133
 20
1577.876531695442
 42
0.4142135623731
  0
LWPOLYLINE
  5
1C2
330
1F
100
AcDbEntity
  8
0-F
  6
Continuous
 62
     7
370
     9
100
AcDbPolyline
 90
        4
 70
     1
 43
2.0
 10
-28.28737462213348
 20
1668.877323502874
 42
0.4142135623731
 10
-29.28737462213348
 20
1669.877323502874
 42
0.4142135623731
 10
-30.28737462213348
 20
1668.877323502874
 42
0.4142135623731
 10
-29.28737462213348
 20
1667.877323502874
 42
0.4142135623731
  0
LWPOLYLINE
  5
1C3
330
1F
100
AcDbEntity
  8
0-F
  6
Continuous
 62
     7
370
     9
100
AcDbPolyline
 90
        4
 70
     1
 43
2.0
 10
-15.2873812205288
 20
1758.87762043066
 42
0.4142135623731
 10
-16.2873812205288
 20
1759.87762043066
 42
0.4142135623731
 10
-17.2873812205288
 20
1758.87762043066
 42
0.4142135623731
 10
-16.2873812205288
 20
1757.877620430661
 42
0.4142135623731
  0
LINE
  5
1C4
330
1F
100
AcDbEntity
  8
建具
  6
Continuous
 62
     2
370
     9
100
AcDbLine
 10
-28.28722285904064
 20
1456.877564344298
 30
0.0
 11
-16.28738122052823
 21
1468.87740598281
 31
0.0
  0
LINE
  5
1C5
330
1F
100
AcDbEntity
  8
0-F
  6
Continuous
 62
     7
370
     9
100
AcDbLine
 10
108.6965629884186
 20
1368.877323502874
 30
0.0
 11
108.6965629884186
 21
1468.877405982814
 31
0.0
  0
LINE
  5
1C6
330
1F
100
AcDbEntity
  8
0-F
  6
Continuous
 62
     7
370
     9
100
AcDbLine
 10
-1.287393592519948
 20
1468.877405982814
 30
0.0
 11
113.6965794844072
 21
1468.877405982814
 31
0.0
  0
TEXT
  5
1C7
330
1F
100
AcDbEntity
  8
0-F
  6
Continuous
 62
     2
370
     9
100
AcDbText
 10
97.0565803092061
 20
1386.377364742844
 30
0.0
 40
30.48
  1
100
 50
90.0
 41
1.083333333333333
  7
ＭＳ ゴシック
100
AcDbText
  0
LWPOLYLINE
  5
1C8
330
1F
100
AcDbEntity
  8
0-F
  6
Continuous
 62
     7
370
     9
100
AcDbPolyline
 90
        4
 70
     1
 43
2.0
 10
109.6965629884186
 20
1468.877405982814
 42
0.4142135623731
 10
108.6965629884186
 20
1469.877405982814
 42
0.4142135623731
 10
107.6965629884186
 20
1468.877405982814
 42
0.4142135623731
 10
108.6965629884186
 20
1467.877405982815
 42
0.4142135623731
  0
LINE
  5
1C9
330
1F
100
AcDbEntity
  8
0-F
  6
Continuous
 62
     7
370
     9
100
AcDbLine
 10
108.6965629884186
 20
1468.877405982814
 30
0.0
 11
108.6965629884186
 21
1503.078148810046
 31
0.0
  0
LWPOLYLINE
  5
1CA
330
1F
100
AcDbEntity
  8
0-F
  6
Continuous
 62
     7
370
     9
100
AcDbPolyline
 90
        4
 70
     1
 43
2.0
 10
109.6965629884186
 20
1503.078148810046
 42
0.4142135623731
 10
108.6965629884186
 20
1504.078148810046
 42
0.4142135623731
 10
107.6965629884186
 20
1503.078148810046
 42
0.4142135623731
 10
108.6965629884186
 20
1502.078148810046
 42
0.4142135623731
  0
LINE
  5
1CB
330
1F
100
AcDbEntity
  8
0-F
  6
Continuous
 62
     7
370
     9
100
AcDbLine
 10
113.6965629884186
 20
1503.078148810046
 30
0.0
 11
-76.28733998055964
 21
1503.078148810046
 31
0.0
  0
TEXT
  5
1CC
330
1F
100
AcDbEntity
  8
0-F
  6
Continuous
 62
     2
370
   211
100
AcDbText
 10
97.0565803092061
 20
1515.755995669196
 30
0.0
 40
30.48
  1
34
 50
90.0
 41
1.0625
  7
ＭＳ ゴシック
100
AcDbText
  0
LINE
  5
1CD
330
1F
100
AcDbEntity
  8
0-F
  6
Continuous
 62
     7
370
     9
100
AcDbLine
 10
108.6965629884186
 20
1503.078148810046
 30
0.0
 11
108.6965629884186
 21
1558.255995669196
 31
0.0
  0
LINE
  5
1CE
330
1F
100
AcDbEntity
  8
0-E
  6
Continuous
 62
     3
370
     9
100
AcDbLine
 10
-1742.487318123377
 20
1348.87740598281
 30
0.0
 11
-1742.487318123377
 21
1388.87740598281
 31
0.0
  0
LINE
  5
1CF
330
1F
100
AcDbEntity
  8
0-E
  6
Continuous
 62
     3
370
     9
100
AcDbLine
 10
-1742.487318123377
 20
1348.87740598281
 30
0.0
 11
-1708.287363074943
 21
1348.87740598281
 31
0.0
  0
LINE
  5
1D0
330
1F
100
AcDbEntity
  8
0-E
  6
Continuous
 62
     3
370
     9
100
AcDbLine
 10
-1742.487318123377
 20
1388.87740598281
 30
0.0
 11
-1708.287363074943
 21
1388.87740598281
 31
0.0
  0
CIRCLE
  5
1D1
330
1F
100
AcDbEntity
  8
0-E
  6
Continuous
 62
     3
370
     9
100
AcDbCircle
 10
-1727.487318123377
 20
1368.87740598281
 30
0.0
 40
6.999999999998181
  0
LINE
  5
1D2
330
1F
100
AcDbEntity
  8
0-E
  6
JWW_CENTER1
 62
     3
370
     9
100
AcDbLine
 10
-1749.460317149648
 20
1368.87740598281
 30
0.0
 11
-1708.287363074943
 21
1368.87740598281
 31
0.0
  0
LINE
  5
1D3
330
1F
100
AcDbEntity
  8
0-E
  6
JWW_CENTER1
 62
     3
370
     9
100
AcDbLine
 10
-1727.487318123377
 20
1393.254647446018
 30
0.0
 11
-1727.487318123377
 21
1344.500164519603
 31
0.0
  0
LINE
  5
1D4
330
1F
100
AcDbEntity
  8
0-E
  6
Continuous
 62
     3
370
     9
100
AcDbLine
 10
-1628.287424934898
 20
1503.077299171294
 30
0.0
 11
-1588.287424934898
 21
1503.077299171294
 31
0.0
  0
LINE
  5
1D5
330
1F
100
AcDbEntity
  8
0-E
  6
Continuous
 62
     3
370
     9
100
AcDbLine
 10
-1628.287424934898
 20
1503.077299171294
 30
0.0
 11
-1628.287424934898
 21
1468.877344122859
 31
0.0
  0
LINE
  5
1D6
330
1F
100
AcDbEntity
  8
0-E
  6
Continuous
 62
     3
370
     9
100
AcDbLine
 10
-1588.287424934898
 20
1503.077299171294
 30
0.0
 11
-1588.287424934898
 21
1468.877344122859
 31
0.0
  0
CIRCLE
  5
1D7
330
1F
100
AcDbEntity
  8
0-E
  6
Continuous
 62
     3
370
     9
100
AcDbCircle
 10
-1608.287424934898
 20
1488.077299171294
 30
0.0
 40
6.999999999998181
  0
LINE
  5
1D8
330
1F
100
AcDbEntity
  8
0-E
  6
JWW_CENTER1
 62
     3
370
     9
100
AcDbLine
 10
-1608.287424934898
 20
1510.050298197564
 30
0.0
 11
-1608.287424934898
 21
1468.877344122859
 31
0.0
  0
LINE
  5
1D9
330
1F
100
AcDbEntity
  8
0-E
  6
JWW_CENTER1
 62
     3
370
     9
100
AcDbLine
 10
-1583.910183471691
 20
1488.077299171294
 30
0.0
 11
-1632.664666398106
 21
1488.077299171294
 31
0.0
  0
LINE
  5
1DA
330
1F
100
AcDbEntity
  8
0-F
  6
Continuous
 62
     7
370
     9
100
AcDbLine
 10
-1708.287486794854
 20
1483.877393610823
 30
0.0
 11
-1708.287486794854
 21
1763.877636926649
 31
0.0
  0
LINE
  5
1DB
330
1F
100
AcDbEntity
  8
0-F
  6
Continuous
 62
     7
370
     9
100
AcDbLine
 10
-1695.287493393248
 20
1470.877400209219
 30
0.0
 11
-1695.287493393248
 21
1673.877339998861
 31
0.0
  0
LINE
  5
1DC
330
1F
100
AcDbEntity
  8
0-F
  6
Continuous
 62
     7
370
     9
100
AcDbLine
 10
-1662.287434007691
 20
1437.877340823661
 30
0.0
 11
-1662.287434007691
 21
1583.876548191429
 31
0.0
  0
LWPOLYLINE
  5
1DD
330
1F
100
AcDbEntity
  8
0-F
  6
Continuous
 62
     7
370
     9
100
AcDbPolyline
 90
        4
 70
     1
 43
2.0
 10
-1661.287434007691
 20
1578.876531695442
 42
0.4142135623731
 10
-1662.287434007691
 20
1579.876531695442
 42
0.4142135623731
 10
-1663.287434007691
 20
1578.876531695442
 42
0.4142135623731
 10
-1662.287434007691
 20
1577.876531695442
 42
0.4142135623731
  0
LWPOLYLINE
  5
1DE
330
1F
100
AcDbEntity
  8
0-F
  6
Continuous
 62
     7
370
     9
100
AcDbPolyline
 90
        4
 70
     1
 43
2.0
 10
-1694.287493393248
 20
1668.877323502874
 42
0.4142135623731
 10
-1695.287493393248
 20
1669.877323502874
 42
0.4142135623731
 10
-1696.287493393248
 20
1668.877323502874
 42
0.4142135623731
 10
-1695.287493393248
 20
1667.877323502874
 42
0.4142135623731
  0
LWPOLYLINE
  5
1DF
330
1F
100
AcDbEntity
  8
0-F
  6
Continuous
 62
     7
370
     9
100
AcDbPolyline
 90
        4
 70
     1
 43
2.0
 10
-1707.287486794854
 20
1758.87762043066
 42
0.4142135623731
 10
-1708.287486794854
 20
1759.87762043066
 42
0.4142135623731
 10
-1709.287486794854
 20
1758.87762043066
 42
0.4142135623731
 10
-1708.287486794854
 20
1757.877620430661
 42
0.4142135623731
  0
LINE
  5
1E0
330
1F
100
AcDbEntity
  8
建具
  6
Continuous
 62
     2
370
     9
100
AcDbLine
 10
-1708.287363074943
 20
1468.87740598281
 30
0.0
 11
-1696.287397716516
 21
1456.877564344298
 31
0.0
  0
LINE
  5
1E1
330
1F
100
AcDbEntity
  8
躯体
  6
JWW_DASHED2
 62
     2
370
     9
100
AcDbLine
 10
-1662.287434007691
 20
1422.877353195652
 30
0.0
 11
-62.28731028778043
 21
1422.877353195652
 31
0.0
  0
LINE
  5
1E2
330
1F
100
AcDbEntity
  8
建具
  6
Continuous
 62
     2
370
     9
100
AcDbLine
 10
-1696.287397716516
 20
1456.877564344298
 30
0.0
 11
-28.28722285904064
 21
1456.877564344298
 31
0.0
  0
LINE
  5
1E3
330
1F
100
AcDbEntity
  8
建具
  6
Continuous
 62
     2
370
     9
100
AcDbLine
 10
-1708.287363074943
 20
1468.87740598281
 30
0.0
 11
-16.28750494043857
 21
1468.87740598281
 31
0.0
  0
LINE
  5
1E4
330
1F
100
AcDbEntity
  8
0-E
  6
Continuous
 62
     3
370
     9
100
AcDbLine
 10
-633.2873812205327
 20
1503.077299171289
 30
0.0
 11
-593.2873812205327
 21
1503.077299171289
 31
0.0
  0
LINE
  5
1E5
330
1F
100
AcDbEntity
  8
0-E
  6
Continuous
 62
     3
370
     9
100
AcDbLine
 10
-633.2873812205327
 20
1503.077299171289
 30
0.0
 11
-633.2873812205327
 21
1468.877344122855
 31
0.0
  0
LINE
  5
1E6
330
1F
100
AcDbEntity
  8
0-E
  6
Continuous
 62
     3
370
     9
100
AcDbLine
 10
-593.2873812205327
 20
1503.077299171289
 30
0.0
 11
-593.2873812205327
 21
1468.877344122855
 31
0.0
  0
CIRCLE
  5
1E7
330
1F
100
AcDbEntity
  8
0-E
  6
Continuous
 62
     3
370
     9
100
AcDbCircle
 10
-613.2873812205327
 20
1488.077299171289
 30
0.0
 40
6.999999999998181
  0
LINE
  5
1E8
330
1F
100
AcDbEntity
  8
0-E
  6
JWW_CENTER1
 62
     3
370
     9
100
AcDbLine
 10
-613.2873812205327
 20
1510.050298197559
 30
0.0
 11
-613.2873812205327
 21
1468.877344122855
 31
0.0
  0
LINE
  5
1E9
330
1F
100
AcDbEntity
  8
0-E
  6
JWW_CENTER1
 62
     3
370
     9
100
AcDbLine
 10
-588.910139757325
 20
1488.077299171289
 30
0.0
 11
-637.6646226837403
 21
1488.077299171289
 31
0.0
  0
LINE
  5
1EA
330
1F
100
AcDbEntity
  8
0-E
  6
Continuous
 62
     3
370
     9
100
AcDbLine
 10
-1131.287486794854
 20
1503.077299171289
 30
0.0
 11
-1091.287486794854
 21
1503.077299171289
 31
0.0
  0
LINE
  5
1EB
330
1F
100
AcDbEntity
  8
0-E
  6
Continuous
 62
     3
370
     9
100
AcDbLine
 10
-1131.287486794854
 20
1503.077299171289
 30
0.0
 11
-1131.287486794854
 21
1468.877344122855
 31
0.0
  0
LINE
  5
1EC
330
1F
100
AcDbEntity
  8
0-E
  6
Continuous
 62
     3
370
     9
100
AcDbLine
 10
-1091.287486794854
 20
1503.077299171289
 30
0.0
 11
-1091.287486794854
 21
1468.877344122855
 31
0.0
  0
CIRCLE
  5
1ED
330
1F
100
AcDbEntity
  8
0-E
  6
Continuous
 62
     3
370
     9
100
AcDbCircle
 10
-1111.287486794854
 20
1488.077299171289
 30
0.0
 40
6.999999999998181
  0
LINE
  5
1EE
330
1F
100
AcDbEntity
  8
0-E
  6
JWW_CENTER1
 62
     3
370
     9
100
AcDbLine
 10
-1111.287486794854
 20
1510.050298197559
 30
0.0
 11
-1111.287486794854
 21
1468.877344122855
 31
0.0
  0
LINE
  5
1EF
330
1F
100
AcDbEntity
  8
0-E
  6
JWW_CENTER1
 62
     3
370
     9
100
AcDbLine
 10
-1086.910245331646
 20
1488.077299171289
 30
0.0
 11
-1135.664728258061
 21
1488.077299171289
 31
0.0
  0
LINE
  5
1F0
330
1F
100
AcDbEntity
  8
0-F
  6
Continuous
 62
     7
370
     9
100
AcDbLine
 10
-1662.287434007691
 20
1578.876531695442
 30
0.0
 11
-62.28743400769133
 21
1578.876531695442
 31
0.0
  0
LINE
  5
1F1
330
1F
100
AcDbEntity
  8
0-F
  6
Continuous
 62
     7
370
     9
100
AcDbLine
 10
-1677.287483495656
 20
1422.877353195652
 30
0.0
 11
-1803.911325316968
 21
1422.877353195652
 31
0.0
  0
LWPOLYLINE
  5
1F2
330
1F
100
AcDbEntity
  8
0-F
  6
Continuous
 62
     7
370
     9
100
AcDbPolyline
 90
        4
 70
     1
 43
2.0
 10
-1797.911308820979
 20
1422.877353195652
 42
0.4142135623731
 10
-1798.911308820979
 20
1423.877353195652
 42
0.4142135623731
 10
-1799.911308820979
 20
1422.877353195652
 42
0.4142135623731
 10
-1798.911308820979
 20
1421.877353195652
 42
0.4142135623731
  0
LINE
  5
1F3
330
1F
100
AcDbEntity
  8
0-F
  6
Continuous
 62
     7
370
     9
100
AcDbLine
 10
-1710.287542881213
 20
1455.877412581209
 30
0.0
 11
-1910.080672631396
 21
1455.877412581209
 31
0.0
  0
LWPOLYLINE
  5
1F4
330
1F
100
AcDbEntity
  8
0-F
  6
Continuous
 62
     7
370
     9
100
AcDbPolyline
 90
        4
 70
     1
 43
2.0
 10
-1904.080656135408
 20
1455.877412581209
 42
0.4142135623731
 10
-1905.080656135408
 20
1456.877412581209
 42
0.4142135623731
 10
-1906.080656135407
 20
1455.877412581209
 42
0.4142135623731
 10
-1905.080656135408
 20
1454.877412581209
 42
0.4142135623731
  0
LINE
  5
1F5
330
1F
100
AcDbEntity
  8
0-F
  6
Continuous
 62
     7
370
     9
100
AcDbLine
 10
-1723.287536282818
 20
1468.877405982814
 30
0.0
 11
-2012.543895180737
 21
1468.877405982814
 31
0.0
  0
LWPOLYLINE
  5
1F6
330
1F
100
AcDbEntity
  8
0-F
  6
Continuous
 62
     7
370
     9
100
AcDbPolyline
 90
        4
 70
     1
 43
2.0
 10
-2006.543878684749
 20
1468.877405982814
 42
0.4142135623731
 10
-2007.543878684749
 20
1469.877405982814
 42
0.4142135623731
 10
-2008.543878684749
 20
1468.877405982814
 42
0.4142135623731
 10
-2007.543878684749
 20
1467.877405982815
 42
0.4142135623731
  0
LINE
  5
1F7
330
1F
100
AcDbEntity
  8
0-F
  6
Continuous
 62
     3
370
     9
100
AcDbLine
 10
-1695.287493393248
 20
1455.877412581209
 30
0.0
 11
-1683.28740431491
 21
1443.877076063046
 31
0.0
  0
LINE
  5
1F8
330
1F
100
AcDbEntity
  8
0-F
  6
Continuous
 62
     3
370
     9
100
AcDbLine
 10
-1695.287493393248
 20
1455.877412581209
 30
0.0
 11
-1363.787493393244
 21
1455.877412581209
 31
0.0
  0
LINE
  5
1F9
330
1F
100
AcDbEntity
  8
0-F
  6
Continuous
 62
     3
370
     9
100
AcDbLine
 10
-1683.28740431491
 20
1443.877076063046
 30
0.0
 11
-1375.787582471582
 21
1443.877076063046
 31
0.0
  0
LINE
  5
1FA
330
1F
100
AcDbEntity
  8
0-F
  6
Continuous
 62
     3
370
     9
100
AcDbLine
 10
-1375.787582471582
 20
1443.877076063046
 30
0.0
 11
-1363.787493393244
 21
1455.877412581209
 31
0.0
  0
LINE
  5
1FB
330
1F
100
AcDbEntity
  8
0-F
  6
Continuous
 62
     4
370
     9
100
AcDbLine
 10
-1647.037617113157
 20
1283.877749099367
 30
0.0
 11
-1647.037617113157
 21
1253.877749099367
 31
0.0
  0
LINE
  5
1FC
330
1F
100
AcDbEntity
  8
0-F
  6
Continuous
 62
     4
370
     9
100
AcDbLine
 10
-1632.037617113157
 20
1283.877749099367
 30
0.0
 11
-1632.037617113157
 21
1253.877749099367
 31
0.0
  0
LINE
  5
1FD
330
1F
100
AcDbEntity
  8
0-F
  6
Continuous
 62
     4
370
     9
100
AcDbLine
 10
-1662.626072313352
 20
1283.877749099367
 30
0.0
 11
-1662.626072313352
 21
1253.877749099367
 31
0.0
  0
LINE
  5
1FE
330
1F
100
AcDbEntity
  8
0-F
  6
Continuous
 62
     4
370
     9
100
AcDbLine
 10
-1662.626072313352
 20
1283.877749099367
 30
0.0
 11
-1616.449161912961
 21
1283.877749099367
 31
0.0
  0
LINE
  5
1FF
330
1F
100
AcDbEntity
  8
0-F
  6
Continuous
 62
     4
370
     9
100
AcDbLine
 10
-1662.626072313352
 20
1253.877749099367
 30
0.0
 11
-1616.449161912961
 21
1253.877749099367
 31
0.0
  0
LINE
  5
200
330
1F
100
AcDbEntity
  8
0-F
  6
Continuous
 62
     4
370
     9
100
AcDbLine
 10
-1616.449161912961
 20
1283.877749099367
 30
0.0
 11
-1616.449161912961
 21
1253.877749099367
 31
0.0
  0
LINE
  5
201
330
1F
100
AcDbEntity
  8
0-F
  6
JWW_CENTER1
 62
     4
370
     9
100
AcDbLine
 10
-1668.946645545858
 20
1268.877749099367
 30
0.0
 11
-1610.128588680455
 21
1268.877749099367
 31
0.0
  0
LINE
  5
202
330
1F
100
AcDbEntity
  8
0-F
  6
JWW_CENTER1
 62
     4
370
     9
100
AcDbLine
 10
-1639.537617113157
 20
1290.995119704836
 30
0.0
 11
-1639.537617113157
 21
1247.756075515382
 31
0.0
  0
LINE
  5
203
330
1F
100
AcDbEntity
  8
0-F
  6
Continuous
 62
     2
370
     9
100
AcDbLine
 10
-1641.037597317965
 20
1380.279528686571
 30
0.0
 11
-1641.037597317965
 21
1357.475969512158
 31
0.0
  0
LINE
  5
204
330
1F
100
AcDbEntity
  8
0-F
  6
Continuous
 62
     2
370
     9
100
AcDbLine
 10
-1638.037389468519
 20
1380.279528686571
 30
0.0
 11
-1638.037389468519
 21
1357.475969512158
 31
0.0
  0
CIRCLE
  5
205
330
1F
100
AcDbEntity
  8
0-F
  6
Continuous
 62
     2
370
     9
100
AcDbCircle
 10
-1639.537617113157
 20
1368.877749099367
 30
0.0
 40
16.00000117276166
  0
CIRCLE
  5
206
330
1F
100
AcDbEntity
  8
0-F
  6
Continuous
 62
     2
370
     9
100
AcDbCircle
 10
-1639.537617113157
 20
1368.877749099367
 30
0.0
 40
11.50000063148705
  0
CIRCLE
  5
207
330
1F
100
AcDbEntity
  8
0-F
  6
Continuous
 62
     2
370
     9
100
AcDbCircle
 10
-1639.537617113157
 20
1368.877749099367
 30
0.0
 40
12.0000011212117
  0
LINE
  5
208
330
1F
100
AcDbEntity
  8
0-F
  6
JWW_CENTER1
 62
     2
370
     9
100
AcDbLine
 10
-1670.537620412352
 20
1368.877625379452
 30
0.0
 11
-1608.53761381396
 21
1368.877625379452
 31
0.0
  0
LINE
  5
209
330
1F
100
AcDbEntity
  8
0-F
  6
JWW_CENTER1
 62
     2
370
     9
100
AcDbLine
 10
-1639.537493393246
 20
1337.877745800171
 30
0.0
 11
-1639.537493393246
 21
1399.877752398562
 31
0.0
  0
LINE
  5
20A
330
1F
100
AcDbEntity
  8
0-F
  6
Continuous
 62
     4
370
     9
100
AcDbLine
 10
-1427.037617113156
 20
1283.877749099367
 30
0.0
 11
-1427.037617113156
 21
1253.877749099367
 31
0.0
  0
LINE
  5
20B
330
1F
100
AcDbEntity
  8
0-F
  6
Continuous
 62
     4
370
     9
100
AcDbLine
 10
-1412.037617113156
 20
1283.877749099367
 30
0.0
 11
-1412.037617113156
 21
1253.877749099367
 31
0.0
  0
LINE
  5
20C
330
1F
100
AcDbEntity
  8
0-F
  6
Continuous
 62
     4
370
     9
100
AcDbLine
 10
-1442.626072313351
 20
1283.877749099367
 30
0.0
 11
-1442.626072313351
 21
1253.877749099367
 31
0.0
  0
LINE
  5
20D
330
1F
100
AcDbEntity
  8
0-F
  6
Continuous
 62
     4
370
     9
100
AcDbLine
 10
-1442.626072313351
 20
1283.877749099367
 30
0.0
 11
-1396.449161912961
 21
1283.877749099367
 31
0.0
  0
LINE
  5
20E
330
1F
100
AcDbEntity
  8
0-F
  6
Continuous
 62
     4
370
     9
100
AcDbLine
 10
-1442.626072313351
 20
1253.877749099367
 30
0.0
 11
-1396.449161912961
 21
1253.877749099367
 31
0.0
  0
LINE
  5
20F
330
1F
100
AcDbEntity
  8
0-F
  6
Continuous
 62
     4
370
     9
100
AcDbLine
 10
-1396.449161912961
 20
1283.877749099367
 30
0.0
 11
-1396.449161912961
 21
1253.877749099367
 31
0.0
  0
LINE
  5
210
330
1F
100
AcDbEntity
  8
0-F
  6
JWW_CENTER1
 62
     4
370
     9
100
AcDbLine
 10
-1448.946645545857
 20
1268.877749099367
 30
0.0
 11
-1390.128588680455
 21
1268.877749099367
 31
0.0
  0
LINE
  5
211
330
1F
100
AcDbEntity
  8
0-F
  6
JWW_CENTER1
 62
     4
370
     9
100
AcDbLine
 10
-1419.537617113156
 20
1290.995119704836
 30
0.0
 11
-1419.537617113156
 21
1247.756075515382
 31
0.0
  0
LINE
  5
212
330
1F
100
AcDbEntity
  8
0-F
  6
Continuous
 62
     2
370
     9
100
AcDbLine
 10
-1421.037597317964
 20
1380.279528686571
 30
0.0
 11
-1421.037597317964
 21
1357.475969512158
 31
0.0
  0
LINE
  5
213
330
1F
100
AcDbEntity
  8
0-F
  6
Continuous
 62
     2
370
     9
100
AcDbLine
 10
-1418.037389468519
 20
1380.279528686571
 30
0.0
 11
-1418.037389468519
 21
1357.475969512158
 31
0.0
  0
CIRCLE
  5
214
330
1F
100
AcDbEntity
  8
0-F
  6
Continuous
 62
     2
370
     9
100
AcDbCircle
 10
-1419.537617113156
 20
1368.877749099367
 30
0.0
 40
16.00000117276166
  0
CIRCLE
  5
215
330
1F
100
AcDbEntity
  8
0-F
  6
Continuous
 62
     2
370
     9
100
AcDbCircle
 10
-1419.537617113156
 20
1368.877749099367
 30
0.0
 40
11.50000063148705
  0
CIRCLE
  5
216
330
1F
100
AcDbEntity
  8
0-F
  6
Continuous
 62
     2
370
     9
100
AcDbCircle
 10
-1419.537617113156
 20
1368.877749099367
 30
0.0
 40
12.0000011212117
  0
LINE
  5
217
330
1F
100
AcDbEntity
  8
0-F
  6
JWW_CENTER1
 62
     2
370
     9
100
AcDbLine
 10
-1450.537620412352
 20
1368.877625379452
 30
0.0
 11
-1388.53761381396
 21
1368.877625379452
 31
0.0
  0
LINE
  5
218
330
1F
100
AcDbEntity
  8
0-F
  6
JWW_CENTER1
 62
     2
370
     9
100
AcDbLine
 10
-1419.537493393246
 20
1337.877745800171
 30
0.0
 11
-1419.537493393246
 21
1399.877752398562
 31
0.0
  0
LINE
  5
219
330
1F
100
AcDbEntity
  8
0-F
  6
Continuous
 62
     3
370
     9
100
AcDbLine
 10
-1361.662493393248
 20
1455.877412581209
 30
0.0
 11
-1349.662404314911
 21
1443.877076063046
 31
0.0
  0
LINE
  5
21A
330
1F
100
AcDbEntity
  8
0-F
  6
Continuous
 62
     3
370
     9
100
AcDbLine
 10
-1361.662493393248
 20
1455.877412581209
 30
0.0
 11
-1030.162493393244
 21
1455.877412581209
 31
0.0
  0
LINE
  5
21B
330
1F
100
AcDbEntity
  8
0-F
  6
Continuous
 62
     3
370
     9
100
AcDbLine
 10
-1349.662404314911
 20
1443.877076063046
 30
0.0
 11
-1042.162582471582
 21
1443.877076063046
 31
0.0
  0
LINE
  5
21C
330
1F
100
AcDbEntity
  8
0-F
  6
Continuous
 62
     3
370
     9
100
AcDbLine
 10
-1042.162582471582
 20
1443.877076063046
 30
0.0
 11
-1030.162493393244
 21
1455.877412581209
 31
0.0
  0
LINE
  5
21D
330
1F
100
AcDbEntity
  8
0-F
  6
Continuous
 62
     4
370
     9
100
AcDbLine
 10
-1313.412617113157
 20
1283.877749099367
 30
0.0
 11
-1313.412617113157
 21
1253.877749099367
 31
0.0
  0
LINE
  5
21E
330
1F
100
AcDbEntity
  8
0-F
  6
Continuous
 62
     4
370
     9
100
AcDbLine
 10
-1298.412617113157
 20
1283.877749099367
 30
0.0
 11
-1298.412617113157
 21
1253.877749099367
 31
0.0
  0
LINE
  5
21F
330
1F
100
AcDbEntity
  8
0-F
  6
Continuous
 62
     4
370
     9
100
AcDbLine
 10
-1329.001072313352
 20
1283.877749099367
 30
0.0
 11
-1329.001072313352
 21
1253.877749099367
 31
0.0
  0
LINE
  5
220
330
1F
100
AcDbEntity
  8
0-F
  6
Continuous
 62
     4
370
     9
100
AcDbLine
 10
-1329.001072313352
 20
1283.877749099367
 30
0.0
 11
-1282.824161912961
 21
1283.877749099367
 31
0.0
  0
LINE
  5
221
330
1F
100
AcDbEntity
  8
0-F
  6
Continuous
 62
     4
370
     9
100
AcDbLine
 10
-1329.001072313352
 20
1253.877749099367
 30
0.0
 11
-1282.824161912961
 21
1253.877749099367
 31
0.0
  0
LINE
  5
222
330
1F
100
AcDbEntity
  8
0-F
  6
Continuous
 62
     4
370
     9
100
AcDbLine
 10
-1282.824161912961
 20
1283.877749099367
 30
0.0
 11
-1282.824161912961
 21
1253.877749099367
 31
0.0
  0
LINE
  5
223
330
1F
100
AcDbEntity
  8
0-F
  6
JWW_CENTER1
 62
     4
370
     9
100
AcDbLine
 10
-1335.321645545858
 20
1268.877749099367
 30
0.0
 11
-1276.503588680455
 21
1268.877749099367
 31
0.0
  0
LINE
  5
224
330
1F
100
AcDbEntity
  8
0-F
  6
JWW_CENTER1
 62
     4
370
     9
100
AcDbLine
 10
-1305.912617113157
 20
1290.995119704836
 30
0.0
 11
-1305.912617113157
 21
1247.756075515382
 31
0.0
  0
LINE
  5
225
330
1F
100
AcDbEntity
  8
0-F
  6
Continuous
 62
     2
370
     9
100
AcDbLine
 10
-1307.412597317965
 20
1380.279528686571
 30
0.0
 11
-1307.412597317965
 21
1357.475969512158
 31
0.0
  0
LINE
  5
226
330
1F
100
AcDbEntity
  8
0-F
  6
Continuous
 62
     2
370
     9
100
AcDbLine
 10
-1304.412389468519
 20
1380.279528686571
 30
0.0
 11
-1304.412389468519
 21
1357.475969512158
 31
0.0
  0
CIRCLE
  5
227
330
1F
100
AcDbEntity
  8
0-F
  6
Continuous
 62
     2
370
     9
100
AcDbCircle
 10
-1305.912617113157
 20
1368.877749099367
 30
0.0
 40
16.00000117276166
  0
CIRCLE
  5
228
330
1F
100
AcDbEntity
  8
0-F
  6
Continuous
 62
     2
370
     9
100
AcDbCircle
 10
-1305.912617113157
 20
1368.877749099367
 30
0.0
 40
11.50000063148705
  0
CIRCLE
  5
229
330
1F
100
AcDbEntity
  8
0-F
  6
Continuous
 62
     2
370
     9
100
AcDbCircle
 10
-1305.912617113157
 20
1368.877749099367
 30
0.0
 40
12.0000011212117
  0
LINE
  5
22A
330
1F
100
AcDbEntity
  8
0-F
  6
JWW_CENTER1
 62
     2
370
     9
100
AcDbLine
 10
-1336.912620412353
 20
1368.877625379452
 30
0.0
 11
-1274.912613813961
 21
1368.877625379452
 31
0.0
  0
LINE
  5
22B
330
1F
100
AcDbEntity
  8
0-F
  6
JWW_CENTER1
 62
     2
370
     9
100
AcDbLine
 10
-1305.912493393247
 20
1337.877745800171
 30
0.0
 11
-1305.912493393247
 21
1399.877752398562
 31
0.0
  0
LINE
  5
22C
330
1F
100
AcDbEntity
  8
0-F
  6
Continuous
 62
     4
370
     9
100
AcDbLine
 10
-1093.412617113156
 20
1283.877749099367
 30
0.0
 11
-1093.412617113156
 21
1253.877749099367
 31
0.0
  0
LINE
  5
22D
330
1F
100
AcDbEntity
  8
0-F
  6
Continuous
 62
     4
370
     9
100
AcDbLine
 10
-1078.412617113156
 20
1283.877749099367
 30
0.0
 11
-1078.412617113156
 21
1253.877749099367
 31
0.0
  0
LINE
  5
22E
330
1F
100
AcDbEntity
  8
0-F
  6
Continuous
 62
     4
370
     9
100
AcDbLine
 10
-1109.001072313352
 20
1283.877749099367
 30
0.0
 11
-1109.001072313352
 21
1253.877749099367
 31
0.0
  0
LINE
  5
22F
330
1F
100
AcDbEntity
  8
0-F
  6
Continuous
 62
     4
370
     9
100
AcDbLine
 10
-1109.001072313352
 20
1283.877749099367
 30
0.0
 11
-1062.824161912961
 21
1283.877749099367
 31
0.0
  0
LINE
  5
230
330
1F
100
AcDbEntity
  8
0-F
  6
Continuous
 62
     4
370
     9
100
AcDbLine
 10
-1109.001072313352
 20
1253.877749099367
 30
0.0
 11
-1062.824161912961
 21
1253.877749099367
 31
0.0
  0
LINE
  5
231
330
1F
100
AcDbEntity
  8
0-F
  6
Continuous
 62
     4
370
     9
100
AcDbLine
 10
-1062.824161912961
 20
1283.877749099367
 30
0.0
 11
-1062.824161912961
 21
1253.877749099367
 31
0.0
  0
LINE
  5
232
330
1F
100
AcDbEntity
  8
0-F
  6
JWW_CENTER1
 62
     4
370
     9
100
AcDbLine
 10
-1115.321645545858
 20
1268.877749099367
 30
0.0
 11
-1056.503588680455
 21
1268.877749099367
 31
0.0
  0
LINE
  5
233
330
1F
100
AcDbEntity
  8
0-F
  6
JWW_CENTER1
 62
     4
370
     9
100
AcDbLine
 10
-1085.912617113156
 20
1290.995119704836
 30
0.0
 11
-1085.912617113156
 21
1247.756075515382
 31
0.0
  0
LINE
  5
234
330
1F
100
AcDbEntity
  8
0-F
  6
Continuous
 62
     2
370
     9
100
AcDbLine
 10
-1087.412597317964
 20
1380.279528686571
 30
0.0
 11
-1087.412597317964
 21
1357.475969512158
 31
0.0
  0
LINE
  5
235
330
1F
100
AcDbEntity
  8
0-F
  6
Continuous
 62
     2
370
     9
100
AcDbLine
 10
-1084.412389468519
 20
1380.279528686571
 30
0.0
 11
-1084.412389468519
 21
1357.475969512158
 31
0.0
  0
CIRCLE
  5
236
330
1F
100
AcDbEntity
  8
0-F
  6
Continuous
 62
     2
370
     9
100
AcDbCircle
 10
-1085.912617113156
 20
1368.877749099367
 30
0.0
 40
16.00000117276166
  0
CIRCLE
  5
237
330
1F
100
AcDbEntity
  8
0-F
  6
Continuous
 62
     2
370
     9
100
AcDbCircle
 10
-1085.912617113156
 20
1368.877749099367
 30
0.0
 40
11.50000063148705
  0
CIRCLE
  5
238
330
1F
100
AcDbEntity
  8
0-F
  6
Continuous
 62
     2
370
     9
100
AcDbCircle
 10
-1085.912617113156
 20
1368.877749099367
 30
0.0
 40
12.0000011212117
  0
LINE
  5
239
330
1F
100
AcDbEntity
  8
0-F
  6
JWW_CENTER1
 62
     2
370
     9
100
AcDbLine
 10
-1116.912620412352
 20
1368.877625379452
 30
0.0
 11
-1054.912613813961
 21
1368.877625379452
 31
0.0
  0
LINE
  5
23A
330
1F
100
AcDbEntity
  8
0-F
  6
JWW_CENTER1
 62
     2
370
     9
100
AcDbLine
 10
-1085.912493393246
 20
1337.877745800171
 30
0.0
 11
-1085.912493393246
 21
1399.877752398562
 31
0.0
  0
LINE
  5
23B
330
1F
100
AcDbEntity
  8
0-F
  6
Continuous
 62
     3
370
     9
100
AcDbLine
 10
-1028.037493393248
 20
1455.877412581209
 30
0.0
 11
-1016.037404314911
 21
1443.877076063046
 31
0.0
  0
LINE
  5
23C
330
1F
100
AcDbEntity
  8
0-F
  6
Continuous
 62
     3
370
     9
100
AcDbLine
 10
-1028.037493393248
 20
1455.877412581209
 30
0.0
 11
-696.5374933932446
 21
1455.877412581209
 31
0.0
  0
LINE
  5
23D
330
1F
100
AcDbEntity
  8
0-F
  6
Continuous
 62
     3
370
     9
100
AcDbLine
 10
-1016.037404314911
 20
1443.877076063046
 30
0.0
 11
-708.5375824715823
 21
1443.877076063046
 31
0.0
  0
LINE
  5
23E
330
1F
100
AcDbEntity
  8
0-F
  6
Continuous
 62
     3
370
     9
100
AcDbLine
 10
-708.5375824715823
 20
1443.877076063046
 30
0.0
 11
-696.5374933932446
 21
1455.877412581209
 31
0.0
  0
LINE
  5
23F
330
1F
100
AcDbEntity
  8
0-F
  6
Continuous
 62
     4
370
     9
100
AcDbLine
 10
-979.7876171131571
 20
1283.877749099367
 30
0.0
 11
-979.7876171131571
 21
1253.877749099367
 31
0.0
  0
LINE
  5
240
330
1F
100
AcDbEntity
  8
0-F
  6
Continuous
 62
     4
370
     9
100
AcDbLine
 10
-964.7876171131571
 20
1283.877749099367
 30
0.0
 11
-964.7876171131571
 21
1253.877749099367
 31
0.0
  0
LINE
  5
241
330
1F
100
AcDbEntity
  8
0-F
  6
Continuous
 62
     4
370
     9
100
AcDbLine
 10
-995.3760723133524
 20
1283.877749099367
 30
0.0
 11
-995.3760723133524
 21
1253.877749099367
 31
0.0
  0
LINE
  5
242
330
1F
100
AcDbEntity
  8
0-F
  6
Continuous
 62
     4
370
     9
100
AcDbLine
 10
-995.3760723133524
 20
1283.877749099367
 30
0.0
 11
-949.1991619129612
 21
1283.877749099367
 31
0.0
  0
LINE
  5
243
330
1F
100
AcDbEntity
  8
0-F
  6
Continuous
 62
     4
370
     9
100
AcDbLine
 10
-995.3760723133524
 20
1253.877749099367
 30
0.0
 11
-949.1991619129612
 21
1253.877749099367
 31
0.0
  0
LINE
  5
244
330
1F
100
AcDbEntity
  8
0-F
  6
Continuous
 62
     4
370
     9
100
AcDbLine
 10
-949.1991619129612
 20
1283.877749099367
 30
0.0
 11
-949.1991619129612
 21
1253.877749099367
 31
0.0
  0
LINE
  5
245
330
1F
100
AcDbEntity
  8
0-F
  6
JWW_CENTER1
 62
     4
370
     9
100
AcDbLine
 10
-1001.696645545858
 20
1268.877749099367
 30
0.0
 11
-942.8785886804553
 21
1268.877749099367
 31
0.0
  0
LINE
  5
246
330
1F
100
AcDbEntity
  8
0-F
  6
JWW_CENTER1
 62
     4
370
     9
100
AcDbLine
 10
-972.2876171131571
 20
1290.995119704836
 30
0.0
 11
-972.2876171131571
 21
1247.756075515382
 31
0.0
  0
LINE
  5
247
330
1F
100
AcDbEntity
  8
0-F
  6
Continuous
 62
     2
370
     9
100
AcDbLine
 10
-973.7875973179649
 20
1380.279528686571
 30
0.0
 11
-973.7875973179649
 21
1357.475969512158
 31
0.0
  0
LINE
  5
248
330
1F
100
AcDbEntity
  8
0-F
  6
Continuous
 62
     2
370
     9
100
AcDbLine
 10
-970.7873894685196
 20
1380.279528686571
 30
0.0
 11
-970.7873894685196
 21
1357.475969512158
 31
0.0
  0
CIRCLE
  5
249
330
1F
100
AcDbEntity
  8
0-F
  6
Continuous
 62
     2
370
     9
100
AcDbCircle
 10
-972.2876171131571
 20
1368.877749099367
 30
0.0
 40
16.00000117276166
  0
CIRCLE
  5
24A
330
1F
100
AcDbEntity
  8
0-F
  6
Continuous
 62
     2
370
     9
100
AcDbCircle
 10
-972.2876171131571
 20
1368.877749099367
 30
0.0
 40
11.50000063148705
  0
CIRCLE
  5
24B
330
1F
100
AcDbEntity
  8
0-F
  6
Continuous
 62
     2
370
     9
100
AcDbCircle
 10
-972.2876171131571
 20
1368.877749099367
 30
0.0
 40
12.0000011212117
  0
LINE
  5
24C
330
1F
100
AcDbEntity
  8
0-F
  6
JWW_CENTER1
 62
     2
370
     9
100
AcDbLine
 10
-1003.287620412353
 20
1368.877625379452
 30
0.0
 11
-941.2876138139609
 21
1368.877625379452
 31
0.0
  0
LINE
  5
24D
330
1F
100
AcDbEntity
  8
0-F
  6
JWW_CENTER1
 62
     2
370
     9
100
AcDbLine
 10
-972.2874933932468
 20
1337.877745800171
 30
0.0
 11
-972.2874933932468
 21
1399.877752398562
 31
0.0
  0
LINE
  5
24E
330
1F
100
AcDbEntity
  8
0-F
  6
Continuous
 62
     4
370
     9
100
AcDbLine
 10
-759.7876171131566
 20
1283.877749099367
 30
0.0
 11
-759.7876171131566
 21
1253.877749099367
 31
0.0
  0
LINE
  5
24F
330
1F
100
AcDbEntity
  8
0-F
  6
Continuous
 62
     4
370
     9
100
AcDbLine
 10
-744.7876171131566
 20
1283.877749099367
 30
0.0
 11
-744.7876171131566
 21
1253.877749099367
 31
0.0
  0
LINE
  5
250
330
1F
100
AcDbEntity
  8
0-F
  6
Continuous
 62
     4
370
     9
100
AcDbLine
 10
-775.3760723133519
 20
1283.877749099367
 30
0.0
 11
-775.3760723133519
 21
1253.877749099367
 31
0.0
  0
LINE
  5
251
330
1F
100
AcDbEntity
  8
0-F
  6
Continuous
 62
     4
370
     9
100
AcDbLine
 10
-775.3760723133519
 20
1283.877749099367
 30
0.0
 11
-729.1991619129612
 21
1283.877749099367
 31
0.0
  0
LINE
  5
252
330
1F
100
AcDbEntity
  8
0-F
  6
Continuous
 62
     4
370
     9
100
AcDbLine
 10
-775.3760723133519
 20
1253.877749099367
 30
0.0
 11
-729.1991619129612
 21
1253.877749099367
 31
0.0
  0
LINE
  5
253
330
1F
100
AcDbEntity
  8
0-F
  6
Continuous
 62
     4
370
     9
100
AcDbLine
 10
-729.1991619129612
 20
1283.877749099367
 30
0.0
 11
-729.1991619129612
 21
1253.877749099367
 31
0.0
  0
LINE
  5
254
330
1F
100
AcDbEntity
  8
0-F
  6
JWW_CENTER1
 62
     4
370
     9
100
AcDbLine
 10
-781.6966455458578
 20
1268.877749099367
 30
0.0
 11
-722.8785886804553
 21
1268.877749099367
 31
0.0
  0
LINE
  5
255
330
1F
100
AcDbEntity
  8
0-F
  6
JWW_CENTER1
 62
     4
370
     9
100
AcDbLine
 10
-752.2876171131566
 20
1290.995119704836
 30
0.0
 11
-752.2876171131566
 21
1247.756075515382
 31
0.0
  0
LINE
  5
256
330
1F
100
AcDbEntity
  8
0-F
  6
Continuous
 62
     2
370
     9
100
AcDbLine
 10
-753.7875973179644
 20
1380.279528686571
 30
0.0
 11
-753.7875973179644
 21
1357.475969512158
 31
0.0
  0
LINE
  5
257
330
1F
100
AcDbEntity
  8
0-F
  6
Continuous
 62
     2
370
     9
100
AcDbLine
 10
-750.787389468519
 20
1380.279528686571
 30
0.0
 11
-750.787389468519
 21
1357.475969512158
 31
0.0
  0
CIRCLE
  5
258
330
1F
100
AcDbEntity
  8
0-F
  6
Continuous
 62
     2
370
     9
100
AcDbCircle
 10
-752.2876171131566
 20
1368.877749099367
 30
0.0
 40
16.00000117276166
  0
CIRCLE
  5
259
330
1F
100
AcDbEntity
  8
0-F
  6
Continuous
 62
     2
370
     9
100
AcDbCircle
 10
-752.2876171131566
 20
1368.877749099367
 30
0.0
 40
11.50000063148705
  0
CIRCLE
  5
25A
330
1F
100
AcDbEntity
  8
0-F
  6
Continuous
 62
     2
370
     9
100
AcDbCircle
 10
-752.2876171131566
 20
1368.877749099367
 30
0.0
 40
12.0000011212117
  0
LINE
  5
25B
330
1F
100
AcDbEntity
  8
0-F
  6
JWW_CENTER1
 62
     2
370
     9
100
AcDbLine
 10
-783.2876204123522
 20
1368.877625379452
 30
0.0
 11
-721.2876138139609
 21
1368.877625379452
 31
0.0
  0
LINE
  5
25C
330
1F
100
AcDbEntity
  8
0-F
  6
JWW_CENTER1
 62
     2
370
     9
100
AcDbLine
 10
-752.2874933932462
 20
1337.877745800171
 30
0.0
 11
-752.2874933932462
 21
1399.877752398562
 31
0.0
  0
LINE
  5
25D
330
1F
100
AcDbEntity
  8
0-F
  6
Continuous
 62
     3
370
     9
100
AcDbLine
 10
-694.4124933932485
 20
1455.877412581209
 30
0.0
 11
-682.4124043149109
 21
1443.877076063046
 31
0.0
  0
LINE
  5
25E
330
1F
100
AcDbEntity
  8
0-F
  6
Continuous
 62
     3
370
     9
100
AcDbLine
 10
-694.4124933932485
 20
1455.877412581209
 30
0.0
 11
-362.9124933932448
 21
1455.877412581209
 31
0.0
  0
LINE
  5
25F
330
1F
100
AcDbEntity
  8
0-F
  6
Continuous
 62
     3
370
     9
100
AcDbLine
 10
-682.4124043149109
 20
1443.877076063046
 30
0.0
 11
-374.9125824715824
 21
1443.877076063046
 31
0.0
  0
LINE
  5
260
330
1F
100
AcDbEntity
  8
0-F
  6
Continuous
 62
     3
370
     9
100
AcDbLine
 10
-374.9125824715824
 20
1443.877076063046
 30
0.0
 11
-362.9124933932448
 21
1455.877412581209
 31
0.0
  0
LINE
  5
261
330
1F
100
AcDbEntity
  8
0-F
  6
Continuous
 62
     4
370
     9
100
AcDbLine
 10
-646.1626171131572
 20
1283.877749099367
 30
0.0
 11
-646.1626171131572
 21
1253.877749099367
 31
0.0
  0
LINE
  5
262
330
1F
100
AcDbEntity
  8
0-F
  6
Continuous
 62
     4
370
     9
100
AcDbLine
 10
-631.1626171131572
 20
1283.877749099367
 30
0.0
 11
-631.1626171131572
 21
1253.877749099367
 31
0.0
  0
LINE
  5
263
330
1F
100
AcDbEntity
  8
0-F
  6
Continuous
 62
     4
370
     9
100
AcDbLine
 10
-661.7510723133526
 20
1283.877749099367
 30
0.0
 11
-661.7510723133526
 21
1253.877749099367
 31
0.0
  0
LINE
  5
264
330
1F
100
AcDbEntity
  8
0-F
  6
Continuous
 62
     4
370
     9
100
AcDbLine
 10
-661.7510723133526
 20
1283.877749099367
 30
0.0
 11
-615.5741619129615
 21
1283.877749099367
 31
0.0
  0
LINE
  5
265
330
1F
100
AcDbEntity
  8
0-F
  6
Continuous
 62
     4
370
     9
100
AcDbLine
 10
-661.7510723133526
 20
1253.877749099367
 30
0.0
 11
-615.5741619129615
 21
1253.877749099367
 31
0.0
  0
LINE
  5
266
330
1F
100
AcDbEntity
  8
0-F
  6
Continuous
 62
     4
370
     9
100
AcDbLine
 10
-615.5741619129615
 20
1283.877749099367
 30
0.0
 11
-615.5741619129615
 21
1253.877749099367
 31
0.0
  0
LINE
  5
267
330
1F
100
AcDbEntity
  8
0-F
  6
JWW_CENTER1
 62
     4
370
     9
100
AcDbLine
 10
-668.0716455458585
 20
1268.877749099367
 30
0.0
 11
-609.2535886804556
 21
1268.877749099367
 31
0.0
  0
LINE
  5
268
330
1F
100
AcDbEntity
  8
0-F
  6
JWW_CENTER1
 62
     4
370
     9
100
AcDbLine
 10
-638.6626171131572
 20
1290.995119704836
 30
0.0
 11
-638.6626171131572
 21
1247.756075515382
 31
0.0
  0
LINE
  5
269
330
1F
100
AcDbEntity
  8
0-F
  6
Continuous
 62
     2
370
     9
100
AcDbLine
 10
-640.162597317965
 20
1380.279528686571
 30
0.0
 11
-640.162597317965
 21
1357.475969512158
 31
0.0
  0
LINE
  5
26A
330
1F
100
AcDbEntity
  8
0-F
  6
Continuous
 62
     2
370
     9
100
AcDbLine
 10
-637.1623894685197
 20
1380.279528686571
 30
0.0
 11
-637.1623894685197
 21
1357.475969512158
 31
0.0
  0
CIRCLE
  5
26B
330
1F
100
AcDbEntity
  8
0-F
  6
Continuous
 62
     2
370
     9
100
AcDbCircle
 10
-638.6626171131572
 20
1368.877749099367
 30
0.0
 40
16.00000117276166
  0
CIRCLE
  5
26C
330
1F
100
AcDbEntity
  8
0-F
  6
Continuous
 62
     2
370
     9
100
AcDbCircle
 10
-638.6626171131572
 20
1368.877749099367
 30
0.0
 40
11.50000063148705
  0
CIRCLE
  5
26D
330
1F
100
AcDbEntity
  8
0-F
  6
Continuous
 62
     2
370
     9
100
AcDbCircle
 10
-638.6626171131572
 20
1368.877749099367
 30
0.0
 40
12.0000011212117
  0
LINE
  5
26E
330
1F
100
AcDbEntity
  8
0-F
  6
JWW_CENTER1
 62
     2
370
     9
100
AcDbLine
 10
-669.6626204123529
 20
1368.877625379452
 30
0.0
 11
-607.6626138139611
 21
1368.877625379452
 31
0.0
  0
LINE
  5
26F
330
1F
100
AcDbEntity
  8
0-F
  6
JWW_CENTER1
 62
     2
370
     9
100
AcDbLine
 10
-638.6624933932469
 20
1337.877745800171
 30
0.0
 11
-638.6624933932469
 21
1399.877752398562
 31
0.0
  0
LINE
  5
270
330
1F
100
AcDbEntity
  8
0-F
  6
Continuous
 62
     4
370
     9
100
AcDbLine
 10
-426.1626171131567
 20
1283.877749099367
 30
0.0
 11
-426.1626171131567
 21
1253.877749099367
 31
0.0
  0
LINE
  5
271
330
1F
100
AcDbEntity
  8
0-F
  6
Continuous
 62
     4
370
     9
100
AcDbLine
 10
-411.1626171131567
 20
1283.877749099367
 30
0.0
 11
-411.1626171131567
 21
1253.877749099367
 31
0.0
  0
LINE
  5
272
330
1F
100
AcDbEntity
  8
0-F
  6
Continuous
 62
     4
370
     9
100
AcDbLine
 10
-441.751072313352
 20
1283.877749099367
 30
0.0
 11
-441.751072313352
 21
1253.877749099367
 31
0.0
  0
LINE
  5
273
330
1F
100
AcDbEntity
  8
0-F
  6
Continuous
 62
     4
370
     9
100
AcDbLine
 10
-441.751072313352
 20
1283.877749099367
 30
0.0
 11
-395.5741619129614
 21
1283.877749099367
 31
0.0
  0
LINE
  5
274
330
1F
100
AcDbEntity
  8
0-F
  6
Continuous
 62
     4
370
     9
100
AcDbLine
 10
-441.751072313352
 20
1253.877749099367
 30
0.0
 11
-395.5741619129614
 21
1253.877749099367
 31
0.0
  0
LINE
  5
275
330
1F
100
AcDbEntity
  8
0-F
  6
Continuous
 62
     4
370
     9
100
AcDbLine
 10
-395.5741619129614
 20
1283.877749099367
 30
0.0
 11
-395.5741619129614
 21
1253.877749099367
 31
0.0
  0
LINE
  5
276
330
1F
100
AcDbEntity
  8
0-F
  6
JWW_CENTER1
 62
     4
370
     9
100
AcDbLine
 10
-448.071645545858
 20
1268.877749099367
 30
0.0
 11
-389.2535886804555
 21
1268.877749099367
 31
0.0
  0
LINE
  5
277
330
1F
100
AcDbEntity
  8
0-F
  6
JWW_CENTER1
 62
     4
370
     9
100
AcDbLine
 10
-418.6626171131567
 20
1290.995119704836
 30
0.0
 11
-418.6626171131567
 21
1247.756075515382
 31
0.0
  0
LINE
  5
278
330
1F
100
AcDbEntity
  8
0-F
  6
Continuous
 62
     2
370
     9
100
AcDbLine
 10
-420.1625973179645
 20
1380.279528686571
 30
0.0
 11
-420.1625973179645
 21
1357.475969512158
 31
0.0
  0
LINE
  5
279
330
1F
100
AcDbEntity
  8
0-F
  6
Continuous
 62
     2
370
     9
100
AcDbLine
 10
-417.1623894685192
 20
1380.279528686571
 30
0.0
 11
-417.1623894685192
 21
1357.475969512158
 31
0.0
  0
CIRCLE
  5
27A
330
1F
100
AcDbEntity
  8
0-F
  6
Continuous
 62
     2
370
     9
100
AcDbCircle
 10
-418.6626171131567
 20
1368.877749099367
 30
0.0
 40
16.00000117276166
  0
CIRCLE
  5
27B
330
1F
100
AcDbEntity
  8
0-F
  6
Continuous
 62
     2
370
     9
100
AcDbCircle
 10
-418.6626171131567
 20
1368.877749099367
 30
0.0
 40
11.50000063148705
  0
CIRCLE
  5
27C
330
1F
100
AcDbEntity
  8
0-F
  6
Continuous
 62
     2
370
     9
100
AcDbCircle
 10
-418.6626171131567
 20
1368.877749099367
 30
0.0
 40
12.0000011212117
  0
LINE
  5
27D
330
1F
100
AcDbEntity
  8
0-F
  6
JWW_CENTER1
 62
     2
370
     9
100
AcDbLine
 10
-449.6626204123524
 20
1368.877625379452
 30
0.0
 11
-387.6626138139611
 21
1368.877625379452
 31
0.0
  0
LINE
  5
27E
330
1F
100
AcDbEntity
  8
0-F
  6
JWW_CENTER1
 62
     2
370
     9
100
AcDbLine
 10
-418.6624933932464
 20
1337.877745800171
 30
0.0
 11
-418.6624933932464
 21
1399.877752398562
 31
0.0
  0
LINE
  5
27F
330
1F
100
AcDbEntity
  8
0-F
  6
Continuous
 62
     3
370
     9
100
AcDbLine
 10
-360.7874933932487
 20
1455.877412581209
 30
0.0
 11
-348.7874043149111
 21
1443.877076063046
 31
0.0
  0
LINE
  5
280
330
1F
100
AcDbEntity
  8
0-F
  6
Continuous
 62
     3
370
     9
100
AcDbLine
 10
-360.7874933932487
 20
1455.877412581209
 30
0.0
 11
-29.28749339324497
 21
1455.877412581209
 31
0.0
  0
LINE
  5
281
330
1F
100
AcDbEntity
  8
0-F
  6
Continuous
 62
     3
370
     9
100
AcDbLine
 10
-348.7874043149111
 20
1443.877076063046
 30
0.0
 11
-41.2875824715826
 21
1443.877076063046
 31
0.0
  0
LINE
  5
282
330
1F
100
AcDbEntity
  8
0-F
  6
Continuous
 62
     3
370
     9
100
AcDbLine
 10
-41.2875824715826
 20
1443.877076063046
 30
0.0
 11
-29.28749339324497
 21
1455.877412581209
 31
0.0
  0
LINE
  5
283
330
1F
100
AcDbEntity
  8
0-F
  6
Continuous
 62
     4
370
     9
100
AcDbLine
 10
-312.5376171131575
 20
1283.877749099367
 30
0.0
 11
-312.5376171131575
 21
1253.877749099367
 31
0.0
  0
LINE
  5
284
330
1F
100
AcDbEntity
  8
0-F
  6
Continuous
 62
     4
370
     9
100
AcDbLine
 10
-297.5376171131575
 20
1283.877749099367
 30
0.0
 11
-297.5376171131575
 21
1253.877749099367
 31
0.0
  0
LINE
  5
285
330
1F
100
AcDbEntity
  8
0-F
  6
Continuous
 62
     4
370
     9
100
AcDbLine
 10
-328.1260723133528
 20
1283.877749099367
 30
0.0
 11
-328.1260723133528
 21
1253.877749099367
 31
0.0
  0
LINE
  5
286
330
1F
100
AcDbEntity
  8
0-F
  6
Continuous
 62
     4
370
     9
100
AcDbLine
 10
-328.1260723133528
 20
1283.877749099367
 30
0.0
 11
-281.9491619129616
 21
1283.877749099367
 31
0.0
  0
LINE
  5
287
330
1F
100
AcDbEntity
  8
0-F
  6
Continuous
 62
     4
370
     9
100
AcDbLine
 10
-328.1260723133528
 20
1253.877749099367
 30
0.0
 11
-281.9491619129616
 21
1253.877749099367
 31
0.0
  0
LINE
  5
288
330
1F
100
AcDbEntity
  8
0-F
  6
Continuous
 62
     4
370
     9
100
AcDbLine
 10
-281.9491619129616
 20
1283.877749099367
 30
0.0
 11
-281.9491619129616
 21
1253.877749099367
 31
0.0
  0
LINE
  5
289
330
1F
100
AcDbEntity
  8
0-F
  6
JWW_CENTER1
 62
     4
370
     9
100
AcDbLine
 10
-334.4466455458587
 20
1268.877749099367
 30
0.0
 11
-275.6285886804557
 21
1268.877749099367
 31
0.0
  0
LINE
  5
28A
330
1F
100
AcDbEntity
  8
0-F
  6
JWW_CENTER1
 62
     4
370
     9
100
AcDbLine
 10
-305.0376171131575
 20
1290.995119704836
 30
0.0
 11
-305.0376171131575
 21
1247.756075515382
 31
0.0
  0
LINE
  5
28B
330
1F
100
AcDbEntity
  8
0-F
  6
Continuous
 62
     2
370
     9
100
AcDbLine
 10
-306.5375973179653
 20
1380.279528686571
 30
0.0
 11
-306.5375973179653
 21
1357.475969512158
 31
0.0
  0
LINE
  5
28C
330
1F
100
AcDbEntity
  8
0-F
  6
Continuous
 62
     2
370
     9
100
AcDbLine
 10
-303.5373894685199
 20
1380.279528686571
 30
0.0
 11
-303.5373894685199
 21
1357.475969512158
 31
0.0
  0
CIRCLE
  5
28D
330
1F
100
AcDbEntity
  8
0-F
  6
Continuous
 62
     2
370
     9
100
AcDbCircle
 10
-305.0376171131575
 20
1368.877749099367
 30
0.0
 40
16.00000117276166
  0
CIRCLE
  5
28E
330
1F
100
AcDbEntity
  8
0-F
  6
Continuous
 62
     2
370
     9
100
AcDbCircle
 10
-305.0376171131575
 20
1368.877749099367
 30
0.0
 40
11.50000063148705
  0
CIRCLE
  5
28F
330
1F
100
AcDbEntity
  8
0-F
  6
Continuous
 62
     2
370
     9
100
AcDbCircle
 10
-305.0376171131575
 20
1368.877749099367
 30
0.0
 40
12.0000011212117
  0
LINE
  5
290
330
1F
100
AcDbEntity
  8
0-F
  6
JWW_CENTER1
 62
     2
370
     9
100
AcDbLine
 10
-336.0376204123531
 20
1368.877625379452
 30
0.0
 11
-274.0376138139612
 21
1368.877625379452
 31
0.0
  0
LINE
  5
291
330
1F
100
AcDbEntity
  8
0-F
  6
JWW_CENTER1
 62
     2
370
     9
100
AcDbLine
 10
-305.0374933932471
 20
1337.877745800171
 30
0.0
 11
-305.0374933932471
 21
1399.877752398562
 31
0.0
  0
LINE
  5
292
330
1F
100
AcDbEntity
  8
0-F
  6
Continuous
 62
     4
370
     9
100
AcDbLine
 10
-92.5376171131569
 20
1283.877749099367
 30
0.0
 11
-92.5376171131569
 21
1253.877749099367
 31
0.0
  0
LINE
  5
293
330
1F
100
AcDbEntity
  8
0-F
  6
Continuous
 62
     4
370
     9
100
AcDbLine
 10
-77.5376171131569
 20
1283.877749099367
 30
0.0
 11
-77.5376171131569
 21
1253.877749099367
 31
0.0
  0
LINE
  5
294
330
1F
100
AcDbEntity
  8
0-F
  6
Continuous
 62
     4
370
     9
100
AcDbLine
 10
-108.1260723133522
 20
1283.877749099367
 30
0.0
 11
-108.1260723133522
 21
1253.877749099367
 31
0.0
  0
LINE
  5
295
330
1F
100
AcDbEntity
  8
0-F
  6
Continuous
 62
     4
370
     9
100
AcDbLine
 10
-108.1260723133522
 20
1283.877749099367
 30
0.0
 11
-61.94916191296159
 21
1283.877749099367
 31
0.0
  0
LINE
  5
296
330
1F
100
AcDbEntity
  8
0-F
  6
Continuous
 62
     4
370
     9
100
AcDbLine
 10
-108.1260723133522
 20
1253.877749099367
 30
0.0
 11
-61.94916191296159
 21
1253.877749099367
 31
0.0
  0
LINE
  5
297
330
1F
100
AcDbEntity
  8
0-F
  6
Continuous
 62
     4
370
     9
100
AcDbLine
 10
-61.94916191296159
 20
1283.877749099367
 30
0.0
 11
-61.94916191296159
 21
1253.877749099367
 31
0.0
  0
LINE
  5
298
330
1F
100
AcDbEntity
  8
0-F
  6
JWW_CENTER1
 62
     4
370
     9
100
AcDbLine
 10
-114.4466455458581
 20
1268.877749099367
 30
0.0
 11
-55.62858868045566
 21
1268.877749099367
 31
0.0
  0
LINE
  5
299
330
1F
100
AcDbEntity
  8
0-F
  6
JWW_CENTER1
 62
     4
370
     9
100
AcDbLine
 10
-85.0376171131569
 20
1290.995119704836
 30
0.0
 11
-85.0376171131569
 21
1247.756075515382
 31
0.0
  0
LINE
  5
29A
330
1F
100
AcDbEntity
  8
0-F
  6
Continuous
 62
     2
370
     9
100
AcDbLine
 10
-86.5375973179647
 20
1380.279528686571
 30
0.0
 11
-86.5375973179647
 21
1357.475969512158
 31
0.0
  0
LINE
  5
29B
330
1F
100
AcDbEntity
  8
0-F
  6
Continuous
 62
     2
370
     9
100
AcDbLine
 10
-83.53738946851934
 20
1380.279528686571
 30
0.0
 11
-83.53738946851934
 21
1357.475969512158
 31
0.0
  0
CIRCLE
  5
29C
330
1F
100
AcDbEntity
  8
0-F
  6
Continuous
 62
     2
370
     9
100
AcDbCircle
 10
-85.0376171131569
 20
1368.877749099367
 30
0.0
 40
16.00000117276166
  0
CIRCLE
  5
29D
330
1F
100
AcDbEntity
  8
0-F
  6
Continuous
 62
     2
370
     9
100
AcDbCircle
 10
-85.0376171131569
 20
1368.877749099367
 30
0.0
 40
11.50000063148705
  0
CIRCLE
  5
29E
330
1F
100
AcDbEntity
  8
0-F
  6
Continuous
 62
     2
370
     9
100
AcDbCircle
 10
-85.0376171131569
 20
1368.877749099367
 30
0.0
 40
12.0000011212117
  0
LINE
  5
29F
330
1F
100
AcDbEntity
  8
0-F
  6
JWW_CENTER1
 62
     2
370
     9
100
AcDbLine
 10
-116.0376204123526
 20
1368.877625379452
 30
0.0
 11
-54.03761381396123
 21
1368.877625379452
 31
0.0
  0
LINE
  5
2A0
330
1F
100
AcDbEntity
  8
0-F
  6
JWW_CENTER1
 62
     2
370
     9
100
AcDbLine
 10
-85.03749339324656
 20
1337.877745800171
 30
0.0
 11
-85.03749339324656
 21
1399.877752398562
 31
0.0
  0
LINE
  5
2A1
330
1F
100
AcDbEntity
  8
0-F
  6
Continuous
 62
     7
370
     9
100
AcDbLine
 10
-1695.287493393248
 20
1668.877323502874
 30
0.0
 11
-1363.787493393244
 21
1668.877323502874
 31
0.0
  0
LWPOLYLINE
  5
2A2
330
1F
100
AcDbEntity
  8
0-F
  6
Continuous
 62
     7
370
     9
100
AcDbPolyline
 90
        4
 70
     1
 43
2.0
 10
-1362.787493393244
 20
1668.877323502874
 42
0.4142135623731
 10
-1363.787493393244
 20
1669.877323502874
 42
0.4142135623731
 10
-1364.787493393244
 20
1668.877323502874
 42
0.4142135623731
 10
-1363.787493393244
 20
1667.877323502874
 42
0.4142135623731
  0
TEXT
  5
2A3
330
1F
100
AcDbEntity
  8
0-F
  6
Continuous
 62
     2
370
   211
100
AcDbText
 10
-1584.537493393246
 20
1679.517323502874
 30
0.0
 40
30.48
  1
331.5
 41
1.1
  7
ＭＳ ゴシック
100
AcDbText
  0
LINE
  5
2A4
330
1F
100
AcDbEntity
  8
0-F
  6
Continuous
 62
     7
370
     9
100
AcDbLine
 10
-1363.787493393244
 20
1668.877323502874
 30
0.0
 11
-1361.662493393248
 21
1668.877323502874
 31
0.0
  0
LWPOLYLINE
  5
2A5
330
1F
100
AcDbEntity
  8
0-F
  6
Continuous
 62
     7
370
     9
100
AcDbPolyline
 90
        4
 70
     1
 43
2.0
 10
-1360.662493393248
 20
1668.877323502874
 42
0.4142135623731
 10
-1361.662493393248
 20
1669.877323502874
 42
0.4142135623731
 10
-1362.662493393248
 20
1668.877323502874
 42
0.4142135623731
 10
-1361.662493393248
 20
1667.877323502874
 42
0.4142135623731
  0
TEXT
  5
2A6
330
1F
100
AcDbEntity
  8
0-F
  6
Continuous
 62
     2
370
   211
100
AcDbText
 10
-1395.224993393246
 20
1679.517323502874
 30
0.0
 40
30.48
  1
2.1
 41
1.083333333333333
  7
ＭＳ ゴシック
100
AcDbText
  0
LINE
  5
2A7
330
1F
100
AcDbEntity
  8
0-F
  6
Continuous
 62
     7
370
     9
100
AcDbLine
 10
-1361.662493393248
 20
1668.877323502874
 30
0.0
 11
-1030.162493393244
 21
1668.877323502874
 31
0.0
  0
LWPOLYLINE
  5
2A8
330
1F
100
AcDbEntity
  8
0-F
  6
Continuous
 62
     7
370
     9
100
AcDbPolyline
 90
        4
 70
     1
 43
2.0
 10
-1029.162493393244
 20
1668.877323502874
 42
0.4142135623731
 10
-1030.162493393244
 20
1669.877323502874
 42
0.4142135623731
 10
-1031.162493393244
 20
1668.877323502874
 42
0.4142135623731
 10
-1030.162493393244
 20
1667.877323502874
 42
0.4142135623731
  0
TEXT
  5
2A9
330
1F
100
AcDbEntity
  8
0-F
  6
Continuous
 62
     2
370
   211
100
AcDbText
 10
-1250.912493393246
 20
1679.517323502874
 30
0.0
 40
30.48
  1
331.5
 41
1.1
  7
ＭＳ ゴシック
100
AcDbText
  0
LINE
  5
2AA
330
1F
100
AcDbEntity
  8
0-F
  6
Continuous
 62
     7
370
     9
100
AcDbLine
 10
-1030.162493393244
 20
1668.877323502874
 30
0.0
 11
-1028.037493393248
 21
1668.877323502874
 31
0.0
  0
LWPOLYLINE
  5
2AB
330
1F
100
AcDbEntity
  8
0-F
  6
Continuous
 62
     7
370
     9
100
AcDbPolyline
 90
        4
 70
     1
 43
2.0
 10
-1027.037493393248
 20
1668.877323502874
 42
0.4142135623731
 10
-1028.037493393248
 20
1669.877323502874
 42
0.4142135623731
 10
-1029.037493393248
 20
1668.877323502874
 42
0.4142135623731
 10
-1028.037493393248
 20
1667.877323502874
 42
0.4142135623731
  0
TEXT
  5
2AC
330
1F
100
AcDbEntity
  8
0-F
  6
Continuous
 62
     2
370
   211
100
AcDbText
 10
-1061.599993393246
 20
1679.517323502874
 30
0.0
 40
30.48
  1
2.1
 41
1.083333333333333
  7
ＭＳ ゴシック
100
AcDbText
  0
LINE
  5
2AD
330
1F
100
AcDbEntity
  8
0-F
  6
Continuous
 62
     7
370
     9
100
AcDbLine
 10
-1028.037493393248
 20
1668.877323502874
 30
0.0
 11
-696.5374933932446
 21
1668.877323502874
 31
0.0
  0
LWPOLYLINE
  5
2AE
330
1F
100
AcDbEntity
  8
0-F
  6
Continuous
 62
     7
370
     9
100
AcDbPolyline
 90
        4
 70
     1
 43
2.0
 10
-695.5374933932446
 20
1668.877323502874
 42
0.4142135623731
 10
-696.5374933932446
 20
1669.877323502874
 42
0.4142135623731
 10
-697.5374933932446
 20
1668.877323502874
 42
0.4142135623731
 10
-696.5374933932446
 20
1667.877323502874
 42
0.4142135623731
  0
TEXT
  5
2AF
330
1F
100
AcDbEntity
  8
0-F
  6
Continuous
 62
     2
370
   211
100
AcDbText
 10
-917.2874933932465
 20
1679.517323502874
 30
0.0
 40
30.48
  1
331.5
 41
1.1
  7
ＭＳ ゴシック
100
AcDbText
  0
LINE
  5
2B0
330
1F
100
AcDbEntity
  8
0-F
  6
Continuous
 62
     7
370
     9
100
AcDbLine
 10
-696.5374933932446
 20
1668.877323502874
 30
0.0
 11
-694.4124933932485
 21
1668.877323502874
 31
0.0
  0
LWPOLYLINE
  5
2B1
330
1F
100
AcDbEntity
  8
0-F
  6
Continuous
 62
     7
370
     9
100
AcDbPolyline
 90
        4
 70
     1
 43
2.0
 10
-693.4124933932486
 20
1668.877323502874
 42
0.4142135623731
 10
-694.4124933932485
 20
1669.877323502874
 42
0.4142135623731
 10
-695.4124933932485
 20
1668.877323502874
 42
0.4142135623731
 10
-694.4124933932485
 20
1667.877323502874
 42
0.4142135623731
  0
TEXT
  5
2B2
330
1F
100
AcDbEntity
  8
0-F
  6
Continuous
 62
     2
370
   211
100
AcDbText
 10
-727.9749933932466
 20
1679.517323502874
 30
0.0
 40
30.48
  1
2.1
 41
1.083333333333333
  7
ＭＳ ゴシック
100
AcDbText
  0
LINE
  5
2B3
330
1F
100
AcDbEntity
  8
0-F
  6
Continuous
 62
     7
370
     9
100
AcDbLine
 10
-694.4124933932485
 20
1668.877323502874
 30
0.0
 11
-362.9124933932448
 21
1668.877323502874
 31
0.0
  0
LWPOLYLINE
  5
2B4
330
1F
100
AcDbEntity
  8
0-F
  6
Continuous
 62
     7
370
     9
100
AcDbPolyline
 90
        4
 70
     1
 43
2.0
 10
-361.9124933932448
 20
1668.877323502874
 42
0.4142135623731
 10
-362.9124933932448
 20
1669.877323502874
 42
0.4142135623731
 10
-363.9124933932448
 20
1668.877323502874
 42
0.4142135623731
 10
-362.9124933932448
 20
1667.877323502874
 42
0.4142135623731
  0
TEXT
  5
2B5
330
1F
100
AcDbEntity
  8
0-F
  6
Continuous
 62
     2
370
   211
100
AcDbText
 10
-583.6624933932467
 20
1679.517323502874
 30
0.0
 40
30.48
  1
331.5
 41
1.1
  7
ＭＳ ゴシック
100
AcDbText
  0
LINE
  5
2B6
330
1F
100
AcDbEntity
  8
0-F
  6
Continuous
 62
     7
370
     9
100
AcDbLine
 10
-362.9124933932448
 20
1668.877323502874
 30
0.0
 11
-360.7874933932487
 21
1668.877323502874
 31
0.0
  0
LWPOLYLINE
  5
2B7
330
1F
100
AcDbEntity
  8
0-F
  6
Continuous
 62
     7
370
     9
100
AcDbPolyline
 90
        4
 70
     1
 43
2.0
 10
-359.7874933932487
 20
1668.877323502874
 42
0.4142135623731
 10
-360.7874933932487
 20
1669.877323502874
 42
0.4142135623731
 10
-361.7874933932487
 20
1668.877323502874
 42
0.4142135623731
 10
-360.7874933932487
 20
1667.877323502874
 42
0.4142135623731
  0
TEXT
  5
2B8
330
1F
100
AcDbEntity
  8
0-F
  6
Continuous
 62
     2
370
   211
100
AcDbText
 10
-394.3499933932468
 20
1679.517323502874
 30
0.0
 40
30.48
  1
2.1
 41
1.083333333333333
  7
ＭＳ ゴシック
100
AcDbText
  0
LINE
  5
2B9
330
1F
100
AcDbEntity
  8
0-F
  6
Continuous
 62
     7
370
     9
100
AcDbLine
 10
-360.7874933932487
 20
1668.877323502874
 30
0.0
 11
-29.28737462213377
 21
1668.877323502874
 31
0.0
  0
TEXT
  5
2BA
330
1F
100
AcDbEntity
  8
0-F
  6
Continuous
 62
     2
370
   211
100
AcDbText
 10
-250.0374340076912
 20
1679.517323502874
 30
0.0
 40
30.48
  1
331.5
 41
1.1
  7
ＭＳ ゴシック
100
AcDbText
  0
LINE
  5
2BB
330
1F
100
AcDbEntity
  8
0-F
  6
Continuous
 62
     7
370
     9
100
AcDbLine
 10
-1363.787493393244
 20
1671.877323502874
 30
0.0
 11
-1363.787493393244
 21
1591.658156525708
 31
0.0
  0
LINE
  5
2BC
330
1F
100
AcDbEntity
  8
0-F
  6
Continuous
 62
     7
370
     9
100
AcDbLine
 10
-1361.662493393248
 20
1671.877323502874
 30
0.0
 11
-1361.662493393248
 21
1591.658156525708
 31
0.0
  0
LINE
  5
2BD
330
1F
100
AcDbEntity
  8
0-F
  6
Continuous
 62
     7
370
     9
100
AcDbLine
 10
-1030.162493393244
 20
1671.877323502874
 30
0.0
 11
-1030.162493393244
 21
1591.658156525708
 31
0.0
  0
LINE
  5
2BE
330
1F
100
AcDbEntity
  8
0-F
  6
Continuous
 62
     7
370
     9
100
AcDbLine
 10
-1028.037493393248
 20
1671.877323502874
 30
0.0
 11
-1028.037493393248
 21
1591.658156525708
 31
0.0
  0
LINE
  5
2BF
330
1F
100
AcDbEntity
  8
0-F
  6
Continuous
 62
     7
370
     9
100
AcDbLine
 10
-696.5374933932446
 20
1671.877323502874
 30
0.0
 11
-696.5374933932446
 21
1591.658156525708
 31
0.0
  0
LINE
  5
2C0
330
1F
100
AcDbEntity
  8
0-F
  6
Continuous
 62
     7
370
     9
100
AcDbLine
 10
-694.4124933932485
 20
1671.877323502874
 30
0.0
 11
-694.4124933932485
 21
1591.658156525708
 31
0.0
  0
LINE
  5
2C1
330
1F
100
AcDbEntity
  8
0-F
  6
Continuous
 62
     7
370
     9
100
AcDbLine
 10
-362.9124933932448
 20
1671.877323502874
 30
0.0
 11
-362.9124933932448
 21
1591.658156525708
 31
0.0
  0
LINE
  5
2C2
330
1F
100
AcDbEntity
  8
0-F
  6
Continuous
 62
     7
370
     9
100
AcDbLine
 10
-360.7874933932487
 20
1671.877323502874
 30
0.0
 11
-360.7874933932487
 21
1591.658156525708
 31
0.0
  0
TEXT
  5
2C3
330
1F
100
AcDbEntity
  8
0-F
  6
Continuous
 62
     2
370
   211
100
AcDbText
 10
-906.0374340076912
 20
1590.516531695441
 30
0.0
 40
30.48
  1
1600
 41
1.09375
  7
ＭＳ ゴシック
100
AcDbText
  0
LWPOLYLINE
  5
2C4
330
1F
100
AcDbEntity
  8
0-F
  6
Continuous
 62
     7
370
     9
100
AcDbPolyline
 90
        4
 70
     1
 43
2.0
 10
-1638.537493393246
 20
1195.575972682973
 42
0.4142135623731
 10
-1639.537493393246
 20
1196.575972682973
 42
0.4142135623731
 10
-1640.537493393246
 20
1195.575972682973
 42
0.4142135623731
 10
-1639.537493393246
 20
1194.575972682973
 42
0.4142135623731
  0
LINE
  5
2C5
330
1F
100
AcDbEntity
  8
0-F
  6
Continuous
 62
     7
370
     9
100
AcDbLine
 10
-1639.537493393246
 20
1192.575972682972
 30
0.0
 11
-1639.537493393246
 21
1317.877745800171
 31
0.0
  0
LINE
  5
2C6
330
1F
100
AcDbEntity
  8
0-F
  6
Continuous
 62
     7
370
     9
100
AcDbLine
 10
-1499.613494303283
 20
1468.877254219722
 30
0.0
 11
-1499.613494303283
 21
1368.877625379452
 31
0.0
  0
LWPOLYLINE
  5
2C7
330
1F
100
AcDbEntity
  8
0-F
  6
Continuous
 62
     7
370
     9
100
AcDbPolyline
 90
        4
 70
     1
 43
2.0
 10
-1498.613494303283
 20
1368.877625379452
 42
0.4142135623731
 10
-1499.613494303283
 20
1369.877625379452
 42
0.4142135623731
 10
-1500.613494303283
 20
1368.877625379452
 42
0.4142135623731
 10
-1499.613494303283
 20
1367.877625379452
 42
0.4142135623731
  0
LWPOLYLINE
  5
2C8
330
1F
100
AcDbEntity
  8
0-F
  6
Continuous
 62
     7
370
     9
100
AcDbPolyline
 90
        4
 70
     1
 43
2.0
 10
-1498.613494303283
 20
1468.877254219722
 42
0.4142135623731
 10
-1499.613494303283
 20
1469.877254219722
 42
0.4142135623731
 10
-1500.613494303283
 20
1468.877254219722
 42
0.4142135623731
 10
-1499.613494303283
 20
1467.877254219722
 42
0.4142135623731
  0
TEXT
  5
2C9
330
1F
100
AcDbEntity
  8
0-F
  6
Continuous
 62
     2
370
   211
100
AcDbText
 10
-1510.253494303283
 20
1373.965684574408
 30
0.0
 40
30.48
  1
100
 50
90.0
 41
1.083333333333333
  7
ＭＳ ゴシック
100
AcDbText
  0
LINE
  5
2CA
330
1F
100
AcDbEntity
  8
0-F
  6
Continuous
 62
     7
370
     9
100
AcDbLine
 10
-1496.613494303283
 20
1368.877625379452
 30
0.0
 11
-1588.537613813961
 21
1368.877625379452
 31
0.0
  0
LWPOLYLINE
  5
2CB
330
1F
100
AcDbEntity
  8
0-F
  6
Continuous
 62
     7
370
     9
100
AcDbPolyline
 90
        4
 70
     1
 43
2.0
 10
-1418.537617113156
 20
1195.575972682973
 42
0.4142135623731
 10
-1419.537617113156
 20
1196.575972682973
 42
0.4142135623731
 10
-1420.537617113156
 20
1195.575972682973
 42
0.4142135623731
 10
-1419.537617113156
 20
1194.575972682973
 42
0.4142135623731
  0
LINE
  5
2CC
330
1F
100
AcDbEntity
  8
0-F
  6
Continuous
 62
     7
370
     9
100
AcDbLine
 10
-1419.537617113156
 20
1192.575972682972
 30
0.0
 11
-1419.537617113156
 21
1317.877745800171
 31
0.0
  0
LINE
  5
2CD
330
1F
100
AcDbEntity
  8
寸法
  6
Continuous
 62
     4
370
     9
100
AcDbLine
 10
-303.0374933932467
 20
1204.570122976979
 30
0.0
 11
-278.2513718589018
 21
1207.833277782481
 31
0.0
  0
LINE
  5
2CE
330
1F
100
AcDbEntity
  8
寸法
  6
Continuous
 62
     4
370
     9
100
AcDbLine
 10
-303.0374933932467
 20
1204.570122976979
 30
0.0
 11
-278.2513718589018
 21
1201.306968171479
 31
0.0
  0
LINE
  5
2CF
330
1F
100
AcDbEntity
  8
寸法
  6
Continuous
 62
     4
370
     9
100
AcDbLine
 10
-303.0374933932467
 20
1204.570122976979
 30
0.0
 11
-255.5720907013108
 21
1204.570122976979
 31
0.0
  0
TEXT
  5
2D0
330
1F
100
AcDbEntity
  8
寸法
  6
Continuous
 62
     2
370
     9
100
AcDbText
 10
-248.0066425169699
 20
1189.814565293813
 30
0.0
 40
30.48
  1
A
 41
0.9999999999999998
  7
ＭＳ ゴシック
100
AcDbText
  0
LINE
  5
2D1
330
1F
100
AcDbEntity
  8
寸法
  6
JWW_CENTER1
 62
     4
370
     9
100
AcDbLine
 10
-305.0374933932471
 20
1204.570122976979
 30
0.0
 11
-305.0374933932471
 21
1519.694135440798
 31
0.0
  0
LINE
  5
2D2
330
1F
100
AcDbEntity
  8
寸法
  6
Continuous
 62
     4
370
     9
100
AcDbLine
 10
-303.0374933932467
 20
1539.694135440798
 30
0.0
 11
-278.2513718589018
 21
1542.957290246298
 31
0.0
  0
LINE
  5
2D3
330
1F
100
AcDbEntity
  8
寸法
  6
Continuous
 62
     4
370
     9
100
AcDbLine
 10
-303.0374933932467
 20
1539.694135440798
 30
0.0
 11
-278.2513718589018
 21
1536.430980635296
 31
0.0
  0
LINE
  5
2D4
330
1F
100
AcDbEntity
  8
寸法
  6
Continuous
 62
     4
370
     9
100
AcDbLine
 10
-303.0374933932467
 20
1539.694135440798
 30
0.0
 11
-255.5720907013108
 21
1539.694135440798
 31
0.0
  0
TEXT
  5
2D5
330
1F
100
AcDbEntity
  8
寸法
  6
Continuous
 62
     2
370
     9
100
AcDbText
 10
-248.0066425169699
 20
1524.938577757631
 30
0.0
 40
30.48
  1
A
 41
0.9999999999999998
  7
ＭＳ ゴシック
100
AcDbText
  0
LINE
  5
2D6
330
1F
100
AcDbEntity
  8
寸法
  6
Continuous
 62
     7
370
     9
100
AcDbLine
 10
-1144.81391419271
 20
-448.8983828228791
 30
0.0
 11
-579.7608301027608
 21
-448.8983828228791
 31
0.0
  0
TEXT
  5
2D7
330
1F
100
AcDbEntity
  8
寸法
  6
Continuous
 62
     2
370
     9
100
AcDbText
 10
-1129.787372147735
 20
-433.4538272907843
 30
0.0
 40
30.48
  1
平面詳細図　Ｓ＝１：１０
 41
1.114583333333334
  7
ＭＳ ゴシック
100
AcDbText
  0
LINE
  5
2D8
330
1F
100
AcDbEntity
  8
0-E
  6
Continuous
 62
     3
370
     9
100
AcDbLine
 10
-96.28731936057306
 20
-157.3225927799897
 30
0.0
 11
-136.2873193605731
 21
-157.3225927799897
 31
0.0
  0
LINE
  5
2D9
330
1F
100
AcDbEntity
  8
0-E
  6
Continuous
 62
     3
370
     9
100
AcDbLine
 10
-96.28731936057306
 20
-157.3225927799897
 30
0.0
 11
-96.28731936057306
 21
-123.1226377315554
 31
0.0
  0
LINE
  5
2DA
330
1F
100
AcDbEntity
  8
0-E
  6
Continuous
 62
     3
370
     9
100
AcDbLine
 10
-136.2873193605731
 20
-157.3225927799897
 30
0.0
 11
-136.2873193605731
 21
-123.1226377315554
 31
0.0
  0
CIRCLE
  5
2DB
330
1F
100
AcDbEntity
  8
0-E
  6
Continuous
 62
     3
370
     9
100
AcDbCircle
 10
-116.2873193605731
 20
-142.3225927799897
 30
0.0
 40
6.999999999998181
  0
LINE
  5
2DC
330
1F
100
AcDbEntity
  8
0-E
  6
JWW_CENTER1
 62
     3
370
     9
100
AcDbLine
 10
-116.2873193605731
 20
-164.2955918062601
 30
0.0
 11
-116.2873193605731
 21
-123.1226377315554
 31
0.0
  0
LINE
  5
2DD
330
1F
100
AcDbEntity
  8
0-E
  6
JWW_CENTER1
 62
     3
370
     9
100
AcDbLine
 10
-140.6645608237807
 20
-142.3225927799897
 30
0.0
 11
-91.91007789736545
 21
-142.3225927799897
 31
0.0
  0
LINE
  5
2DE
330
1F
100
AcDbEntity
  8
0-E
  6
Continuous
 62
     3
370
     9
100
AcDbLine
 10
17.91257382790604
 20
-3.122699591506048
 30
0.0
 11
17.91257382790604
 21
-43.12269959150605
 31
0.0
  0
LINE
  5
2DF
330
1F
100
AcDbEntity
  8
0-E
  6
Continuous
 62
     3
370
     9
100
AcDbLine
 10
17.91257382790604
 20
-3.122699591506048
 30
0.0
 11
-16.28738122052823
 21
-3.122699591506048
 31
0.0
  0
LINE
  5
2E0
330
1F
100
AcDbEntity
  8
0-E
  6
Continuous
 62
     3
370
     9
100
AcDbLine
 10
17.91257382790604
 20
-43.12269959150605
 30
0.0
 11
-16.28738122052823
 21
-43.12269959150605
 31
0.0
  0
CIRCLE
  5
2E1
330
1F
100
AcDbEntity
  8
0-E
  6
Continuous
 62
     3
370
     9
100
AcDbCircle
 10
2.912573827906044
 20
-23.12269959150605
 30
0.0
 40
6.999999999998181
  0
LINE
  5
2E2
330
1F
100
AcDbEntity
  8
0-E
  6
JWW_CENTER1
 62
     3
370
     9
100
AcDbLine
 10
24.88557285417642
 20
-23.12269959150605
 30
0.0
 11
-16.28738122052823
 21
-23.12269959150605
 31
0.0
  0
LINE
  5
2E3
330
1F
100
AcDbEntity
  8
0-E
  6
JWW_CENTER1
 62
     3
370
     9
100
AcDbLine
 10
2.912573827906044
 20
-47.49994105471366
 30
0.0
 11
2.912573827906044
 21
1.254541871700425
 31
0.0
  0
LINE
  5
2E4
330
1F
100
AcDbEntity
  8
0-F
  6
Continuous
 62
     7
370
     9
100
AcDbLine
 10
-116.2868228259669
 20
-183.261338822907
 30
0.0
 11
-116.2857093467647
 21
-289.4894816385736
 31
0.0
  0
LWPOLYLINE
  5
2E5
330
1F
100
AcDbEntity
  8
0-F
  6
Continuous
 62
     7
370
     9
100
AcDbPolyline
 90
        4
 70
     1
 43
2.0
 10
-15.28575058673505
 20
-284.4884753832955
 42
0.4142135623731
 10
-16.28575058673505
 20
-283.4884753832955
 42
0.4142135623731
 10
-17.28575058673505
 20
-284.4884753832955
 42
0.4142135623731
 10
-16.28575058673505
 20
-285.4884753832955
 42
0.4142135623731
  0
LINE
  5
2E6
330
1F
100
AcDbEntity
  8
0-F
  6
Continuous
 62
     7
370
     9
100
AcDbLine
 10
17.9127652820921
 20
-289.4884753832955
 30
0.0
 11
17.9127652820921
 21
-74.33349557438511
 31
0.0
  0
LWPOLYLINE
  5
2E7
330
1F
100
AcDbEntity
  8
0-F
  6
Continuous
 62
     7
370
     9
100
AcDbPolyline
 90
        4
 70
     1
 43
2.0
 10
-115.2857093467647
 20
-284.4894651425861
 42
0.4142135623731
 10
-116.2857093467647
 20
-283.4894651425861
 42
0.4142135623731
 10
-117.2857093467647
 20
-284.4894651425861
 42
0.4142135623731
 10
-116.2857093467647
 20
-285.4894651425861
 42
0.4142135623731
  0
LINE
  5
2E8
330
1F
100
AcDbEntity
  8
0-F
  6
Continuous
 62
     7
370
     9
100
AcDbLine
 10
-116.2857093467647
 20
-284.4894651425861
 30
0.0
 11
-16.28575058673505
 21
-284.4894651425861
 31
0.0
  0
TEXT
  5
2E9
330
1F
100
AcDbEntity
  8
0-F
  6
Continuous
 62
     2
370
   211
100
AcDbText
 10
-98.7857299667499
 20
-272.8494651425859
 30
0.0
 40
30.48
  1
100
 41
1.083333333333333
  7
ＭＳ ゴシック
100
AcDbText
  0
LINE
  5
2EA
330
1F
100
AcDbEntity
  8
0-F
  6
Continuous
 62
     7
370
     9
100
AcDbLine
 10
-16.28575058673505
 20
-284.4894651425861
 30
0.0
 11
17.91276528209238
 21
-284.4894651425861
 31
0.0
  0
LWPOLYLINE
  5
2EB
330
1F
100
AcDbEntity
  8
0-F
  6
Continuous
 62
     7
370
     9
100
AcDbPolyline
 90
        4
 70
     1
 43
2.0
 10
18.91276528209238
 20
-284.4894651425861
 42
0.4142135623731
 10
17.91276528209238
 20
-283.4894651425861
 42
0.4142135623731
 10
16.91276528209238
 20
-284.4894651425861
 42
0.4142135623731
 10
17.91276528209238
 20
-285.4894651425861
 42
0.4142135623731
  0
LINE
  5
2EC
330
1F
100
AcDbEntity
  8
0-F
  6
Continuous
 62
     7
370
     9
100
AcDbLine
 10
-16.28711150575953
 20
-149.3335038223788
 30
0.0
 11
-16.28562686756084
 21
-289.4884223540053
 31
0.0
  0
TEXT
  5
2ED
330
1F
100
AcDbEntity
  8
0-F
  6
Continuous
 62
     2
370
   211
100
AcDbText
 10
-20.43649265232148
 20
-343.0710406017778
 30
0.0
 40
30.48
  1
34
 41
1.0625
  7
ＭＳ ゴシック
100
AcDbText
  0
LINE
  5
2EE
330
1F
100
AcDbEntity
  8
建具
  6
Continuous
 62
     2
370
     9
100
AcDbLine
 10
-28.28722285904064
 20
-111.1226105131775
 30
0.0
 11
-16.28738122052823
 21
-123.1226995915106
 31
0.0
  0
LINE
  5
2EF
330
1F
100
AcDbEntity
  8
0-F
  6
Continuous
 62
     7
370
     9
100
AcDbLine
 10
108.6965629884186
 20
-123.1226995915106
 30
0.0
 11
108.6965629884186
 21
-23.12236967174705
 31
0.0
  0
LINE
  5
2F0
330
1F
100
AcDbEntity
  8
0-F
  6
Continuous
 62
     7
370
     9
100
AcDbLine
 10
-1.287393592519948
 20
-123.1226995915106
 30
0.0
 11
113.6965794844072
 21
-123.1226995915106
 31
0.0
  0
LINE
  5
2F1
330
1F
100
AcDbEntity
  8
0-F
  6
Continuous
 62
     7
370
     9
100
AcDbLine
 10
39.2285266856689
 20
-23.12236967174705
 30
0.0
 11
113.6965794844072
 21
-23.12236967174705
 31
0.0
  0
TEXT
  5
2F2
330
1F
100
AcDbEntity
  8
0-F
  6
Continuous
 62
     2
370
     9
100
AcDbText
 10
97.0565803092061
 20
-105.6225037016507
 30
0.0
 40
30.48
  1
100
 50
90.0
 41
1.083333333333333
  7
ＭＳ ゴシック
100
AcDbText
  0
LWPOLYLINE
  5
2F3
330
1F
100
AcDbEntity
  8
0-F
  6
Continuous
 62
     7
370
     9
100
AcDbPolyline
 90
        4
 70
     1
 43
2.0
 10
109.6965629884186
 20
-123.1226995915106
 42
0.4142135623731
 10
108.6965629884186
 20
-122.1226995915106
 42
0.4142135623731
 10
107.6965629884186
 20
-123.1226995915106
 42
0.4142135623731
 10
108.6965629884186
 20
-124.1226995915106
 42
0.4142135623731
  0
LWPOLYLINE
  5
2F4
330
1F
100
AcDbEntity
  8
0-F
  6
Continuous
 62
     7
370
     9
100
AcDbPolyline
 90
        4
 70
     1
 43
2.0
 10
109.6965629884186
 20
-23.12236967174705
 42
0.4142135623731
 10
108.6965629884186
 20
-22.12236967174705
 42
0.4142135623731
 10
107.6965629884186
 20
-23.12236967174705
 42
0.4142135623731
 10
108.6965629884186
 20
-24.12236967174705
 42
0.4142135623731
  0
LINE
  5
2F5
330
1F
100
AcDbEntity
  8
0-F
  6
Continuous
 62
     7
370
     9
100
AcDbLine
 10
108.6965629884186
 20
-123.1226995915106
 30
0.0
 11
108.6965629884186
 21
-157.3229475390972
 31
0.0
  0
LWPOLYLINE
  5
2F6
330
1F
100
AcDbEntity
  8
0-F
  6
Continuous
 62
     7
370
     9
100
AcDbPolyline
 90
        4
 70
     1
 43
2.0
 10
109.6965629884186
 20
-157.3229475390972
 42
0.4142135623731
 10
108.6965629884186
 20
-156.3229475390972
 42
0.4142135623731
 10
107.6965629884186
 20
-157.3229475390972
 42
0.4142135623731
 10
108.6965629884186
 20
-158.3229475390972
 42
0.4142135623731
  0
LINE
  5
2F7
330
1F
100
AcDbEntity
  8
0-F
  6
Continuous
 62
     7
370
     9
100
AcDbLine
 10
113.6965629884186
 20
-157.3229475390972
 30
0.0
 11
-76.28733998055964
 21
-157.3229475390972
 31
0.0
  0
TEXT
  5
2F8
330
1F
100
AcDbEntity
  8
0-F
  6
Continuous
 62
     2
370
   211
100
AcDbText
 10
97.0565803092061
 20
-215.2746518830978
 30
0.0
 40
30.48
  1
34
 50
90.0
 41
1.0625
  7
ＭＳ ゴシック
100
AcDbText
  0
LINE
  5
2F9
330
1F
100
AcDbEntity
  8
0-F
  6
Continuous
 62
     7
370
     9
100
AcDbLine
 10
108.6965629884186
 20
-157.3229475390972
 30
0.0
 11
108.6965629884186
 21
-215.2746518830978
 31
0.0
  0
LINE
  5
2FA
330
1F
100
AcDbEntity
  8
0-E
  6
Continuous
 62
     3
370
     9
100
AcDbLine
 10
-1742.487318123377
 20
-43.1226995915106
 30
0.0
 11
-1742.487318123377
 21
-3.122699591510596
 31
0.0
  0
LINE
  5
2FB
330
1F
100
AcDbEntity
  8
0-E
  6
Continuous
 62
     3
370
     9
100
AcDbLine
 10
-1742.487318123377
 20
-43.1226995915106
 30
0.0
 11
-1708.287363074943
 21
-43.1226995915106
 31
0.0
  0
LINE
  5
2FC
330
1F
100
AcDbEntity
  8
0-E
  6
Continuous
 62
     3
370
     9
100
AcDbLine
 10
-1742.487318123377
 20
-3.122699591510596
 30
0.0
 11
-1708.287363074943
 21
-3.122699591510596
 31
0.0
  0
CIRCLE
  5
2FD
330
1F
100
AcDbEntity
  8
0-E
  6
Continuous
 62
     3
370
     9
100
AcDbCircle
 10
-1727.487318123377
 20
-23.1226995915106
 30
0.0
 40
6.999999999998181
  0
LINE
  5
2FE
330
1F
100
AcDbEntity
  8
0-E
  6
JWW_CENTER1
 62
     3
370
     9
100
AcDbLine
 10
-1749.460317149648
 20
-23.1226995915106
 30
0.0
 11
-1708.287363074943
 21
-23.1226995915106
 31
0.0
  0
LINE
  5
2FF
330
1F
100
AcDbEntity
  8
0-E
  6
JWW_CENTER1
 62
     3
370
     9
100
AcDbLine
 10
-1727.487318123377
 20
1.254541871697015
 30
0.0
 11
-1727.487318123377
 21
-47.49994105471707
 31
0.0
  0
LINE
  5
300
330
1F
100
AcDbEntity
  8
0-E
  6
Continuous
 62
     3
370
     9
100
AcDbLine
 10
-1588.287424934894
 20
-157.3225927799897
 30
0.0
 11
-1628.287424934894
 21
-157.3225927799897
 31
0.0
  0
LINE
  5
301
330
1F
100
AcDbEntity
  8
0-E
  6
Continuous
 62
     3
370
     9
100
AcDbLine
 10
-1588.287424934894
 20
-157.3225927799897
 30
0.0
 11
-1588.287424934894
 21
-123.1226377315554
 31
0.0
  0
LINE
  5
302
330
1F
100
AcDbEntity
  8
0-E
  6
Continuous
 62
     3
370
     9
100
AcDbLine
 10
-1628.287424934894
 20
-157.3225927799897
 30
0.0
 11
-1628.287424934894
 21
-123.1226377315554
 31
0.0
  0
CIRCLE
  5
303
330
1F
100
AcDbEntity
  8
0-E
  6
Continuous
 62
     3
370
     9
100
AcDbCircle
 10
-1608.287424934894
 20
-142.3225927799897
 30
0.0
 40
6.999999999998181
  0
LINE
  5
304
330
1F
100
AcDbEntity
  8
0-E
  6
JWW_CENTER1
 62
     3
370
     9
100
AcDbLine
 10
-1608.287424934894
 20
-164.2955918062601
 30
0.0
 11
-1608.287424934894
 21
-123.1226377315554
 31
0.0
  0
LINE
  5
305
330
1F
100
AcDbEntity
  8
0-E
  6
JWW_CENTER1
 62
     3
370
     9
100
AcDbLine
 10
-1632.664666398101
 20
-142.3225927799897
 30
0.0
 11
-1583.910183471686
 21
-142.3225927799897
 31
0.0
  0
LINE
  5
306
330
1F
100
AcDbEntity
  8
0-F
  6
Continuous
 62
     7
370
     9
100
AcDbLine
 10
-1608.287010880232
 20
-186.6332012859559
 30
0.0
 11
-1608.287010880232
 21
-289.4894816385736
 31
0.0
  0
LINE
  5
307
330
1F
100
AcDbEntity
  8
0-F
  6
Continuous
 62
     7
370
     9
100
AcDbLine
 10
-1708.287340799996
 20
-149.3336275422903
 30
0.0
 11
-1708.287340799996
 21
-289.4894816385736
 31
0.0
  0
LWPOLYLINE
  5
308
330
1F
100
AcDbEntity
  8
0-F
  6
Continuous
 62
     7
370
     9
100
AcDbPolyline
 90
        4
 70
     1
 43
2.0
 10
-1707.287340799996
 20
-284.4894651425861
 42
0.4142135623731
 10
-1708.287340799996
 20
-283.4894651425861
 42
0.4142135623731
 10
-1709.287340799996
 20
-284.4894651425861
 42
0.4142135623731
 10
-1708.287340799996
 20
-285.4894651425861
 42
0.4142135623731
  0
LINE
  5
309
330
1F
100
AcDbEntity
  8
0-F
  6
Continuous
 62
     7
370
     9
100
AcDbLine
 10
-1742.487588747581
 20
-289.4894651425861
 30
0.0
 11
-1742.487588747581
 21
-74.33349557438511
 31
0.0
  0
LINE
  5
30A
330
1F
100
AcDbEntity
  8
0-F
  6
Continuous
 62
     7
370
     9
100
AcDbLine
 10
-1742.487588747581
 20
-284.4894651425861
 30
0.0
 11
-1708.287340799996
 21
-284.4894651425861
 31
0.0
  0
LWPOLYLINE
  5
30B
330
1F
100
AcDbEntity
  8
0-F
  6
Continuous
 62
     7
370
     9
100
AcDbPolyline
 90
        4
 70
     1
 43
2.0
 10
-1741.487588747581
 20
-284.4894651425861
 42
0.4142135623731
 10
-1742.487588747581
 20
-283.4894651425861
 42
0.4142135623731
 10
-1743.487588747581
 20
-284.4894651425861
 42
0.4142135623731
 10
-1742.487588747581
 20
-285.4894651425861
 42
0.4142135623731
  0
LINE
  5
30C
330
1F
100
AcDbEntity
  8
0-F
  6
Continuous
 62
     7
370
     9
100
AcDbLine
 10
-1708.287340799996
 20
-284.4894651425861
 30
0.0
 11
-1608.287010880232
 21
-284.4894651425861
 31
0.0
  0
LWPOLYLINE
  5
30D
330
1F
100
AcDbEntity
  8
0-F
  6
Continuous
 62
     7
370
     9
100
AcDbPolyline
 90
        4
 70
     1
 43
2.0
 10
-1607.287010880232
 20
-284.4894651425861
 42
0.4142135623731
 10
-1608.287010880232
 20
-283.4894651425861
 42
0.4142135623731
 10
-1609.287010880232
 20
-284.4894651425861
 42
0.4142135623731
 10
-1608.287010880232
 20
-285.4894651425861
 42
0.4142135623731
  0
TEXT
  5
30E
330
1F
100
AcDbEntity
  8
0-F
  6
Continuous
 62
     2
370
   211
100
AcDbText
 10
-1690.787175840114
 20
-272.8494651425859
 30
0.0
 40
30.48
  1
100
 41
1.083333333333333
  7
ＭＳ ゴシック
100
AcDbText
  0
TEXT
  5
30F
330
1F
100
AcDbEntity
  8
0-F
  6
Continuous
 62
     2
370
   211
100
AcDbText
 10
-1746.637464773788
 20
-343.0710406017778
 30
0.0
 40
30.48
  1
34
 41
1.0625
  7
ＭＳ ゴシック
100
AcDbText
  0
LINE
  5
310
330
1F
100
AcDbEntity
  8
建具
  6
Continuous
 62
     2
370
     9
100
AcDbLine
 10
-1696.287397716516
 20
-111.1226105131775
 30
0.0
 11
-1708.287363074943
 21
-123.1226995915106
 31
0.0
  0
LINE
  5
311
330
1F
100
AcDbEntity
  8
躯体
  6
JWW_DASHED2
 62
     2
370
     9
100
AcDbLine
 10
-62.28731028778043
 20
-77.12264680434807
 30
0.0
 11
-1662.287434007691
 21
-77.12264680434807
 31
0.0
  0
LINE
  5
312
330
1F
100
AcDbEntity
  8
建具
  6
Continuous
 62
     2
370
     9
100
AcDbLine
 10
-28.28722285904064
 20
-111.1226105131775
 30
0.0
 11
-1696.287397716516
 21
-111.1226105131775
 31
0.0
  0
LINE
  5
313
330
1F
100
AcDbEntity
  8
建具
  6
Continuous
 62
     2
370
     9
100
AcDbLine
 10
-16.28738122052823
 20
-123.1226995915106
 30
0.0
 11
-1708.287363074943
 21
-123.1226995915106
 31
0.0
  0
LINE
  5
314
330
1F
100
AcDbEntity
  8
0-E
  6
Continuous
 62
     3
370
     9
100
AcDbLine
 10
-1091.287424934894
 20
-157.3225927799897
 30
0.0
 11
-1131.287424934894
 21
-157.3225927799897
 31
0.0
  0
LINE
  5
315
330
1F
100
AcDbEntity
  8
0-E
  6
Continuous
 62
     3
370
     9
100
AcDbLine
 10
-1091.287424934894
 20
-157.3225927799897
 30
0.0
 11
-1091.287424934894
 21
-123.1226377315554
 31
0.0
  0
LINE
  5
316
330
1F
100
AcDbEntity
  8
0-E
  6
Continuous
 62
     3
370
     9
100
AcDbLine
 10
-1131.287424934894
 20
-157.3225927799897
 30
0.0
 11
-1131.287424934894
 21
-123.1226377315554
 31
0.0
  0
CIRCLE
  5
317
330
1F
100
AcDbEntity
  8
0-E
  6
Continuous
 62
     3
370
     9
100
AcDbCircle
 10
-1111.287424934894
 20
-142.3225927799897
 30
0.0
 40
6.999999999998181
  0
LINE
  5
318
330
1F
100
AcDbEntity
  8
0-E
  6
JWW_CENTER1
 62
     3
370
     9
100
AcDbLine
 10
-1111.287424934894
 20
-164.2955918062601
 30
0.0
 11
-1111.287424934894
 21
-123.1226377315554
 31
0.0
  0
LINE
  5
319
330
1F
100
AcDbEntity
  8
0-E
  6
JWW_CENTER1
 62
     3
370
     9
100
AcDbLine
 10
-1135.664666398102
 20
-142.3225927799897
 30
0.0
 11
-1086.910183471686
 21
-142.3225927799897
 31
0.0
  0
LINE
  5
31A
330
1F
100
AcDbEntity
  8
0-E
  6
Continuous
 62
     3
370
     9
100
AcDbLine
 10
-593.2873193605731
 20
-157.3225927799897
 30
0.0
 11
-633.2873193605731
 21
-157.3225927799897
 31
0.0
  0
LINE
  5
31B
330
1F
100
AcDbEntity
  8
0-E
  6
Continuous
 62
     3
370
     9
100
AcDbLine
 10
-593.2873193605731
 20
-157.3225927799897
 30
0.0
 11
-593.2873193605731
 21
-123.1226377315554
 31
0.0
  0
LINE
  5
31C
330
1F
100
AcDbEntity
  8
0-E
  6
Continuous
 62
     3
370
     9
100
AcDbLine
 10
-633.2873193605731
 20
-157.3225927799897
 30
0.0
 11
-633.2873193605731
 21
-123.1226377315554
 31
0.0
  0
CIRCLE
  5
31D
330
1F
100
AcDbEntity
  8
0-E
  6
Continuous
 62
     3
370
     9
100
AcDbCircle
 10
-613.2873193605731
 20
-142.3225927799897
 30
0.0
 40
6.999999999998181
  0
LINE
  5
31E
330
1F
100
AcDbEntity
  8
0-E
  6
JWW_CENTER1
 62
     3
370
     9
100
AcDbLine
 10
-613.2873193605731
 20
-164.2955918062601
 30
0.0
 11
-613.2873193605731
 21
-123.1226377315554
 31
0.0
  0
LINE
  5
31F
330
1F
100
AcDbEntity
  8
0-E
  6
JWW_CENTER1
 62
     3
370
     9
100
AcDbLine
 10
-637.6645608237807
 20
-142.3225927799897
 30
0.0
 11
-588.9100778973655
 21
-142.3225927799897
 31
0.0
  0
LWPOLYLINE
  5
320
330
1F
100
AcDbEntity
  8
0-F
  6
Continuous
 62
     7
370
     9
100
AcDbPolyline
 90
        4
 70
     1
 43
2.0
 10
-1110.287424934894
 20
-284.4894651425861
 42
0.4142135623731
 10
-1111.287424934894
 20
-283.4894651425861
 42
0.4142135623731
 10
-1112.287424934894
 20
-284.4894651425861
 42
0.4142135623731
 10
-1111.287424934894
 20
-285.4894651425861
 42
0.4142135623731
  0
LINE
  5
321
330
1F
100
AcDbEntity
  8
0-F
  6
Continuous
 62
     7
370
     9
100
AcDbLine
 10
-1111.287424934894
 20
-287.4894651425862
 30
0.0
 11
-1111.287424934894
 21
-184.2955918062601
 31
0.0
  0
LWPOLYLINE
  5
322
330
1F
100
AcDbEntity
  8
0-F
  6
Continuous
 62
     7
370
     9
100
AcDbPolyline
 90
        4
 70
     1
 43
2.0
 10
-612.2873193605731
 20
-284.4894651425861
 42
0.4142135623731
 10
-613.2873193605731
 20
-283.4894651425861
 42
0.4142135623731
 10
-614.2873193605731
 20
-284.4894651425861
 42
0.4142135623731
 10
-613.2873193605731
 20
-285.4894651425861
 42
0.4142135623731
  0
LINE
  5
323
330
1F
100
AcDbEntity
  8
0-F
  6
Continuous
 62
     7
370
     9
100
AcDbLine
 10
-613.2873193605731
 20
-287.4894651425862
 30
0.0
 11
-613.2873193605731
 21
-184.2955918062601
 31
0.0
  0
LINE
  5
324
330
1F
100
AcDbEntity
  8
0-F
  6
Continuous
 62
     7
370
     9
100
AcDbLine
 10
-1677.287483495656
 20
-77.12264680434807
 30
0.0
 11
-1803.911325316968
 21
-77.12264680434807
 31
0.0
  0
LWPOLYLINE
  5
325
330
1F
100
AcDbEntity
  8
0-F
  6
Continuous
 62
     7
370
     9
100
AcDbPolyline
 90
        4
 70
     1
 43
2.0
 10
-1797.911308820979
 20
-77.12264680434807
 42
0.4142135623731
 10
-1798.911308820979
 20
-76.12264680434807
 42
0.4142135623731
 10
-1799.911308820979
 20
-77.12264680434807
 42
0.4142135623731
 10
-1798.911308820979
 20
-78.12264680434807
 42
0.4142135623731
  0
LINE
  5
326
330
1F
100
AcDbEntity
  8
0-F
  6
Continuous
 62
     7
370
     9
100
AcDbLine
 10
-1710.287542881213
 20
-110.1227061899053
 30
0.0
 11
-1910.080672631396
 21
-110.1227061899053
 31
0.0
  0
LWPOLYLINE
  5
327
330
1F
100
AcDbEntity
  8
0-F
  6
Continuous
 62
     7
370
     9
100
AcDbPolyline
 90
        4
 70
     1
 43
2.0
 10
-1904.080656135408
 20
-110.1227061899053
 42
0.4142135623731
 10
-1905.080656135408
 20
-109.1227061899053
 42
0.4142135623731
 10
-1906.080656135407
 20
-110.1227061899053
 42
0.4142135623731
 10
-1905.080656135408
 20
-111.1227061899053
 42
0.4142135623731
  0
LINE
  5
328
330
1F
100
AcDbEntity
  8
0-F
  6
Continuous
 62
     7
370
     9
100
AcDbLine
 10
-1723.287536282818
 20
-123.1226995915106
 30
0.0
 11
-2012.543895180737
 21
-123.1226995915106
 31
0.0
  0
LWPOLYLINE
  5
329
330
1F
100
AcDbEntity
  8
0-F
  6
Continuous
 62
     7
370
     9
100
AcDbPolyline
 90
        4
 70
     1
 43
2.0
 10
-2006.543878684749
 20
-123.1226995915106
 42
0.4142135623731
 10
-2007.543878684749
 20
-122.1226995915106
 42
0.4142135623731
 10
-2008.543878684749
 20
-123.1226995915106
 42
0.4142135623731
 10
-2007.543878684749
 20
-124.1226995915106
 42
0.4142135623731
  0
LINE
  5
32A
330
1F
100
AcDbEntity
  8
0-F
  6
Continuous
 62
     3
370
     9
100
AcDbLine
 10
-1695.287493393248
 20
-110.1227622762681
 30
0.0
 11
-1683.28740431491
 21
-98.12267319793051
 31
0.0
  0
LINE
  5
32B
330
1F
100
AcDbEntity
  8
0-F
  6
Continuous
 62
     3
370
     9
100
AcDbLine
 10
-1363.787493393244
 20
-110.1227622762681
 30
0.0
 11
-1695.287493393248
 21
-110.1227622762681
 31
0.0
  0
LINE
  5
32C
330
1F
100
AcDbEntity
  8
0-F
  6
Continuous
 62
     3
370
     9
100
AcDbLine
 10
-1375.787582471582
 20
-98.12267319793051
 30
0.0
 11
-1683.28740431491
 21
-98.12267319793051
 31
0.0
  0
LINE
  5
32D
330
1F
100
AcDbEntity
  8
0-F
  6
Continuous
 62
     3
370
     9
100
AcDbLine
 10
-1363.787493393244
 20
-110.1227622762681
 30
0.0
 11
-1375.787582471582
 21
-98.12267319793051
 31
0.0
  0
LINE
  5
32E
330
1F
100
AcDbEntity
  8
0-F
  6
Continuous
 62
     4
370
     9
100
AcDbLine
 10
-1647.037617113157
 20
61.87690120557463
 30
0.0
 11
-1647.037617113157
 21
91.8769012055752
 31
0.0
  0
LINE
  5
32F
330
1F
100
AcDbEntity
  8
0-F
  6
Continuous
 62
     4
370
     9
100
AcDbLine
 10
-1632.037617113157
 20
61.87690120557463
 30
0.0
 11
-1632.037617113157
 21
91.8769012055752
 31
0.0
  0
LINE
  5
330
330
1F
100
AcDbEntity
  8
0-F
  6
Continuous
 62
     4
370
     9
100
AcDbLine
 10
-1662.626072313352
 20
61.87690120557463
 30
0.0
 11
-1662.626072313352
 21
91.8769012055752
 31
0.0
  0
LINE
  5
331
330
1F
100
AcDbEntity
  8
0-F
  6
Continuous
 62
     4
370
     9
100
AcDbLine
 10
-1662.626072313352
 20
61.87690120557463
 30
0.0
 11
-1616.449161912961
 21
61.87690120557463
 31
0.0
  0
LINE
  5
332
330
1F
100
AcDbEntity
  8
0-F
  6
Continuous
 62
     4
370
     9
100
AcDbLine
 10
-1662.626072313352
 20
91.8769012055752
 30
0.0
 11
-1616.449161912961
 21
91.8769012055752
 31
0.0
  0
LINE
  5
333
330
1F
100
AcDbEntity
  8
0-F
  6
Continuous
 62
     4
370
     9
100
AcDbLine
 10
-1616.449161912961
 20
61.87690120557463
 30
0.0
 11
-1616.449161912961
 21
91.8769012055752
 31
0.0
  0
LINE
  5
334
330
1F
100
AcDbEntity
  8
0-F
  6
JWW_CENTER1
 62
     4
370
     9
100
AcDbLine
 10
-1668.946645545858
 20
76.87690120557512
 30
0.0
 11
-1610.128588680455
 21
76.87690120557512
 31
0.0
  0
LINE
  5
335
330
1F
100
AcDbEntity
  8
0-F
  6
JWW_CENTER1
 62
     4
370
     9
100
AcDbLine
 10
-1639.537617113157
 20
54.75953060010497
 30
0.0
 11
-1639.537617113157
 21
97.9985747895595
 31
0.0
  0
LINE
  5
336
330
1F
100
AcDbEntity
  8
0-F
  6
Continuous
 62
     2
370
     9
100
AcDbLine
 10
-1641.037597317965
 20
-34.52487838162966
 30
0.0
 11
-1641.037597317965
 21
-11.72131920721682
 31
0.0
  0
LINE
  5
337
330
1F
100
AcDbEntity
  8
0-F
  6
Continuous
 62
     2
370
     9
100
AcDbLine
 10
-1638.037389468519
 20
-34.52487838162966
 30
0.0
 11
-1638.037389468519
 21
-11.72131920721682
 31
0.0
  0
CIRCLE
  5
338
330
1F
100
AcDbEntity
  8
0-F
  6
Continuous
 62
     2
370
     9
100
AcDbCircle
 10
-1639.537617113157
 20
-23.12309879442552
 30
0.0
 40
16.00000117276166
  0
CIRCLE
  5
339
330
1F
100
AcDbEntity
  8
0-F
  6
Continuous
 62
     2
370
     9
100
AcDbCircle
 10
-1639.537617113157
 20
-23.12309879442552
 30
0.0
 40
11.50000063148704
  0
CIRCLE
  5
33A
330
1F
100
AcDbEntity
  8
0-F
  6
Continuous
 62
     2
370
     9
100
AcDbCircle
 10
-1639.537617113157
 20
-23.12309879442552
 30
0.0
 40
12.00000112121169
  0
LINE
  5
33B
330
1F
100
AcDbEntity
  8
0-F
  6
JWW_CENTER1
 62
     2
370
     9
100
AcDbLine
 10
-1670.537620412352
 20
-23.12297507451063
 30
0.0
 11
-1608.53761381396
 21
-23.12297507451063
 31
0.0
  0
LINE
  5
33C
330
1F
100
AcDbEntity
  8
0-F
  6
JWW_CENTER1
 62
     2
370
     9
100
AcDbLine
 10
-1639.537493393246
 20
7.876904504770135
 30
0.0
 11
-1639.537493393246
 21
-54.12310209362108
 31
0.0
  0
LINE
  5
33D
330
1F
100
AcDbEntity
  8
0-F
  6
Continuous
 62
     4
370
     9
100
AcDbLine
 10
-1427.037617113156
 20
61.87690120557463
 30
0.0
 11
-1427.037617113156
 21
91.8769012055752
 31
0.0
  0
LINE
  5
33E
330
1F
100
AcDbEntity
  8
0-F
  6
Continuous
 62
     4
370
     9
100
AcDbLine
 10
-1412.037617113156
 20
61.87690120557463
 30
0.0
 11
-1412.037617113156
 21
91.8769012055752
 31
0.0
  0
LINE
  5
33F
330
1F
100
AcDbEntity
  8
0-F
  6
Continuous
 62
     4
370
     9
100
AcDbLine
 10
-1442.626072313351
 20
61.87690120557463
 30
0.0
 11
-1442.626072313351
 21
91.8769012055752
 31
0.0
  0
LINE
  5
340
330
1F
100
AcDbEntity
  8
0-F
  6
Continuous
 62
     4
370
     9
100
AcDbLine
 10
-1442.626072313351
 20
61.87690120557463
 30
0.0
 11
-1396.449161912961
 21
61.87690120557463
 31
0.0
  0
LINE
  5
341
330
1F
100
AcDbEntity
  8
0-F
  6
Continuous
 62
     4
370
     9
100
AcDbLine
 10
-1442.626072313351
 20
91.8769012055752
 30
0.0
 11
-1396.449161912961
 21
91.8769012055752
 31
0.0
  0
LINE
  5
342
330
1F
100
AcDbEntity
  8
0-F
  6
Continuous
 62
     4
370
     9
100
AcDbLine
 10
-1396.449161912961
 20
61.87690120557463
 30
0.0
 11
-1396.449161912961
 21
91.8769012055752
 31
0.0
  0
LINE
  5
343
330
1F
100
AcDbEntity
  8
0-F
  6
JWW_CENTER1
 62
     4
370
     9
100
AcDbLine
 10
-1448.946645545857
 20
76.87690120557512
 30
0.0
 11
-1390.128588680455
 21
76.87690120557512
 31
0.0
  0
LINE
  5
344
330
1F
100
AcDbEntity
  8
0-F
  6
JWW_CENTER1
 62
     4
370
     9
100
AcDbLine
 10
-1419.537617113156
 20
54.75953060010497
 30
0.0
 11
-1419.537617113156
 21
97.9985747895595
 31
0.0
  0
LINE
  5
345
330
1F
100
AcDbEntity
  8
0-F
  6
Continuous
 62
     2
370
     9
100
AcDbLine
 10
-1421.037597317964
 20
-34.52487838162966
 30
0.0
 11
-1421.037597317964
 21
-11.72131920721682
 31
0.0
  0
LINE
  5
346
330
1F
100
AcDbEntity
  8
0-F
  6
Continuous
 62
     2
370
     9
100
AcDbLine
 10
-1418.037389468519
 20
-34.52487838162966
 30
0.0
 11
-1418.037389468519
 21
-11.72131920721682
 31
0.0
  0
CIRCLE
  5
347
330
1F
100
AcDbEntity
  8
0-F
  6
Continuous
 62
     2
370
     9
100
AcDbCircle
 10
-1419.537617113156
 20
-23.12309879442552
 30
0.0
 40
16.00000117276166
  0
CIRCLE
  5
348
330
1F
100
AcDbEntity
  8
0-F
  6
Continuous
 62
     2
370
     9
100
AcDbCircle
 10
-1419.537617113156
 20
-23.12309879442552
 30
0.0
 40
11.50000063148705
  0
CIRCLE
  5
349
330
1F
100
AcDbEntity
  8
0-F
  6
Continuous
 62
     2
370
     9
100
AcDbCircle
 10
-1419.537617113156
 20
-23.12309879442552
 30
0.0
 40
12.0000011212117
  0
LINE
  5
34A
330
1F
100
AcDbEntity
  8
0-F
  6
JWW_CENTER1
 62
     2
370
     9
100
AcDbLine
 10
-1450.537620412352
 20
-23.12297507451063
 30
0.0
 11
-1388.53761381396
 21
-23.12297507451063
 31
0.0
  0
LINE
  5
34B
330
1F
100
AcDbEntity
  8
0-F
  6
JWW_CENTER1
 62
     2
370
     9
100
AcDbLine
 10
-1419.537493393246
 20
7.876904504770135
 30
0.0
 11
-1419.537493393246
 21
-54.12310209362108
 31
0.0
  0
LINE
  5
34C
330
1F
100
AcDbEntity
  8
0-F
  6
Continuous
 62
     3
370
     9
100
AcDbLine
 10
-1361.662493393248
 20
-110.1227622762681
 30
0.0
 11
-1349.662404314911
 21
-98.12267319793051
 31
0.0
  0
LINE
  5
34D
330
1F
100
AcDbEntity
  8
0-F
  6
Continuous
 62
     3
370
     9
100
AcDbLine
 10
-1030.162493393244
 20
-110.1227622762681
 30
0.0
 11
-1361.662493393248
 21
-110.1227622762681
 31
0.0
  0
LINE
  5
34E
330
1F
100
AcDbEntity
  8
0-F
  6
Continuous
 62
     3
370
     9
100
AcDbLine
 10
-1042.162582471582
 20
-98.12267319793051
 30
0.0
 11
-1349.662404314911
 21
-98.12267319793051
 31
0.0
  0
LINE
  5
34F
330
1F
100
AcDbEntity
  8
0-F
  6
Continuous
 62
     3
370
     9
100
AcDbLine
 10
-1030.162493393244
 20
-110.1227622762681
 30
0.0
 11
-1042.162582471582
 21
-98.12267319793051
 31
0.0
  0
LINE
  5
350
330
1F
100
AcDbEntity
  8
0-F
  6
Continuous
 62
     4
370
     9
100
AcDbLine
 10
-1313.412617113157
 20
61.87690120557463
 30
0.0
 11
-1313.412617113157
 21
91.8769012055752
 31
0.0
  0
LINE
  5
351
330
1F
100
AcDbEntity
  8
0-F
  6
Continuous
 62
     4
370
     9
100
AcDbLine
 10
-1298.412617113157
 20
61.87690120557463
 30
0.0
 11
-1298.412617113157
 21
91.8769012055752
 31
0.0
  0
LINE
  5
352
330
1F
100
AcDbEntity
  8
0-F
  6
Continuous
 62
     4
370
     9
100
AcDbLine
 10
-1329.001072313352
 20
61.87690120557463
 30
0.0
 11
-1329.001072313352
 21
91.8769012055752
 31
0.0
  0
LINE
  5
353
330
1F
100
AcDbEntity
  8
0-F
  6
Continuous
 62
     4
370
     9
100
AcDbLine
 10
-1329.001072313352
 20
61.87690120557463
 30
0.0
 11
-1282.824161912961
 21
61.87690120557463
 31
0.0
  0
LINE
  5
354
330
1F
100
AcDbEntity
  8
0-F
  6
Continuous
 62
     4
370
     9
100
AcDbLine
 10
-1329.001072313352
 20
91.8769012055752
 30
0.0
 11
-1282.824161912961
 21
91.8769012055752
 31
0.0
  0
LINE
  5
355
330
1F
100
AcDbEntity
  8
0-F
  6
Continuous
 62
     4
370
     9
100
AcDbLine
 10
-1282.824161912961
 20
61.87690120557463
 30
0.0
 11
-1282.824161912961
 21
91.8769012055752
 31
0.0
  0
LINE
  5
356
330
1F
100
AcDbEntity
  8
0-F
  6
JWW_CENTER1
 62
     4
370
     9
100
AcDbLine
 10
-1335.321645545858
 20
76.87690120557512
 30
0.0
 11
-1276.503588680455
 21
76.87690120557512
 31
0.0
  0
LINE
  5
357
330
1F
100
AcDbEntity
  8
0-F
  6
JWW_CENTER1
 62
     4
370
     9
100
AcDbLine
 10
-1305.912617113157
 20
54.75953060010497
 30
0.0
 11
-1305.912617113157
 21
97.9985747895595
 31
0.0
  0
LINE
  5
358
330
1F
100
AcDbEntity
  8
0-F
  6
Continuous
 62
     2
370
     9
100
AcDbLine
 10
-1307.412597317965
 20
-34.52487838162966
 30
0.0
 11
-1307.412597317965
 21
-11.72131920721682
 31
0.0
  0
LINE
  5
359
330
1F
100
AcDbEntity
  8
0-F
  6
Continuous
 62
     2
370
     9
100
AcDbLine
 10
-1304.412389468519
 20
-34.52487838162966
 30
0.0
 11
-1304.412389468519
 21
-11.72131920721682
 31
0.0
  0
CIRCLE
  5
35A
330
1F
100
AcDbEntity
  8
0-F
  6
Continuous
 62
     2
370
     9
100
AcDbCircle
 10
-1305.912617113157
 20
-23.12309879442552
 30
0.0
 40
16.00000117276166
  0
CIRCLE
  5
35B
330
1F
100
AcDbEntity
  8
0-F
  6
Continuous
 62
     2
370
     9
100
AcDbCircle
 10
-1305.912617113157
 20
-23.12309879442552
 30
0.0
 40
11.50000063148704
  0
CIRCLE
  5
35C
330
1F
100
AcDbEntity
  8
0-F
  6
Continuous
 62
     2
370
     9
100
AcDbCircle
 10
-1305.912617113157
 20
-23.12309879442552
 30
0.0
 40
12.00000112121169
  0
LINE
  5
35D
330
1F
100
AcDbEntity
  8
0-F
  6
JWW_CENTER1
 62
     2
370
     9
100
AcDbLine
 10
-1336.912620412353
 20
-23.12297507451063
 30
0.0
 11
-1274.912613813961
 21
-23.12297507451063
 31
0.0
  0
LINE
  5
35E
330
1F
100
AcDbEntity
  8
0-F
  6
JWW_CENTER1
 62
     2
370
     9
100
AcDbLine
 10
-1305.912493393247
 20
7.876904504770135
 30
0.0
 11
-1305.912493393247
 21
-54.12310209362108
 31
0.0
  0
LINE
  5
35F
330
1F
100
AcDbEntity
  8
0-F
  6
Continuous
 62
     4
370
     9
100
AcDbLine
 10
-1093.412617113156
 20
61.87690120557463
 30
0.0
 11
-1093.412617113156
 21
91.8769012055752
 31
0.0
  0
LINE
  5
360
330
1F
100
AcDbEntity
  8
0-F
  6
Continuous
 62
     4
370
     9
100
AcDbLine
 10
-1078.412617113156
 20
61.87690120557463
 30
0.0
 11
-1078.412617113156
 21
91.8769012055752
 31
0.0
  0
LINE
  5
361
330
1F
100
AcDbEntity
  8
0-F
  6
Continuous
 62
     4
370
     9
100
AcDbLine
 10
-1109.001072313352
 20
61.87690120557463
 30
0.0
 11
-1109.001072313352
 21
91.8769012055752
 31
0.0
  0
LINE
  5
362
330
1F
100
AcDbEntity
  8
0-F
  6
Continuous
 62
     4
370
     9
100
AcDbLine
 10
-1109.001072313352
 20
61.87690120557463
 30
0.0
 11
-1062.824161912961
 21
61.87690120557463
 31
0.0
  0
LINE
  5
363
330
1F
100
AcDbEntity
  8
0-F
  6
Continuous
 62
     4
370
     9
100
AcDbLine
 10
-1109.001072313352
 20
91.8769012055752
 30
0.0
 11
-1062.824161912961
 21
91.8769012055752
 31
0.0
  0
LINE
  5
364
330
1F
100
AcDbEntity
  8
0-F
  6
Continuous
 62
     4
370
     9
100
AcDbLine
 10
-1062.824161912961
 20
61.87690120557463
 30
0.0
 11
-1062.824161912961
 21
91.8769012055752
 31
0.0
  0
LINE
  5
365
330
1F
100
AcDbEntity
  8
0-F
  6
JWW_CENTER1
 62
     4
370
     9
100
AcDbLine
 10
-1115.321645545858
 20
76.87690120557512
 30
0.0
 11
-1056.503588680455
 21
76.87690120557512
 31
0.0
  0
LINE
  5
366
330
1F
100
AcDbEntity
  8
0-F
  6
JWW_CENTER1
 62
     4
370
     9
100
AcDbLine
 10
-1085.912617113156
 20
54.75953060010497
 30
0.0
 11
-1085.912617113156
 21
97.9985747895595
 31
0.0
  0
LINE
  5
367
330
1F
100
AcDbEntity
  8
0-F
  6
Continuous
 62
     2
370
     9
100
AcDbLine
 10
-1087.412597317964
 20
-34.52487838162966
 30
0.0
 11
-1087.412597317964
 21
-11.72131920721682
 31
0.0
  0
LINE
  5
368
330
1F
100
AcDbEntity
  8
0-F
  6
Continuous
 62
     2
370
     9
100
AcDbLine
 10
-1084.412389468519
 20
-34.52487838162966
 30
0.0
 11
-1084.412389468519
 21
-11.72131920721682
 31
0.0
  0
CIRCLE
  5
369
330
1F
100
AcDbEntity
  8
0-F
  6
Continuous
 62
     2
370
     9
100
AcDbCircle
 10
-1085.912617113156
 20
-23.12309879442552
 30
0.0
 40
16.00000117276166
  0
CIRCLE
  5
36A
330
1F
100
AcDbEntity
  8
0-F
  6
Continuous
 62
     2
370
     9
100
AcDbCircle
 10
-1085.912617113156
 20
-23.12309879442552
 30
0.0
 40
11.50000063148705
  0
CIRCLE
  5
36B
330
1F
100
AcDbEntity
  8
0-F
  6
Continuous
 62
     2
370
     9
100
AcDbCircle
 10
-1085.912617113156
 20
-23.12309879442552
 30
0.0
 40
12.0000011212117
  0
LINE
  5
36C
330
1F
100
AcDbEntity
  8
0-F
  6
JWW_CENTER1
 62
     2
370
     9
100
AcDbLine
 10
-1116.912620412352
 20
-23.12297507451063
 30
0.0
 11
-1054.912613813961
 21
-23.12297507451063
 31
0.0
  0
LINE
  5
36D
330
1F
100
AcDbEntity
  8
0-F
  6
JWW_CENTER1
 62
     2
370
     9
100
AcDbLine
 10
-1085.912493393246
 20
7.876904504770135
 30
0.0
 11
-1085.912493393246
 21
-54.12310209362108
 31
0.0
  0
LINE
  5
36E
330
1F
100
AcDbEntity
  8
0-F
  6
Continuous
 62
     3
370
     9
100
AcDbLine
 10
-1028.037493393248
 20
-110.1227622762681
 30
0.0
 11
-1016.037404314911
 21
-98.12267319793051
 31
0.0
  0
LINE
  5
36F
330
1F
100
AcDbEntity
  8
0-F
  6
Continuous
 62
     3
370
     9
100
AcDbLine
 10
-696.5374933932446
 20
-110.1227622762681
 30
0.0
 11
-1028.037493393248
 21
-110.1227622762681
 31
0.0
  0
LINE
  5
370
330
1F
100
AcDbEntity
  8
0-F
  6
Continuous
 62
     3
370
     9
100
AcDbLine
 10
-708.5375824715823
 20
-98.12267319793051
 30
0.0
 11
-1016.037404314911
 21
-98.12267319793051
 31
0.0
  0
LINE
  5
371
330
1F
100
AcDbEntity
  8
0-F
  6
Continuous
 62
     3
370
     9
100
AcDbLine
 10
-696.5374933932446
 20
-110.1227622762681
 30
0.0
 11
-708.5375824715823
 21
-98.12267319793051
 31
0.0
  0
LINE
  5
372
330
1F
100
AcDbEntity
  8
0-F
  6
Continuous
 62
     4
370
     9
100
AcDbLine
 10
-979.7876171131571
 20
61.87690120557463
 30
0.0
 11
-979.7876171131571
 21
91.8769012055752
 31
0.0
  0
LINE
  5
373
330
1F
100
AcDbEntity
  8
0-F
  6
Continuous
 62
     4
370
     9
100
AcDbLine
 10
-964.7876171131571
 20
61.87690120557463
 30
0.0
 11
-964.7876171131571
 21
91.8769012055752
 31
0.0
  0
LINE
  5
374
330
1F
100
AcDbEntity
  8
0-F
  6
Continuous
 62
     4
370
     9
100
AcDbLine
 10
-995.3760723133524
 20
61.87690120557463
 30
0.0
 11
-995.3760723133524
 21
91.8769012055752
 31
0.0
  0
LINE
  5
375
330
1F
100
AcDbEntity
  8
0-F
  6
Continuous
 62
     4
370
     9
100
AcDbLine
 10
-995.3760723133524
 20
61.87690120557463
 30
0.0
 11
-949.1991619129612
 21
61.87690120557463
 31
0.0
  0
LINE
  5
376
330
1F
100
AcDbEntity
  8
0-F
  6
Continuous
 62
     4
370
     9
100
AcDbLine
 10
-995.3760723133524
 20
91.8769012055752
 30
0.0
 11
-949.1991619129612
 21
91.8769012055752
 31
0.0
  0
LINE
  5
377
330
1F
100
AcDbEntity
  8
0-F
  6
Continuous
 62
     4
370
     9
100
AcDbLine
 10
-949.1991619129612
 20
61.87690120557463
 30
0.0
 11
-949.1991619129612
 21
91.8769012055752
 31
0.0
  0
LINE
  5
378
330
1F
100
AcDbEntity
  8
0-F
  6
JWW_CENTER1
 62
     4
370
     9
100
AcDbLine
 10
-1001.696645545858
 20
76.87690120557512
 30
0.0
 11
-942.8785886804553
 21
76.87690120557512
 31
0.0
  0
LINE
  5
379
330
1F
100
AcDbEntity
  8
0-F
  6
JWW_CENTER1
 62
     4
370
     9
100
AcDbLine
 10
-972.2876171131571
 20
54.75953060010497
 30
0.0
 11
-972.2876171131571
 21
97.9985747895595
 31
0.0
  0
LINE
  5
37A
330
1F
100
AcDbEntity
  8
0-F
  6
Continuous
 62
     2
370
     9
100
AcDbLine
 10
-973.7875973179649
 20
-34.52487838162966
 30
0.0
 11
-973.7875973179649
 21
-11.72131920721682
 31
0.0
  0
LINE
  5
37B
330
1F
100
AcDbEntity
  8
0-F
  6
Continuous
 62
     2
370
     9
100
AcDbLine
 10
-970.7873894685196
 20
-34.52487838162966
 30
0.0
 11
-970.7873894685196
 21
-11.72131920721682
 31
0.0
  0
CIRCLE
  5
37C
330
1F
100
AcDbEntity
  8
0-F
  6
Continuous
 62
     2
370
     9
100
AcDbCircle
 10
-972.2876171131571
 20
-23.12309879442552
 30
0.0
 40
16.00000117276166
  0
CIRCLE
  5
37D
330
1F
100
AcDbEntity
  8
0-F
  6
Continuous
 62
     2
370
     9
100
AcDbCircle
 10
-972.2876171131571
 20
-23.12309879442552
 30
0.0
 40
11.50000063148704
  0
CIRCLE
  5
37E
330
1F
100
AcDbEntity
  8
0-F
  6
Continuous
 62
     2
370
     9
100
AcDbCircle
 10
-972.2876171131571
 20
-23.12309879442552
 30
0.0
 40
12.00000112121169
  0
LINE
  5
37F
330
1F
100
AcDbEntity
  8
0-F
  6
JWW_CENTER1
 62
     2
370
     9
100
AcDbLine
 10
-1003.287620412353
 20
-23.12297507451063
 30
0.0
 11
-941.2876138139609
 21
-23.12297507451063
 31
0.0
  0
LINE
  5
380
330
1F
100
AcDbEntity
  8
0-F
  6
JWW_CENTER1
 62
     2
370
     9
100
AcDbLine
 10
-972.2874933932468
 20
7.876904504770135
 30
0.0
 11
-972.2874933932468
 21
-54.12310209362108
 31
0.0
  0
LINE
  5
381
330
1F
100
AcDbEntity
  8
0-F
  6
Continuous
 62
     4
370
     9
100
AcDbLine
 10
-759.7876171131566
 20
61.87690120557463
 30
0.0
 11
-759.7876171131566
 21
91.8769012055752
 31
0.0
  0
LINE
  5
382
330
1F
100
AcDbEntity
  8
0-F
  6
Continuous
 62
     4
370
     9
100
AcDbLine
 10
-744.7876171131566
 20
61.87690120557463
 30
0.0
 11
-744.7876171131566
 21
91.8769012055752
 31
0.0
  0
LINE
  5
383
330
1F
100
AcDbEntity
  8
0-F
  6
Continuous
 62
     4
370
     9
100
AcDbLine
 10
-775.3760723133519
 20
61.87690120557463
 30
0.0
 11
-775.3760723133519
 21
91.8769012055752
 31
0.0
  0
LINE
  5
384
330
1F
100
AcDbEntity
  8
0-F
  6
Continuous
 62
     4
370
     9
100
AcDbLine
 10
-775.3760723133519
 20
61.87690120557463
 30
0.0
 11
-729.1991619129612
 21
61.87690120557463
 31
0.0
  0
LINE
  5
385
330
1F
100
AcDbEntity
  8
0-F
  6
Continuous
 62
     4
370
     9
100
AcDbLine
 10
-775.3760723133519
 20
91.8769012055752
 30
0.0
 11
-729.1991619129612
 21
91.8769012055752
 31
0.0
  0
LINE
  5
386
330
1F
100
AcDbEntity
  8
0-F
  6
Continuous
 62
     4
370
     9
100
AcDbLine
 10
-729.1991619129612
 20
61.87690120557463
 30
0.0
 11
-729.1991619129612
 21
91.8769012055752
 31
0.0
  0
LINE
  5
387
330
1F
100
AcDbEntity
  8
0-F
  6
JWW_CENTER1
 62
     4
370
     9
100
AcDbLine
 10
-781.6966455458578
 20
76.87690120557512
 30
0.0
 11
-722.8785886804553
 21
76.87690120557512
 31
0.0
  0
LINE
  5
388
330
1F
100
AcDbEntity
  8
0-F
  6
JWW_CENTER1
 62
     4
370
     9
100
AcDbLine
 10
-752.2876171131566
 20
54.75953060010497
 30
0.0
 11
-752.2876171131566
 21
97.9985747895595
 31
0.0
  0
LINE
  5
389
330
1F
100
AcDbEntity
  8
0-F
  6
Continuous
 62
     2
370
     9
100
AcDbLine
 10
-753.7875973179644
 20
-34.52487838162966
 30
0.0
 11
-753.7875973179644
 21
-11.72131920721682
 31
0.0
  0
LINE
  5
38A
330
1F
100
AcDbEntity
  8
0-F
  6
Continuous
 62
     2
370
     9
100
AcDbLine
 10
-750.787389468519
 20
-34.52487838162966
 30
0.0
 11
-750.787389468519
 21
-11.72131920721682
 31
0.0
  0
CIRCLE
  5
38B
330
1F
100
AcDbEntity
  8
0-F
  6
Continuous
 62
     2
370
     9
100
AcDbCircle
 10
-752.2876171131566
 20
-23.12309879442552
 30
0.0
 40
16.00000117276166
  0
CIRCLE
  5
38C
330
1F
100
AcDbEntity
  8
0-F
  6
Continuous
 62
     2
370
     9
100
AcDbCircle
 10
-752.2876171131566
 20
-23.12309879442552
 30
0.0
 40
11.50000063148705
  0
CIRCLE
  5
38D
330
1F
100
AcDbEntity
  8
0-F
  6
Continuous
 62
     2
370
     9
100
AcDbCircle
 10
-752.2876171131566
 20
-23.12309879442552
 30
0.0
 40
12.0000011212117
  0
LINE
  5
38E
330
1F
100
AcDbEntity
  8
0-F
  6
JWW_CENTER1
 62
     2
370
     9
100
AcDbLine
 10
-783.2876204123522
 20
-23.12297507451063
 30
0.0
 11
-721.2876138139609
 21
-23.12297507451063
 31
0.0
  0
LINE
  5
38F
330
1F
100
AcDbEntity
  8
0-F
  6
JWW_CENTER1
 62
     2
370
     9
100
AcDbLine
 10
-752.2874933932462
 20
7.876904504770135
 30
0.0
 11
-752.2874933932462
 21
-54.12310209362108
 31
0.0
  0
LINE
  5
390
330
1F
100
AcDbEntity
  8
0-F
  6
Continuous
 62
     3
370
     9
100
AcDbLine
 10
-694.4124933932485
 20
-110.1227622762681
 30
0.0
 11
-682.4124043149109
 21
-98.12267319793051
 31
0.0
  0
LINE
  5
391
330
1F
100
AcDbEntity
  8
0-F
  6
Continuous
 62
     3
370
     9
100
AcDbLine
 10
-362.9124933932448
 20
-110.1227622762681
 30
0.0
 11
-694.4124933932485
 21
-110.1227622762681
 31
0.0
  0
LINE
  5
392
330
1F
100
AcDbEntity
  8
0-F
  6
Continuous
 62
     3
370
     9
100
AcDbLine
 10
-374.9125824715824
 20
-98.12267319793051
 30
0.0
 11
-682.4124043149109
 21
-98.12267319793051
 31
0.0
  0
LINE
  5
393
330
1F
100
AcDbEntity
  8
0-F
  6
Continuous
 62
     3
370
     9
100
AcDbLine
 10
-362.9124933932448
 20
-110.1227622762681
 30
0.0
 11
-374.9125824715824
 21
-98.12267319793051
 31
0.0
  0
LINE
  5
394
330
1F
100
AcDbEntity
  8
0-F
  6
Continuous
 62
     4
370
     9
100
AcDbLine
 10
-646.1626171131572
 20
61.87690120557463
 30
0.0
 11
-646.1626171131572
 21
91.8769012055752
 31
0.0
  0
LINE
  5
395
330
1F
100
AcDbEntity
  8
0-F
  6
Continuous
 62
     4
370
     9
100
AcDbLine
 10
-631.1626171131572
 20
61.87690120557463
 30
0.0
 11
-631.1626171131572
 21
91.8769012055752
 31
0.0
  0
LINE
  5
396
330
1F
100
AcDbEntity
  8
0-F
  6
Continuous
 62
     4
370
     9
100
AcDbLine
 10
-661.7510723133526
 20
61.87690120557463
 30
0.0
 11
-661.7510723133526
 21
91.8769012055752
 31
0.0
  0
LINE
  5
397
330
1F
100
AcDbEntity
  8
0-F
  6
Continuous
 62
     4
370
     9
100
AcDbLine
 10
-661.7510723133526
 20
61.87690120557463
 30
0.0
 11
-615.5741619129615
 21
61.87690120557463
 31
0.0
  0
LINE
  5
398
330
1F
100
AcDbEntity
  8
0-F
  6
Continuous
 62
     4
370
     9
100
AcDbLine
 10
-661.7510723133526
 20
91.8769012055752
 30
0.0
 11
-615.5741619129615
 21
91.8769012055752
 31
0.0
  0
LINE
  5
399
330
1F
100
AcDbEntity
  8
0-F
  6
Continuous
 62
     4
370
     9
100
AcDbLine
 10
-615.5741619129615
 20
61.87690120557463
 30
0.0
 11
-615.5741619129615
 21
91.8769012055752
 31
0.0
  0
LINE
  5
39A
330
1F
100
AcDbEntity
  8
0-F
  6
JWW_CENTER1
 62
     4
370
     9
100
AcDbLine
 10
-668.0716455458585
 20
76.87690120557512
 30
0.0
 11
-609.2535886804556
 21
76.87690120557512
 31
0.0
  0
LINE
  5
39B
330
1F
100
AcDbEntity
  8
0-F
  6
JWW_CENTER1
 62
     4
370
     9
100
AcDbLine
 10
-638.6626171131572
 20
54.75953060010497
 30
0.0
 11
-638.6626171131572
 21
97.9985747895595
 31
0.0
  0
LINE
  5
39C
330
1F
100
AcDbEntity
  8
0-F
  6
Continuous
 62
     2
370
     9
100
AcDbLine
 10
-640.162597317965
 20
-34.52487838162966
 30
0.0
 11
-640.162597317965
 21
-11.72131920721682
 31
0.0
  0
LINE
  5
39D
330
1F
100
AcDbEntity
  8
0-F
  6
Continuous
 62
     2
370
     9
100
AcDbLine
 10
-637.1623894685197
 20
-34.52487838162966
 30
0.0
 11
-637.1623894685197
 21
-11.72131920721682
 31
0.0
  0
CIRCLE
  5
39E
330
1F
100
AcDbEntity
  8
0-F
  6
Continuous
 62
     2
370
     9
100
AcDbCircle
 10
-638.6626171131572
 20
-23.12309879442552
 30
0.0
 40
16.00000117276166
  0
CIRCLE
  5
39F
330
1F
100
AcDbEntity
  8
0-F
  6
Continuous
 62
     2
370
     9
100
AcDbCircle
 10
-638.6626171131572
 20
-23.12309879442552
 30
0.0
 40
11.50000063148704
  0
CIRCLE
  5
3A0
330
1F
100
AcDbEntity
  8
0-F
  6
Continuous
 62
     2
370
     9
100
AcDbCircle
 10
-638.6626171131572
 20
-23.12309879442552
 30
0.0
 40
12.00000112121169
  0
LINE
  5
3A1
330
1F
100
AcDbEntity
  8
0-F
  6
JWW_CENTER1
 62
     2
370
     9
100
AcDbLine
 10
-669.6626204123529
 20
-23.12297507451063
 30
0.0
 11
-607.6626138139611
 21
-23.12297507451063
 31
0.0
  0
LINE
  5
3A2
330
1F
100
AcDbEntity
  8
0-F
  6
JWW_CENTER1
 62
     2
370
     9
100
AcDbLine
 10
-638.6624933932469
 20
7.876904504770135
 30
0.0
 11
-638.6624933932469
 21
-54.12310209362108
 31
0.0
  0
LINE
  5
3A3
330
1F
100
AcDbEntity
  8
0-F
  6
Continuous
 62
     4
370
     9
100
AcDbLine
 10
-426.1626171131567
 20
61.87690120557463
 30
0.0
 11
-426.1626171131567
 21
91.8769012055752
 31
0.0
  0
LINE
  5
3A4
330
1F
100
AcDbEntity
  8
0-F
  6
Continuous
 62
     4
370
     9
100
AcDbLine
 10
-411.1626171131567
 20
61.87690120557463
 30
0.0
 11
-411.1626171131567
 21
91.8769012055752
 31
0.0
  0
LINE
  5
3A5
330
1F
100
AcDbEntity
  8
0-F
  6
Continuous
 62
     4
370
     9
100
AcDbLine
 10
-441.751072313352
 20
61.87690120557463
 30
0.0
 11
-441.751072313352
 21
91.8769012055752
 31
0.0
  0
LINE
  5
3A6
330
1F
100
AcDbEntity
  8
0-F
  6
Continuous
 62
     4
370
     9
100
AcDbLine
 10
-441.751072313352
 20
61.87690120557463
 30
0.0
 11
-395.5741619129614
 21
61.87690120557463
 31
0.0
  0
LINE
  5
3A7
330
1F
100
AcDbEntity
  8
0-F
  6
Continuous
 62
     4
370
     9
100
AcDbLine
 10
-441.751072313352
 20
91.8769012055752
 30
0.0
 11
-395.5741619129614
 21
91.8769012055752
 31
0.0
  0
LINE
  5
3A8
330
1F
100
AcDbEntity
  8
0-F
  6
Continuous
 62
     4
370
     9
100
AcDbLine
 10
-395.5741619129614
 20
61.87690120557463
 30
0.0
 11
-395.5741619129614
 21
91.8769012055752
 31
0.0
  0
LINE
  5
3A9
330
1F
100
AcDbEntity
  8
0-F
  6
JWW_CENTER1
 62
     4
370
     9
100
AcDbLine
 10
-448.071645545858
 20
76.87690120557512
 30
0.0
 11
-389.2535886804555
 21
76.87690120557512
 31
0.0
  0
LINE
  5
3AA
330
1F
100
AcDbEntity
  8
0-F
  6
JWW_CENTER1
 62
     4
370
     9
100
AcDbLine
 10
-418.6626171131567
 20
54.75953060010497
 30
0.0
 11
-418.6626171131567
 21
97.9985747895595
 31
0.0
  0
LINE
  5
3AB
330
1F
100
AcDbEntity
  8
0-F
  6
Continuous
 62
     2
370
     9
100
AcDbLine
 10
-420.1625973179645
 20
-34.52487838162966
 30
0.0
 11
-420.1625973179645
 21
-11.72131920721682
 31
0.0
  0
LINE
  5
3AC
330
1F
100
AcDbEntity
  8
0-F
  6
Continuous
 62
     2
370
     9
100
AcDbLine
 10
-417.1623894685192
 20
-34.52487838162966
 30
0.0
 11
-417.1623894685192
 21
-11.72131920721682
 31
0.0
  0
CIRCLE
  5
3AD
330
1F
100
AcDbEntity
  8
0-F
  6
Continuous
 62
     2
370
     9
100
AcDbCircle
 10
-418.6626171131567
 20
-23.12309879442552
 30
0.0
 40
16.00000117276166
  0
CIRCLE
  5
3AE
330
1F
100
AcDbEntity
  8
0-F
  6
Continuous
 62
     2
370
     9
100
AcDbCircle
 10
-418.6626171131567
 20
-23.12309879442552
 30
0.0
 40
11.50000063148705
  0
CIRCLE
  5
3AF
330
1F
100
AcDbEntity
  8
0-F
  6
Continuous
 62
     2
370
     9
100
AcDbCircle
 10
-418.6626171131567
 20
-23.12309879442552
 30
0.0
 40
12.0000011212117
  0
LINE
  5
3B0
330
1F
100
AcDbEntity
  8
0-F
  6
JWW_CENTER1
 62
     2
370
     9
100
AcDbLine
 10
-449.6626204123524
 20
-23.12297507451063
 30
0.0
 11
-387.6626138139611
 21
-23.12297507451063
 31
0.0
  0
LINE
  5
3B1
330
1F
100
AcDbEntity
  8
0-F
  6
JWW_CENTER1
 62
     2
370
     9
100
AcDbLine
 10
-418.6624933932464
 20
7.876904504770135
 30
0.0
 11
-418.6624933932464
 21
-54.12310209362108
 31
0.0
  0
LINE
  5
3B2
330
1F
100
AcDbEntity
  8
0-F
  6
Continuous
 62
     3
370
     9
100
AcDbLine
 10
-360.7874933932487
 20
-110.1227622762681
 30
0.0
 11
-348.7874043149111
 21
-98.12267319793051
 31
0.0
  0
LINE
  5
3B3
330
1F
100
AcDbEntity
  8
0-F
  6
Continuous
 62
     3
370
     9
100
AcDbLine
 10
-29.28749339324497
 20
-110.1227622762681
 30
0.0
 11
-360.7874933932487
 21
-110.1227622762681
 31
0.0
  0
LINE
  5
3B4
330
1F
100
AcDbEntity
  8
0-F
  6
Continuous
 62
     3
370
     9
100
AcDbLine
 10
-41.2875824715826
 20
-98.12267319793051
 30
0.0
 11
-348.7874043149111
 21
-98.12267319793051
 31
0.0
  0
LINE
  5
3B5
330
1F
100
AcDbEntity
  8
0-F
  6
Continuous
 62
     3
370
     9
100
AcDbLine
 10
-29.28749339324497
 20
-110.1227622762681
 30
0.0
 11
-41.2875824715826
 21
-98.12267319793051
 31
0.0
  0
LINE
  5
3B6
330
1F
100
AcDbEntity
  8
0-F
  6
Continuous
 62
     4
370
     9
100
AcDbLine
 10
-312.5376171131575
 20
61.87690120557463
 30
0.0
 11
-312.5376171131575
 21
91.8769012055752
 31
0.0
  0
LINE
  5
3B7
330
1F
100
AcDbEntity
  8
0-F
  6
Continuous
 62
     4
370
     9
100
AcDbLine
 10
-297.5376171131575
 20
61.87690120557463
 30
0.0
 11
-297.5376171131575
 21
91.8769012055752
 31
0.0
  0
LINE
  5
3B8
330
1F
100
AcDbEntity
  8
0-F
  6
Continuous
 62
     4
370
     9
100
AcDbLine
 10
-328.1260723133528
 20
61.87690120557463
 30
0.0
 11
-328.1260723133528
 21
91.8769012055752
 31
0.0
  0
LINE
  5
3B9
330
1F
100
AcDbEntity
  8
0-F
  6
Continuous
 62
     4
370
     9
100
AcDbLine
 10
-328.1260723133528
 20
61.87690120557463
 30
0.0
 11
-281.9491619129616
 21
61.87690120557463
 31
0.0
  0
LINE
  5
3BA
330
1F
100
AcDbEntity
  8
0-F
  6
Continuous
 62
     4
370
     9
100
AcDbLine
 10
-328.1260723133528
 20
91.8769012055752
 30
0.0
 11
-281.9491619129616
 21
91.8769012055752
 31
0.0
  0
LINE
  5
3BB
330
1F
100
AcDbEntity
  8
0-F
  6
Continuous
 62
     4
370
     9
100
AcDbLine
 10
-281.9491619129616
 20
61.87690120557463
 30
0.0
 11
-281.9491619129616
 21
91.8769012055752
 31
0.0
  0
LINE
  5
3BC
330
1F
100
AcDbEntity
  8
0-F
  6
JWW_CENTER1
 62
     4
370
     9
100
AcDbLine
 10
-334.4466455458587
 20
76.87690120557512
 30
0.0
 11
-275.6285886804557
 21
76.87690120557512
 31
0.0
  0
LINE
  5
3BD
330
1F
100
AcDbEntity
  8
0-F
  6
JWW_CENTER1
 62
     4
370
     9
100
AcDbLine
 10
-305.0376171131575
 20
54.75953060010497
 30
0.0
 11
-305.0376171131575
 21
97.9985747895595
 31
0.0
  0
LINE
  5
3BE
330
1F
100
AcDbEntity
  8
0-F
  6
Continuous
 62
     2
370
     9
100
AcDbLine
 10
-306.5375973179653
 20
-34.52487838162966
 30
0.0
 11
-306.5375973179653
 21
-11.72131920721682
 31
0.0
  0
LINE
  5
3BF
330
1F
100
AcDbEntity
  8
0-F
  6
Continuous
 62
     2
370
     9
100
AcDbLine
 10
-303.5373894685199
 20
-34.52487838162966
 30
0.0
 11
-303.5373894685199
 21
-11.72131920721682
 31
0.0
  0
CIRCLE
  5
3C0
330
1F
100
AcDbEntity
  8
0-F
  6
Continuous
 62
     2
370
     9
100
AcDbCircle
 10
-305.0376171131575
 20
-23.12309879442552
 30
0.0
 40
16.00000117276166
  0
CIRCLE
  5
3C1
330
1F
100
AcDbEntity
  8
0-F
  6
Continuous
 62
     2
370
     9
100
AcDbCircle
 10
-305.0376171131575
 20
-23.12309879442552
 30
0.0
 40
11.50000063148704
  0
CIRCLE
  5
3C2
330
1F
100
AcDbEntity
  8
0-F
  6
Continuous
 62
     2
370
     9
100
AcDbCircle
 10
-305.0376171131575
 20
-23.12309879442552
 30
0.0
 40
12.00000112121169
  0
LINE
  5
3C3
330
1F
100
AcDbEntity
  8
0-F
  6
JWW_CENTER1
 62
     2
370
     9
100
AcDbLine
 10
-336.0376204123531
 20
-23.12297507451063
 30
0.0
 11
-274.0376138139612
 21
-23.12297507451063
 31
0.0
  0
LINE
  5
3C4
330
1F
100
AcDbEntity
  8
0-F
  6
JWW_CENTER1
 62
     2
370
     9
100
AcDbLine
 10
-305.0374933932471
 20
7.876904504770135
 30
0.0
 11
-305.0374933932471
 21
-54.12310209362108
 31
0.0
  0
LINE
  5
3C5
330
1F
100
AcDbEntity
  8
0-F
  6
Continuous
 62
     4
370
     9
100
AcDbLine
 10
-92.5376171131569
 20
61.87690120557463
 30
0.0
 11
-92.5376171131569
 21
91.8769012055752
 31
0.0
  0
LINE
  5
3C6
330
1F
100
AcDbEntity
  8
0-F
  6
Continuous
 62
     4
370
     9
100
AcDbLine
 10
-77.5376171131569
 20
61.87690120557463
 30
0.0
 11
-77.5376171131569
 21
91.8769012055752
 31
0.0
  0
LINE
  5
3C7
330
1F
100
AcDbEntity
  8
0-F
  6
Continuous
 62
     4
370
     9
100
AcDbLine
 10
-108.1260723133522
 20
61.87690120557463
 30
0.0
 11
-108.1260723133522
 21
91.8769012055752
 31
0.0
  0
LINE
  5
3C8
330
1F
100
AcDbEntity
  8
0-F
  6
Continuous
 62
     4
370
     9
100
AcDbLine
 10
-108.1260723133522
 20
61.87690120557463
 30
0.0
 11
-61.94916191296159
 21
61.87690120557463
 31
0.0
  0
LINE
  5
3C9
330
1F
100
AcDbEntity
  8
0-F
  6
Continuous
 62
     4
370
     9
100
AcDbLine
 10
-108.1260723133522
 20
91.8769012055752
 30
0.0
 11
-61.94916191296159
 21
91.8769012055752
 31
0.0
  0
LINE
  5
3CA
330
1F
100
AcDbEntity
  8
0-F
  6
Continuous
 62
     4
370
     9
100
AcDbLine
 10
-61.94916191296159
 20
61.87690120557463
 30
0.0
 11
-61.94916191296159
 21
91.8769012055752
 31
0.0
  0
LINE
  5
3CB
330
1F
100
AcDbEntity
  8
0-F
  6
JWW_CENTER1
 62
     4
370
     9
100
AcDbLine
 10
-114.4466455458581
 20
76.87690120557512
 30
0.0
 11
-55.62858868045566
 21
76.87690120557512
 31
0.0
  0
LINE
  5
3CC
330
1F
100
AcDbEntity
  8
0-F
  6
JWW_CENTER1
 62
     4
370
     9
100
AcDbLine
 10
-85.0376171131569
 20
54.75953060010497
 30
0.0
 11
-85.0376171131569
 21
97.9985747895595
 31
0.0
  0
LINE
  5
3CD
330
1F
100
AcDbEntity
  8
0-F
  6
Continuous
 62
     2
370
     9
100
AcDbLine
 10
-86.5375973179647
 20
-34.52487838162966
 30
0.0
 11
-86.5375973179647
 21
-11.72131920721682
 31
0.0
  0
LINE
  5
3CE
330
1F
100
AcDbEntity
  8
0-F
  6
Continuous
 62
     2
370
     9
100
AcDbLine
 10
-83.53738946851934
 20
-34.52487838162966
 30
0.0
 11
-83.53738946851934
 21
-11.72131920721682
 31
0.0
  0
CIRCLE
  5
3CF
330
1F
100
AcDbEntity
  8
0-F
  6
Continuous
 62
     2
370
     9
100
AcDbCircle
 10
-85.0376171131569
 20
-23.12309879442552
 30
0.0
 40
16.00000117276166
  0
CIRCLE
  5
3D0
330
1F
100
AcDbEntity
  8
0-F
  6
Continuous
 62
     2
370
     9
100
AcDbCircle
 10
-85.0376171131569
 20
-23.12309879442552
 30
0.0
 40
11.50000063148705
  0
CIRCLE
  5
3D1
330
1F
100
AcDbEntity
  8
0-F
  6
Continuous
 62
     2
370
     9
100
AcDbCircle
 10
-85.0376171131569
 20
-23.12309879442552
 30
0.0
 40
12.0000011212117
  0
LINE
  5
3D2
330
1F
100
AcDbEntity
  8
0-F
  6
JWW_CENTER1
 62
     2
370
     9
100
AcDbLine
 10
-116.0376204123526
 20
-23.12297507451063
 30
0.0
 11
-54.03761381396123
 21
-23.12297507451063
 31
0.0
  0
LINE
  5
3D3
330
1F
100
AcDbEntity
  8
0-F
  6
JWW_CENTER1
 62
     2
370
     9
100
AcDbLine
 10
-85.03749339324656
 20
7.876904504770135
 30
0.0
 11
-85.03749339324656
 21
-54.12310209362108
 31
0.0
  0
LINE
  5
3D4
330
1F
100
AcDbEntity
  8
躯体
  6
JWW_DASHED2
 62
     2
370
     9
100
AcDbLine
 10
-62.28731028778043
 20
1422.877353195652
 30
0.0
 11
-62.28731028778043
 21
-77.12264680434807
 31
0.0
  0
LINE
  5
3D5
330
1F
100
AcDbEntity
  8
建具
  6
Continuous
 62
     2
370
     9
100
AcDbLine
 10
-28.28734657895552
 20
-111.1226105131775
 30
0.0
 11
-28.28734657895552
 21
1456.877564344298
 31
0.0
  0
LINE
  5
3D6
330
1F
100
AcDbEntity
  8
建具
  6
Continuous
 62
     2
370
     9
100
AcDbLine
 10
-16.28738122052823
 20
1468.87740598281
 30
0.0
 11
-16.28738122052823
 21
-123.1226995915106
 31
0.0
  0
LINE
  5
3D7
330
1F
100
AcDbEntity
  8
躯体
  6
JWW_DASHED2
 62
     2
370
     9
100
AcDbLine
 10
-1662.287434007691
 20
-77.12264680434807
 30
0.0
 11
-1662.287434007691
 21
1422.877353195652
 31
0.0
  0
LINE
  5
3D8
330
1F
100
AcDbEntity
  8
建具
  6
Continuous
 62
     2
370
     9
100
AcDbLine
 10
-1696.287397716516
 20
-111.1226105131775
 30
0.0
 11
-1696.287397716516
 21
1456.877564344298
 31
0.0
  0
LINE
  5
3D9
330
1F
100
AcDbEntity
  8
建具
  6
Continuous
 62
     2
370
     9
100
AcDbLine
 10
-1708.287363074943
 20
-123.1226995915106
 30
0.0
 11
-1708.287363074943
 21
1468.87740598281
 31
0.0
  0
LINE
  5
3DA
330
1F
100
AcDbEntity
  8
0-F
  6
Continuous
 62
     3
370
     9
100
AcDbLine
 10
-1683.28740431491
 20
-98.12267319793051
 30
0.0
 11
-1683.28740431491
 21
1443.877076063046
 31
0.0
  0
LINE
  5
3DB
330
1F
100
AcDbEntity
  8
0-F
  6
Continuous
 62
     3
370
     9
100
AcDbLine
 10
-1695.287493393248
 20
-110.1227622762681
 30
0.0
 11
-1695.287493393248
 21
1455.877412581209
 31
0.0
  0
LINE
  5
3DC
330
1F
100
AcDbEntity
  8
0-F
  6
Continuous
 62
     3
370
     9
100
AcDbLine
 10
-1375.787582471582
 20
-98.12267319793051
 30
0.0
 11
-1375.787582471582
 21
1443.877076063046
 31
0.0
  0
LINE
  5
3DD
330
1F
100
AcDbEntity
  8
0-F
  6
Continuous
 62
     3
370
     9
100
AcDbLine
 10
-1363.787493393244
 20
-110.1227622762681
 30
0.0
 11
-1363.787493393244
 21
1455.877412581209
 31
0.0
  0
LINE
  5
3DE
330
1F
100
AcDbEntity
  8
0-F
  6
Continuous
 62
     3
370
     9
100
AcDbLine
 10
-1349.662404314911
 20
-98.12267319793051
 30
0.0
 11
-1349.662404314911
 21
1443.877076063046
 31
0.0
  0
LINE
  5
3DF
330
1F
100
AcDbEntity
  8
0-F
  6
Continuous
 62
     3
370
     9
100
AcDbLine
 10
-1361.662493393248
 20
-110.1227622762681
 30
0.0
 11
-1361.662493393248
 21
1455.877412581209
 31
0.0
  0
LINE
  5
3E0
330
1F
100
AcDbEntity
  8
0-F
  6
Continuous
 62
     3
370
     9
100
AcDbLine
 10
-1042.162582471582
 20
-98.12267319793051
 30
0.0
 11
-1042.162582471582
 21
1443.877076063046
 31
0.0
  0
LINE
  5
3E1
330
1F
100
AcDbEntity
  8
0-F
  6
Continuous
 62
     3
370
     9
100
AcDbLine
 10
-1030.162493393244
 20
-110.1227622762681
 30
0.0
 11
-1030.162493393244
 21
1455.877412581209
 31
0.0
  0
LINE
  5
3E2
330
1F
100
AcDbEntity
  8
0-F
  6
Continuous
 62
     3
370
     9
100
AcDbLine
 10
-1016.037404314911
 20
-98.12267319793051
 30
0.0
 11
-1016.037404314911
 21
1443.877076063046
 31
0.0
  0
LINE
  5
3E3
330
1F
100
AcDbEntity
  8
0-F
  6
Continuous
 62
     3
370
     9
100
AcDbLine
 10
-1028.037493393248
 20
-110.1227622762681
 30
0.0
 11
-1028.037493393248
 21
1455.877412581209
 31
0.0
  0
LINE
  5
3E4
330
1F
100
AcDbEntity
  8
0-F
  6
Continuous
 62
     3
370
     9
100
AcDbLine
 10
-708.5375824715823
 20
-98.12267319793051
 30
0.0
 11
-708.5375824715823
 21
1443.877076063046
 31
0.0
  0
LINE
  5
3E5
330
1F
100
AcDbEntity
  8
0-F
  6
Continuous
 62
     3
370
     9
100
AcDbLine
 10
-696.5374933932446
 20
-110.1227622762681
 30
0.0
 11
-696.5374933932446
 21
1455.877412581209
 31
0.0
  0
LINE
  5
3E6
330
1F
100
AcDbEntity
  8
0-F
  6
Continuous
 62
     3
370
     9
100
AcDbLine
 10
-682.4124043149109
 20
-98.12267319793051
 30
0.0
 11
-682.4124043149109
 21
1443.877076063046
 31
0.0
  0
LINE
  5
3E7
330
1F
100
AcDbEntity
  8
0-F
  6
Continuous
 62
     3
370
     9
100
AcDbLine
 10
-694.4124933932485
 20
-110.1227622762681
 30
0.0
 11
-694.4124933932485
 21
1455.877412581209
 31
0.0
  0
LINE
  5
3E8
330
1F
100
AcDbEntity
  8
0-F
  6
Continuous
 62
     3
370
     9
100
AcDbLine
 10
-374.9125824715824
 20
-98.12267319793051
 30
0.0
 11
-374.9125824715824
 21
1443.877076063046
 31
0.0
  0
LINE
  5
3E9
330
1F
100
AcDbEntity
  8
0-F
  6
Continuous
 62
     3
370
     9
100
AcDbLine
 10
-362.9124933932448
 20
-110.1227622762681
 30
0.0
 11
-362.9124933932448
 21
1455.877412581209
 31
0.0
  0
LINE
  5
3EA
330
1F
100
AcDbEntity
  8
0-F
  6
Continuous
 62
     3
370
     9
100
AcDbLine
 10
-348.7874043149111
 20
-98.12267319793051
 30
0.0
 11
-348.7874043149111
 21
1443.877076063046
 31
0.0
  0
LINE
  5
3EB
330
1F
100
AcDbEntity
  8
0-F
  6
Continuous
 62
     3
370
     9
100
AcDbLine
 10
-360.7874933932487
 20
-110.1227622762681
 30
0.0
 11
-360.7874933932487
 21
1455.877412581209
 31
0.0
  0
LINE
  5
3EC
330
1F
100
AcDbEntity
  8
0-F
  6
Continuous
 62
     3
370
     9
100
AcDbLine
 10
-41.2875824715826
 20
-98.12267319793051
 30
0.0
 11
-41.2875824715826
 21
1443.877076063046
 31
0.0
  0
LINE
  5
3ED
330
1F
100
AcDbEntity
  8
0-F
  6
Continuous
 62
     3
370
     9
100
AcDbLine
 10
-29.28749339324497
 20
-110.1227622762681
 30
0.0
 11
-29.28749339324497
 21
1455.877412581209
 31
0.0
  0
TEXT
  5
3EE
330
1F
100
AcDbEntity
  8
F-Fﾚｲﾔ
  6
Continuous
 62
     2
370
     9
100
AcDbText
 10
-2170.020859680577
 20
-1586.037173756577
 30
0.0
 40
30.48
  1
約88kg/枚
 41
1.097222222222222
  7
ＭＳ ゴシック
100
AcDbText
  0
TEXT
  5
3EF
330
1F
100
AcDbEntity
  8
F-Fﾚｲﾔ
  6
Continuous
 62
     2
370
     9
100
AcDbText
 10
-2170.020859680577
 20
-1496.036887654282
 30
0.0
 40
30.48
  1
220kg/組
 41
1.09375
  7
ＭＳ ゴシック
100
AcDbText
  0
LINE
  5
3F0
330
1F
100
AcDbEntity
  8
0-E
  6
Continuous
 62
     3
370
     9
100
AcDbLine
 10
17.91257382790604
 20
924.8774059828145
 30
0.0
 11
17.91257382790604
 21
884.8774059828145
 31
0.0
  0
LINE
  5
3F1
330
1F
100
AcDbEntity
  8
0-E
  6
Continuous
 62
     3
370
     9
100
AcDbLine
 10
17.91257382790604
 20
924.8774059828145
 30
0.0
 11
-16.28738122052823
 21
924.8774059828145
 31
0.0
  0
LINE
  5
3F2
330
1F
100
AcDbEntity
  8
0-E
  6
Continuous
 62
     3
370
     9
100
AcDbLine
 10
17.91257382790604
 20
884.8774059828145
 30
0.0
 11
-16.28738122052823
 21
884.8774059828145
 31
0.0
  0
CIRCLE
  5
3F3
330
1F
100
AcDbEntity
  8
0-E
  6
Continuous
 62
     3
370
     9
100
AcDbCircle
 10
2.912573827906044
 20
904.8774059828145
 30
0.0
 40
6.999999999998181
  0
LINE
  5
3F4
330
1F
100
AcDbEntity
  8
0-E
  6
JWW_CENTER1
 62
     3
370
     9
100
AcDbLine
 10
24.88557285417642
 20
904.8774059828145
 30
0.0
 11
-16.28738122052823
 21
904.8774059828145
 31
0.0
  0
LINE
  5
3F5
330
1F
100
AcDbEntity
  8
0-E
  6
JWW_CENTER1
 62
     3
370
     9
100
AcDbLine
 10
2.912573827906044
 20
880.5001645196069
 30
0.0
 11
2.912573827906044
 21
929.254647446021
 31
0.0
  0
LINE
  5
3F6
330
1F
100
AcDbEntity
  8
0-E
  6
Continuous
 62
     3
370
     9
100
AcDbLine
 10
-1742.487318123377
 20
884.8774059828099
 30
0.0
 11
-1742.487318123377
 21
924.8774059828099
 31
0.0
  0
LINE
  5
3F7
330
1F
100
AcDbEntity
  8
0-E
  6
Continuous
 62
     3
370
     9
100
AcDbLine
 10
-1742.487318123377
 20
884.8774059828099
 30
0.0
 11
-1708.287363074943
 21
884.8774059828099
 31
0.0
  0
LINE
  5
3F8
330
1F
100
AcDbEntity
  8
0-E
  6
Continuous
 62
     3
370
     9
100
AcDbLine
 10
-1742.487318123377
 20
924.8774059828099
 30
0.0
 11
-1708.287363074943
 21
924.8774059828099
 31
0.0
  0
CIRCLE
  5
3F9
330
1F
100
AcDbEntity
  8
0-E
  6
Continuous
 62
     3
370
     9
100
AcDbCircle
 10
-1727.487318123377
 20
904.8774059828099
 30
0.0
 40
6.999999999998181
  0
LINE
  5
3FA
330
1F
100
AcDbEntity
  8
0-E
  6
JWW_CENTER1
 62
     3
370
     9
100
AcDbLine
 10
-1749.460317149648
 20
904.8774059828099
 30
0.0
 11
-1708.287363074943
 21
904.8774059828099
 31
0.0
  0
LINE
  5
3FB
330
1F
100
AcDbEntity
  8
0-E
  6
JWW_CENTER1
 62
     3
370
     9
100
AcDbLine
 10
-1727.487318123377
 20
929.2546474460175
 30
0.0
 11
-1727.487318123377
 21
880.5001645196035
 31
0.0
  0
LINE
  5
3FC
330
1F
100
AcDbEntity
  8
0-E
  6
Continuous
 62
     3
370
     9
100
AcDbLine
 10
17.91257382790604
 20
460.8774059828144
 30
0.0
 11
17.91257382790604
 21
420.8774059828144
 31
0.0
  0
LINE
  5
3FD
330
1F
100
AcDbEntity
  8
0-E
  6
Continuous
 62
     3
370
     9
100
AcDbLine
 10
17.91257382790604
 20
460.8774059828144
 30
0.0
 11
-16.28738122052823
 21
460.8774059828144
 31
0.0
  0
LINE
  5
3FE
330
1F
100
AcDbEntity
  8
0-E
  6
Continuous
 62
     3
370
     9
100
AcDbLine
 10
17.91257382790604
 20
420.8774059828144
 30
0.0
 11
-16.28738122052823
 21
420.8774059828144
 31
0.0
  0
CIRCLE
  5
3FF
330
1F
100
AcDbEntity
  8
0-E
  6
Continuous
 62
     3
370
     9
100
AcDbCircle
 10
2.912573827906044
 20
440.8774059828144
 30
0.0
 40
6.999999999998181
  0
LINE
  5
400
330
1F
100
AcDbEntity
  8
0-E
  6
JWW_CENTER1
 62
     3
370
     9
100
AcDbLine
 10
24.88557285417642
 20
440.8774059828144
 30
0.0
 11
-16.28738122052823
 21
440.8774059828144
 31
0.0
  0
LINE
  5
401
330
1F
100
AcDbEntity
  8
0-E
  6
JWW_CENTER1
 62
     3
370
     9
100
AcDbLine
 10
2.912573827906044
 20
416.5001645196068
 30
0.0
 11
2.912573827906044
 21
465.2546474460209
 31
0.0
  0
LINE
  5
402
330
1F
100
AcDbEntity
  8
0-E
  6
Continuous
 62
     3
370
     9
100
AcDbLine
 10
-1742.487318123377
 20
420.8774059828099
 30
0.0
 11
-1742.487318123377
 21
460.8774059828099
 31
0.0
  0
LINE
  5
403
330
1F
100
AcDbEntity
  8
0-E
  6
Continuous
 62
     3
370
     9
100
AcDbLine
 10
-1742.487318123377
 20
420.8774059828099
 30
0.0
 11
-1708.287363074943
 21
420.8774059828099
 31
0.0
  0
LINE
  5
404
330
1F
100
AcDbEntity
  8
0-E
  6
Continuous
 62
     3
370
     9
100
AcDbLine
 10
-1742.487318123377
 20
460.8774059828099
 30
0.0
 11
-1708.287363074943
 21
460.8774059828099
 31
0.0
  0
CIRCLE
  5
405
330
1F
100
AcDbEntity
  8
0-E
  6
Continuous
 62
     3
370
     9
100
AcDbCircle
 10
-1727.487318123377
 20
440.8774059828099
 30
0.0
 40
6.999999999998181
  0
LINE
  5
406
330
1F
100
AcDbEntity
  8
0-E
  6
JWW_CENTER1
 62
     3
370
     9
100
AcDbLine
 10
-1749.460317149648
 20
440.8774059828099
 30
0.0
 11
-1708.287363074943
 21
440.8774059828099
 31
0.0
  0
LINE
  5
407
330
1F
100
AcDbEntity
  8
0-E
  6
JWW_CENTER1
 62
     3
370
     9
100
AcDbLine
 10
-1727.487318123377
 20
465.2546474460175
 30
0.0
 11
-1727.487318123377
 21
416.5001645196034
 31
0.0
  0
LINE
  5
408
330
1F
100
AcDbEntity
  8
0-F
  6
Continuous
 62
     7
370
     9
100
AcDbLine
 10
108.6965629884186
 20
-23.12236967174705
 30
0.0
 11
108.6965629884186
 21
440.8774059828144
 31
0.0
  0
LWPOLYLINE
  5
409
330
1F
100
AcDbEntity
  8
0-F
  6
Continuous
 62
     7
370
     9
100
AcDbPolyline
 90
        4
 70
     1
 43
2.0
 10
109.6965629884186
 20
440.8774059828144
 42
0.4142135623731
 10
108.6965629884186
 20
441.8774059828144
 42
0.4142135623731
 10
107.6965629884186
 20
440.8774059828144
 42
0.4142135623731
 10
108.6965629884186
 20
439.8774059828144
 42
0.4142135623731
  0
LINE
  5
40A
330
1F
100
AcDbEntity
  8
0-F
  6
Continuous
 62
     7
370
     9
100
AcDbLine
 10
111.6965629884186
 20
440.8774059828144
 30
0.0
 11
44.88557285417642
 21
440.8774059828144
 31
0.0
  0
TEXT
  5
40B
330
1F
100
AcDbEntity
  8
0-F
  6
Continuous
 62
     2
370
   211
100
AcDbText
 10
98.05656298841862
 20
176.3775181555337
 30
0.0
 40
30.48
  1
464
 50
90.0
 41
1.083333333333333
  7
ＭＳ ゴシック
100
AcDbText
  0
LINE
  5
40C
330
1F
100
AcDbEntity
  8
0-F
  6
Continuous
 62
     7
370
     9
100
AcDbLine
 10
108.6965629884186
 20
440.8774059828144
 30
0.0
 11
108.6965629884187
 21
904.8774059828145
 31
0.0
  0
LWPOLYLINE
  5
40D
330
1F
100
AcDbEntity
  8
0-F
  6
Continuous
 62
     7
370
     9
100
AcDbPolyline
 90
        4
 70
     1
 43
2.0
 10
109.6965629884187
 20
904.8774059828145
 42
0.4142135623731
 10
108.6965629884187
 20
905.8774059828145
 42
0.4142135623731
 10
107.6965629884187
 20
904.8774059828145
 42
0.4142135623731
 10
108.6965629884187
 20
903.8774059828145
 42
0.4142135623731
  0
LINE
  5
40E
330
1F
100
AcDbEntity
  8
0-F
  6
Continuous
 62
     7
370
     9
100
AcDbLine
 10
111.6965629884187
 20
904.8774059828145
 30
0.0
 11
44.88557285417642
 21
904.8774059828145
 31
0.0
  0
TEXT
  5
40F
330
1F
100
AcDbEntity
  8
0-F
  6
Continuous
 62
     2
370
   211
100
AcDbText
 10
98.05656298841866
 20
640.3774059828145
 30
0.0
 40
30.48
  1
464
 50
90.0
 41
1.083333333333333
  7
ＭＳ ゴシック
100
AcDbText
  0
LINE
  5
410
330
1F
100
AcDbEntity
  8
0-F
  6
Continuous
 62
     7
370
     9
100
AcDbLine
 10
108.6965629884187
 20
904.8774059828145
 30
0.0
 11
108.6965629884187
 21
1368.877323502874
 31
0.0
  0
TEXT
  5
411
330
1F
100
AcDbEntity
  8
0-F
  6
Continuous
 62
     2
370
   211
100
AcDbText
 10
98.05656298841868
 20
1104.377364742844
 30
0.0
 40
30.48
  1
464
 50
90.0
 41
1.083333333333333
  7
ＭＳ ゴシック
100
AcDbText
  0
TEXT
  5
412
330
1F
100
AcDbEntity
  8
F-5ﾚｲﾔ
  6
Continuous
 62
     2
370
     0
100
AcDbText
 10
-500.1060031230026
 20
-1912.862728200519
 30
0.0
 40
30.48
  1
充填用（充填深さ：３０ｍｍ）　屋内用　一般形　スチール製　ステンレス目地
 41
1.121527777777778
  7
ＭＳ ゴシック
100
AcDbText
  0
LINE
  5
413
330
1F
100
AcDbEntity
  8
D-F
  6
Continuous
 62
     7
370
     9
100
AcDbLine
 10
688.0571563765501
 20
796.9973165489566
 30
0.0
 11
688.0571563765501
 21
471.9973165489522
 31
0.0
  0
TEXT
  5
414
330
1F
100
AcDbEntity
  8
D-F
  6
Continuous
 62
     2
370
   211
100
AcDbText
 10
677.4171563765501
 20
613.2473165489544
 30
0.0
 40
30.48
  1
65
 50
90.0
 41
1.0625
  7
ＭＳ ゴシック
100
AcDbText
  0
LINE
  5
415
330
1F
100
AcDbEntity
  8
0-F
  6
Continuous
 62
     7
370
     9
100
AcDbLine
 10
-1708.287486794854
 20
1758.87762043066
 30
0.0
 11
-16.2873812205288
 21
1758.87762043066
 31
0.0
  0
TEXT
  5
416
330
1F
100
AcDbEntity
  8
0-F
  6
Continuous
 62
     2
370
   211
100
AcDbText
 10
-906.0374340076912
 20
1770.517620430661
 30
0.0
 40
30.48
  1
1692
 41
1.09375
  7
ＭＳ ゴシック
100
AcDbText
  0
LINE
  5
417
330
1F
100
AcDbEntity
  8
0-F
  6
Continuous
 62
     7
370
     9
100
AcDbLine
 10
-1639.537493393246
 20
1195.575972682973
 30
0.0
 11
-1419.537617113156
 21
1195.575972682973
 31
0.0
  0
TEXT
  5
418
330
1F
100
AcDbEntity
  8
0-F
  6
Continuous
 62
     2
370
   211
100
AcDbText
 10
-1562.037555253201
 20
1206.215972682973
 30
0.0
 40
30.48
  1
220
 41
1.083333333333333
  7
ＭＳ ゴシック
100
AcDbText
  0
LINE
  5
419
330
1F
100
AcDbEntity
  8
0-F
  6
Continuous
 62
     7
370
     9
100
AcDbLine
 10
-1608.287010880232
 20
-284.4894651425861
 30
0.0
 11
-1111.287424934894
 21
-284.4894651425861
 31
0.0
  0
TEXT
  5
41A
330
1F
100
AcDbEntity
  8
0-F
  6
Continuous
 62
     2
370
   211
100
AcDbText
 10
-1392.287217907563
 20
-273.8494651425862
 30
0.0
 40
30.48
  1
497
 41
1.083333333333333
  7
ＭＳ ゴシック
100
AcDbText
  0
LINE
  5
41B
330
1F
100
AcDbEntity
  8
0-F
  6
Continuous
 62
     7
370
     9
100
AcDbLine
 10
-613.2873193605731
 20
-284.4894651425861
 30
0.0
 11
-116.2857093467647
 21
-284.4894651425861
 31
0.0
  0
TEXT
  5
41C
330
1F
100
AcDbEntity
  8
0-F
  6
Continuous
 62
     2
370
   211
100
AcDbText
 10
-397.2865143536689
 20
-273.8494651425862
 30
0.0
 40
30.48
  1
497
 41
1.083333333333333
  7
ＭＳ ゴシック
100
AcDbText
  0
LINE
  5
41D
330
1F
100
AcDbEntity
  8
0-F
  6
Continuous
 62
     7
370
     9
100
AcDbLine
 10
-1111.287424934894
 20
-284.4894651425861
 30
0.0
 11
-613.2873193605731
 21
-284.4894651425861
 31
0.0
  0
TEXT
  5
41E
330
1F
100
AcDbEntity
  8
0-F
  6
Continuous
 62
     2
370
   211
100
AcDbText
 10
-894.7873721477335
 20
-273.8494651425862
 30
0.0
 40
30.48
  1
498
 41
1.083333333333333
  7
ＭＳ ゴシック
100
AcDbText
  0
LINE
  5
41F
330
1F
100
AcDbEntity
  8
0-F
  6
Continuous
 62
     7
370
     9
100
AcDbLine
 10
-1798.911308820979
 20
-77.12264680434807
 30
0.0
 11
-1798.911308820979
 21
1422.877353195652
 31
0.0
  0
TEXT
  5
420
330
1F
100
AcDbEntity
  8
0-F
  6
Continuous
 62
     2
370
   211
100
AcDbText
 10
-1810.551229640237
 20
629.127353195652
 30
0.0
 40
30.48
  1
1500
 50
90.0
 41
1.09375
  7
ＭＳ ゴシック
100
AcDbText
  0
LINE
  5
421
330
1F
100
AcDbEntity
  8
0-F
  6
Continuous
 62
     7
370
     9
100
AcDbLine
 10
-1905.080656135408
 20
-110.1227061899053
 30
0.0
 11
-1905.080656135408
 21
1455.877412581209
 31
0.0
  0
TEXT
  5
422
330
1F
100
AcDbEntity
  8
0-F
  6
Continuous
 62
     2
370
   211
100
AcDbText
 10
-1916.720576954665
 20
629.127353195652
 30
0.0
 40
30.48
  1
1566
 50
90.0
 41
1.09375
  7
ＭＳ ゴシック
100
AcDbText
  0
LINE
  5
423
330
1F
100
AcDbEntity
  8
0-F
  6
Continuous
 62
     7
370
     9
100
AcDbLine
 10
-2007.543878684749
 20
-123.1226995915106
 30
0.0
 11
-2007.543878684749
 21
1468.877405982814
 31
0.0
  0
TEXT
  5
424
330
1F
100
AcDbEntity
  8
0-F
  6
Continuous
 62
     2
370
   211
100
AcDbText
 10
-2019.183799504006
 20
629.127353195652
 30
0.0
 40
30.48
  1
1592
 50
90.0
 41
1.09375
  7
ＭＳ ゴシック
100
AcDbText
  0
ENDSEC
  0
SECTION
  2
OBJECTS
  0
DICTIONARY
  5
C
330
0
100
AcDbDictionary
281
     1
  3
ACAD_DETAILVIEWSTYLE
350
46A
  3
ACAD_GROUP
350
D
  3
ACAD_LAYOUT
350
1A
  3
ACAD_MATERIAL
350
43
  3
ACAD_MLEADERSTYLE
350
6B
  3
ACAD_MLINESTYLE
350
17
  3
ACAD_PLOTSETTINGS
350
19
  3
ACAD_PLOTSTYLENAME
350
E
  3
ACAD_SCALELIST
350
47
  3
ACAD_SECTIONVIEWSTYLE
350
46B
  3
ACAD_TABLESTYLE
350
69
  3
ACAD_VISUALSTYLE
350
2A
  3
ACDB_RECOMPOSE_DATA
350
467
  3
AcDbVariableDictionary
350
427
  0
DICTIONARY
  5
425
330
8
100
AcDbDictionary
280
     1
281
     1
  3
ACAD_XREC_ROUNDTRIP
360
426
  0
DICTIONARY
  5
46A
102
{ACAD_REACTORS
330
C
102
}
330
C
100
AcDbDictionary
281
     1
  0
DICTIONARY
  5
D
102
{ACAD_REACTORS
330
C
102
}
330
C
100
AcDbDictionary
281
     1
  0
DICTIONARY
  5
1A
102
{ACAD_REACTORS
330
C
102
}
330
C
100
AcDbDictionary
281
     1
  3
Layout1
350
1E
  3
Layout2
350
26
  3
Model
350
22
  0
DICTIONARY
  5
43
102
{ACAD_REACTORS
330
C
102
}
330
C
100
AcDbDictionary
281
     1
  3
ByBlock
350
45
  3
ByLayer
350
44
  3
Global
350
46
  0
DICTIONARY
  5
6B
102
{ACAD_REACTORS
330
C
102
}
330
C
100
AcDbDictionary
281
     1
  3
Standard
350
6C
  0
DICTIONARY
  5
17
102
{ACAD_REACTORS
330
C
102
}
330
C
100
AcDbDictionary
281
     1
  3
Standard
350
18
  0
DICTIONARY
  5
19
102
{ACAD_REACTORS
330
C
102
}
330
C
100
AcDbDictionary
281
     1
  0
ACDBDICTIONARYWDFLT
  5
E
102
{ACAD_REACTORS
330
C
102
}
330
C
100
AcDbDictionary
281
     1
  3
Normal
350
F
100
AcDbDictionaryWithDefault
340
F
  0
DICTIONARY
  5
47
102
{ACAD_REACTORS
330
C
102
}
330
C
100
AcDbDictionary
281
     1
  3
A0
350
48
  3
A1
350
49
  3
A2
350
4A
  3
A3
350
4B
  3
A4
350
4C
  3
A5
350
4D
  3
A6
350
4E
  3
A7
350
4F
  3
A8
350
50
  3
A9
350
51
  3
B0
350
52
  3
B1
350
53
  3
B2
350
54
  3
B3
350
55
  3
B4
350
56
  3
B5
350
57
  3
B6
350
58
  3
B7
350
59
  3
B8
350
5A
  3
B9
350
5B
  3
C0
350
5C
  3
C1
350
5D
  3
C2
350
5E
  3
C3
350
5F
  3
C4
350
60
  3
C5
350
61
  3
C6
350
62
  3
C7
350
63
  3
C8
350
64
  3
C9
350
65
  3
D0
350
66
  3
D1
350
67
  3
D2
350
68
  0
DICTIONARY
  5
46B
102
{ACAD_REACTORS
330
C
102
}
330
C
100
AcDbDictionary
281
     1
  0
DICTIONARY
  5
69
102
{ACAD_REACTORS
330
C
102
}
330
C
100
AcDbDictionary
281
     1
  3
Standard
350
6A
  0
DICTIONARY
  5
2A
102
{ACAD_REACTORS
330
C
102
}
330
C
100
AcDbDictionary
281
     1
  3
2dWireframe
350
2F
  3
Basic
350
32
  3
Brighten
350
36
  3
ColorChange
350
3A
  3
Conceptual
350
34
  3
Dim
350
35
  3
EdgeColorOff
350
3D
  3
Facepattern
350
39
  3
Flat
350
2B
  3
FlatWithEdges
350
2C
  3
Gouraud
350
2D
  3
GouraudWithEdges
350
2E
  3
Hidden
350
31
  3
JitterOff
350
3B
  3
Linepattern
350
38
  3
OverhangOff
350
3C
  3
Realistic
350
33
  3
Shaded
350
42
  3
Shaded with edges
350
41
  3
Shades of Gray
350
3E
  3
Sketchy
350
3F
  3
Thicken
350
37
  3
Wireframe
350
30
  3
X-Ray
350
40
  0
XRECORD
  5
467
102
{ACAD_REACTORS
330
C
102
}
330
C
100
AcDbXrecord
280
     1
 90
        1
330
6A
  0
DICTIONARY
  5
427
102
{ACAD_REACTORS
330
C
102
}
330
C
100
AcDbDictionary
281
     1
  3
CANNOSCALE
350
428
  3
CENTEREXE
350
46C
  3
CENTERLTYPEFILE
350
46D
  3
CMLEADERSTYLE
350
469
  3
CTABLESTYLE
350
468
  3
MSLTSCALE
350
429
  3
XCLIPFRAME
350
42A
  0
XRECORD
  5
426
102
{ACAD_REACTORS
330
425
102
}
330
425
100
AcDbXrecord
280
     1
102
VTR_0.000_0.000_1.000_1.000_VISUALSTYLE
340
2F
102
VTR_0.000_0.000_1.000_1.000_GRIDDISPLAY
 70
     3
102
VTR_0.000_0.000_1.000_1.000_GRIDMAJOR
 70
     5
102
VTR_0.000_0.000_1.000_1.000_DEFAULTLIGHTING
280
     1
102
VTR_0.000_0.000_1.000_1.000_DEFAULTLIGHTINGTYPE
 70
     1
102
VTR_0.000_0.000_1.000_1.000_BRIGHTNESS
141
0.0
102
VTR_0.000_0.000_1.000_1.000_CONTRAST
142
0.0
  0
LAYOUT
  5
1E
102
{ACAD_REACTORS
330
1A
102
}
330
1A
100
AcDbPlotSettings
  1

  2
none_device
  4

  6

 40
0.0
 41
0.0
 42
0.0
 43
0.0
 44
0.0
 45
0.0
 46
0.0
 47
0.0
 48
0.0
 49
0.0
140
0.0
141
0.0
142
1.0
143
1.0
 70
   688
 72
     1
 73
     0
 74
     5
  7

 75
    16
 76
     0
 77
     5
 78
   300
147
1.0
148
0.0
149
0.0
100
AcDbLayout
  1
Layout1
 70
     1
 71
     1
 10
0.0
 20
0.0
 11
420.0
 21
297.0
 12
0.0
 22
0.0
 32
0.0
 14
1.000000000000000E+20
 24
1.000000000000000E+20
 34
1.000000000000000E+20
 15
-1.000000000000000E+20
 25
-1.000000000000000E+20
 35
-1.000000000000000E+20
146
0.0
 13
0.0
 23
0.0
 33
0.0
 16
1.0
 26
0.0
 36
0.0
 17
0.0
 27
1.0
 37
0.0
 76
     0
330
1B
  0
LAYOUT
  5
26
102
{ACAD_REACTORS
330
1A
102
}
330
1A
100
AcDbPlotSettings
  1

  2
none_device
  4

  6

 40
0.0
 41
0.0
 42
0.0
 43
0.0
 44
0.0
 45
0.0
 46
0.0
 47
0.0
 48
0.0
 49
0.0
140
0.0
141
0.0
142
1.0
143
1.0
 70
   688
 72
     1
 73
     0
 74
     5
  7

 75
    16
 76
     0
 77
     5
 78
   300
147
1.0
148
0.0
149
0.0
100
AcDbLayout
  1
Layout2
 70
     1
 71
     2
 10
0.0
 20
0.0
 11
0.0
 21
0.0
 12
0.0
 22
0.0
 32
0.0
 14
0.0
 24
0.0
 34
0.0
 15
0.0
 25
0.0
 35
0.0
146
0.0
 13
0.0
 23
0.0
 33
0.0
 16
1.0
 26
0.0
 36
0.0
 17
0.0
 27
1.0
 37
0.0
 76
     0
330
23
  0
LAYOUT
  5
22
102
{ACAD_REACTORS
330
1A
102
}
330
1A
100
AcDbPlotSettings
  1

  2
none_device
  4
Letter_(8.50_x_11.00_Inches)
  6

 40
6.35
 41
6.35
 42
6.35000508
 43
6.35000508
 44
215.9
 45
279.4
 46
0.0
 47
0.0
 48
0.0
 49
0.0
140
0.0
141
0.0
142
1.0
143
1.0
 70
  1712
 72
     1
 73
     0
 74
     0
  7

 75
     0
 76
     0
 77
     5
 78
   300
147
1.0
148
0.0
149
0.0
100
AcDbLayout
  1
Model
 70
     1
 71
     0
 10
-2970.0
 20
-2100.0
 11
2970.0
 21
2100.0
 12
0.0
 22
0.0
 32
0.0
 14
-2970.0
 24
-2100.0
 34
0.0
 15
2970.0
 25
2100.0
 35
0.0
146
0.0
 13
0.0
 23
0.0
 33
0.0
 16
1.0
 26
0.0
 36
0.0
 17
0.0
 27
1.0
 37
0.0
 76
     0
330
1F
331
29
  0
MATERIAL
  5
45
102
{ACAD_REACTORS
330
43
102
}
102
{ACAD_XDICTIONARY
360
45D
102
}
330
43
100
AcDbMaterial
  1
ByBlock
  0
MATERIAL
  5
44
102
{ACAD_REACTORS
330
43
102
}
102
{ACAD_XDICTIONARY
360
45B
102
}
330
43
100
AcDbMaterial
  1
ByLayer
  0
MATERIAL
  5
46
102
{ACAD_REACTORS
330
43
102
}
102
{ACAD_XDICTIONARY
360
45F
102
}
330
43
100
AcDbMaterial
  1
Global
  0
MLEADERSTYLE
  5
6C
102
{ACAD_REACTORS
330
6B
102
}
102
{ACAD_XDICTIONARY
360
465
102
}
330
6B
100
AcDbMLeaderStyle
170
     2
171
     1
172
     0
 90
        2
 40
0.0
 41
0.0
173
     1
 91
-1056964608
340
14
 92
       -2
290
     1
 42
2.0
291
     1
 43
8.0
  3
Standard
341
0
 44
4.0
300

342
11
174
     1
178
     6
175
     1
176
     0
 93
-1056964608
 45
4.0
292
     0
297
     0
 46
4.0
343
0
 94
-1056964608
 47
1.0
 49
1.0
140
1.0
293
     1
141
0.0
294
     1
177
     0
142
1.0
295
     0
296
     0
143
3.75
1001
ACAD_MLEADERVER
1070
     2
  0
MLINESTYLE
  5
18
102
{ACAD_REACTORS
330
17
102
}
330
17
100
AcDbMlineStyle
  2
Standard
 70
     0
  3

 62
   256
 51
90.0
 52
90.0
 71
     2
 49
0.5
 62
   256
  6
BYLAYER
 49
-0.5
 62
   256
  6
BYLAYER
  0
ACDBPLACEHOLDER
  5
F
102
{ACAD_REACTORS
330
E
102
}
330
E
  0
SCALE
  5
48
102
{ACAD_REACTORS
330
47
102
}
330
47
100
AcDbScale
 70
     0
300
1:1
140
1.0
141
1.0
290
     1
  0
SCALE
  5
49
102
{ACAD_REACTORS
330
47
102
}
330
47
100
AcDbScale
 70
     0
300
1:2
140
1.0
141
2.0
290
     0
  0
SCALE
  5
4A
102
{ACAD_REACTORS
330
47
102
}
330
47
100
AcDbScale
 70
     0
300
1:4
140
1.0
141
4.0
290
     0
  0
SCALE
  5
4B
102
{ACAD_REACTORS
330
47
102
}
330
47
100
AcDbScale
 70
     0
300
1:5
140
1.0
141
5.0
290
     0
  0
SCALE
  5
4C
102
{ACAD_REACTORS
330
47
102
}
330
47
100
AcDbScale
 70
     0
300
1:8
140
1.0
141
8.0
290
     0
  0
SCALE
  5
4D
102
{ACAD_REACTORS
330
47
102
}
330
47
100
AcDbScale
 70
     0
300
1:10
140
1.0
141
10.0
290
     0
  0
SCALE
  5
4E
102
{ACAD_REACTORS
330
47
102
}
330
47
100
AcDbScale
 70
     0
300
1:16
140
1.0
141
16.0
290
     0
  0
SCALE
  5
4F
102
{ACAD_REACTORS
330
47
102
}
330
47
100
AcDbScale
 70
     0
300
1:20
140
1.0
141
20.0
290
     0
  0
SCALE
  5
50
102
{ACAD_REACTORS
330
47
102
}
330
47
100
AcDbScale
 70
     0
300
1:30
140
1.0
141
30.0
290
     0
  0
SCALE
  5
51
102
{ACAD_REACTORS
330
47
102
}
330
47
100
AcDbScale
 70
     0
300
1:40
140
1.0
141
40.0
290
     0
  0
SCALE
  5
52
102
{ACAD_REACTORS
330
47
102
}
330
47
100
AcDbScale
 70
     0
300
1:50
140
1.0
141
50.0
290
     0
  0
SCALE
  5
53
102
{ACAD_REACTORS
330
47
102
}
330
47
100
AcDbScale
 70
     0
300
1:100
140
1.0
141
100.0
290
     0
  0
SCALE
  5
54
102
{ACAD_REACTORS
330
47
102
}
330
47
100
AcDbScale
 70
     0
300
2:1
140
2.0
141
1.0
290
     0
  0
SCALE
  5
55
102
{ACAD_REACTORS
330
47
102
}
330
47
100
AcDbScale
 70
     0
300
4:1
140
4.0
141
1.0
290
     0
  0
SCALE
  5
56
102
{ACAD_REACTORS
330
47
102
}
330
47
100
AcDbScale
 70
     0
300
8:1
140
8.0
141
1.0
290
     0
  0
SCALE
  5
57
102
{ACAD_REACTORS
330
47
102
}
330
47
100
AcDbScale
 70
     0
300
10:1
140
10.0
141
1.0
290
     0
  0
SCALE
  5
58
102
{ACAD_REACTORS
330
47
102
}
330
47
100
AcDbScale
 70
     0
300
100:1
140
100.0
141
1.0
290
     0
  0
SCALE
  5
59
102
{ACAD_REACTORS
330
47
102
}
330
47
100
AcDbScale
 70
     0
300
1/128" = 1'-0"
140
0.0078125
141
12.0
290
     0
  0
SCALE
  5
5A
102
{ACAD_REACTORS
330
47
102
}
330
47
100
AcDbScale
 70
     0
300
1/64" = 1'-0"
140
0.015625
141
12.0
290
     0
  0
SCALE
  5
5B
102
{ACAD_REACTORS
330
47
102
}
330
47
100
AcDbScale
 70
     0
300
1/32" = 1'-0"
140
0.03125
141
12.0
290
     0
  0
SCALE
  5
5C
102
{ACAD_REACTORS
330
47
102
}
330
47
100
AcDbScale
 70
     0
300
1/16" = 1'-0"
140
0.0625
141
12.0
290
     0
  0
SCALE
  5
5D
102
{ACAD_REACTORS
330
47
102
}
330
47
100
AcDbScale
 70
     0
300
3/32" = 1'-0"
140
0.09375
141
12.0
290
     0
  0
SCALE
  5
5E
102
{ACAD_REACTORS
330
47
102
}
330
47
100
AcDbScale
 70
     0
300
1/8" = 1'-0"
140
0.125
141
12.0
290
     0
  0
SCALE
  5
5F
102
{ACAD_REACTORS
330
47
102
}
330
47
100
AcDbScale
 70
     0
300
3/16" = 1'-0"
140
0.1875
141
12.0
290
     0
  0
SCALE
  5
60
102
{ACAD_REACTORS
330
47
102
}
330
47
100
AcDbScale
 70
     0
300
1/4" = 1'-0"
140
0.25
141
12.0
290
     0
  0
SCALE
  5
61
102
{ACAD_REACTORS
330
47
102
}
330
47
100
AcDbScale
 70
     0
300
3/8" = 1'-0"
140
0.375
141
12.0
290
     0
  0
SCALE
  5
62
102
{ACAD_REACTORS
330
47
102
}
330
47
100
AcDbScale
 70
     0
300
1/2" = 1'-0"
140
0.5
141
12.0
290
     0
  0
SCALE
  5
63
102
{ACAD_REACTORS
330
47
102
}
330
47
100
AcDbScale
 70
     0
300
3/4" = 1'-0"
140
0.75
141
12.0
290
     0
  0
SCALE
  5
64
102
{ACAD_REACTORS
330
47
102
}
330
47
100
AcDbScale
 70
     0
300
1" = 1'-0"
140
1.0
141
12.0
290
     0
  0
SCALE
  5
65
102
{ACAD_REACTORS
330
47
102
}
330
47
100
AcDbScale
 70
     0
300
1-1/2" = 1'-0"
140
1.5
141
12.0
290
     0
  0
SCALE
  5
66
102
{ACAD_REACTORS
330
47
102
}
330
47
100
AcDbScale
 70
     0
300
3" = 1'-0"
140
3.0
141
12.0
290
     0
  0
SCALE
  5
67
102
{ACAD_REACTORS
330
47
102
}
330
47
100
AcDbScale
 70
     0
300
6" = 1'-0"
140
6.0
141
12.0
290
     0
  0
SCALE
  5
68
102
{ACAD_REACTORS
330
47
102
}
330
47
100
AcDbScale
 70
     0
300
1'-0" = 1'-0"
140
12.0
141
12.0
290
     0
  0
TABLESTYLE
  5
6A
102
{ACAD_REACTORS
330
69
102
}
102
{ACAD_XDICTIONARY
360
461
102
}
330
69
100
AcDbTableStyle
  3
Standard
 70
     0
 71
     0
 40
0.06
 41
0.06
280
     0
281
     0
  7
Standard
140
4.5
170
     2
 62
     0
 63
   257
283
     0
274
    -2
284
     1
 64
     0
275
    -2
285
     1
 65
     0
276
    -2
286
     1
 66
     0
277
    -2
287
     1
 67
     0
278
    -2
288
     1
 68
     0
279
    -2
289
     1
 69
     0
  7
Standard
140
6.0
170
     5
 62
     0
 63
   257
283
     0
274
    -2
284
     1
 64
     0
275
    -2
285
     1
 65
     0
276
    -2
286
     1
 66
     0
277
    -2
287
     1
 67
     0
278
    -2
288
     1
 68
     0
279
    -2
289
     1
 69
     0
  7
Standard
140
4.5
170
     5
 62
     0
 63
   257
283
     0
274
    -2
284
     1
 64
     0
275
    -2
285
     1
 65
     0
276
    -2
286
     1
 66
     0
277
    -2
287
     1
 67
     0
278
    -2
288
     1
 68
     0
279
    -2
289
     1
 69
     0
  0
VISUALSTYLE
  5
2F
102
{ACAD_REACTORS
330
2A
102
}
102
{ACAD_XDICTIONARY
360
433
102
}
330
2A
100
AcDbVisualStyle
  2
2dWireframe
 70
     4
 71
     0
 72
     2
 73
     0
 90
        0
 40
0.6
 41
30.0
 62
     5
 63
     7
421
 16777215
 74
     1
 91
        4
 64
     7
 65
   257
 75
     1
175
     1
 42
1.0
 92
        0
 66
   257
 43
1.0
 76
     1
 77
     6
 78
     2
 67
     7
 79
     5
170
     0
171
     0
290
     0
174
     0
 93
        1
 44
0.0
173
     0
291
     0
 45
0.0
1001
ACAD
1000
AcDbSavedByObjectVersion
1070
     0
  0
VISUALSTYLE
  5
32
102
{ACAD_REACTORS
330
2A
102
}
102
{ACAD_XDICTIONARY
360
439
102
}
330
2A
100
AcDbVisualStyle
  2
Basic
 70
     7
 71
     1
 72
     0
 73
     1
 90
        0
 40
0.6
 41
30.0
 62
     5
 63
     7
421
 16777215
 74
     0
 91
        4
 64
     7
 65
   257
 75
     1
175
     1
 42
1.0
 92
        8
 66
     7
 43
1.0
 76
     1
 77
     6
 78
     2
 67
     7
 79
     5
170
     0
171
     0
290
     0
174
     0
 93
        1
 44
0.0
173
     0
291
     1
 45
0.0
1001
ACAD
1000
AcDbSavedByObjectVersion
1070
     0
  0
VISUALSTYLE
  5
36
102
{ACAD_REACTORS
330
2A
102
}
102
{ACAD_XDICTIONARY
360
441
102
}
330
2A
100
AcDbVisualStyle
  2
Brighten
 70
    12
 71
     2
 72
     2
 73
     0
 90
        0
 40
0.6
 41
30.0
 62
     5
 63
     7
421
 16777215
 74
     1
 91
        4
 64
     7
 65
   257
 75
     1
175
     1
 42
1.0
 92
        8
 66
     7
 43
1.0
 76
     1
 77
     6
 78
     2
 67
     7
 79
     5
170
     0
171
     0
290
     0
174
     0
 93
        1
 44
50.0
173
     0
291
     1
 45
0.0
1001
ACAD
1000
AcDbSavedByObjectVersion
1070
     0
  0
VISUALSTYLE
  5
3A
102
{ACAD_REACTORS
330
2A
102
}
102
{ACAD_XDICTIONARY
360
449
102
}
330
2A
100
AcDbVisualStyle
  2
ColorChange
 70
    16
 71
     2
 72
     2
 73
     3
 90
        0
 40
0.6
 41
30.0
 62
     5
 63
     8
421
  8421504
 74
     1
 91
        4
 64
     7
 65
   257
 75
     1
175
     1
 42
1.0
 92
        8
 66
     8
424
  8421504
 43
1.0
 76
     1
 77
     6
 78
     2
 67
     7
 79
     5
170
     0
171
     0
290
     0
174
     0
 93
        1
 44
0.0
173
     0
291
     1
 45
0.0
1001
ACAD
1000
AcDbSavedByObjectVersion
1070
     0
  0
VISUALSTYLE
  5
34
102
{ACAD_REACTORS
330
2A
102
}
102
{ACAD_XDICTIONARY
360
43D
102
}
330
2A
100
AcDbVisualStyle
  2
Conceptual
 70
     9
 71
     3
 72
     2
 73
     0
 90
        0
 40
0.6
 41
30.0
 62
     5
 63
     7
421
 16777215
 74
     2
 91
        2
 64
     7
 65
   257
 75
     1
175
     1
 42
179.0
 92
        8
 66
     7
 43
1.0
 76
     1
 77
     6
 78
     2
 67
     7
 79
     3
170
     0
171
     0
290
     0
174
     0
 93
        1
 44
0.0
173
     0
291
     0
 45
0.0
1001
ACAD
1000
AcDbSavedByObjectVersion
1070
     0
  0
VISUALSTYLE
  5
35
102
{ACAD_REACTORS
330
2A
102
}
102
{ACAD_XDICTIONARY
360
43F
102
}
330
2A
100
AcDbVisualStyle
  2
Dim
 70
    11
 71
     2
 72
     2
 73
     0
 90
        0
 40
0.6
 41
30.0
 62
     5
 63
     7
421
 16777215
 74
     1
 91
        4
 64
     7
 65
   257
 75
     1
175
     1
 42
1.0
 92
        8
 66
     7
 43
1.0
 76
     1
 77
     6
 78
     2
 67
     7
 79
     5
170
     0
171
     0
290
     0
174
     0
 93
        1
 44
-50.0
173
     0
291
     1
 45
0.0
1001
ACAD
1000
AcDbSavedByObjectVersion
1070
     0
  0
VISUALSTYLE
  5
3D
102
{ACAD_REACTORS
330
2A
102
}
102
{ACAD_XDICTIONARY
360
44F
102
}
330
2A
100
AcDbVisualStyle
  2
EdgeColorOff
 70
    22
 71
     2
 72
     2
 73
     0
 90
        0
 40
0.6
 41
30.0
 62
     5
 63
     7
421
 16777215
 74
     1
 91
        4
 64
     7
 65
   257
 75
     1
175
     1
 42
1.0
 92
        8
 66
     7
 43
1.0
 76
     1
 77
     6
 78
     2
 67
     7
 79
     5
170
     0
171
     0
290
     0
174
     0
 93
        1
 44
0.0
173
     0
291
     1
 45
0.0
1001
ACAD
1000
AcDbSavedByObjectVersion
1070
     0
  0
VISUALSTYLE
  5
39
102
{ACAD_REACTORS
330
2A
102
}
102
{ACAD_XDICTIONARY
360
447
102
}
330
2A
100
AcDbVisualStyle
  2
Facepattern
 70
    15
 71
     2
 72
     2
 73
     0
 90
        0
 40
0.6
 41
30.0
 62
     5
 63
     7
421
 16777215
 74
     1
 91
        4
 64
     7
 65
   257
 75
     1
175
     1
 42
1.0
 92
        8
 66
     7
 43
1.0
 76
     1
 77
     6
 78
     2
 67
     7
 79
     5
170
     0
171
     0
290
     0
174
     0
 93
        1
 44
0.0
173
     0
291
     1
 45
0.0
1001
ACAD
1000
AcDbSavedByObjectVersion
1070
     0
  0
VISUALSTYLE
  5
2B
102
{ACAD_REACTORS
330
2A
102
}
102
{ACAD_XDICTIONARY
360
42B
102
}
330
2A
100
AcDbVisualStyle
  2
Flat
 70
     0
 71
     2
 72
     1
 73
     1
 90
        2
 40
0.6
 41
30.0
 62
     5
 63
     7
421
 16777215
 74
     0
 91
        0
 64
     7
 65
   257
 75
     1
175
     1
 42
1.0
 92
        8
 66
     7
 43
1.0
 76
     1
 77
     6
 78
     2
 67
     7
 79
     5
170
     0
171
     0
290
     0
174
     0
 93
       13
 44
0.0
173
     0
291
     1
 45
0.0
1001
ACAD
1000
AcDbSavedByObjectVersion
1070
     0
  0
VISUALSTYLE
  5
2C
102
{ACAD_REACTORS
330
2A
102
}
102
{ACAD_XDICTIONARY
360
42D
102
}
330
2A
100
AcDbVisualStyle
  2
FlatWithEdges
 70
     1
 71
     2
 72
     1
 73
     1
 90
        2
 40
0.6
 41
30.0
 62
     5
 63
     7
421
 16777215
 74
     1
 91
        0
 64
     7
 65
   257
 75
     1
175
     1
 42
1.0
 92
        0
 66
   257
 43
1.0
 76
     1
 77
     6
 78
     2
 67
     7
 79
     5
170
     0
171
     0
290
     0
174
     0
 93
       13
 44
0.0
173
     0
291
     1
 45
0.0
1001
ACAD
1000
AcDbSavedByObjectVersion
1070
     0
  0
VISUALSTYLE
  5
2D
102
{ACAD_REACTORS
330
2A
102
}
102
{ACAD_XDICTIONARY
360
42F
102
}
330
2A
100
AcDbVisualStyle
  2
Gouraud
 70
     2
 71
     2
 72
     2
 73
     1
 90
        2
 40
0.6
 41
30.0
 62
     5
 63
     7
421
 16777215
 74
     0
 91
        0
 64
     7
 65
   257
 75
     1
175
     1
 42
1.0
 92
        0
 66
     7
 43
1.0
 76
     1
 77
     6
 78
     2
 67
     7
 79
     5
170
     0
171
     0
290
     0
174
     0
 93
       13
 44
0.0
173
     0
291
     1
 45
0.0
1001
ACAD
1000
AcDbSavedByObjectVersion
1070
     0
  0
VISUALSTYLE
  5
2E
102
{ACAD_REACTORS
330
2A
102
}
102
{ACAD_XDICTIONARY
360
431
102
}
330
2A
100
AcDbVisualStyle
  2
GouraudWithEdges
 70
     3
 71
     2
 72
     2
 73
     1
 90
        2
 40
0.6
 41
30.0
 62
     5
 63
     7
421
 16777215
 74
     1
 91
        0
 64
     7
 65
   257
 75
     1
175
     1
 42
1.0
 92
        0
 66
   257
 43
1.0
 76
     1
 77
     6
 78
     2
 67
     7
 79
     5
170
     0
171
     0
290
     0
174
     0
 93
       13
 44
0.0
173
     0
291
     1
 45
0.0
1001
ACAD
1000
AcDbSavedByObjectVersion
1070
     0
  0
VISUALSTYLE
  5
31
102
{ACAD_REACTORS
330
2A
102
}
102
{ACAD_XDICTIONARY
360
437
102
}
330
2A
100
AcDbVisualStyle
  2
Hidden
 70
     6
 71
     1
 72
     2
 73
     2
 90
        0
 40
0.6
 41
30.0
 62
     5
 63
     7
421
 16777215
 74
     2
 91
        2
 64
     7
 65
   257
 75
     2
175
     1
 42
40.0
 92
        0
 66
   257
 43
1.0
 76
     1
 77
     6
 78
     2
 67
     7
 79
     3
170
     0
171
     0
290
     0
174
     0
 93
        1
 44
0.0
173
     0
291
     0
 45
0.0
1001
ACAD
1000
AcDbSavedByObjectVersion
1070
     0
  0
VISUALSTYLE
  5
3B
102
{ACAD_REACTORS
330
2A
102
}
102
{ACAD_XDICTIONARY
360
44B
102
}
330
2A
100
AcDbVisualStyle
  2
JitterOff
 70
    20
 71
     2
 72
     2
 73
     0
 90
        0
 40
0.6
 41
30.0
 62
     5
 63
     7
421
 16777215
 74
     1
 91
        4
 64
     7
 65
   257
 75
     1
175
     1
 42
1.0
 92
       10
 66
     7
 43
1.0
 76
     1
 77
     6
 78
     2
 67
     7
 79
     5
170
     0
171
     0
290
     0
174
     0
 93
        1
 44
0.0
173
     0
291
     1
 45
0.0
1001
ACAD
1000
AcDbSavedByObjectVersion
1070
     0
  0
VISUALSTYLE
  5
38
102
{ACAD_REACTORS
330
2A
102
}
102
{ACAD_XDICTIONARY
360
445
102
}
330
2A
100
AcDbVisualStyle
  2
Linepattern
 70
    14
 71
     2
 72
     2
 73
     0
 90
        0
 40
0.6
 41
30.0
 62
     5
 63
     7
421
 16777215
 74
     1
 91
        4
 64
     7
 65
   257
 75
     7
175
     7
 42
1.0
 92
        8
 66
     7
 43
1.0
 76
     1
 77
     6
 78
     2
 67
     7
 79
     5
170
     0
171
     0
290
     0
174
     0
 93
        1
 44
0.0
173
     0
291
     1
 45
0.0
1001
ACAD
1000
AcDbSavedByObjectVersion
1070
     0
  0
VISUALSTYLE
  5
3C
102
{ACAD_REACTORS
330
2A
102
}
102
{ACAD_XDICTIONARY
360
44D
102
}
330
2A
100
AcDbVisualStyle
  2
OverhangOff
 70
    21
 71
     2
 72
     2
 73
     0
 90
        0
 40
0.6
 41
30.0
 62
     5
 63
     7
421
 16777215
 74
     1
 91
        4
 64
     7
 65
   257
 75
     1
175
     1
 42
1.0
 92
        9
 66
     7
 43
1.0
 76
     1
 77
     6
 78
     2
 67
     7
 79
     5
170
     0
171
     0
290
     0
174
     0
 93
        1
 44
0.0
173
     0
291
     1
 45
0.0
1001
ACAD
1000
AcDbSavedByObjectVersion
1070
     0
  0
VISUALSTYLE
  5
33
102
{ACAD_REACTORS
330
2A
102
}
102
{ACAD_XDICTIONARY
360
43B
102
}
330
2A
100
AcDbVisualStyle
  2
Realistic
 70
     8
 71
     2
 72
     3
 73
     0
 90
        2
 40
0.6
 41
30.0
 62
     5
 63
     7
421
 16777215
 74
     0
 91
        0
 64
     7
 65
   257
 75
     1
175
     1
 42
1.0
 92
        8
 66
   257
 43
1.0
 76
     1
 77
     6
 78
     2
 67
     7
 79
     3
170
     0
171
     0
290
     0
174
     0
 93
       13
 44
0.0
173
     0
291
     0
 45
0.0
1001
ACAD
1000
AcDbSavedByObjectVersion
1070
     0
  0
VISUALSTYLE
  5
42
102
{ACAD_REACTORS
330
2A
102
}
102
{ACAD_XDICTIONARY
360
459
102
}
330
2A
100
AcDbVisualStyle
  2
Shaded
 70
    27
 71
     2
 72
     2
 73
     1
 90
        2
 40
0.6
 41
30.0
 62
     5
 63
     7
421
 16777215
 74
     0
 91
        4
 64
     7
 65
   257
 75
     1
175
     1
 42
1.0
 92
        8
 66
   257
 43
1.0
 76
     1
 77
     6
 78
     2
 67
     8
425
  7895160
 79
     3
170
     0
171
     0
290
     0
174
     0
 93
        5
 44
0.0
173
     0
291
     0
 45
0.0
1001
ACAD
1000
AcDbSavedByObjectVersion
1070
     0
  0
VISUALSTYLE
  5
41
102
{ACAD_REACTORS
330
2A
102
}
102
{ACAD_XDICTIONARY
360
457
102
}
330
2A
100
AcDbVisualStyle
  2
Shaded with edges
 70
    26
 71
     2
 72
     2
 73
     1
 90
        2
 40
0.6
 41
30.0
 62
     5
 63
     7
421
 16777215
 74
     1
 91
       10
 64
     7
 65
   257
 75
     2
175
     1
 42
1.0
 92
        8
 66
   257
 43
1.0
 76
     1
 77
     6
 78
     2
 67
     7
 79
     3
170
     0
171
     0
290
     0
174
     0
 93
        5
 44
0.0
173
     0
291
     0
 45
0.0
1001
ACAD
1000
AcDbSavedByObjectVersion
1070
     0
  0
VISUALSTYLE
  5
3E
102
{ACAD_REACTORS
330
2A
102
}
102
{ACAD_XDICTIONARY
360
451
102
}
330
2A
100
AcDbVisualStyle
  2
Shades of Gray
 70
    23
 71
     2
 72
     2
 73
     3
 90
        0
 40
0.6
 41
30.0
 62
     5
 63
     7
421
 16777215
 74
     2
 91
        2
 64
     7
 65
     7
 75
     1
175
     1
 42
40.0
 92
        8
 66
     7
 43
1.0
 76
     1
 77
     6
 78
     2
 67
     7
 79
     3
170
     0
171
     0
290
     0
174
     0
 93
        1
 44
0.0
173
     0
291
     0
 45
0.0
1001
ACAD
1000
AcDbSavedByObjectVersion
1070
     0
  0
VISUALSTYLE
  5
3F
102
{ACAD_REACTORS
330
2A
102
}
102
{ACAD_XDICTIONARY
360
453
102
}
330
2A
100
AcDbVisualStyle
  2
Sketchy
 70
    24
 71
     1
 72
     2
 73
     2
 90
        0
 40
0.6
 41
30.0
 62
     5
 63
     7
421
 16777215
 74
     2
 91
        2
 64
     7
 65
     7
 75
     1
175
     1
 42
40.0
 92
       11
 66
     7
 43
1.0
 76
     1
 77
     6
 78
     2
 67
     7
 79
     6
170
     0
171
     0
290
     0
174
     0
 93
        1
 44
0.0
173
     0
291
     0
 45
0.0
1001
ACAD
1000
AcDbSavedByObjectVersion
1070
     0
  0
VISUALSTYLE
  5
37
102
{ACAD_REACTORS
330
2A
102
}
102
{ACAD_XDICTIONARY
360
443
102
}
330
2A
100
AcDbVisualStyle
  2
Thicken
 70
    13
 71
     2
 72
     2
 73
     0
 90
        0
 40
0.6
 41
30.0
 62
     5
 63
     7
421
 16777215
 74
     1
 91
        4
 64
     7
 65
   257
 75
     1
175
     1
 42
1.0
 92
       12
 66
     7
 43
1.0
 76
     1
 77
     6
 78
     2
 67
     7
 79
     5
170
     0
171
     0
290
     0
174
     0
 93
        1
 44
0.0
173
     0
291
     1
 45
0.0
1001
ACAD
1000
AcDbSavedByObjectVersion
1070
     0
  0
VISUALSTYLE
  5
30
102
{ACAD_REACTORS
330
2A
102
}
102
{ACAD_XDICTIONARY
360
435
102
}
330
2A
100
AcDbVisualStyle
  2
Wireframe
 70
     5
 71
     0
 72
     2
 73
     0
 90
        0
 40
0.6
 41
30.0
 62
     5
 63
     7
421
 16777215
 74
     1
 91
        4
 64
     7
 65
   257
 75
     1
175
     1
 42
1.0
 92
        0
 66
   257
 43
1.0
 76
     1
 77
     6
 78
     2
 67
     7
 79
     3
170
     0
171
     0
290
     0
174
     0
 93
        1
 44
0.0
173
     0
291
     0
 45
0.0
1001
ACAD
1000
AcDbSavedByObjectVersion
1070
     0
  0
VISUALSTYLE
  5
40
102
{ACAD_REACTORS
330
2A
102
}
102
{ACAD_XDICTIONARY
360
455
102
}
330
2A
100
AcDbVisualStyle
  2
X-Ray
 70
    25
 71
     2
 72
     2
 73
     1
 90
        1
 40
0.5
 41
30.0
 62
     5
 63
     7
421
 16777215
 74
     1
 91
        0
 64
     7
 65
   257
 75
     1
175
     1
 42
1.0
 92
        8
 66
     7
 43
1.0
 76
     1
 77
     6
 78
     2
 67
     7
 79
     3
170
     0
171
     0
290
     0
174
     0
 93
       13
 44
0.0
173
     0
291
     0
 45
0.0
1001
ACAD
1000
AcDbSavedByObjectVersion
1070
     0
  0
DICTIONARYVAR
  5
428
102
{ACAD_REACTORS
330
427
102
}
330
427
100
DictionaryVariables
280
     0
  1
1:1
  0
DICTIONARYVAR
  5
46C
102
{ACAD_REACTORS
330
427
102
}
330
427
100
DictionaryVariables
280
     0
  1
3.500000
  0
DICTIONARYVAR
  5
46D
102
{ACAD_REACTORS
330
427
102
}
330
427
100
DictionaryVariables
280
     0
  1
acadiso.lin
  0
DICTIONARYVAR
  5
469
102
{ACAD_REACTORS
330
427
102
}
330
427
100
DictionaryVariables
280
     0
  1
Standard
  0
DICTIONARYVAR
  5
468
102
{ACAD_REACTORS
330
427
102
}
330
427
100
DictionaryVariables
280
     0
  1
Standard
  0
DICTIONARYVAR
  5
429
102
{ACAD_REACTORS
330
427
102
}
330
427
100
DictionaryVariables
280
     0
  1
1
  0
DICTIONARYVAR
  5
42A
102
{ACAD_REACTORS
330
427
102
}
330
427
100
DictionaryVariables
280
     0
  1
2
  0
DICTIONARY
  5
45D
330
45
100
AcDbDictionary
280
     1
281
     1
  3
ACAD_XREC_ROUNDTRIP
360
45E
  0
DICTIONARY
  5
45B
330
44
100
AcDbDictionary
280
     1
281
     1
  3
ACAD_XREC_ROUNDTRIP
360
45C
  0
DICTIONARY
  5
45F
330
46
100
AcDbDictionary
280
     1
281
     1
  3
ACAD_XREC_ROUNDTRIP
360
460
  0
DICTIONARY
  5
465
330
6C
100
AcDbDictionary
280
     1
281
     1
  3
ACAD_XREC_ROUNDTRIP
360
466
  0
DICTIONARY
  5
461
330
6A
100
AcDbDictionary
280
     1
281
     1
  3
ACAD_ROUNDTRIP_2008_TABLESTYLE_CELLSTYLEMAP
360
463
  3
ACAD_XREC_ROUNDTRIP
360
462
  0
DICTIONARY
  5
433
330
2F
100
AcDbDictionary
280
     1
281
     1
  3
ACAD_XREC_ROUNDTRIP
360
434
  0
DICTIONARY
  5
439
330
32
100
AcDbDictionary
280
     1
281
     1
  3
ACAD_XREC_ROUNDTRIP
360
43A
  0
DICTIONARY
  5
441
330
36
100
AcDbDictionary
280
     1
281
     1
  3
ACAD_XREC_ROUNDTRIP
360
442
  0
DICTIONARY
  5
449
330
3A
100
AcDbDictionary
280
     1
281
     1
  3
ACAD_XREC_ROUNDTRIP
360
44A
  0
DICTIONARY
  5
43D
330
34
100
AcDbDictionary
280
     1
281
     1
  3
ACAD_XREC_ROUNDTRIP
360
43E
  0
DICTIONARY
  5
43F
330
35
100
AcDbDictionary
280
     1
281
     1
  3
ACAD_XREC_ROUNDTRIP
360
440
  0
DICTIONARY
  5
44F
330
3D
100
AcDbDictionary
280
     1
281
     1
  3
ACAD_XREC_ROUNDTRIP
360
450
  0
DICTIONARY
  5
447
330
39
100
AcDbDictionary
280
     1
281
     1
  3
ACAD_XREC_ROUNDTRIP
360
448
  0
DICTIONARY
  5
42B
330
2B
100
AcDbDictionary
280
     1
281
     1
  3
ACAD_XREC_ROUNDTRIP
360
42C
  0
DICTIONARY
  5
42D
330
2C
100
AcDbDictionary
280
     1
281
     1
  3
ACAD_XREC_ROUNDTRIP
360
42E
  0
DICTIONARY
  5
42F
330
2D
100
AcDbDictionary
280
     1
281
     1
  3
ACAD_XREC_ROUNDTRIP
360
430
  0
DICTIONARY
  5
431
330
2E
100
AcDbDictionary
280
     1
281
     1
  3
ACAD_XREC_ROUNDTRIP
360
432
  0
DICTIONARY
  5
437
330
31
100
AcDbDictionary
280
     1
281
     1
  3
ACAD_XREC_ROUNDTRIP
360
438
  0
DICTIONARY
  5
44B
330
3B
100
AcDbDictionary
280
     1
281
     1
  3
ACAD_XREC_ROUNDTRIP
360
44C
  0
DICTIONARY
  5
445
330
38
100
AcDbDictionary
280
     1
281
     1
  3
ACAD_XREC_ROUNDTRIP
360
446
  0
DICTIONARY
  5
44D
330
3C
100
AcDbDictionary
280
     1
281
     1
  3
ACAD_XREC_ROUNDTRIP
360
44E
  0
DICTIONARY
  5
43B
330
33
100
AcDbDictionary
280
     1
281
     1
  3
ACAD_XREC_ROUNDTRIP
360
43C
  0
DICTIONARY
  5
459
330
42
100
AcDbDictionary
280
     1
281
     1
  3
ACAD_XREC_ROUNDTRIP
360
45A
  0
DICTIONARY
  5
457
330
41
100
AcDbDictionary
280
     1
281
     1
  3
ACAD_XREC_ROUNDTRIP
360
458
  0
DICTIONARY
  5
451
330
3E
100
AcDbDictionary
280
     1
281
     1
  3
ACAD_XREC_ROUNDTRIP
360
452
  0
DICTIONARY
  5
453
330
3F
100
AcDbDictionary
280
     1
281
     1
  3
ACAD_XREC_ROUNDTRIP
360
454
  0
DICTIONARY
  5
443
330
37
100
AcDbDictionary
280
     1
281
     1
  3
ACAD_XREC_ROUNDTRIP
360
444
  0
DICTIONARY
  5
435
330
30
100
AcDbDictionary
280
     1
281
     1
  3
ACAD_XREC_ROUNDTRIP
360
436
  0
DICTIONARY
  5
455
330
40
100
AcDbDictionary
280
     1
281
     1
  3
ACAD_XREC_ROUNDTRIP
360
456
  0
XRECORD
  5
45E
102
{ACAD_REACTORS
330
45D
102
}
330
45D
100
AcDbXrecord
280
     1
102
MATERIAL
148
0.0
149
0.0
149
0.0
 93
        0
 94
      127
282
     0
 72
     1
 77
     1
171
     1
175
     1
179
     1
273
     0
  0
XRECORD
  5
45C
102
{ACAD_REACTORS
330
45B
102
}
330
45B
100
AcDbXrecord
280
     1
102
MATERIAL
148
0.0
149
0.0
149
0.0
 93
        0
 94
      127
282
     0
 72
     1
 77
     1
171
     1
175
     1
179
     1
273
     0
  0
XRECORD
  5
460
102
{ACAD_REACTORS
330
45F
102
}
330
45F
100
AcDbXrecord
280
     1
102
MATERIAL
148
0.0
149
0.0
149
0.0
 93
        0
 94
      127
282
     0
 72
     1
 77
     1
171
     1
175
     1
179
     1
273
     0
  0
XRECORD
  5
466
102
{ACAD_REACTORS
330
465
102
}
330
465
100
AcDbXrecord
280
     1
102
ACAD_ROUNDTRIP_2010_MLEADER_STYLE
  0
CELLSTYLEMAP
  5
463
102
{ACAD_REACTORS
330
461
102
}
330
461
100
AcDbCellStyleMap
 90
        3
300
CELLSTYLE
  1
TABLEFORMAT_BEGIN
 90
        5
170
     1
 91
        0
 92
    32768
 62
   257
 93
        1
300
CONTENTFORMAT
  1
CONTENTFORMAT_BEGIN
 90
        0
 91
        0
 92
        4
 93
        0
300

 40
0.0
140
1.0
 94
        5
 62
     0
340
11
144
6.0
309
CONTENTFORMAT_END
171
     1
301
MARGIN
  1
CELLMARGIN_BEGIN
 40
1.5
 40
1.5
 40
1.5
 40
1.5
 40
1.5
 40
1.5
309
CELLMARGIN_END
 94
        6
 95
        1
302
GRIDFORMAT
  1
GRIDFORMAT_BEGIN
 90
        0
 91
        1
 62
     0
 92
       -2
340
14
 93
        0
 40
0.045
309
GRIDFORMAT_END
 95
        2
302
GRIDFORMAT
  1
GRIDFORMAT_BEGIN
 90
        0
 91
        1
 62
     0
 92
       -2
340
14
 93
        0
 40
0.045
309
GRIDFORMAT_END
 95
        4
302
GRIDFORMAT
  1
GRIDFORMAT_BEGIN
 90
        0
 91
        1
 62
     0
 92
       -2
340
14
 93
        0
 40
0.045
309
GRIDFORMAT_END
 95
        8
302
GRIDFORMAT
  1
GRIDFORMAT_BEGIN
 90
        0
 91
        1
 62
     0
 92
       -2
340
14
 93
        0
 40
0.045
309
GRIDFORMAT_END
 95
       16
302
GRIDFORMAT
  1
GRIDFORMAT_BEGIN
 90
        0
 91
        1
 62
     0
 92
       -2
340
14
 93
        0
 40
0.045
309
GRIDFORMAT_END
 95
       32
302
GRIDFORMAT
  1
GRIDFORMAT_BEGIN
 90
        0
 91
        1
 62
     0
 92
       -2
340
14
 93
        0
 40
0.045
309
GRIDFORMAT_END
309
TABLEFORMAT_END
  1
CELLSTYLE_BEGIN
 90
        1
 91
        1
300
_TITLE
309
CELLSTYLE_END
300
CELLSTYLE
  1
TABLEFORMAT_BEGIN
 90
        5
170
     1
 91
        0
 92
        0
 62
   257
 93
        1
300
CONTENTFORMAT
  1
CONTENTFORMAT_BEGIN
 90
        0
 91
        0
 92
        4
 93
        0
300

 40
0.0
140
1.0
 94
        5
 62
     0
340
11
144
4.5
309
CONTENTFORMAT_END
171
     1
301
MARGIN
  1
CELLMARGIN_BEGIN
 40
1.5
 40
1.5
 40
1.5
 40
1.5
 40
1.5
 40
1.5
309
CELLMARGIN_END
 94
        6
 95
        1
302
GRIDFORMAT
  1
GRIDFORMAT_BEGIN
 90
        0
 91
        1
 62
     0
 92
       -2
340
14
 93
        0
 40
0.045
309
GRIDFORMAT_END
 95
        2
302
GRIDFORMAT
  1
GRIDFORMAT_BEGIN
 90
        0
 91
        1
 62
     0
 92
       -2
340
14
 93
        0
 40
0.045
309
GRIDFORMAT_END
 95
        4
302
GRIDFORMAT
  1
GRIDFORMAT_BEGIN
 90
        0
 91
        1
 62
     0
 92
       -2
340
14
 93
        0
 40
0.045
309
GRIDFORMAT_END
 95
        8
302
GRIDFORMAT
  1
GRIDFORMAT_BEGIN
 90
        0
 91
        1
 62
     0
 92
       -2
340
14
 93
        0
 40
0.045
309
GRIDFORMAT_END
 95
       16
302
GRIDFORMAT
  1
GRIDFORMAT_BEGIN
 90
        0
 91
        1
 62
     0
 92
       -2
340
14
 93
        0
 40
0.045
309
GRIDFORMAT_END
 95
       32
302
GRIDFORMAT
  1
GRIDFORMAT_BEGIN
 90
        0
 91
        1
 62
     0
 92
       -2
340
14
 93
        0
 40
0.045
309
GRIDFORMAT_END
309
TABLEFORMAT_END
  1
CELLSTYLE_BEGIN
 90
        2
 91
        1
300
_HEADER
309
CELLSTYLE_END
300
CELLSTYLE
  1
TABLEFORMAT_BEGIN
 90
        5
170
     1
 91
        0
 92
        0
 62
   257
 93
        1
300
CONTENTFORMAT
  1
CONTENTFORMAT_BEGIN
 90
        0
 91
        0
 92
        4
 93
        0
300

 40
0.0
140
1.0
 94
        2
 62
     0
340
11
144
4.5
309
CONTENTFORMAT_END
171
     1
301
MARGIN
  1
CELLMARGIN_BEGIN
 40
1.5
 40
1.5
 40
1.5
 40
1.5
 40
1.5
 40
1.5
309
CELLMARGIN_END
 94
        6
 95
        1
302
GRIDFORMAT
  1
GRIDFORMAT_BEGIN
 90
        0
 91
        1
 62
     0
 92
       -2
340
14
 93
        0
 40
0.045
309
GRIDFORMAT_END
 95
        2
302
GRIDFORMAT
  1
GRIDFORMAT_BEGIN
 90
        0
 91
        1
 62
     0
 92
       -2
340
14
 93
        0
 40
0.045
309
GRIDFORMAT_END
 95
        4
302
GRIDFORMAT
  1
GRIDFORMAT_BEGIN
 90
        0
 91
        1
 62
     0
 92
       -2
340
14
 93
        0
 40
0.045
309
GRIDFORMAT_END
 95
        8
302
GRIDFORMAT
  1
GRIDFORMAT_BEGIN
 90
        0
 91
        1
 62
     0
 92
       -2
340
14
 93
        0
 40
0.045
309
GRIDFORMAT_END
 95
       16
302
GRIDFORMAT
  1
GRIDFORMAT_BEGIN
 90
        0
 91
        1
 62
     0
 92
       -2
340
14
 93
        0
 40
0.045
309
GRIDFORMAT_END
 95
       32
302
GRIDFORMAT
  1
GRIDFORMAT_BEGIN
 90
        0
 91
        1
 62
     0
 92
       -2
340
14
 93
        0
 40
0.045
309
GRIDFORMAT_END
309
TABLEFORMAT_END
  1
CELLSTYLE_BEGIN
 90
        3
 91
        2
300
_DATA
309
CELLSTYLE_END
  0
XRECORD
  5
462
102
{ACAD_REACTORS
330
461
102
}
330
461
100
AcDbXrecord
280
     1
102
ACAD_ROUNDTRIP_PRE2007_TABLESTYLE
 90
        4
 91
        0
  1

 92
        4
 93
        0
  2

 94
        4
 95
        0
  3

  0
XRECORD
  5
434
102
{ACAD_REACTORS
330
433
102
}
330
433
100
AcDbXrecord
280
     1
102
RTVSPropertyOp0
 70
     1
102
RTVSPropertyOp1
 70
     1
102
RTVSPropertyOp2
 70
     1
102
RTVSPropertyOp3
 70
     1
102
RTVSPropertyOp4
 70
     1
102
RTVSPropertyOp5
 70
     1
102
RTVSPropertyOp6
 70
     1
102
RTVSPropertyOp7
 70
     1
102
RTVSPropertyOp8
 70
     1
102
RTVSPropertyOp9
 70
     1
102
RTVSPropertyOp10
 70
     1
102
RTVSPropertyOp11
 70
     1
102
RTVSPropertyOp12
 70
     1
102
RTVSPropertyOp13
 70
     1
102
RTVSPropertyOp14
 70
     1
102
RTVSPropertyOp15
 70
     1
102
RTVSPropertyOp16
 70
     1
102
RTVSPropertyOp17
 70
     1
102
RTVSPropertyOp18
 70
     1
102
RTVSPropertyOp19
 70
     1
102
RTVSPropertyOp20
 70
     1
102
RTVSPropertyOp21
 70
     1
102
RTVSPropertyOp22
 70
     1
102
RTVSPropertyOp23
 70
     1
102
RTVSPropertyOp24
 70
     1
102
RTVSPropertyOp25
 70
     1
102
RTVSPropertyOp26
 70
     1
102
RTVSPropertyOp27
 70
     1
102
RTVSPropertyOp28
 70
     1
102
RTVSPropertyOp29
 70
     1
102
RTVSPropertyOp30
 70
     1
102
RTVSPropertyOp31
 70
     1
102
RTVSPropertyOp32
 70
     1
102
RTVSPropertyOp33
 70
     1
102
RTVSPropertyOp34
 70
     1
102
RTVSPropertyOp35
 70
     1
102
RTVSPropertyOp36
 70
     1
102
RTVSPropertyOp37
 70
     1
102
RTVSPropertyOp38
 70
     1
102
RTVSPropertyOp39
 70
     1
102
RTVSPropertyOp40
 70
     1
102
RTVSPropertyOp41
 70
     1
102
RTVSPropertyOp42
 70
     1
102
RTVSPropertyOp43
 70
     1
102
RTVSPropertyOp44
 70
     1
102
RTVSPropertyOp45
 70
     1
102
RTVSPropertyOp46
 70
     1
102
RTVSPropertyOp47
 70
     1
102
RTVSPropertyOp48
 70
     1
102
RTVSPropertyOp49
 70
     1
102
RTVSPropertyOp50
 70
     1
102
RTVSPropertyOp51
 70
     0
102
RTVSPropertyOp52
 70
     0
102
RTVSPropertyOp53
 70
     1
102
RTVSPropertyOp54
 70
     1
102
RTVSPropertyOp55
 70
     1
102
RTVSPropertyOp56
 70
     1
102
RTVSPropertyOp57
 70
     1
102
RTVSPost2010Prop28
280
     1
102
RTVSPost2010PropOp28
 70
     1
102
RTVSPost2010Prop29
280
     1
102
RTVSPost2010PropOp29
 70
     1
102
RTVSPost2010Prop30
280
     0
102
RTVSPost2010PropOp30
 70
     1
102
RTVSPost2010Prop31
280
     0
102
RTVSPost2010PropOp31
 70
     1
102
RTVSPost2010Prop32
280
     0
102
RTVSPost2010PropOp32
 70
     1
102
RTVSPost2010Prop33
280
     0
102
RTVSPost2010PropOp33
 70
     1
102
RTVSPost2010Prop34
280
     0
102
RTVSPost2010PropOp34
 70
     1
102
RTVSPost2010Prop35
280
     0
102
RTVSPost2010PropOp35
 70
     1
102
RTVSPost2010Prop36
280
     0
102
RTVSPost2010PropOp36
 70
     1
102
RTVSPost2010Prop37
 90
       50
102
RTVSPost2010PropOp37
 70
     1
102
RTVSPost2010Prop38
140
0.0
102
RTVSPost2010PropOp38
 70
     1
102
RTVSPost2010Prop39
140
1.0
102
RTVSPost2010PropOp39
 70
     1
102
RTVSPost2010Prop40
 90
        0
102
RTVSPost2010PropOp40
 70
     1
102
RTVSPost2010Prop41ColorIndex
 90
       18
102
RTVSPost2010Prop41ColorRGB
 90
        0
102
RTVSPost2010PropOp41
 70
     1
102
RTVSPost2010Prop42
 90
       50
102
RTVSPost2010PropOp42
 70
     1
102
RTVSPost2010Prop43
 90
        3
102
RTVSPost2010PropOp43
 70
     1
102
RTVSPost2010Prop44ColorIndex
 90
        5
102
RTVSPost2010Prop44ColorRGB
 90
      255
102
RTVSPost2010PropOp44
 70
     1
102
RTVSPost2010Prop45
280
     0
102
RTVSPost2010PropOp45
 70
     1
102
RTVSPost2010Prop46
 90
       50
102
RTVSPost2010PropOp46
 70
     1
102
RTVSPost2010Prop47
 90
       50
102
RTVSPost2010PropOp47
 70
     1
102
RTVSPost2010Prop48
 90
       50
102
RTVSPost2010PropOp48
 70
     1
102
RTVSPost2010Prop49
280
     0
102
RTVSPost2010PropOp49
 70
     1
102
RTVSPost2010Prop50
 90
       50
102
RTVSPost2010PropOp50
 70
     1
102
RTVSPost2010Prop51ColorIndex
 90
      256
102
RTVSPost2010Prop51ColorRGB
 90
-16777216
102
RTVSPost2010PropOp51
 70
     0
102
RTVSPost2010Prop52
140
1.0
102
RTVSPost2010PropOp52
 70
     0
102
RTVSPost2010Prop53
 90
        2
102
RTVSPost2010PropOp53
 70
     1
102
RTVSPost2010Prop54
  1
strokes_ogs.tif
102
RTVSPost2010PropOp54
 70
     1
102
RTVSPost2010Prop55
280
     0
102
RTVSPost2010PropOp55
 70
     1
102
RTVSPost2010Prop56
140
1.0
102
RTVSPost2010PropOp56
 70
     1
102
RTVSPost2010Prop57
140
1.0
102
RTVSPost2010PropOp57
 70
     1
  0
XRECORD
  5
43A
102
{ACAD_REACTORS
330
439
102
}
330
439
100
AcDbXrecord
280
     1
102
RTVSPropertyOp0
 70
     1
102
RTVSPropertyOp1
 70
     1
102
RTVSPropertyOp2
 70
     1
102
RTVSPropertyOp3
 70
     1
102
RTVSPropertyOp4
 70
     1
102
RTVSPropertyOp5
 70
     1
102
RTVSPropertyOp6
 70
     1
102
RTVSPropertyOp7
 70
     1
102
RTVSPropertyOp8
 70
     1
102
RTVSPropertyOp9
 70
     1
102
RTVSPropertyOp10
 70
     1
102
RTVSPropertyOp11
 70
     1
102
RTVSPropertyOp12
 70
     1
102
RTVSPropertyOp13
 70
     1
102
RTVSPropertyOp14
 70
     1
102
RTVSPropertyOp15
 70
     1
102
RTVSPropertyOp16
 70
     1
102
RTVSPropertyOp17
 70
     1
102
RTVSPropertyOp18
 70
     1
102
RTVSPropertyOp19
 70
     1
102
RTVSPropertyOp20
 70
     1
102
RTVSPropertyOp21
 70
     1
102
RTVSPropertyOp22
 70
     1
102
RTVSPropertyOp23
 70
     1
102
RTVSPropertyOp24
 70
     1
102
RTVSPropertyOp25
 70
     1
102
RTVSPropertyOp26
 70
     1
102
RTVSPropertyOp27
 70
     1
102
RTVSPropertyOp28
 70
     1
102
RTVSPropertyOp29
 70
     1
102
RTVSPropertyOp30
 70
     1
102
RTVSPropertyOp31
 70
     1
102
RTVSPropertyOp32
 70
     1
102
RTVSPropertyOp33
 70
     1
102
RTVSPropertyOp34
 70
     1
102
RTVSPropertyOp35
 70
     1
102
RTVSPropertyOp36
 70
     1
102
RTVSPropertyOp37
 70
     1
102
RTVSPropertyOp38
 70
     1
102
RTVSPropertyOp39
 70
     1
102
RTVSPropertyOp40
 70
     1
102
RTVSPropertyOp41
 70
     1
102
RTVSPropertyOp42
 70
     1
102
RTVSPropertyOp43
 70
     1
102
RTVSPropertyOp44
 70
     1
102
RTVSPropertyOp45
 70
     1
102
RTVSPropertyOp46
 70
     1
102
RTVSPropertyOp47
 70
     1
102
RTVSPropertyOp48
 70
     1
102
RTVSPropertyOp49
 70
     1
102
RTVSPropertyOp50
 70
     1
102
RTVSPropertyOp51
 70
     0
102
RTVSPropertyOp52
 70
     0
102
RTVSPropertyOp53
 70
     1
102
RTVSPropertyOp54
 70
     1
102
RTVSPropertyOp55
 70
     1
102
RTVSPropertyOp56
 70
     1
102
RTVSPropertyOp57
 70
     1
102
RTVSPost2010Prop28
280
     0
102
RTVSPost2010PropOp28
 70
     1
102
RTVSPost2010Prop29
280
     1
102
RTVSPost2010PropOp29
 70
     1
102
RTVSPost2010Prop30
280
     1
102
RTVSPost2010PropOp30
 70
     1
102
RTVSPost2010Prop31
280
     0
102
RTVSPost2010PropOp31
 70
     1
102
RTVSPost2010Prop32
280
     0
102
RTVSPost2010PropOp32
 70
     1
102
RTVSPost2010Prop33
280
     0
102
RTVSPost2010PropOp33
 70
     1
102
RTVSPost2010Prop34
280
     0
102
RTVSPost2010PropOp34
 70
     1
102
RTVSPost2010Prop35
280
     0
102
RTVSPost2010PropOp35
 70
     1
102
RTVSPost2010Prop36
280
     0
102
RTVSPost2010PropOp36
 70
     1
102
RTVSPost2010Prop37
 90
       50
102
RTVSPost2010PropOp37
 70
     1
102
RTVSPost2010Prop38
140
0.0
102
RTVSPost2010PropOp38
 70
     1
102
RTVSPost2010Prop39
140
1.0
102
RTVSPost2010PropOp39
 70
     1
102
RTVSPost2010Prop40
 90
        0
102
RTVSPost2010PropOp40
 70
     1
102
RTVSPost2010Prop41ColorIndex
 90
       18
102
RTVSPost2010Prop41ColorRGB
 90
        0
102
RTVSPost2010PropOp41
 70
     1
102
RTVSPost2010Prop42
 90
       50
102
RTVSPost2010PropOp42
 70
     1
102
RTVSPost2010Prop43
 90
        3
102
RTVSPost2010PropOp43
 70
     1
102
RTVSPost2010Prop44ColorIndex
 90
        5
102
RTVSPost2010Prop44ColorRGB
 90
      255
102
RTVSPost2010PropOp44
 70
     1
102
RTVSPost2010Prop45
280
     0
102
RTVSPost2010PropOp45
 70
     1
102
RTVSPost2010Prop46
 90
       50
102
RTVSPost2010PropOp46
 70
     1
102
RTVSPost2010Prop47
 90
       50
102
RTVSPost2010PropOp47
 70
     1
102
RTVSPost2010Prop48
 90
       50
102
RTVSPost2010PropOp48
 70
     1
102
RTVSPost2010Prop49
280
     0
102
RTVSPost2010PropOp49
 70
     1
102
RTVSPost2010Prop50
 90
       50
102
RTVSPost2010PropOp50
 70
     1
102
RTVSPost2010Prop51ColorIndex
 90
      256
102
RTVSPost2010Prop51ColorRGB
 90
-16777216
102
RTVSPost2010PropOp51
 70
     0
102
RTVSPost2010Prop52
140
1.0
102
RTVSPost2010PropOp52
 70
     0
102
RTVSPost2010Prop53
 90
        2
102
RTVSPost2010PropOp53
 70
     1
102
RTVSPost2010Prop54
  1
strokes_ogs.tif
102
RTVSPost2010PropOp54
 70
     1
102
RTVSPost2010Prop55
280
     0
102
RTVSPost2010PropOp55
 70
     1
102
RTVSPost2010Prop56
140
1.0
102
RTVSPost2010PropOp56
 70
     1
102
RTVSPost2010Prop57
140
1.0
102
RTVSPost2010PropOp57
 70
     1
  0
XRECORD
  5
442
102
{ACAD_REACTORS
330
441
102
}
330
441
100
AcDbXrecord
280
     1
102
RTVSPropertyOp0
 70
     1
102
RTVSPropertyOp1
 70
     1
102
RTVSPropertyOp2
 70
     1
102
RTVSPropertyOp3
 70
     1
102
RTVSPropertyOp4
 70
     1
102
RTVSPropertyOp5
 70
     1
102
RTVSPropertyOp6
 70
     1
102
RTVSPropertyOp7
 70
     1
102
RTVSPropertyOp8
 70
     1
102
RTVSPropertyOp9
 70
     1
102
RTVSPropertyOp10
 70
     1
102
RTVSPropertyOp11
 70
     1
102
RTVSPropertyOp12
 70
     1
102
RTVSPropertyOp13
 70
     1
102
RTVSPropertyOp14
 70
     1
102
RTVSPropertyOp15
 70
     1
102
RTVSPropertyOp16
 70
     1
102
RTVSPropertyOp17
 70
     1
102
RTVSPropertyOp18
 70
     1
102
RTVSPropertyOp19
 70
     1
102
RTVSPropertyOp20
 70
     1
102
RTVSPropertyOp21
 70
     1
102
RTVSPropertyOp22
 70
     1
102
RTVSPropertyOp23
 70
     1
102
RTVSPropertyOp24
 70
     1
102
RTVSPropertyOp25
 70
     1
102
RTVSPropertyOp26
 70
     1
102
RTVSPropertyOp27
 70
     1
102
RTVSPropertyOp28
 70
     1
102
RTVSPropertyOp29
 70
     1
102
RTVSPropertyOp30
 70
     1
102
RTVSPropertyOp31
 70
     1
102
RTVSPropertyOp32
 70
     1
102
RTVSPropertyOp33
 70
     1
102
RTVSPropertyOp34
 70
     1
102
RTVSPropertyOp35
 70
     1
102
RTVSPropertyOp36
 70
     1
102
RTVSPropertyOp37
 70
     1
102
RTVSPropertyOp38
 70
     1
102
RTVSPropertyOp39
 70
     1
102
RTVSPropertyOp40
 70
     1
102
RTVSPropertyOp41
 70
     1
102
RTVSPropertyOp42
 70
     1
102
RTVSPropertyOp43
 70
     1
102
RTVSPropertyOp44
 70
     1
102
RTVSPropertyOp45
 70
     1
102
RTVSPropertyOp46
 70
     1
102
RTVSPropertyOp47
 70
     1
102
RTVSPropertyOp48
 70
     1
102
RTVSPropertyOp49
 70
     1
102
RTVSPropertyOp50
 70
     1
102
RTVSPropertyOp51
 70
     0
102
RTVSPropertyOp52
 70
     0
102
RTVSPropertyOp53
 70
     1
102
RTVSPropertyOp54
 70
     1
102
RTVSPropertyOp55
 70
     1
102
RTVSPropertyOp56
 70
     1
102
RTVSPropertyOp57
 70
     1
102
RTVSPost2010Prop28
280
     0
102
RTVSPost2010PropOp28
 70
     1
102
RTVSPost2010Prop29
280
     1
102
RTVSPost2010PropOp29
 70
     1
102
RTVSPost2010Prop30
280
     1
102
RTVSPost2010PropOp30
 70
     1
102
RTVSPost2010Prop31
280
     0
102
RTVSPost2010PropOp31
 70
     1
102
RTVSPost2010Prop32
280
     0
102
RTVSPost2010PropOp32
 70
     1
102
RTVSPost2010Prop33
280
     0
102
RTVSPost2010PropOp33
 70
     1
102
RTVSPost2010Prop34
280
     0
102
RTVSPost2010PropOp34
 70
     1
102
RTVSPost2010Prop35
280
     0
102
RTVSPost2010PropOp35
 70
     1
102
RTVSPost2010Prop36
280
     0
102
RTVSPost2010PropOp36
 70
     1
102
RTVSPost2010Prop37
 90
       50
102
RTVSPost2010PropOp37
 70
     1
102
RTVSPost2010Prop38
140
0.0
102
RTVSPost2010PropOp38
 70
     1
102
RTVSPost2010Prop39
140
1.0
102
RTVSPost2010PropOp39
 70
     1
102
RTVSPost2010Prop40
 90
        0
102
RTVSPost2010PropOp40
 70
     1
102
RTVSPost2010Prop41ColorIndex
 90
       18
102
RTVSPost2010Prop41ColorRGB
 90
        0
102
RTVSPost2010PropOp41
 70
     1
102
RTVSPost2010Prop42
 90
       50
102
RTVSPost2010PropOp42
 70
     1
102
RTVSPost2010Prop43
 90
        3
102
RTVSPost2010PropOp43
 70
     1
102
RTVSPost2010Prop44ColorIndex
 90
        5
102
RTVSPost2010Prop44ColorRGB
 90
      255
102
RTVSPost2010PropOp44
 70
     1
102
RTVSPost2010Prop45
280
     0
102
RTVSPost2010PropOp45
 70
     1
102
RTVSPost2010Prop46
 90
       50
102
RTVSPost2010PropOp46
 70
     1
102
RTVSPost2010Prop47
 90
       50
102
RTVSPost2010PropOp47
 70
     1
102
RTVSPost2010Prop48
 90
       50
102
RTVSPost2010PropOp48
 70
     1
102
RTVSPost2010Prop49
280
     0
102
RTVSPost2010PropOp49
 70
     1
102
RTVSPost2010Prop50
 90
       50
102
RTVSPost2010PropOp50
 70
     1
102
RTVSPost2010Prop51ColorIndex
 90
      256
102
RTVSPost2010Prop51ColorRGB
 90
-16777216
102
RTVSPost2010PropOp51
 70
     0
102
RTVSPost2010Prop52
140
1.0
102
RTVSPost2010PropOp52
 70
     0
102
RTVSPost2010Prop53
 90
        2
102
RTVSPost2010PropOp53
 70
     1
102
RTVSPost2010Prop54
  1
strokes_ogs.tif
102
RTVSPost2010PropOp54
 70
     1
102
RTVSPost2010Prop55
280
     0
102
RTVSPost2010PropOp55
 70
     1
102
RTVSPost2010Prop56
140
1.0
102
RTVSPost2010PropOp56
 70
     1
102
RTVSPost2010Prop57
140
1.0
102
RTVSPost2010PropOp57
 70
     1
  0
XRECORD
  5
44A
102
{ACAD_REACTORS
330
449
102
}
330
449
100
AcDbXrecord
280
     1
102
RTVSPropertyOp0
 70
     1
102
RTVSPropertyOp1
 70
     1
102
RTVSPropertyOp2
 70
     1
102
RTVSPropertyOp3
 70
     1
102
RTVSPropertyOp4
 70
     1
102
RTVSPropertyOp5
 70
     1
102
RTVSPropertyOp6
 70
     1
102
RTVSPropertyOp7
 70
     1
102
RTVSPropertyOp8
 70
     1
102
RTVSPropertyOp9
 70
     1
102
RTVSPropertyOp10
 70
     1
102
RTVSPropertyOp11
 70
     1
102
RTVSPropertyOp12
 70
     1
102
RTVSPropertyOp13
 70
     1
102
RTVSPropertyOp14
 70
     1
102
RTVSPropertyOp15
 70
     1
102
RTVSPropertyOp16
 70
     1
102
RTVSPropertyOp17
 70
     1
102
RTVSPropertyOp18
 70
     1
102
RTVSPropertyOp19
 70
     1
102
RTVSPropertyOp20
 70
     1
102
RTVSPropertyOp21
 70
     1
102
RTVSPropertyOp22
 70
     1
102
RTVSPropertyOp23
 70
     1
102
RTVSPropertyOp24
 70
     1
102
RTVSPropertyOp25
 70
     1
102
RTVSPropertyOp26
 70
     1
102
RTVSPropertyOp27
 70
     1
102
RTVSPropertyOp28
 70
     1
102
RTVSPropertyOp29
 70
     1
102
RTVSPropertyOp30
 70
     1
102
RTVSPropertyOp31
 70
     1
102
RTVSPropertyOp32
 70
     1
102
RTVSPropertyOp33
 70
     1
102
RTVSPropertyOp34
 70
     1
102
RTVSPropertyOp35
 70
     1
102
RTVSPropertyOp36
 70
     1
102
RTVSPropertyOp37
 70
     1
102
RTVSPropertyOp38
 70
     1
102
RTVSPropertyOp39
 70
     1
102
RTVSPropertyOp40
 70
     1
102
RTVSPropertyOp41
 70
     1
102
RTVSPropertyOp42
 70
     1
102
RTVSPropertyOp43
 70
     1
102
RTVSPropertyOp44
 70
     1
102
RTVSPropertyOp45
 70
     1
102
RTVSPropertyOp46
 70
     1
102
RTVSPropertyOp47
 70
     1
102
RTVSPropertyOp48
 70
     1
102
RTVSPropertyOp49
 70
     1
102
RTVSPropertyOp50
 70
     1
102
RTVSPropertyOp51
 70
     0
102
RTVSPropertyOp52
 70
     0
102
RTVSPropertyOp53
 70
     1
102
RTVSPropertyOp54
 70
     1
102
RTVSPropertyOp55
 70
     1
102
RTVSPropertyOp56
 70
     1
102
RTVSPropertyOp57
 70
     1
102
RTVSPost2010Prop28
280
     0
102
RTVSPost2010PropOp28
 70
     1
102
RTVSPost2010Prop29
280
     1
102
RTVSPost2010PropOp29
 70
     1
102
RTVSPost2010Prop30
280
     1
102
RTVSPost2010PropOp30
 70
     1
102
RTVSPost2010Prop31
280
     0
102
RTVSPost2010PropOp31
 70
     1
102
RTVSPost2010Prop32
280
     0
102
RTVSPost2010PropOp32
 70
     1
102
RTVSPost2010Prop33
280
     0
102
RTVSPost2010PropOp33
 70
     1
102
RTVSPost2010Prop34
280
     0
102
RTVSPost2010PropOp34
 70
     1
102
RTVSPost2010Prop35
280
     0
102
RTVSPost2010PropOp35
 70
     1
102
RTVSPost2010Prop36
280
     0
102
RTVSPost2010PropOp36
 70
     1
102
RTVSPost2010Prop37
 90
       50
102
RTVSPost2010PropOp37
 70
     1
102
RTVSPost2010Prop38
140
0.0
102
RTVSPost2010PropOp38
 70
     1
102
RTVSPost2010Prop39
140
1.0
102
RTVSPost2010PropOp39
 70
     1
102
RTVSPost2010Prop40
 90
        0
102
RTVSPost2010PropOp40
 70
     1
102
RTVSPost2010Prop41ColorIndex
 90
       18
102
RTVSPost2010Prop41ColorRGB
 90
        0
102
RTVSPost2010PropOp41
 70
     1
102
RTVSPost2010Prop42
 90
       50
102
RTVSPost2010PropOp42
 70
     1
102
RTVSPost2010Prop43
 90
        3
102
RTVSPost2010PropOp43
 70
     1
102
RTVSPost2010Prop44ColorIndex
 90
        5
102
RTVSPost2010Prop44ColorRGB
 90
      255
102
RTVSPost2010PropOp44
 70
     1
102
RTVSPost2010Prop45
280
     0
102
RTVSPost2010PropOp45
 70
     1
102
RTVSPost2010Prop46
 90
       50
102
RTVSPost2010PropOp46
 70
     1
102
RTVSPost2010Prop47
 90
       50
102
RTVSPost2010PropOp47
 70
     1
102
RTVSPost2010Prop48
 90
       50
102
RTVSPost2010PropOp48
 70
     1
102
RTVSPost2010Prop49
280
     0
102
RTVSPost2010PropOp49
 70
     1
102
RTVSPost2010Prop50
 90
       50
102
RTVSPost2010PropOp50
 70
     1
102
RTVSPost2010Prop51ColorIndex
 90
      256
102
RTVSPost2010Prop51ColorRGB
 90
-16777216
102
RTVSPost2010PropOp51
 70
     0
102
RTVSPost2010Prop52
140
1.0
102
RTVSPost2010PropOp52
 70
     0
102
RTVSPost2010Prop53
 90
        2
102
RTVSPost2010PropOp53
 70
     1
102
RTVSPost2010Prop54
  1
strokes_ogs.tif
102
RTVSPost2010PropOp54
 70
     1
102
RTVSPost2010Prop55
280
     0
102
RTVSPost2010PropOp55
 70
     1
102
RTVSPost2010Prop56
140
1.0
102
RTVSPost2010PropOp56
 70
     1
102
RTVSPost2010Prop57
140
1.0
102
RTVSPost2010PropOp57
 70
     1
  0
XRECORD
  5
43E
102
{ACAD_REACTORS
330
43D
102
}
330
43D
100
AcDbXrecord
280
     1
102
RTVSPropertyOp0
 70
     1
102
RTVSPropertyOp1
 70
     1
102
RTVSPropertyOp2
 70
     1
102
RTVSPropertyOp3
 70
     1
102
RTVSPropertyOp4
 70
     1
102
RTVSPropertyOp5
 70
     1
102
RTVSPropertyOp6
 70
     1
102
RTVSPropertyOp7
 70
     1
102
RTVSPropertyOp8
 70
     1
102
RTVSPropertyOp9
 70
     1
102
RTVSPropertyOp10
 70
     1
102
RTVSPropertyOp11
 70
     1
102
RTVSPropertyOp12
 70
     1
102
RTVSPropertyOp13
 70
     1
102
RTVSPropertyOp14
 70
     1
102
RTVSPropertyOp15
 70
     1
102
RTVSPropertyOp16
 70
     1
102
RTVSPropertyOp17
 70
     1
102
RTVSPropertyOp18
 70
     1
102
RTVSPropertyOp19
 70
     1
102
RTVSPropertyOp20
 70
     1
102
RTVSPropertyOp21
 70
     1
102
RTVSPropertyOp22
 70
     1
102
RTVSPropertyOp23
 70
     1
102
RTVSPropertyOp24
 70
     1
102
RTVSPropertyOp25
 70
     1
102
RTVSPropertyOp26
 70
     1
102
RTVSPropertyOp27
 70
     1
102
RTVSPropertyOp28
 70
     1
102
RTVSPropertyOp29
 70
     1
102
RTVSPropertyOp30
 70
     1
102
RTVSPropertyOp31
 70
     1
102
RTVSPropertyOp32
 70
     1
102
RTVSPropertyOp33
 70
     1
102
RTVSPropertyOp34
 70
     1
102
RTVSPropertyOp35
 70
     1
102
RTVSPropertyOp36
 70
     1
102
RTVSPropertyOp37
 70
     1
102
RTVSPropertyOp38
 70
     1
102
RTVSPropertyOp39
 70
     1
102
RTVSPropertyOp40
 70
     1
102
RTVSPropertyOp41
 70
     1
102
RTVSPropertyOp42
 70
     1
102
RTVSPropertyOp43
 70
     1
102
RTVSPropertyOp44
 70
     1
102
RTVSPropertyOp45
 70
     1
102
RTVSPropertyOp46
 70
     1
102
RTVSPropertyOp47
 70
     1
102
RTVSPropertyOp48
 70
     1
102
RTVSPropertyOp49
 70
     1
102
RTVSPropertyOp50
 70
     1
102
RTVSPropertyOp51
 70
     0
102
RTVSPropertyOp52
 70
     0
102
RTVSPropertyOp53
 70
     1
102
RTVSPropertyOp54
 70
     1
102
RTVSPropertyOp55
 70
     1
102
RTVSPropertyOp56
 70
     1
102
RTVSPropertyOp57
 70
     1
102
RTVSPost2010Prop28
280
     0
102
RTVSPost2010PropOp28
 70
     1
102
RTVSPost2010Prop29
280
     1
102
RTVSPost2010PropOp29
 70
     1
102
RTVSPost2010Prop30
280
     1
102
RTVSPost2010PropOp30
 70
     1
102
RTVSPost2010Prop31
280
     0
102
RTVSPost2010PropOp31
 70
     1
102
RTVSPost2010Prop32
280
     0
102
RTVSPost2010PropOp32
 70
     1
102
RTVSPost2010Prop33
280
     0
102
RTVSPost2010PropOp33
 70
     1
102
RTVSPost2010Prop34
280
     0
102
RTVSPost2010PropOp34
 70
     1
102
RTVSPost2010Prop35
280
     0
102
RTVSPost2010PropOp35
 70
     1
102
RTVSPost2010Prop36
280
     0
102
RTVSPost2010PropOp36
 70
     1
102
RTVSPost2010Prop37
 90
       50
102
RTVSPost2010PropOp37
 70
     1
102
RTVSPost2010Prop38
140
0.0
102
RTVSPost2010PropOp38
 70
     1
102
RTVSPost2010Prop39
140
1.0
102
RTVSPost2010PropOp39
 70
     1
102
RTVSPost2010Prop40
 90
        0
102
RTVSPost2010PropOp40
 70
     1
102
RTVSPost2010Prop41ColorIndex
 90
       18
102
RTVSPost2010Prop41ColorRGB
 90
        0
102
RTVSPost2010PropOp41
 70
     1
102
RTVSPost2010Prop42
 90
       50
102
RTVSPost2010PropOp42
 70
     1
102
RTVSPost2010Prop43
 90
        3
102
RTVSPost2010PropOp43
 70
     1
102
RTVSPost2010Prop44ColorIndex
 90
        5
102
RTVSPost2010Prop44ColorRGB
 90
      255
102
RTVSPost2010PropOp44
 70
     1
102
RTVSPost2010Prop45
280
     0
102
RTVSPost2010PropOp45
 70
     1
102
RTVSPost2010Prop46
 90
       50
102
RTVSPost2010PropOp46
 70
     1
102
RTVSPost2010Prop47
 90
       50
102
RTVSPost2010PropOp47
 70
     1
102
RTVSPost2010Prop48
 90
       50
102
RTVSPost2010PropOp48
 70
     1
102
RTVSPost2010Prop49
280
     0
102
RTVSPost2010PropOp49
 70
     1
102
RTVSPost2010Prop50
 90
       50
102
RTVSPost2010PropOp50
 70
     1
102
RTVSPost2010Prop51ColorIndex
 90
      256
102
RTVSPost2010Prop51ColorRGB
 90
-16777216
102
RTVSPost2010PropOp51
 70
     0
102
RTVSPost2010Prop52
140
1.0
102
RTVSPost2010PropOp52
 70
     0
102
RTVSPost2010Prop53
 90
        2
102
RTVSPost2010PropOp53
 70
     1
102
RTVSPost2010Prop54
  1
strokes_ogs.tif
102
RTVSPost2010PropOp54
 70
     1
102
RTVSPost2010Prop55
280
     0
102
RTVSPost2010PropOp55
 70
     1
102
RTVSPost2010Prop56
140
1.0
102
RTVSPost2010PropOp56
 70
     1
102
RTVSPost2010Prop57
140
1.0
102
RTVSPost2010PropOp57
 70
     1
  0
XRECORD
  5
440
102
{ACAD_REACTORS
330
43F
102
}
330
43F
100
AcDbXrecord
280
     1
102
RTVSPropertyOp0
 70
     1
102
RTVSPropertyOp1
 70
     1
102
RTVSPropertyOp2
 70
     1
102
RTVSPropertyOp3
 70
     1
102
RTVSPropertyOp4
 70
     1
102
RTVSPropertyOp5
 70
     1
102
RTVSPropertyOp6
 70
     1
102
RTVSPropertyOp7
 70
     1
102
RTVSPropertyOp8
 70
     1
102
RTVSPropertyOp9
 70
     1
102
RTVSPropertyOp10
 70
     1
102
RTVSPropertyOp11
 70
     1
102
RTVSPropertyOp12
 70
     1
102
RTVSPropertyOp13
 70
     1
102
RTVSPropertyOp14
 70
     1
102
RTVSPropertyOp15
 70
     1
102
RTVSPropertyOp16
 70
     1
102
RTVSPropertyOp17
 70
     1
102
RTVSPropertyOp18
 70
     1
102
RTVSPropertyOp19
 70
     1
102
RTVSPropertyOp20
 70
     1
102
RTVSPropertyOp21
 70
     1
102
RTVSPropertyOp22
 70
     1
102
RTVSPropertyOp23
 70
     1
102
RTVSPropertyOp24
 70
     1
102
RTVSPropertyOp25
 70
     1
102
RTVSPropertyOp26
 70
     1
102
RTVSPropertyOp27
 70
     1
102
RTVSPropertyOp28
 70
     1
102
RTVSPropertyOp29
 70
     1
102
RTVSPropertyOp30
 70
     1
102
RTVSPropertyOp31
 70
     1
102
RTVSPropertyOp32
 70
     1
102
RTVSPropertyOp33
 70
     1
102
RTVSPropertyOp34
 70
     1
102
RTVSPropertyOp35
 70
     1
102
RTVSPropertyOp36
 70
     1
102
RTVSPropertyOp37
 70
     1
102
RTVSPropertyOp38
 70
     1
102
RTVSPropertyOp39
 70
     1
102
RTVSPropertyOp40
 70
     1
102
RTVSPropertyOp41
 70
     1
102
RTVSPropertyOp42
 70
     1
102
RTVSPropertyOp43
 70
     1
102
RTVSPropertyOp44
 70
     1
102
RTVSPropertyOp45
 70
     1
102
RTVSPropertyOp46
 70
     1
102
RTVSPropertyOp47
 70
     1
102
RTVSPropertyOp48
 70
     1
102
RTVSPropertyOp49
 70
     1
102
RTVSPropertyOp50
 70
     1
102
RTVSPropertyOp51
 70
     0
102
RTVSPropertyOp52
 70
     0
102
RTVSPropertyOp53
 70
     1
102
RTVSPropertyOp54
 70
     1
102
RTVSPropertyOp55
 70
     1
102
RTVSPropertyOp56
 70
     1
102
RTVSPropertyOp57
 70
     1
102
RTVSPost2010Prop28
280
     0
102
RTVSPost2010PropOp28
 70
     1
102
RTVSPost2010Prop29
280
     1
102
RTVSPost2010PropOp29
 70
     1
102
RTVSPost2010Prop30
280
     1
102
RTVSPost2010PropOp30
 70
     1
102
RTVSPost2010Prop31
280
     0
102
RTVSPost2010PropOp31
 70
     1
102
RTVSPost2010Prop32
280
     0
102
RTVSPost2010PropOp32
 70
     1
102
RTVSPost2010Prop33
280
     0
102
RTVSPost2010PropOp33
 70
     1
102
RTVSPost2010Prop34
280
     0
102
RTVSPost2010PropOp34
 70
     1
102
RTVSPost2010Prop35
280
     0
102
RTVSPost2010PropOp35
 70
     1
102
RTVSPost2010Prop36
280
     0
102
RTVSPost2010PropOp36
 70
     1
102
RTVSPost2010Prop37
 90
       50
102
RTVSPost2010PropOp37
 70
     1
102
RTVSPost2010Prop38
140
0.0
102
RTVSPost2010PropOp38
 70
     1
102
RTVSPost2010Prop39
140
1.0
102
RTVSPost2010PropOp39
 70
     1
102
RTVSPost2010Prop40
 90
        0
102
RTVSPost2010PropOp40
 70
     1
102
RTVSPost2010Prop41ColorIndex
 90
       18
102
RTVSPost2010Prop41ColorRGB
 90
        0
102
RTVSPost2010PropOp41
 70
     1
102
RTVSPost2010Prop42
 90
       50
102
RTVSPost2010PropOp42
 70
     1
102
RTVSPost2010Prop43
 90
        3
102
RTVSPost2010PropOp43
 70
     1
102
RTVSPost2010Prop44ColorIndex
 90
        5
102
RTVSPost2010Prop44ColorRGB
 90
      255
102
RTVSPost2010PropOp44
 70
     1
102
RTVSPost2010Prop45
280
     0
102
RTVSPost2010PropOp45
 70
     1
102
RTVSPost2010Prop46
 90
       50
102
RTVSPost2010PropOp46
 70
     1
102
RTVSPost2010Prop47
 90
       50
102
RTVSPost2010PropOp47
 70
     1
102
RTVSPost2010Prop48
 90
       50
102
RTVSPost2010PropOp48
 70
     1
102
RTVSPost2010Prop49
280
     0
102
RTVSPost2010PropOp49
 70
     1
102
RTVSPost2010Prop50
 90
       50
102
RTVSPost2010PropOp50
 70
     1
102
RTVSPost2010Prop51ColorIndex
 90
      256
102
RTVSPost2010Prop51ColorRGB
 90
-16777216
102
RTVSPost2010PropOp51
 70
     0
102
RTVSPost2010Prop52
140
1.0
102
RTVSPost2010PropOp52
 70
     0
102
RTVSPost2010Prop53
 90
        2
102
RTVSPost2010PropOp53
 70
     1
102
RTVSPost2010Prop54
  1
strokes_ogs.tif
102
RTVSPost2010PropOp54
 70
     1
102
RTVSPost2010Prop55
280
     0
102
RTVSPost2010PropOp55
 70
     1
102
RTVSPost2010Prop56
140
1.0
102
RTVSPost2010PropOp56
 70
     1
102
RTVSPost2010Prop57
140
1.0
102
RTVSPost2010PropOp57
 70
     1
  0
XRECORD
  5
450
102
{ACAD_REACTORS
330
44F
102
}
330
44F
100
AcDbXrecord
280
     1
102
RTVSPropertyOp0
 70
     0
102
RTVSPropertyOp1
 70
     0
102
RTVSPropertyOp2
 70
     0
102
RTVSPropertyOp3
 70
     0
102
RTVSPropertyOp4
 70
     0
102
RTVSPropertyOp5
 70
     0
102
RTVSPropertyOp6
 70
     0
102
RTVSPropertyOp7
 70
     0
102
RTVSPropertyOp8
 70
     0
102
RTVSPropertyOp9
 70
     0
102
RTVSPropertyOp10
 70
     0
102
RTVSPropertyOp11
 70
     0
102
RTVSPropertyOp12
 70
     0
102
RTVSPropertyOp13
 70
     0
102
RTVSPropertyOp14
 70
     2
102
RTVSPropertyOp15
 70
     0
102
RTVSPropertyOp16
 70
     0
102
RTVSPropertyOp17
 70
     0
102
RTVSPropertyOp18
 70
     0
102
RTVSPropertyOp19
 70
     0
102
RTVSPropertyOp20
 70
     0
102
RTVSPropertyOp21
 70
     0
102
RTVSPropertyOp22
 70
     0
102
RTVSPropertyOp23
 70
     0
102
RTVSPropertyOp24
 70
     0
102
RTVSPropertyOp25
 70
     0
102
RTVSPropertyOp26
 70
     0
102
RTVSPropertyOp27
 70
     0
102
RTVSPropertyOp28
 70
     0
102
RTVSPropertyOp29
 70
     0
102
RTVSPropertyOp30
 70
     0
102
RTVSPropertyOp31
 70
     0
102
RTVSPropertyOp32
 70
     0
102
RTVSPropertyOp33
 70
     0
102
RTVSPropertyOp34
 70
     0
102
RTVSPropertyOp35
 70
     0
102
RTVSPropertyOp36
 70
     0
102
RTVSPropertyOp37
 70
     0
102
RTVSPropertyOp38
 70
     0
102
RTVSPropertyOp39
 70
     0
102
RTVSPropertyOp40
 70
     0
102
RTVSPropertyOp41
 70
     0
102
RTVSPropertyOp42
 70
     0
102
RTVSPropertyOp43
 70
     0
102
RTVSPropertyOp44
 70
     0
102
RTVSPropertyOp45
 70
     0
102
RTVSPropertyOp46
 70
     0
102
RTVSPropertyOp47
 70
     0
102
RTVSPropertyOp48
 70
     0
102
RTVSPropertyOp49
 70
     0
102
RTVSPropertyOp50
 70
     0
102
RTVSPropertyOp51
 70
     0
102
RTVSPropertyOp52
 70
     0
102
RTVSPropertyOp53
 70
     0
102
RTVSPropertyOp54
 70
     0
102
RTVSPropertyOp55
 70
     0
102
RTVSPropertyOp56
 70
     0
102
RTVSPropertyOp57
 70
     0
102
RTVSPost2010Prop28
280
     0
102
RTVSPost2010PropOp28
 70
     0
102
RTVSPost2010Prop29
280
     1
102
RTVSPost2010PropOp29
 70
     0
102
RTVSPost2010Prop30
280
     1
102
RTVSPost2010PropOp30
 70
     0
102
RTVSPost2010Prop31
280
     0
102
RTVSPost2010PropOp31
 70
     0
102
RTVSPost2010Prop32
280
     0
102
RTVSPost2010PropOp32
 70
     0
102
RTVSPost2010Prop33
280
     0
102
RTVSPost2010PropOp33
 70
     0
102
RTVSPost2010Prop34
280
     0
102
RTVSPost2010PropOp34
 70
     0
102
RTVSPost2010Prop35
280
     0
102
RTVSPost2010PropOp35
 70
     0
102
RTVSPost2010Prop36
280
     0
102
RTVSPost2010PropOp36
 70
     0
102
RTVSPost2010Prop37
 90
       50
102
RTVSPost2010PropOp37
 70
     0
102
RTVSPost2010Prop38
140
0.0
102
RTVSPost2010PropOp38
 70
     0
102
RTVSPost2010Prop39
140
1.0
102
RTVSPost2010PropOp39
 70
     0
102
RTVSPost2010Prop40
 90
        0
102
RTVSPost2010PropOp40
 70
     0
102
RTVSPost2010Prop41ColorIndex
 90
       18
102
RTVSPost2010Prop41ColorRGB
 90
        0
102
RTVSPost2010PropOp41
 70
     0
102
RTVSPost2010Prop42
 90
       50
102
RTVSPost2010PropOp42
 70
     0
102
RTVSPost2010Prop43
 90
        3
102
RTVSPost2010PropOp43
 70
     0
102
RTVSPost2010Prop44ColorIndex
 90
        5
102
RTVSPost2010Prop44ColorRGB
 90
      255
102
RTVSPost2010PropOp44
 70
     0
102
RTVSPost2010Prop45
280
     0
102
RTVSPost2010PropOp45
 70
     0
102
RTVSPost2010Prop46
 90
       50
102
RTVSPost2010PropOp46
 70
     0
102
RTVSPost2010Prop47
 90
       50
102
RTVSPost2010PropOp47
 70
     0
102
RTVSPost2010Prop48
 90
       50
102
RTVSPost2010PropOp48
 70
     0
102
RTVSPost2010Prop49
280
     0
102
RTVSPost2010PropOp49
 70
     0
102
RTVSPost2010Prop50
 90
       50
102
RTVSPost2010PropOp50
 70
     0
102
RTVSPost2010Prop51ColorIndex
 90
      256
102
RTVSPost2010Prop51ColorRGB
 90
-16777216
102
RTVSPost2010PropOp51
 70
     0
102
RTVSPost2010Prop52
140
1.0
102
RTVSPost2010PropOp52
 70
     0
102
RTVSPost2010Prop53
 90
        2
102
RTVSPost2010PropOp53
 70
     0
102
RTVSPost2010Prop54
  1
strokes_ogs.tif
102
RTVSPost2010PropOp54
 70
     0
102
RTVSPost2010Prop55
280
     0
102
RTVSPost2010PropOp55
 70
     0
102
RTVSPost2010Prop56
140
1.0
102
RTVSPost2010PropOp56
 70
     0
102
RTVSPost2010Prop57
140
1.0
102
RTVSPost2010PropOp57
 70
     0
  0
XRECORD
  5
448
102
{ACAD_REACTORS
330
447
102
}
330
447
100
AcDbXrecord
280
     1
102
RTVSPropertyOp0
 70
     1
102
RTVSPropertyOp1
 70
     1
102
RTVSPropertyOp2
 70
     1
102
RTVSPropertyOp3
 70
     1
102
RTVSPropertyOp4
 70
     1
102
RTVSPropertyOp5
 70
     1
102
RTVSPropertyOp6
 70
     1
102
RTVSPropertyOp7
 70
     1
102
RTVSPropertyOp8
 70
     1
102
RTVSPropertyOp9
 70
     1
102
RTVSPropertyOp10
 70
     1
102
RTVSPropertyOp11
 70
     1
102
RTVSPropertyOp12
 70
     1
102
RTVSPropertyOp13
 70
     1
102
RTVSPropertyOp14
 70
     1
102
RTVSPropertyOp15
 70
     1
102
RTVSPropertyOp16
 70
     1
102
RTVSPropertyOp17
 70
     1
102
RTVSPropertyOp18
 70
     1
102
RTVSPropertyOp19
 70
     1
102
RTVSPropertyOp20
 70
     1
102
RTVSPropertyOp21
 70
     1
102
RTVSPropertyOp22
 70
     1
102
RTVSPropertyOp23
 70
     1
102
RTVSPropertyOp24
 70
     1
102
RTVSPropertyOp25
 70
     1
102
RTVSPropertyOp26
 70
     1
102
RTVSPropertyOp27
 70
     1
102
RTVSPropertyOp28
 70
     1
102
RTVSPropertyOp29
 70
     1
102
RTVSPropertyOp30
 70
     1
102
RTVSPropertyOp31
 70
     1
102
RTVSPropertyOp32
 70
     1
102
RTVSPropertyOp33
 70
     1
102
RTVSPropertyOp34
 70
     1
102
RTVSPropertyOp35
 70
     1
102
RTVSPropertyOp36
 70
     1
102
RTVSPropertyOp37
 70
     1
102
RTVSPropertyOp38
 70
     1
102
RTVSPropertyOp39
 70
     1
102
RTVSPropertyOp40
 70
     1
102
RTVSPropertyOp41
 70
     1
102
RTVSPropertyOp42
 70
     1
102
RTVSPropertyOp43
 70
     1
102
RTVSPropertyOp44
 70
     1
102
RTVSPropertyOp45
 70
     1
102
RTVSPropertyOp46
 70
     1
102
RTVSPropertyOp47
 70
     1
102
RTVSPropertyOp48
 70
     1
102
RTVSPropertyOp49
 70
     1
102
RTVSPropertyOp50
 70
     1
102
RTVSPropertyOp51
 70
     0
102
RTVSPropertyOp52
 70
     0
102
RTVSPropertyOp53
 70
     1
102
RTVSPropertyOp54
 70
     1
102
RTVSPropertyOp55
 70
     1
102
RTVSPropertyOp56
 70
     1
102
RTVSPropertyOp57
 70
     1
102
RTVSPost2010Prop28
280
     0
102
RTVSPost2010PropOp28
 70
     1
102
RTVSPost2010Prop29
280
     1
102
RTVSPost2010PropOp29
 70
     1
102
RTVSPost2010Prop30
280
     1
102
RTVSPost2010PropOp30
 70
     1
102
RTVSPost2010Prop31
280
     0
102
RTVSPost2010PropOp31
 70
     1
102
RTVSPost2010Prop32
280
     0
102
RTVSPost2010PropOp32
 70
     1
102
RTVSPost2010Prop33
280
     0
102
RTVSPost2010PropOp33
 70
     1
102
RTVSPost2010Prop34
280
     0
102
RTVSPost2010PropOp34
 70
     1
102
RTVSPost2010Prop35
280
     0
102
RTVSPost2010PropOp35
 70
     1
102
RTVSPost2010Prop36
280
     0
102
RTVSPost2010PropOp36
 70
     1
102
RTVSPost2010Prop37
 90
       50
102
RTVSPost2010PropOp37
 70
     1
102
RTVSPost2010Prop38
140
0.0
102
RTVSPost2010PropOp38
 70
     1
102
RTVSPost2010Prop39
140
1.0
102
RTVSPost2010PropOp39
 70
     1
102
RTVSPost2010Prop40
 90
        0
102
RTVSPost2010PropOp40
 70
     1
102
RTVSPost2010Prop41ColorIndex
 90
       18
102
RTVSPost2010Prop41ColorRGB
 90
        0
102
RTVSPost2010PropOp41
 70
     1
102
RTVSPost2010Prop42
 90
       50
102
RTVSPost2010PropOp42
 70
     1
102
RTVSPost2010Prop43
 90
        3
102
RTVSPost2010PropOp43
 70
     1
102
RTVSPost2010Prop44ColorIndex
 90
        5
102
RTVSPost2010Prop44ColorRGB
 90
      255
102
RTVSPost2010PropOp44
 70
     1
102
RTVSPost2010Prop45
280
     0
102
RTVSPost2010PropOp45
 70
     1
102
RTVSPost2010Prop46
 90
       50
102
RTVSPost2010PropOp46
 70
     1
102
RTVSPost2010Prop47
 90
       50
102
RTVSPost2010PropOp47
 70
     1
102
RTVSPost2010Prop48
 90
       50
102
RTVSPost2010PropOp48
 70
     1
102
RTVSPost2010Prop49
280
     0
102
RTVSPost2010PropOp49
 70
     1
102
RTVSPost2010Prop50
 90
       50
102
RTVSPost2010PropOp50
 70
     1
102
RTVSPost2010Prop51ColorIndex
 90
      256
102
RTVSPost2010Prop51ColorRGB
 90
-16777216
102
RTVSPost2010PropOp51
 70
     0
102
RTVSPost2010Prop52
140
1.0
102
RTVSPost2010PropOp52
 70
     0
102
RTVSPost2010Prop53
 90
        2
102
RTVSPost2010PropOp53
 70
     1
102
RTVSPost2010Prop54
  1
strokes_ogs.tif
102
RTVSPost2010PropOp54
 70
     1
102
RTVSPost2010Prop55
280
     0
102
RTVSPost2010PropOp55
 70
     1
102
RTVSPost2010Prop56
140
1.0
102
RTVSPost2010PropOp56
 70
     1
102
RTVSPost2010Prop57
140
1.0
102
RTVSPost2010PropOp57
 70
     1
  0
XRECORD
  5
42C
102
{ACAD_REACTORS
330
42B
102
}
330
42B
100
AcDbXrecord
280
     1
102
RTVSPropertyOp0
 70
     1
102
RTVSPropertyOp1
 70
     1
102
RTVSPropertyOp2
 70
     1
102
RTVSPropertyOp3
 70
     1
102
RTVSPropertyOp4
 70
     1
102
RTVSPropertyOp5
 70
     1
102
RTVSPropertyOp6
 70
     1
102
RTVSPropertyOp7
 70
     1
102
RTVSPropertyOp8
 70
     1
102
RTVSPropertyOp9
 70
     1
102
RTVSPropertyOp10
 70
     1
102
RTVSPropertyOp11
 70
     1
102
RTVSPropertyOp12
 70
     1
102
RTVSPropertyOp13
 70
     1
102
RTVSPropertyOp14
 70
     1
102
RTVSPropertyOp15
 70
     1
102
RTVSPropertyOp16
 70
     1
102
RTVSPropertyOp17
 70
     1
102
RTVSPropertyOp18
 70
     1
102
RTVSPropertyOp19
 70
     1
102
RTVSPropertyOp20
 70
     1
102
RTVSPropertyOp21
 70
     1
102
RTVSPropertyOp22
 70
     1
102
RTVSPropertyOp23
 70
     1
102
RTVSPropertyOp24
 70
     1
102
RTVSPropertyOp25
 70
     1
102
RTVSPropertyOp26
 70
     1
102
RTVSPropertyOp27
 70
     1
102
RTVSPropertyOp28
 70
     1
102
RTVSPropertyOp29
 70
     1
102
RTVSPropertyOp30
 70
     1
102
RTVSPropertyOp31
 70
     1
102
RTVSPropertyOp32
 70
     1
102
RTVSPropertyOp33
 70
     1
102
RTVSPropertyOp34
 70
     1
102
RTVSPropertyOp35
 70
     1
102
RTVSPropertyOp36
 70
     1
102
RTVSPropertyOp37
 70
     1
102
RTVSPropertyOp38
 70
     1
102
RTVSPropertyOp39
 70
     1
102
RTVSPropertyOp40
 70
     1
102
RTVSPropertyOp41
 70
     1
102
RTVSPropertyOp42
 70
     1
102
RTVSPropertyOp43
 70
     1
102
RTVSPropertyOp44
 70
     1
102
RTVSPropertyOp45
 70
     1
102
RTVSPropertyOp46
 70
     1
102
RTVSPropertyOp47
 70
     1
102
RTVSPropertyOp48
 70
     1
102
RTVSPropertyOp49
 70
     1
102
RTVSPropertyOp50
 70
     1
102
RTVSPropertyOp51
 70
     0
102
RTVSPropertyOp52
 70
     0
102
RTVSPropertyOp53
 70
     1
102
RTVSPropertyOp54
 70
     1
102
RTVSPropertyOp55
 70
     1
102
RTVSPropertyOp56
 70
     1
102
RTVSPropertyOp57
 70
     1
102
RTVSPost2010Prop28
280
     0
102
RTVSPost2010PropOp28
 70
     1
102
RTVSPost2010Prop29
280
     1
102
RTVSPost2010PropOp29
 70
     1
102
RTVSPost2010Prop30
280
     1
102
RTVSPost2010PropOp30
 70
     1
102
RTVSPost2010Prop31
280
     0
102
RTVSPost2010PropOp31
 70
     1
102
RTVSPost2010Prop32
280
     0
102
RTVSPost2010PropOp32
 70
     1
102
RTVSPost2010Prop33
280
     0
102
RTVSPost2010PropOp33
 70
     1
102
RTVSPost2010Prop34
280
     0
102
RTVSPost2010PropOp34
 70
     1
102
RTVSPost2010Prop35
280
     0
102
RTVSPost2010PropOp35
 70
     1
102
RTVSPost2010Prop36
280
     0
102
RTVSPost2010PropOp36
 70
     1
102
RTVSPost2010Prop37
 90
       50
102
RTVSPost2010PropOp37
 70
     1
102
RTVSPost2010Prop38
140
0.0
102
RTVSPost2010PropOp38
 70
     1
102
RTVSPost2010Prop39
140
1.0
102
RTVSPost2010PropOp39
 70
     1
102
RTVSPost2010Prop40
 90
        0
102
RTVSPost2010PropOp40
 70
     1
102
RTVSPost2010Prop41ColorIndex
 90
       18
102
RTVSPost2010Prop41ColorRGB
 90
        0
102
RTVSPost2010PropOp41
 70
     1
102
RTVSPost2010Prop42
 90
       50
102
RTVSPost2010PropOp42
 70
     1
102
RTVSPost2010Prop43
 90
        3
102
RTVSPost2010PropOp43
 70
     1
102
RTVSPost2010Prop44ColorIndex
 90
        5
102
RTVSPost2010Prop44ColorRGB
 90
      255
102
RTVSPost2010PropOp44
 70
     1
102
RTVSPost2010Prop45
280
     0
102
RTVSPost2010PropOp45
 70
     1
102
RTVSPost2010Prop46
 90
       50
102
RTVSPost2010PropOp46
 70
     1
102
RTVSPost2010Prop47
 90
       50
102
RTVSPost2010PropOp47
 70
     1
102
RTVSPost2010Prop48
 90
       50
102
RTVSPost2010PropOp48
 70
     1
102
RTVSPost2010Prop49
280
     0
102
RTVSPost2010PropOp49
 70
     1
102
RTVSPost2010Prop50
 90
       50
102
RTVSPost2010PropOp50
 70
     1
102
RTVSPost2010Prop51ColorIndex
 90
      256
102
RTVSPost2010Prop51ColorRGB
 90
-16777216
102
RTVSPost2010PropOp51
 70
     0
102
RTVSPost2010Prop52
140
1.0
102
RTVSPost2010PropOp52
 70
     0
102
RTVSPost2010Prop53
 90
        2
102
RTVSPost2010PropOp53
 70
     1
102
RTVSPost2010Prop54
  1
strokes_ogs.tif
102
RTVSPost2010PropOp54
 70
     1
102
RTVSPost2010Prop55
280
     0
102
RTVSPost2010PropOp55
 70
     1
102
RTVSPost2010Prop56
140
1.0
102
RTVSPost2010PropOp56
 70
     1
102
RTVSPost2010Prop57
140
1.0
102
RTVSPost2010PropOp57
 70
     1
  0
XRECORD
  5
42E
102
{ACAD_REACTORS
330
42D
102
}
330
42D
100
AcDbXrecord
280
     1
102
RTVSPropertyOp0
 70
     1
102
RTVSPropertyOp1
 70
     1
102
RTVSPropertyOp2
 70
     1
102
RTVSPropertyOp3
 70
     1
102
RTVSPropertyOp4
 70
     1
102
RTVSPropertyOp5
 70
     1
102
RTVSPropertyOp6
 70
     1
102
RTVSPropertyOp7
 70
     1
102
RTVSPropertyOp8
 70
     1
102
RTVSPropertyOp9
 70
     1
102
RTVSPropertyOp10
 70
     1
102
RTVSPropertyOp11
 70
     1
102
RTVSPropertyOp12
 70
     1
102
RTVSPropertyOp13
 70
     1
102
RTVSPropertyOp14
 70
     1
102
RTVSPropertyOp15
 70
     1
102
RTVSPropertyOp16
 70
     1
102
RTVSPropertyOp17
 70
     1
102
RTVSPropertyOp18
 70
     1
102
RTVSPropertyOp19
 70
     1
102
RTVSPropertyOp20
 70
     1
102
RTVSPropertyOp21
 70
     1
102
RTVSPropertyOp22
 70
     1
102
RTVSPropertyOp23
 70
     1
102
RTVSPropertyOp24
 70
     1
102
RTVSPropertyOp25
 70
     1
102
RTVSPropertyOp26
 70
     1
102
RTVSPropertyOp27
 70
     1
102
RTVSPropertyOp28
 70
     1
102
RTVSPropertyOp29
 70
     1
102
RTVSPropertyOp30
 70
     1
102
RTVSPropertyOp31
 70
     1
102
RTVSPropertyOp32
 70
     1
102
RTVSPropertyOp33
 70
     1
102
RTVSPropertyOp34
 70
     1
102
RTVSPropertyOp35
 70
     1
102
RTVSPropertyOp36
 70
     1
102
RTVSPropertyOp37
 70
     1
102
RTVSPropertyOp38
 70
     1
102
RTVSPropertyOp39
 70
     1
102
RTVSPropertyOp40
 70
     1
102
RTVSPropertyOp41
 70
     1
102
RTVSPropertyOp42
 70
     1
102
RTVSPropertyOp43
 70
     1
102
RTVSPropertyOp44
 70
     1
102
RTVSPropertyOp45
 70
     1
102
RTVSPropertyOp46
 70
     1
102
RTVSPropertyOp47
 70
     1
102
RTVSPropertyOp48
 70
     1
102
RTVSPropertyOp49
 70
     1
102
RTVSPropertyOp50
 70
     1
102
RTVSPropertyOp51
 70
     0
102
RTVSPropertyOp52
 70
     0
102
RTVSPropertyOp53
 70
     1
102
RTVSPropertyOp54
 70
     1
102
RTVSPropertyOp55
 70
     1
102
RTVSPropertyOp56
 70
     1
102
RTVSPropertyOp57
 70
     1
102
RTVSPost2010Prop28
280
     0
102
RTVSPost2010PropOp28
 70
     1
102
RTVSPost2010Prop29
280
     1
102
RTVSPost2010PropOp29
 70
     1
102
RTVSPost2010Prop30
280
     1
102
RTVSPost2010PropOp30
 70
     1
102
RTVSPost2010Prop31
280
     0
102
RTVSPost2010PropOp31
 70
     1
102
RTVSPost2010Prop32
280
     0
102
RTVSPost2010PropOp32
 70
     1
102
RTVSPost2010Prop33
280
     0
102
RTVSPost2010PropOp33
 70
     1
102
RTVSPost2010Prop34
280
     0
102
RTVSPost2010PropOp34
 70
     1
102
RTVSPost2010Prop35
280
     0
102
RTVSPost2010PropOp35
 70
     1
102
RTVSPost2010Prop36
280
     0
102
RTVSPost2010PropOp36
 70
     1
102
RTVSPost2010Prop37
 90
       50
102
RTVSPost2010PropOp37
 70
     1
102
RTVSPost2010Prop38
140
0.0
102
RTVSPost2010PropOp38
 70
     1
102
RTVSPost2010Prop39
140
1.0
102
RTVSPost2010PropOp39
 70
     1
102
RTVSPost2010Prop40
 90
        0
102
RTVSPost2010PropOp40
 70
     1
102
RTVSPost2010Prop41ColorIndex
 90
       18
102
RTVSPost2010Prop41ColorRGB
 90
        0
102
RTVSPost2010PropOp41
 70
     1
102
RTVSPost2010Prop42
 90
       50
102
RTVSPost2010PropOp42
 70
     1
102
RTVSPost2010Prop43
 90
        3
102
RTVSPost2010PropOp43
 70
     1
102
RTVSPost2010Prop44ColorIndex
 90
        5
102
RTVSPost2010Prop44ColorRGB
 90
      255
102
RTVSPost2010PropOp44
 70
     1
102
RTVSPost2010Prop45
280
     0
102
RTVSPost2010PropOp45
 70
     1
102
RTVSPost2010Prop46
 90
       50
102
RTVSPost2010PropOp46
 70
     1
102
RTVSPost2010Prop47
 90
       50
102
RTVSPost2010PropOp47
 70
     1
102
RTVSPost2010Prop48
 90
       50
102
RTVSPost2010PropOp48
 70
     1
102
RTVSPost2010Prop49
280
     0
102
RTVSPost2010PropOp49
 70
     1
102
RTVSPost2010Prop50
 90
       50
102
RTVSPost2010PropOp50
 70
     1
102
RTVSPost2010Prop51ColorIndex
 90
      256
102
RTVSPost2010Prop51ColorRGB
 90
-16777216
102
RTVSPost2010PropOp51
 70
     0
102
RTVSPost2010Prop52
140
1.0
102
RTVSPost2010PropOp52
 70
     0
102
RTVSPost2010Prop53
 90
        2
102
RTVSPost2010PropOp53
 70
     1
102
RTVSPost2010Prop54
  1
strokes_ogs.tif
102
RTVSPost2010PropOp54
 70
     1
102
RTVSPost2010Prop55
280
     0
102
RTVSPost2010PropOp55
 70
     1
102
RTVSPost2010Prop56
140
1.0
102
RTVSPost2010PropOp56
 70
     1
102
RTVSPost2010Prop57
140
1.0
102
RTVSPost2010PropOp57
 70
     1
  0
XRECORD
  5
430
102
{ACAD_REACTORS
330
42F
102
}
330
42F
100
AcDbXrecord
280
     1
102
RTVSPropertyOp0
 70
     1
102
RTVSPropertyOp1
 70
     1
102
RTVSPropertyOp2
 70
     1
102
RTVSPropertyOp3
 70
     1
102
RTVSPropertyOp4
 70
     1
102
RTVSPropertyOp5
 70
     1
102
RTVSPropertyOp6
 70
     1
102
RTVSPropertyOp7
 70
     1
102
RTVSPropertyOp8
 70
     1
102
RTVSPropertyOp9
 70
     1
102
RTVSPropertyOp10
 70
     1
102
RTVSPropertyOp11
 70
     1
102
RTVSPropertyOp12
 70
     1
102
RTVSPropertyOp13
 70
     1
102
RTVSPropertyOp14
 70
     1
102
RTVSPropertyOp15
 70
     1
102
RTVSPropertyOp16
 70
     1
102
RTVSPropertyOp17
 70
     1
102
RTVSPropertyOp18
 70
     1
102
RTVSPropertyOp19
 70
     1
102
RTVSPropertyOp20
 70
     1
102
RTVSPropertyOp21
 70
     1
102
RTVSPropertyOp22
 70
     1
102
RTVSPropertyOp23
 70
     1
102
RTVSPropertyOp24
 70
     1
102
RTVSPropertyOp25
 70
     1
102
RTVSPropertyOp26
 70
     1
102
RTVSPropertyOp27
 70
     1
102
RTVSPropertyOp28
 70
     1
102
RTVSPropertyOp29
 70
     1
102
RTVSPropertyOp30
 70
     1
102
RTVSPropertyOp31
 70
     1
102
RTVSPropertyOp32
 70
     1
102
RTVSPropertyOp33
 70
     1
102
RTVSPropertyOp34
 70
     1
102
RTVSPropertyOp35
 70
     1
102
RTVSPropertyOp36
 70
     1
102
RTVSPropertyOp37
 70
     1
102
RTVSPropertyOp38
 70
     1
102
RTVSPropertyOp39
 70
     1
102
RTVSPropertyOp40
 70
     1
102
RTVSPropertyOp41
 70
     1
102
RTVSPropertyOp42
 70
     1
102
RTVSPropertyOp43
 70
     1
102
RTVSPropertyOp44
 70
     1
102
RTVSPropertyOp45
 70
     1
102
RTVSPropertyOp46
 70
     1
102
RTVSPropertyOp47
 70
     1
102
RTVSPropertyOp48
 70
     1
102
RTVSPropertyOp49
 70
     1
102
RTVSPropertyOp50
 70
     1
102
RTVSPropertyOp51
 70
     0
102
RTVSPropertyOp52
 70
     0
102
RTVSPropertyOp53
 70
     1
102
RTVSPropertyOp54
 70
     1
102
RTVSPropertyOp55
 70
     1
102
RTVSPropertyOp56
 70
     1
102
RTVSPropertyOp57
 70
     1
102
RTVSPost2010Prop28
280
     0
102
RTVSPost2010PropOp28
 70
     1
102
RTVSPost2010Prop29
280
     1
102
RTVSPost2010PropOp29
 70
     1
102
RTVSPost2010Prop30
280
     1
102
RTVSPost2010PropOp30
 70
     1
102
RTVSPost2010Prop31
280
     0
102
RTVSPost2010PropOp31
 70
     1
102
RTVSPost2010Prop32
280
     0
102
RTVSPost2010PropOp32
 70
     1
102
RTVSPost2010Prop33
280
     0
102
RTVSPost2010PropOp33
 70
     1
102
RTVSPost2010Prop34
280
     0
102
RTVSPost2010PropOp34
 70
     1
102
RTVSPost2010Prop35
280
     0
102
RTVSPost2010PropOp35
 70
     1
102
RTVSPost2010Prop36
280
     0
102
RTVSPost2010PropOp36
 70
     1
102
RTVSPost2010Prop37
 90
       50
102
RTVSPost2010PropOp37
 70
     1
102
RTVSPost2010Prop38
140
0.0
102
RTVSPost2010PropOp38
 70
     1
102
RTVSPost2010Prop39
140
1.0
102
RTVSPost2010PropOp39
 70
     1
102
RTVSPost2010Prop40
 90
        0
102
RTVSPost2010PropOp40
 70
     1
102
RTVSPost2010Prop41ColorIndex
 90
       18
102
RTVSPost2010Prop41ColorRGB
 90
        0
102
RTVSPost2010PropOp41
 70
     1
102
RTVSPost2010Prop42
 90
       50
102
RTVSPost2010PropOp42
 70
     1
102
RTVSPost2010Prop43
 90
        3
102
RTVSPost2010PropOp43
 70
     1
102
RTVSPost2010Prop44ColorIndex
 90
        5
102
RTVSPost2010Prop44ColorRGB
 90
      255
102
RTVSPost2010PropOp44
 70
     1
102
RTVSPost2010Prop45
280
     0
102
RTVSPost2010PropOp45
 70
     1
102
RTVSPost2010Prop46
 90
       50
102
RTVSPost2010PropOp46
 70
     1
102
RTVSPost2010Prop47
 90
       50
102
RTVSPost2010PropOp47
 70
     1
102
RTVSPost2010Prop48
 90
       50
102
RTVSPost2010PropOp48
 70
     1
102
RTVSPost2010Prop49
280
     0
102
RTVSPost2010PropOp49
 70
     1
102
RTVSPost2010Prop50
 90
       50
102
RTVSPost2010PropOp50
 70
     1
102
RTVSPost2010Prop51ColorIndex
 90
      256
102
RTVSPost2010Prop51ColorRGB
 90
-16777216
102
RTVSPost2010PropOp51
 70
     0
102
RTVSPost2010Prop52
140
1.0
102
RTVSPost2010PropOp52
 70
     0
102
RTVSPost2010Prop53
 90
        2
102
RTVSPost2010PropOp53
 70
     1
102
RTVSPost2010Prop54
  1
strokes_ogs.tif
102
RTVSPost2010PropOp54
 70
     1
102
RTVSPost2010Prop55
280
     0
102
RTVSPost2010PropOp55
 70
     1
102
RTVSPost2010Prop56
140
1.0
102
RTVSPost2010PropOp56
 70
     1
102
RTVSPost2010Prop57
140
1.0
102
RTVSPost2010PropOp57
 70
     1
  0
XRECORD
  5
432
102
{ACAD_REACTORS
330
431
102
}
330
431
100
AcDbXrecord
280
     1
102
RTVSPropertyOp0
 70
     1
102
RTVSPropertyOp1
 70
     1
102
RTVSPropertyOp2
 70
     1
102
RTVSPropertyOp3
 70
     1
102
RTVSPropertyOp4
 70
     1
102
RTVSPropertyOp5
 70
     1
102
RTVSPropertyOp6
 70
     1
102
RTVSPropertyOp7
 70
     1
102
RTVSPropertyOp8
 70
     1
102
RTVSPropertyOp9
 70
     1
102
RTVSPropertyOp10
 70
     1
102
RTVSPropertyOp11
 70
     1
102
RTVSPropertyOp12
 70
     1
102
RTVSPropertyOp13
 70
     1
102
RTVSPropertyOp14
 70
     1
102
RTVSPropertyOp15
 70
     1
102
RTVSPropertyOp16
 70
     1
102
RTVSPropertyOp17
 70
     1
102
RTVSPropertyOp18
 70
     1
102
RTVSPropertyOp19
 70
     1
102
RTVSPropertyOp20
 70
     1
102
RTVSPropertyOp21
 70
     1
102
RTVSPropertyOp22
 70
     1
102
RTVSPropertyOp23
 70
     1
102
RTVSPropertyOp24
 70
     1
102
RTVSPropertyOp25
 70
     1
102
RTVSPropertyOp26
 70
     1
102
RTVSPropertyOp27
 70
     1
102
RTVSPropertyOp28
 70
     1
102
RTVSPropertyOp29
 70
     1
102
RTVSPropertyOp30
 70
     1
102
RTVSPropertyOp31
 70
     1
102
RTVSPropertyOp32
 70
     1
102
RTVSPropertyOp33
 70
     1
102
RTVSPropertyOp34
 70
     1
102
RTVSPropertyOp35
 70
     1
102
RTVSPropertyOp36
 70
     1
102
RTVSPropertyOp37
 70
     1
102
RTVSPropertyOp38
 70
     1
102
RTVSPropertyOp39
 70
     1
102
RTVSPropertyOp40
 70
     1
102
RTVSPropertyOp41
 70
     1
102
RTVSPropertyOp42
 70
     1
102
RTVSPropertyOp43
 70
     1
102
RTVSPropertyOp44
 70
     1
102
RTVSPropertyOp45
 70
     1
102
RTVSPropertyOp46
 70
     1
102
RTVSPropertyOp47
 70
     1
102
RTVSPropertyOp48
 70
     1
102
RTVSPropertyOp49
 70
     1
102
RTVSPropertyOp50
 70
     1
102
RTVSPropertyOp51
 70
     0
102
RTVSPropertyOp52
 70
     0
102
RTVSPropertyOp53
 70
     1
102
RTVSPropertyOp54
 70
     1
102
RTVSPropertyOp55
 70
     1
102
RTVSPropertyOp56
 70
     1
102
RTVSPropertyOp57
 70
     1
102
RTVSPost2010Prop28
280
     0
102
RTVSPost2010PropOp28
 70
     1
102
RTVSPost2010Prop29
280
     1
102
RTVSPost2010PropOp29
 70
     1
102
RTVSPost2010Prop30
280
     1
102
RTVSPost2010PropOp30
 70
     1
102
RTVSPost2010Prop31
280
     0
102
RTVSPost2010PropOp31
 70
     1
102
RTVSPost2010Prop32
280
     0
102
RTVSPost2010PropOp32
 70
     1
102
RTVSPost2010Prop33
280
     0
102
RTVSPost2010PropOp33
 70
     1
102
RTVSPost2010Prop34
280
     0
102
RTVSPost2010PropOp34
 70
     1
102
RTVSPost2010Prop35
280
     0
102
RTVSPost2010PropOp35
 70
     1
102
RTVSPost2010Prop36
280
     0
102
RTVSPost2010PropOp36
 70
     1
102
RTVSPost2010Prop37
 90
       50
102
RTVSPost2010PropOp37
 70
     1
102
RTVSPost2010Prop38
140
0.0
102
RTVSPost2010PropOp38
 70
     1
102
RTVSPost2010Prop39
140
1.0
102
RTVSPost2010PropOp39
 70
     1
102
RTVSPost2010Prop40
 90
        0
102
RTVSPost2010PropOp40
 70
     1
102
RTVSPost2010Prop41ColorIndex
 90
       18
102
RTVSPost2010Prop41ColorRGB
 90
        0
102
RTVSPost2010PropOp41
 70
     1
102
RTVSPost2010Prop42
 90
       50
102
RTVSPost2010PropOp42
 70
     1
102
RTVSPost2010Prop43
 90
        3
102
RTVSPost2010PropOp43
 70
     1
102
RTVSPost2010Prop44ColorIndex
 90
        5
102
RTVSPost2010Prop44ColorRGB
 90
      255
102
RTVSPost2010PropOp44
 70
     1
102
RTVSPost2010Prop45
280
     0
102
RTVSPost2010PropOp45
 70
     1
102
RTVSPost2010Prop46
 90
       50
102
RTVSPost2010PropOp46
 70
     1
102
RTVSPost2010Prop47
 90
       50
102
RTVSPost2010PropOp47
 70
     1
102
RTVSPost2010Prop48
 90
       50
102
RTVSPost2010PropOp48
 70
     1
102
RTVSPost2010Prop49
280
     0
102
RTVSPost2010PropOp49
 70
     1
102
RTVSPost2010Prop50
 90
       50
102
RTVSPost2010PropOp50
 70
     1
102
RTVSPost2010Prop51ColorIndex
 90
      256
102
RTVSPost2010Prop51ColorRGB
 90
-16777216
102
RTVSPost2010PropOp51
 70
     0
102
RTVSPost2010Prop52
140
1.0
102
RTVSPost2010PropOp52
 70
     0
102
RTVSPost2010Prop53
 90
        2
102
RTVSPost2010PropOp53
 70
     1
102
RTVSPost2010Prop54
  1
strokes_ogs.tif
102
RTVSPost2010PropOp54
 70
     1
102
RTVSPost2010Prop55
280
     0
102
RTVSPost2010PropOp55
 70
     1
102
RTVSPost2010Prop56
140
1.0
102
RTVSPost2010PropOp56
 70
     1
102
RTVSPost2010Prop57
140
1.0
102
RTVSPost2010PropOp57
 70
     1
  0
XRECORD
  5
438
102
{ACAD_REACTORS
330
437
102
}
330
437
100
AcDbXrecord
280
     1
102
RTVSPropertyOp0
 70
     1
102
RTVSPropertyOp1
 70
     1
102
RTVSPropertyOp2
 70
     1
102
RTVSPropertyOp3
 70
     1
102
RTVSPropertyOp4
 70
     1
102
RTVSPropertyOp5
 70
     1
102
RTVSPropertyOp6
 70
     1
102
RTVSPropertyOp7
 70
     1
102
RTVSPropertyOp8
 70
     1
102
RTVSPropertyOp9
 70
     1
102
RTVSPropertyOp10
 70
     1
102
RTVSPropertyOp11
 70
     1
102
RTVSPropertyOp12
 70
     1
102
RTVSPropertyOp13
 70
     1
102
RTVSPropertyOp14
 70
     1
102
RTVSPropertyOp15
 70
     1
102
RTVSPropertyOp16
 70
     1
102
RTVSPropertyOp17
 70
     1
102
RTVSPropertyOp18
 70
     1
102
RTVSPropertyOp19
 70
     1
102
RTVSPropertyOp20
 70
     1
102
RTVSPropertyOp21
 70
     1
102
RTVSPropertyOp22
 70
     1
102
RTVSPropertyOp23
 70
     1
102
RTVSPropertyOp24
 70
     1
102
RTVSPropertyOp25
 70
     1
102
RTVSPropertyOp26
 70
     1
102
RTVSPropertyOp27
 70
     1
102
RTVSPropertyOp28
 70
     1
102
RTVSPropertyOp29
 70
     1
102
RTVSPropertyOp30
 70
     1
102
RTVSPropertyOp31
 70
     1
102
RTVSPropertyOp32
 70
     1
102
RTVSPropertyOp33
 70
     1
102
RTVSPropertyOp34
 70
     1
102
RTVSPropertyOp35
 70
     1
102
RTVSPropertyOp36
 70
     1
102
RTVSPropertyOp37
 70
     1
102
RTVSPropertyOp38
 70
     1
102
RTVSPropertyOp39
 70
     1
102
RTVSPropertyOp40
 70
     1
102
RTVSPropertyOp41
 70
     1
102
RTVSPropertyOp42
 70
     1
102
RTVSPropertyOp43
 70
     1
102
RTVSPropertyOp44
 70
     1
102
RTVSPropertyOp45
 70
     1
102
RTVSPropertyOp46
 70
     1
102
RTVSPropertyOp47
 70
     1
102
RTVSPropertyOp48
 70
     1
102
RTVSPropertyOp49
 70
     1
102
RTVSPropertyOp50
 70
     1
102
RTVSPropertyOp51
 70
     0
102
RTVSPropertyOp52
 70
     0
102
RTVSPropertyOp53
 70
     1
102
RTVSPropertyOp54
 70
     1
102
RTVSPropertyOp55
 70
     1
102
RTVSPropertyOp56
 70
     1
102
RTVSPropertyOp57
 70
     1
102
RTVSPost2010Prop28
280
     0
102
RTVSPost2010PropOp28
 70
     1
102
RTVSPost2010Prop29
280
     1
102
RTVSPost2010PropOp29
 70
     1
102
RTVSPost2010Prop30
280
     1
102
RTVSPost2010PropOp30
 70
     1
102
RTVSPost2010Prop31
280
     0
102
RTVSPost2010PropOp31
 70
     1
102
RTVSPost2010Prop32
280
     0
102
RTVSPost2010PropOp32
 70
     1
102
RTVSPost2010Prop33
280
     0
102
RTVSPost2010PropOp33
 70
     1
102
RTVSPost2010Prop34
280
     0
102
RTVSPost2010PropOp34
 70
     1
102
RTVSPost2010Prop35
280
     0
102
RTVSPost2010PropOp35
 70
     1
102
RTVSPost2010Prop36
280
     0
102
RTVSPost2010PropOp36
 70
     1
102
RTVSPost2010Prop37
 90
       50
102
RTVSPost2010PropOp37
 70
     1
102
RTVSPost2010Prop38
140
0.0
102
RTVSPost2010PropOp38
 70
     1
102
RTVSPost2010Prop39
140
1.0
102
RTVSPost2010PropOp39
 70
     1
102
RTVSPost2010Prop40
 90
        0
102
RTVSPost2010PropOp40
 70
     1
102
RTVSPost2010Prop41ColorIndex
 90
       18
102
RTVSPost2010Prop41ColorRGB
 90
        0
102
RTVSPost2010PropOp41
 70
     1
102
RTVSPost2010Prop42
 90
       50
102
RTVSPost2010PropOp42
 70
     1
102
RTVSPost2010Prop43
 90
        3
102
RTVSPost2010PropOp43
 70
     1
102
RTVSPost2010Prop44ColorIndex
 90
        5
102
RTVSPost2010Prop44ColorRGB
 90
      255
102
RTVSPost2010PropOp44
 70
     1
102
RTVSPost2010Prop45
280
     0
102
RTVSPost2010PropOp45
 70
     1
102
RTVSPost2010Prop46
 90
       50
102
RTVSPost2010PropOp46
 70
     1
102
RTVSPost2010Prop47
 90
       50
102
RTVSPost2010PropOp47
 70
     1
102
RTVSPost2010Prop48
 90
       50
102
RTVSPost2010PropOp48
 70
     1
102
RTVSPost2010Prop49
280
     0
102
RTVSPost2010PropOp49
 70
     1
102
RTVSPost2010Prop50
 90
       50
102
RTVSPost2010PropOp50
 70
     1
102
RTVSPost2010Prop51ColorIndex
 90
      256
102
RTVSPost2010Prop51ColorRGB
 90
-16777216
102
RTVSPost2010PropOp51
 70
     0
102
RTVSPost2010Prop52
140
1.0
102
RTVSPost2010PropOp52
 70
     0
102
RTVSPost2010Prop53
 90
        2
102
RTVSPost2010PropOp53
 70
     1
102
RTVSPost2010Prop54
  1
strokes_ogs.tif
102
RTVSPost2010PropOp54
 70
     1
102
RTVSPost2010Prop55
280
     0
102
RTVSPost2010PropOp55
 70
     1
102
RTVSPost2010Prop56
140
1.0
102
RTVSPost2010PropOp56
 70
     1
102
RTVSPost2010Prop57
140
1.0
102
RTVSPost2010PropOp57
 70
     1
  0
XRECORD
  5
44C
102
{ACAD_REACTORS
330
44B
102
}
330
44B
100
AcDbXrecord
280
     1
102
RTVSPropertyOp0
 70
     0
102
RTVSPropertyOp1
 70
     0
102
RTVSPropertyOp2
 70
     0
102
RTVSPropertyOp3
 70
     0
102
RTVSPropertyOp4
 70
     0
102
RTVSPropertyOp5
 70
     0
102
RTVSPropertyOp6
 70
     0
102
RTVSPropertyOp7
 70
     0
102
RTVSPropertyOp8
 70
     0
102
RTVSPropertyOp9
 70
     0
102
RTVSPropertyOp10
 70
     0
102
RTVSPropertyOp11
 70
     0
102
RTVSPropertyOp12
 70
     0
102
RTVSPropertyOp13
 70
     0
102
RTVSPropertyOp14
 70
     2
102
RTVSPropertyOp15
 70
     0
102
RTVSPropertyOp16
 70
     0
102
RTVSPropertyOp17
 70
     0
102
RTVSPropertyOp18
 70
     0
102
RTVSPropertyOp19
 70
     0
102
RTVSPropertyOp20
 70
     0
102
RTVSPropertyOp21
 70
     0
102
RTVSPropertyOp22
 70
     0
102
RTVSPropertyOp23
 70
     0
102
RTVSPropertyOp24
 70
     0
102
RTVSPropertyOp25
 70
     0
102
RTVSPropertyOp26
 70
     0
102
RTVSPropertyOp27
 70
     0
102
RTVSPropertyOp28
 70
     0
102
RTVSPropertyOp29
 70
     0
102
RTVSPropertyOp30
 70
     0
102
RTVSPropertyOp31
 70
     0
102
RTVSPropertyOp32
 70
     0
102
RTVSPropertyOp33
 70
     0
102
RTVSPropertyOp34
 70
     0
102
RTVSPropertyOp35
 70
     0
102
RTVSPropertyOp36
 70
     0
102
RTVSPropertyOp37
 70
     0
102
RTVSPropertyOp38
 70
     0
102
RTVSPropertyOp39
 70
     0
102
RTVSPropertyOp40
 70
     0
102
RTVSPropertyOp41
 70
     0
102
RTVSPropertyOp42
 70
     0
102
RTVSPropertyOp43
 70
     0
102
RTVSPropertyOp44
 70
     0
102
RTVSPropertyOp45
 70
     0
102
RTVSPropertyOp46
 70
     0
102
RTVSPropertyOp47
 70
     0
102
RTVSPropertyOp48
 70
     0
102
RTVSPropertyOp49
 70
     0
102
RTVSPropertyOp50
 70
     0
102
RTVSPropertyOp51
 70
     0
102
RTVSPropertyOp52
 70
     0
102
RTVSPropertyOp53
 70
     0
102
RTVSPropertyOp54
 70
     0
102
RTVSPropertyOp55
 70
     0
102
RTVSPropertyOp56
 70
     0
102
RTVSPropertyOp57
 70
     0
102
RTVSPost2010Prop28
280
     0
102
RTVSPost2010PropOp28
 70
     0
102
RTVSPost2010Prop29
280
     1
102
RTVSPost2010PropOp29
 70
     0
102
RTVSPost2010Prop30
280
     1
102
RTVSPost2010PropOp30
 70
     0
102
RTVSPost2010Prop31
280
     0
102
RTVSPost2010PropOp31
 70
     0
102
RTVSPost2010Prop32
280
     0
102
RTVSPost2010PropOp32
 70
     0
102
RTVSPost2010Prop33
280
     0
102
RTVSPost2010PropOp33
 70
     0
102
RTVSPost2010Prop34
280
     0
102
RTVSPost2010PropOp34
 70
     0
102
RTVSPost2010Prop35
280
     0
102
RTVSPost2010PropOp35
 70
     0
102
RTVSPost2010Prop36
280
     0
102
RTVSPost2010PropOp36
 70
     0
102
RTVSPost2010Prop37
 90
       50
102
RTVSPost2010PropOp37
 70
     0
102
RTVSPost2010Prop38
140
0.0
102
RTVSPost2010PropOp38
 70
     0
102
RTVSPost2010Prop39
140
1.0
102
RTVSPost2010PropOp39
 70
     0
102
RTVSPost2010Prop40
 90
        0
102
RTVSPost2010PropOp40
 70
     0
102
RTVSPost2010Prop41ColorIndex
 90
       18
102
RTVSPost2010Prop41ColorRGB
 90
        0
102
RTVSPost2010PropOp41
 70
     0
102
RTVSPost2010Prop42
 90
       50
102
RTVSPost2010PropOp42
 70
     0
102
RTVSPost2010Prop43
 90
        3
102
RTVSPost2010PropOp43
 70
     0
102
RTVSPost2010Prop44ColorIndex
 90
        5
102
RTVSPost2010Prop44ColorRGB
 90
      255
102
RTVSPost2010PropOp44
 70
     0
102
RTVSPost2010Prop45
280
     0
102
RTVSPost2010PropOp45
 70
     0
102
RTVSPost2010Prop46
 90
       50
102
RTVSPost2010PropOp46
 70
     0
102
RTVSPost2010Prop47
 90
       50
102
RTVSPost2010PropOp47
 70
     0
102
RTVSPost2010Prop48
 90
       50
102
RTVSPost2010PropOp48
 70
     0
102
RTVSPost2010Prop49
280
     0
102
RTVSPost2010PropOp49
 70
     0
102
RTVSPost2010Prop50
 90
       50
102
RTVSPost2010PropOp50
 70
     0
102
RTVSPost2010Prop51ColorIndex
 90
      256
102
RTVSPost2010Prop51ColorRGB
 90
-16777216
102
RTVSPost2010PropOp51
 70
     0
102
RTVSPost2010Prop52
140
1.0
102
RTVSPost2010PropOp52
 70
     0
102
RTVSPost2010Prop53
 90
        2
102
RTVSPost2010PropOp53
 70
     0
102
RTVSPost2010Prop54
  1
strokes_ogs.tif
102
RTVSPost2010PropOp54
 70
     0
102
RTVSPost2010Prop55
280
     0
102
RTVSPost2010PropOp55
 70
     0
102
RTVSPost2010Prop56
140
1.0
102
RTVSPost2010PropOp56
 70
     0
102
RTVSPost2010Prop57
140
1.0
102
RTVSPost2010PropOp57
 70
     0
  0
XRECORD
  5
446
102
{ACAD_REACTORS
330
445
102
}
330
445
100
AcDbXrecord
280
     1
102
RTVSPropertyOp0
 70
     1
102
RTVSPropertyOp1
 70
     1
102
RTVSPropertyOp2
 70
     1
102
RTVSPropertyOp3
 70
     1
102
RTVSPropertyOp4
 70
     1
102
RTVSPropertyOp5
 70
     1
102
RTVSPropertyOp6
 70
     1
102
RTVSPropertyOp7
 70
     1
102
RTVSPropertyOp8
 70
     1
102
RTVSPropertyOp9
 70
     1
102
RTVSPropertyOp10
 70
     1
102
RTVSPropertyOp11
 70
     1
102
RTVSPropertyOp12
 70
     1
102
RTVSPropertyOp13
 70
     1
102
RTVSPropertyOp14
 70
     1
102
RTVSPropertyOp15
 70
     1
102
RTVSPropertyOp16
 70
     1
102
RTVSPropertyOp17
 70
     1
102
RTVSPropertyOp18
 70
     1
102
RTVSPropertyOp19
 70
     1
102
RTVSPropertyOp20
 70
     1
102
RTVSPropertyOp21
 70
     1
102
RTVSPropertyOp22
 70
     1
102
RTVSPropertyOp23
 70
     1
102
RTVSPropertyOp24
 70
     1
102
RTVSPropertyOp25
 70
     1
102
RTVSPropertyOp26
 70
     1
102
RTVSPropertyOp27
 70
     1
102
RTVSPropertyOp28
 70
     1
102
RTVSPropertyOp29
 70
     1
102
RTVSPropertyOp30
 70
     1
102
RTVSPropertyOp31
 70
     1
102
RTVSPropertyOp32
 70
     1
102
RTVSPropertyOp33
 70
     1
102
RTVSPropertyOp34
 70
     1
102
RTVSPropertyOp35
 70
     1
102
RTVSPropertyOp36
 70
     1
102
RTVSPropertyOp37
 70
     1
102
RTVSPropertyOp38
 70
     1
102
RTVSPropertyOp39
 70
     1
102
RTVSPropertyOp40
 70
     1
102
RTVSPropertyOp41
 70
     1
102
RTVSPropertyOp42
 70
     1
102
RTVSPropertyOp43
 70
     1
102
RTVSPropertyOp44
 70
     1
102
RTVSPropertyOp45
 70
     1
102
RTVSPropertyOp46
 70
     1
102
RTVSPropertyOp47
 70
     1
102
RTVSPropertyOp48
 70
     1
102
RTVSPropertyOp49
 70
     1
102
RTVSPropertyOp50
 70
     1
102
RTVSPropertyOp51
 70
     0
102
RTVSPropertyOp52
 70
     0
102
RTVSPropertyOp53
 70
     1
102
RTVSPropertyOp54
 70
     1
102
RTVSPropertyOp55
 70
     1
102
RTVSPropertyOp56
 70
     1
102
RTVSPropertyOp57
 70
     1
102
RTVSPost2010Prop28
280
     0
102
RTVSPost2010PropOp28
 70
     1
102
RTVSPost2010Prop29
280
     1
102
RTVSPost2010PropOp29
 70
     1
102
RTVSPost2010Prop30
280
     1
102
RTVSPost2010PropOp30
 70
     1
102
RTVSPost2010Prop31
280
     0
102
RTVSPost2010PropOp31
 70
     1
102
RTVSPost2010Prop32
280
     0
102
RTVSPost2010PropOp32
 70
     1
102
RTVSPost2010Prop33
280
     0
102
RTVSPost2010PropOp33
 70
     1
102
RTVSPost2010Prop34
280
     0
102
RTVSPost2010PropOp34
 70
     1
102
RTVSPost2010Prop35
280
     0
102
RTVSPost2010PropOp35
 70
     1
102
RTVSPost2010Prop36
280
     0
102
RTVSPost2010PropOp36
 70
     1
102
RTVSPost2010Prop37
 90
       50
102
RTVSPost2010PropOp37
 70
     1
102
RTVSPost2010Prop38
140
0.0
102
RTVSPost2010PropOp38
 70
     1
102
RTVSPost2010Prop39
140
1.0
102
RTVSPost2010PropOp39
 70
     1
102
RTVSPost2010Prop40
 90
        0
102
RTVSPost2010PropOp40
 70
     1
102
RTVSPost2010Prop41ColorIndex
 90
       18
102
RTVSPost2010Prop41ColorRGB
 90
        0
102
RTVSPost2010PropOp41
 70
     1
102
RTVSPost2010Prop42
 90
       50
102
RTVSPost2010PropOp42
 70
     1
102
RTVSPost2010Prop43
 90
        3
102
RTVSPost2010PropOp43
 70
     1
102
RTVSPost2010Prop44ColorIndex
 90
        5
102
RTVSPost2010Prop44ColorRGB
 90
      255
102
RTVSPost2010PropOp44
 70
     1
102
RTVSPost2010Prop45
280
     0
102
RTVSPost2010PropOp45
 70
     1
102
RTVSPost2010Prop46
 90
       50
102
RTVSPost2010PropOp46
 70
     1
102
RTVSPost2010Prop47
 90
       50
102
RTVSPost2010PropOp47
 70
     1
102
RTVSPost2010Prop48
 90
       50
102
RTVSPost2010PropOp48
 70
     1
102
RTVSPost2010Prop49
280
     0
102
RTVSPost2010PropOp49
 70
     1
102
RTVSPost2010Prop50
 90
       50
102
RTVSPost2010PropOp50
 70
     1
102
RTVSPost2010Prop51ColorIndex
 90
      256
102
RTVSPost2010Prop51ColorRGB
 90
-16777216
102
RTVSPost2010PropOp51
 70
     0
102
RTVSPost2010Prop52
140
1.0
102
RTVSPost2010PropOp52
 70
     0
102
RTVSPost2010Prop53
 90
        2
102
RTVSPost2010PropOp53
 70
     1
102
RTVSPost2010Prop54
  1
strokes_ogs.tif
102
RTVSPost2010PropOp54
 70
     1
102
RTVSPost2010Prop55
280
     0
102
RTVSPost2010PropOp55
 70
     1
102
RTVSPost2010Prop56
140
1.0
102
RTVSPost2010PropOp56
 70
     1
102
RTVSPost2010Prop57
140
1.0
102
RTVSPost2010PropOp57
 70
     1
  0
XRECORD
  5
44E
102
{ACAD_REACTORS
330
44D
102
}
330
44D
100
AcDbXrecord
280
     1
102
RTVSPropertyOp0
 70
     0
102
RTVSPropertyOp1
 70
     0
102
RTVSPropertyOp2
 70
     0
102
RTVSPropertyOp3
 70
     0
102
RTVSPropertyOp4
 70
     0
102
RTVSPropertyOp5
 70
     0
102
RTVSPropertyOp6
 70
     0
102
RTVSPropertyOp7
 70
     0
102
RTVSPropertyOp8
 70
     0
102
RTVSPropertyOp9
 70
     0
102
RTVSPropertyOp10
 70
     0
102
RTVSPropertyOp11
 70
     0
102
RTVSPropertyOp12
 70
     0
102
RTVSPropertyOp13
 70
     0
102
RTVSPropertyOp14
 70
     2
102
RTVSPropertyOp15
 70
     0
102
RTVSPropertyOp16
 70
     0
102
RTVSPropertyOp17
 70
     0
102
RTVSPropertyOp18
 70
     0
102
RTVSPropertyOp19
 70
     0
102
RTVSPropertyOp20
 70
     0
102
RTVSPropertyOp21
 70
     0
102
RTVSPropertyOp22
 70
     0
102
RTVSPropertyOp23
 70
     0
102
RTVSPropertyOp24
 70
     0
102
RTVSPropertyOp25
 70
     0
102
RTVSPropertyOp26
 70
     0
102
RTVSPropertyOp27
 70
     0
102
RTVSPropertyOp28
 70
     0
102
RTVSPropertyOp29
 70
     0
102
RTVSPropertyOp30
 70
     0
102
RTVSPropertyOp31
 70
     0
102
RTVSPropertyOp32
 70
     0
102
RTVSPropertyOp33
 70
     0
102
RTVSPropertyOp34
 70
     0
102
RTVSPropertyOp35
 70
     0
102
RTVSPropertyOp36
 70
     0
102
RTVSPropertyOp37
 70
     0
102
RTVSPropertyOp38
 70
     0
102
RTVSPropertyOp39
 70
     0
102
RTVSPropertyOp40
 70
     0
102
RTVSPropertyOp41
 70
     0
102
RTVSPropertyOp42
 70
     0
102
RTVSPropertyOp43
 70
     0
102
RTVSPropertyOp44
 70
     0
102
RTVSPropertyOp45
 70
     0
102
RTVSPropertyOp46
 70
     0
102
RTVSPropertyOp47
 70
     0
102
RTVSPropertyOp48
 70
     0
102
RTVSPropertyOp49
 70
     0
102
RTVSPropertyOp50
 70
     0
102
RTVSPropertyOp51
 70
     0
102
RTVSPropertyOp52
 70
     0
102
RTVSPropertyOp53
 70
     0
102
RTVSPropertyOp54
 70
     0
102
RTVSPropertyOp55
 70
     0
102
RTVSPropertyOp56
 70
     0
102
RTVSPropertyOp57
 70
     0
102
RTVSPost2010Prop28
280
     0
102
RTVSPost2010PropOp28
 70
     0
102
RTVSPost2010Prop29
280
     1
102
RTVSPost2010PropOp29
 70
     0
102
RTVSPost2010Prop30
280
     1
102
RTVSPost2010PropOp30
 70
     0
102
RTVSPost2010Prop31
280
     0
102
RTVSPost2010PropOp31
 70
     0
102
RTVSPost2010Prop32
280
     0
102
RTVSPost2010PropOp32
 70
     0
102
RTVSPost2010Prop33
280
     0
102
RTVSPost2010PropOp33
 70
     0
102
RTVSPost2010Prop34
280
     0
102
RTVSPost2010PropOp34
 70
     0
102
RTVSPost2010Prop35
280
     0
102
RTVSPost2010PropOp35
 70
     0
102
RTVSPost2010Prop36
280
     0
102
RTVSPost2010PropOp36
 70
     0
102
RTVSPost2010Prop37
 90
       50
102
RTVSPost2010PropOp37
 70
     0
102
RTVSPost2010Prop38
140
0.0
102
RTVSPost2010PropOp38
 70
     0
102
RTVSPost2010Prop39
140
1.0
102
RTVSPost2010PropOp39
 70
     0
102
RTVSPost2010Prop40
 90
        0
102
RTVSPost2010PropOp40
 70
     0
102
RTVSPost2010Prop41ColorIndex
 90
       18
102
RTVSPost2010Prop41ColorRGB
 90
        0
102
RTVSPost2010PropOp41
 70
     0
102
RTVSPost2010Prop42
 90
       50
102
RTVSPost2010PropOp42
 70
     0
102
RTVSPost2010Prop43
 90
        3
102
RTVSPost2010PropOp43
 70
     0
102
RTVSPost2010Prop44ColorIndex
 90
        5
102
RTVSPost2010Prop44ColorRGB
 90
      255
102
RTVSPost2010PropOp44
 70
     0
102
RTVSPost2010Prop45
280
     0
102
RTVSPost2010PropOp45
 70
     0
102
RTVSPost2010Prop46
 90
       50
102
RTVSPost2010PropOp46
 70
     0
102
RTVSPost2010Prop47
 90
       50
102
RTVSPost2010PropOp47
 70
     0
102
RTVSPost2010Prop48
 90
       50
102
RTVSPost2010PropOp48
 70
     0
102
RTVSPost2010Prop49
280
     0
102
RTVSPost2010PropOp49
 70
     0
102
RTVSPost2010Prop50
 90
       50
102
RTVSPost2010PropOp50
 70
     0
102
RTVSPost2010Prop51ColorIndex
 90
      256
102
RTVSPost2010Prop51ColorRGB
 90
-16777216
102
RTVSPost2010PropOp51
 70
     0
102
RTVSPost2010Prop52
140
1.0
102
RTVSPost2010PropOp52
 70
     0
102
RTVSPost2010Prop53
 90
        2
102
RTVSPost2010PropOp53
 70
     0
102
RTVSPost2010Prop54
  1
strokes_ogs.tif
102
RTVSPost2010PropOp54
 70
     0
102
RTVSPost2010Prop55
280
     0
102
RTVSPost2010PropOp55
 70
     0
102
RTVSPost2010Prop56
140
1.0
102
RTVSPost2010PropOp56
 70
     0
102
RTVSPost2010Prop57
140
1.0
102
RTVSPost2010PropOp57
 70
     0
  0
XRECORD
  5
43C
102
{ACAD_REACTORS
330
43B
102
}
330
43B
100
AcDbXrecord
280
     1
102
RTVSPropertyOp0
 70
     1
102
RTVSPropertyOp1
 70
     1
102
RTVSPropertyOp2
 70
     1
102
RTVSPropertyOp3
 70
     1
102
RTVSPropertyOp4
 70
     1
102
RTVSPropertyOp5
 70
     1
102
RTVSPropertyOp6
 70
     1
102
RTVSPropertyOp7
 70
     1
102
RTVSPropertyOp8
 70
     1
102
RTVSPropertyOp9
 70
     1
102
RTVSPropertyOp10
 70
     1
102
RTVSPropertyOp11
 70
     1
102
RTVSPropertyOp12
 70
     1
102
RTVSPropertyOp13
 70
     1
102
RTVSPropertyOp14
 70
     1
102
RTVSPropertyOp15
 70
     1
102
RTVSPropertyOp16
 70
     1
102
RTVSPropertyOp17
 70
     1
102
RTVSPropertyOp18
 70
     1
102
RTVSPropertyOp19
 70
     1
102
RTVSPropertyOp20
 70
     1
102
RTVSPropertyOp21
 70
     1
102
RTVSPropertyOp22
 70
     1
102
RTVSPropertyOp23
 70
     1
102
RTVSPropertyOp24
 70
     1
102
RTVSPropertyOp25
 70
     1
102
RTVSPropertyOp26
 70
     1
102
RTVSPropertyOp27
 70
     1
102
RTVSPropertyOp28
 70
     1
102
RTVSPropertyOp29
 70
     1
102
RTVSPropertyOp30
 70
     1
102
RTVSPropertyOp31
 70
     1
102
RTVSPropertyOp32
 70
     1
102
RTVSPropertyOp33
 70
     1
102
RTVSPropertyOp34
 70
     1
102
RTVSPropertyOp35
 70
     1
102
RTVSPropertyOp36
 70
     1
102
RTVSPropertyOp37
 70
     1
102
RTVSPropertyOp38
 70
     1
102
RTVSPropertyOp39
 70
     1
102
RTVSPropertyOp40
 70
     1
102
RTVSPropertyOp41
 70
     1
102
RTVSPropertyOp42
 70
     1
102
RTVSPropertyOp43
 70
     1
102
RTVSPropertyOp44
 70
     1
102
RTVSPropertyOp45
 70
     1
102
RTVSPropertyOp46
 70
     1
102
RTVSPropertyOp47
 70
     1
102
RTVSPropertyOp48
 70
     1
102
RTVSPropertyOp49
 70
     1
102
RTVSPropertyOp50
 70
     1
102
RTVSPropertyOp51
 70
     0
102
RTVSPropertyOp52
 70
     0
102
RTVSPropertyOp53
 70
     1
102
RTVSPropertyOp54
 70
     1
102
RTVSPropertyOp55
 70
     1
102
RTVSPropertyOp56
 70
     1
102
RTVSPropertyOp57
 70
     1
102
RTVSPost2010Prop28
280
     0
102
RTVSPost2010PropOp28
 70
     1
102
RTVSPost2010Prop29
280
     1
102
RTVSPost2010PropOp29
 70
     1
102
RTVSPost2010Prop30
280
     1
102
RTVSPost2010PropOp30
 70
     1
102
RTVSPost2010Prop31
280
     0
102
RTVSPost2010PropOp31
 70
     1
102
RTVSPost2010Prop32
280
     0
102
RTVSPost2010PropOp32
 70
     1
102
RTVSPost2010Prop33
280
     0
102
RTVSPost2010PropOp33
 70
     1
102
RTVSPost2010Prop34
280
     0
102
RTVSPost2010PropOp34
 70
     1
102
RTVSPost2010Prop35
280
     0
102
RTVSPost2010PropOp35
 70
     1
102
RTVSPost2010Prop36
280
     0
102
RTVSPost2010PropOp36
 70
     1
102
RTVSPost2010Prop37
 90
       50
102
RTVSPost2010PropOp37
 70
     1
102
RTVSPost2010Prop38
140
0.0
102
RTVSPost2010PropOp38
 70
     1
102
RTVSPost2010Prop39
140
1.0
102
RTVSPost2010PropOp39
 70
     1
102
RTVSPost2010Prop40
 90
        0
102
RTVSPost2010PropOp40
 70
     1
102
RTVSPost2010Prop41ColorIndex
 90
       18
102
RTVSPost2010Prop41ColorRGB
 90
        0
102
RTVSPost2010PropOp41
 70
     1
102
RTVSPost2010Prop42
 90
       50
102
RTVSPost2010PropOp42
 70
     1
102
RTVSPost2010Prop43
 90
        3
102
RTVSPost2010PropOp43
 70
     1
102
RTVSPost2010Prop44ColorIndex
 90
        5
102
RTVSPost2010Prop44ColorRGB
 90
      255
102
RTVSPost2010PropOp44
 70
     1
102
RTVSPost2010Prop45
280
     0
102
RTVSPost2010PropOp45
 70
     1
102
RTVSPost2010Prop46
 90
       50
102
RTVSPost2010PropOp46
 70
     1
102
RTVSPost2010Prop47
 90
       50
102
RTVSPost2010PropOp47
 70
     1
102
RTVSPost2010Prop48
 90
       50
102
RTVSPost2010PropOp48
 70
     1
102
RTVSPost2010Prop49
280
     0
102
RTVSPost2010PropOp49
 70
     1
102
RTVSPost2010Prop50
 90
       50
102
RTVSPost2010PropOp50
 70
     1
102
RTVSPost2010Prop51ColorIndex
 90
      256
102
RTVSPost2010Prop51ColorRGB
 90
-16777216
102
RTVSPost2010PropOp51
 70
     0
102
RTVSPost2010Prop52
140
1.0
102
RTVSPost2010PropOp52
 70
     0
102
RTVSPost2010Prop53
 90
        2
102
RTVSPost2010PropOp53
 70
     1
102
RTVSPost2010Prop54
  1
strokes_ogs.tif
102
RTVSPost2010PropOp54
 70
     1
102
RTVSPost2010Prop55
280
     0
102
RTVSPost2010PropOp55
 70
     1
102
RTVSPost2010Prop56
140
1.0
102
RTVSPost2010PropOp56
 70
     1
102
RTVSPost2010Prop57
140
1.0
102
RTVSPost2010PropOp57
 70
     1
  0
XRECORD
  5
45A
102
{ACAD_REACTORS
330
459
102
}
330
459
100
AcDbXrecord
280
     1
102
RTVSPropertyOp0
 70
     1
102
RTVSPropertyOp1
 70
     1
102
RTVSPropertyOp2
 70
     1
102
RTVSPropertyOp3
 70
     1
102
RTVSPropertyOp4
 70
     1
102
RTVSPropertyOp5
 70
     1
102
RTVSPropertyOp6
 70
     1
102
RTVSPropertyOp7
 70
     1
102
RTVSPropertyOp8
 70
     1
102
RTVSPropertyOp9
 70
     1
102
RTVSPropertyOp10
 70
     1
102
RTVSPropertyOp11
 70
     1
102
RTVSPropertyOp12
 70
     1
102
RTVSPropertyOp13
 70
     1
102
RTVSPropertyOp14
 70
     1
102
RTVSPropertyOp15
 70
     1
102
RTVSPropertyOp16
 70
     1
102
RTVSPropertyOp17
 70
     1
102
RTVSPropertyOp18
 70
     1
102
RTVSPropertyOp19
 70
     1
102
RTVSPropertyOp20
 70
     1
102
RTVSPropertyOp21
 70
     1
102
RTVSPropertyOp22
 70
     1
102
RTVSPropertyOp23
 70
     1
102
RTVSPropertyOp24
 70
     1
102
RTVSPropertyOp25
 70
     1
102
RTVSPropertyOp26
 70
     1
102
RTVSPropertyOp27
 70
     1
102
RTVSPropertyOp28
 70
     1
102
RTVSPropertyOp29
 70
     1
102
RTVSPropertyOp30
 70
     1
102
RTVSPropertyOp31
 70
     1
102
RTVSPropertyOp32
 70
     1
102
RTVSPropertyOp33
 70
     1
102
RTVSPropertyOp34
 70
     1
102
RTVSPropertyOp35
 70
     1
102
RTVSPropertyOp36
 70
     1
102
RTVSPropertyOp37
 70
     1
102
RTVSPropertyOp38
 70
     1
102
RTVSPropertyOp39
 70
     1
102
RTVSPropertyOp40
 70
     1
102
RTVSPropertyOp41
 70
     1
102
RTVSPropertyOp42
 70
     1
102
RTVSPropertyOp43
 70
     1
102
RTVSPropertyOp44
 70
     1
102
RTVSPropertyOp45
 70
     1
102
RTVSPropertyOp46
 70
     1
102
RTVSPropertyOp47
 70
     1
102
RTVSPropertyOp48
 70
     1
102
RTVSPropertyOp49
 70
     1
102
RTVSPropertyOp50
 70
     1
102
RTVSPropertyOp51
 70
     0
102
RTVSPropertyOp52
 70
     0
102
RTVSPropertyOp53
 70
     1
102
RTVSPropertyOp54
 70
     1
102
RTVSPropertyOp55
 70
     1
102
RTVSPropertyOp56
 70
     1
102
RTVSPropertyOp57
 70
     1
102
RTVSPost2010Prop28
280
     0
102
RTVSPost2010PropOp28
 70
     1
102
RTVSPost2010Prop29
280
     1
102
RTVSPost2010PropOp29
 70
     1
102
RTVSPost2010Prop30
280
     1
102
RTVSPost2010PropOp30
 70
     1
102
RTVSPost2010Prop31
280
     0
102
RTVSPost2010PropOp31
 70
     1
102
RTVSPost2010Prop32
280
     0
102
RTVSPost2010PropOp32
 70
     1
102
RTVSPost2010Prop33
280
     0
102
RTVSPost2010PropOp33
 70
     1
102
RTVSPost2010Prop34
280
     0
102
RTVSPost2010PropOp34
 70
     1
102
RTVSPost2010Prop35
280
     0
102
RTVSPost2010PropOp35
 70
     1
102
RTVSPost2010Prop36
280
     0
102
RTVSPost2010PropOp36
 70
     1
102
RTVSPost2010Prop37
 90
       50
102
RTVSPost2010PropOp37
 70
     1
102
RTVSPost2010Prop38
140
0.0
102
RTVSPost2010PropOp38
 70
     1
102
RTVSPost2010Prop39
140
1.0
102
RTVSPost2010PropOp39
 70
     1
102
RTVSPost2010Prop40
 90
        0
102
RTVSPost2010PropOp40
 70
     1
102
RTVSPost2010Prop41ColorIndex
 90
       18
102
RTVSPost2010Prop41ColorRGB
 90
        0
102
RTVSPost2010PropOp41
 70
     1
102
RTVSPost2010Prop42
 90
       50
102
RTVSPost2010PropOp42
 70
     1
102
RTVSPost2010Prop43
 90
        3
102
RTVSPost2010PropOp43
 70
     1
102
RTVSPost2010Prop44ColorIndex
 90
        5
102
RTVSPost2010Prop44ColorRGB
 90
      255
102
RTVSPost2010PropOp44
 70
     1
102
RTVSPost2010Prop45
280
     0
102
RTVSPost2010PropOp45
 70
     1
102
RTVSPost2010Prop46
 90
       50
102
RTVSPost2010PropOp46
 70
     1
102
RTVSPost2010Prop47
 90
       50
102
RTVSPost2010PropOp47
 70
     1
102
RTVSPost2010Prop48
 90
       50
102
RTVSPost2010PropOp48
 70
     1
102
RTVSPost2010Prop49
280
     0
102
RTVSPost2010PropOp49
 70
     1
102
RTVSPost2010Prop50
 90
       50
102
RTVSPost2010PropOp50
 70
     1
102
RTVSPost2010Prop51ColorIndex
 90
      256
102
RTVSPost2010Prop51ColorRGB
 90
-16777216
102
RTVSPost2010PropOp51
 70
     0
102
RTVSPost2010Prop52
140
1.0
102
RTVSPost2010PropOp52
 70
     0
102
RTVSPost2010Prop53
 90
        2
102
RTVSPost2010PropOp53
 70
     1
102
RTVSPost2010Prop54
  1
strokes_ogs.tif
102
RTVSPost2010PropOp54
 70
     1
102
RTVSPost2010Prop55
280
     0
102
RTVSPost2010PropOp55
 70
     1
102
RTVSPost2010Prop56
140
1.0
102
RTVSPost2010PropOp56
 70
     1
102
RTVSPost2010Prop57
140
1.0
102
RTVSPost2010PropOp57
 70
     1
  0
XRECORD
  5
458
102
{ACAD_REACTORS
330
457
102
}
330
457
100
AcDbXrecord
280
     1
102
RTVSPropertyOp0
 70
     1
102
RTVSPropertyOp1
 70
     1
102
RTVSPropertyOp2
 70
     1
102
RTVSPropertyOp3
 70
     1
102
RTVSPropertyOp4
 70
     1
102
RTVSPropertyOp5
 70
     1
102
RTVSPropertyOp6
 70
     1
102
RTVSPropertyOp7
 70
     1
102
RTVSPropertyOp8
 70
     1
102
RTVSPropertyOp9
 70
     1
102
RTVSPropertyOp10
 70
     1
102
RTVSPropertyOp11
 70
     1
102
RTVSPropertyOp12
 70
     1
102
RTVSPropertyOp13
 70
     1
102
RTVSPropertyOp14
 70
     1
102
RTVSPropertyOp15
 70
     1
102
RTVSPropertyOp16
 70
     1
102
RTVSPropertyOp17
 70
     1
102
RTVSPropertyOp18
 70
     1
102
RTVSPropertyOp19
 70
     1
102
RTVSPropertyOp20
 70
     1
102
RTVSPropertyOp21
 70
     1
102
RTVSPropertyOp22
 70
     1
102
RTVSPropertyOp23
 70
     1
102
RTVSPropertyOp24
 70
     1
102
RTVSPropertyOp25
 70
     1
102
RTVSPropertyOp26
 70
     1
102
RTVSPropertyOp27
 70
     1
102
RTVSPropertyOp28
 70
     1
102
RTVSPropertyOp29
 70
     1
102
RTVSPropertyOp30
 70
     1
102
RTVSPropertyOp31
 70
     1
102
RTVSPropertyOp32
 70
     1
102
RTVSPropertyOp33
 70
     1
102
RTVSPropertyOp34
 70
     1
102
RTVSPropertyOp35
 70
     1
102
RTVSPropertyOp36
 70
     1
102
RTVSPropertyOp37
 70
     1
102
RTVSPropertyOp38
 70
     1
102
RTVSPropertyOp39
 70
     1
102
RTVSPropertyOp40
 70
     1
102
RTVSPropertyOp41
 70
     1
102
RTVSPropertyOp42
 70
     1
102
RTVSPropertyOp43
 70
     1
102
RTVSPropertyOp44
 70
     1
102
RTVSPropertyOp45
 70
     1
102
RTVSPropertyOp46
 70
     1
102
RTVSPropertyOp47
 70
     1
102
RTVSPropertyOp48
 70
     1
102
RTVSPropertyOp49
 70
     1
102
RTVSPropertyOp50
 70
     1
102
RTVSPropertyOp51
 70
     0
102
RTVSPropertyOp52
 70
     0
102
RTVSPropertyOp53
 70
     1
102
RTVSPropertyOp54
 70
     1
102
RTVSPropertyOp55
 70
     1
102
RTVSPropertyOp56
 70
     1
102
RTVSPropertyOp57
 70
     1
102
RTVSPost2010Prop28
280
     0
102
RTVSPost2010PropOp28
 70
     1
102
RTVSPost2010Prop29
280
     1
102
RTVSPost2010PropOp29
 70
     1
102
RTVSPost2010Prop30
280
     1
102
RTVSPost2010PropOp30
 70
     1
102
RTVSPost2010Prop31
280
     0
102
RTVSPost2010PropOp31
 70
     1
102
RTVSPost2010Prop32
280
     0
102
RTVSPost2010PropOp32
 70
     1
102
RTVSPost2010Prop33
280
     0
102
RTVSPost2010PropOp33
 70
     1
102
RTVSPost2010Prop34
280
     0
102
RTVSPost2010PropOp34
 70
     1
102
RTVSPost2010Prop35
280
     0
102
RTVSPost2010PropOp35
 70
     1
102
RTVSPost2010Prop36
280
     0
102
RTVSPost2010PropOp36
 70
     1
102
RTVSPost2010Prop37
 90
       50
102
RTVSPost2010PropOp37
 70
     1
102
RTVSPost2010Prop38
140
0.0
102
RTVSPost2010PropOp38
 70
     1
102
RTVSPost2010Prop39
140
1.0
102
RTVSPost2010PropOp39
 70
     1
102
RTVSPost2010Prop40
 90
        0
102
RTVSPost2010PropOp40
 70
     1
102
RTVSPost2010Prop41ColorIndex
 90
       18
102
RTVSPost2010Prop41ColorRGB
 90
        0
102
RTVSPost2010PropOp41
 70
     1
102
RTVSPost2010Prop42
 90
       50
102
RTVSPost2010PropOp42
 70
     1
102
RTVSPost2010Prop43
 90
        3
102
RTVSPost2010PropOp43
 70
     1
102
RTVSPost2010Prop44ColorIndex
 90
        5
102
RTVSPost2010Prop44ColorRGB
 90
      255
102
RTVSPost2010PropOp44
 70
     1
102
RTVSPost2010Prop45
280
     0
102
RTVSPost2010PropOp45
 70
     1
102
RTVSPost2010Prop46
 90
       50
102
RTVSPost2010PropOp46
 70
     1
102
RTVSPost2010Prop47
 90
       50
102
RTVSPost2010PropOp47
 70
     1
102
RTVSPost2010Prop48
 90
       50
102
RTVSPost2010PropOp48
 70
     1
102
RTVSPost2010Prop49
280
     0
102
RTVSPost2010PropOp49
 70
     1
102
RTVSPost2010Prop50
 90
       50
102
RTVSPost2010PropOp50
 70
     1
102
RTVSPost2010Prop51ColorIndex
 90
      256
102
RTVSPost2010Prop51ColorRGB
 90
-16777216
102
RTVSPost2010PropOp51
 70
     0
102
RTVSPost2010Prop52
140
1.0
102
RTVSPost2010PropOp52
 70
     0
102
RTVSPost2010Prop53
 90
        2
102
RTVSPost2010PropOp53
 70
     1
102
RTVSPost2010Prop54
  1
strokes_ogs.tif
102
RTVSPost2010PropOp54
 70
     1
102
RTVSPost2010Prop55
280
     0
102
RTVSPost2010PropOp55
 70
     1
102
RTVSPost2010Prop56
140
1.0
102
RTVSPost2010PropOp56
 70
     1
102
RTVSPost2010Prop57
140
1.0
102
RTVSPost2010PropOp57
 70
     1
  0
XRECORD
  5
452
102
{ACAD_REACTORS
330
451
102
}
330
451
100
AcDbXrecord
280
     1
102
RTVSPropertyOp0
 70
     1
102
RTVSPropertyOp1
 70
     1
102
RTVSPropertyOp2
 70
     1
102
RTVSPropertyOp3
 70
     1
102
RTVSPropertyOp4
 70
     1
102
RTVSPropertyOp5
 70
     1
102
RTVSPropertyOp6
 70
     1
102
RTVSPropertyOp7
 70
     1
102
RTVSPropertyOp8
 70
     1
102
RTVSPropertyOp9
 70
     1
102
RTVSPropertyOp10
 70
     1
102
RTVSPropertyOp11
 70
     1
102
RTVSPropertyOp12
 70
     1
102
RTVSPropertyOp13
 70
     1
102
RTVSPropertyOp14
 70
     1
102
RTVSPropertyOp15
 70
     1
102
RTVSPropertyOp16
 70
     1
102
RTVSPropertyOp17
 70
     1
102
RTVSPropertyOp18
 70
     1
102
RTVSPropertyOp19
 70
     1
102
RTVSPropertyOp20
 70
     1
102
RTVSPropertyOp21
 70
     1
102
RTVSPropertyOp22
 70
     1
102
RTVSPropertyOp23
 70
     1
102
RTVSPropertyOp24
 70
     1
102
RTVSPropertyOp25
 70
     1
102
RTVSPropertyOp26
 70
     1
102
RTVSPropertyOp27
 70
     1
102
RTVSPropertyOp28
 70
     1
102
RTVSPropertyOp29
 70
     1
102
RTVSPropertyOp30
 70
     1
102
RTVSPropertyOp31
 70
     1
102
RTVSPropertyOp32
 70
     1
102
RTVSPropertyOp33
 70
     1
102
RTVSPropertyOp34
 70
     1
102
RTVSPropertyOp35
 70
     1
102
RTVSPropertyOp36
 70
     1
102
RTVSPropertyOp37
 70
     1
102
RTVSPropertyOp38
 70
     1
102
RTVSPropertyOp39
 70
     1
102
RTVSPropertyOp40
 70
     1
102
RTVSPropertyOp41
 70
     1
102
RTVSPropertyOp42
 70
     1
102
RTVSPropertyOp43
 70
     1
102
RTVSPropertyOp44
 70
     1
102
RTVSPropertyOp45
 70
     1
102
RTVSPropertyOp46
 70
     1
102
RTVSPropertyOp47
 70
     1
102
RTVSPropertyOp48
 70
     1
102
RTVSPropertyOp49
 70
     1
102
RTVSPropertyOp50
 70
     1
102
RTVSPropertyOp51
 70
     0
102
RTVSPropertyOp52
 70
     0
102
RTVSPropertyOp53
 70
     1
102
RTVSPropertyOp54
 70
     1
102
RTVSPropertyOp55
 70
     1
102
RTVSPropertyOp56
 70
     1
102
RTVSPropertyOp57
 70
     1
102
RTVSPost2010Prop28
280
     0
102
RTVSPost2010PropOp28
 70
     1
102
RTVSPost2010Prop29
280
     1
102
RTVSPost2010PropOp29
 70
     1
102
RTVSPost2010Prop30
280
     1
102
RTVSPost2010PropOp30
 70
     1
102
RTVSPost2010Prop31
280
     0
102
RTVSPost2010PropOp31
 70
     1
102
RTVSPost2010Prop32
280
     0
102
RTVSPost2010PropOp32
 70
     1
102
RTVSPost2010Prop33
280
     0
102
RTVSPost2010PropOp33
 70
     1
102
RTVSPost2010Prop34
280
     0
102
RTVSPost2010PropOp34
 70
     1
102
RTVSPost2010Prop35
280
     0
102
RTVSPost2010PropOp35
 70
     1
102
RTVSPost2010Prop36
280
     0
102
RTVSPost2010PropOp36
 70
     1
102
RTVSPost2010Prop37
 90
       50
102
RTVSPost2010PropOp37
 70
     1
102
RTVSPost2010Prop38
140
0.0
102
RTVSPost2010PropOp38
 70
     1
102
RTVSPost2010Prop39
140
1.0
102
RTVSPost2010PropOp39
 70
     1
102
RTVSPost2010Prop40
 90
        0
102
RTVSPost2010PropOp40
 70
     1
102
RTVSPost2010Prop41ColorIndex
 90
       18
102
RTVSPost2010Prop41ColorRGB
 90
        0
102
RTVSPost2010PropOp41
 70
     1
102
RTVSPost2010Prop42
 90
       50
102
RTVSPost2010PropOp42
 70
     1
102
RTVSPost2010Prop43
 90
        3
102
RTVSPost2010PropOp43
 70
     1
102
RTVSPost2010Prop44ColorIndex
 90
        5
102
RTVSPost2010Prop44ColorRGB
 90
      255
102
RTVSPost2010PropOp44
 70
     1
102
RTVSPost2010Prop45
280
     0
102
RTVSPost2010PropOp45
 70
     1
102
RTVSPost2010Prop46
 90
       50
102
RTVSPost2010PropOp46
 70
     1
102
RTVSPost2010Prop47
 90
       50
102
RTVSPost2010PropOp47
 70
     1
102
RTVSPost2010Prop48
 90
       50
102
RTVSPost2010PropOp48
 70
     1
102
RTVSPost2010Prop49
280
     0
102
RTVSPost2010PropOp49
 70
     1
102
RTVSPost2010Prop50
 90
       50
102
RTVSPost2010PropOp50
 70
     1
102
RTVSPost2010Prop51ColorIndex
 90
      256
102
RTVSPost2010Prop51ColorRGB
 90
-16777216
102
RTVSPost2010PropOp51
 70
     0
102
RTVSPost2010Prop52
140
1.0
102
RTVSPost2010PropOp52
 70
     0
102
RTVSPost2010Prop53
 90
        2
102
RTVSPost2010PropOp53
 70
     1
102
RTVSPost2010Prop54
  1
strokes_ogs.tif
102
RTVSPost2010PropOp54
 70
     1
102
RTVSPost2010Prop55
280
     0
102
RTVSPost2010PropOp55
 70
     1
102
RTVSPost2010Prop56
140
1.0
102
RTVSPost2010PropOp56
 70
     1
102
RTVSPost2010Prop57
140
1.0
102
RTVSPost2010PropOp57
 70
     1
  0
XRECORD
  5
454
102
{ACAD_REACTORS
330
453
102
}
330
453
100
AcDbXrecord
280
     1
102
RTVSPropertyOp0
 70
     1
102
RTVSPropertyOp1
 70
     1
102
RTVSPropertyOp2
 70
     1
102
RTVSPropertyOp3
 70
     1
102
RTVSPropertyOp4
 70
     1
102
RTVSPropertyOp5
 70
     1
102
RTVSPropertyOp6
 70
     1
102
RTVSPropertyOp7
 70
     1
102
RTVSPropertyOp8
 70
     1
102
RTVSPropertyOp9
 70
     1
102
RTVSPropertyOp10
 70
     1
102
RTVSPropertyOp11
 70
     1
102
RTVSPropertyOp12
 70
     1
102
RTVSPropertyOp13
 70
     1
102
RTVSPropertyOp14
 70
     1
102
RTVSPropertyOp15
 70
     1
102
RTVSPropertyOp16
 70
     1
102
RTVSPropertyOp17
 70
     1
102
RTVSPropertyOp18
 70
     1
102
RTVSPropertyOp19
 70
     1
102
RTVSPropertyOp20
 70
     1
102
RTVSPropertyOp21
 70
     1
102
RTVSPropertyOp22
 70
     1
102
RTVSPropertyOp23
 70
     1
102
RTVSPropertyOp24
 70
     1
102
RTVSPropertyOp25
 70
     1
102
RTVSPropertyOp26
 70
     1
102
RTVSPropertyOp27
 70
     1
102
RTVSPropertyOp28
 70
     1
102
RTVSPropertyOp29
 70
     1
102
RTVSPropertyOp30
 70
     1
102
RTVSPropertyOp31
 70
     1
102
RTVSPropertyOp32
 70
     1
102
RTVSPropertyOp33
 70
     1
102
RTVSPropertyOp34
 70
     1
102
RTVSPropertyOp35
 70
     1
102
RTVSPropertyOp36
 70
     1
102
RTVSPropertyOp37
 70
     1
102
RTVSPropertyOp38
 70
     1
102
RTVSPropertyOp39
 70
     1
102
RTVSPropertyOp40
 70
     1
102
RTVSPropertyOp41
 70
     1
102
RTVSPropertyOp42
 70
     1
102
RTVSPropertyOp43
 70
     1
102
RTVSPropertyOp44
 70
     1
102
RTVSPropertyOp45
 70
     1
102
RTVSPropertyOp46
 70
     1
102
RTVSPropertyOp47
 70
     1
102
RTVSPropertyOp48
 70
     1
102
RTVSPropertyOp49
 70
     1
102
RTVSPropertyOp50
 70
     1
102
RTVSPropertyOp51
 70
     0
102
RTVSPropertyOp52
 70
     0
102
RTVSPropertyOp53
 70
     1
102
RTVSPropertyOp54
 70
     1
102
RTVSPropertyOp55
 70
     1
102
RTVSPropertyOp56
 70
     1
102
RTVSPropertyOp57
 70
     1
102
RTVSPost2010Prop28
280
     0
102
RTVSPost2010PropOp28
 70
     1
102
RTVSPost2010Prop29
280
     1
102
RTVSPost2010PropOp29
 70
     1
102
RTVSPost2010Prop30
280
     1
102
RTVSPost2010PropOp30
 70
     1
102
RTVSPost2010Prop31
280
     0
102
RTVSPost2010PropOp31
 70
     1
102
RTVSPost2010Prop32
280
     0
102
RTVSPost2010PropOp32
 70
     1
102
RTVSPost2010Prop33
280
     0
102
RTVSPost2010PropOp33
 70
     1
102
RTVSPost2010Prop34
280
     0
102
RTVSPost2010PropOp34
 70
     1
102
RTVSPost2010Prop35
280
     0
102
RTVSPost2010PropOp35
 70
     1
102
RTVSPost2010Prop36
280
     0
102
RTVSPost2010PropOp36
 70
     1
102
RTVSPost2010Prop37
 90
       50
102
RTVSPost2010PropOp37
 70
     1
102
RTVSPost2010Prop38
140
0.0
102
RTVSPost2010PropOp38
 70
     1
102
RTVSPost2010Prop39
140
1.0
102
RTVSPost2010PropOp39
 70
     1
102
RTVSPost2010Prop40
 90
        0
102
RTVSPost2010PropOp40
 70
     1
102
RTVSPost2010Prop41ColorIndex
 90
       18
102
RTVSPost2010Prop41ColorRGB
 90
        0
102
RTVSPost2010PropOp41
 70
     1
102
RTVSPost2010Prop42
 90
       50
102
RTVSPost2010PropOp42
 70
     1
102
RTVSPost2010Prop43
 90
        3
102
RTVSPost2010PropOp43
 70
     1
102
RTVSPost2010Prop44ColorIndex
 90
        5
102
RTVSPost2010Prop44ColorRGB
 90
      255
102
RTVSPost2010PropOp44
 70
     1
102
RTVSPost2010Prop45
280
     0
102
RTVSPost2010PropOp45
 70
     1
102
RTVSPost2010Prop46
 90
       50
102
RTVSPost2010PropOp46
 70
     1
102
RTVSPost2010Prop47
 90
       50
102
RTVSPost2010PropOp47
 70
     1
102
RTVSPost2010Prop48
 90
       50
102
RTVSPost2010PropOp48
 70
     1
102
RTVSPost2010Prop49
280
     0
102
RTVSPost2010PropOp49
 70
     1
102
RTVSPost2010Prop50
 90
       50
102
RTVSPost2010PropOp50
 70
     1
102
RTVSPost2010Prop51ColorIndex
 90
      256
102
RTVSPost2010Prop51ColorRGB
 90
-16777216
102
RTVSPost2010PropOp51
 70
     0
102
RTVSPost2010Prop52
140
1.0
102
RTVSPost2010PropOp52
 70
     0
102
RTVSPost2010Prop53
 90
        2
102
RTVSPost2010PropOp53
 70
     1
102
RTVSPost2010Prop54
  1
strokes_ogs.tif
102
RTVSPost2010PropOp54
 70
     1
102
RTVSPost2010Prop55
280
     0
102
RTVSPost2010PropOp55
 70
     1
102
RTVSPost2010Prop56
140
1.0
102
RTVSPost2010PropOp56
 70
     1
102
RTVSPost2010Prop57
140
1.0
102
RTVSPost2010PropOp57
 70
     1
  0
XRECORD
  5
444
102
{ACAD_REACTORS
330
443
102
}
330
443
100
AcDbXrecord
280
     1
102
RTVSPropertyOp0
 70
     1
102
RTVSPropertyOp1
 70
     1
102
RTVSPropertyOp2
 70
     1
102
RTVSPropertyOp3
 70
     1
102
RTVSPropertyOp4
 70
     1
102
RTVSPropertyOp5
 70
     1
102
RTVSPropertyOp6
 70
     1
102
RTVSPropertyOp7
 70
     1
102
RTVSPropertyOp8
 70
     1
102
RTVSPropertyOp9
 70
     1
102
RTVSPropertyOp10
 70
     1
102
RTVSPropertyOp11
 70
     1
102
RTVSPropertyOp12
 70
     1
102
RTVSPropertyOp13
 70
     1
102
RTVSPropertyOp14
 70
     1
102
RTVSPropertyOp15
 70
     1
102
RTVSPropertyOp16
 70
     1
102
RTVSPropertyOp17
 70
     1
102
RTVSPropertyOp18
 70
     1
102
RTVSPropertyOp19
 70
     1
102
RTVSPropertyOp20
 70
     1
102
RTVSPropertyOp21
 70
     1
102
RTVSPropertyOp22
 70
     1
102
RTVSPropertyOp23
 70
     1
102
RTVSPropertyOp24
 70
     1
102
RTVSPropertyOp25
 70
     1
102
RTVSPropertyOp26
 70
     1
102
RTVSPropertyOp27
 70
     1
102
RTVSPropertyOp28
 70
     1
102
RTVSPropertyOp29
 70
     1
102
RTVSPropertyOp30
 70
     1
102
RTVSPropertyOp31
 70
     1
102
RTVSPropertyOp32
 70
     1
102
RTVSPropertyOp33
 70
     1
102
RTVSPropertyOp34
 70
     1
102
RTVSPropertyOp35
 70
     1
102
RTVSPropertyOp36
 70
     1
102
RTVSPropertyOp37
 70
     1
102
RTVSPropertyOp38
 70
     1
102
RTVSPropertyOp39
 70
     1
102
RTVSPropertyOp40
 70
     1
102
RTVSPropertyOp41
 70
     1
102
RTVSPropertyOp42
 70
     1
102
RTVSPropertyOp43
 70
     1
102
RTVSPropertyOp44
 70
     1
102
RTVSPropertyOp45
 70
     1
102
RTVSPropertyOp46
 70
     1
102
RTVSPropertyOp47
 70
     1
102
RTVSPropertyOp48
 70
     1
102
RTVSPropertyOp49
 70
     1
102
RTVSPropertyOp50
 70
     1
102
RTVSPropertyOp51
 70
     0
102
RTVSPropertyOp52
 70
     0
102
RTVSPropertyOp53
 70
     1
102
RTVSPropertyOp54
 70
     1
102
RTVSPropertyOp55
 70
     1
102
RTVSPropertyOp56
 70
     1
102
RTVSPropertyOp57
 70
     1
102
RTVSPost2010Prop28
280
     0
102
RTVSPost2010PropOp28
 70
     1
102
RTVSPost2010Prop29
280
     1
102
RTVSPost2010PropOp29
 70
     1
102
RTVSPost2010Prop30
280
     1
102
RTVSPost2010PropOp30
 70
     1
102
RTVSPost2010Prop31
280
     0
102
RTVSPost2010PropOp31
 70
     1
102
RTVSPost2010Prop32
280
     0
102
RTVSPost2010PropOp32
 70
     1
102
RTVSPost2010Prop33
280
     0
102
RTVSPost2010PropOp33
 70
     1
102
RTVSPost2010Prop34
280
     0
102
RTVSPost2010PropOp34
 70
     1
102
RTVSPost2010Prop35
280
     0
102
RTVSPost2010PropOp35
 70
     1
102
RTVSPost2010Prop36
280
     0
102
RTVSPost2010PropOp36
 70
     1
102
RTVSPost2010Prop37
 90
       50
102
RTVSPost2010PropOp37
 70
     1
102
RTVSPost2010Prop38
140
0.0
102
RTVSPost2010PropOp38
 70
     1
102
RTVSPost2010Prop39
140
1.0
102
RTVSPost2010PropOp39
 70
     1
102
RTVSPost2010Prop40
 90
        0
102
RTVSPost2010PropOp40
 70
     1
102
RTVSPost2010Prop41ColorIndex
 90
       18
102
RTVSPost2010Prop41ColorRGB
 90
        0
102
RTVSPost2010PropOp41
 70
     1
102
RTVSPost2010Prop42
 90
       50
102
RTVSPost2010PropOp42
 70
     1
102
RTVSPost2010Prop43
 90
        3
102
RTVSPost2010PropOp43
 70
     1
102
RTVSPost2010Prop44ColorIndex
 90
        5
102
RTVSPost2010Prop44ColorRGB
 90
      255
102
RTVSPost2010PropOp44
 70
     1
102
RTVSPost2010Prop45
280
     0
102
RTVSPost2010PropOp45
 70
     1
102
RTVSPost2010Prop46
 90
       50
102
RTVSPost2010PropOp46
 70
     1
102
RTVSPost2010Prop47
 90
       50
102
RTVSPost2010PropOp47
 70
     1
102
RTVSPost2010Prop48
 90
       50
102
RTVSPost2010PropOp48
 70
     1
102
RTVSPost2010Prop49
280
     0
102
RTVSPost2010PropOp49
 70
     1
102
RTVSPost2010Prop50
 90
       50
102
RTVSPost2010PropOp50
 70
     1
102
RTVSPost2010Prop51ColorIndex
 90
      256
102
RTVSPost2010Prop51ColorRGB
 90
-16777216
102
RTVSPost2010PropOp51
 70
     0
102
RTVSPost2010Prop52
140
1.0
102
RTVSPost2010PropOp52
 70
     0
102
RTVSPost2010Prop53
 90
        2
102
RTVSPost2010PropOp53
 70
     1
102
RTVSPost2010Prop54
  1
strokes_ogs.tif
102
RTVSPost2010PropOp54
 70
     1
102
RTVSPost2010Prop55
280
     0
102
RTVSPost2010PropOp55
 70
     1
102
RTVSPost2010Prop56
140
1.0
102
RTVSPost2010PropOp56
 70
     1
102
RTVSPost2010Prop57
140
1.0
102
RTVSPost2010PropOp57
 70
     1
  0
XRECORD
  5
436
102
{ACAD_REACTORS
330
435
102
}
330
435
100
AcDbXrecord
280
     1
102
RTVSPropertyOp0
 70
     1
102
RTVSPropertyOp1
 70
     1
102
RTVSPropertyOp2
 70
     1
102
RTVSPropertyOp3
 70
     1
102
RTVSPropertyOp4
 70
     1
102
RTVSPropertyOp5
 70
     1
102
RTVSPropertyOp6
 70
     1
102
RTVSPropertyOp7
 70
     1
102
RTVSPropertyOp8
 70
     1
102
RTVSPropertyOp9
 70
     1
102
RTVSPropertyOp10
 70
     1
102
RTVSPropertyOp11
 70
     1
102
RTVSPropertyOp12
 70
     1
102
RTVSPropertyOp13
 70
     1
102
RTVSPropertyOp14
 70
     1
102
RTVSPropertyOp15
 70
     1
102
RTVSPropertyOp16
 70
     1
102
RTVSPropertyOp17
 70
     1
102
RTVSPropertyOp18
 70
     1
102
RTVSPropertyOp19
 70
     1
102
RTVSPropertyOp20
 70
     1
102
RTVSPropertyOp21
 70
     1
102
RTVSPropertyOp22
 70
     1
102
RTVSPropertyOp23
 70
     1
102
RTVSPropertyOp24
 70
     1
102
RTVSPropertyOp25
 70
     1
102
RTVSPropertyOp26
 70
     1
102
RTVSPropertyOp27
 70
     1
102
RTVSPropertyOp28
 70
     1
102
RTVSPropertyOp29
 70
     1
102
RTVSPropertyOp30
 70
     1
102
RTVSPropertyOp31
 70
     1
102
RTVSPropertyOp32
 70
     1
102
RTVSPropertyOp33
 70
     1
102
RTVSPropertyOp34
 70
     1
102
RTVSPropertyOp35
 70
     1
102
RTVSPropertyOp36
 70
     1
102
RTVSPropertyOp37
 70
     1
102
RTVSPropertyOp38
 70
     1
102
RTVSPropertyOp39
 70
     1
102
RTVSPropertyOp40
 70
     1
102
RTVSPropertyOp41
 70
     1
102
RTVSPropertyOp42
 70
     1
102
RTVSPropertyOp43
 70
     1
102
RTVSPropertyOp44
 70
     1
102
RTVSPropertyOp45
 70
     1
102
RTVSPropertyOp46
 70
     1
102
RTVSPropertyOp47
 70
     1
102
RTVSPropertyOp48
 70
     1
102
RTVSPropertyOp49
 70
     1
102
RTVSPropertyOp50
 70
     1
102
RTVSPropertyOp51
 70
     0
102
RTVSPropertyOp52
 70
     0
102
RTVSPropertyOp53
 70
     1
102
RTVSPropertyOp54
 70
     1
102
RTVSPropertyOp55
 70
     1
102
RTVSPropertyOp56
 70
     1
102
RTVSPropertyOp57
 70
     1
102
RTVSPost2010Prop28
280
     0
102
RTVSPost2010PropOp28
 70
     1
102
RTVSPost2010Prop29
280
     1
102
RTVSPost2010PropOp29
 70
     1
102
RTVSPost2010Prop30
280
     1
102
RTVSPost2010PropOp30
 70
     1
102
RTVSPost2010Prop31
280
     0
102
RTVSPost2010PropOp31
 70
     1
102
RTVSPost2010Prop32
280
     0
102
RTVSPost2010PropOp32
 70
     1
102
RTVSPost2010Prop33
280
     0
102
RTVSPost2010PropOp33
 70
     1
102
RTVSPost2010Prop34
280
     0
102
RTVSPost2010PropOp34
 70
     1
102
RTVSPost2010Prop35
280
     0
102
RTVSPost2010PropOp35
 70
     1
102
RTVSPost2010Prop36
280
     0
102
RTVSPost2010PropOp36
 70
     1
102
RTVSPost2010Prop37
 90
       50
102
RTVSPost2010PropOp37
 70
     1
102
RTVSPost2010Prop38
140
0.0
102
RTVSPost2010PropOp38
 70
     1
102
RTVSPost2010Prop39
140
1.0
102
RTVSPost2010PropOp39
 70
     1
102
RTVSPost2010Prop40
 90
        0
102
RTVSPost2010PropOp40
 70
     1
102
RTVSPost2010Prop41ColorIndex
 90
       18
102
RTVSPost2010Prop41ColorRGB
 90
        0
102
RTVSPost2010PropOp41
 70
     1
102
RTVSPost2010Prop42
 90
       50
102
RTVSPost2010PropOp42
 70
     1
102
RTVSPost2010Prop43
 90
        3
102
RTVSPost2010PropOp43
 70
     1
102
RTVSPost2010Prop44ColorIndex
 90
        5
102
RTVSPost2010Prop44ColorRGB
 90
      255
102
RTVSPost2010PropOp44
 70
     1
102
RTVSPost2010Prop45
280
     0
102
RTVSPost2010PropOp45
 70
     1
102
RTVSPost2010Prop46
 90
       50
102
RTVSPost2010PropOp46
 70
     1
102
RTVSPost2010Prop47
 90
       50
102
RTVSPost2010PropOp47
 70
     1
102
RTVSPost2010Prop48
 90
       50
102
RTVSPost2010PropOp48
 70
     1
102
RTVSPost2010Prop49
280
     0
102
RTVSPost2010PropOp49
 70
     1
102
RTVSPost2010Prop50
 90
       50
102
RTVSPost2010PropOp50
 70
     1
102
RTVSPost2010Prop51ColorIndex
 90
      256
102
RTVSPost2010Prop51ColorRGB
 90
-16777216
102
RTVSPost2010PropOp51
 70
     0
102
RTVSPost2010Prop52
140
1.0
102
RTVSPost2010PropOp52
 70
     0
102
RTVSPost2010Prop53
 90
        2
102
RTVSPost2010PropOp53
 70
     1
102
RTVSPost2010Prop54
  1
strokes_ogs.tif
102
RTVSPost2010PropOp54
 70
     1
102
RTVSPost2010Prop55
280
     0
102
RTVSPost2010PropOp55
 70
     1
102
RTVSPost2010Prop56
140
1.0
102
RTVSPost2010PropOp56
 70
     1
102
RTVSPost2010Prop57
140
1.0
102
RTVSPost2010PropOp57
 70
     1
  0
XRECORD
  5
456
102
{ACAD_REACTORS
330
455
102
}
330
455
100
AcDbXrecord
280
     1
102
RTVSPropertyOp0
 70
     1
102
RTVSPropertyOp1
 70
     1
102
RTVSPropertyOp2
 70
     1
102
RTVSPropertyOp3
 70
     1
102
RTVSPropertyOp4
 70
     1
102
RTVSPropertyOp5
 70
     1
102
RTVSPropertyOp6
 70
     1
102
RTVSPropertyOp7
 70
     1
102
RTVSPropertyOp8
 70
     1
102
RTVSPropertyOp9
 70
     1
102
RTVSPropertyOp10
 70
     1
102
RTVSPropertyOp11
 70
     1
102
RTVSPropertyOp12
 70
     1
102
RTVSPropertyOp13
 70
     1
102
RTVSPropertyOp14
 70
     1
102
RTVSPropertyOp15
 70
     1
102
RTVSPropertyOp16
 70
     1
102
RTVSPropertyOp17
 70
     1
102
RTVSPropertyOp18
 70
     1
102
RTVSPropertyOp19
 70
     1
102
RTVSPropertyOp20
 70
     1
102
RTVSPropertyOp21
 70
     1
102
RTVSPropertyOp22
 70
     1
102
RTVSPropertyOp23
 70
     1
102
RTVSPropertyOp24
 70
     1
102
RTVSPropertyOp25
 70
     1
102
RTVSPropertyOp26
 70
     1
102
RTVSPropertyOp27
 70
     1
102
RTVSPropertyOp28
 70
     1
102
RTVSPropertyOp29
 70
     1
102
RTVSPropertyOp30
 70
     1
102
RTVSPropertyOp31
 70
     1
102
RTVSPropertyOp32
 70
     1
102
RTVSPropertyOp33
 70
     1
102
RTVSPropertyOp34
 70
     1
102
RTVSPropertyOp35
 70
     1
102
RTVSPropertyOp36
 70
     1
102
RTVSPropertyOp37
 70
     1
102
RTVSPropertyOp38
 70
     1
102
RTVSPropertyOp39
 70
     1
102
RTVSPropertyOp40
 70
     1
102
RTVSPropertyOp41
 70
     1
102
RTVSPropertyOp42
 70
     1
102
RTVSPropertyOp43
 70
     1
102
RTVSPropertyOp44
 70
     1
102
RTVSPropertyOp45
 70
     1
102
RTVSPropertyOp46
 70
     1
102
RTVSPropertyOp47
 70
     1
102
RTVSPropertyOp48
 70
     1
102
RTVSPropertyOp49
 70
     1
102
RTVSPropertyOp50
 70
     1
102
RTVSPropertyOp51
 70
     0
102
RTVSPropertyOp52
 70
     0
102
RTVSPropertyOp53
 70
     1
102
RTVSPropertyOp54
 70
     1
102
RTVSPropertyOp55
 70
     1
102
RTVSPropertyOp56
 70
     1
102
RTVSPropertyOp57
 70
     1
102
RTVSPost2010Prop28
280
     0
102
RTVSPost2010PropOp28
 70
     1
102
RTVSPost2010Prop29
280
     1
102
RTVSPost2010PropOp29
 70
     1
102
RTVSPost2010Prop30
280
     1
102
RTVSPost2010PropOp30
 70
     1
102
RTVSPost2010Prop31
280
     0
102
RTVSPost2010PropOp31
 70
     1
102
RTVSPost2010Prop32
280
     0
102
RTVSPost2010PropOp32
 70
     1
102
RTVSPost2010Prop33
280
     0
102
RTVSPost2010PropOp33
 70
     1
102
RTVSPost2010Prop34
280
     0
102
RTVSPost2010PropOp34
 70
     1
102
RTVSPost2010Prop35
280
     0
102
RTVSPost2010PropOp35
 70
     1
102
RTVSPost2010Prop36
280
     0
102
RTVSPost2010PropOp36
 70
     1
102
RTVSPost2010Prop37
 90
       50
102
RTVSPost2010PropOp37
 70
     1
102
RTVSPost2010Prop38
140
0.0
102
RTVSPost2010PropOp38
 70
     1
102
RTVSPost2010Prop39
140
1.0
102
RTVSPost2010PropOp39
 70
     1
102
RTVSPost2010Prop40
 90
        0
102
RTVSPost2010PropOp40
 70
     1
102
RTVSPost2010Prop41ColorIndex
 90
       18
102
RTVSPost2010Prop41ColorRGB
 90
        0
102
RTVSPost2010PropOp41
 70
     1
102
RTVSPost2010Prop42
 90
       50
102
RTVSPost2010PropOp42
 70
     1
102
RTVSPost2010Prop43
 90
        3
102
RTVSPost2010PropOp43
 70
     1
102
RTVSPost2010Prop44ColorIndex
 90
        5
102
RTVSPost2010Prop44ColorRGB
 90
      255
102
RTVSPost2010PropOp44
 70
     1
102
RTVSPost2010Prop45
280
     0
102
RTVSPost2010PropOp45
 70
     1
102
RTVSPost2010Prop46
 90
       50
102
RTVSPost2010PropOp46
 70
     1
102
RTVSPost2010Prop47
 90
       50
102
RTVSPost2010PropOp47
 70
     1
102
RTVSPost2010Prop48
 90
       50
102
RTVSPost2010PropOp48
 70
     1
102
RTVSPost2010Prop49
280
     0
102
RTVSPost2010PropOp49
 70
     1
102
RTVSPost2010Prop50
 90
       50
102
RTVSPost2010PropOp50
 70
     1
102
RTVSPost2010Prop51ColorIndex
 90
      256
102
RTVSPost2010Prop51ColorRGB
 90
-16777216
102
RTVSPost2010PropOp51
 70
     0
102
RTVSPost2010Prop52
140
1.0
102
RTVSPost2010PropOp52
 70
     0
102
RTVSPost2010Prop53
 90
        2
102
RTVSPost2010PropOp53
 70
     1
102
RTVSPost2010Prop54
  1
strokes_ogs.tif
102
RTVSPost2010PropOp54
 70
     1
102
RTVSPost2010Prop55
280
     0
102
RTVSPost2010PropOp55
 70
     1
102
RTVSPost2010Prop56
140
1.0
102
RTVSPost2010PropOp56
 70
     1
102
RTVSPost2010Prop57
140
1.0
102
RTVSPost2010PropOp57
 70
     1
  0
ENDSEC
  0
EOF
