  0
SECTION
  2
HEADER
  9
$ACADVER
  1
AC1018
  9
$ACADMAINTVER
 70
     0
  9
$DWGCODEPAGE
  3
ANSI_932
  9
$INSBASE
 10
0.0
 20
0.0
 30
0.0
  9
$EXTMIN
 10
-2100.0
 20
-1485.0
 30
0.0
  9
$EXTMAX
 10
2100.0
 20
1485.0
 30
0.0
  9
$LIMMIN
 10
-2100.0
 20
-1485.0
  9
$LIMMAX
 10
2100.0
 20
1485.0
  9
$ORTHOMODE
 70
     0
  9
$REGENMODE
 70
     1
  9
$FILLMODE
 70
     1
  9
$QTEXTMODE
 70
     0
  9
$MIRRTEXT
 70
     1
  9
$LTSCALE
 40
10.0
  9
$ATTMODE
 70
     1
  9
$TEXTSIZE
 40
2.5
  9
$TRACEWID
 40
1.0
  9
$TEXTSTYLE
  7
Standard
  9
$CLAYER
  8
0
  9
$CELTYPE
  6
ByLayer
  9
$CECOLOR
 62
   256
  9
$CELTSCALE
 40
1.0
  9
$DISPSILH
 70
     0
  9
$DIMSCALE
 40
1.0
  9
$DIMASZ
 40
2.5
  9
$DIMEXO
 40
0.625
  9
$DIMDLI
 40
3.75
  9
$DIMRND
 40
0.0
  9
$DIMDLE
 40
0.0
  9
$DIMEXE
 40
1.25
  9
$DIMTP
 40
0.0
  9
$DIMTM
 40
0.0
  9
$DIMTXT
 40
2.5
  9
$DIMCEN
 40
2.5
  9
$DIMTSZ
 40
0.0
  9
$DIMTOL
 70
     0
  9
$DIMLIM
 70
     0
  9
$DIMTIH
 70
     0
  9
$DIMTOH
 70
     0
  9
$DIMSE1
 70
     0
  9
$DIMSE2
 70
     0
  9
$DIMTAD
 70
     1
  9
$DIMZIN
 70
     8
  9
$DIMBLK
  1

  9
$DIMASO
 70
     1
  9
$DIMSHO
 70
     1
  9
$DIMPOST
  1

  9
$DIMAPOST
  1

  9
$DIMALT
 70
     0
  9
$DIMALTD
 70
     3
  9
$DIMALTF
 40
0.03937007874016
  9
$DIMLFAC
 40
1.0
  9
$DIMTOFL
 70
     1
  9
$DIMTVP
 40
0.0
  9
$DIMTIX
 70
     0
  9
$DIMSOXD
 70
     0
  9
$DIMSAH
 70
     0
  9
$DIMBLK1
  1

  9
$DIMBLK2
  1

  9
$DIMSTYLE
  2
ISO-25
  9
$DIMCLRD
 70
     0
  9
$DIMCLRE
 70
     0
  9
$DIMCLRT
 70
     0
  9
$DIMTFAC
 40
1.0
  9
$DIMGAP
 40
0.625
  9
$DIMJUST
 70
     0
  9
$DIMSD1
 70
     0
  9
$DIMSD2
 70
     0
  9
$DIMTOLJ
 70
     0
  9
$DIMTZIN
 70
     8
  9
$DIMALTZ
 70
     0
  9
$DIMALTTZ
 70
     0
  9
$DIMUPT
 70
     0
  9
$DIMDEC
 70
     2
  9
$DIMTDEC
 70
     2
  9
$DIMALTU
 70
     2
  9
$DIMALTTD
 70
     3
  9
$DIMTXSTY
  7
Standard
  9
$DIMAUNIT
 70
     0
  9
$DIMADEC
 70
     0
  9
$DIMALTRND
 40
0.0
  9
$DIMAZIN
 70
     0
  9
$DIMDSEP
 70
    44
  9
$DIMATFIT
 70
     3
  9
$DIMFRAC
 70
     0
  9
$DIMLDRBLK
  1

  9
$DIMLUNIT
 70
     2
  9
$DIMLWD
 70
    -2
  9
$DIMLWE
 70
    -2
  9
$DIMTMOVE
 70
     0
  9
$LUNITS
 70
     2
  9
$LUPREC
 70
     4
  9
$SKETCHINC
 40
1.0
  9
$FILLETRAD
 40
10.0
  9
$AUNITS
 70
     0
  9
$AUPREC
 70
     0
  9
$MENU
  1
.
  9
$ELEVATION
 40
0.0
  9
$PELEVATION
 40
0.0
  9
$THICKNESS
 40
0.0
  9
$LIMCHECK
 70
     0
  9
$CHAMFERA
 40
0.0
  9
$CHAMFERB
 40
0.0
  9
$CHAMFERC
 40
0.0
  9
$CHAMFERD
 40
0.0
  9
$SKPOLY
 70
     0
  9
$TDCREATE
 40
2459494.359383403
  9
$TDUCREATE
 40
2459493.984383403
  9
$TDUPDATE
 40
2459494.35938397
  9
$TDUUPDATE
 40
2459493.98438397
  9
$TDINDWG
 40
0.0000000116
  9
$TDUSRTIMER
 40
0.0000000116
  9
$USRTIMER
 70
     1
  9
$ANGBASE
 50
0.0
  9
$ANGDIR
 70
     0
  9
$PDMODE
 70
     0
  9
$PDSIZE
 40
0.0
  9
$PLINEWID
 40
0.0
  9
$SPLFRAME
 70
     0
  9
$SPLINETYPE
 70
     6
  9
$SPLINESEGS
 70
     8
  9
$HANDSEED
  5
34C
  9
$SURFTAB1
 70
     6
  9
$SURFTAB2
 70
     6
  9
$SURFTYPE
 70
     6
  9
$SURFU
 70
     6
  9
$SURFV
 70
     6
  9
$UCSBASE
  2

  9
$UCSNAME
  2

  9
$UCSORG
 10
0.0
 20
0.0
 30
0.0
  9
$UCSXDIR
 10
1.0
 20
0.0
 30
0.0
  9
$UCSYDIR
 10
0.0
 20
1.0
 30
0.0
  9
$UCSORTHOREF
  2

  9
$UCSORTHOVIEW
 70
     0
  9
$UCSORGTOP
 10
0.0
 20
0.0
 30
0.0
  9
$UCSORGBOTTOM
 10
0.0
 20
0.0
 30
0.0
  9
$UCSORGLEFT
 10
0.0
 20
0.0
 30
0.0
  9
$UCSORGRIGHT
 10
0.0
 20
0.0
 30
0.0
  9
$UCSORGFRONT
 10
0.0
 20
0.0
 30
0.0
  9
$UCSORGBACK
 10
0.0
 20
0.0
 30
0.0
  9
$PUCSBASE
  2

  9
$PUCSNAME
  2

  9
$PUCSORG
 10
0.0
 20
0.0
 30
0.0
  9
$PUCSXDIR
 10
1.0
 20
0.0
 30
0.0
  9
$PUCSYDIR
 10
0.0
 20
1.0
 30
0.0
  9
$PUCSORTHOREF
  2

  9
$PUCSORTHOVIEW
 70
     0
  9
$PUCSORGTOP
 10
0.0
 20
0.0
 30
0.0
  9
$PUCSORGBOTTOM
 10
0.0
 20
0.0
 30
0.0
  9
$PUCSORGLEFT
 10
0.0
 20
0.0
 30
0.0
  9
$PUCSORGRIGHT
 10
0.0
 20
0.0
 30
0.0
  9
$PUCSORGFRONT
 10
0.0
 20
0.0
 30
0.0
  9
$PUCSORGBACK
 10
0.0
 20
0.0
 30
0.0
  9
$USERI1
 70
     0
  9
$USERI2
 70
     0
  9
$USERI3
 70
     0
  9
$USERI4
 70
     0
  9
$USERI5
 70
     0
  9
$USERR1
 40
0.0
  9
$USERR2
 40
0.0
  9
$USERR3
 40
0.0
  9
$USERR4
 40
0.0
  9
$USERR5
 40
0.0
  9
$WORLDVIEW
 70
     1
  9
$SHADEDGE
 70
     3
  9
$SHADEDIF
 70
    70
  9
$TILEMODE
 70
     1
  9
$MAXACTVP
 70
    64
  9
$PINSBASE
 10
0.0
 20
0.0
 30
0.0
  9
$PLIMCHECK
 70
     0
  9
$PEXTMIN
 10
1.000000000000000E+20
 20
1.000000000000000E+20
 30
1.000000000000000E+20
  9
$PEXTMAX
 10
-1.000000000000000E+20
 20
-1.000000000000000E+20
 30
-1.000000000000000E+20
  9
$PLIMMIN
 10
0.0
 20
0.0
  9
$PLIMMAX
 10
420.0
 20
297.0
  9
$UNITMODE
 70
     0
  9
$VISRETAIN
 70
     1
  9
$PLINEGEN
 70
     0
  9
$PSLTSCALE
 70
     1
  9
$TREEDEPTH
 70
  3020
  9
$CMLSTYLE
  2
Standard
  9
$CMLJUST
 70
     0
  9
$CMLSCALE
 40
20.0
  9
$PROXYGRAPHICS
 70
     1
  9
$MEASUREMENT
 70
     1
  9
$CELWEIGHT
370
    -1
  9
$ENDCAPS
280
     0
  9
$JOINSTYLE
280
     0
  9
$LWDISPLAY
290
     0
  9
$INSUNITS
 70
     4
  9
$HYPERLINKBASE
  1

  9
$STYLESHEET
  1

  9
$XEDIT
290
     1
  9
$CEPSNTYPE
380
     0
  9
$PSTYLEMODE
290
     1
  9
$FINGERPRINTGUID
  2
{664F4F0A-98CC-4B24-A75F-8EBD92EA38D8}
  9
$VERSIONGUID
  2
{FAEB1C32-E019-11D5-929B-00C0DF256EC4}
  9
$EXTNAMES
290
     1
  9
$PSVPSCALE
 40
0.0
  9
$OLESTARTUP
290
     0
  9
$SORTENTS
280
   127
  9
$INDEXCTL
280
     0
  9
$HIDETEXT
280
     1
  9
$XCLIPFRAME
290
     0
  9
$HALOGAP
280
     0
  9
$OBSCOLOR
 70
   257
  9
$OBSLTYPE
280
     0
  9
$INTERSECTIONDISPLAY
280
     0
  9
$INTERSECTIONCOLOR
 70
   257
  9
$DIMASSOC
280
     2
  9
$PROJECTNAME
  1

  0
ENDSEC
  0
SECTION
  2
CLASSES
  0
CLASS
  1
ACDBDICTIONARYWDFLT
  2
AcDbDictionaryWithDefault
  3
ObjectDBX Classes
 90
        0
 91
        4
280
     0
281
     0
  0
CLASS
  1
VISUALSTYLE
  2
AcDbVisualStyle
  3
ObjectDBX Classes
 90
     4095
 91
        4
280
     0
281
     0
  0
CLASS
  1
MATERIAL
  2
AcDbMaterial
  3
ObjectDBX Classes
 90
     1153
 91
        4
280
     0
281
     0
  0
CLASS
  1
SCALE
  2
AcDbScale
  3
ObjectDBX Classes
 90
     1153
 91
        4
280
     0
281
     0
  0
CLASS
  1
TABLESTYLE
  2
AcDbTableStyle
  3
ObjectDBX Classes
 90
     4095
 91
        4
280
     0
281
     0
  0
CLASS
  1
MLEADERSTYLE
  2
AcDbMLeaderStyle
  3
ACDB_MLEADERSTYLE_CLASS
 90
     4095
 91
        4
280
     0
281
     0
  0
CLASS
  1
SUN
  2
AcDbSun
  3
SCENEOE
 90
     1153
 91
        4
280
     0
281
     0
  0
CLASS
  1
DICTIONARYVAR
  2
AcDbDictionaryVar
  3
ObjectDBX Classes
 90
        0
 91
        4
280
     0
281
     0
  0
CLASS
  1
CELLSTYLEMAP
  2
AcDbCellStyleMap
  3
ObjectDBX Classes
 90
     1152
 91
        4
280
     0
281
     0
  0
ENDSEC
  0
SECTION
  2
TABLES
  0
TABLE
  2
VPORT
  5
8
102
{ACAD_XDICTIONARY
360
303
102
}
330
0
100
AcDbSymbolTable
 70
     1
  0
VPORT
  5
29
330
8
100
AcDbSymbolTableRecord
100
AcDbViewportTableRecord
  2
*Active
 70
     0
 10
0.0
 20
0.0
 11
1.0
 21
1.0
 12
0.0
 22
0.0
 13
0.0
 23
0.0
 14
10.0
 24
10.0
 15
10.0
 25
10.0
 16
0.0
 26
0.0
 36
1.0
 17
0.0
 27
0.0
 37
0.0
 40
3267.0
 41
1.414141414141414
 42
50.0
 43
0.0
 44
0.0
 50
0.0
 51
0.0
 71
     0
 72
 10000
 73
     1
 74
     3
 75
     0
 76
     0
 77
     0
 78
     0
281
     0
 65
     1
110
0.0
120
0.0
130
0.0
111
1.0
121
0.0
131
0.0
112
0.0
122
1.0
132
0.0
 79
     0
146
0.0
  0
ENDTAB
  0
TABLE
  2
LTYPE
  5
5
330
0
100
AcDbSymbolTable
 70
     6
  0
LTYPE
  5
14
330
5
100
AcDbSymbolTableRecord
100
AcDbLinetypeTableRecord
  2
ByBlock
 70
     0
  3

 72
    65
 73
     0
 40
0.0
  0
LTYPE
  5
15
330
5
100
AcDbSymbolTableRecord
100
AcDbLinetypeTableRecord
  2
ByLayer
 70
     0
  3

 72
    65
 73
     0
 40
0.0
  0
LTYPE
  5
16
330
5
100
AcDbSymbolTableRecord
100
AcDbLinetypeTableRecord
  2
Continuous
 70
     0
  3
Solid line
 72
    65
 73
     0
 40
0.0
  0
LTYPE
  5
6F
330
5
100
AcDbSymbolTableRecord
100
AcDbLinetypeTableRecord
  2
JWW_DASHED1
 70
     0
  3
-  --  --  --  --  --  --  --  -
 72
    65
 73
     2
 40
1.693333333333333
 49
0.8466666666666667
 74
     0
 49
-0.8466666666666667
 74
     0
  0
LTYPE
  5
70
330
5
100
AcDbSymbolTableRecord
100
AcDbLinetypeTableRecord
  2
JWW_HOJO
 70
     0
  3
  -   -   -   -   -   -   -   - 
 72
    65
 73
     2
 40
1.693333333333333
 49
-1.27
 74
     0
 49
0.4233333333333333
 74
     0
  0
LTYPE
  5
71
330
5
100
AcDbSymbolTableRecord
100
AcDbLinetypeTableRecord
  2
JWW_CENTER1
 70
     0
  3
-----  --  ----------  --  -----
 72
    65
 73
     4
 40
6.773333333333333
 49
4.233333333333333
 74
     0
 49
-0.8466666666666667
 74
     0
 49
0.8466666666666667
 74
     0
 49
-0.8466666666666667
 74
     0
  0
LTYPE
  5
72
330
5
100
AcDbSymbolTableRecord
100
AcDbLinetypeTableRecord
  2
JWW_PHANTOM1
 70
     0
  3
----  -  -  --------  -  -  ----
 72
    65
 73
     6
 40
6.773333333333333
 49
3.386666666666667
 74
     0
 49
-0.8466666666666667
 74
     0
 49
0.4233333333333333
 74
     0
 49
-0.8466666666666667
 74
     0
 49
0.4233333333333333
 74
     0
 49
-0.8466666666666667
 74
     0
  0
LTYPE
  5
73
330
5
100
AcDbSymbolTableRecord
100
AcDbLinetypeTableRecord
  2
JWW_DASHED2
 70
     0
  3
--    ----    ----    ----    --
 72
    65
 73
     2
 40
3.386666666666667
 49
1.693333333333333
 74
     0
 49
-1.693333333333333
 74
     0
  0
ENDTAB
  0
TABLE
  2
LAYER
  5
2
330
0
100
AcDbSymbolTable
 70
    21
  0
LAYER
  5
10
330
2
100
AcDbSymbolTableRecord
100
AcDbLayerTableRecord
  2
0
 70
     0
 62
     7
  6
Continuous
370
    -3
390
F
  0
LAYER
  5
74
330
2
100
AcDbSymbolTableRecord
100
AcDbLayerTableRecord
  2
寸法
 70
     0
 62
     7
  6
Continuous
370
    -3
390
F
  0
LAYER
  5
75
330
2
100
AcDbSymbolTableRecord
100
AcDbLayerTableRecord
  2
D-9
 70
     0
 62
     7
  6
Continuous
370
    -3
390
F
  0
LAYER
  5
76
330
2
100
AcDbSymbolTableRecord
100
AcDbLayerTableRecord
  2
D-5
 70
     0
 62
     7
  6
Continuous
370
    -3
390
F
  0
LAYER
  5
77
330
2
100
AcDbSymbolTableRecord
100
AcDbLayerTableRecord
  2
D-4
 70
     0
 62
     7
  6
Continuous
370
    -3
390
F
  0
LAYER
  5
78
330
2
100
AcDbSymbolTableRecord
100
AcDbLayerTableRecord
  2
D-F
 70
     0
 62
     7
  6
Continuous
370
    -3
390
F
  0
LAYER
  5
79
330
2
100
AcDbSymbolTableRecord
100
AcDbLayerTableRecord
  2
D-2
 70
     0
 62
     7
  6
Continuous
370
    -3
390
F
  0
LAYER
  5
7A
330
2
100
AcDbSymbolTableRecord
100
AcDbLayerTableRecord
  2
D-3
 70
     0
 62
     7
  6
Continuous
370
    -3
390
F
  0
LAYER
  5
7B
330
2
100
AcDbSymbolTableRecord
100
AcDbLayerTableRecord
  2
D-C
 70
     0
 62
     7
  6
Continuous
370
    -3
390
F
  0
LAYER
  5
7C
330
2
100
AcDbSymbolTableRecord
100
AcDbLayerTableRecord
  2
F-Fﾚｲﾔ
 70
     0
 62
     7
  6
Continuous
370
    -3
390
F
  0
LAYER
  5
7D
330
2
100
AcDbSymbolTableRecord
100
AcDbLayerTableRecord
  2
F-5ﾚｲﾔ
 70
     0
 62
     7
  6
Continuous
370
    -3
390
F
  0
LAYER
  5
7E
330
2
100
AcDbSymbolTableRecord
100
AcDbLayerTableRecord
  2
D-E
 70
     0
 62
     7
  6
Continuous
370
    -3
390
F
  0
LAYER
  5
7F
330
2
100
AcDbSymbolTableRecord
100
AcDbLayerTableRecord
  2
D-7
 70
     0
 62
     7
  6
Continuous
370
    -3
390
F
  0
LAYER
  5
80
330
2
100
AcDbSymbolTableRecord
100
AcDbLayerTableRecord
  2
D-6
 70
     0
 62
     7
  6
Continuous
370
    -3
390
F
  0
LAYER
  5
81
330
2
100
AcDbSymbolTableRecord
100
AcDbLayerTableRecord
  2
D-1
 70
     0
 62
     7
  6
Continuous
370
    -3
390
F
  0
LAYER
  5
82
330
2
100
AcDbSymbolTableRecord
100
AcDbLayerTableRecord
  2
0-F
 70
     0
 62
     7
  6
Continuous
370
    -3
390
F
  0
LAYER
  5
83
330
2
100
AcDbSymbolTableRecord
100
AcDbLayerTableRecord
  2
仕上
 70
     0
 62
     7
  6
Continuous
370
    -3
390
F
  0
LAYER
  5
84
330
2
100
AcDbSymbolTableRecord
100
AcDbLayerTableRecord
  2
0-E
 70
     0
 62
     7
  6
Continuous
370
    -3
390
F
  0
LAYER
  5
85
330
2
100
AcDbSymbolTableRecord
100
AcDbLayerTableRecord
  2
建具
 70
     0
 62
     7
  6
Continuous
370
    -3
390
F
  0
LAYER
  5
86
330
2
100
AcDbSymbolTableRecord
100
AcDbLayerTableRecord
  2
躯体
 70
     0
 62
     7
  6
Continuous
370
    -3
390
F
  0
LAYER
  5
87
330
2
100
AcDbSymbolTableRecord
100
AcDbLayerTableRecord
  2
0-C
 70
     0
 62
     7
  6
Continuous
370
    -3
390
F
  0
ENDTAB
  0
TABLE
  2
STYLE
  5
3
330
0
100
AcDbSymbolTable
 70
     2
  0
STYLE
  5
11
330
3
100
AcDbSymbolTableRecord
100
AcDbTextStyleTableRecord
  2
Standard
 70
     0
 40
0.0
 41
1.0
 50
0.0
 71
     0
 42
2.5
  3
txt
  4

  0
STYLE
  5
6E
330
3
100
AcDbSymbolTableRecord
100
AcDbTextStyleTableRecord
  2
ＭＳ ゴシック
 70
     0
 40
1.0
 41
1.0
 50
0.0
 71
     0
 42
2.5
  3

  4

1001
ACAD
1000
MS Gothic
1071
    32817
  0
ENDTAB
  0
TABLE
  2
VIEW
  5
6
330
0
100
AcDbSymbolTable
 70
     0
  0
ENDTAB
  0
TABLE
  2
UCS
  5
7
330
0
100
AcDbSymbolTable
 70
     0
  0
ENDTAB
  0
TABLE
  2
APPID
  5
9
330
0
100
AcDbSymbolTable
 70
     2
  0
APPID
  5
12
330
9
100
AcDbSymbolTableRecord
100
AcDbRegAppTableRecord
  2
ACAD
 70
     0
  0
APPID
  5
342
330
9
100
AcDbSymbolTableRecord
100
AcDbRegAppTableRecord
  2
ACAD_MLEADERVER
 70
     0
  0
ENDTAB
  0
TABLE
  2
DIMSTYLE
  5
A
330
0
100
AcDbSymbolTable
 70
     1
100
AcDbDimStyleTable
  0
DIMSTYLE
105
27
330
A
100
AcDbSymbolTableRecord
100
AcDbDimStyleTableRecord
  2
ISO-25
 70
     0
 41
2.5
 42
0.625
 43
3.75
 44
1.25
 73
     0
 74
     0
 77
     1
 78
     8
140
2.5
141
2.5
143
0.03937007874016
147
0.625
171
     3
172
     1
178
     0
271
     2
272
     2
274
     3
278
    44
283
     0
284
     8
340
11
  0
ENDTAB
  0
TABLE
  2
BLOCK_RECORD
  5
1
330
0
100
AcDbSymbolTable
 70
     1
  0
BLOCK_RECORD
  5
1F
330
1
100
AcDbSymbolTableRecord
100
AcDbBlockTableRecord
  2
*Model_Space
340
22
  0
BLOCK_RECORD
  5
1B
330
1
100
AcDbSymbolTableRecord
100
AcDbBlockTableRecord
  2
*Paper_Space
340
1E
  0
BLOCK_RECORD
  5
23
330
1
100
AcDbSymbolTableRecord
100
AcDbBlockTableRecord
  2
*Paper_Space0
340
26
  0
ENDTAB
  0
ENDSEC
  0
SECTION
  2
BLOCKS
  0
BLOCK
  5
20
330
1F
100
AcDbEntity
  8
0
100
AcDbBlockBegin
  2
*Model_Space
 70
     0
 10
0.0
 20
0.0
 30
0.0
  3
*Model_Space
  1

  0
ENDBLK
  5
21
330
1F
100
AcDbEntity
  8
0
100
AcDbBlockEnd
  0
BLOCK
  5
1C
330
1B
100
AcDbEntity
 67
     1
  8
0
100
AcDbBlockBegin
  2
*Paper_Space
 70
     0
 10
0.0
 20
0.0
 30
0.0
  3
*Paper_Space
  1

  0
ENDBLK
  5
1D
330
1B
100
AcDbEntity
 67
     1
  8
0
100
AcDbBlockEnd
  0
BLOCK
  5
24
330
23
100
AcDbEntity
  8
0
100
AcDbBlockBegin
  2
*Paper_Space0
 70
     0
 10
0.0
 20
0.0
 30
0.0
  3
*Paper_Space0
  1

  0
ENDBLK
  5
25
330
23
100
AcDbEntity
  8
0
100
AcDbBlockEnd
  0
ENDSEC
  0
SECTION
  2
ENTITIES
  0
SOLID
  5
88
330
1F
100
AcDbEntity
  8
寸法
  6
Continuous
 62
     4
370
     9
100
AcDbTrace
 10
-788.5895481838829
 20
763.2813213482005
 30
0.0
 11
-788.5895481838829
 21
803.2813213482005
 31
0.0
 12
-792.5895481838838
 22
763.2813213482005
 32
0.0
 13
-792.5895481838838
 23
803.2813213482005
 33
0.0
  0
SOLID
  5
89
330
1F
100
AcDbEntity
  8
寸法
  6
Continuous
 62
     4
370
     9
100
AcDbTrace
 10
-788.5895481838825
 20
1138.405333812019
 30
0.0
 11
-788.5895481838825
 21
1098.405333812019
 31
0.0
 12
-792.5895481838834
 22
1138.405333812019
 32
0.0
 13
-792.5895481838834
 23
1098.405333812019
 33
0.0
  0
ARC
  5
8A
330
1F
100
AcDbEntity
  8
D-9
  6
Continuous
 62
   211
370
     5
100
AcDbCircle
 10
846.9756486518742
 20
252.0742473061637
 30
0.0
 40
34.53062160595044
100
AcDbArc
 50
267.8605499267578
 51
302.8109436035156
  0
ARC
  5
8B
330
1F
100
AcDbEntity
  8
D-9
  6
Continuous
 62
   211
370
     5
100
AcDbCircle
 10
964.3977216037234
 20
252.0742473061637
 30
0.0
 40
34.53062160595044
100
AcDbArc
 50
237.1890563964843
 51
272.1394500732421
  0
ARC
  5
8C
330
1F
100
AcDbEntity
  8
D-9
  6
Continuous
 62
   211
370
     5
100
AcDbCircle
 10
905.6861902481575
 20
366.1652853657051
 30
0.0
 40
148.5985781695392
100
AcDbArc
 50
254.3844604492188
 51
285.6155395507812
  0
LINE
  5
8D
330
1F
100
AcDbEntity
  8
D-9
  6
Continuous
 62
   211
370
     5
100
AcDbLine
 10
865.687542919182
 20
223.05252538893
 30
0.0
 11
865.687542919182
 21
267.5679392402844
 31
0.0
  0
LINE
  5
8E
330
1F
100
AcDbEntity
  8
D-9
  6
Continuous
 62
   211
370
     5
100
AcDbLine
 10
945.6873119753487
 20
223.05252538893
 30
0.0
 11
945.6873119753487
 21
267.5679392402844
 31
0.0
  0
LINE
  5
8F
330
1F
100
AcDbEntity
  8
D-9
  6
Continuous
 62
   211
370
     5
100
AcDbLine
 10
965.6868830796662
 20
217.5667845211092
 30
0.0
 11
845.9364013968076
 21
217.5667845211092
 31
0.0
  0
LINE
  5
90
330
1F
100
AcDbEntity
  8
D-9
  6
Continuous
 62
   211
370
     5
100
AcDbLine
 10
975.1870876299068
 20
267.5679392402844
 30
0.0
 11
975.1870876299068
 21
223.05252538893
 31
0.0
  0
LINE
  5
91
330
1F
100
AcDbEntity
  8
D-9
  6
Continuous
 62
   211
370
     5
100
AcDbLine
 10
965.6868830796662
 20
217.5667845211092
 30
0.0
 11
975.1870876299068
 21
223.05252538893
 31
0.0
  0
LINE
  5
92
330
1F
100
AcDbEntity
  8
D-9
  6
Continuous
 62
   211
370
     5
100
AcDbLine
 10
836.1862826256817
 20
267.5679392402844
 30
0.0
 11
836.1862826256817
 21
223.1960404860638
 31
0.0
  0
LINE
  5
93
330
1F
100
AcDbEntity
  8
D-9
  6
Continuous
 62
   211
370
     5
100
AcDbLine
 10
845.7295417050733
 20
217.687535154555
 30
0.0
 11
836.1862826256817
 21
223.1960404860638
 31
0.0
  0
TEXT
  5
94
330
1F
100
AcDbEntity
  8
D-5
  6
Continuous
 62
     7
370
     9
100
AcDbText
 10
330.1396280423291
 20
-186.4528263344113
 30
0.0
 40
22.86
  1
（ＳＳ４００）
 41
1.142857142857145
  7
ＭＳ ゴシック
100
AcDbText
  0
TEXT
  5
95
330
1F
100
AcDbEntity
  8
D-5
  6
Continuous
 62
     7
370
     9
100
AcDbText
 10
340.3399979555684
 20
-135.9299447492129
 30
0.0
 40
22.86
  1
補強材
 41
1.111111111111111
  7
ＭＳ ゴシック
100
AcDbText
  0
LINE
  5
96
330
1F
100
AcDbEntity
  8
D-5
  6
Continuous
 62
     7
370
     9
100
AcDbLine
 10
576.3565967720567
 20
-151.6366986026753
 30
0.0
 11
340.3399979555684
 21
-151.6366986026753
 31
0.0
  0
TEXT
  5
97
330
1F
100
AcDbEntity
  8
D-4
  6
Continuous
 62
     2
370
     9
100
AcDbText
 10
512.856898320519
 20
-546.01488627613
 30
0.0
 40
30.48
  1
A-A断面詳細図　Ｓ＝１：２
 41
1.115
  7
ＭＳ ゴシック
100
AcDbText
  0
LINE
  5
98
330
1F
100
AcDbEntity
  8
D-4
  6
Continuous
 62
     7
370
     9
100
AcDbLine
 10
1070.356898320519
 20
-562.2830452578654
 30
0.0
 11
512.856898320519
 21
-562.2830452578654
 31
0.0
  0
TEXT
  5
99
330
1F
100
AcDbEntity
  8
D-4
  6
Continuous
 62
     7
370
     9
100
AcDbText
 10
223.6484384299286
 20
-614.1836555434435
 30
0.0
 40
22.86
  1
表面処理：下塗り＋焼付塗装（但し目地、把手、クッション材を除く）
 41
1.161458333333333
  7
ＭＳ ゴシック
100
AcDbText
  0
LWPOLYLINE
  5
9A
330
1F
100
AcDbEntity
  8
D-F
  6
Continuous
 62
     7
370
     9
100
AcDbPolyline
 90
        4
 70
     1
 43
2.0
 10
1176.68686658367
 20
-424.9099849678248
 42
0.4142135623731
 10
1175.68686658367
 20
-423.9099849678248
 42
0.4142135623731
 10
1174.68686658367
 20
-424.9099849678248
 42
0.4142135623731
 10
1175.68686658367
 20
-425.9099849678248
 42
0.4142135623731
  0
LWPOLYLINE
  5
9B
330
1F
100
AcDbEntity
  8
D-F
  6
Continuous
 62
     7
370
     9
100
AcDbPolyline
 90
        4
 70
     1
 43
2.0
 10
1377.686440987175
 20
-424.9099849678248
 42
0.4142135623731
 10
1376.686440987175
 20
-423.9099849678248
 42
0.4142135623731
 10
1375.686440987175
 20
-424.9099849678248
 42
0.4142135623731
 10
1376.686440987175
 20
-425.9099849678248
 42
0.4142135623731
  0
LINE
  5
9C
330
1F
100
AcDbEntity
  8
D-F
  6
Continuous
 62
     7
370
     9
100
AcDbLine
 10
1376.686440987175
 20
-424.9099849678248
 30
0.0
 11
1175.68686658367
 21
-424.9099849678248
 31
0.0
  0
TEXT
  5
9D
330
1F
100
AcDbEntity
  8
D-F
  6
Continuous
 62
     2
370
   211
100
AcDbText
 10
1232.436653785422
 20
-413.2699404286566
 30
0.0
 40
30.48
  1
40.2
 41
1.09375
  7
ＭＳ ゴシック
100
AcDbText
  0
LINE
  5
9E
330
1F
100
AcDbEntity
  8
D-F
  6
Continuous
 62
     7
370
     9
100
AcDbLine
 10
1175.68686658367
 20
-424.9099849678248
 30
0.0
 11
240.6869325676195
 21
-424.9099849678248
 31
0.0
  0
ARC
  5
9F
330
1F
100
AcDbEntity
  8
D-2
  6
Continuous
 62
     3
370
     9
100
AcDbCircle
 10
1293.687130519491
 20
319.5679392402735
 30
0.0
 40
16.0
100
AcDbArc
 50
270.0
 51
0.0
  0
ARC
  5
A0
330
1F
100
AcDbEntity
  8
D-2
  6
Continuous
 62
     3
370
     9
100
AcDbCircle
 10
1293.687130519491
 20
319.5679392402735
 30
0.0
 40
32.00000000000001
100
AcDbArc
 50
270.0
 51
0.0
  0
LINE
  5
A1
330
1F
100
AcDbEntity
  8
D-2
  6
Continuous
 62
     3
370
     9
100
AcDbLine
 10
1325.687130519496
 20
488.567939240279
 30
0.0
 11
1325.687130519496
 21
319.5679392402735
 31
0.0
  0
LINE
  5
A2
330
1F
100
AcDbEntity
  8
D-2
  6
Continuous
 62
     3
370
     9
100
AcDbLine
 10
1325.687130519496
 20
488.567939240279
 30
0.0
 11
1309.687130519499
 21
488.567939240279
 31
0.0
  0
LINE
  5
A3
330
1F
100
AcDbEntity
  8
D-2
  6
Continuous
 62
     3
370
     9
100
AcDbLine
 10
1309.687130519499
 20
319.5679392402735
 30
0.0
 11
1309.687130519499
 21
488.567939240279
 31
0.0
  0
LINE
  5
A4
330
1F
100
AcDbEntity
  8
D-3
  6
Continuous
 62
     4
370
     9
100
AcDbLine
 10
1325.687130519496
 20
488.567939240279
 30
0.0
 11
1325.687130519496
 21
428.5674938485909
 31
0.0
  0
ARC
  5
A5
330
1F
100
AcDbEntity
  8
D-3
  6
Continuous
 62
     4
370
     9
100
AcDbCircle
 10
1330.686932567628
 20
493.5677412884115
 30
0.0
 40
10.0
100
AcDbArc
 50
0.0
 51
90.0
  0
LINE
  5
A6
330
1F
100
AcDbEntity
  8
D-3
  6
Continuous
 62
     4
370
     9
100
AcDbLine
 10
1340.686932567619
 20
493.5677412884115
 30
0.0
 11
1340.686932567619
 21
428.5674938485909
 31
0.0
  0
LINE
  5
A7
330
1F
100
AcDbEntity
  8
D-3
  6
Continuous
 62
     4
370
     9
100
AcDbLine
 10
1330.686932567628
 20
503.5677412884479
 30
0.0
 11
1280.687229495411
 21
503.5677412884479
 31
0.0
  0
LINE
  5
A8
330
1F
100
AcDbEntity
  8
D-3
  6
Continuous
 62
     4
370
     9
100
AcDbLine
 10
1280.687229495411
 20
503.5677412884479
 30
0.0
 11
1280.687229495411
 21
488.567939240279
 31
0.0
  0
LINE
  5
A9
330
1F
100
AcDbEntity
  8
D-3
  6
Continuous
 62
     4
370
     9
100
AcDbLine
 10
1325.687130519496
 20
428.5674938485909
 30
0.0
 11
1340.686932567619
 21
428.5674938485909
 31
0.0
  0
LINE
  5
AA
330
1F
100
AcDbEntity
  8
D-3
  6
Continuous
 62
     4
370
     9
100
AcDbLine
 10
1280.687229495411
 20
488.567939240279
 30
0.0
 11
1325.687130519496
 21
488.567939240279
 31
0.0
  0
LINE
  5
AB
330
1F
100
AcDbEntity
  8
D-3
  6
Continuous
 62
     4
370
     9
100
AcDbLine
 10
1280.687229495411
 20
503.5677412884479
 30
0.0
 11
240.6869325676195
 21
503.5677412884479
 31
0.0
  0
LINE
  5
AC
330
1F
100
AcDbEntity
  8
D-C
  6
Continuous
 62
     2
370
     9
100
AcDbLine
 10
963.1867511117485
 20
503.5681042001715
 30
0.0
 11
848.186619143849
 21
503.5681042001715
 31
0.0
  0
LINE
  5
AD
330
1F
100
AcDbEntity
  8
D-C
  6
Continuous
 62
     2
370
     9
100
AcDbLine
 10
825.6864211919998
 20
503.5685990798174
 30
0.0
 11
845.6859921983374
 21
503.5685990798174
 31
0.0
  0
LINE
  5
AE
330
1F
100
AcDbEntity
  8
D-C
  6
Continuous
 62
     2
370
     9
100
AcDbLine
 10
985.6874439432664
 20
503.5685990798174
 30
0.0
 11
965.6873780572784
 21
503.5685990798174
 31
0.0
  0
LINE
  5
AF
330
1F
100
AcDbEntity
  8
D-C
  6
Continuous
 62
     2
370
     9
100
AcDbLine
 10
985.6874439432664
 20
303.5679392402881
 30
0.0
 11
985.6874439432664
 21
503.5685990798174
 31
0.0
  0
LINE
  5
B0
330
1F
100
AcDbEntity
  8
D-C
  6
Continuous
 62
     2
370
     9
100
AcDbLine
 10
965.6873780572784
 20
503.5685990798174
 30
0.0
 11
963.1867511117485
 21
501.0684671119088
 31
0.0
  0
LINE
  5
B1
330
1F
100
AcDbEntity
  8
D-C
  6
Continuous
 62
     2
370
     9
100
AcDbLine
 10
963.1867511117485
 20
478.5677742804046
 30
0.0
 11
963.1867511117485
 21
503.5685990798174
 31
0.0
  0
LINE
  5
B2
330
1F
100
AcDbEntity
  8
D-C
  6
Continuous
 62
     2
370
     9
100
AcDbLine
 10
848.186619143849
 20
478.5677742804046
 30
0.0
 11
848.186619143849
 21
503.5685990798174
 31
0.0
  0
LINE
  5
B3
330
1F
100
AcDbEntity
  8
D-C
  6
Continuous
 62
     2
370
     9
100
AcDbLine
 10
848.186619143849
 20
501.0684671119088
 30
0.0
 11
845.6859921983374
 21
503.5685990798174
 31
0.0
  0
LINE
  5
B4
330
1F
100
AcDbEntity
  8
D-C
  6
Continuous
 62
     2
370
     9
100
AcDbLine
 10
825.6864211919998
 20
303.5679392402881
 30
0.0
 11
825.6864211919998
 21
503.5685990798174
 31
0.0
  0
LINE
  5
B5
330
1F
100
AcDbEntity
  8
D-C
  6
Continuous
 62
     2
370
     9
100
AcDbLine
 10
959.1519973638748
 20
478.5677742804046
 30
0.0
 11
949.1524592515412
 21
488.5683021520254
 31
0.0
  0
LINE
  5
B6
330
1F
100
AcDbEntity
  8
D-C
  6
Continuous
 62
     2
370
     9
100
AcDbLine
 10
865.687542919182
 20
487.1796698674007
 30
0.0
 11
864.2989106345573
 21
488.5683021520254
 31
0.0
  0
LINE
  5
B7
330
1F
100
AcDbEntity
  8
D-C
  6
Continuous
 62
     2
370
     9
100
AcDbLine
 10
853.0859276320149
 20
478.5677742804046
 30
0.0
 11
848.186619143849
 21
483.4665878889336
 31
0.0
  0
LINE
  5
B8
330
1F
100
AcDbEntity
  8
D-C
  6
Continuous
 62
     2
370
     9
100
AcDbLine
 10
963.1867511117485
 20
485.1392810899506
 30
0.0
 11
959.7577300496829
 21
488.5683021520254
 31
0.0
  0
LINE
  5
B9
330
1F
100
AcDbEntity
  8
D-C
  6
Continuous
 62
     2
370
     9
100
AcDbLine
 10
948.5447470471405
 20
478.5677742804046
 30
0.0
 11
945.6873119753487
 21
481.4257042318422
 31
0.0
  0
LINE
  5
BA
330
1F
100
AcDbEntity
  8
D-C
  6
Continuous
 62
     2
370
     9
100
AcDbLine
 10
863.6921881894483
 20
478.5677742804046
 30
0.0
 11
853.6921551974734
 21
488.5683021520254
 31
0.0
  0
LINE
  5
BB
330
1F
100
AcDbEntity
  8
D-C
  6
Continuous
 62
     2
370
     9
100
AcDbLine
 10
865.687542919182
 20
478.5677742804046
 30
0.0
 11
848.186619143849
 21
478.5677742804046
 31
0.0
  0
LINE
  5
BC
330
1F
100
AcDbEntity
  8
D-C
  6
Continuous
 62
     2
370
     9
100
AcDbLine
 10
963.1867511117485
 20
478.5677742804046
 30
0.0
 11
945.6873119753487
 21
478.5677742804046
 31
0.0
  0
LINE
  5
BD
330
1F
100
AcDbEntity
  8
D-C
  6
Continuous
 62
     2
370
     9
100
AcDbLine
 10
940.6865531598902
 20
438.5676423125005
 30
0.0
 11
870.6873119753487
 21
438.5676423125005
 31
0.0
  0
LINE
  5
BE
330
1F
100
AcDbEntity
  8
D-C
  6
Continuous
 62
     2
370
     9
100
AcDbLine
 10
870.6873119753487
 20
438.5676423125005
 30
0.0
 11
865.687542919182
 21
443.5684011279591
 31
0.0
  0
LINE
  5
BF
330
1F
100
AcDbEntity
  8
D-C
  6
Continuous
 62
     2
370
     9
100
AcDbLine
 10
945.6873119753487
 20
443.8395951735674
 30
0.0
 11
940.6865531598902
 21
438.5676423125005
 31
0.0
  0
LINE
  5
C0
330
1F
100
AcDbEntity
  8
D-C
  6
Continuous
 62
     2
370
     9
100
AcDbLine
 10
945.6873119753487
 20
443.5684011279591
 30
0.0
 11
865.687542919182
 21
443.5684011279591
 31
0.0
  0
LINE
  5
C1
330
1F
100
AcDbEntity
  8
D-C
  6
Continuous
 62
     2
370
     9
100
AcDbLine
 10
945.6873119753487
 20
462.3461143880922
 30
0.0
 11
945.6873119753487
 21
488.5683021520254
 31
0.0
  0
LINE
  5
C2
330
1F
100
AcDbEntity
  8
D-C
  6
Continuous
 62
     2
370
     9
100
AcDbLine
 10
963.1867511117485
 20
488.5683021520254
 30
0.0
 11
848.186619143849
 21
488.5683021520254
 31
0.0
  0
LINE
  5
C3
330
1F
100
AcDbEntity
  8
D-C
  6
Continuous
 62
     2
370
     9
100
AcDbLine
 10
870.6873119753487
 20
378.5677412884024
 30
0.0
 11
865.687542919182
 21
373.5674773525898
 31
0.0
  0
LINE
  5
C4
330
1F
100
AcDbEntity
  8
D-C
  6
Continuous
 62
     2
370
     9
100
AcDbLine
 10
945.6873119753487
 20
373.5674773525898
 30
0.0
 11
940.6865531598902
 21
378.5677412884024
 31
0.0
  0
LINE
  5
C5
330
1F
100
AcDbEntity
  8
D-C
  6
Continuous
 62
     2
370
     9
100
AcDbLine
 10
945.6873119753487
 20
373.5674773525898
 30
0.0
 11
865.687542919182
 21
373.5674773525898
 31
0.0
  0
LINE
  5
C6
330
1F
100
AcDbEntity
  8
D-C
  6
Continuous
 62
     2
370
     9
100
AcDbLine
 10
940.6865531598902
 20
378.5677412884024
 30
0.0
 11
870.6873119753487
 21
378.5677412884024
 31
0.0
  0
LINE
  5
C7
330
1F
100
AcDbEntity
  8
D-C
  6
Continuous
 62
     2
370
     9
100
AcDbLine
 10
825.6864211919998
 20
303.5679392402881
 30
0.0
 11
870.6873119753487
 21
303.5679392402881
 31
0.0
  0
LINE
  5
C8
330
1F
100
AcDbEntity
  8
D-C
  6
Continuous
 62
     2
370
     9
100
AcDbLine
 10
985.6874439432664
 20
303.5679392402881
 30
0.0
 11
940.6865531598902
 21
303.5679392402881
 31
0.0
  0
LINE
  5
C9
330
1F
100
AcDbEntity
  8
D-3
  6
Continuous
 62
     4
370
     9
100
AcDbLine
 10
330.6869325676195
 20
353.5677412884024
 30
0.0
 11
330.6869325676195
 21
303.5679392402881
 31
0.0
  0
LINE
  5
CA
330
1F
100
AcDbEntity
  8
D-3
  6
Continuous
 62
     4
370
     9
100
AcDbLine
 10
480.6869325676195
 20
353.5677412884024
 30
0.0
 11
330.6869325676195
 21
353.5677412884024
 31
0.0
  0
LINE
  5
CB
330
1F
100
AcDbEntity
  8
D-3
  6
Continuous
 62
     4
370
     9
100
AcDbLine
 10
480.6869325676195
 20
353.5677412884024
 30
0.0
 11
480.6869325676195
 21
303.5679392402881
 31
0.0
  0
LINE
  5
CC
330
1F
100
AcDbEntity
  8
D-3
  6
Continuous
 62
     4
370
     9
100
AcDbLine
 10
480.6869325676195
 20
303.5679392402881
 30
0.0
 11
330.6869325676195
 21
303.5679392402881
 31
0.0
  0
LINE
  5
CD
330
1F
100
AcDbEntity
  8
D-3
  6
Continuous
 62
     4
370
     9
100
AcDbLine
 10
480.6869325676195
 20
308.5679392402881
 30
0.0
 11
330.6869325676195
 21
308.5679392402881
 31
0.0
  0
LINE
  5
CE
330
1F
100
AcDbEntity
  8
D-3
  6
JWW_DASHED1
 62
     4
370
     9
100
AcDbLine
 10
480.6869325676195
 20
349.237614269482
 30
0.0
 11
330.6869325676195
 21
349.237614269482
 31
0.0
  0
TEXT
  5
CF
330
1F
100
AcDbEntity
  8
D-5
  6
Continuous
 62
     7
370
     9
100
AcDbText
 10
463.4437704737036
 20
572.3554384770313
 30
0.0
 40
22.86
  1
（ＳＵＳ３０４）
 41
1.145833333333336
  7
ＭＳ ゴシック
100
AcDbText
  0
TEXT
  5
D0
330
1F
100
AcDbEntity
  8
D-5
  6
Continuous
 62
     7
370
     9
100
AcDbText
 10
483.8875113319176
 20
615.4322371995823
 30
0.0
 40
22.86
  1
把手
 41
1.083333333333333
  7
ＭＳ ゴシック
100
AcDbText
  0
LINE
  5
D1
330
1F
100
AcDbEntity
  8
D-5
  6
Continuous
 62
     7
370
     9
100
AcDbLine
 10
741.6391671032437
 20
601.3635349719641
 30
0.0
 11
468.3844426522296
 21
601.3635349719641
 31
0.0
  0
LINE
  5
D2
330
1F
100
AcDbEntity
  8
D-5
  6
Continuous
 62
     7
370
     9
100
AcDbLine
 10
825.6864211919998
 20
426.72249293872
 30
0.0
 11
809.2598811265441
 21
451.8255103848773
 31
0.0
  0
LINE
  5
D3
330
1F
100
AcDbEntity
  8
D-5
  6
Continuous
 62
     7
370
     9
100
AcDbLine
 10
825.6864211919998
 20
426.72249293872
 30
0.0
 11
816.3166174282753
 21
455.2218693903669
 31
0.0
  0
LINE
  5
D4
330
1F
100
AcDbEntity
  8
D-5
  6
Continuous
 62
     7
370
     9
100
AcDbLine
 10
741.6391671032437
 20
601.3635349719641
 30
0.0
 11
825.6864211919998
 21
426.72249293872
 31
0.0
  0
LINE
  5
D5
330
1F
100
AcDbEntity
  8
D-5
  6
Continuous
 62
     7
370
     9
100
AcDbLine
 10
465.9504854515968
 20
353.5677412884024
 30
0.0
 11
449.5239453861411
 21
378.6707587345597
 31
0.0
  0
LINE
  5
D6
330
1F
100
AcDbEntity
  8
D-5
  6
Continuous
 62
     7
370
     9
100
AcDbLine
 10
465.9504854515968
 20
353.5677412884024
 30
0.0
 11
456.5806816878723
 21
382.0671177400493
 31
0.0
  0
TEXT
  5
D7
330
1F
100
AcDbEntity
  8
D-F
  6
Continuous
 62
     2
370
     9
100
AcDbText
 10
861.936965559589
 20
640.7804448201492
 30
0.0
 40
30.48
  1
φ32
 41
1.09375
  7
ＭＳ ゴシック
100
AcDbText
  0
LINE
  5
D8
330
1F
100
AcDbEntity
  8
D-F
  6
Continuous
 62
     7
370
     9
100
AcDbLine
 10
985.6874769352223
 20
629.1405240008925
 30
0.0
 11
825.6864541839557
 21
629.1405240008925
 31
0.0
  0
LINE
  5
D9
330
1F
100
AcDbEntity
  8
D-F
  6
Continuous
 62
     7
370
     9
100
AcDbLine
 10
985.6874769352223
 20
518.5677874771636
 30
0.0
 11
985.6874769352223
 21
634.1405404968805
 31
0.0
  0
LINE
  5
DA
330
1F
100
AcDbEntity
  8
D-F
  6
Continuous
 62
     7
370
     9
100
AcDbLine
 10
825.6864541839557
 20
518.5677874771636
 30
0.0
 11
825.6864541839557
 21
634.1405404968805
 31
0.0
  0
LWPOLYLINE
  5
DB
330
1F
100
AcDbEntity
  8
D-F
  6
Continuous
 62
     7
370
     9
100
AcDbPolyline
 90
        4
 70
     1
 43
2.0
 10
986.6874769352222
 20
629.1405240008925
 42
0.4142135623731
 10
985.6874769352223
 20
630.1405240008925
 42
0.4142135623731
 10
984.6874769352223
 20
629.1405240008925
 42
0.4142135623731
 10
985.6874769352223
 20
628.1405240008925
 42
0.4142135623731
  0
LWPOLYLINE
  5
DC
330
1F
100
AcDbEntity
  8
D-F
  6
Continuous
 62
     7
370
     9
100
AcDbPolyline
 90
        4
 70
     1
 43
2.0
 10
826.6864541839556
 20
629.1405240008925
 42
0.4142135623731
 10
825.6864541839557
 20
630.1405240008925
 42
0.4142135623731
 10
824.6864541839557
 20
629.1405240008925
 42
0.4142135623731
 10
825.6864541839557
 20
628.1405240008925
 42
0.4142135623731
  0
LINE
  5
DD
330
1F
100
AcDbEntity
  8
D-5
  6
Continuous
 62
     7
370
     9
100
AcDbLine
 10
-72.23672918739948
 20
601.3635349719641
 30
0.0
 11
346.6969824297652
 21
601.3635349719641
 31
0.0
  0
LINE
  5
DE
330
1F
100
AcDbEntity
  8
D-5
  6
Continuous
 62
     7
370
     9
100
AcDbLine
 10
346.6969824297652
 20
601.3635349719641
 30
0.0
 11
465.9504854515968
 21
353.5677412884024
 31
0.0
  0
LINE
  5
DF
330
1F
100
AcDbEntity
  8
D-C
  6
Continuous
 62
   211
370
     5
100
AcDbLine
 10
835.6861902481756
 20
287.5679392402799
 30
0.0
 11
975.6861902481938
 21
287.5679392402799
 31
0.0
  0
LINE
  5
E0
330
1F
100
AcDbEntity
  8
D-C
  6
Continuous
 62
   211
370
     5
100
AcDbLine
 10
835.6861902481756
 20
287.5679392402799
 30
0.0
 11
835.6861902481756
 21
267.5679392402844
 31
0.0
  0
LINE
  5
E1
330
1F
100
AcDbEntity
  8
D-C
  6
Continuous
 62
   211
370
     5
100
AcDbLine
 10
835.6861902481756
 20
267.5679392402844
 30
0.0
 11
975.6861902481938
 21
267.5679392402844
 31
0.0
  0
LINE
  5
E2
330
1F
100
AcDbEntity
  8
D-C
  6
Continuous
 62
   211
370
     5
100
AcDbLine
 10
975.6861902481938
 20
287.5679392402799
 30
0.0
 11
975.6861902481938
 21
267.5679392402844
 31
0.0
  0
LINE
  5
E3
330
1F
100
AcDbEntity
  8
D-C
  6
JWW_HOJO
 62
   211
370
     5
100
AcDbLine
 10
865.1861902481829
 20
287.5679392402799
 30
0.0
 11
865.1861902481829
 21
267.5679392402844
 31
0.0
  0
LINE
  5
E4
330
1F
100
AcDbEntity
  8
D-C
  6
JWW_HOJO
 62
   211
370
     5
100
AcDbLine
 10
946.1861902481866
 20
287.5679392402799
 30
0.0
 11
946.1861902481866
 21
267.5679392402844
 31
0.0
  0
LINE
  5
E5
330
1F
100
AcDbEntity
  8
D-C
  6
Continuous
 62
     2
370
     9
100
AcDbLine
 10
870.6873119753487
 20
287.5681371921746
 30
0.0
 11
870.6873119753487
 21
488.5683021520254
 31
0.0
  0
LINE
  5
E6
330
1F
100
AcDbEntity
  8
D-C
  6
Continuous
 62
     2
370
     9
100
AcDbLine
 10
865.687542919182
 20
287.5681371921746
 30
0.0
 11
865.687542919182
 21
488.5683021520254
 31
0.0
  0
LINE
  5
E7
330
1F
100
AcDbEntity
  8
D-C
  6
Continuous
 62
     2
370
     9
100
AcDbLine
 10
945.6873119753487
 20
287.5681371921746
 30
0.0
 11
945.6873119753487
 21
462.3461143880922
 31
0.0
  0
LINE
  5
E8
330
1F
100
AcDbEntity
  8
D-C
  6
Continuous
 62
     2
370
     9
100
AcDbLine
 10
940.6865531598902
 20
287.5681371921746
 30
0.0
 11
940.6865531598902
 21
488.5683021520254
 31
0.0
  0
LINE
  5
E9
330
1F
100
AcDbEntity
  8
D-2
  6
Continuous
 62
     3
370
     9
100
AcDbLine
 10
860.6861902481575
 20
303.5679392402881
 30
0.0
 11
860.6861902481575
 21
287.5681371921746
 31
0.0
  0
LINE
  5
EA
330
1F
100
AcDbEntity
  8
D-2
  6
Continuous
 62
     3
370
     9
100
AcDbLine
 10
950.6861902481666
 20
303.5679392402881
 30
0.0
 11
950.6861902481666
 21
287.5681371921746
 31
0.0
  0
LINE
  5
EB
330
1F
100
AcDbEntity
  8
D-C
  6
JWW_CENTER1
 62
     2
370
     9
100
AcDbLine
 10
905.6869325676195
 20
531.2438459048826
 30
0.0
 11
905.6869325676195
 21
191.936944042136
 31
0.0
  0
LINE
  5
EC
330
1F
100
AcDbEntity
  8
D-2
  6
Continuous
 62
     3
370
     9
100
AcDbLine
 10
1293.687130519491
 20
303.5679392402881
 30
0.0
 11
945.6873119753487
 21
303.5679392402881
 31
0.0
  0
LINE
  5
ED
330
1F
100
AcDbEntity
  8
D-5
  6
Continuous
 62
     7
370
     9
100
AcDbLine
 10
905.6869325676195
 20
217.5667845211092
 30
0.0
 11
898.1692875800127
 21
193.7238607524034
 31
0.0
  0
LINE
  5
EE
330
1F
100
AcDbEntity
  8
D-5
  6
Continuous
 62
     7
370
     9
100
AcDbLine
 10
905.6869325676195
 20
217.5667845211092
 30
0.0
 11
892.2544423589487
 21
196.4819983757872
 31
0.0
  0
LINE
  5
EF
330
1F
100
AcDbEntity
  8
D-F
  6
Continuous
 62
     7
370
     9
100
AcDbLine
 10
240.6869325676195
 20
261.1603431676576
 30
0.0
 11
206.2799303505591
 21
261.1603431676576
 31
0.0
  0
LINE
  5
F0
330
1F
100
AcDbEntity
  8
D-F
  6
Continuous
 62
     7
370
     9
100
AcDbLine
 10
240.6869325676195
 20
329.9753373610702
 30
0.0
 11
275.094924543971
 21
329.9753373610702
 31
0.0
  0
LINE
  5
F1
330
1F
100
AcDbEntity
  8
D-F
  6
Continuous
 62
     7
370
     9
100
AcDbLine
 10
275.094924543971
 20
329.9753373610702
 30
0.0
 11
206.2799303505591
 21
261.1603431676576
 31
0.0
  0
LINE
  5
F2
330
1F
100
AcDbEntity
  8
D-F
  6
Continuous
 62
     7
370
     9
100
AcDbLine
 10
240.6869325676195
 20
538.5677412884479
 30
0.0
 11
240.6869325676195
 21
329.9753373610702
 31
0.0
  0
LINE
  5
F3
330
1F
100
AcDbEntity
  8
D-2
  6
Continuous
 62
     3
370
     9
100
AcDbLine
 10
232.6875264231811
 20
287.5679392402799
 30
0.0
 11
1293.687130519491
 21
287.5679392402799
 31
0.0
  0
LINE
  5
F4
330
1F
100
AcDbEntity
  8
D-2
  6
Continuous
 62
     3
370
     9
100
AcDbLine
 10
865.687542919182
 20
303.5679392402881
 30
0.0
 11
248.6875264231892
 21
303.5679392402881
 31
0.0
  0
LINE
  5
F5
330
1F
100
AcDbEntity
  8
D-3
  6
Continuous
 62
     4
370
     9
100
AcDbLine
 10
1405.686883079648
 20
503.5677412884479
 30
0.0
 11
1405.686883079648
 21
488.5679392403017
 31
0.0
  0
LINE
  5
F6
330
1F
100
AcDbEntity
  8
D-3
  6
Continuous
 62
     4
370
     9
100
AcDbLine
 10
1405.686883079648
 20
488.5679392403017
 30
0.0
 11
1360.686734615752
 21
488.5679392403017
 31
0.0
  0
LINE
  5
F7
330
1F
100
AcDbEntity
  8
D-3
  6
Continuous
 62
     4
370
     9
100
AcDbLine
 10
1360.686734615752
 20
428.5674938486136
 30
0.0
 11
1360.686734615752
 21
488.5679392403017
 31
0.0
  0
LINE
  5
F8
330
1F
100
AcDbEntity
  8
D-3
  6
Continuous
 62
     4
370
     9
100
AcDbLine
 10
1360.686734615752
 20
428.5674938486136
 30
0.0
 11
1345.686932567619
 21
428.5674938486136
 31
0.0
  0
LINE
  5
F9
330
1F
100
AcDbEntity
  8
D-3
  6
Continuous
 62
     4
370
     9
100
AcDbLine
 10
1355.686932567619
 20
503.5677412884479
 30
0.0
 11
1405.686883079648
 21
503.5677412884479
 31
0.0
  0
LINE
  5
FA
330
1F
100
AcDbEntity
  8
D-3
  6
Continuous
 62
     4
370
     9
100
AcDbLine
 10
1345.686932567619
 20
493.5677412884479
 30
0.0
 11
1345.686932567619
 21
428.5674938486136
 31
0.0
  0
ARC
  5
FB
330
1F
100
AcDbEntity
  8
D-3
  6
Continuous
 62
     4
370
     9
100
AcDbCircle
 10
1355.686932567619
 20
493.5677412884479
 30
0.0
 40
10.0
100
AcDbArc
 50
90.0
 51
180.0
  0
LINE
  5
FC
330
1F
100
AcDbEntity
  8
D-F
  6
Continuous
 62
     7
370
     9
100
AcDbLine
 10
1420.687226196203
 20
503.5677412884479
 30
0.0
 11
1679.377233625326
 21
503.5677412884479
 31
0.0
  0
LWPOLYLINE
  5
FD
330
1F
100
AcDbEntity
  8
D-F
  6
Continuous
 62
     7
370
     9
100
AcDbPolyline
 90
        4
 70
     1
 43
2.0
 10
1675.377217129337
 20
503.5677412884479
 42
0.4142135623731
 10
1674.377217129338
 20
504.5677412884479
 42
0.4142135623731
 10
1673.377217129338
 20
503.5677412884479
 42
0.4142135623731
 10
1674.377217129338
 20
502.5677412884479
 42
0.4142135623731
  0
TEXT
  5
FE
330
1F
100
AcDbEntity
  8
D-5
  6
Continuous
 62
     7
370
     9
100
AcDbText
 10
1567.135457620025
 20
682.3618315016676
 30
0.0
 40
22.86
  1
（ＳＵＳ３０４）
 41
1.145833333333333
  7
ＭＳ ゴシック
100
AcDbText
  0
TEXT
  5
FF
330
1F
100
AcDbEntity
  8
D-5
  6
Continuous
 62
     7
370
     9
100
AcDbText
 10
1572.884185295705
 20
766.5294228431991
 30
0.0
 40
22.86
  1
ステンレス目地
 41
1.142857142857143
  7
ＭＳ ゴシック
100
AcDbText
  0
TEXT
  5
100
330
1F
100
AcDbEntity
  8
D-5
  6
Continuous
 62
     7
370
     9
100
AcDbText
 10
1572.884185295705
 20
725.203314952892
 30
0.0
 40
22.86
  1
Ｌ１２×１５×３
 41
1.145833333333333
  7
ＭＳ ゴシック
100
AcDbText
  0
LINE
  5
101
330
1F
100
AcDbEntity
  8
D-5
  6
Continuous
 62
     7
370
     9
100
AcDbLine
 10
1850.004754724256
 20
712.9795240428415
 30
0.0
 11
1568.551032018626
 21
712.9795240428415
 31
0.0
  0
LINE
  5
102
330
1F
100
AcDbEntity
  8
D-5
  6
Continuous
 62
     7
370
     9
100
AcDbLine
 10
1891.773120912305
 20
600.4714876778529
 30
0.0
 11
1590.209548673074
 21
600.4714876778529
 31
0.0
  0
TEXT
  5
103
330
1F
100
AcDbEntity
  8
D-5
  6
Continuous
 62
     7
370
     9
100
AcDbText
 10
1598.541859376318
 20
568.8568600912821
 30
0.0
 40
22.86
  1
（ＳＰＨＣ）
 41
1.138888888888889
  7
ＭＳ ゴシック
100
AcDbText
  0
LINE
  5
104
330
1F
100
AcDbEntity
  8
D-5
  6
Continuous
 62
     7
370
     9
100
AcDbLine
 10
1590.209548673074
 20
600.4714876778529
 30
0.0
 11
1376.686734615756
 21
383.1356867761867
 31
0.0
  0
LINE
  5
105
330
1F
100
AcDbEntity
  8
D-5
  6
Continuous
 62
     7
370
     9
100
AcDbLine
 10
1376.686734615756
 20
383.1356867761867
 30
0.0
 11
1400.324660872089
 21
401.6085541748351
 31
0.0
  0
LINE
  5
106
330
1F
100
AcDbEntity
  8
D-5
  6
Continuous
 62
     7
370
     9
100
AcDbLine
 10
1376.686734615756
 20
383.1356867761867
 30
0.0
 11
1394.738211996456
 21
407.096893160794
 31
0.0
  0
TEXT
  5
107
330
1F
100
AcDbEntity
  8
D-F
  6
Continuous
 62
     2
370
     9
100
AcDbText
 10
1234.714386840734
 20
640.7804448201593
 30
0.0
 40
30.48
  1
12
 41
1.0625
  7
ＭＳ ゴシック
100
AcDbText
  0
TEXT
  5
108
330
1F
100
AcDbEntity
  8
D-F
  6
Continuous
 62
     2
370
     9
100
AcDbText
 10
1333.186553159885
 20
640.7804448201593
 30
0.0
 40
30.48
  1
1
 41
0.9999999999999998
  7
ＭＳ ゴシック
100
AcDbText
  0
TEXT
  5
109
330
1F
100
AcDbEntity
  8
D-F
  6
Continuous
 62
     2
370
     9
100
AcDbText
 10
1412.332135204331
 20
640.7804448201593
 30
0.0
 40
30.48
  1
12
 41
1.0625
  7
ＭＳ ゴシック
100
AcDbText
  0
LINE
  5
10A
330
1F
100
AcDbEntity
  8
D-F
  6
Continuous
 62
     7
370
     9
100
AcDbLine
 10
1454.930377061911
 20
629.1405240009026
 30
0.0
 11
1345.686932567612
 21
629.1405240009026
 31
0.0
  0
LINE
  5
10B
330
1F
100
AcDbEntity
  8
D-F
  6
Continuous
 62
     7
370
     9
100
AcDbLine
 10
1345.686932567612
 20
518.5677874771737
 30
0.0
 11
1345.686932567612
 21
634.1405404968906
 31
0.0
  0
LINE
  5
10C
330
1F
100
AcDbEntity
  8
D-F
  6
Continuous
 62
     7
370
     9
100
AcDbLine
 10
1345.686932567612
 20
629.1405240009026
 30
0.0
 11
1340.686173752157
 21
629.1405240009026
 31
0.0
  0
LINE
  5
10D
330
1F
100
AcDbEntity
  8
D-F
  6
Continuous
 62
     7
370
     9
100
AcDbLine
 10
1340.686173752157
 20
518.5677874771737
 30
0.0
 11
1340.686173752157
 21
634.1405404968906
 31
0.0
  0
LINE
  5
10E
330
1F
100
AcDbEntity
  8
D-F
  6
Continuous
 62
     7
370
     9
100
AcDbLine
 10
1340.686173752157
 20
629.1405240009026
 30
0.0
 11
1226.076749264192
 21
629.1405240009026
 31
0.0
  0
LINE
  5
10F
330
1F
100
AcDbEntity
  8
D-F
  6
Continuous
 62
     7
370
     9
100
AcDbLine
 10
1280.686470679944
 20
518.5677874771737
 30
0.0
 11
1280.686470679944
 21
634.1405404968906
 31
0.0
  0
LWPOLYLINE
  5
110
330
1F
100
AcDbEntity
  8
D-F
  6
Continuous
 62
     7
370
     9
100
AcDbPolyline
 90
        4
 70
     1
 43
2.0
 10
1406.686883079648
 20
629.1405240009026
 42
0.4142135623731
 10
1405.686883079648
 20
630.1405240009026
 42
0.4142135623731
 10
1404.686883079648
 20
629.1405240009026
 42
0.4142135623731
 10
1405.686883079648
 20
628.1405240009026
 42
0.4142135623731
  0
LWPOLYLINE
  5
111
330
1F
100
AcDbEntity
  8
D-F
  6
Continuous
 62
     7
370
     9
100
AcDbPolyline
 90
        4
 70
     1
 43
2.0
 10
1346.686932567612
 20
629.1405240009026
 42
0.4142135623731
 10
1345.686932567612
 20
630.1405240009026
 42
0.4142135623731
 10
1344.686932567613
 20
629.1405240009026
 42
0.4142135623731
 10
1345.686932567612
 20
628.1405240009026
 42
0.4142135623731
  0
LWPOLYLINE
  5
112
330
1F
100
AcDbEntity
  8
D-F
  6
Continuous
 62
     7
370
     9
100
AcDbPolyline
 90
        4
 70
     1
 43
2.0
 10
1341.686173752157
 20
629.1405240009026
 42
0.4142135623731
 10
1340.686173752157
 20
630.1405240009026
 42
0.4142135623731
 10
1339.686173752157
 20
629.1405240009026
 42
0.4142135623731
 10
1340.686173752157
 20
628.1405240009026
 42
0.4142135623731
  0
LWPOLYLINE
  5
113
330
1F
100
AcDbEntity
  8
D-F
  6
Continuous
 62
     7
370
     9
100
AcDbPolyline
 90
        4
 70
     1
 43
2.0
 10
1281.686470679944
 20
629.1405240009026
 42
0.4142135623731
 10
1280.686470679944
 20
630.1405240009026
 42
0.4142135623731
 10
1279.686470679944
 20
629.1405240009026
 42
0.4142135623731
 10
1280.686470679944
 20
628.1405240009026
 42
0.4142135623731
  0
LINE
  5
114
330
1F
100
AcDbEntity
  8
D-F
  6
Continuous
 62
     7
370
     9
100
AcDbLine
 10
1405.686883079648
 20
518.5677874771743
 30
0.0
 11
1405.686883079648
 21
868.5922844548925
 31
0.0
  0
LWPOLYLINE
  5
115
330
1F
100
AcDbEntity
  8
D-F
  6
Continuous
 62
     7
370
     9
100
AcDbPolyline
 90
        4
 70
     1
 43
2.0
 10
1406.686883079648
 20
863.5922679589039
 42
0.4142135623731
 10
1405.686883079648
 20
864.5922679589039
 42
0.4142135623731
 10
1404.686883079648
 20
863.5922679589039
 42
0.4142135623731
 10
1405.686883079648
 20
862.592267958904
 42
0.4142135623731
  0
LINE
  5
116
330
1F
100
AcDbEntity
  8
D-F
  6
Continuous
 62
     7
370
     9
100
AcDbLine
 10
1405.686883079648
 20
863.5922679589039
 30
0.0
 11
240.6869325676195
 21
863.5922679589039
 31
0.0
  0
LINE
  5
117
330
1F
100
AcDbEntity
  8
D-F
  6
Continuous
 62
     7
370
     9
100
AcDbLine
 10
1405.687130519471
 20
755.7713202814482
 30
0.0
 11
905.6864706799439
 21
755.7713202814482
 31
0.0
  0
LINE
  5
118
330
1F
100
AcDbEntity
  8
D-F
  6
Continuous
 62
     7
370
     9
100
AcDbLine
 10
1405.687130519471
 20
755.5921260312233
 30
0.0
 11
1405.687130519471
 21
750.7713037854596
 31
0.0
  0
LWPOLYLINE
  5
119
330
1F
100
AcDbEntity
  8
D-F
  6
Continuous
 62
     7
370
     9
100
AcDbPolyline
 90
        4
 70
     1
 43
2.0
 10
1406.687130519471
 20
755.7713202814482
 42
0.4142135623731
 10
1405.687130519471
 20
756.7713202814481
 42
0.4142135623731
 10
1404.687130519471
 20
755.7713202814482
 42
0.4142135623731
 10
1405.687130519471
 20
754.7713202814482
 42
0.4142135623731
  0
LWPOLYLINE
  5
11A
330
1F
100
AcDbEntity
  8
D-F
  6
Continuous
 62
     7
370
     9
100
AcDbPolyline
 90
        4
 70
     1
 43
2.0
 10
906.6864706799438
 20
755.7713202814482
 42
0.4142135623731
 10
905.6864706799439
 20
756.7713202814481
 42
0.4142135623731
 10
904.686470679944
 20
755.7713202814482
 42
0.4142135623731
 10
905.6864706799439
 20
754.7713202814482
 42
0.4142135623731
  0
TEXT
  5
11B
330
1F
100
AcDbEntity
  8
D-F
  6
Continuous
 62
     2
370
     9
100
AcDbText
 10
1123.186800599708
 20
767.4112411007044
 30
0.0
 40
30.48
  1
100
 41
1.083333333333333
  7
ＭＳ ゴシック
100
AcDbText
  0
LINE
  5
11C
330
1F
100
AcDbEntity
  8
D-F
  6
Continuous
 62
     7
370
     9
100
AcDbLine
 10
905.6864706799439
 20
695.8554473933508
 30
0.0
 11
905.6864706799439
 21
760.7713367774362
 31
0.0
  0
LINE
  5
11D
330
1F
100
AcDbEntity
  8
D-5
  6
Continuous
 62
     7
370
     9
100
AcDbLine
 10
1568.551032018626
 20
712.9795240428415
 30
0.0
 11
1321.897807558048
 21
503.5677379892097
 31
0.0
  0
LINE
  5
11E
330
1F
100
AcDbEntity
  8
D-5
  6
Continuous
 62
     7
370
     9
100
AcDbLine
 10
1568.551032018626
 20
712.9795240428415
 30
0.0
 11
1362.813212159066
 21
503.5677379892097
 31
0.0
  0
LINE
  5
11F
330
1F
100
AcDbEntity
  8
D-5
  6
Continuous
 62
     7
370
     9
100
AcDbLine
 10
1362.813212159066
 20
503.5677379892097
 30
0.0
 11
1377.856068736346
 21
523.5353893563972
 31
0.0
  0
LINE
  5
120
330
1F
100
AcDbEntity
  8
D-5
  6
Continuous
 62
     7
370
     9
100
AcDbLine
 10
1362.813212159066
 20
503.5677379892097
 30
0.0
 11
1382.511648999226
 21
518.9617116748092
 31
0.0
  0
LINE
  5
121
330
1F
100
AcDbEntity
  8
D-5
  6
Continuous
 62
     7
370
     9
100
AcDbLine
 10
1321.897807558048
 20
503.5677379892097
 30
0.0
 11
1338.680660968099
 21
522.0970216674191
 31
0.0
  0
LINE
  5
122
330
1F
100
AcDbEntity
  8
D-5
  6
Continuous
 62
     7
370
     9
100
AcDbLine
 10
1321.897807558048
 20
503.5677379892097
 30
0.0
 11
1342.904458740481
 21
517.121996593517
 31
0.0
  0
LINE
  5
123
330
1F
100
AcDbEntity
  8
D-5
  6
Continuous
 62
     7
370
     9
100
AcDbLine
 10
658.2168289672488
 20
-313.1345652691029
 30
0.0
 11
905.6869325676195
 21
217.5667845211092
 31
0.0
  0
TEXT
  5
124
330
1F
100
AcDbEntity
  8
D-5
  6
Continuous
 62
     7
370
     9
100
AcDbText
 10
247.7599187442199
 20
-263.5514291087284
 30
0.0
 40
22.86
  1
六角ボルト：Ｍ１６×２５
 41
1.152777777777778
  7
ＭＳ ゴシック
100
AcDbText
  0
LINE
  5
125
330
1F
100
AcDbEntity
  8
D-5
  6
Continuous
 62
     7
370
     9
100
AcDbLine
 10
658.2168289672488
 20
-313.1345652691029
 30
0.0
 11
241.2316885596435
 21
-313.1345652691029
 31
0.0
  0
TEXT
  5
126
330
1F
100
AcDbEntity
  8
D-5
  6
Continuous
 62
     7
370
     9
100
AcDbText
 10
246.7127477947695
 20
-300.2730629580619
 30
0.0
 40
22.86
  1
ばね座金
 41
1.125
  7
ＭＳ ゴシック
100
AcDbText
  0
TEXT
  5
127
330
1F
100
AcDbEntity
  8
D-5
  6
Continuous
 62
     7
370
     9
100
AcDbText
 10
238.4508743299709
 20
-345.8323186796168
 30
0.0
 40
22.86
  1
（ＳＵＳ３０４）
 41
1.145833333333333
  7
ＭＳ ゴシック
100
AcDbText
  0
LINE
  5
128
330
1F
100
AcDbEntity
  8
D-5
  6
Continuous
 62
     7
370
     9
100
AcDbLine
 10
637.3187208633683
 20
287.5679392402799
 30
0.0
 11
623.8862306546976
 21
266.4831530949579
 31
0.0
  0
LINE
  5
129
330
1F
100
AcDbEntity
  8
D-5
  6
Continuous
 62
     7
370
     9
100
AcDbLine
 10
637.3187208633683
 20
287.5679392402799
 30
0.0
 11
629.8010758757615
 21
263.7250154715741
 31
0.0
  0
TEXT
  5
12A
330
1F
100
AcDbEntity
  8
D-5
  6
Continuous
 62
     7
370
     9
100
AcDbText
 10
1612.155192742435
 20
617.0210215672113
 30
0.0
 40
22.86
  1
受枠：ｔ＝３．２
 41
1.145833333333333
  7
ＭＳ ゴシック
100
AcDbText
  0
TEXT
  5
12B
330
1F
100
AcDbEntity
  8
D-5
  6
Continuous
 62
     7
370
     9
100
AcDbText
 10
-72.63479543552575
 20
614.5977622042949
 30
0.0
 40
22.86
  1
モルタル止め：ｔ＝１．０
 41
1.152777777777778
  7
ＭＳ ゴシック
100
AcDbText
  0
TEXT
  5
12C
330
1F
100
AcDbEntity
  8
D-5
  6
Continuous
 62
     7
370
     9
100
AcDbText
 10
-86.1952887241402
 20
569.6885320686681
 30
0.0
 40
22.86
  1
（ＳＵＳ３０４）
 41
1.145833333333333
  7
ＭＳ ゴシック
100
AcDbText
  0
TEXT
  5
12D
330
1F
100
AcDbEntity
  8
F-Fﾚｲﾔ
  6
Continuous
 62
     2
370
     9
100
AcDbText
 10
-1732.999968915371
 20
-304.8585602159752
 30
0.0
 40
30.48
  1
強度
 41
1.0625
  7
ＭＳ ゴシック
100
AcDbText
  0
TEXT
  5
12E
330
1F
100
AcDbEntity
  8
F-Fﾚｲﾔ
  6
Continuous
 62
     2
370
     9
100
AcDbText
 10
-1732.999968915371
 20
-204.9262175710006
 30
0.0
 40
30.48
  1
強度性能・質量
 41
1.107142857142857
  7
ＭＳ ゴシック
100
AcDbText
  0
TEXT
  5
12F
330
1F
100
AcDbEntity
  8
F-Fﾚｲﾔ
  6
Continuous
 62
     2
370
     9
100
AcDbText
 10
-1732.999968915371
 20
-394.8585602159752
 30
0.0
 40
30.48
  1
主な設置場所
 41
1.104166666666667
  7
ＭＳ ゴシック
100
AcDbText
  0
TEXT
  5
130
330
1F
100
AcDbEntity
  8
F-Fﾚｲﾔ
  6
Continuous
 62
     2
370
     9
100
AcDbText
 10
-1732.999968915371
 20
-577.3585685606266
 30
0.0
 40
30.48
  1
後輪一輪荷重
 41
1.104166666666667
  7
ＭＳ ゴシック
100
AcDbText
  0
TEXT
  5
131
330
1F
100
AcDbEntity
  8
F-Fﾚｲﾔ
  6
Continuous
 62
     2
370
     9
100
AcDbText
 10
-1732.999968915371
 20
-757.358883273151
 30
0.0
 40
30.48
  1
荷重条件
 41
1.09375
  7
ＭＳ ゴシック
100
AcDbText
  0
TEXT
  5
132
330
1F
100
AcDbEntity
  8
F-Fﾚｲﾔ
  6
Continuous
 62
     2
370
     9
100
AcDbText
 10
-1732.999968915371
 20
-847.359169375446
 30
0.0
 40
30.48
  1
許容応力
 41
1.09375
  7
ＭＳ ゴシック
100
AcDbText
  0
TEXT
  5
133
330
1F
100
AcDbEntity
  8
F-Fﾚｲﾔ
  6
Continuous
 62
     2
370
     9
100
AcDbText
 10
-1732.999968915371
 20
-667.3583396787907
 30
0.0
 40
30.48
  1
衝撃係数
 41
1.09375
  7
ＭＳ ゴシック
100
AcDbText
  0
TEXT
  5
134
330
1F
100
AcDbEntity
  8
F-Fﾚｲﾔ
  6
Continuous
 62
     2
370
     9
100
AcDbText
 10
-1732.999968915371
 20
-937.3594554777409
 30
0.0
 40
30.48
  1
質量
 41
1.0625
  7
ＭＳ ゴシック
100
AcDbText
  0
TEXT
  5
135
330
1F
100
AcDbEntity
  8
F-Fﾚｲﾔ
  6
Continuous
 62
     2
370
     9
100
AcDbText
 10
-1732.999968915371
 20
-1027.359741580036
 30
0.0
 40
30.48
  1
充填時の蓋質量
 41
1.107142857142857
  7
ＭＳ ゴシック
100
AcDbText
  0
TEXT
  5
136
330
1F
100
AcDbEntity
  8
F-Fﾚｲﾔ
  6
Continuous
 62
     2
370
     9
100
AcDbText
 10
-1351.665067021346
 20
-847.3594268675114
 30
0.0
 40
30.48
  1
約235N/mm
 41
1.111111111111109
  7
ＭＳ ゴシック
100
AcDbText
  0
TEXT
  5
137
330
1F
100
AcDbEntity
  8
F-Fﾚｲﾔ
  6
Continuous
 62
     2
370
     9
100
AcDbText
 10
-1351.665067021346
 20
-667.3583396787907
 30
0.0
 40
30.48
  1
0
 41
0.9999999999999998
  7
ＭＳ ゴシック
100
AcDbText
  0
TEXT
  5
138
330
1F
100
AcDbEntity
  8
F-5ﾚｲﾔ
  6
Continuous
 62
     6
370
     9
100
AcDbText
 10
-1148.941757066602
 20
-820.9573724632074
 30
0.0
 40
15.24
  1
2
 41
0.9999999999999998
  7
ＭＳ ゴシック
100
AcDbText
  0
LINE
  5
139
330
1F
100
AcDbEntity
  8
F-Fﾚｲﾔ
  6
Continuous
 62
     7
370
     9
100
AcDbLine
 10
-1762.999968915371
 20
-137.9982896108879
 30
0.0
 11
-1762.999968915371
 21
-1057.999884631183
 31
0.0
  0
LINE
  5
13A
330
1F
100
AcDbEntity
  8
F-Fﾚｲﾔ
  6
Continuous
 62
     7
370
     9
100
AcDbLine
 10
-1762.999968915371
 20
-137.9982896108879
 30
0.0
 11
-242.9999689153715
 21
-137.9982896108879
 31
0.0
  0
LINE
  5
13B
330
1F
100
AcDbEntity
  8
F-Fﾚｲﾔ
  6
Continuous
 62
     7
370
     9
100
AcDbLine
 10
-242.9999689153715
 20
-1057.999884631183
 30
0.0
 11
-1762.999968915371
 21
-1057.999884631183
 31
0.0
  0
LINE
  5
13C
330
1F
100
AcDbEntity
  8
F-Fﾚｲﾔ
  6
Continuous
 62
     7
370
     9
100
AcDbLine
 10
-1762.999968915371
 20
-237.9983968992485
 30
0.0
 11
-242.9999689153715
 21
-237.9983968992485
 31
0.0
  0
LINE
  5
13D
330
1F
100
AcDbEntity
  8
F-Fﾚｲﾔ
  6
Continuous
 62
     7
370
     9
100
AcDbLine
 10
-1762.999968915371
 20
-247.9983968992485
 30
0.0
 11
-242.9999689153715
 21
-247.9983968992485
 31
0.0
  0
LINE
  5
13E
330
1F
100
AcDbEntity
  8
F-5ﾚｲﾔ
  6
Continuous
 62
     7
370
     9
100
AcDbLine
 10
-1762.999968915371
 20
-337.9986830015446
 30
0.0
 11
-242.9999689153715
 21
-337.9986830015446
 31
0.0
  0
LINE
  5
13F
330
1F
100
AcDbEntity
  8
F-Fﾚｲﾔ
  6
Continuous
 62
     7
370
     9
100
AcDbLine
 10
-1762.999968915371
 20
-337.9986830015446
 30
0.0
 11
-242.9999689153715
 21
-337.9986830015446
 31
0.0
  0
LINE
  5
140
330
1F
100
AcDbEntity
  8
F-5ﾚｲﾔ
  6
Continuous
 62
     7
370
     9
100
AcDbLine
 10
-1762.999968915371
 20
-517.9986830015446
 30
0.0
 11
-242.9999689153715
 21
-517.9986830015446
 31
0.0
  0
LINE
  5
141
330
1F
100
AcDbEntity
  8
F-Fﾚｲﾔ
  6
Continuous
 62
     7
370
     9
100
AcDbLine
 10
-1762.999968915371
 20
-607.9984541197086
 30
0.0
 11
-242.9999689153715
 21
-607.9984541197086
 31
0.0
  0
LINE
  5
142
330
1F
100
AcDbEntity
  8
F-Fﾚｲﾔ
  6
Continuous
 62
     7
370
     9
100
AcDbLine
 10
-242.9999689153715
 20
-787.9990263242985
 30
0.0
 11
-1762.999968915371
 21
-787.9990263242985
 31
0.0
  0
LINE
  5
143
330
1F
100
AcDbEntity
  8
F-Fﾚｲﾔ
  6
Continuous
 62
     7
370
     9
100
AcDbLine
 10
-242.9999689153715
 20
-877.9993124265934
 30
0.0
 11
-1762.999968915371
 21
-877.9993124265934
 31
0.0
  0
LINE
  5
144
330
1F
100
AcDbEntity
  8
F-Fﾚｲﾔ
  6
Continuous
 62
     7
370
     9
100
AcDbLine
 10
-1762.999968915371
 20
-697.9982252378727
 30
0.0
 11
-242.9999689153715
 21
-697.9982252378727
 31
0.0
  0
LINE
  5
145
330
1F
100
AcDbEntity
  8
F-Fﾚｲﾔ
  6
Continuous
 62
     7
370
     9
100
AcDbLine
 10
-242.9999689153715
 20
-967.9995985288883
 30
0.0
 11
-1762.999968915371
 21
-967.9995985288883
 31
0.0
  0
LINE
  5
146
330
1F
100
AcDbEntity
  8
F-Fﾚｲﾔ
  6
Continuous
 62
     7
370
     9
100
AcDbLine
 10
-1762.999968915371
 20
-517.9986830015446
 30
0.0
 11
-242.9999689153715
 21
-517.9986830015446
 31
0.0
  0
TEXT
  5
147
330
1F
100
AcDbEntity
  8
F-Fﾚｲﾔ
  6
Continuous
 62
     2
370
     9
100
AcDbText
 10
-1351.665067021346
 20
-388.42843248164
 30
0.0
 40
30.48
  1
車道以外で、車両が走行することはまれで、走行する
 41
1.119791666666667
  7
ＭＳ ゴシック
100
AcDbText
  0
TEXT
  5
148
330
1F
100
AcDbEntity
  8
F-Fﾚｲﾔ
  6
Continuous
 62
     2
370
     9
100
AcDbText
 10
-1351.665067021346
 20
-442.9119068287062
 30
0.0
 40
30.48
  1
ことがあっても一時的な通過などで低速で走行するよ
 41
1.119791666666667
  7
ＭＳ ゴシック
100
AcDbText
  0
TEXT
  5
149
330
1F
100
AcDbEntity
  8
F-Fﾚｲﾔ
  6
Continuous
 62
     2
370
     9
100
AcDbText
 10
-1351.665067021346
 20
-497.3953811757721
 30
0.0
 40
30.48
  1
うな、車両が乗り入れる可能性のある建物内
 41
1.11875
  7
ＭＳ ゴシック
100
AcDbText
  0
LINE
  5
14A
330
1F
100
AcDbEntity
  8
F-5ﾚｲﾔ
  6
Continuous
 62
     7
370
     9
100
AcDbLine
 10
-242.9999689153715
 20
-137.9982896108879
 30
0.0
 11
-242.9999689153715
 21
-1057.999884631183
 31
0.0
  0
LINE
  5
14B
330
1F
100
AcDbEntity
  8
F-Fﾚｲﾔ
  6
Continuous
 62
     7
370
     9
100
AcDbLine
 10
-1392.999968915371
 20
-237.9983968992485
 30
0.0
 11
-1392.999968915371
 21
-1057.999884631183
 31
0.0
  0
TEXT
  5
14C
330
1F
100
AcDbEntity
  8
F-Fﾚｲﾔ
  6
Continuous
 62
     2
370
     9
100
AcDbText
 10
-1351.665067021346
 20
-304.8585602159752
 30
0.0
 40
30.48
  1
T-2：総重量2,000kgfまでの車両の乗り入れが可能
 41
1.119444444444444
  7
ＭＳ ゴシック
100
AcDbText
  0
TEXT
  5
14D
330
1F
100
AcDbEntity
  8
F-Fﾚｲﾔ
  6
Continuous
 62
     2
370
     9
100
AcDbText
 10
-1351.665067021346
 20
-577.3585685606266
 30
0.0
 40
30.48
  1
7.8kN（800kgf）
 41
1.108333333333333
  7
ＭＳ ゴシック
100
AcDbText
  0
TEXT
  5
14E
330
1F
100
AcDbEntity
  8
F-Fﾚｲﾔ
  6
Continuous
 62
     2
370
     9
100
AcDbText
 10
-1351.665067021346
 20
-757.3591407652165
 30
0.0
 40
30.48
  1
載荷板寸法：200×160 mm
 41
1.119565217391304
  7
ＭＳ ゴシック
100
AcDbText
  0
ARC
  5
14F
330
1F
100
AcDbEntity
  8
D-E
  6
Continuous
 62
     3
370
     9
100
AcDbCircle
 10
1424.186644016677
 20
304.0676473901732
 30
0.0
 40
22.5
100
AcDbArc
 50
180.0
 51
270.0
  0
LINE
  5
150
330
1F
100
AcDbEntity
  8
D-E
  6
Continuous
 62
     3
370
     9
100
AcDbLine
 10
1576.68665832181
 20
256.5677379892242
 30
0.0
 11
1376.686734615756
 21
256.5677379892242
 31
0.0
  0
LINE
  5
151
330
1F
100
AcDbEntity
  8
D-E
  6
Continuous
 62
     3
370
     9
100
AcDbLine
 10
1424.186644016677
 20
281.5676974580657
 30
0.0
 11
1561.686601101351
 21
281.5676974580657
 31
0.0
  0
ARC
  5
152
330
1F
100
AcDbEntity
  8
D-E
  6
Continuous
 62
     3
370
     9
100
AcDbCircle
 10
1561.686601101351
 20
266.5676473901732
 30
0.0
 40
15.00000000000001
100
AcDbArc
 50
0.0
 51
90.0
  0
LINE
  5
153
330
1F
100
AcDbEntity
  8
D-E
  6
Continuous
 62
     3
370
     9
100
AcDbLine
 10
1576.68665832181
 20
266.5676473901732
 30
0.0
 11
1576.68665832181
 21
256.5677379892242
 31
0.0
  0
LINE
  5
154
330
1F
100
AcDbEntity
  8
D-E
  6
Continuous
 62
     3
370
     9
100
AcDbLine
 10
1386.686644016677
 20
456.5676616952788
 30
0.0
 11
1376.686734615756
 21
456.5676616952788
 31
0.0
  0
LINE
  5
155
330
1F
100
AcDbEntity
  8
D-E
  6
Continuous
 62
     3
370
     9
100
AcDbLine
 10
1401.686694084597
 20
304.0676473901732
 30
0.0
 11
1401.686694084597
 21
441.5676044748199
 31
0.0
  0
ARC
  5
156
330
1F
100
AcDbEntity
  8
D-E
  6
Continuous
 62
     3
370
     9
100
AcDbCircle
 10
1386.686644016677
 20
441.5676044748199
 30
0.0
 40
15.00000000000001
100
AcDbArc
 50
0.0
 51
90.0
  0
LINE
  5
157
330
1F
100
AcDbEntity
  8
D-E
  6
Continuous
 62
     3
370
     9
100
AcDbLine
 10
1376.686734615756
 20
256.5677379892242
 30
0.0
 11
1376.686734615756
 21
456.5676616952788
 31
0.0
  0
LINE
  5
158
330
1F
100
AcDbEntity
  8
D-E
  6
JWW_DASHED1
 62
     3
370
     9
100
AcDbLine
 10
1536.68665832181
 20
281.5676974580657
 30
0.0
 11
1536.68665832181
 21
256.5677379892242
 31
0.0
  0
LINE
  5
159
330
1F
100
AcDbEntity
  8
D-E
  6
JWW_DASHED1
 62
     3
370
     9
100
AcDbLine
 10
1466.686658321828
 20
281.5676974580657
 30
0.0
 11
1466.686658321828
 21
256.5677379892242
 31
0.0
  0
LINE
  5
15A
330
1F
100
AcDbEntity
  8
D-7
  6
JWW_CENTER1
 62
     4
370
     9
100
AcDbLine
 10
1501.68665832181
 20
297.6144776169861
 30
0.0
 11
1501.68665832181
 21
239.1469736923392
 31
0.0
  0
TEXT
  5
15B
330
1F
100
AcDbEntity
  8
D-5
  6
Continuous
 62
     7
370
     9
100
AcDbText
 10
1559.212947701528
 20
191.8096959140183
 30
0.0
 40
22.86
  1
Φ１４
 41
1.111111111111111
  7
ＭＳ ゴシック
100
AcDbText
  0
LINE
  5
15C
330
1F
100
AcDbEntity
  8
D-5
  6
Continuous
 62
     7
370
     9
100
AcDbLine
 10
1501.68665832181
 20
256.5677379892242
 30
0.0
 11
1512.903600361506
 21
228.7436248135481
 31
0.0
  0
LINE
  5
15D
330
1F
100
AcDbEntity
  8
D-5
  6
Continuous
 62
     7
370
     9
100
AcDbLine
 10
1501.68665832181
 20
256.5677379892242
 30
0.0
 11
1519.722794433507
 21
232.5947782130413
 31
0.0
  0
LINE
  5
15E
330
1F
100
AcDbEntity
  8
D-5
  6
Continuous
 62
     7
370
     9
100
AcDbLine
 10
1544.015354136861
 20
181.6183322978685
 30
0.0
 11
1501.68665832181
 21
256.5677379892242
 31
0.0
  0
LINE
  5
15F
330
1F
100
AcDbEntity
  8
D-5
  6
Continuous
 62
     7
370
     9
100
AcDbLine
 10
1544.015354136861
 20
181.6183322978685
 30
0.0
 11
1660.159839782261
 21
181.6183322978685
 31
0.0
  0
LINE
  5
160
330
1F
100
AcDbEntity
  8
D-6
  6
Continuous
 62
     6
370
     9
100
AcDbLine
 10
1289.574261669185
 20
272.5679392402799
 30
0.0
 11
1300.686536663906
 21
283.6799667951789
 31
0.0
  0
LINE
  5
161
330
1F
100
AcDbEntity
  8
D-6
  6
Continuous
 62
     6
370
     9
100
AcDbLine
 10
1275.432580925942
 20
272.5679392402799
 30
0.0
 11
1290.432433956453
 21
287.5679392402799
 31
0.0
  0
LINE
  5
162
330
1F
100
AcDbEntity
  8
D-6
  6
Continuous
 62
     6
370
     9
100
AcDbLine
 10
1261.290157863231
 20
272.5679392402799
 30
0.0
 11
1276.290405304278
 21
287.5679392402799
 31
0.0
  0
LINE
  5
163
330
1F
100
AcDbEntity
  8
D-6
  6
Continuous
 62
     6
370
     9
100
AcDbLine
 10
1247.147982240342
 20
272.5679392402799
 30
0.0
 11
1262.147858519819
 21
287.5679392402799
 31
0.0
  0
LINE
  5
164
330
1F
100
AcDbEntity
  8
D-6
  6
Continuous
 62
     6
370
     9
100
AcDbLine
 10
1233.005559177631
 20
272.5679392402799
 30
0.0
 11
1248.005930339202
 21
287.5679392402799
 31
0.0
  0
LINE
  5
165
330
1F
100
AcDbEntity
  8
D-6
  6
Continuous
 62
     6
370
     9
100
AcDbLine
 10
1218.863630994565
 20
272.5679392402799
 30
0.0
 11
1233.863630994565
 21
287.5679392402799
 31
0.0
  0
LINE
  5
166
330
1F
100
AcDbEntity
  8
D-6
  6
Continuous
 62
     6
370
     9
100
AcDbLine
 10
1204.721455371676
 20
272.5679392402799
 30
0.0
 11
1219.721826533248
 21
287.5679392402799
 31
0.0
  0
LINE
  5
167
330
1F
100
AcDbEntity
  8
D-6
  6
Continuous
 62
     6
370
     9
100
AcDbLine
 10
1190.579279748788
 20
272.5679392402799
 30
0.0
 11
1205.579403469312
 21
287.5679392402799
 31
0.0
  0
LINE
  5
168
330
1F
100
AcDbEntity
  8
D-6
  6
Continuous
 62
     6
370
     9
100
AcDbLine
 10
1176.437846445368
 20
272.5679392402799
 30
0.0
 11
1191.437970165891
 21
287.5679392402799
 31
0.0
  0
LINE
  5
169
330
1F
100
AcDbEntity
  8
D-6
  6
Continuous
 62
     6
370
     9
100
AcDbLine
 10
1175.687114023493
 20
285.9587638417366
 30
0.0
 11
1177.296253462006
 21
287.5679392402799
 31
0.0
  0
LINE
  5
16A
330
1F
100
AcDbEntity
  8
D-6
  6
Continuous
 62
     6
370
     9
100
AcDbLine
 10
1300.686289224084
 20
287.5679392402799
 30
0.0
 11
1300.686289224084
 21
272.5679392402799
 31
0.0
  0
LINE
  5
16B
330
1F
100
AcDbEntity
  8
D-6
  6
Continuous
 62
     6
370
     9
100
AcDbLine
 10
1175.68686658367
 20
287.5679392402799
 30
0.0
 11
1300.686289224084
 21
287.5679392402799
 31
0.0
  0
LINE
  5
16C
330
1F
100
AcDbEntity
  8
D-6
  6
Continuous
 62
     6
370
     9
100
AcDbLine
 10
1175.68686658367
 20
287.5679392402799
 30
0.0
 11
1175.68686658367
 21
272.5679392402799
 31
0.0
  0
LINE
  5
16D
330
1F
100
AcDbEntity
  8
D-5
  6
Continuous
 62
     7
370
     9
100
AcDbLine
 10
1403.967811388357
 20
256.5677379892242
 30
0.0
 11
1422.003947500054
 21
232.5947782130413
 31
0.0
  0
LINE
  5
16E
330
1F
100
AcDbEntity
  8
D-5
  6
Continuous
 62
     7
370
     9
100
AcDbLine
 10
1403.967811388357
 20
256.5677379892242
 30
0.0
 11
1415.184753428053
 21
228.7436248135481
 31
0.0
  0
LINE
  5
16F
330
1F
100
AcDbEntity
  8
D-5
  6
Continuous
 62
     7
370
     9
100
AcDbLine
 10
1495.279446724787
 20
94.88657419730714
 30
0.0
 11
1403.967811388357
 21
256.5677379892242
 31
0.0
  0
TEXT
  5
170
330
1F
100
AcDbEntity
  8
D-5
  6
Continuous
 62
     7
370
     9
100
AcDbText
 10
1499.060327334742
 20
64.83984904686336
 30
0.0
 40
22.86
  1
（ＳＳ４００）
 41
1.142857142857143
  7
ＭＳ ゴシック
100
AcDbText
  0
LINE
  5
171
330
1F
100
AcDbEntity
  8
D-5
  6
Continuous
 62
     7
370
     9
100
AcDbLine
 10
1495.279446724787
 20
94.88657419730714
 30
0.0
 11
1949.060327334742
 21
94.88657419730714
 31
0.0
  0
TEXT
  5
172
330
1F
100
AcDbEntity
  8
D-F
  6
Continuous
 62
     2
370
   211
100
AcDbText
 10
1517.93665832181
 20
384.6974917212393
 30
0.0
 40
30.48
  1
15
 41
1.0625
  7
ＭＳ ゴシック
100
AcDbText
  0
LWPOLYLINE
  5
173
330
1F
100
AcDbEntity
  8
D-F
  6
Continuous
 62
     7
370
     9
100
AcDbPolyline
 90
        4
 70
     1
 43
2.0
 10
1675.377217129337
 20
256.56727597268
 42
0.4142135623731
 10
1674.377217129338
 20
257.56727597268
 42
0.4142135623731
 10
1673.377217129338
 20
256.56727597268
 42
0.4142135623731
 10
1674.377217129338
 20
255.56727597268
 42
0.4142135623731
  0
LINE
  5
174
330
1F
100
AcDbEntity
  8
D-F
  6
Continuous
 62
     7
370
     9
100
AcDbLine
 10
1501.68665832181
 20
373.0574917212391
 30
0.0
 11
1576.68665832181
 21
373.0574917212391
 31
0.0
  0
LWPOLYLINE
  5
175
330
1F
100
AcDbEntity
  8
D-F
  6
Continuous
 62
     7
370
     9
100
AcDbPolyline
 90
        4
 70
     1
 43
2.0
 10
1502.68665832181
 20
373.0574917212391
 42
0.4142135623731
 10
1501.68665832181
 20
374.0574917212391
 42
0.4142135623731
 10
1500.68665832181
 20
373.0574917212391
 42
0.4142135623731
 10
1501.68665832181
 20
372.0574917212391
 42
0.4142135623731
  0
LWPOLYLINE
  5
176
330
1F
100
AcDbEntity
  8
D-F
  6
Continuous
 62
     7
370
     9
100
AcDbPolyline
 90
        4
 70
     1
 43
2.0
 10
1577.68665832181
 20
373.0574917212391
 42
0.4142135623731
 10
1576.68665832181
 20
374.0574917212391
 42
0.4142135623731
 10
1575.68665832181
 20
373.0574917212391
 42
0.4142135623731
 10
1576.68665832181
 20
372.0574917212391
 42
0.4142135623731
  0
LINE
  5
177
330
1F
100
AcDbEntity
  8
D-F
  6
Continuous
 62
     7
370
     9
100
AcDbLine
 10
1501.68665832181
 20
376.0574917212392
 30
0.0
 11
1501.68665832181
 21
317.6144776169815
 31
0.0
  0
LINE
  5
178
330
1F
100
AcDbEntity
  8
D-F
  6
Continuous
 62
     7
370
     9
100
AcDbLine
 10
1576.68665832181
 20
376.0574917212392
 30
0.0
 11
1576.68665832181
 21
276.5677379892242
 31
0.0
  0
LINE
  5
179
330
1F
100
AcDbEntity
  8
D-F
  6
Continuous
 62
     7
370
     9
100
AcDbLine
 10
1175.68686658367
 20
241.567812221171
 30
0.0
 11
1175.68686658367
 21
-429.9100014638128
 31
0.0
  0
LINE
  5
17A
330
1F
100
AcDbEntity
  8
D-F
  6
Continuous
 62
     7
370
     9
100
AcDbLine
 10
1376.686440987175
 20
235.1856626913997
 30
0.0
 11
1376.686440987175
 21
-429.9100014638128
 31
0.0
  0
LINE
  5
17B
330
1F
100
AcDbEntity
  8
D-F
  6
Continuous
 62
     7
370
     9
100
AcDbLine
 10
1679.377233625326
 20
256.56727597268
 30
0.0
 11
1582.703151781038
 21
256.56727597268
 31
0.0
  0
ARC
  5
17C
330
1F
100
AcDbEntity
  8
D-1
  6
Continuous
 62
     2
370
     9
100
AcDbCircle
 10
1338.186734615752
 20
295.0677379892187
 30
0.0
 40
22.5
100
AcDbArc
 50
270.0
 51
0.0
  0
LINE
  5
17D
330
1F
100
AcDbEntity
  8
D-1
  6
Continuous
 62
     2
370
     9
100
AcDbLine
 10
1175.68686658367
 20
272.5677379892278
 30
0.0
 11
1338.186734615752
 21
272.5677379892278
 31
0.0
  0
ARC
  5
17E
330
1F
100
AcDbEntity
  8
D-1
  6
Continuous
 62
     2
370
     9
100
AcDbCircle
 10
1338.186734615752
 20
295.0677379892187
 30
0.0
 40
38.5
100
AcDbArc
 50
270.0
 51
0.0
  0
LINE
  5
17F
330
1F
100
AcDbEntity
  8
D-1
  6
Continuous
 62
     2
370
     9
100
AcDbLine
 10
1175.68686658367
 20
272.5677379892278
 30
0.0
 11
1175.68686658367
 21
256.5677379892242
 31
0.0
  0
LINE
  5
180
330
1F
100
AcDbEntity
  8
D-1
  6
Continuous
 62
     2
370
     9
100
AcDbLine
 10
1175.68686658367
 20
256.5677379892242
 30
0.0
 11
1338.186734615752
 21
256.5677379892242
 31
0.0
  0
LINE
  5
181
330
1F
100
AcDbEntity
  8
D-1
  6
Continuous
 62
     2
370
     9
100
AcDbLine
 10
1360.686734615752
 20
295.0677379892187
 30
0.0
 11
1360.686734615752
 21
488.5679392403017
 31
0.0
  0
LINE
  5
182
330
1F
100
AcDbEntity
  8
D-1
  6
Continuous
 62
     2
370
     9
100
AcDbLine
 10
1376.686734615756
 20
295.0677379892187
 30
0.0
 11
1376.686734615756
 21
488.5679392403017
 31
0.0
  0
TEXT
  5
183
330
1F
100
AcDbEntity
  8
D-5
  6
Continuous
 62
     7
370
     9
100
AcDbText
 10
1499.060327334742
 20
105.077937813457
 30
0.0
 40
22.86
  1
アンカー：Ｌ４０×４０×５
 41
1.153846153846154
  7
ＭＳ ゴシック
100
AcDbText
  0
LINE
  5
184
330
1F
100
AcDbEntity
  8
D-9
  6
JWW_PHANTOM1
 62
   211
370
     5
100
AcDbLine
 10
1125.686371704033
 20
37.56793924028003
 30
0.0
 11
1125.686371704033
 21
287.56793924028
 31
0.0
  0
LINE
  5
185
330
1F
100
AcDbEntity
  8
D-9
  6
JWW_PHANTOM1
 62
   211
370
     5
100
AcDbLine
 10
240.6861737521569
 20
37.56793924028003
 30
0.0
 11
1125.686371704033
 21
37.56793924028003
 31
0.0
  0
LINE
  5
186
330
1F
100
AcDbEntity
  8
D-9
  6
JWW_PHANTOM1
 62
   211
370
     5
100
AcDbLine
 10
240.6861737521569
 20
257.56793924028
 30
0.0
 11
836.1855238102191
 21
257.56793924028
 31
0.0
  0
LINE
  5
187
330
1F
100
AcDbEntity
  8
D-9
  6
JWW_PHANTOM1
 62
   211
370
     5
100
AcDbLine
 10
975.1863288144443
 20
257.56793924028
 30
0.0
 11
1125.686371704033
 21
257.56793924028
 31
0.0
  0
LINE
  5
188
330
1F
100
AcDbEntity
  8
D-5
  6
Continuous
 62
     7
370
     9
100
AcDbLine
 10
478.0538011817861
 20
-53.97678321127229
 30
0.0
 11
637.3187208633683
 21
287.5679392402799
 31
0.0
  0
LINE
  5
189
330
1F
100
AcDbEntity
  8
D-5
  6
Continuous
 62
     7
370
     9
100
AcDbLine
 10
478.0538011817861
 20
-53.97678321127229
 30
0.0
 11
78.38593320028664
 21
-53.97678321127229
 31
0.0
  0
TEXT
  5
18A
330
1F
100
AcDbEntity
  8
D-5
  6
Continuous
 62
     7
370
     9
100
AcDbText
 10
81.9031482705735
 20
-40.50490583584988
 30
0.0
 40
22.86
  1
蓋プレート：ｔ＝３．２
 41
1.151515151515152
  7
ＭＳ ゴシック
100
AcDbText
  0
TEXT
  5
18B
330
1F
100
AcDbEntity
  8
D-5
  6
Continuous
 62
     7
370
     9
100
AcDbText
 10
71.85518964456989
 20
-85.863718322653
 30
0.0
 40
22.86
  1
（ＳＰＨＣ）
 41
1.138888888888889
  7
ＭＳ ゴシック
100
AcDbText
  0
LINE
  5
18C
330
1F
100
AcDbEntity
  8
D-F
  6
Continuous
 62
     7
370
     9
100
AcDbLine
 10
240.6869325676195
 20
261.1603431676576
 30
0.0
 11
240.6869325676195
 21
9.358038669288433
 31
0.0
  0
TEXT
  5
18D
330
1F
100
AcDbEntity
  8
D-F
  6
Continuous
 62
     2
370
   211
100
AcDbText
 10
172.2775138681706
 20
321.3178402643598
 30
0.0
 40
30.48
  1
10
 50
90.0
 41
1.0625
  7
ＭＳ ゴシック
100
AcDbText
  0
TEXT
  5
18E
330
1F
100
AcDbEntity
  8
D-F
  6
Continuous
 62
     2
370
   211
100
AcDbText
 10
172.2775138681706
 20
421.3178402643599
 30
0.0
 40
30.48
  1
30
 50
90.0
 41
1.0625
  7
ＭＳ ゴシック
100
AcDbText
  0
LWPOLYLINE
  5
18F
330
1F
100
AcDbEntity
  8
D-F
  6
Continuous
 62
     7
370
     9
100
AcDbPolyline
 90
        4
 70
     1
 43
2.0
 10
183.9175138681705
 20
303.5679392402926
 42
0.4142135623731
 10
182.9175138681705
 20
304.5679392402926
 42
0.4142135623731
 10
181.9175138681705
 20
303.5679392402926
 42
0.4142135623731
 10
182.9175138681705
 20
302.5679392402926
 42
0.4142135623731
  0
LWPOLYLINE
  5
190
330
1F
100
AcDbEntity
  8
D-F
  6
Continuous
 62
     7
370
     9
100
AcDbPolyline
 90
        4
 70
     1
 43
2.0
 10
183.9175138681705
 20
503.5677412884525
 42
0.4142135623731
 10
182.9175138681705
 20
504.5677412884525
 42
0.4142135623731
 10
181.9175138681705
 20
503.5677412884525
 42
0.4142135623731
 10
182.9175138681705
 20
502.5677412884525
 42
0.4142135623731
  0
LWPOLYLINE
  5
191
330
1F
100
AcDbEntity
  8
D-F
  6
Continuous
 62
     7
370
     9
100
AcDbPolyline
 90
        4
 70
     1
 43
2.0
 10
183.9175138681705
 20
353.5677412884075
 42
0.4142135623731
 10
182.9175138681705
 20
354.5677412884075
 42
0.4142135623731
 10
181.9175138681705
 20
353.5677412884075
 42
0.4142135623731
 10
182.9175138681705
 20
352.5677412884075
 42
0.4142135623731
  0
LINE
  5
192
330
1F
100
AcDbEntity
  8
D-F
  6
Continuous
 62
     7
370
     9
100
AcDbLine
 10
179.9175138681704
 20
353.5677412884075
 30
0.0
 11
310.6869325676195
 21
353.5677412884075
 31
0.0
  0
LINE
  5
193
330
1F
100
AcDbEntity
  8
D-F
  6
Continuous
 62
     7
370
     9
100
AcDbLine
 10
182.9175138681705
 20
303.5679392402926
 30
0.0
 11
182.9175138681705
 21
353.5677412884075
 31
0.0
  0
LINE
  5
194
330
1F
100
AcDbEntity
  8
D-F
  6
Continuous
 62
     7
370
     9
100
AcDbLine
 10
182.9175138681705
 20
353.5677412884075
 30
0.0
 11
182.9175138681705
 21
503.5677412884525
 31
0.0
  0
LWPOLYLINE
  5
195
330
1F
100
AcDbEntity
  8
D-F
  6
Continuous
 62
     7
370
     9
100
AcDbPolyline
 90
        4
 70
     1
 43
2.0
 10
93.297827007921
 20
287.5679392402844
 42
0.4142135623731
 10
92.297827007921
 20
288.5679392402844
 42
0.4142135623731
 10
91.297827007921
 20
287.5679392402844
 42
0.4142135623731
 10
92.297827007921
 20
286.5679392402844
 42
0.4142135623731
  0
LWPOLYLINE
  5
196
330
1F
100
AcDbEntity
  8
D-F
  6
Continuous
 62
     7
370
     9
100
AcDbPolyline
 90
        4
 70
     1
 43
2.0
 10
93.297827007921
 20
303.5679392402926
 42
0.4142135623731
 10
92.297827007921
 20
304.5679392402926
 42
0.4142135623731
 10
91.297827007921
 20
303.5679392402926
 42
0.4142135623731
 10
92.297827007921
 20
302.5679392402926
 42
0.4142135623731
  0
LINE
  5
197
330
1F
100
AcDbEntity
  8
D-F
  6
Continuous
 62
     7
370
     9
100
AcDbLine
 10
89.29782700792146
 20
303.5679392402926
 30
0.0
 11
220.6869325676195
 21
303.5679392402926
 31
0.0
  0
LWPOLYLINE
  5
198
330
1F
100
AcDbEntity
  8
D-F
  6
Continuous
 62
     7
370
     9
100
AcDbPolyline
 90
        4
 70
     1
 43
2.0
 10
93.297827007921
 20
503.5677412884525
 42
0.4142135623731
 10
92.297827007921
 20
504.5677412884525
 42
0.4142135623731
 10
91.297827007921
 20
503.5677412884525
 42
0.4142135623731
 10
92.297827007921
 20
502.5677412884525
 42
0.4142135623731
  0
LINE
  5
199
330
1F
100
AcDbEntity
  8
D-F
  6
Continuous
 62
     7
370
     9
100
AcDbLine
 10
92.297827007921
 20
303.5679392402926
 30
0.0
 11
92.297827007921
 21
503.5677412884525
 31
0.0
  0
TEXT
  5
19A
330
1F
100
AcDbEntity
  8
D-F
  6
Continuous
 62
     2
370
   211
100
AcDbText
 10
81.657827007921
 20
382.3178402643725
 30
0.0
 40
30.48
  1
40
 50
90.0
 41
1.0625
  7
ＭＳ ゴシック
100
AcDbText
  0
LINE
  5
19B
330
1F
100
AcDbEntity
  8
D-F
  6
Continuous
 62
     7
370
     9
100
AcDbLine
 10
92.297827007921
 20
287.5679392402844
 30
0.0
 11
92.297827007921
 21
303.5679392402926
 31
0.0
  0
TEXT
  5
19C
330
1F
100
AcDbEntity
  8
D-F
  6
Continuous
 62
     2
370
   211
100
AcDbText
 10
81.657827007921
 20
198.2272905761775
 30
0.0
 40
30.48
  1
3.2
 50
90.0
 41
1.083333333333333
  7
ＭＳ ゴシック
100
AcDbText
  0
LINE
  5
19D
330
1F
100
AcDbEntity
  8
D-F
  6
Continuous
 62
     7
370
     9
100
AcDbLine
 10
92.297827007921
 20
287.5679392402844
 30
0.0
 11
92.297827007921
 21
201.6914694963808
 31
0.0
  0
LWPOLYLINE
  5
19E
330
1F
100
AcDbEntity
  8
D-F
  6
Continuous
 62
     7
370
     9
100
AcDbPolyline
 90
        4
 70
     1
 43
2.0
 10
2.871152568997445
 20
503.5677412884525
 42
0.4142135623731
 10
1.871152568997445
 20
504.5677412884525
 42
0.4142135623731
 10
0.8711525689974451
 20
503.5677412884525
 42
0.4142135623731
 10
1.871152568997445
 20
502.5677412884525
 42
0.4142135623731
  0
LINE
  5
19F
330
1F
100
AcDbEntity
  8
D-F
  6
Continuous
 62
     7
370
     9
100
AcDbLine
 10
-1.128847431002669
 20
503.5677412884525
 30
0.0
 11
220.6869325676195
 21
503.5677412884525
 31
0.0
  0
LWPOLYLINE
  5
1A0
330
1F
100
AcDbEntity
  8
D-F
  6
Continuous
 62
     7
370
     9
100
AcDbPolyline
 90
        4
 70
     1
 43
2.0
 10
2.871152568997445
 20
287.5679392402844
 42
0.4142135623731
 10
1.871152568997445
 20
288.5679392402844
 42
0.4142135623731
 10
0.8711525689974451
 20
287.5679392402844
 42
0.4142135623731
 10
1.871152568997445
 20
286.5679392402844
 42
0.4142135623731
  0
LINE
  5
1A1
330
1F
100
AcDbEntity
  8
D-F
  6
Continuous
 62
     7
370
     9
100
AcDbLine
 10
-1.128847431002669
 20
287.5679392402844
 30
0.0
 11
220.6869325676195
 21
287.5679392402844
 31
0.0
  0
LINE
  5
1A2
330
1F
100
AcDbEntity
  8
D-5
  6
Continuous
 62
     7
370
     9
100
AcDbLine
 10
576.3565967720567
 20
-151.6366986026753
 30
0.0
 11
664.5841683566698
 21
37.56793924028003
 31
0.0
  0
LINE
  5
1A3
330
1F
100
AcDbEntity
  8
D-5
  6
Continuous
 62
     7
370
     9
100
AcDbLine
 10
664.5841683566698
 20
37.56793924028003
 30
0.0
 11
651.1516781479988
 21
16.483153094958
 31
0.0
  0
LINE
  5
1A4
330
1F
100
AcDbEntity
  8
D-5
  6
Continuous
 62
     7
370
     9
100
AcDbLine
 10
664.5841683566698
 20
37.56793924028003
 30
0.0
 11
657.066523369063
 21
13.72501547157427
 31
0.0
  0
LINE
  5
1A5
330
1F
100
AcDbEntity
  8
D-F
  6
Continuous
 62
     7
370
     9
100
AcDbLine
 10
1674.377217129338
 20
256.56727597268
 30
0.0
 11
1674.377217129338
 21
503.5677412884479
 31
0.0
  0
TEXT
  5
1A6
330
1F
100
AcDbEntity
  8
D-F
  6
Continuous
 62
     2
370
   211
100
AcDbText
 10
1662.737296310081
 20
336.317508630564
 30
0.0
 40
30.48
  1
49.4
 50
90.0
 41
1.09375
  7
ＭＳ ゴシック
100
AcDbText
  0
LINE
  5
1A7
330
1F
100
AcDbEntity
  8
D-F
  6
Continuous
 62
     7
370
     9
100
AcDbLine
 10
1.871152568997445
 20
287.5679392402844
 30
0.0
 11
1.871152568997445
 21
503.5677412884525
 31
0.0
  0
TEXT
  5
1A8
330
1F
100
AcDbEntity
  8
D-F
  6
Continuous
 62
     2
370
   211
100
AcDbText
 10
-8.768847431002555
 20
351.8178402643684
 30
0.0
 40
30.48
  1
43.2
 50
90.0
 41
1.09375
  7
ＭＳ ゴシック
100
AcDbText
  0
LINE
  5
1A9
330
1F
100
AcDbEntity
  8
D-F
  6
Continuous
 62
     7
370
     9
100
AcDbLine
 10
1.871152568997445
 20
287.5679392402844
 30
0.0
 11
1.87115256899743
 21
37.56793924028003
 31
0.0
  0
LWPOLYLINE
  5
1AA
330
1F
100
AcDbEntity
  8
D-F
  6
Continuous
 62
     7
370
     9
100
AcDbPolyline
 90
        4
 70
     1
 43
2.0
 10
2.87115256899743
 20
37.56793924028003
 42
0.4142135623731
 10
1.87115256899743
 20
38.56793924028003
 42
0.4142135623731
 10
0.8711525689974298
 20
37.56793924028003
 42
0.4142135623731
 10
1.87115256899743
 20
36.56793924028003
 42
0.4142135623731
  0
LINE
  5
1AB
330
1F
100
AcDbEntity
  8
D-F
  6
Continuous
 62
     7
370
     9
100
AcDbLine
 10
-1.12884743100257
 20
37.56793924028003
 30
0.0
 11
220.6861737521569
 21
37.56793924028001
 31
0.0
  0
TEXT
  5
1AC
330
1F
100
AcDbEntity
  8
D-F
  6
Continuous
 62
     2
370
   211
100
AcDbText
 10
-8.768847431002564
 20
141.3179392402822
 30
0.0
 40
30.48
  1
50
 50
90.0
 41
1.0625
  7
ＭＳ ゴシック
100
AcDbText
  0
TEXT
  5
1AD
330
1F
100
AcDbEntity
  8
F-5ﾚｲﾔ
  6
Continuous
 62
     2
370
     9
100
AcDbText
 10
-792.7244917797611
 20
-1353.302309529875
 30
0.0
 40
30.48
  1
大口径マシンハッチ　Ｓ－２Ｅ－７００×９００
 41
0.7738636363636363
  7
ＭＳ ゴシック
100
AcDbText
  0
TEXT
  5
1AE
330
1F
100
AcDbEntity
  8
D-F
  6
Continuous
 62
     2
370
     9
100
AcDbText
 10
240.6869160716315
 20
-413.2699404286572
 30
0.0
 40
30.48
  1
700
 41
1.083333333333333
  7
ＭＳ ゴシック
100
AcDbText
  0
TEXT
  5
1AF
330
1F
100
AcDbEntity
  8
D-F
  6
Continuous
 62
     2
370
     9
100
AcDbText
 10
240.6869160716315
 20
875.2321887781612
 30
0.0
 40
30.48
  1
792
 41
1.083333333333333
  7
ＭＳ ゴシック
100
AcDbText
  0
LINE
  5
1B0
330
1F
100
AcDbEntity
  8
0-F
  6
Continuous
 62
     7
370
     9
100
AcDbLine
 10
-907.8395481838817
 20
1250.588521874095
 30
0.0
 11
-907.8395481838817
 21
1173.687577181242
 31
0.0
  0
LINE
  5
1B1
330
1F
100
AcDbEntity
  8
仕上
  6
Continuous
 62
     3
370
     9
100
AcDbLine
 10
-919.8396372622193
 20
1022.588426197355
 30
0.0
 11
-907.8395481838817
 21
1034.588762715518
 31
0.0
  0
LINE
  5
1B2
330
1F
100
AcDbEntity
  8
仕上
  6
Continuous
 62
     3
370
     9
100
AcDbLine
 10
-906.8395481838852
 20
1034.588762715518
 30
0.0
 11
-894.8394591055476
 21
1022.588426197355
 31
0.0
  0
LWPOLYLINE
  5
1B3
330
1F
100
AcDbEntity
  8
0-F
  6
Continuous
 62
     7
370
     9
100
AcDbPolyline
 90
        4
 70
     1
 43
2.0
 10
-906.8395481838818
 20
1247.588521874095
 42
0.4142135623731
 10
-907.8395481838817
 20
1248.588521874095
 42
0.4142135623731
 10
-908.8395481838816
 20
1247.588521874095
 42
0.4142135623731
 10
-907.8395481838817
 20
1246.588521874095
 42
0.4142135623731
  0
LINE
  5
1B4
330
1F
100
AcDbEntity
  8
0-F
  6
Continuous
 62
     7
370
     9
100
AcDbLine
 10
-907.8395481838817
 20
1247.588521874095
 30
0.0
 11
-906.8395481838852
 21
1247.588521874095
 31
0.0
  0
LWPOLYLINE
  5
1B5
330
1F
100
AcDbEntity
  8
0-F
  6
Continuous
 62
     7
370
     9
100
AcDbPolyline
 90
        4
 70
     1
 43
2.0
 10
-905.8395481838852
 20
1247.588521874095
 42
0.4142135623731
 10
-906.8395481838852
 20
1248.588521874095
 42
0.4142135623731
 10
-907.8395481838851
 20
1247.588521874095
 42
0.4142135623731
 10
-906.8395481838852
 20
1246.588521874095
 42
0.4142135623731
  0
TEXT
  5
1B6
330
1F
100
AcDbEntity
  8
0-F
  6
Continuous
 62
     2
370
   211
100
AcDbText
 10
-917.3395481838834
 20
1258.228521874095
 30
0.0
 40
30.48
  1
1
 41
0.9999999999999998
  7
ＭＳ ゴシック
100
AcDbText
  0
LINE
  5
1B7
330
1F
100
AcDbEntity
  8
0-F
  6
Continuous
 62
     7
370
     9
100
AcDbLine
 10
-906.8395481838852
 20
1250.588521874095
 30
0.0
 11
-906.8395481838852
 21
1173.687577181242
 31
0.0
  0
LINE
  5
1B8
330
1F
100
AcDbEntity
  8
0-E
  6
Continuous
 62
     3
370
     9
100
AcDbLine
 10
-927.3394887983278
 20
1081.78849754251
 30
0.0
 11
-887.3394887983278
 21
1081.78849754251
 31
0.0
  0
LINE
  5
1B9
330
1F
100
AcDbEntity
  8
0-E
  6
Continuous
 62
     3
370
     9
100
AcDbLine
 10
-927.3394887983278
 20
1081.78849754251
 30
0.0
 11
-927.3394887983278
 21
1047.588542494076
 31
0.0
  0
LINE
  5
1BA
330
1F
100
AcDbEntity
  8
0-E
  6
Continuous
 62
     3
370
     9
100
AcDbLine
 10
-887.3394887983278
 20
1081.78849754251
 30
0.0
 11
-887.3394887983278
 21
1047.588542494076
 31
0.0
  0
CIRCLE
  5
1BB
330
1F
100
AcDbEntity
  8
0-E
  6
Continuous
 62
     3
370
     9
100
AcDbCircle
 10
-907.3394887983278
 20
1066.78849754251
 30
0.0
 40
6.999999999998181
  0
LINE
  5
1BC
330
1F
100
AcDbEntity
  8
0-E
  6
JWW_CENTER1
 62
     3
370
     9
100
AcDbLine
 10
-907.3394887983278
 20
1088.76149656878
 30
0.0
 11
-907.3394887983278
 21
1047.588542494076
 31
0.0
  0
LINE
  5
1BD
330
1F
100
AcDbEntity
  8
0-E
  6
JWW_CENTER1
 62
     3
370
     9
100
AcDbLine
 10
-882.9622473351202
 20
1066.78849754251
 30
0.0
 11
-931.7167302615354
 21
1066.78849754251
 31
0.0
  0
LINE
  5
1BE
330
1F
100
AcDbEntity
  8
0-E
  6
Continuous
 62
     3
370
     9
100
AcDbLine
 10
-1437.539372914014
 20
927.588604354031
 30
0.0
 11
-1437.539372914014
 21
967.588604354031
 31
0.0
  0
LINE
  5
1BF
330
1F
100
AcDbEntity
  8
0-E
  6
Continuous
 62
     3
370
     9
100
AcDbLine
 10
-1437.539372914014
 20
927.588604354031
 30
0.0
 11
-1403.33941786558
 21
927.588604354031
 31
0.0
  0
LINE
  5
1C0
330
1F
100
AcDbEntity
  8
0-E
  6
Continuous
 62
     3
370
     9
100
AcDbLine
 10
-1437.539372914014
 20
967.588604354031
 30
0.0
 11
-1403.33941786558
 21
967.588604354031
 31
0.0
  0
CIRCLE
  5
1C1
330
1F
100
AcDbEntity
  8
0-E
  6
Continuous
 62
     3
370
     9
100
AcDbCircle
 10
-1422.539372914014
 20
947.588604354031
 30
0.0
 40
6.999999999998181
  0
LINE
  5
1C2
330
1F
100
AcDbEntity
  8
0-E
  6
JWW_CENTER1
 62
     3
370
     9
100
AcDbLine
 10
-1444.512371940285
 20
947.588604354031
 30
0.0
 11
-1403.33941786558
 21
947.588604354031
 31
0.0
  0
LINE
  5
1C3
330
1F
100
AcDbEntity
  8
0-E
  6
JWW_CENTER1
 62
     3
370
     9
100
AcDbLine
 10
-1422.539372914014
 20
971.9658458172386
 30
0.0
 11
-1422.539372914014
 21
923.2113628908245
 31
0.0
  0
LINE
  5
1C4
330
1F
100
AcDbEntity
  8
0-E
  6
Continuous
 62
     3
370
     9
100
AcDbLine
 10
-1323.339479725535
 20
1081.788497542515
 30
0.0
 11
-1283.339479725535
 21
1081.788497542515
 31
0.0
  0
LINE
  5
1C5
330
1F
100
AcDbEntity
  8
0-E
  6
Continuous
 62
     3
370
     9
100
AcDbLine
 10
-1323.339479725535
 20
1081.788497542515
 30
0.0
 11
-1323.339479725535
 21
1047.58854249408
 31
0.0
  0
LINE
  5
1C6
330
1F
100
AcDbEntity
  8
0-E
  6
Continuous
 62
     3
370
     9
100
AcDbLine
 10
-1283.339479725535
 20
1081.788497542515
 30
0.0
 11
-1283.339479725535
 21
1047.58854249408
 31
0.0
  0
CIRCLE
  5
1C7
330
1F
100
AcDbEntity
  8
0-E
  6
Continuous
 62
     3
370
     9
100
AcDbCircle
 10
-1303.339479725535
 20
1066.788497542515
 30
0.0
 40
6.999999999998181
  0
LINE
  5
1C8
330
1F
100
AcDbEntity
  8
0-E
  6
JWW_CENTER1
 62
     3
370
     9
100
AcDbLine
 10
-1303.339479725535
 20
1088.761496568785
 30
0.0
 11
-1303.339479725535
 21
1047.58854249408
 31
0.0
  0
LINE
  5
1C9
330
1F
100
AcDbEntity
  8
0-E
  6
JWW_CENTER1
 62
     3
370
     9
100
AcDbLine
 10
-1278.962238262327
 20
1066.788497542515
 30
0.0
 11
-1327.716721188743
 21
1066.788497542515
 31
0.0
  0
LINE
  5
1CA
330
1F
100
AcDbEntity
  8
0-F
  6
Continuous
 62
     7
370
     9
100
AcDbLine
 10
-1403.33954158549
 20
1062.588591982044
 30
0.0
 11
-1403.33954158549
 21
1342.58883529787
 31
0.0
  0
LINE
  5
1CB
330
1F
100
AcDbEntity
  8
0-F
  6
Continuous
 62
     7
370
     9
100
AcDbLine
 10
-1390.339548183885
 20
1049.58859858044
 30
0.0
 11
-1390.339548183885
 21
1252.588538370082
 31
0.0
  0
LINE
  5
1CC
330
1F
100
AcDbEntity
  8
0-F
  6
Continuous
 62
     7
370
     9
100
AcDbLine
 10
-1357.339488798328
 20
1016.588539194882
 30
0.0
 11
-1357.339488798328
 21
1162.58774656265
 31
0.0
  0
LWPOLYLINE
  5
1CD
330
1F
100
AcDbEntity
  8
0-F
  6
Continuous
 62
     7
370
     9
100
AcDbPolyline
 90
        4
 70
     1
 43
2.0
 10
-1356.339488798328
 20
1157.587730066663
 42
0.4142135623731
 10
-1357.339488798328
 20
1158.587730066663
 42
0.4142135623731
 10
-1358.339488798328
 20
1157.587730066663
 42
0.4142135623731
 10
-1357.339488798328
 20
1156.587730066663
 42
0.4142135623731
  0
LWPOLYLINE
  5
1CE
330
1F
100
AcDbEntity
  8
0-F
  6
Continuous
 62
     7
370
     9
100
AcDbPolyline
 90
        4
 70
     1
 43
2.0
 10
-1389.339548183885
 20
1247.588521874095
 42
0.4142135623731
 10
-1390.339548183885
 20
1248.588521874095
 42
0.4142135623731
 10
-1391.339548183885
 20
1247.588521874095
 42
0.4142135623731
 10
-1390.339548183885
 20
1246.588521874095
 42
0.4142135623731
  0
LWPOLYLINE
  5
1CF
330
1F
100
AcDbEntity
  8
0-F
  6
Continuous
 62
     7
370
     9
100
AcDbPolyline
 90
        4
 70
     1
 43
2.0
 10
-1402.33954158549
 20
1337.588818801881
 42
0.4142135623731
 10
-1403.33954158549
 20
1338.588818801881
 42
0.4142135623731
 10
-1404.33954158549
 20
1337.588818801881
 42
0.4142135623731
 10
-1403.33954158549
 20
1336.588818801881
 42
0.4142135623731
  0
LINE
  5
1D0
330
1F
100
AcDbEntity
  8
0-F
  6
Continuous
 62
     7
370
     9
100
AcDbLine
 10
-1372.339538286292
 20
1001.588551566873
 30
0.0
 11
-1478.963380107605
 21
1001.588551566873
 31
0.0
  0
LWPOLYLINE
  5
1D1
330
1F
100
AcDbEntity
  8
0-F
  6
Continuous
 62
     7
370
     9
100
AcDbPolyline
 90
        4
 70
     1
 43
2.0
 10
-1472.963363611616
 20
1001.588551566873
 42
0.4142135623731
 10
-1473.963363611616
 20
1002.588551566873
 42
0.4142135623731
 10
-1474.963363611616
 20
1001.588551566873
 42
0.4142135623731
 10
-1473.963363611616
 20
1000.588551566873
 42
0.4142135623731
  0
LINE
  5
1D2
330
1F
100
AcDbEntity
  8
0-F
  6
Continuous
 62
     7
370
     9
100
AcDbLine
 10
-1405.33959767185
 20
1034.58861095243
 30
0.0
 11
-1565.132727422033
 21
1034.58861095243
 31
0.0
  0
LWPOLYLINE
  5
1D3
330
1F
100
AcDbEntity
  8
0-F
  6
Continuous
 62
     7
370
     9
100
AcDbPolyline
 90
        4
 70
     1
 43
2.0
 10
-1559.132710926045
 20
1034.58861095243
 42
0.4142135623731
 10
-1560.132710926045
 20
1035.58861095243
 42
0.4142135623731
 10
-1561.132710926045
 20
1034.58861095243
 42
0.4142135623731
 10
-1560.132710926045
 20
1033.58861095243
 42
0.4142135623731
  0
LINE
  5
1D4
330
1F
100
AcDbEntity
  8
0-F
  6
Continuous
 62
     7
370
     9
100
AcDbLine
 10
-1418.339591073455
 20
1047.588604354035
 30
0.0
 11
-1647.595949971374
 21
1047.588604354035
 31
0.0
  0
LWPOLYLINE
  5
1D5
330
1F
100
AcDbEntity
  8
0-F
  6
Continuous
 62
     7
370
     9
100
AcDbPolyline
 90
        4
 70
     1
 43
2.0
 10
-1641.595933475386
 20
1047.588604354035
 42
0.4142135623731
 10
-1642.595933475386
 20
1048.588604354035
 42
0.4142135623731
 10
-1643.595933475386
 20
1047.588604354035
 42
0.4142135623731
 10
-1642.595933475386
 20
1046.588604354036
 42
0.4142135623731
  0
LINE
  5
1D6
330
1F
100
AcDbEntity
  8
建具
  6
Continuous
 62
     2
370
     9
100
AcDbLine
 10
-1403.33941786558
 20
1047.588604354031
 30
0.0
 11
-1391.339452507153
 21
1035.588762715518
 31
0.0
  0
LINE
  5
1D7
330
1F
100
AcDbEntity
  8
仕上
  6
Continuous
 62
     3
370
     9
100
AcDbLine
 10
-1390.339548183885
 20
1034.588762715518
 30
0.0
 11
-1378.339459105548
 21
1022.588426197355
 31
0.0
  0
LINE
  5
1D8
330
1F
100
AcDbEntity
  8
仕上
  6
Continuous
 62
     3
370
     9
100
AcDbLine
 10
-1378.339459105548
 20
1022.588426197355
 30
0.0
 11
-919.8396372622193
 21
1022.588426197355
 31
0.0
  0
LINE
  5
1D9
330
1F
100
AcDbEntity
  8
仕上
  6
Continuous
 62
     3
370
     9
100
AcDbLine
 10
-1390.339548183885
 20
1034.588762715518
 30
0.0
 11
-907.8395481838817
 21
1034.588762715518
 31
0.0
  0
LINE
  5
1DA
330
1F
100
AcDbEntity
  8
0-E
  6
Continuous
 62
     3
370
     9
100
AcDbLine
 10
-377.139480962731
 20
967.5886043540355
 30
0.0
 11
-377.139480962731
 21
927.5886043540355
 31
0.0
  0
LINE
  5
1DB
330
1F
100
AcDbEntity
  8
0-E
  6
Continuous
 62
     3
370
     9
100
AcDbLine
 10
-377.139480962731
 20
967.5886043540355
 30
0.0
 11
-411.3394360111653
 21
967.5886043540355
 31
0.0
  0
LINE
  5
1DC
330
1F
100
AcDbEntity
  8
0-E
  6
Continuous
 62
     3
370
     9
100
AcDbLine
 10
-377.139480962731
 20
927.5886043540355
 30
0.0
 11
-411.3394360111653
 21
927.5886043540355
 31
0.0
  0
CIRCLE
  5
1DD
330
1F
100
AcDbEntity
  8
0-E
  6
Continuous
 62
     3
370
     9
100
AcDbCircle
 10
-392.139480962731
 20
947.5886043540355
 30
0.0
 40
6.999999999998181
  0
LINE
  5
1DE
330
1F
100
AcDbEntity
  8
0-E
  6
JWW_CENTER1
 62
     3
370
     9
100
AcDbLine
 10
-370.1664819364606
 20
947.5886043540355
 30
0.0
 11
-411.3394360111653
 21
947.5886043540355
 31
0.0
  0
LINE
  5
1DF
330
1F
100
AcDbEntity
  8
0-E
  6
JWW_CENTER1
 62
     3
370
     9
100
AcDbLine
 10
-392.139480962731
 20
923.2113628908279
 30
0.0
 11
-392.139480962731
 21
971.965845817242
 31
0.0
  0
LINE
  5
1E0
330
1F
100
AcDbEntity
  8
0-E
  6
Continuous
 62
     3
370
     9
100
AcDbLine
 10
-531.3393741512147
 20
1081.788497542515
 30
0.0
 11
-491.3393741512147
 21
1081.788497542515
 31
0.0
  0
LINE
  5
1E1
330
1F
100
AcDbEntity
  8
0-E
  6
Continuous
 62
     3
370
     9
100
AcDbLine
 10
-531.3393741512147
 20
1081.788497542515
 30
0.0
 11
-531.3393741512147
 21
1047.58854249408
 31
0.0
  0
LINE
  5
1E2
330
1F
100
AcDbEntity
  8
0-E
  6
Continuous
 62
     3
370
     9
100
AcDbLine
 10
-491.3393741512147
 20
1081.788497542515
 30
0.0
 11
-491.3393741512147
 21
1047.58854249408
 31
0.0
  0
CIRCLE
  5
1E3
330
1F
100
AcDbEntity
  8
0-E
  6
Continuous
 62
     3
370
     9
100
AcDbCircle
 10
-511.3393741512147
 20
1066.788497542515
 30
0.0
 40
6.999999999998181
  0
LINE
  5
1E4
330
1F
100
AcDbEntity
  8
0-E
  6
JWW_CENTER1
 62
     3
370
     9
100
AcDbLine
 10
-511.3393741512147
 20
1088.761496568785
 30
0.0
 11
-511.3393741512147
 21
1047.58854249408
 31
0.0
  0
LINE
  5
1E5
330
1F
100
AcDbEntity
  8
0-E
  6
JWW_CENTER1
 62
     3
370
     9
100
AcDbLine
 10
-486.962132688007
 20
1066.788497542515
 30
0.0
 11
-535.7166156144223
 21
1066.788497542515
 31
0.0
  0
LINE
  5
1E6
330
1F
100
AcDbEntity
  8
0-F
  6
Continuous
 62
     7
370
     9
100
AcDbLine
 10
-411.3394360111658
 20
1062.588591982044
 30
0.0
 11
-411.3394360111658
 21
1342.58883529787
 31
0.0
  0
LINE
  5
1E7
330
1F
100
AcDbEntity
  8
0-F
  6
Continuous
 62
     7
370
     9
100
AcDbLine
 10
-424.3394294127705
 20
1049.58859858044
 30
0.0
 11
-424.3394294127705
 21
1252.588538370082
 31
0.0
  0
LINE
  5
1E8
330
1F
100
AcDbEntity
  8
0-F
  6
Continuous
 62
     7
370
     9
100
AcDbLine
 10
-457.3394887983284
 20
1016.588539194882
 30
0.0
 11
-457.3394887983284
 21
1162.58774656265
 31
0.0
  0
LWPOLYLINE
  5
1E9
330
1F
100
AcDbEntity
  8
0-F
  6
Continuous
 62
     7
370
     9
100
AcDbPolyline
 90
        4
 70
     1
 43
2.0
 10
-456.3394887983284
 20
1157.587730066663
 42
0.4142135623731
 10
-457.3394887983284
 20
1158.587730066663
 42
0.4142135623731
 10
-458.3394887983284
 20
1157.587730066663
 42
0.4142135623731
 10
-457.3394887983284
 20
1156.587730066663
 42
0.4142135623731
  0
LWPOLYLINE
  5
1EA
330
1F
100
AcDbEntity
  8
0-F
  6
Continuous
 62
     7
370
     9
100
AcDbPolyline
 90
        4
 70
     1
 43
2.0
 10
-423.3394294127705
 20
1247.588521874095
 42
0.4142135623731
 10
-424.3394294127705
 20
1248.588521874095
 42
0.4142135623731
 10
-425.3394294127705
 20
1247.588521874095
 42
0.4142135623731
 10
-424.3394294127705
 20
1246.588521874095
 42
0.4142135623731
  0
LWPOLYLINE
  5
1EB
330
1F
100
AcDbEntity
  8
0-F
  6
Continuous
 62
     7
370
     9
100
AcDbPolyline
 90
        4
 70
     1
 43
2.0
 10
-410.3394360111658
 20
1337.588818801881
 42
0.4142135623731
 10
-411.3394360111658
 20
1338.588818801881
 42
0.4142135623731
 10
-412.3394360111658
 20
1337.588818801881
 42
0.4142135623731
 10
-411.3394360111658
 20
1336.588818801881
 42
0.4142135623731
  0
LINE
  5
1EC
330
1F
100
AcDbEntity
  8
建具
  6
Continuous
 62
     2
370
     9
100
AcDbLine
 10
-423.3392776496777
 20
1035.588762715518
 30
0.0
 11
-411.3394360111653
 21
1047.588604354031
 31
0.0
  0
LINE
  5
1ED
330
1F
100
AcDbEntity
  8
0-F
  6
Continuous
 62
     7
370
     9
100
AcDbLine
 10
-362.4127268618307
 20
947.5885218740949
 30
0.0
 11
-281.3554753062299
 21
947.5885218740949
 31
0.0
  0
LINE
  5
1EE
330
1F
100
AcDbEntity
  8
0-F
  6
Continuous
 62
     7
370
     9
100
AcDbLine
 10
-286.3554918022185
 20
947.5885218740949
 30
0.0
 11
-286.3554918022185
 21
1047.588604354035
 31
0.0
  0
LINE
  5
1EF
330
1F
100
AcDbEntity
  8
0-F
  6
Continuous
 62
     7
370
     9
100
AcDbLine
 10
-396.339448383157
 20
1047.588604354035
 30
0.0
 11
-281.3554753062299
 21
1047.588604354035
 31
0.0
  0
TEXT
  5
1F0
330
1F
100
AcDbEntity
  8
0-F
  6
Continuous
 62
     2
370
     9
100
AcDbText
 10
-297.995474481431
 20
965.0885631140646
 30
0.0
 40
30.48
  1
100
 50
90.0
 41
1.083333333333333
  7
ＭＳ ゴシック
100
AcDbText
  0
LWPOLYLINE
  5
1F1
330
1F
100
AcDbEntity
  8
0-F
  6
Continuous
 62
     7
370
     9
100
AcDbPolyline
 90
        4
 70
     1
 43
2.0
 10
-285.3554918022184
 20
947.5885218740949
 42
0.4142135623731
 10
-286.3554918022185
 20
948.5885218740948
 42
0.4142135623731
 10
-287.3554918022185
 20
947.5885218740949
 42
0.4142135623731
 10
-286.3554918022185
 20
946.5885218740949
 42
0.4142135623731
  0
LWPOLYLINE
  5
1F2
330
1F
100
AcDbEntity
  8
0-F
  6
Continuous
 62
     7
370
     9
100
AcDbPolyline
 90
        4
 70
     1
 43
2.0
 10
-285.3554918022184
 20
1047.588604354035
 42
0.4142135623731
 10
-286.3554918022185
 20
1048.588604354035
 42
0.4142135623731
 10
-287.3554918022185
 20
1047.588604354035
 42
0.4142135623731
 10
-286.3554918022185
 20
1046.588604354036
 42
0.4142135623731
  0
LINE
  5
1F3
330
1F
100
AcDbEntity
  8
0-F
  6
Continuous
 62
     7
370
     9
100
AcDbLine
 10
-286.3554918022185
 20
1047.588604354035
 30
0.0
 11
-286.3554918022185
 21
1081.789347181267
 31
0.0
  0
LWPOLYLINE
  5
1F4
330
1F
100
AcDbEntity
  8
0-F
  6
Continuous
 62
     7
370
     9
100
AcDbPolyline
 90
        4
 70
     1
 43
2.0
 10
-285.3554918022184
 20
1081.789347181267
 42
0.4142135623731
 10
-286.3554918022185
 20
1082.789347181267
 42
0.4142135623731
 10
-287.3554918022185
 20
1081.789347181267
 42
0.4142135623731
 10
-286.3554918022185
 20
1080.789347181267
 42
0.4142135623731
  0
LINE
  5
1F5
330
1F
100
AcDbEntity
  8
0-F
  6
Continuous
 62
     7
370
     9
100
AcDbLine
 10
-281.3554918022185
 20
1081.789347181267
 30
0.0
 11
-471.3393947711967
 21
1081.789347181267
 31
0.0
  0
TEXT
  5
1F6
330
1F
100
AcDbEntity
  8
0-F
  6
Continuous
 62
     2
370
   211
100
AcDbText
 10
-297.995474481431
 20
1094.467194040417
 30
0.0
 40
30.48
  1
34
 50
90.0
 41
1.0625
  7
ＭＳ ゴシック
100
AcDbText
  0
LINE
  5
1F7
330
1F
100
AcDbEntity
  8
0-F
  6
Continuous
 62
     7
370
     9
100
AcDbLine
 10
-286.3554918022185
 20
1081.789347181267
 30
0.0
 11
-286.3554918022185
 21
1136.967194040417
 31
0.0
  0
LINE
  5
1F8
330
1F
100
AcDbEntity
  8
仕上
  6
Continuous
 62
     3
370
     9
100
AcDbLine
 10
-436.3396372622194
 20
1022.588426197355
 30
0.0
 11
-424.3395481838817
 21
1034.588762715518
 31
0.0
  0
LINE
  5
1F9
330
1F
100
AcDbEntity
  8
仕上
  6
Continuous
 62
     3
370
     9
100
AcDbLine
 10
-894.8394591055476
 20
1022.588426197355
 30
0.0
 11
-436.3396372622194
 21
1022.588426197355
 31
0.0
  0
LINE
  5
1FA
330
1F
100
AcDbEntity
  8
仕上
  6
Continuous
 62
     3
370
     9
100
AcDbLine
 10
-906.8395481838852
 20
1034.588762715518
 30
0.0
 11
-424.3395481838817
 21
1034.588762715518
 31
0.0
  0
LINE
  5
1FB
330
1F
100
AcDbEntity
  8
躯体
  6
JWW_DASHED2
 62
     2
370
     9
100
AcDbLine
 10
-1357.339488798328
 20
1001.588551566873
 30
0.0
 11
-457.3393650784175
 21
1001.588551566873
 31
0.0
  0
LINE
  5
1FC
330
1F
100
AcDbEntity
  8
建具
  6
Continuous
 62
     2
370
     9
100
AcDbLine
 10
-1391.339452507153
 20
1035.588762715518
 30
0.0
 11
-423.3392776496777
 21
1035.588762715518
 31
0.0
  0
LINE
  5
1FD
330
1F
100
AcDbEntity
  8
建具
  6
Continuous
 62
     2
370
     9
100
AcDbLine
 10
-1403.33941786558
 20
1047.588604354031
 30
0.0
 11
-411.3395597310756
 21
1047.588604354031
 31
0.0
  0
LINE
  5
1FE
330
1F
100
AcDbEntity
  8
0-F
  6
Continuous
 62
     7
370
     9
100
AcDbLine
 10
-1134.16554909392
 20
1047.588604354031
 30
0.0
 11
-1134.16554909392
 21
947.5889755137608
 31
0.0
  0
LWPOLYLINE
  5
1FF
330
1F
100
AcDbEntity
  8
0-F
  6
Continuous
 62
     7
370
     9
100
AcDbPolyline
 90
        4
 70
     1
 43
2.0
 10
-1133.16554909392
 20
947.5889755137608
 42
0.4142135623731
 10
-1134.16554909392
 20
948.5889755137607
 42
0.4142135623731
 10
-1135.16554909392
 20
947.5889755137608
 42
0.4142135623731
 10
-1134.16554909392
 20
946.5889755137608
 42
0.4142135623731
  0
LWPOLYLINE
  5
200
330
1F
100
AcDbEntity
  8
0-F
  6
Continuous
 62
     7
370
     9
100
AcDbPolyline
 90
        4
 70
     1
 43
2.0
 10
-1133.16554909392
 20
1047.588604354031
 42
0.4142135623731
 10
-1134.16554909392
 20
1048.588604354031
 42
0.4142135623731
 10
-1135.16554909392
 20
1047.588604354031
 42
0.4142135623731
 10
-1134.16554909392
 20
1046.588604354031
 42
0.4142135623731
  0
TEXT
  5
201
330
1F
100
AcDbEntity
  8
0-F
  6
Continuous
 62
     2
370
   211
100
AcDbText
 10
-1144.80554909392
 20
952.6770347087167
 30
0.0
 40
30.48
  1
100
 50
90.0
 41
1.083333333333333
  7
ＭＳ ゴシック
100
AcDbText
  0
LINE
  5
202
330
1F
100
AcDbEntity
  8
建具
  6
Continuous
 62
     4
370
     9
100
AcDbLine
 10
-1281.589671903794
 20
862.5890992336757
 30
0.0
 11
-1281.589671903794
 21
832.5890992336757
 31
0.0
  0
LINE
  5
203
330
1F
100
AcDbEntity
  8
建具
  6
Continuous
 62
     4
370
     9
100
AcDbLine
 10
-1266.589671903794
 20
862.5890992336757
 30
0.0
 11
-1266.589671903794
 21
832.5890992336757
 31
0.0
  0
LINE
  5
204
330
1F
100
AcDbEntity
  8
建具
  6
Continuous
 62
     4
370
     9
100
AcDbLine
 10
-1297.178127103989
 20
862.5890992336757
 30
0.0
 11
-1297.178127103989
 21
832.5890992336757
 31
0.0
  0
LINE
  5
205
330
1F
100
AcDbEntity
  8
建具
  6
Continuous
 62
     4
370
     9
100
AcDbLine
 10
-1297.178127103989
 20
862.5890992336757
 30
0.0
 11
-1251.001216703598
 21
862.5890992336757
 31
0.0
  0
LINE
  5
206
330
1F
100
AcDbEntity
  8
建具
  6
Continuous
 62
     4
370
     9
100
AcDbLine
 10
-1297.178127103989
 20
832.5890992336757
 30
0.0
 11
-1251.001216703598
 21
832.5890992336757
 31
0.0
  0
LINE
  5
207
330
1F
100
AcDbEntity
  8
建具
  6
Continuous
 62
     4
370
     9
100
AcDbLine
 10
-1251.001216703598
 20
862.5890992336757
 30
0.0
 11
-1251.001216703598
 21
832.5890992336757
 31
0.0
  0
LINE
  5
208
330
1F
100
AcDbEntity
  8
建具
  6
JWW_CENTER1
 62
     4
370
     9
100
AcDbLine
 10
-1303.498700336495
 20
847.5890992336757
 30
0.0
 11
-1244.680643471092
 21
847.5890992336757
 31
0.0
  0
LINE
  5
209
330
1F
100
AcDbEntity
  8
建具
  6
JWW_CENTER1
 62
     4
370
     9
100
AcDbLine
 10
-1274.089671903794
 20
869.7064698391454
 30
0.0
 11
-1274.089671903794
 21
826.4674256496913
 31
0.0
  0
LINE
  5
20A
330
1F
100
AcDbEntity
  8
0-C
  6
Continuous
 62
     2
370
     9
100
AcDbLine
 10
-1275.589652108602
 20
958.9908788208799
 30
0.0
 11
-1275.589652108602
 21
936.187319646467
 31
0.0
  0
LINE
  5
20B
330
1F
100
AcDbEntity
  8
0-C
  6
Continuous
 62
     2
370
     9
100
AcDbLine
 10
-1272.589444259156
 20
958.9908788208799
 30
0.0
 11
-1272.589444259156
 21
936.187319646467
 31
0.0
  0
CIRCLE
  5
20C
330
1F
100
AcDbEntity
  8
0-C
  6
Continuous
 62
     2
370
     9
100
AcDbCircle
 10
-1274.089671903794
 20
947.5890992336757
 30
0.0
 40
16.00000117276166
  0
CIRCLE
  5
20D
330
1F
100
AcDbEntity
  8
0-C
  6
Continuous
 62
     2
370
     9
100
AcDbCircle
 10
-1274.089671903794
 20
947.5890992336757
 30
0.0
 40
11.50000063148705
  0
CIRCLE
  5
20E
330
1F
100
AcDbEntity
  8
0-C
  6
Continuous
 62
     2
370
     9
100
AcDbCircle
 10
-1274.089671903794
 20
947.5890992336757
 30
0.0
 40
12.0000011212117
  0
LINE
  5
20F
330
1F
100
AcDbEntity
  8
0-C
  6
JWW_CENTER1
 62
     2
370
     9
100
AcDbLine
 10
-1305.089675202989
 20
947.5889755137608
 30
0.0
 11
-1243.089668604598
 21
947.5889755137608
 31
0.0
  0
LINE
  5
210
330
1F
100
AcDbEntity
  8
0-C
  6
JWW_CENTER1
 62
     2
370
     9
100
AcDbLine
 10
-1274.089548183883
 20
916.58909593448
 30
0.0
 11
-1274.089548183883
 21
978.5891025328714
 31
0.0
  0
LWPOLYLINE
  5
211
330
1F
100
AcDbEntity
  8
0-F
  6
Continuous
 62
     7
370
     9
100
AcDbPolyline
 90
        4
 70
     1
 43
2.0
 10
-1273.089548183883
 20
774.2873228172816
 42
0.4142135623731
 10
-1274.089548183883
 20
775.2873228172815
 42
0.4142135623731
 10
-1275.089548183883
 20
774.2873228172816
 42
0.4142135623731
 10
-1274.089548183883
 20
773.2873228172816
 42
0.4142135623731
  0
LINE
  5
212
330
1F
100
AcDbEntity
  8
0-F
  6
Continuous
 62
     7
370
     9
100
AcDbLine
 10
-1274.089548183883
 20
771.2873228172815
 30
0.0
 11
-1274.089548183883
 21
896.58909593448
 31
0.0
  0
LINE
  5
213
330
1F
100
AcDbEntity
  8
0-F
  6
Continuous
 62
     7
370
     9
100
AcDbLine
 10
-1131.16554909392
 20
947.5889755137608
 30
0.0
 11
-1223.089668604598
 21
947.5889755137608
 31
0.0
  0
LINE
  5
214
330
1F
100
AcDbEntity
  8
建具
  6
Continuous
 62
     4
370
     9
100
AcDbLine
 10
-1031.589671903794
 20
862.5890992336757
 30
0.0
 11
-1031.589671903794
 21
832.5890992336757
 31
0.0
  0
LINE
  5
215
330
1F
100
AcDbEntity
  8
建具
  6
Continuous
 62
     4
370
     9
100
AcDbLine
 10
-1016.589671903794
 20
862.5890992336757
 30
0.0
 11
-1016.589671903794
 21
832.5890992336757
 31
0.0
  0
LINE
  5
216
330
1F
100
AcDbEntity
  8
建具
  6
Continuous
 62
     4
370
     9
100
AcDbLine
 10
-1047.178127103989
 20
862.5890992336757
 30
0.0
 11
-1047.178127103989
 21
832.5890992336757
 31
0.0
  0
LINE
  5
217
330
1F
100
AcDbEntity
  8
建具
  6
Continuous
 62
     4
370
     9
100
AcDbLine
 10
-1047.178127103989
 20
862.5890992336757
 30
0.0
 11
-1001.001216703598
 21
862.5890992336757
 31
0.0
  0
LINE
  5
218
330
1F
100
AcDbEntity
  8
建具
  6
Continuous
 62
     4
370
     9
100
AcDbLine
 10
-1047.178127103989
 20
832.5890992336757
 30
0.0
 11
-1001.001216703598
 21
832.5890992336757
 31
0.0
  0
LINE
  5
219
330
1F
100
AcDbEntity
  8
建具
  6
Continuous
 62
     4
370
     9
100
AcDbLine
 10
-1001.001216703598
 20
862.5890992336757
 30
0.0
 11
-1001.001216703598
 21
832.5890992336757
 31
0.0
  0
LINE
  5
21A
330
1F
100
AcDbEntity
  8
建具
  6
JWW_CENTER1
 62
     4
370
     9
100
AcDbLine
 10
-1053.498700336495
 20
847.5890992336757
 30
0.0
 11
-994.6806434710925
 21
847.5890992336757
 31
0.0
  0
LINE
  5
21B
330
1F
100
AcDbEntity
  8
建具
  6
JWW_CENTER1
 62
     4
370
     9
100
AcDbLine
 10
-1024.089671903794
 20
869.7064698391454
 30
0.0
 11
-1024.089671903794
 21
826.4674256496913
 31
0.0
  0
LINE
  5
21C
330
1F
100
AcDbEntity
  8
0-C
  6
Continuous
 62
     2
370
     9
100
AcDbLine
 10
-1025.589652108602
 20
958.9908788208799
 30
0.0
 11
-1025.589652108602
 21
936.187319646467
 31
0.0
  0
LINE
  5
21D
330
1F
100
AcDbEntity
  8
0-C
  6
Continuous
 62
     2
370
     9
100
AcDbLine
 10
-1022.589444259156
 20
958.9908788208799
 30
0.0
 11
-1022.589444259156
 21
936.187319646467
 31
0.0
  0
CIRCLE
  5
21E
330
1F
100
AcDbEntity
  8
0-C
  6
Continuous
 62
     2
370
     9
100
AcDbCircle
 10
-1024.089671903794
 20
947.5890992336757
 30
0.0
 40
16.00000117276166
  0
CIRCLE
  5
21F
330
1F
100
AcDbEntity
  8
0-C
  6
Continuous
 62
     2
370
     9
100
AcDbCircle
 10
-1024.089671903794
 20
947.5890992336757
 30
0.0
 40
11.50000063148705
  0
CIRCLE
  5
220
330
1F
100
AcDbEntity
  8
0-C
  6
Continuous
 62
     2
370
     9
100
AcDbCircle
 10
-1024.089671903794
 20
947.5890992336757
 30
0.0
 40
12.0000011212117
  0
LINE
  5
221
330
1F
100
AcDbEntity
  8
0-C
  6
JWW_CENTER1
 62
     2
370
     9
100
AcDbLine
 10
-1055.089675202989
 20
947.5889755137608
 30
0.0
 11
-993.089668604598
 21
947.5889755137608
 31
0.0
  0
LINE
  5
222
330
1F
100
AcDbEntity
  8
0-C
  6
JWW_CENTER1
 62
     2
370
     9
100
AcDbLine
 10
-1024.089548183883
 20
916.58909593448
 30
0.0
 11
-1024.089548183883
 21
978.5891025328714
 31
0.0
  0
LWPOLYLINE
  5
223
330
1F
100
AcDbEntity
  8
0-F
  6
Continuous
 62
     7
370
     9
100
AcDbPolyline
 90
        4
 70
     1
 43
2.0
 10
-1023.089548183883
 20
774.2873228172816
 42
0.4142135623731
 10
-1024.089548183883
 20
775.2873228172815
 42
0.4142135623731
 10
-1025.089548183883
 20
774.2873228172816
 42
0.4142135623731
 10
-1024.089548183883
 20
773.2873228172816
 42
0.4142135623731
  0
LINE
  5
224
330
1F
100
AcDbEntity
  8
0-F
  6
Continuous
 62
     7
370
     9
100
AcDbLine
 10
-1024.089548183883
 20
771.2873228172815
 30
0.0
 11
-1024.089548183883
 21
896.58909593448
 31
0.0
  0
LINE
  5
225
330
1F
100
AcDbEntity
  8
建具
  6
Continuous
 62
     4
370
     9
100
AcDbLine
 10
-548.0895481838834
 20
862.5890992336757
 30
0.0
 11
-548.0895481838834
 21
832.5890992336757
 31
0.0
  0
LINE
  5
226
330
1F
100
AcDbEntity
  8
建具
  6
Continuous
 62
     4
370
     9
100
AcDbLine
 10
-533.0895481838834
 20
862.5890992336757
 30
0.0
 11
-533.0895481838834
 21
832.5890992336757
 31
0.0
  0
LINE
  5
227
330
1F
100
AcDbEntity
  8
建具
  6
Continuous
 62
     4
370
     9
100
AcDbLine
 10
-563.6780033840787
 20
862.5890992336757
 30
0.0
 11
-563.6780033840787
 21
832.5890992336757
 31
0.0
  0
LINE
  5
228
330
1F
100
AcDbEntity
  8
建具
  6
Continuous
 62
     4
370
     9
100
AcDbLine
 10
-563.6780033840787
 20
862.5890992336757
 30
0.0
 11
-517.5010929836881
 21
862.5890992336757
 31
0.0
  0
LINE
  5
229
330
1F
100
AcDbEntity
  8
建具
  6
Continuous
 62
     4
370
     9
100
AcDbLine
 10
-563.6780033840787
 20
832.5890992336757
 30
0.0
 11
-517.5010929836881
 21
832.5890992336757
 31
0.0
  0
LINE
  5
22A
330
1F
100
AcDbEntity
  8
建具
  6
Continuous
 62
     4
370
     9
100
AcDbLine
 10
-517.5010929836881
 20
862.5890992336757
 30
0.0
 11
-517.5010929836881
 21
832.5890992336757
 31
0.0
  0
LINE
  5
22B
330
1F
100
AcDbEntity
  8
建具
  6
JWW_CENTER1
 62
     4
370
     9
100
AcDbLine
 10
-569.9985766165846
 20
847.5890992336757
 30
0.0
 11
-511.1805197511822
 21
847.5890992336757
 31
0.0
  0
LINE
  5
22C
330
1F
100
AcDbEntity
  8
建具
  6
JWW_CENTER1
 62
     4
370
     9
100
AcDbLine
 10
-540.5895481838834
 20
869.7064698391454
 30
0.0
 11
-540.5895481838834
 21
826.4674256496913
 31
0.0
  0
LINE
  5
22D
330
1F
100
AcDbEntity
  8
0-C
  6
Continuous
 62
     2
370
     9
100
AcDbLine
 10
-542.0895283886912
 20
958.9908788208799
 30
0.0
 11
-542.0895283886912
 21
936.187319646467
 31
0.0
  0
LINE
  5
22E
330
1F
100
AcDbEntity
  8
0-C
  6
Continuous
 62
     2
370
     9
100
AcDbLine
 10
-539.0893205392458
 20
958.9908788208799
 30
0.0
 11
-539.0893205392458
 21
936.187319646467
 31
0.0
  0
CIRCLE
  5
22F
330
1F
100
AcDbEntity
  8
0-C
  6
Continuous
 62
     2
370
     9
100
AcDbCircle
 10
-540.5895481838834
 20
947.5890992336757
 30
0.0
 40
16.00000117276166
  0
CIRCLE
  5
230
330
1F
100
AcDbEntity
  8
0-C
  6
Continuous
 62
     2
370
     9
100
AcDbCircle
 10
-540.5895481838834
 20
947.5890992336757
 30
0.0
 40
11.50000063148705
  0
CIRCLE
  5
231
330
1F
100
AcDbEntity
  8
0-C
  6
Continuous
 62
     2
370
     9
100
AcDbCircle
 10
-540.5895481838834
 20
947.5890992336757
 30
0.0
 40
12.0000011212117
  0
LINE
  5
232
330
1F
100
AcDbEntity
  8
0-C
  6
JWW_CENTER1
 62
     2
370
     9
100
AcDbLine
 10
-571.589551483079
 20
947.5889755137608
 30
0.0
 11
-509.5895448846878
 21
947.5889755137608
 31
0.0
  0
LINE
  5
233
330
1F
100
AcDbEntity
  8
0-C
  6
JWW_CENTER1
 62
     2
370
     9
100
AcDbLine
 10
-540.589424463973
 20
916.58909593448
 30
0.0
 11
-540.589424463973
 21
978.5891025328714
 31
0.0
  0
LINE
  5
234
330
1F
100
AcDbEntity
  8
建具
  6
Continuous
 62
     4
370
     9
100
AcDbLine
 10
-798.0895481838834
 20
862.5890992336757
 30
0.0
 11
-798.0895481838834
 21
832.5890992336757
 31
0.0
  0
LINE
  5
235
330
1F
100
AcDbEntity
  8
建具
  6
Continuous
 62
     4
370
     9
100
AcDbLine
 10
-783.0895481838834
 20
862.5890992336757
 30
0.0
 11
-783.0895481838834
 21
832.5890992336757
 31
0.0
  0
LINE
  5
236
330
1F
100
AcDbEntity
  8
建具
  6
Continuous
 62
     4
370
     9
100
AcDbLine
 10
-813.6780033840787
 20
862.5890992336757
 30
0.0
 11
-813.6780033840787
 21
832.5890992336757
 31
0.0
  0
LINE
  5
237
330
1F
100
AcDbEntity
  8
建具
  6
Continuous
 62
     4
370
     9
100
AcDbLine
 10
-813.6780033840787
 20
862.5890992336757
 30
0.0
 11
-767.5010929836881
 21
862.5890992336757
 31
0.0
  0
LINE
  5
238
330
1F
100
AcDbEntity
  8
建具
  6
Continuous
 62
     4
370
     9
100
AcDbLine
 10
-813.6780033840787
 20
832.5890992336757
 30
0.0
 11
-767.5010929836881
 21
832.5890992336757
 31
0.0
  0
LINE
  5
239
330
1F
100
AcDbEntity
  8
建具
  6
Continuous
 62
     4
370
     9
100
AcDbLine
 10
-767.5010929836881
 20
862.5890992336757
 30
0.0
 11
-767.5010929836881
 21
832.5890992336757
 31
0.0
  0
LINE
  5
23A
330
1F
100
AcDbEntity
  8
建具
  6
JWW_CENTER1
 62
     4
370
     9
100
AcDbLine
 10
-819.9985766165846
 20
847.5890992336757
 30
0.0
 11
-761.1805197511821
 21
847.5890992336757
 31
0.0
  0
LINE
  5
23B
330
1F
100
AcDbEntity
  8
建具
  6
JWW_CENTER1
 62
     4
370
     9
100
AcDbLine
 10
-790.5895481838834
 20
869.7064698391454
 30
0.0
 11
-790.5895481838834
 21
826.4674256496913
 31
0.0
  0
LINE
  5
23C
330
1F
100
AcDbEntity
  8
0-C
  6
Continuous
 62
     2
370
     9
100
AcDbLine
 10
-792.0895283886912
 20
958.9908788208799
 30
0.0
 11
-792.0895283886912
 21
936.187319646467
 31
0.0
  0
LINE
  5
23D
330
1F
100
AcDbEntity
  8
0-C
  6
Continuous
 62
     2
370
     9
100
AcDbLine
 10
-789.0893205392458
 20
958.9908788208799
 30
0.0
 11
-789.0893205392458
 21
936.187319646467
 31
0.0
  0
CIRCLE
  5
23E
330
1F
100
AcDbEntity
  8
0-C
  6
Continuous
 62
     2
370
     9
100
AcDbCircle
 10
-790.5895481838834
 20
947.5890992336757
 30
0.0
 40
16.00000117276166
  0
CIRCLE
  5
23F
330
1F
100
AcDbEntity
  8
0-C
  6
Continuous
 62
     2
370
     9
100
AcDbCircle
 10
-790.5895481838834
 20
947.5890992336757
 30
0.0
 40
11.50000063148705
  0
CIRCLE
  5
240
330
1F
100
AcDbEntity
  8
0-C
  6
Continuous
 62
     2
370
     9
100
AcDbCircle
 10
-790.5895481838834
 20
947.5890992336757
 30
0.0
 40
12.0000011212117
  0
LINE
  5
241
330
1F
100
AcDbEntity
  8
0-C
  6
JWW_CENTER1
 62
     2
370
     9
100
AcDbLine
 10
-821.589551483079
 20
947.5889755137608
 30
0.0
 11
-759.5895448846877
 21
947.5889755137608
 31
0.0
  0
LINE
  5
242
330
1F
100
AcDbEntity
  8
0-C
  6
JWW_CENTER1
 62
     2
370
     9
100
AcDbLine
 10
-790.589424463973
 20
916.58909593448
 30
0.0
 11
-790.589424463973
 21
978.5891025328714
 31
0.0
  0
LINE
  5
243
330
1F
100
AcDbEntity
  8
寸法
  6
Continuous
 62
     4
370
     9
100
AcDbLine
 10
-788.5895481838829
 20
783.2813213482005
 30
0.0
 11
-763.8034266495381
 21
786.5444761537025
 31
0.0
  0
LINE
  5
244
330
1F
100
AcDbEntity
  8
寸法
  6
Continuous
 62
     4
370
     9
100
AcDbLine
 10
-788.5895481838829
 20
783.2813213482005
 30
0.0
 11
-763.8034266495381
 21
780.0181665426998
 31
0.0
  0
LINE
  5
245
330
1F
100
AcDbEntity
  8
寸法
  6
Continuous
 62
     4
370
     9
100
AcDbLine
 10
-788.5895481838829
 20
783.2813213482005
 30
0.0
 11
-741.124145491947
 21
783.2813213482005
 31
0.0
  0
TEXT
  5
246
330
1F
100
AcDbEntity
  8
寸法
  6
Continuous
 62
     2
370
     9
100
AcDbText
 10
-733.5586973076062
 20
768.5257636650342
 30
0.0
 40
30.48
  1
A
 41
0.9999999999999998
  7
ＭＳ ゴシック
100
AcDbText
  0
LINE
  5
247
330
1F
100
AcDbEntity
  8
寸法
  6
JWW_CENTER1
 62
     4
370
     9
100
AcDbLine
 10
-790.5895481838834
 20
783.2813213482005
 30
0.0
 11
-790.5895481838834
 21
1098.405333812019
 31
0.0
  0
LINE
  5
248
330
1F
100
AcDbEntity
  8
寸法
  6
Continuous
 62
     4
370
     9
100
AcDbLine
 10
-788.5895481838829
 20
1118.405333812019
 30
0.0
 11
-763.8034266495381
 21
1121.66848861752
 31
0.0
  0
LINE
  5
249
330
1F
100
AcDbEntity
  8
寸法
  6
Continuous
 62
     4
370
     9
100
AcDbLine
 10
-788.5895481838829
 20
1118.405333812019
 30
0.0
 11
-763.8034266495381
 21
1115.142179006517
 31
0.0
  0
LINE
  5
24A
330
1F
100
AcDbEntity
  8
寸法
  6
Continuous
 62
     4
370
     9
100
AcDbLine
 10
-788.5895481838829
 20
1118.405333812019
 30
0.0
 11
-741.124145491947
 21
1118.405333812019
 31
0.0
  0
TEXT
  5
24B
330
1F
100
AcDbEntity
  8
寸法
  6
Continuous
 62
     2
370
     9
100
AcDbText
 10
-733.5586973076062
 20
1103.649776128853
 30
0.0
 40
30.48
  1
A
 41
0.9999999999999998
  7
ＭＳ ゴシック
100
AcDbText
  0
LINE
  5
24C
330
1F
100
AcDbEntity
  8
0-F
  6
Continuous
 62
     7
370
     9
100
AcDbLine
 10
-1357.339488798328
 20
1157.587730066663
 30
0.0
 11
-457.3394887983284
 21
1157.587730066663
 31
0.0
  0
TEXT
  5
24D
330
1F
100
AcDbEntity
  8
0-F
  6
Continuous
 62
     2
370
   211
100
AcDbText
 10
-992.0560712833717
 20
1169.227730066662
 30
0.0
 40
30.48
  1
900
 41
1.083333333333333
  7
ＭＳ ゴシック
100
AcDbText
  0
LINE
  5
24E
330
1F
100
AcDbEntity
  8
仕上
  6
Continuous
 62
     3
370
     9
100
AcDbLine
 10
-907.8395481838817
 20
268.5885878580414
 30
0.0
 11
-919.8396372622193
 21
280.588676936379
 31
0.0
  0
LINE
  5
24F
330
1F
100
AcDbEntity
  8
仕上
  6
Continuous
 62
     3
370
     9
100
AcDbLine
 10
-906.8395481838852
 20
268.5885878580414
 30
0.0
 11
-894.8394591055476
 21
280.588676936379
 31
0.0
  0
LINE
  5
250
330
1F
100
AcDbEntity
  8
0-E
  6
Continuous
 62
     3
370
     9
100
AcDbLine
 10
-887.3394269383726
 20
221.3886055912312
 30
0.0
 11
-927.3394269383726
 21
221.3886055912312
 31
0.0
  0
LINE
  5
251
330
1F
100
AcDbEntity
  8
0-E
  6
Continuous
 62
     3
370
     9
100
AcDbLine
 10
-887.3394269383726
 20
221.3886055912312
 30
0.0
 11
-887.3394269383726
 21
255.5885606396655
 31
0.0
  0
LINE
  5
252
330
1F
100
AcDbEntity
  8
0-E
  6
Continuous
 62
     3
370
     9
100
AcDbLine
 10
-927.3394269383726
 20
221.3886055912312
 30
0.0
 11
-927.3394269383726
 21
255.5885606396655
 31
0.0
  0
CIRCLE
  5
253
330
1F
100
AcDbEntity
  8
0-E
  6
Continuous
 62
     3
370
     9
100
AcDbCircle
 10
-907.3394269383726
 20
236.3886055912312
 30
0.0
 40
6.999999999998181
  0
LINE
  5
254
330
1F
100
AcDbEntity
  8
0-E
  6
JWW_CENTER1
 62
     3
370
     9
100
AcDbLine
 10
-907.3394269383726
 20
214.4156065649609
 30
0.0
 11
-907.3394269383726
 21
255.5885606396655
 31
0.0
  0
LINE
  5
255
330
1F
100
AcDbEntity
  8
0-E
  6
JWW_CENTER1
 62
     3
370
     9
100
AcDbLine
 10
-931.7166684015803
 20
236.3886055912312
 30
0.0
 11
-882.962185475165
 21
236.3886055912312
 31
0.0
  0
LWPOLYLINE
  5
256
330
1F
100
AcDbEntity
  8
0-F
  6
Continuous
 62
     7
370
     9
100
AcDbPolyline
 90
        4
 70
     1
 43
2.0
 10
-906.3394269383728
 20
94.22173322863479
 42
0.4142135623731
 10
-907.3394269383726
 20
95.22173322863479
 42
0.4142135623731
 10
-908.3394269383725
 20
94.22173322863479
 42
0.4142135623731
 10
-907.3394269383726
 20
93.22173322863479
 42
0.4142135623731
  0
LINE
  5
257
330
1F
100
AcDbEntity
  8
0-F
  6
Continuous
 62
     7
370
     9
100
AcDbLine
 10
-907.3394269383726
 20
91.22173322863478
 30
0.0
 11
-907.3394269383726
 21
194.4156065649609
 31
0.0
  0
LINE
  5
258
330
1F
100
AcDbEntity
  8
寸法
  6
Continuous
 62
     7
370
     9
100
AcDbLine
 10
-1189.865968983347
 20
-70.1871844516581
 30
0.0
 11
-624.812884893398
 21
-70.1871844516581
 31
0.0
  0
TEXT
  5
259
330
1F
100
AcDbEntity
  8
寸法
  6
Continuous
 62
     2
370
     9
100
AcDbText
 10
-1174.839426938372
 20
-54.74262891956329
 30
0.0
 40
30.48
  1
平面詳細図　Ｓ＝１：１０
 41
1.114583333333333
  7
ＭＳ ゴシック
100
AcDbText
  0
LINE
  5
25A
330
1F
100
AcDbEntity
  8
0-E
  6
Continuous
 62
     3
370
     9
100
AcDbLine
 10
-1437.539372914014
 20
335.5884987797103
 30
0.0
 11
-1437.539372914014
 21
375.5884987797103
 31
0.0
  0
LINE
  5
25B
330
1F
100
AcDbEntity
  8
0-E
  6
Continuous
 62
     3
370
     9
100
AcDbLine
 10
-1437.539372914014
 20
335.5884987797103
 30
0.0
 11
-1403.33941786558
 21
335.5884987797103
 31
0.0
  0
LINE
  5
25C
330
1F
100
AcDbEntity
  8
0-E
  6
Continuous
 62
     3
370
     9
100
AcDbLine
 10
-1437.539372914014
 20
375.5884987797103
 30
0.0
 11
-1403.33941786558
 21
375.5884987797103
 31
0.0
  0
CIRCLE
  5
25D
330
1F
100
AcDbEntity
  8
0-E
  6
Continuous
 62
     3
370
     9
100
AcDbCircle
 10
-1422.539372914014
 20
355.5884987797103
 30
0.0
 40
6.999999999998181
  0
LINE
  5
25E
330
1F
100
AcDbEntity
  8
0-E
  6
JWW_CENTER1
 62
     3
370
     9
100
AcDbLine
 10
-1444.512371940285
 20
355.5884987797103
 30
0.0
 11
-1403.33941786558
 21
355.5884987797103
 31
0.0
  0
LINE
  5
25F
330
1F
100
AcDbEntity
  8
0-E
  6
JWW_CENTER1
 62
     3
370
     9
100
AcDbLine
 10
-1422.539372914014
 20
379.9657402429179
 30
0.0
 11
-1422.539372914014
 21
331.2112573165039
 31
0.0
  0
LINE
  5
260
330
1F
100
AcDbEntity
  8
0-E
  6
Continuous
 62
     3
370
     9
100
AcDbLine
 10
-1283.339479725531
 20
221.3886055912312
 30
0.0
 11
-1323.339479725531
 21
221.3886055912312
 31
0.0
  0
LINE
  5
261
330
1F
100
AcDbEntity
  8
0-E
  6
Continuous
 62
     3
370
     9
100
AcDbLine
 10
-1283.339479725531
 20
221.3886055912312
 30
0.0
 11
-1283.339479725531
 21
255.5885606396655
 31
0.0
  0
LINE
  5
262
330
1F
100
AcDbEntity
  8
0-E
  6
Continuous
 62
     3
370
     9
100
AcDbLine
 10
-1323.339479725531
 20
221.3886055912312
 30
0.0
 11
-1323.339479725531
 21
255.5885606396655
 31
0.0
  0
CIRCLE
  5
263
330
1F
100
AcDbEntity
  8
0-E
  6
Continuous
 62
     3
370
     9
100
AcDbCircle
 10
-1303.339479725531
 20
236.3886055912312
 30
0.0
 40
6.999999999998181
  0
LINE
  5
264
330
1F
100
AcDbEntity
  8
0-E
  6
JWW_CENTER1
 62
     3
370
     9
100
AcDbLine
 10
-1303.339479725531
 20
214.4156065649609
 30
0.0
 11
-1303.339479725531
 21
255.5885606396655
 31
0.0
  0
LINE
  5
265
330
1F
100
AcDbEntity
  8
0-E
  6
JWW_CENTER1
 62
     3
370
     9
100
AcDbLine
 10
-1327.716721188738
 20
236.3886055912312
 30
0.0
 11
-1278.962238262323
 21
236.3886055912312
 31
0.0
  0
LINE
  5
266
330
1F
100
AcDbEntity
  8
0-F
  6
Continuous
 62
     7
370
     9
100
AcDbLine
 10
-1303.339065670869
 20
192.077997085265
 30
0.0
 11
-1303.339065670869
 21
89.22171673264735
 31
0.0
  0
LINE
  5
267
330
1F
100
AcDbEntity
  8
0-F
  6
Continuous
 62
     7
370
     9
100
AcDbLine
 10
-1403.339395590633
 20
229.3775708289306
 30
0.0
 11
-1403.339395590633
 21
89.22171673264735
 31
0.0
  0
LWPOLYLINE
  5
268
330
1F
100
AcDbEntity
  8
0-F
  6
Continuous
 62
     7
370
     9
100
AcDbPolyline
 90
        4
 70
     1
 43
2.0
 10
-1402.339395590633
 20
94.22173322863479
 42
0.4142135623731
 10
-1403.339395590633
 20
95.22173322863479
 42
0.4142135623731
 10
-1404.339395590632
 20
94.22173322863479
 42
0.4142135623731
 10
-1403.339395590633
 20
93.22173322863479
 42
0.4142135623731
  0
LINE
  5
269
330
1F
100
AcDbEntity
  8
0-F
  6
Continuous
 62
     7
370
     9
100
AcDbLine
 10
-1437.539643538218
 20
89.22173322863479
 30
0.0
 11
-1437.539643538218
 21
304.3777027968358
 31
0.0
  0
LINE
  5
26A
330
1F
100
AcDbEntity
  8
0-F
  6
Continuous
 62
     7
370
     9
100
AcDbLine
 10
-1437.539643538218
 20
94.22173322863479
 30
0.0
 11
-1403.339395590633
 21
94.22173322863479
 31
0.0
  0
LWPOLYLINE
  5
26B
330
1F
100
AcDbEntity
  8
0-F
  6
Continuous
 62
     7
370
     9
100
AcDbPolyline
 90
        4
 70
     1
 43
2.0
 10
-1436.539643538218
 20
94.22173322863479
 42
0.4142135623731
 10
-1437.539643538218
 20
95.22173322863479
 42
0.4142135623731
 10
-1438.539643538218
 20
94.22173322863479
 42
0.4142135623731
 10
-1437.539643538218
 20
93.22173322863479
 42
0.4142135623731
  0
LINE
  5
26C
330
1F
100
AcDbEntity
  8
0-F
  6
Continuous
 62
     7
370
     9
100
AcDbLine
 10
-1403.339395590633
 20
94.22173322863479
 30
0.0
 11
-1303.339065670869
 21
94.22173322863479
 31
0.0
  0
LWPOLYLINE
  5
26D
330
1F
100
AcDbEntity
  8
0-F
  6
Continuous
 62
     7
370
     9
100
AcDbPolyline
 90
        4
 70
     1
 43
2.0
 10
-1302.339065670869
 20
94.22173322863479
 42
0.4142135623731
 10
-1303.339065670869
 20
95.22173322863479
 42
0.4142135623731
 10
-1304.339065670869
 20
94.22173322863479
 42
0.4142135623731
 10
-1303.339065670869
 20
93.22173322863479
 42
0.4142135623731
  0
TEXT
  5
26E
330
1F
100
AcDbEntity
  8
0-F
  6
Continuous
 62
     2
370
   211
100
AcDbText
 10
-1385.839230630751
 20
105.861733228635
 30
0.0
 40
30.48
  1
100
 41
1.083333333333333
  7
ＭＳ ゴシック
100
AcDbText
  0
TEXT
  5
26F
330
1F
100
AcDbEntity
  8
0-F
  6
Continuous
 62
     2
370
   211
100
AcDbText
 10
-1441.689519564425
 20
35.64015776944316
 30
0.0
 40
30.48
  1
34
 41
1.0625
  7
ＭＳ ゴシック
100
AcDbText
  0
LINE
  5
270
330
1F
100
AcDbEntity
  8
0-F
  6
Continuous
 62
     7
370
     9
100
AcDbLine
 10
-1372.339538286292
 20
301.5885515668729
 30
0.0
 11
-1478.963380107605
 21
301.5885515668729
 31
0.0
  0
LWPOLYLINE
  5
271
330
1F
100
AcDbEntity
  8
0-F
  6
Continuous
 62
     7
370
     9
100
AcDbPolyline
 90
        4
 70
     1
 43
2.0
 10
-1472.963363611616
 20
301.5885515668729
 42
0.4142135623731
 10
-1473.963363611616
 20
302.5885515668729
 42
0.4142135623731
 10
-1474.963363611616
 20
301.5885515668729
 42
0.4142135623731
 10
-1473.963363611616
 20
300.5885515668729
 42
0.4142135623731
  0
LINE
  5
272
330
1F
100
AcDbEntity
  8
0-F
  6
Continuous
 62
     7
370
     9
100
AcDbLine
 10
-1405.33959767185
 20
268.5884921813156
 30
0.0
 11
-1565.132727422033
 21
268.5884921813156
 31
0.0
  0
LWPOLYLINE
  5
273
330
1F
100
AcDbEntity
  8
0-F
  6
Continuous
 62
     7
370
     9
100
AcDbPolyline
 90
        4
 70
     1
 43
2.0
 10
-1559.132710926045
 20
268.5884921813156
 42
0.4142135623731
 10
-1560.132710926045
 20
269.5884921813156
 42
0.4142135623731
 10
-1561.132710926045
 20
268.5884921813156
 42
0.4142135623731
 10
-1560.132710926045
 20
267.5884921813156
 42
0.4142135623731
  0
LINE
  5
274
330
1F
100
AcDbEntity
  8
0-F
  6
Continuous
 62
     7
370
     9
100
AcDbLine
 10
-1418.339591073455
 20
255.5884987797103
 30
0.0
 11
-1647.595949971374
 21
255.5884987797103
 31
0.0
  0
LWPOLYLINE
  5
275
330
1F
100
AcDbEntity
  8
0-F
  6
Continuous
 62
     7
370
     9
100
AcDbPolyline
 90
        4
 70
     1
 43
2.0
 10
-1641.595933475386
 20
255.5884987797103
 42
0.4142135623731
 10
-1642.595933475386
 20
256.5884987797103
 42
0.4142135623731
 10
-1643.595933475386
 20
255.5884987797103
 42
0.4142135623731
 10
-1642.595933475386
 20
254.5884987797103
 42
0.4142135623731
  0
LINE
  5
276
330
1F
100
AcDbEntity
  8
建具
  6
Continuous
 62
     2
370
     9
100
AcDbLine
 10
-1391.339452507153
 20
267.5885878580434
 30
0.0
 11
-1403.33941786558
 21
255.5884987797103
 31
0.0
  0
LINE
  5
277
330
1F
100
AcDbEntity
  8
仕上
  6
Continuous
 62
     3
370
     9
100
AcDbLine
 10
-1390.339548183885
 20
268.5885878580414
 30
0.0
 11
-1378.339459105548
 21
280.588676936379
 31
0.0
  0
LINE
  5
278
330
1F
100
AcDbEntity
  8
仕上
  6
Continuous
 62
     3
370
     9
100
AcDbLine
 10
-919.8396372622193
 20
280.588676936379
 30
0.0
 11
-1378.339459105548
 21
280.588676936379
 31
0.0
  0
LINE
  5
279
330
1F
100
AcDbEntity
  8
仕上
  6
Continuous
 62
     3
370
     9
100
AcDbLine
 10
-907.8395481838817
 20
268.5885878580414
 30
0.0
 11
-1390.339548183885
 21
268.5885878580414
 31
0.0
  0
LINE
  5
27A
330
1F
100
AcDbEntity
  8
0-E
  6
Continuous
 62
     3
370
     9
100
AcDbLine
 10
-491.3393741512101
 20
221.3886055912312
 30
0.0
 11
-531.3393741512101
 21
221.3886055912312
 31
0.0
  0
LINE
  5
27B
330
1F
100
AcDbEntity
  8
0-E
  6
Continuous
 62
     3
370
     9
100
AcDbLine
 10
-491.3393741512101
 20
221.3886055912312
 30
0.0
 11
-491.3393741512101
 21
255.5885606396655
 31
0.0
  0
LINE
  5
27C
330
1F
100
AcDbEntity
  8
0-E
  6
Continuous
 62
     3
370
     9
100
AcDbLine
 10
-531.3393741512101
 20
221.3886055912312
 30
0.0
 11
-531.3393741512101
 21
255.5885606396655
 31
0.0
  0
CIRCLE
  5
27D
330
1F
100
AcDbEntity
  8
0-E
  6
Continuous
 62
     3
370
     9
100
AcDbCircle
 10
-511.3393741512101
 20
236.3886055912312
 30
0.0
 40
6.999999999998181
  0
LINE
  5
27E
330
1F
100
AcDbEntity
  8
0-E
  6
JWW_CENTER1
 62
     3
370
     9
100
AcDbLine
 10
-511.3393741512101
 20
214.4156065649609
 30
0.0
 11
-511.3393741512101
 21
255.5885606396655
 31
0.0
  0
LINE
  5
27F
330
1F
100
AcDbEntity
  8
0-E
  6
JWW_CENTER1
 62
     3
370
     9
100
AcDbLine
 10
-535.7166156144177
 20
236.3886055912312
 30
0.0
 11
-486.9621326880025
 21
236.3886055912312
 31
0.0
  0
LINE
  5
280
330
1F
100
AcDbEntity
  8
0-E
  6
Continuous
 62
     3
370
     9
100
AcDbLine
 10
-377.139480962731
 20
375.5884987797149
 30
0.0
 11
-377.139480962731
 21
335.5884987797149
 31
0.0
  0
LINE
  5
281
330
1F
100
AcDbEntity
  8
0-E
  6
Continuous
 62
     3
370
     9
100
AcDbLine
 10
-377.139480962731
 20
375.5884987797149
 30
0.0
 11
-411.3394360111653
 21
375.5884987797149
 31
0.0
  0
LINE
  5
282
330
1F
100
AcDbEntity
  8
0-E
  6
Continuous
 62
     3
370
     9
100
AcDbLine
 10
-377.139480962731
 20
335.5884987797149
 30
0.0
 11
-411.3394360111653
 21
335.5884987797149
 31
0.0
  0
CIRCLE
  5
283
330
1F
100
AcDbEntity
  8
0-E
  6
Continuous
 62
     3
370
     9
100
AcDbCircle
 10
-392.139480962731
 20
355.5884987797149
 30
0.0
 40
6.999999999998181
  0
LINE
  5
284
330
1F
100
AcDbEntity
  8
0-E
  6
JWW_CENTER1
 62
     3
370
     9
100
AcDbLine
 10
-370.1664819364606
 20
355.5884987797149
 30
0.0
 11
-411.3394360111653
 21
355.5884987797149
 31
0.0
  0
LINE
  5
285
330
1F
100
AcDbEntity
  8
0-E
  6
JWW_CENTER1
 62
     3
370
     9
100
AcDbLine
 10
-392.139480962731
 20
331.2112573165073
 30
0.0
 11
-392.139480962731
 21
379.9657402429214
 31
0.0
  0
LINE
  5
286
330
1F
100
AcDbEntity
  8
0-F
  6
Continuous
 62
     7
370
     9
100
AcDbLine
 10
-511.3388776166039
 20
195.449859548314
 30
0.0
 11
-511.3377641374018
 21
89.22171673264735
 31
0.0
  0
LWPOLYLINE
  5
287
330
1F
100
AcDbEntity
  8
0-F
  6
Continuous
 62
     7
370
     9
100
AcDbPolyline
 90
        4
 70
     1
 43
2.0
 10
-410.3378053773721
 20
94.22272298792542
 42
0.4142135623731
 10
-411.3378053773721
 20
95.22272298792542
 42
0.4142135623731
 10
-412.3378053773721
 20
94.22272298792542
 42
0.4142135623731
 10
-411.3378053773721
 20
93.22272298792542
 42
0.4142135623731
  0
LINE
  5
288
330
1F
100
AcDbEntity
  8
0-F
  6
Continuous
 62
     7
370
     9
100
AcDbLine
 10
-377.1392895085449
 20
89.22272298792542
 30
0.0
 11
-377.1392895085449
 21
304.3777027968358
 31
0.0
  0
LWPOLYLINE
  5
289
330
1F
100
AcDbEntity
  8
0-F
  6
Continuous
 62
     7
370
     9
100
AcDbPolyline
 90
        4
 70
     1
 43
2.0
 10
-510.3377641374018
 20
94.22173322863479
 42
0.4142135623731
 10
-511.3377641374018
 20
95.22173322863479
 42
0.4142135623731
 10
-512.3377641374018
 20
94.22173322863479
 42
0.4142135623731
 10
-511.3377641374018
 20
93.22173322863479
 42
0.4142135623731
  0
LINE
  5
28A
330
1F
100
AcDbEntity
  8
0-F
  6
Continuous
 62
     7
370
     9
100
AcDbLine
 10
-511.3377641374018
 20
94.22173322863479
 30
0.0
 11
-411.3378053773721
 21
94.22173322863479
 31
0.0
  0
TEXT
  5
28B
330
1F
100
AcDbEntity
  8
0-F
  6
Continuous
 62
     2
370
   211
100
AcDbText
 10
-493.8377847573869
 20
105.861733228635
 30
0.0
 40
30.48
  1
100
 41
1.083333333333333
  7
ＭＳ ゴシック
100
AcDbText
  0
LINE
  5
28C
330
1F
100
AcDbEntity
  8
0-F
  6
Continuous
 62
     7
370
     9
100
AcDbLine
 10
-411.3378053773721
 20
94.22173322863479
 30
0.0
 11
-377.1392895085447
 21
94.22173322863479
 31
0.0
  0
LWPOLYLINE
  5
28D
330
1F
100
AcDbEntity
  8
0-F
  6
Continuous
 62
     7
370
     9
100
AcDbPolyline
 90
        4
 70
     1
 43
2.0
 10
-376.1392895085447
 20
94.22173322863479
 42
0.4142135623731
 10
-377.1392895085447
 20
95.22173322863479
 42
0.4142135623731
 10
-378.1392895085447
 20
94.22173322863479
 42
0.4142135623731
 10
-377.1392895085447
 20
93.22173322863479
 42
0.4142135623731
  0
LINE
  5
28E
330
1F
100
AcDbEntity
  8
0-F
  6
Continuous
 62
     7
370
     9
100
AcDbLine
 10
-411.3391662963966
 20
229.3776945488421
 30
0.0
 11
-411.3376816581979
 21
89.22277601721568
 31
0.0
  0
TEXT
  5
28F
330
1F
100
AcDbEntity
  8
0-F
  6
Continuous
 62
     2
370
   211
100
AcDbText
 10
-415.4885474429585
 20
35.64015776944316
 30
0.0
 40
30.48
  1
34
 41
1.0625
  7
ＭＳ ゴシック
100
AcDbText
  0
LINE
  5
290
330
1F
100
AcDbEntity
  8
建具
  6
Continuous
 62
     2
370
     9
100
AcDbLine
 10
-423.3392776496777
 20
267.5885878580434
 30
0.0
 11
-411.3394360111653
 21
255.5884987797103
 31
0.0
  0
LINE
  5
291
330
1F
100
AcDbEntity
  8
0-F
  6
Continuous
 62
     7
370
     9
100
AcDbLine
 10
-286.3554918022185
 20
255.5884987797103
 30
0.0
 11
-286.3554918022185
 21
355.5888286994739
 31
0.0
  0
LINE
  5
292
330
1F
100
AcDbEntity
  8
0-F
  6
Continuous
 62
     7
370
     9
100
AcDbLine
 10
-396.339448383157
 20
255.5884987797103
 30
0.0
 11
-281.3554753062299
 21
255.5884987797103
 31
0.0
  0
LINE
  5
293
330
1F
100
AcDbEntity
  8
0-F
  6
Continuous
 62
     7
370
     9
100
AcDbLine
 10
-355.8235281049681
 20
355.5888286994739
 30
0.0
 11
-281.3554753062299
 21
355.5888286994739
 31
0.0
  0
TEXT
  5
294
330
1F
100
AcDbEntity
  8
0-F
  6
Continuous
 62
     2
370
     9
100
AcDbText
 10
-297.995474481431
 20
273.0886946695703
 30
0.0
 40
30.48
  1
100
 50
90.0
 41
1.083333333333333
  7
ＭＳ ゴシック
100
AcDbText
  0
LWPOLYLINE
  5
295
330
1F
100
AcDbEntity
  8
0-F
  6
Continuous
 62
     7
370
     9
100
AcDbPolyline
 90
        4
 70
     1
 43
2.0
 10
-285.3554918022184
 20
255.5884987797103
 42
0.4142135623731
 10
-286.3554918022185
 20
256.5884987797103
 42
0.4142135623731
 10
-287.3554918022185
 20
255.5884987797103
 42
0.4142135623731
 10
-286.3554918022185
 20
254.5884987797103
 42
0.4142135623731
  0
LWPOLYLINE
  5
296
330
1F
100
AcDbEntity
  8
0-F
  6
Continuous
 62
     7
370
     9
100
AcDbPolyline
 90
        4
 70
     1
 43
2.0
 10
-285.3554918022184
 20
355.5888286994739
 42
0.4142135623731
 10
-286.3554918022185
 20
356.5888286994739
 42
0.4142135623731
 10
-287.3554918022185
 20
355.5888286994739
 42
0.4142135623731
 10
-286.3554918022185
 20
354.5888286994739
 42
0.4142135623731
  0
LINE
  5
297
330
1F
100
AcDbEntity
  8
0-F
  6
Continuous
 62
     7
370
     9
100
AcDbLine
 10
-286.3554918022185
 20
255.5884987797103
 30
0.0
 11
-286.3554918022185
 21
221.3882508321237
 31
0.0
  0
LWPOLYLINE
  5
298
330
1F
100
AcDbEntity
  8
0-F
  6
Continuous
 62
     7
370
     9
100
AcDbPolyline
 90
        4
 70
     1
 43
2.0
 10
-285.3554918022184
 20
221.3882508321237
 42
0.4142135623731
 10
-286.3554918022185
 20
222.3882508321238
 42
0.4142135623731
 10
-287.3554918022185
 20
221.3882508321237
 42
0.4142135623731
 10
-286.3554918022185
 20
220.3882508321237
 42
0.4142135623731
  0
LINE
  5
299
330
1F
100
AcDbEntity
  8
0-F
  6
Continuous
 62
     7
370
     9
100
AcDbLine
 10
-281.3554918022185
 20
221.3882508321237
 30
0.0
 11
-471.3393947711967
 21
221.3882508321237
 31
0.0
  0
TEXT
  5
29A
330
1F
100
AcDbEntity
  8
0-F
  6
Continuous
 62
     2
370
   211
100
AcDbText
 10
-297.995474481431
 20
163.4365464881231
 30
0.0
 40
30.48
  1
34
 50
90.0
 41
1.0625
  7
ＭＳ ゴシック
100
AcDbText
  0
LINE
  5
29B
330
1F
100
AcDbEntity
  8
0-F
  6
Continuous
 62
     7
370
     9
100
AcDbLine
 10
-286.3554918022185
 20
221.3882508321237
 30
0.0
 11
-286.3554918022185
 21
163.4365464881231
 31
0.0
  0
LINE
  5
29C
330
1F
100
AcDbEntity
  8
仕上
  6
Continuous
 62
     3
370
     9
100
AcDbLine
 10
-424.3395481838817
 20
268.5885878580414
 30
0.0
 11
-436.3396372622194
 21
280.588676936379
 31
0.0
  0
LINE
  5
29D
330
1F
100
AcDbEntity
  8
仕上
  6
Continuous
 62
     3
370
     9
100
AcDbLine
 10
-436.3396372622194
 20
280.588676936379
 30
0.0
 11
-894.8394591055476
 21
280.588676936379
 31
0.0
  0
LINE
  5
29E
330
1F
100
AcDbEntity
  8
仕上
  6
Continuous
 62
     3
370
     9
100
AcDbLine
 10
-424.3395481838817
 20
268.5885878580414
 30
0.0
 11
-906.8395481838852
 21
268.5885878580414
 31
0.0
  0
LINE
  5
29F
330
1F
100
AcDbEntity
  8
躯体
  6
JWW_DASHED2
 62
     2
370
     9
100
AcDbLine
 10
-457.3393650784175
 20
301.5885515668729
 30
0.0
 11
-1357.339488798328
 21
301.5885515668729
 31
0.0
  0
LINE
  5
2A0
330
1F
100
AcDbEntity
  8
建具
  6
Continuous
 62
     2
370
     9
100
AcDbLine
 10
-423.3392776496777
 20
267.5885878580434
 30
0.0
 11
-1391.339452507153
 21
267.5885878580434
 31
0.0
  0
LINE
  5
2A1
330
1F
100
AcDbEntity
  8
建具
  6
Continuous
 62
     2
370
     9
100
AcDbLine
 10
-411.3394360111653
 20
255.5884987797103
 30
0.0
 11
-1403.33941786558
 21
255.5884987797103
 31
0.0
  0
LINE
  5
2A2
330
1F
100
AcDbEntity
  8
建具
  6
Continuous
 62
     4
370
     9
100
AcDbLine
 10
-1281.589671903794
 20
440.588251339884
 30
0.0
 11
-1281.589671903794
 21
470.5882513398846
 31
0.0
  0
LINE
  5
2A3
330
1F
100
AcDbEntity
  8
建具
  6
Continuous
 62
     4
370
     9
100
AcDbLine
 10
-1266.589671903794
 20
440.588251339884
 30
0.0
 11
-1266.589671903794
 21
470.5882513398846
 31
0.0
  0
LINE
  5
2A4
330
1F
100
AcDbEntity
  8
建具
  6
Continuous
 62
     4
370
     9
100
AcDbLine
 10
-1297.178127103989
 20
440.588251339884
 30
0.0
 11
-1297.178127103989
 21
470.5882513398846
 31
0.0
  0
LINE
  5
2A5
330
1F
100
AcDbEntity
  8
建具
  6
Continuous
 62
     4
370
     9
100
AcDbLine
 10
-1297.178127103989
 20
440.588251339884
 30
0.0
 11
-1251.001216703598
 21
440.588251339884
 31
0.0
  0
LINE
  5
2A6
330
1F
100
AcDbEntity
  8
建具
  6
Continuous
 62
     4
370
     9
100
AcDbLine
 10
-1297.178127103989
 20
470.5882513398846
 30
0.0
 11
-1251.001216703598
 21
470.5882513398846
 31
0.0
  0
LINE
  5
2A7
330
1F
100
AcDbEntity
  8
建具
  6
Continuous
 62
     4
370
     9
100
AcDbLine
 10
-1251.001216703598
 20
440.588251339884
 30
0.0
 11
-1251.001216703598
 21
470.5882513398846
 31
0.0
  0
LINE
  5
2A8
330
1F
100
AcDbEntity
  8
建具
  6
JWW_CENTER1
 62
     4
370
     9
100
AcDbLine
 10
-1303.498700336495
 20
455.5882513398846
 30
0.0
 11
-1244.680643471092
 21
455.5882513398846
 31
0.0
  0
LINE
  5
2A9
330
1F
100
AcDbEntity
  8
建具
  6
JWW_CENTER1
 62
     4
370
     9
100
AcDbLine
 10
-1274.089671903794
 20
433.4708807344143
 30
0.0
 11
-1274.089671903794
 21
476.7099249238689
 31
0.0
  0
LINE
  5
2AA
330
1F
100
AcDbEntity
  8
0-C
  6
Continuous
 62
     2
370
     9
100
AcDbLine
 10
-1275.589652108602
 20
344.1864717526798
 30
0.0
 11
-1275.589652108602
 21
366.9900309270927
 31
0.0
  0
LINE
  5
2AB
330
1F
100
AcDbEntity
  8
0-C
  6
Continuous
 62
     2
370
     9
100
AcDbLine
 10
-1272.589444259156
 20
344.1864717526798
 30
0.0
 11
-1272.589444259156
 21
366.9900309270927
 31
0.0
  0
CIRCLE
  5
2AC
330
1F
100
AcDbEntity
  8
0-C
  6
Continuous
 62
     2
370
     9
100
AcDbCircle
 10
-1274.089671903794
 20
355.588251339884
 30
0.0
 40
16.00000117276166
  0
CIRCLE
  5
2AD
330
1F
100
AcDbEntity
  8
0-C
  6
Continuous
 62
     2
370
     9
100
AcDbCircle
 10
-1274.089671903794
 20
355.588251339884
 30
0.0
 40
11.50000063148704
  0
CIRCLE
  5
2AE
330
1F
100
AcDbEntity
  8
0-C
  6
Continuous
 62
     2
370
     9
100
AcDbCircle
 10
-1274.089671903794
 20
355.588251339884
 30
0.0
 40
12.00000112121169
  0
LINE
  5
2AF
330
1F
100
AcDbEntity
  8
0-C
  6
JWW_CENTER1
 62
     2
370
     9
100
AcDbLine
 10
-1305.089675202989
 20
355.5883750597989
 30
0.0
 11
-1243.089668604598
 21
355.5883750597989
 31
0.0
  0
LINE
  5
2B0
330
1F
100
AcDbEntity
  8
0-C
  6
JWW_CENTER1
 62
     2
370
     9
100
AcDbLine
 10
-1274.089548183883
 20
386.5882546390797
 30
0.0
 11
-1274.089548183883
 21
324.5882480406883
 31
0.0
  0
LINE
  5
2B1
330
1F
100
AcDbEntity
  8
建具
  6
Continuous
 62
     4
370
     9
100
AcDbLine
 10
-1031.589671903794
 20
440.588251339884
 30
0.0
 11
-1031.589671903794
 21
470.5882513398846
 31
0.0
  0
LINE
  5
2B2
330
1F
100
AcDbEntity
  8
建具
  6
Continuous
 62
     4
370
     9
100
AcDbLine
 10
-1016.589671903794
 20
440.588251339884
 30
0.0
 11
-1016.589671903794
 21
470.5882513398846
 31
0.0
  0
LINE
  5
2B3
330
1F
100
AcDbEntity
  8
建具
  6
Continuous
 62
     4
370
     9
100
AcDbLine
 10
-1047.178127103989
 20
440.588251339884
 30
0.0
 11
-1047.178127103989
 21
470.5882513398846
 31
0.0
  0
LINE
  5
2B4
330
1F
100
AcDbEntity
  8
建具
  6
Continuous
 62
     4
370
     9
100
AcDbLine
 10
-1047.178127103989
 20
440.588251339884
 30
0.0
 11
-1001.001216703598
 21
440.588251339884
 31
0.0
  0
LINE
  5
2B5
330
1F
100
AcDbEntity
  8
建具
  6
Continuous
 62
     4
370
     9
100
AcDbLine
 10
-1047.178127103989
 20
470.5882513398846
 30
0.0
 11
-1001.001216703598
 21
470.5882513398846
 31
0.0
  0
LINE
  5
2B6
330
1F
100
AcDbEntity
  8
建具
  6
Continuous
 62
     4
370
     9
100
AcDbLine
 10
-1001.001216703598
 20
440.588251339884
 30
0.0
 11
-1001.001216703598
 21
470.5882513398846
 31
0.0
  0
LINE
  5
2B7
330
1F
100
AcDbEntity
  8
建具
  6
JWW_CENTER1
 62
     4
370
     9
100
AcDbLine
 10
-1053.498700336495
 20
455.5882513398846
 30
0.0
 11
-994.6806434710925
 21
455.5882513398846
 31
0.0
  0
LINE
  5
2B8
330
1F
100
AcDbEntity
  8
建具
  6
JWW_CENTER1
 62
     4
370
     9
100
AcDbLine
 10
-1024.089671903794
 20
433.4708807344143
 30
0.0
 11
-1024.089671903794
 21
476.7099249238689
 31
0.0
  0
LINE
  5
2B9
330
1F
100
AcDbEntity
  8
0-C
  6
Continuous
 62
     2
370
     9
100
AcDbLine
 10
-1025.589652108602
 20
344.1864717526798
 30
0.0
 11
-1025.589652108602
 21
366.9900309270927
 31
0.0
  0
LINE
  5
2BA
330
1F
100
AcDbEntity
  8
0-C
  6
Continuous
 62
     2
370
     9
100
AcDbLine
 10
-1022.589444259156
 20
344.1864717526798
 30
0.0
 11
-1022.589444259156
 21
366.9900309270927
 31
0.0
  0
CIRCLE
  5
2BB
330
1F
100
AcDbEntity
  8
0-C
  6
Continuous
 62
     2
370
     9
100
AcDbCircle
 10
-1024.089671903794
 20
355.588251339884
 30
0.0
 40
16.00000117276166
  0
CIRCLE
  5
2BC
330
1F
100
AcDbEntity
  8
0-C
  6
Continuous
 62
     2
370
     9
100
AcDbCircle
 10
-1024.089671903794
 20
355.588251339884
 30
0.0
 40
11.50000063148705
  0
CIRCLE
  5
2BD
330
1F
100
AcDbEntity
  8
0-C
  6
Continuous
 62
     2
370
     9
100
AcDbCircle
 10
-1024.089671903794
 20
355.588251339884
 30
0.0
 40
12.0000011212117
  0
LINE
  5
2BE
330
1F
100
AcDbEntity
  8
0-C
  6
JWW_CENTER1
 62
     2
370
     9
100
AcDbLine
 10
-1055.089675202989
 20
355.5883750597989
 30
0.0
 11
-993.089668604598
 21
355.5883750597989
 31
0.0
  0
LINE
  5
2BF
330
1F
100
AcDbEntity
  8
0-C
  6
JWW_CENTER1
 62
     2
370
     9
100
AcDbLine
 10
-1024.089548183883
 20
386.5882546390797
 30
0.0
 11
-1024.089548183883
 21
324.5882480406883
 31
0.0
  0
LINE
  5
2C0
330
1F
100
AcDbEntity
  8
建具
  6
Continuous
 62
     4
370
     9
100
AcDbLine
 10
-548.0895481838834
 20
440.588251339884
 30
0.0
 11
-548.0895481838834
 21
470.5882513398846
 31
0.0
  0
LINE
  5
2C1
330
1F
100
AcDbEntity
  8
建具
  6
Continuous
 62
     4
370
     9
100
AcDbLine
 10
-533.0895481838834
 20
440.588251339884
 30
0.0
 11
-533.0895481838834
 21
470.5882513398846
 31
0.0
  0
LINE
  5
2C2
330
1F
100
AcDbEntity
  8
建具
  6
Continuous
 62
     4
370
     9
100
AcDbLine
 10
-563.6780033840787
 20
440.588251339884
 30
0.0
 11
-563.6780033840787
 21
470.5882513398846
 31
0.0
  0
LINE
  5
2C3
330
1F
100
AcDbEntity
  8
建具
  6
Continuous
 62
     4
370
     9
100
AcDbLine
 10
-563.6780033840787
 20
440.588251339884
 30
0.0
 11
-517.5010929836881
 21
440.588251339884
 31
0.0
  0
LINE
  5
2C4
330
1F
100
AcDbEntity
  8
建具
  6
Continuous
 62
     4
370
     9
100
AcDbLine
 10
-563.6780033840787
 20
470.5882513398846
 30
0.0
 11
-517.5010929836881
 21
470.5882513398846
 31
0.0
  0
LINE
  5
2C5
330
1F
100
AcDbEntity
  8
建具
  6
Continuous
 62
     4
370
     9
100
AcDbLine
 10
-517.5010929836881
 20
440.588251339884
 30
0.0
 11
-517.5010929836881
 21
470.5882513398846
 31
0.0
  0
LINE
  5
2C6
330
1F
100
AcDbEntity
  8
建具
  6
JWW_CENTER1
 62
     4
370
     9
100
AcDbLine
 10
-569.9985766165846
 20
455.5882513398846
 30
0.0
 11
-511.1805197511822
 21
455.5882513398846
 31
0.0
  0
LINE
  5
2C7
330
1F
100
AcDbEntity
  8
建具
  6
JWW_CENTER1
 62
     4
370
     9
100
AcDbLine
 10
-540.5895481838834
 20
433.4708807344143
 30
0.0
 11
-540.5895481838834
 21
476.7099249238689
 31
0.0
  0
LINE
  5
2C8
330
1F
100
AcDbEntity
  8
0-C
  6
Continuous
 62
     2
370
     9
100
AcDbLine
 10
-542.0895283886912
 20
344.1864717526798
 30
0.0
 11
-542.0895283886912
 21
366.9900309270927
 31
0.0
  0
LINE
  5
2C9
330
1F
100
AcDbEntity
  8
0-C
  6
Continuous
 62
     2
370
     9
100
AcDbLine
 10
-539.0893205392458
 20
344.1864717526798
 30
0.0
 11
-539.0893205392458
 21
366.9900309270927
 31
0.0
  0
CIRCLE
  5
2CA
330
1F
100
AcDbEntity
  8
0-C
  6
Continuous
 62
     2
370
     9
100
AcDbCircle
 10
-540.5895481838834
 20
355.588251339884
 30
0.0
 40
16.00000117276166
  0
CIRCLE
  5
2CB
330
1F
100
AcDbEntity
  8
0-C
  6
Continuous
 62
     2
370
     9
100
AcDbCircle
 10
-540.5895481838834
 20
355.588251339884
 30
0.0
 40
11.50000063148705
  0
CIRCLE
  5
2CC
330
1F
100
AcDbEntity
  8
0-C
  6
Continuous
 62
     2
370
     9
100
AcDbCircle
 10
-540.5895481838834
 20
355.588251339884
 30
0.0
 40
12.0000011212117
  0
LINE
  5
2CD
330
1F
100
AcDbEntity
  8
0-C
  6
JWW_CENTER1
 62
     2
370
     9
100
AcDbLine
 10
-571.589551483079
 20
355.5883750597989
 30
0.0
 11
-509.5895448846878
 21
355.5883750597989
 31
0.0
  0
LINE
  5
2CE
330
1F
100
AcDbEntity
  8
0-C
  6
JWW_CENTER1
 62
     2
370
     9
100
AcDbLine
 10
-540.5895481838834
 20
386.5882546390797
 30
0.0
 11
-540.5895481838834
 21
324.5882480406883
 31
0.0
  0
LINE
  5
2CF
330
1F
100
AcDbEntity
  8
建具
  6
Continuous
 62
     4
370
     9
100
AcDbLine
 10
-798.0895481838834
 20
440.588251339884
 30
0.0
 11
-798.0895481838834
 21
470.5882513398846
 31
0.0
  0
LINE
  5
2D0
330
1F
100
AcDbEntity
  8
建具
  6
Continuous
 62
     4
370
     9
100
AcDbLine
 10
-783.0895481838834
 20
440.588251339884
 30
0.0
 11
-783.0895481838834
 21
470.5882513398846
 31
0.0
  0
LINE
  5
2D1
330
1F
100
AcDbEntity
  8
建具
  6
Continuous
 62
     4
370
     9
100
AcDbLine
 10
-813.6780033840787
 20
440.588251339884
 30
0.0
 11
-813.6780033840787
 21
470.5882513398846
 31
0.0
  0
LINE
  5
2D2
330
1F
100
AcDbEntity
  8
建具
  6
Continuous
 62
     4
370
     9
100
AcDbLine
 10
-813.6780033840787
 20
440.588251339884
 30
0.0
 11
-767.5010929836881
 21
440.588251339884
 31
0.0
  0
LINE
  5
2D3
330
1F
100
AcDbEntity
  8
建具
  6
Continuous
 62
     4
370
     9
100
AcDbLine
 10
-813.6780033840787
 20
470.5882513398846
 30
0.0
 11
-767.5010929836881
 21
470.5882513398846
 31
0.0
  0
LINE
  5
2D4
330
1F
100
AcDbEntity
  8
建具
  6
Continuous
 62
     4
370
     9
100
AcDbLine
 10
-767.5010929836881
 20
440.588251339884
 30
0.0
 11
-767.5010929836881
 21
470.5882513398846
 31
0.0
  0
LINE
  5
2D5
330
1F
100
AcDbEntity
  8
建具
  6
JWW_CENTER1
 62
     4
370
     9
100
AcDbLine
 10
-819.9985766165846
 20
455.5882513398846
 30
0.0
 11
-761.1805197511821
 21
455.5882513398846
 31
0.0
  0
LINE
  5
2D6
330
1F
100
AcDbEntity
  8
建具
  6
JWW_CENTER1
 62
     4
370
     9
100
AcDbLine
 10
-790.5895481838834
 20
433.4708807344143
 30
0.0
 11
-790.5895481838834
 21
476.7099249238689
 31
0.0
  0
LINE
  5
2D7
330
1F
100
AcDbEntity
  8
0-C
  6
Continuous
 62
     2
370
     9
100
AcDbLine
 10
-792.0895283886912
 20
344.1864717526798
 30
0.0
 11
-792.0895283886912
 21
366.9900309270927
 31
0.0
  0
LINE
  5
2D8
330
1F
100
AcDbEntity
  8
0-C
  6
Continuous
 62
     2
370
     9
100
AcDbLine
 10
-789.0893205392458
 20
344.1864717526798
 30
0.0
 11
-789.0893205392458
 21
366.9900309270927
 31
0.0
  0
CIRCLE
  5
2D9
330
1F
100
AcDbEntity
  8
0-C
  6
Continuous
 62
     2
370
     9
100
AcDbCircle
 10
-790.5895481838834
 20
355.588251339884
 30
0.0
 40
16.00000117276166
  0
CIRCLE
  5
2DA
330
1F
100
AcDbEntity
  8
0-C
  6
Continuous
 62
     2
370
     9
100
AcDbCircle
 10
-790.5895481838834
 20
355.588251339884
 30
0.0
 40
11.50000063148704
  0
CIRCLE
  5
2DB
330
1F
100
AcDbEntity
  8
0-C
  6
Continuous
 62
     2
370
     9
100
AcDbCircle
 10
-790.5895481838834
 20
355.588251339884
 30
0.0
 40
12.00000112121169
  0
LINE
  5
2DC
330
1F
100
AcDbEntity
  8
0-C
  6
JWW_CENTER1
 62
     2
370
     9
100
AcDbLine
 10
-821.589551483079
 20
355.5883750597989
 30
0.0
 11
-759.5895448846877
 21
355.5883750597989
 31
0.0
  0
LINE
  5
2DD
330
1F
100
AcDbEntity
  8
0-C
  6
JWW_CENTER1
 62
     2
370
     9
100
AcDbLine
 10
-790.589424463973
 20
386.5882546390797
 30
0.0
 11
-790.589424463973
 21
324.5882480406883
 31
0.0
  0
LINE
  5
2DE
330
1F
100
AcDbEntity
  8
仕上
  6
Continuous
 62
     3
370
     9
100
AcDbLine
 10
-919.8396372622193
 20
280.588676936379
 30
0.0
 11
-919.8396372622193
 21
1022.588426197355
 31
0.0
  0
LINE
  5
2DF
330
1F
100
AcDbEntity
  8
仕上
  6
Continuous
 62
     3
370
     9
100
AcDbLine
 10
-907.8395481838817
 20
268.5885878580414
 30
0.0
 11
-907.8395481838817
 21
1034.588762715518
 31
0.0
  0
LINE
  5
2E0
330
1F
100
AcDbEntity
  8
仕上
  6
Continuous
 62
     3
370
     9
100
AcDbLine
 10
-906.8395481838852
 20
268.5885878580414
 30
0.0
 11
-906.8395481838852
 21
1034.588762715518
 31
0.0
  0
LINE
  5
2E1
330
1F
100
AcDbEntity
  8
仕上
  6
Continuous
 62
     3
370
     9
100
AcDbLine
 10
-894.8394591055476
 20
280.588676936379
 30
0.0
 11
-894.8394591055476
 21
1022.588426197355
 31
0.0
  0
LINE
  5
2E2
330
1F
100
AcDbEntity
  8
躯体
  6
JWW_DASHED2
 62
     2
370
     9
100
AcDbLine
 10
-1357.339488798328
 20
301.5885515668729
 30
0.0
 11
-1357.339488798328
 21
1001.588551566873
 31
0.0
  0
LINE
  5
2E3
330
1F
100
AcDbEntity
  8
建具
  6
Continuous
 62
     2
370
     9
100
AcDbLine
 10
-1391.339452507153
 20
267.5885878580434
 30
0.0
 11
-1391.339452507153
 21
1035.588762715518
 31
0.0
  0
LINE
  5
2E4
330
1F
100
AcDbEntity
  8
建具
  6
Continuous
 62
     2
370
     9
100
AcDbLine
 10
-1403.33941786558
 20
255.5884987797103
 30
0.0
 11
-1403.33941786558
 21
1047.588604354031
 31
0.0
  0
LINE
  5
2E5
330
1F
100
AcDbEntity
  8
仕上
  6
Continuous
 62
     3
370
     9
100
AcDbLine
 10
-1390.339548183885
 20
268.5885878580414
 30
0.0
 11
-1390.339548183885
 21
1034.588762715518
 31
0.0
  0
LINE
  5
2E6
330
1F
100
AcDbEntity
  8
仕上
  6
Continuous
 62
     3
370
     9
100
AcDbLine
 10
-1378.339459105548
 20
280.588676936379
 30
0.0
 11
-1378.339459105548
 21
1022.588426197355
 31
0.0
  0
LINE
  5
2E7
330
1F
100
AcDbEntity
  8
躯体
  6
JWW_DASHED2
 62
     2
370
     9
100
AcDbLine
 10
-457.3393650784175
 20
1001.588551566873
 30
0.0
 11
-457.3393650784175
 21
301.5885515668729
 31
0.0
  0
LINE
  5
2E8
330
1F
100
AcDbEntity
  8
建具
  6
Continuous
 62
     2
370
     9
100
AcDbLine
 10
-423.3394013695926
 20
267.5885878580434
 30
0.0
 11
-423.3394013695926
 21
1035.588762715518
 31
0.0
  0
LINE
  5
2E9
330
1F
100
AcDbEntity
  8
建具
  6
Continuous
 62
     2
370
     9
100
AcDbLine
 10
-411.3394360111653
 20
1047.588604354031
 30
0.0
 11
-411.3394360111653
 21
255.5884987797103
 31
0.0
  0
LINE
  5
2EA
330
1F
100
AcDbEntity
  8
仕上
  6
Continuous
 62
     3
370
     9
100
AcDbLine
 10
-436.3396372622194
 20
280.588676936379
 30
0.0
 11
-436.3396372622194
 21
1022.588426197355
 31
0.0
  0
LINE
  5
2EB
330
1F
100
AcDbEntity
  8
仕上
  6
Continuous
 62
     3
370
     9
100
AcDbLine
 10
-424.3395481838817
 20
268.5885878580414
 30
0.0
 11
-424.3395481838817
 21
1034.588762715518
 31
0.0
  0
TEXT
  5
2EC
330
1F
100
AcDbEntity
  8
F-Fﾚｲﾔ
  6
Continuous
 62
     2
370
     9
100
AcDbText
 10
-1362.915067021346
 20
-1027.359999072101
 30
0.0
 40
30.48
  1
約55kg/枚
 41
1.097222222222222
  7
ＭＳ ゴシック
100
AcDbText
  0
TEXT
  5
2ED
330
1F
100
AcDbEntity
  8
F-Fﾚｲﾔ
  6
Continuous
 62
     2
370
     9
100
AcDbText
 10
-1362.915067021346
 20
-937.3597129698063
 30
0.0
 40
30.48
  1
53kg/組
 41
1.089285714285714
  7
ＭＳ ゴシック
100
AcDbText
  0
TEXT
  5
2EE
330
1F
100
AcDbEntity
  8
F-5ﾚｲﾔ
  6
Continuous
 62
     2
370
     9
100
AcDbText
 10
-792.7244917797611
 20
-1304.096534808358
 30
0.0
 40
30.48
  1
充填用（充填深さ：３０ｍｍ）　屋内用　一般形　スチール製　ステンレス目地
 41
0.7743055555555555
  7
ＭＳ ゴシック
100
AcDbText
  0
LINE
  5
2EF
330
1F
100
AcDbEntity
  8
0-F
  6
Continuous
 62
     7
370
     9
100
AcDbLine
 10
-1390.339548183885
 20
1247.588521874095
 30
0.0
 11
-907.8395481838817
 21
1247.588521874095
 31
0.0
  0
TEXT
  5
2F0
330
1F
100
AcDbEntity
  8
0-F
  6
Continuous
 62
     2
370
   211
100
AcDbText
 10
-1204.089548183883
 20
1258.228521874095
 30
0.0
 40
30.48
  1
482.5
 41
1.1
  7
ＭＳ ゴシック
100
AcDbText
  0
LINE
  5
2F1
330
1F
100
AcDbEntity
  8
0-F
  6
Continuous
 62
     7
370
     9
100
AcDbLine
 10
-906.8395481838852
 20
1247.588521874095
 30
0.0
 11
-424.3394294127705
 21
1247.588521874095
 31
0.0
  0
TEXT
  5
2F2
330
1F
100
AcDbEntity
  8
0-F
  6
Continuous
 62
     2
370
   211
100
AcDbText
 10
-720.5894887983278
 20
1258.228521874095
 30
0.0
 40
30.48
  1
482.5
 41
1.1
  7
ＭＳ ゴシック
100
AcDbText
  0
LINE
  5
2F3
330
1F
100
AcDbEntity
  8
0-F
  6
Continuous
 62
     7
370
     9
100
AcDbLine
 10
-1403.33954158549
 20
1337.588818801881
 30
0.0
 11
-411.3394360111658
 21
1337.588818801881
 31
0.0
  0
TEXT
  5
2F4
330
1F
100
AcDbEntity
  8
0-F
  6
Continuous
 62
     2
370
   211
100
AcDbText
 10
-939.8394887983281
 20
1349.228818801882
 30
0.0
 40
30.48
  1
992
 41
1.083333333333333
  7
ＭＳ ゴシック
100
AcDbText
  0
LINE
  5
2F5
330
1F
100
AcDbEntity
  8
0-F
  6
Continuous
 62
     7
370
     9
100
AcDbLine
 10
-1274.089548183883
 20
774.2873228172816
 30
0.0
 11
-1024.089548183883
 21
774.2873228172816
 31
0.0
  0
TEXT
  5
2F6
330
1F
100
AcDbEntity
  8
0-F
  6
Continuous
 62
     2
370
   211
100
AcDbText
 10
-1181.589548183883
 20
784.9273228172816
 30
0.0
 40
30.48
  1
250
 41
1.083333333333333
  7
ＭＳ ゴシック
100
AcDbText
  0
LINE
  5
2F7
330
1F
100
AcDbEntity
  8
0-F
  6
Continuous
 62
     7
370
     9
100
AcDbLine
 10
-1303.339065670869
 20
94.22173322863479
 30
0.0
 11
-907.3394269383726
 21
94.22173322863479
 31
0.0
  0
TEXT
  5
2F8
330
1F
100
AcDbEntity
  8
0-F
  6
Continuous
 62
     2
370
   211
100
AcDbText
 10
-1137.839246304621
 20
104.8617332286348
 30
0.0
 40
30.48
  1
396
 41
1.083333333333333
  7
ＭＳ ゴシック
100
AcDbText
  0
LINE
  5
2F9
330
1F
100
AcDbEntity
  8
0-F
  6
Continuous
 62
     7
370
     9
100
AcDbLine
 10
-907.3394269383726
 20
94.22173322863479
 30
0.0
 11
-511.3377641374018
 21
94.22173322863479
 31
0.0
  0
TEXT
  5
2FA
330
1F
100
AcDbEntity
  8
0-F
  6
Continuous
 62
     2
370
   211
100
AcDbText
 10
-741.8385955378872
 20
104.8617332286348
 30
0.0
 40
30.48
  1
396
 41
1.083333333333333
  7
ＭＳ ゴシック
100
AcDbText
  0
LINE
  5
2FB
330
1F
100
AcDbEntity
  8
0-F
  6
Continuous
 62
     7
370
     9
100
AcDbLine
 10
-286.3554918022185
 20
355.5888286994739
 30
0.0
 11
-286.3554918022185
 21
947.5885218740949
 31
0.0
  0
TEXT
  5
2FC
330
1F
100
AcDbEntity
  8
0-F
  6
Continuous
 62
     2
370
   211
100
AcDbText
 10
-297.9954918022182
 20
619.0886752867843
 30
0.0
 40
30.48
  1
592
 50
90.0
 41
1.083333333333333
  7
ＭＳ ゴシック
100
AcDbText
  0
LINE
  5
2FD
330
1F
100
AcDbEntity
  8
0-F
  6
Continuous
 62
     7
370
     9
100
AcDbLine
 10
-1642.595933475386
 20
255.5884987797103
 30
0.0
 11
-1642.595933475386
 21
1047.588604354035
 31
0.0
  0
TEXT
  5
2FE
330
1F
100
AcDbEntity
  8
0-F
  6
Continuous
 62
     2
370
   211
100
AcDbText
 10
-1654.235854294642
 20
619.0885515668729
 30
0.0
 40
30.48
  1
792
 50
90.0
 41
1.083333333333333
  7
ＭＳ ゴシック
100
AcDbText
  0
LINE
  5
2FF
330
1F
100
AcDbEntity
  8
0-F
  6
Continuous
 62
     7
370
     9
100
AcDbLine
 10
-1560.132710926045
 20
268.5884921813156
 30
0.0
 11
-1560.132710926045
 21
1034.58861095243
 31
0.0
  0
TEXT
  5
300
330
1F
100
AcDbEntity
  8
0-F
  6
Continuous
 62
     2
370
   211
100
AcDbText
 10
-1571.772631745302
 20
619.0885515668729
 30
0.0
 40
30.48
  1
766
 50
90.0
 41
1.083333333333333
  7
ＭＳ ゴシック
100
AcDbText
  0
LINE
  5
301
330
1F
100
AcDbEntity
  8
0-F
  6
Continuous
 62
     7
370
     9
100
AcDbLine
 10
-1473.963363611616
 20
301.5885515668729
 30
0.0
 11
-1473.963363611616
 21
1001.588551566873
 31
0.0
  0
TEXT
  5
302
330
1F
100
AcDbEntity
  8
0-F
  6
Continuous
 62
     2
370
   211
100
AcDbText
 10
-1485.603284430874
 20
619.0885515668729
 30
0.0
 40
30.48
  1
700
 50
90.0
 41
1.083333333333333
  7
ＭＳ ゴシック
100
AcDbText
  0
ENDSEC
  0
SECTION
  2
OBJECTS
  0
DICTIONARY
  5
C
330
0
100
AcDbDictionary
281
     1
  3
ACAD_DETAILVIEWSTYLE
350
348
  3
ACAD_GROUP
350
D
  3
ACAD_LAYOUT
350
1A
  3
ACAD_MATERIAL
350
43
  3
ACAD_MLEADERSTYLE
350
6B
  3
ACAD_MLINESTYLE
350
17
  3
ACAD_PLOTSETTINGS
350
19
  3
ACAD_PLOTSTYLENAME
350
E
  3
ACAD_SCALELIST
350
47
  3
ACAD_SECTIONVIEWSTYLE
350
349
  3
ACAD_TABLESTYLE
350
69
  3
ACAD_VISUALSTYLE
350
2A
  3
ACDB_RECOMPOSE_DATA
350
345
  3
AcDbVariableDictionary
350
305
  0
DICTIONARY
  5
303
330
8
100
AcDbDictionary
280
     1
281
     1
  3
ACAD_XREC_ROUNDTRIP
360
304
  0
DICTIONARY
  5
348
102
{ACAD_REACTORS
330
C
102
}
330
C
100
AcDbDictionary
281
     1
  0
DICTIONARY
  5
D
102
{ACAD_REACTORS
330
C
102
}
330
C
100
AcDbDictionary
281
     1
  0
DICTIONARY
  5
1A
102
{ACAD_REACTORS
330
C
102
}
330
C
100
AcDbDictionary
281
     1
  3
Layout1
350
1E
  3
Layout2
350
26
  3
Model
350
22
  0
DICTIONARY
  5
43
102
{ACAD_REACTORS
330
C
102
}
330
C
100
AcDbDictionary
281
     1
  3
ByBlock
350
45
  3
ByLayer
350
44
  3
Global
350
46
  0
DICTIONARY
  5
6B
102
{ACAD_REACTORS
330
C
102
}
330
C
100
AcDbDictionary
281
     1
  3
Standard
350
6C
  0
DICTIONARY
  5
17
102
{ACAD_REACTORS
330
C
102
}
330
C
100
AcDbDictionary
281
     1
  3
Standard
350
18
  0
DICTIONARY
  5
19
102
{ACAD_REACTORS
330
C
102
}
330
C
100
AcDbDictionary
281
     1
  0
ACDBDICTIONARYWDFLT
  5
E
102
{ACAD_REACTORS
330
C
102
}
330
C
100
AcDbDictionary
281
     1
  3
Normal
350
F
100
AcDbDictionaryWithDefault
340
F
  0
DICTIONARY
  5
47
102
{ACAD_REACTORS
330
C
102
}
330
C
100
AcDbDictionary
281
     1
  3
A0
350
48
  3
A1
350
49
  3
A2
350
4A
  3
A3
350
4B
  3
A4
350
4C
  3
A5
350
4D
  3
A6
350
4E
  3
A7
350
4F
  3
A8
350
50
  3
A9
350
51
  3
B0
350
52
  3
B1
350
53
  3
B2
350
54
  3
B3
350
55
  3
B4
350
56
  3
B5
350
57
  3
B6
350
58
  3
B7
350
59
  3
B8
350
5A
  3
B9
350
5B
  3
C0
350
5C
  3
C1
350
5D
  3
C2
350
5E
  3
C3
350
5F
  3
C4
350
60
  3
C5
350
61
  3
C6
350
62
  3
C7
350
63
  3
C8
350
64
  3
C9
350
65
  3
D0
350
66
  3
D1
350
67
  3
D2
350
68
  0
DICTIONARY
  5
349
102
{ACAD_REACTORS
330
C
102
}
330
C
100
AcDbDictionary
281
     1
  0
DICTIONARY
  5
69
102
{ACAD_REACTORS
330
C
102
}
330
C
100
AcDbDictionary
281
     1
  3
Standard
350
6A
  0
DICTIONARY
  5
2A
102
{ACAD_REACTORS
330
C
102
}
330
C
100
AcDbDictionary
281
     1
  3
2dWireframe
350
2F
  3
Basic
350
32
  3
Brighten
350
36
  3
ColorChange
350
3A
  3
Conceptual
350
34
  3
Dim
350
35
  3
EdgeColorOff
350
3D
  3
Facepattern
350
39
  3
Flat
350
2B
  3
FlatWithEdges
350
2C
  3
Gouraud
350
2D
  3
GouraudWithEdges
350
2E
  3
Hidden
350
31
  3
JitterOff
350
3B
  3
Linepattern
350
38
  3
OverhangOff
350
3C
  3
Realistic
350
33
  3
Shaded
350
42
  3
Shaded with edges
350
41
  3
Shades of Gray
350
3E
  3
Sketchy
350
3F
  3
Thicken
350
37
  3
Wireframe
350
30
  3
X-Ray
350
40
  0
XRECORD
  5
345
102
{ACAD_REACTORS
330
C
102
}
330
C
100
AcDbXrecord
280
     1
 90
        1
330
6A
  0
DICTIONARY
  5
305
102
{ACAD_REACTORS
330
C
102
}
330
C
100
AcDbDictionary
281
     1
  3
CANNOSCALE
350
306
  3
CENTEREXE
350
34A
  3
CENTERLTYPEFILE
350
34B
  3
CMLEADERSTYLE
350
347
  3
CTABLESTYLE
350
346
  3
MSLTSCALE
350
307
  3
XCLIPFRAME
350
308
  0
XRECORD
  5
304
102
{ACAD_REACTORS
330
303
102
}
330
303
100
AcDbXrecord
280
     1
102
VTR_0.000_0.000_1.000_1.000_VISUALSTYLE
340
2F
102
VTR_0.000_0.000_1.000_1.000_GRIDDISPLAY
 70
     3
102
VTR_0.000_0.000_1.000_1.000_GRIDMAJOR
 70
     5
102
VTR_0.000_0.000_1.000_1.000_DEFAULTLIGHTING
280
     1
102
VTR_0.000_0.000_1.000_1.000_DEFAULTLIGHTINGTYPE
 70
     1
102
VTR_0.000_0.000_1.000_1.000_BRIGHTNESS
141
0.0
102
VTR_0.000_0.000_1.000_1.000_CONTRAST
142
0.0
  0
LAYOUT
  5
1E
102
{ACAD_REACTORS
330
1A
102
}
330
1A
100
AcDbPlotSettings
  1

  2
none_device
  4

  6

 40
0.0
 41
0.0
 42
0.0
 43
0.0
 44
0.0
 45
0.0
 46
0.0
 47
0.0
 48
0.0
 49
0.0
140
0.0
141
0.0
142
1.0
143
1.0
 70
   688
 72
     1
 73
     0
 74
     5
  7

 75
    16
 76
     0
 77
     5
 78
   300
147
1.0
148
0.0
149
0.0
100
AcDbLayout
  1
Layout1
 70
     1
 71
     1
 10
0.0
 20
0.0
 11
420.0
 21
297.0
 12
0.0
 22
0.0
 32
0.0
 14
1.000000000000000E+20
 24
1.000000000000000E+20
 34
1.000000000000000E+20
 15
-1.000000000000000E+20
 25
-1.000000000000000E+20
 35
-1.000000000000000E+20
146
0.0
 13
0.0
 23
0.0
 33
0.0
 16
1.0
 26
0.0
 36
0.0
 17
0.0
 27
1.0
 37
0.0
 76
     0
330
1B
  0
LAYOUT
  5
26
102
{ACAD_REACTORS
330
1A
102
}
330
1A
100
AcDbPlotSettings
  1

  2
none_device
  4

  6

 40
0.0
 41
0.0
 42
0.0
 43
0.0
 44
0.0
 45
0.0
 46
0.0
 47
0.0
 48
0.0
 49
0.0
140
0.0
141
0.0
142
1.0
143
1.0
 70
   688
 72
     1
 73
     0
 74
     5
  7

 75
    16
 76
     0
 77
     5
 78
   300
147
1.0
148
0.0
149
0.0
100
AcDbLayout
  1
Layout2
 70
     1
 71
     2
 10
0.0
 20
0.0
 11
0.0
 21
0.0
 12
0.0
 22
0.0
 32
0.0
 14
0.0
 24
0.0
 34
0.0
 15
0.0
 25
0.0
 35
0.0
146
0.0
 13
0.0
 23
0.0
 33
0.0
 16
1.0
 26
0.0
 36
0.0
 17
0.0
 27
1.0
 37
0.0
 76
     0
330
23
  0
LAYOUT
  5
22
102
{ACAD_REACTORS
330
1A
102
}
330
1A
100
AcDbPlotSettings
  1

  2
none_device
  4
Letter_(8.50_x_11.00_Inches)
  6

 40
6.35
 41
6.35
 42
6.35000508
 43
6.35000508
 44
215.9
 45
279.4
 46
0.0
 47
0.0
 48
0.0
 49
0.0
140
0.0
141
0.0
142
1.0
143
1.0
 70
  1712
 72
     1
 73
     0
 74
     0
  7

 75
     0
 76
     0
 77
     5
 78
   300
147
1.0
148
0.0
149
0.0
100
AcDbLayout
  1
Model
 70
     1
 71
     0
 10
-2100.0
 20
-1485.0
 11
2100.0
 21
1485.0
 12
0.0
 22
0.0
 32
0.0
 14
-2100.0
 24
-1485.0
 34
0.0
 15
2100.0
 25
1485.0
 35
0.0
146
0.0
 13
0.0
 23
0.0
 33
0.0
 16
1.0
 26
0.0
 36
0.0
 17
0.0
 27
1.0
 37
0.0
 76
     0
330
1F
331
29
  0
MATERIAL
  5
45
102
{ACAD_REACTORS
330
43
102
}
102
{ACAD_XDICTIONARY
360
33B
102
}
330
43
100
AcDbMaterial
  1
ByBlock
  0
MATERIAL
  5
44
102
{ACAD_REACTORS
330
43
102
}
102
{ACAD_XDICTIONARY
360
339
102
}
330
43
100
AcDbMaterial
  1
ByLayer
  0
MATERIAL
  5
46
102
{ACAD_REACTORS
330
43
102
}
102
{ACAD_XDICTIONARY
360
33D
102
}
330
43
100
AcDbMaterial
  1
Global
  0
MLEADERSTYLE
  5
6C
102
{ACAD_REACTORS
330
6B
102
}
102
{ACAD_XDICTIONARY
360
343
102
}
330
6B
100
AcDbMLeaderStyle
170
     2
171
     1
172
     0
 90
        2
 40
0.0
 41
0.0
173
     1
 91
-1056964608
340
14
 92
       -2
290
     1
 42
2.0
291
     1
 43
8.0
  3
Standard
341
0
 44
4.0
300

342
11
174
     1
178
     6
175
     1
176
     0
 93
-1056964608
 45
4.0
292
     0
297
     0
 46
4.0
343
0
 94
-1056964608
 47
1.0
 49
1.0
140
1.0
293
     1
141
0.0
294
     1
177
     0
142
1.0
295
     0
296
     0
143
3.75
1001
ACAD_MLEADERVER
1070
     2
  0
MLINESTYLE
  5
18
102
{ACAD_REACTORS
330
17
102
}
330
17
100
AcDbMlineStyle
  2
Standard
 70
     0
  3

 62
   256
 51
90.0
 52
90.0
 71
     2
 49
0.5
 62
   256
  6
BYLAYER
 49
-0.5
 62
   256
  6
BYLAYER
  0
ACDBPLACEHOLDER
  5
F
102
{ACAD_REACTORS
330
E
102
}
330
E
  0
SCALE
  5
48
102
{ACAD_REACTORS
330
47
102
}
330
47
100
AcDbScale
 70
     0
300
1:1
140
1.0
141
1.0
290
     1
  0
SCALE
  5
49
102
{ACAD_REACTORS
330
47
102
}
330
47
100
AcDbScale
 70
     0
300
1:2
140
1.0
141
2.0
290
     0
  0
SCALE
  5
4A
102
{ACAD_REACTORS
330
47
102
}
330
47
100
AcDbScale
 70
     0
300
1:4
140
1.0
141
4.0
290
     0
  0
SCALE
  5
4B
102
{ACAD_REACTORS
330
47
102
}
330
47
100
AcDbScale
 70
     0
300
1:5
140
1.0
141
5.0
290
     0
  0
SCALE
  5
4C
102
{ACAD_REACTORS
330
47
102
}
330
47
100
AcDbScale
 70
     0
300
1:8
140
1.0
141
8.0
290
     0
  0
SCALE
  5
4D
102
{ACAD_REACTORS
330
47
102
}
330
47
100
AcDbScale
 70
     0
300
1:10
140
1.0
141
10.0
290
     0
  0
SCALE
  5
4E
102
{ACAD_REACTORS
330
47
102
}
330
47
100
AcDbScale
 70
     0
300
1:16
140
1.0
141
16.0
290
     0
  0
SCALE
  5
4F
102
{ACAD_REACTORS
330
47
102
}
330
47
100
AcDbScale
 70
     0
300
1:20
140
1.0
141
20.0
290
     0
  0
SCALE
  5
50
102
{ACAD_REACTORS
330
47
102
}
330
47
100
AcDbScale
 70
     0
300
1:30
140
1.0
141
30.0
290
     0
  0
SCALE
  5
51
102
{ACAD_REACTORS
330
47
102
}
330
47
100
AcDbScale
 70
     0
300
1:40
140
1.0
141
40.0
290
     0
  0
SCALE
  5
52
102
{ACAD_REACTORS
330
47
102
}
330
47
100
AcDbScale
 70
     0
300
1:50
140
1.0
141
50.0
290
     0
  0
SCALE
  5
53
102
{ACAD_REACTORS
330
47
102
}
330
47
100
AcDbScale
 70
     0
300
1:100
140
1.0
141
100.0
290
     0
  0
SCALE
  5
54
102
{ACAD_REACTORS
330
47
102
}
330
47
100
AcDbScale
 70
     0
300
2:1
140
2.0
141
1.0
290
     0
  0
SCALE
  5
55
102
{ACAD_REACTORS
330
47
102
}
330
47
100
AcDbScale
 70
     0
300
4:1
140
4.0
141
1.0
290
     0
  0
SCALE
  5
56
102
{ACAD_REACTORS
330
47
102
}
330
47
100
AcDbScale
 70
     0
300
8:1
140
8.0
141
1.0
290
     0
  0
SCALE
  5
57
102
{ACAD_REACTORS
330
47
102
}
330
47
100
AcDbScale
 70
     0
300
10:1
140
10.0
141
1.0
290
     0
  0
SCALE
  5
58
102
{ACAD_REACTORS
330
47
102
}
330
47
100
AcDbScale
 70
     0
300
100:1
140
100.0
141
1.0
290
     0
  0
SCALE
  5
59
102
{ACAD_REACTORS
330
47
102
}
330
47
100
AcDbScale
 70
     0
300
1/128" = 1'-0"
140
0.0078125
141
12.0
290
     0
  0
SCALE
  5
5A
102
{ACAD_REACTORS
330
47
102
}
330
47
100
AcDbScale
 70
     0
300
1/64" = 1'-0"
140
0.015625
141
12.0
290
     0
  0
SCALE
  5
5B
102
{ACAD_REACTORS
330
47
102
}
330
47
100
AcDbScale
 70
     0
300
1/32" = 1'-0"
140
0.03125
141
12.0
290
     0
  0
SCALE
  5
5C
102
{ACAD_REACTORS
330
47
102
}
330
47
100
AcDbScale
 70
     0
300
1/16" = 1'-0"
140
0.0625
141
12.0
290
     0
  0
SCALE
  5
5D
102
{ACAD_REACTORS
330
47
102
}
330
47
100
AcDbScale
 70
     0
300
3/32" = 1'-0"
140
0.09375
141
12.0
290
     0
  0
SCALE
  5
5E
102
{ACAD_REACTORS
330
47
102
}
330
47
100
AcDbScale
 70
     0
300
1/8" = 1'-0"
140
0.125
141
12.0
290
     0
  0
SCALE
  5
5F
102
{ACAD_REACTORS
330
47
102
}
330
47
100
AcDbScale
 70
     0
300
3/16" = 1'-0"
140
0.1875
141
12.0
290
     0
  0
SCALE
  5
60
102
{ACAD_REACTORS
330
47
102
}
330
47
100
AcDbScale
 70
     0
300
1/4" = 1'-0"
140
0.25
141
12.0
290
     0
  0
SCALE
  5
61
102
{ACAD_REACTORS
330
47
102
}
330
47
100
AcDbScale
 70
     0
300
3/8" = 1'-0"
140
0.375
141
12.0
290
     0
  0
SCALE
  5
62
102
{ACAD_REACTORS
330
47
102
}
330
47
100
AcDbScale
 70
     0
300
1/2" = 1'-0"
140
0.5
141
12.0
290
     0
  0
SCALE
  5
63
102
{ACAD_REACTORS
330
47
102
}
330
47
100
AcDbScale
 70
     0
300
3/4" = 1'-0"
140
0.75
141
12.0
290
     0
  0
SCALE
  5
64
102
{ACAD_REACTORS
330
47
102
}
330
47
100
AcDbScale
 70
     0
300
1" = 1'-0"
140
1.0
141
12.0
290
     0
  0
SCALE
  5
65
102
{ACAD_REACTORS
330
47
102
}
330
47
100
AcDbScale
 70
     0
300
1-1/2" = 1'-0"
140
1.5
141
12.0
290
     0
  0
SCALE
  5
66
102
{ACAD_REACTORS
330
47
102
}
330
47
100
AcDbScale
 70
     0
300
3" = 1'-0"
140
3.0
141
12.0
290
     0
  0
SCALE
  5
67
102
{ACAD_REACTORS
330
47
102
}
330
47
100
AcDbScale
 70
     0
300
6" = 1'-0"
140
6.0
141
12.0
290
     0
  0
SCALE
  5
68
102
{ACAD_REACTORS
330
47
102
}
330
47
100
AcDbScale
 70
     0
300
1'-0" = 1'-0"
140
12.0
141
12.0
290
     0
  0
TABLESTYLE
  5
6A
102
{ACAD_REACTORS
330
69
102
}
102
{ACAD_XDICTIONARY
360
33F
102
}
330
69
100
AcDbTableStyle
  3
Standard
 70
     0
 71
     0
 40
0.06
 41
0.06
280
     0
281
     0
  7
Standard
140
4.5
170
     2
 62
     0
 63
   257
283
     0
274
    -2
284
     1
 64
     0
275
    -2
285
     1
 65
     0
276
    -2
286
     1
 66
     0
277
    -2
287
     1
 67
     0
278
    -2
288
     1
 68
     0
279
    -2
289
     1
 69
     0
  7
Standard
140
6.0
170
     5
 62
     0
 63
   257
283
     0
274
    -2
284
     1
 64
     0
275
    -2
285
     1
 65
     0
276
    -2
286
     1
 66
     0
277
    -2
287
     1
 67
     0
278
    -2
288
     1
 68
     0
279
    -2
289
     1
 69
     0
  7
Standard
140
4.5
170
     5
 62
     0
 63
   257
283
     0
274
    -2
284
     1
 64
     0
275
    -2
285
     1
 65
     0
276
    -2
286
     1
 66
     0
277
    -2
287
     1
 67
     0
278
    -2
288
     1
 68
     0
279
    -2
289
     1
 69
     0
  0
VISUALSTYLE
  5
2F
102
{ACAD_REACTORS
330
2A
102
}
102
{ACAD_XDICTIONARY
360
311
102
}
330
2A
100
AcDbVisualStyle
  2
2dWireframe
 70
     4
 71
     0
 72
     2
 73
     0
 90
        0
 40
0.6
 41
30.0
 62
     5
 63
     7
421
 16777215
 74
     1
 91
        4
 64
     7
 65
   257
 75
     1
175
     1
 42
1.0
 92
        0
 66
   257
 43
1.0
 76
     1
 77
     6
 78
     2
 67
     7
 79
     5
170
     0
171
     0
290
     0
174
     0
 93
        1
 44
0.0
173
     0
291
     0
 45
0.0
1001
ACAD
1000
AcDbSavedByObjectVersion
1070
     0
  0
VISUALSTYLE
  5
32
102
{ACAD_REACTORS
330
2A
102
}
102
{ACAD_XDICTIONARY
360
317
102
}
330
2A
100
AcDbVisualStyle
  2
Basic
 70
     7
 71
     1
 72
     0
 73
     1
 90
        0
 40
0.6
 41
30.0
 62
     5
 63
     7
421
 16777215
 74
     0
 91
        4
 64
     7
 65
   257
 75
     1
175
     1
 42
1.0
 92
        8
 66
     7
 43
1.0
 76
     1
 77
     6
 78
     2
 67
     7
 79
     5
170
     0
171
     0
290
     0
174
     0
 93
        1
 44
0.0
173
     0
291
     1
 45
0.0
1001
ACAD
1000
AcDbSavedByObjectVersion
1070
     0
  0
VISUALSTYLE
  5
36
102
{ACAD_REACTORS
330
2A
102
}
102
{ACAD_XDICTIONARY
360
31F
102
}
330
2A
100
AcDbVisualStyle
  2
Brighten
 70
    12
 71
     2
 72
     2
 73
     0
 90
        0
 40
0.6
 41
30.0
 62
     5
 63
     7
421
 16777215
 74
     1
 91
        4
 64
     7
 65
   257
 75
     1
175
     1
 42
1.0
 92
        8
 66
     7
 43
1.0
 76
     1
 77
     6
 78
     2
 67
     7
 79
     5
170
     0
171
     0
290
     0
174
     0
 93
        1
 44
50.0
173
     0
291
     1
 45
0.0
1001
ACAD
1000
AcDbSavedByObjectVersion
1070
     0
  0
VISUALSTYLE
  5
3A
102
{ACAD_REACTORS
330
2A
102
}
102
{ACAD_XDICTIONARY
360
327
102
}
330
2A
100
AcDbVisualStyle
  2
ColorChange
 70
    16
 71
     2
 72
     2
 73
     3
 90
        0
 40
0.6
 41
30.0
 62
     5
 63
     8
421
  8421504
 74
     1
 91
        4
 64
     7
 65
   257
 75
     1
175
     1
 42
1.0
 92
        8
 66
     8
424
  8421504
 43
1.0
 76
     1
 77
     6
 78
     2
 67
     7
 79
     5
170
     0
171
     0
290
     0
174
     0
 93
        1
 44
0.0
173
     0
291
     1
 45
0.0
1001
ACAD
1000
AcDbSavedByObjectVersion
1070
     0
  0
VISUALSTYLE
  5
34
102
{ACAD_REACTORS
330
2A
102
}
102
{ACAD_XDICTIONARY
360
31B
102
}
330
2A
100
AcDbVisualStyle
  2
Conceptual
 70
     9
 71
     3
 72
     2
 73
     0
 90
        0
 40
0.6
 41
30.0
 62
     5
 63
     7
421
 16777215
 74
     2
 91
        2
 64
     7
 65
   257
 75
     1
175
     1
 42
179.0
 92
        8
 66
     7
 43
1.0
 76
     1
 77
     6
 78
     2
 67
     7
 79
     3
170
     0
171
     0
290
     0
174
     0
 93
        1
 44
0.0
173
     0
291
     0
 45
0.0
1001
ACAD
1000
AcDbSavedByObjectVersion
1070
     0
  0
VISUALSTYLE
  5
35
102
{ACAD_REACTORS
330
2A
102
}
102
{ACAD_XDICTIONARY
360
31D
102
}
330
2A
100
AcDbVisualStyle
  2
Dim
 70
    11
 71
     2
 72
     2
 73
     0
 90
        0
 40
0.6
 41
30.0
 62
     5
 63
     7
421
 16777215
 74
     1
 91
        4
 64
     7
 65
   257
 75
     1
175
     1
 42
1.0
 92
        8
 66
     7
 43
1.0
 76
     1
 77
     6
 78
     2
 67
     7
 79
     5
170
     0
171
     0
290
     0
174
     0
 93
        1
 44
-50.0
173
     0
291
     1
 45
0.0
1001
ACAD
1000
AcDbSavedByObjectVersion
1070
     0
  0
VISUALSTYLE
  5
3D
102
{ACAD_REACTORS
330
2A
102
}
102
{ACAD_XDICTIONARY
360
32D
102
}
330
2A
100
AcDbVisualStyle
  2
EdgeColorOff
 70
    22
 71
     2
 72
     2
 73
     0
 90
        0
 40
0.6
 41
30.0
 62
     5
 63
     7
421
 16777215
 74
     1
 91
        4
 64
     7
 65
   257
 75
     1
175
     1
 42
1.0
 92
        8
 66
     7
 43
1.0
 76
     1
 77
     6
 78
     2
 67
     7
 79
     5
170
     0
171
     0
290
     0
174
     0
 93
        1
 44
0.0
173
     0
291
     1
 45
0.0
1001
ACAD
1000
AcDbSavedByObjectVersion
1070
     0
  0
VISUALSTYLE
  5
39
102
{ACAD_REACTORS
330
2A
102
}
102
{ACAD_XDICTIONARY
360
325
102
}
330
2A
100
AcDbVisualStyle
  2
Facepattern
 70
    15
 71
     2
 72
     2
 73
     0
 90
        0
 40
0.6
 41
30.0
 62
     5
 63
     7
421
 16777215
 74
     1
 91
        4
 64
     7
 65
   257
 75
     1
175
     1
 42
1.0
 92
        8
 66
     7
 43
1.0
 76
     1
 77
     6
 78
     2
 67
     7
 79
     5
170
     0
171
     0
290
     0
174
     0
 93
        1
 44
0.0
173
     0
291
     1
 45
0.0
1001
ACAD
1000
AcDbSavedByObjectVersion
1070
     0
  0
VISUALSTYLE
  5
2B
102
{ACAD_REACTORS
330
2A
102
}
102
{ACAD_XDICTIONARY
360
309
102
}
330
2A
100
AcDbVisualStyle
  2
Flat
 70
     0
 71
     2
 72
     1
 73
     1
 90
        2
 40
0.6
 41
30.0
 62
     5
 63
     7
421
 16777215
 74
     0
 91
        0
 64
     7
 65
   257
 75
     1
175
     1
 42
1.0
 92
        8
 66
     7
 43
1.0
 76
     1
 77
     6
 78
     2
 67
     7
 79
     5
170
     0
171
     0
290
     0
174
     0
 93
       13
 44
0.0
173
     0
291
     1
 45
0.0
1001
ACAD
1000
AcDbSavedByObjectVersion
1070
     0
  0
VISUALSTYLE
  5
2C
102
{ACAD_REACTORS
330
2A
102
}
102
{ACAD_XDICTIONARY
360
30B
102
}
330
2A
100
AcDbVisualStyle
  2
FlatWithEdges
 70
     1
 71
     2
 72
     1
 73
     1
 90
        2
 40
0.6
 41
30.0
 62
     5
 63
     7
421
 16777215
 74
     1
 91
        0
 64
     7
 65
   257
 75
     1
175
     1
 42
1.0
 92
        0
 66
   257
 43
1.0
 76
     1
 77
     6
 78
     2
 67
     7
 79
     5
170
     0
171
     0
290
     0
174
     0
 93
       13
 44
0.0
173
     0
291
     1
 45
0.0
1001
ACAD
1000
AcDbSavedByObjectVersion
1070
     0
  0
VISUALSTYLE
  5
2D
102
{ACAD_REACTORS
330
2A
102
}
102
{ACAD_XDICTIONARY
360
30D
102
}
330
2A
100
AcDbVisualStyle
  2
Gouraud
 70
     2
 71
     2
 72
     2
 73
     1
 90
        2
 40
0.6
 41
30.0
 62
     5
 63
     7
421
 16777215
 74
     0
 91
        0
 64
     7
 65
   257
 75
     1
175
     1
 42
1.0
 92
        0
 66
     7
 43
1.0
 76
     1
 77
     6
 78
     2
 67
     7
 79
     5
170
     0
171
     0
290
     0
174
     0
 93
       13
 44
0.0
173
     0
291
     1
 45
0.0
1001
ACAD
1000
AcDbSavedByObjectVersion
1070
     0
  0
VISUALSTYLE
  5
2E
102
{ACAD_REACTORS
330
2A
102
}
102
{ACAD_XDICTIONARY
360
30F
102
}
330
2A
100
AcDbVisualStyle
  2
GouraudWithEdges
 70
     3
 71
     2
 72
     2
 73
     1
 90
        2
 40
0.6
 41
30.0
 62
     5
 63
     7
421
 16777215
 74
     1
 91
        0
 64
     7
 65
   257
 75
     1
175
     1
 42
1.0
 92
        0
 66
   257
 43
1.0
 76
     1
 77
     6
 78
     2
 67
     7
 79
     5
170
     0
171
     0
290
     0
174
     0
 93
       13
 44
0.0
173
     0
291
     1
 45
0.0
1001
ACAD
1000
AcDbSavedByObjectVersion
1070
     0
  0
VISUALSTYLE
  5
31
102
{ACAD_REACTORS
330
2A
102
}
102
{ACAD_XDICTIONARY
360
315
102
}
330
2A
100
AcDbVisualStyle
  2
Hidden
 70
     6
 71
     1
 72
     2
 73
     2
 90
        0
 40
0.6
 41
30.0
 62
     5
 63
     7
421
 16777215
 74
     2
 91
        2
 64
     7
 65
   257
 75
     2
175
     1
 42
40.0
 92
        0
 66
   257
 43
1.0
 76
     1
 77
     6
 78
     2
 67
     7
 79
     3
170
     0
171
     0
290
     0
174
     0
 93
        1
 44
0.0
173
     0
291
     0
 45
0.0
1001
ACAD
1000
AcDbSavedByObjectVersion
1070
     0
  0
VISUALSTYLE
  5
3B
102
{ACAD_REACTORS
330
2A
102
}
102
{ACAD_XDICTIONARY
360
329
102
}
330
2A
100
AcDbVisualStyle
  2
JitterOff
 70
    20
 71
     2
 72
     2
 73
     0
 90
        0
 40
0.6
 41
30.0
 62
     5
 63
     7
421
 16777215
 74
     1
 91
        4
 64
     7
 65
   257
 75
     1
175
     1
 42
1.0
 92
       10
 66
     7
 43
1.0
 76
     1
 77
     6
 78
     2
 67
     7
 79
     5
170
     0
171
     0
290
     0
174
     0
 93
        1
 44
0.0
173
     0
291
     1
 45
0.0
1001
ACAD
1000
AcDbSavedByObjectVersion
1070
     0
  0
VISUALSTYLE
  5
38
102
{ACAD_REACTORS
330
2A
102
}
102
{ACAD_XDICTIONARY
360
323
102
}
330
2A
100
AcDbVisualStyle
  2
Linepattern
 70
    14
 71
     2
 72
     2
 73
     0
 90
        0
 40
0.6
 41
30.0
 62
     5
 63
     7
421
 16777215
 74
     1
 91
        4
 64
     7
 65
   257
 75
     7
175
     7
 42
1.0
 92
        8
 66
     7
 43
1.0
 76
     1
 77
     6
 78
     2
 67
     7
 79
     5
170
     0
171
     0
290
     0
174
     0
 93
        1
 44
0.0
173
     0
291
     1
 45
0.0
1001
ACAD
1000
AcDbSavedByObjectVersion
1070
     0
  0
VISUALSTYLE
  5
3C
102
{ACAD_REACTORS
330
2A
102
}
102
{ACAD_XDICTIONARY
360
32B
102
}
330
2A
100
AcDbVisualStyle
  2
OverhangOff
 70
    21
 71
     2
 72
     2
 73
     0
 90
        0
 40
0.6
 41
30.0
 62
     5
 63
     7
421
 16777215
 74
     1
 91
        4
 64
     7
 65
   257
 75
     1
175
     1
 42
1.0
 92
        9
 66
     7
 43
1.0
 76
     1
 77
     6
 78
     2
 67
     7
 79
     5
170
     0
171
     0
290
     0
174
     0
 93
        1
 44
0.0
173
     0
291
     1
 45
0.0
1001
ACAD
1000
AcDbSavedByObjectVersion
1070
     0
  0
VISUALSTYLE
  5
33
102
{ACAD_REACTORS
330
2A
102
}
102
{ACAD_XDICTIONARY
360
319
102
}
330
2A
100
AcDbVisualStyle
  2
Realistic
 70
     8
 71
     2
 72
     3
 73
     0
 90
        2
 40
0.6
 41
30.0
 62
     5
 63
     7
421
 16777215
 74
     0
 91
        0
 64
     7
 65
   257
 75
     1
175
     1
 42
1.0
 92
        8
 66
   257
 43
1.0
 76
     1
 77
     6
 78
     2
 67
     7
 79
     3
170
     0
171
     0
290
     0
174
     0
 93
       13
 44
0.0
173
     0
291
     0
 45
0.0
1001
ACAD
1000
AcDbSavedByObjectVersion
1070
     0
  0
VISUALSTYLE
  5
42
102
{ACAD_REACTORS
330
2A
102
}
102
{ACAD_XDICTIONARY
360
337
102
}
330
2A
100
AcDbVisualStyle
  2
Shaded
 70
    27
 71
     2
 72
     2
 73
     1
 90
        2
 40
0.6
 41
30.0
 62
     5
 63
     7
421
 16777215
 74
     0
 91
        4
 64
     7
 65
   257
 75
     1
175
     1
 42
1.0
 92
        8
 66
   257
 43
1.0
 76
     1
 77
     6
 78
     2
 67
     8
425
  7895160
 79
     3
170
     0
171
     0
290
     0
174
     0
 93
        5
 44
0.0
173
     0
291
     0
 45
0.0
1001
ACAD
1000
AcDbSavedByObjectVersion
1070
     0
  0
VISUALSTYLE
  5
41
102
{ACAD_REACTORS
330
2A
102
}
102
{ACAD_XDICTIONARY
360
335
102
}
330
2A
100
AcDbVisualStyle
  2
Shaded with edges
 70
    26
 71
     2
 72
     2
 73
     1
 90
        2
 40
0.6
 41
30.0
 62
     5
 63
     7
421
 16777215
 74
     1
 91
       10
 64
     7
 65
   257
 75
     2
175
     1
 42
1.0
 92
        8
 66
   257
 43
1.0
 76
     1
 77
     6
 78
     2
 67
     7
 79
     3
170
     0
171
     0
290
     0
174
     0
 93
        5
 44
0.0
173
     0
291
     0
 45
0.0
1001
ACAD
1000
AcDbSavedByObjectVersion
1070
     0
  0
VISUALSTYLE
  5
3E
102
{ACAD_REACTORS
330
2A
102
}
102
{ACAD_XDICTIONARY
360
32F
102
}
330
2A
100
AcDbVisualStyle
  2
Shades of Gray
 70
    23
 71
     2
 72
     2
 73
     3
 90
        0
 40
0.6
 41
30.0
 62
     5
 63
     7
421
 16777215
 74
     2
 91
        2
 64
     7
 65
     7
 75
     1
175
     1
 42
40.0
 92
        8
 66
     7
 43
1.0
 76
     1
 77
     6
 78
     2
 67
     7
 79
     3
170
     0
171
     0
290
     0
174
     0
 93
        1
 44
0.0
173
     0
291
     0
 45
0.0
1001
ACAD
1000
AcDbSavedByObjectVersion
1070
     0
  0
VISUALSTYLE
  5
3F
102
{ACAD_REACTORS
330
2A
102
}
102
{ACAD_XDICTIONARY
360
331
102
}
330
2A
100
AcDbVisualStyle
  2
Sketchy
 70
    24
 71
     1
 72
     2
 73
     2
 90
        0
 40
0.6
 41
30.0
 62
     5
 63
     7
421
 16777215
 74
     2
 91
        2
 64
     7
 65
     7
 75
     1
175
     1
 42
40.0
 92
       11
 66
     7
 43
1.0
 76
     1
 77
     6
 78
     2
 67
     7
 79
     6
170
     0
171
     0
290
     0
174
     0
 93
        1
 44
0.0
173
     0
291
     0
 45
0.0
1001
ACAD
1000
AcDbSavedByObjectVersion
1070
     0
  0
VISUALSTYLE
  5
37
102
{ACAD_REACTORS
330
2A
102
}
102
{ACAD_XDICTIONARY
360
321
102
}
330
2A
100
AcDbVisualStyle
  2
Thicken
 70
    13
 71
     2
 72
     2
 73
     0
 90
        0
 40
0.6
 41
30.0
 62
     5
 63
     7
421
 16777215
 74
     1
 91
        4
 64
     7
 65
   257
 75
     1
175
     1
 42
1.0
 92
       12
 66
     7
 43
1.0
 76
     1
 77
     6
 78
     2
 67
     7
 79
     5
170
     0
171
     0
290
     0
174
     0
 93
        1
 44
0.0
173
     0
291
     1
 45
0.0
1001
ACAD
1000
AcDbSavedByObjectVersion
1070
     0
  0
VISUALSTYLE
  5
30
102
{ACAD_REACTORS
330
2A
102
}
102
{ACAD_XDICTIONARY
360
313
102
}
330
2A
100
AcDbVisualStyle
  2
Wireframe
 70
     5
 71
     0
 72
     2
 73
     0
 90
        0
 40
0.6
 41
30.0
 62
     5
 63
     7
421
 16777215
 74
     1
 91
        4
 64
     7
 65
   257
 75
     1
175
     1
 42
1.0
 92
        0
 66
   257
 43
1.0
 76
     1
 77
     6
 78
     2
 67
     7
 79
     3
170
     0
171
     0
290
     0
174
     0
 93
        1
 44
0.0
173
     0
291
     0
 45
0.0
1001
ACAD
1000
AcDbSavedByObjectVersion
1070
     0
  0
VISUALSTYLE
  5
40
102
{ACAD_REACTORS
330
2A
102
}
102
{ACAD_XDICTIONARY
360
333
102
}
330
2A
100
AcDbVisualStyle
  2
X-Ray
 70
    25
 71
     2
 72
     2
 73
     1
 90
        1
 40
0.5
 41
30.0
 62
     5
 63
     7
421
 16777215
 74
     1
 91
        0
 64
     7
 65
   257
 75
     1
175
     1
 42
1.0
 92
        8
 66
     7
 43
1.0
 76
     1
 77
     6
 78
     2
 67
     7
 79
     3
170
     0
171
     0
290
     0
174
     0
 93
       13
 44
0.0
173
     0
291
     0
 45
0.0
1001
ACAD
1000
AcDbSavedByObjectVersion
1070
     0
  0
DICTIONARYVAR
  5
306
102
{ACAD_REACTORS
330
305
102
}
330
305
100
DictionaryVariables
280
     0
  1
1:1
  0
DICTIONARYVAR
  5
34A
102
{ACAD_REACTORS
330
305
102
}
330
305
100
DictionaryVariables
280
     0
  1
3.500000
  0
DICTIONARYVAR
  5
34B
102
{ACAD_REACTORS
330
305
102
}
330
305
100
DictionaryVariables
280
     0
  1
acadiso.lin
  0
DICTIONARYVAR
  5
347
102
{ACAD_REACTORS
330
305
102
}
330
305
100
DictionaryVariables
280
     0
  1
Standard
  0
DICTIONARYVAR
  5
346
102
{ACAD_REACTORS
330
305
102
}
330
305
100
DictionaryVariables
280
     0
  1
Standard
  0
DICTIONARYVAR
  5
307
102
{ACAD_REACTORS
330
305
102
}
330
305
100
DictionaryVariables
280
     0
  1
1
  0
DICTIONARYVAR
  5
308
102
{ACAD_REACTORS
330
305
102
}
330
305
100
DictionaryVariables
280
     0
  1
2
  0
DICTIONARY
  5
33B
330
45
100
AcDbDictionary
280
     1
281
     1
  3
ACAD_XREC_ROUNDTRIP
360
33C
  0
DICTIONARY
  5
339
330
44
100
AcDbDictionary
280
     1
281
     1
  3
ACAD_XREC_ROUNDTRIP
360
33A
  0
DICTIONARY
  5
33D
330
46
100
AcDbDictionary
280
     1
281
     1
  3
ACAD_XREC_ROUNDTRIP
360
33E
  0
DICTIONARY
  5
343
330
6C
100
AcDbDictionary
280
     1
281
     1
  3
ACAD_XREC_ROUNDTRIP
360
344
  0
DICTIONARY
  5
33F
330
6A
100
AcDbDictionary
280
     1
281
     1
  3
ACAD_ROUNDTRIP_2008_TABLESTYLE_CELLSTYLEMAP
360
341
  3
ACAD_XREC_ROUNDTRIP
360
340
  0
DICTIONARY
  5
311
330
2F
100
AcDbDictionary
280
     1
281
     1
  3
ACAD_XREC_ROUNDTRIP
360
312
  0
DICTIONARY
  5
317
330
32
100
AcDbDictionary
280
     1
281
     1
  3
ACAD_XREC_ROUNDTRIP
360
318
  0
DICTIONARY
  5
31F
330
36
100
AcDbDictionary
280
     1
281
     1
  3
ACAD_XREC_ROUNDTRIP
360
320
  0
DICTIONARY
  5
327
330
3A
100
AcDbDictionary
280
     1
281
     1
  3
ACAD_XREC_ROUNDTRIP
360
328
  0
DICTIONARY
  5
31B
330
34
100
AcDbDictionary
280
     1
281
     1
  3
ACAD_XREC_ROUNDTRIP
360
31C
  0
DICTIONARY
  5
31D
330
35
100
AcDbDictionary
280
     1
281
     1
  3
ACAD_XREC_ROUNDTRIP
360
31E
  0
DICTIONARY
  5
32D
330
3D
100
AcDbDictionary
280
     1
281
     1
  3
ACAD_XREC_ROUNDTRIP
360
32E
  0
DICTIONARY
  5
325
330
39
100
AcDbDictionary
280
     1
281
     1
  3
ACAD_XREC_ROUNDTRIP
360
326
  0
DICTIONARY
  5
309
330
2B
100
AcDbDictionary
280
     1
281
     1
  3
ACAD_XREC_ROUNDTRIP
360
30A
  0
DICTIONARY
  5
30B
330
2C
100
AcDbDictionary
280
     1
281
     1
  3
ACAD_XREC_ROUNDTRIP
360
30C
  0
DICTIONARY
  5
30D
330
2D
100
AcDbDictionary
280
     1
281
     1
  3
ACAD_XREC_ROUNDTRIP
360
30E
  0
DICTIONARY
  5
30F
330
2E
100
AcDbDictionary
280
     1
281
     1
  3
ACAD_XREC_ROUNDTRIP
360
310
  0
DICTIONARY
  5
315
330
31
100
AcDbDictionary
280
     1
281
     1
  3
ACAD_XREC_ROUNDTRIP
360
316
  0
DICTIONARY
  5
329
330
3B
100
AcDbDictionary
280
     1
281
     1
  3
ACAD_XREC_ROUNDTRIP
360
32A
  0
DICTIONARY
  5
323
330
38
100
AcDbDictionary
280
     1
281
     1
  3
ACAD_XREC_ROUNDTRIP
360
324
  0
DICTIONARY
  5
32B
330
3C
100
AcDbDictionary
280
     1
281
     1
  3
ACAD_XREC_ROUNDTRIP
360
32C
  0
DICTIONARY
  5
319
330
33
100
AcDbDictionary
280
     1
281
     1
  3
ACAD_XREC_ROUNDTRIP
360
31A
  0
DICTIONARY
  5
337
330
42
100
AcDbDictionary
280
     1
281
     1
  3
ACAD_XREC_ROUNDTRIP
360
338
  0
DICTIONARY
  5
335
330
41
100
AcDbDictionary
280
     1
281
     1
  3
ACAD_XREC_ROUNDTRIP
360
336
  0
DICTIONARY
  5
32F
330
3E
100
AcDbDictionary
280
     1
281
     1
  3
ACAD_XREC_ROUNDTRIP
360
330
  0
DICTIONARY
  5
331
330
3F
100
AcDbDictionary
280
     1
281
     1
  3
ACAD_XREC_ROUNDTRIP
360
332
  0
DICTIONARY
  5
321
330
37
100
AcDbDictionary
280
     1
281
     1
  3
ACAD_XREC_ROUNDTRIP
360
322
  0
DICTIONARY
  5
313
330
30
100
AcDbDictionary
280
     1
281
     1
  3
ACAD_XREC_ROUNDTRIP
360
314
  0
DICTIONARY
  5
333
330
40
100
AcDbDictionary
280
     1
281
     1
  3
ACAD_XREC_ROUNDTRIP
360
334
  0
XRECORD
  5
33C
102
{ACAD_REACTORS
330
33B
102
}
330
33B
100
AcDbXrecord
280
     1
102
MATERIAL
148
0.0
149
0.0
149
0.0
 93
        0
 94
      127
282
     0
 72
     1
 77
     1
171
     1
175
     1
179
     1
273
     0
  0
XRECORD
  5
33A
102
{ACAD_REACTORS
330
339
102
}
330
339
100
AcDbXrecord
280
     1
102
MATERIAL
148
0.0
149
0.0
149
0.0
 93
        0
 94
      127
282
     0
 72
     1
 77
     1
171
     1
175
     1
179
     1
273
     0
  0
XRECORD
  5
33E
102
{ACAD_REACTORS
330
33D
102
}
330
33D
100
AcDbXrecord
280
     1
102
MATERIAL
148
0.0
149
0.0
149
0.0
 93
        0
 94
      127
282
     0
 72
     1
 77
     1
171
     1
175
     1
179
     1
273
     0
  0
XRECORD
  5
344
102
{ACAD_REACTORS
330
343
102
}
330
343
100
AcDbXrecord
280
     1
102
ACAD_ROUNDTRIP_2010_MLEADER_STYLE
  0
CELLSTYLEMAP
  5
341
102
{ACAD_REACTORS
330
33F
102
}
330
33F
100
AcDbCellStyleMap
 90
        3
300
CELLSTYLE
  1
TABLEFORMAT_BEGIN
 90
        5
170
     1
 91
        0
 92
    32768
 62
   257
 93
        1
300
CONTENTFORMAT
  1
CONTENTFORMAT_BEGIN
 90
        0
 91
        0
 92
        4
 93
        0
300

 40
0.0
140
1.0
 94
        5
 62
     0
340
11
144
6.0
309
CONTENTFORMAT_END
171
     1
301
MARGIN
  1
CELLMARGIN_BEGIN
 40
1.5
 40
1.5
 40
1.5
 40
1.5
 40
1.5
 40
1.5
309
CELLMARGIN_END
 94
        6
 95
        1
302
GRIDFORMAT
  1
GRIDFORMAT_BEGIN
 90
        0
 91
        1
 62
     0
 92
       -2
340
14
 93
        0
 40
0.045
309
GRIDFORMAT_END
 95
        2
302
GRIDFORMAT
  1
GRIDFORMAT_BEGIN
 90
        0
 91
        1
 62
     0
 92
       -2
340
14
 93
        0
 40
0.045
309
GRIDFORMAT_END
 95
        4
302
GRIDFORMAT
  1
GRIDFORMAT_BEGIN
 90
        0
 91
        1
 62
     0
 92
       -2
340
14
 93
        0
 40
0.045
309
GRIDFORMAT_END
 95
        8
302
GRIDFORMAT
  1
GRIDFORMAT_BEGIN
 90
        0
 91
        1
 62
     0
 92
       -2
340
14
 93
        0
 40
0.045
309
GRIDFORMAT_END
 95
       16
302
GRIDFORMAT
  1
GRIDFORMAT_BEGIN
 90
        0
 91
        1
 62
     0
 92
       -2
340
14
 93
        0
 40
0.045
309
GRIDFORMAT_END
 95
       32
302
GRIDFORMAT
  1
GRIDFORMAT_BEGIN
 90
        0
 91
        1
 62
     0
 92
       -2
340
14
 93
        0
 40
0.045
309
GRIDFORMAT_END
309
TABLEFORMAT_END
  1
CELLSTYLE_BEGIN
 90
        1
 91
        1
300
_TITLE
309
CELLSTYLE_END
300
CELLSTYLE
  1
TABLEFORMAT_BEGIN
 90
        5
170
     1
 91
        0
 92
        0
 62
   257
 93
        1
300
CONTENTFORMAT
  1
CONTENTFORMAT_BEGIN
 90
        0
 91
        0
 92
        4
 93
        0
300

 40
0.0
140
1.0
 94
        5
 62
     0
340
11
144
4.5
309
CONTENTFORMAT_END
171
     1
301
MARGIN
  1
CELLMARGIN_BEGIN
 40
1.5
 40
1.5
 40
1.5
 40
1.5
 40
1.5
 40
1.5
309
CELLMARGIN_END
 94
        6
 95
        1
302
GRIDFORMAT
  1
GRIDFORMAT_BEGIN
 90
        0
 91
        1
 62
     0
 92
       -2
340
14
 93
        0
 40
0.045
309
GRIDFORMAT_END
 95
        2
302
GRIDFORMAT
  1
GRIDFORMAT_BEGIN
 90
        0
 91
        1
 62
     0
 92
       -2
340
14
 93
        0
 40
0.045
309
GRIDFORMAT_END
 95
        4
302
GRIDFORMAT
  1
GRIDFORMAT_BEGIN
 90
        0
 91
        1
 62
     0
 92
       -2
340
14
 93
        0
 40
0.045
309
GRIDFORMAT_END
 95
        8
302
GRIDFORMAT
  1
GRIDFORMAT_BEGIN
 90
        0
 91
        1
 62
     0
 92
       -2
340
14
 93
        0
 40
0.045
309
GRIDFORMAT_END
 95
       16
302
GRIDFORMAT
  1
GRIDFORMAT_BEGIN
 90
        0
 91
        1
 62
     0
 92
       -2
340
14
 93
        0
 40
0.045
309
GRIDFORMAT_END
 95
       32
302
GRIDFORMAT
  1
GRIDFORMAT_BEGIN
 90
        0
 91
        1
 62
     0
 92
       -2
340
14
 93
        0
 40
0.045
309
GRIDFORMAT_END
309
TABLEFORMAT_END
  1
CELLSTYLE_BEGIN
 90
        2
 91
        1
300
_HEADER
309
CELLSTYLE_END
300
CELLSTYLE
  1
TABLEFORMAT_BEGIN
 90
        5
170
     1
 91
        0
 92
        0
 62
   257
 93
        1
300
CONTENTFORMAT
  1
CONTENTFORMAT_BEGIN
 90
        0
 91
        0
 92
        4
 93
        0
300

 40
0.0
140
1.0
 94
        2
 62
     0
340
11
144
4.5
309
CONTENTFORMAT_END
171
     1
301
MARGIN
  1
CELLMARGIN_BEGIN
 40
1.5
 40
1.5
 40
1.5
 40
1.5
 40
1.5
 40
1.5
309
CELLMARGIN_END
 94
        6
 95
        1
302
GRIDFORMAT
  1
GRIDFORMAT_BEGIN
 90
        0
 91
        1
 62
     0
 92
       -2
340
14
 93
        0
 40
0.045
309
GRIDFORMAT_END
 95
        2
302
GRIDFORMAT
  1
GRIDFORMAT_BEGIN
 90
        0
 91
        1
 62
     0
 92
       -2
340
14
 93
        0
 40
0.045
309
GRIDFORMAT_END
 95
        4
302
GRIDFORMAT
  1
GRIDFORMAT_BEGIN
 90
        0
 91
        1
 62
     0
 92
       -2
340
14
 93
        0
 40
0.045
309
GRIDFORMAT_END
 95
        8
302
GRIDFORMAT
  1
GRIDFORMAT_BEGIN
 90
        0
 91
        1
 62
     0
 92
       -2
340
14
 93
        0
 40
0.045
309
GRIDFORMAT_END
 95
       16
302
GRIDFORMAT
  1
GRIDFORMAT_BEGIN
 90
        0
 91
        1
 62
     0
 92
       -2
340
14
 93
        0
 40
0.045
309
GRIDFORMAT_END
 95
       32
302
GRIDFORMAT
  1
GRIDFORMAT_BEGIN
 90
        0
 91
        1
 62
     0
 92
       -2
340
14
 93
        0
 40
0.045
309
GRIDFORMAT_END
309
TABLEFORMAT_END
  1
CELLSTYLE_BEGIN
 90
        3
 91
        2
300
_DATA
309
CELLSTYLE_END
  0
XRECORD
  5
340
102
{ACAD_REACTORS
330
33F
102
}
330
33F
100
AcDbXrecord
280
     1
102
ACAD_ROUNDTRIP_PRE2007_TABLESTYLE
 90
        4
 91
        0
  1

 92
        4
 93
        0
  2

 94
        4
 95
        0
  3

  0
XRECORD
  5
312
102
{ACAD_REACTORS
330
311
102
}
330
311
100
AcDbXrecord
280
     1
102
RTVSPropertyOp0
 70
     1
102
RTVSPropertyOp1
 70
     1
102
RTVSPropertyOp2
 70
     1
102
RTVSPropertyOp3
 70
     1
102
RTVSPropertyOp4
 70
     1
102
RTVSPropertyOp5
 70
     1
102
RTVSPropertyOp6
 70
     1
102
RTVSPropertyOp7
 70
     1
102
RTVSPropertyOp8
 70
     1
102
RTVSPropertyOp9
 70
     1
102
RTVSPropertyOp10
 70
     1
102
RTVSPropertyOp11
 70
     1
102
RTVSPropertyOp12
 70
     1
102
RTVSPropertyOp13
 70
     1
102
RTVSPropertyOp14
 70
     1
102
RTVSPropertyOp15
 70
     1
102
RTVSPropertyOp16
 70
     1
102
RTVSPropertyOp17
 70
     1
102
RTVSPropertyOp18
 70
     1
102
RTVSPropertyOp19
 70
     1
102
RTVSPropertyOp20
 70
     1
102
RTVSPropertyOp21
 70
     1
102
RTVSPropertyOp22
 70
     1
102
RTVSPropertyOp23
 70
     1
102
RTVSPropertyOp24
 70
     1
102
RTVSPropertyOp25
 70
     1
102
RTVSPropertyOp26
 70
     1
102
RTVSPropertyOp27
 70
     1
102
RTVSPropertyOp28
 70
     1
102
RTVSPropertyOp29
 70
     1
102
RTVSPropertyOp30
 70
     1
102
RTVSPropertyOp31
 70
     1
102
RTVSPropertyOp32
 70
     1
102
RTVSPropertyOp33
 70
     1
102
RTVSPropertyOp34
 70
     1
102
RTVSPropertyOp35
 70
     1
102
RTVSPropertyOp36
 70
     1
102
RTVSPropertyOp37
 70
     1
102
RTVSPropertyOp38
 70
     1
102
RTVSPropertyOp39
 70
     1
102
RTVSPropertyOp40
 70
     1
102
RTVSPropertyOp41
 70
     1
102
RTVSPropertyOp42
 70
     1
102
RTVSPropertyOp43
 70
     1
102
RTVSPropertyOp44
 70
     1
102
RTVSPropertyOp45
 70
     1
102
RTVSPropertyOp46
 70
     1
102
RTVSPropertyOp47
 70
     1
102
RTVSPropertyOp48
 70
     1
102
RTVSPropertyOp49
 70
     1
102
RTVSPropertyOp50
 70
     1
102
RTVSPropertyOp51
 70
     0
102
RTVSPropertyOp52
 70
     0
102
RTVSPropertyOp53
 70
     1
102
RTVSPropertyOp54
 70
     1
102
RTVSPropertyOp55
 70
     1
102
RTVSPropertyOp56
 70
     1
102
RTVSPropertyOp57
 70
     1
102
RTVSPost2010Prop28
280
     1
102
RTVSPost2010PropOp28
 70
     1
102
RTVSPost2010Prop29
280
     1
102
RTVSPost2010PropOp29
 70
     1
102
RTVSPost2010Prop30
280
     0
102
RTVSPost2010PropOp30
 70
     1
102
RTVSPost2010Prop31
280
     0
102
RTVSPost2010PropOp31
 70
     1
102
RTVSPost2010Prop32
280
     0
102
RTVSPost2010PropOp32
 70
     1
102
RTVSPost2010Prop33
280
     0
102
RTVSPost2010PropOp33
 70
     1
102
RTVSPost2010Prop34
280
     0
102
RTVSPost2010PropOp34
 70
     1
102
RTVSPost2010Prop35
280
     0
102
RTVSPost2010PropOp35
 70
     1
102
RTVSPost2010Prop36
280
     0
102
RTVSPost2010PropOp36
 70
     1
102
RTVSPost2010Prop37
 90
       50
102
RTVSPost2010PropOp37
 70
     1
102
RTVSPost2010Prop38
140
0.0
102
RTVSPost2010PropOp38
 70
     1
102
RTVSPost2010Prop39
140
1.0
102
RTVSPost2010PropOp39
 70
     1
102
RTVSPost2010Prop40
 90
        0
102
RTVSPost2010PropOp40
 70
     1
102
RTVSPost2010Prop41ColorIndex
 90
       18
102
RTVSPost2010Prop41ColorRGB
 90
        0
102
RTVSPost2010PropOp41
 70
     1
102
RTVSPost2010Prop42
 90
       50
102
RTVSPost2010PropOp42
 70
     1
102
RTVSPost2010Prop43
 90
        3
102
RTVSPost2010PropOp43
 70
     1
102
RTVSPost2010Prop44ColorIndex
 90
        5
102
RTVSPost2010Prop44ColorRGB
 90
      255
102
RTVSPost2010PropOp44
 70
     1
102
RTVSPost2010Prop45
280
     0
102
RTVSPost2010PropOp45
 70
     1
102
RTVSPost2010Prop46
 90
       50
102
RTVSPost2010PropOp46
 70
     1
102
RTVSPost2010Prop47
 90
       50
102
RTVSPost2010PropOp47
 70
     1
102
RTVSPost2010Prop48
 90
       50
102
RTVSPost2010PropOp48
 70
     1
102
RTVSPost2010Prop49
280
     0
102
RTVSPost2010PropOp49
 70
     1
102
RTVSPost2010Prop50
 90
       50
102
RTVSPost2010PropOp50
 70
     1
102
RTVSPost2010Prop51ColorIndex
 90
      256
102
RTVSPost2010Prop51ColorRGB
 90
-16777216
102
RTVSPost2010PropOp51
 70
     0
102
RTVSPost2010Prop52
140
1.0
102
RTVSPost2010PropOp52
 70
     0
102
RTVSPost2010Prop53
 90
        2
102
RTVSPost2010PropOp53
 70
     1
102
RTVSPost2010Prop54
  1
strokes_ogs.tif
102
RTVSPost2010PropOp54
 70
     1
102
RTVSPost2010Prop55
280
     0
102
RTVSPost2010PropOp55
 70
     1
102
RTVSPost2010Prop56
140
1.0
102
RTVSPost2010PropOp56
 70
     1
102
RTVSPost2010Prop57
140
1.0
102
RTVSPost2010PropOp57
 70
     1
  0
XRECORD
  5
318
102
{ACAD_REACTORS
330
317
102
}
330
317
100
AcDbXrecord
280
     1
102
RTVSPropertyOp0
 70
     1
102
RTVSPropertyOp1
 70
     1
102
RTVSPropertyOp2
 70
     1
102
RTVSPropertyOp3
 70
     1
102
RTVSPropertyOp4
 70
     1
102
RTVSPropertyOp5
 70
     1
102
RTVSPropertyOp6
 70
     1
102
RTVSPropertyOp7
 70
     1
102
RTVSPropertyOp8
 70
     1
102
RTVSPropertyOp9
 70
     1
102
RTVSPropertyOp10
 70
     1
102
RTVSPropertyOp11
 70
     1
102
RTVSPropertyOp12
 70
     1
102
RTVSPropertyOp13
 70
     1
102
RTVSPropertyOp14
 70
     1
102
RTVSPropertyOp15
 70
     1
102
RTVSPropertyOp16
 70
     1
102
RTVSPropertyOp17
 70
     1
102
RTVSPropertyOp18
 70
     1
102
RTVSPropertyOp19
 70
     1
102
RTVSPropertyOp20
 70
     1
102
RTVSPropertyOp21
 70
     1
102
RTVSPropertyOp22
 70
     1
102
RTVSPropertyOp23
 70
     1
102
RTVSPropertyOp24
 70
     1
102
RTVSPropertyOp25
 70
     1
102
RTVSPropertyOp26
 70
     1
102
RTVSPropertyOp27
 70
     1
102
RTVSPropertyOp28
 70
     1
102
RTVSPropertyOp29
 70
     1
102
RTVSPropertyOp30
 70
     1
102
RTVSPropertyOp31
 70
     1
102
RTVSPropertyOp32
 70
     1
102
RTVSPropertyOp33
 70
     1
102
RTVSPropertyOp34
 70
     1
102
RTVSPropertyOp35
 70
     1
102
RTVSPropertyOp36
 70
     1
102
RTVSPropertyOp37
 70
     1
102
RTVSPropertyOp38
 70
     1
102
RTVSPropertyOp39
 70
     1
102
RTVSPropertyOp40
 70
     1
102
RTVSPropertyOp41
 70
     1
102
RTVSPropertyOp42
 70
     1
102
RTVSPropertyOp43
 70
     1
102
RTVSPropertyOp44
 70
     1
102
RTVSPropertyOp45
 70
     1
102
RTVSPropertyOp46
 70
     1
102
RTVSPropertyOp47
 70
     1
102
RTVSPropertyOp48
 70
     1
102
RTVSPropertyOp49
 70
     1
102
RTVSPropertyOp50
 70
     1
102
RTVSPropertyOp51
 70
     0
102
RTVSPropertyOp52
 70
     0
102
RTVSPropertyOp53
 70
     1
102
RTVSPropertyOp54
 70
     1
102
RTVSPropertyOp55
 70
     1
102
RTVSPropertyOp56
 70
     1
102
RTVSPropertyOp57
 70
     1
102
RTVSPost2010Prop28
280
     0
102
RTVSPost2010PropOp28
 70
     1
102
RTVSPost2010Prop29
280
     1
102
RTVSPost2010PropOp29
 70
     1
102
RTVSPost2010Prop30
280
     1
102
RTVSPost2010PropOp30
 70
     1
102
RTVSPost2010Prop31
280
     0
102
RTVSPost2010PropOp31
 70
     1
102
RTVSPost2010Prop32
280
     0
102
RTVSPost2010PropOp32
 70
     1
102
RTVSPost2010Prop33
280
     0
102
RTVSPost2010PropOp33
 70
     1
102
RTVSPost2010Prop34
280
     0
102
RTVSPost2010PropOp34
 70
     1
102
RTVSPost2010Prop35
280
     0
102
RTVSPost2010PropOp35
 70
     1
102
RTVSPost2010Prop36
280
     0
102
RTVSPost2010PropOp36
 70
     1
102
RTVSPost2010Prop37
 90
       50
102
RTVSPost2010PropOp37
 70
     1
102
RTVSPost2010Prop38
140
0.0
102
RTVSPost2010PropOp38
 70
     1
102
RTVSPost2010Prop39
140
1.0
102
RTVSPost2010PropOp39
 70
     1
102
RTVSPost2010Prop40
 90
        0
102
RTVSPost2010PropOp40
 70
     1
102
RTVSPost2010Prop41ColorIndex
 90
       18
102
RTVSPost2010Prop41ColorRGB
 90
        0
102
RTVSPost2010PropOp41
 70
     1
102
RTVSPost2010Prop42
 90
       50
102
RTVSPost2010PropOp42
 70
     1
102
RTVSPost2010Prop43
 90
        3
102
RTVSPost2010PropOp43
 70
     1
102
RTVSPost2010Prop44ColorIndex
 90
        5
102
RTVSPost2010Prop44ColorRGB
 90
      255
102
RTVSPost2010PropOp44
 70
     1
102
RTVSPost2010Prop45
280
     0
102
RTVSPost2010PropOp45
 70
     1
102
RTVSPost2010Prop46
 90
       50
102
RTVSPost2010PropOp46
 70
     1
102
RTVSPost2010Prop47
 90
       50
102
RTVSPost2010PropOp47
 70
     1
102
RTVSPost2010Prop48
 90
       50
102
RTVSPost2010PropOp48
 70
     1
102
RTVSPost2010Prop49
280
     0
102
RTVSPost2010PropOp49
 70
     1
102
RTVSPost2010Prop50
 90
       50
102
RTVSPost2010PropOp50
 70
     1
102
RTVSPost2010Prop51ColorIndex
 90
      256
102
RTVSPost2010Prop51ColorRGB
 90
-16777216
102
RTVSPost2010PropOp51
 70
     0
102
RTVSPost2010Prop52
140
1.0
102
RTVSPost2010PropOp52
 70
     0
102
RTVSPost2010Prop53
 90
        2
102
RTVSPost2010PropOp53
 70
     1
102
RTVSPost2010Prop54
  1
strokes_ogs.tif
102
RTVSPost2010PropOp54
 70
     1
102
RTVSPost2010Prop55
280
     0
102
RTVSPost2010PropOp55
 70
     1
102
RTVSPost2010Prop56
140
1.0
102
RTVSPost2010PropOp56
 70
     1
102
RTVSPost2010Prop57
140
1.0
102
RTVSPost2010PropOp57
 70
     1
  0
XRECORD
  5
320
102
{ACAD_REACTORS
330
31F
102
}
330
31F
100
AcDbXrecord
280
     1
102
RTVSPropertyOp0
 70
     1
102
RTVSPropertyOp1
 70
     1
102
RTVSPropertyOp2
 70
     1
102
RTVSPropertyOp3
 70
     1
102
RTVSPropertyOp4
 70
     1
102
RTVSPropertyOp5
 70
     1
102
RTVSPropertyOp6
 70
     1
102
RTVSPropertyOp7
 70
     1
102
RTVSPropertyOp8
 70
     1
102
RTVSPropertyOp9
 70
     1
102
RTVSPropertyOp10
 70
     1
102
RTVSPropertyOp11
 70
     1
102
RTVSPropertyOp12
 70
     1
102
RTVSPropertyOp13
 70
     1
102
RTVSPropertyOp14
 70
     1
102
RTVSPropertyOp15
 70
     1
102
RTVSPropertyOp16
 70
     1
102
RTVSPropertyOp17
 70
     1
102
RTVSPropertyOp18
 70
     1
102
RTVSPropertyOp19
 70
     1
102
RTVSPropertyOp20
 70
     1
102
RTVSPropertyOp21
 70
     1
102
RTVSPropertyOp22
 70
     1
102
RTVSPropertyOp23
 70
     1
102
RTVSPropertyOp24
 70
     1
102
RTVSPropertyOp25
 70
     1
102
RTVSPropertyOp26
 70
     1
102
RTVSPropertyOp27
 70
     1
102
RTVSPropertyOp28
 70
     1
102
RTVSPropertyOp29
 70
     1
102
RTVSPropertyOp30
 70
     1
102
RTVSPropertyOp31
 70
     1
102
RTVSPropertyOp32
 70
     1
102
RTVSPropertyOp33
 70
     1
102
RTVSPropertyOp34
 70
     1
102
RTVSPropertyOp35
 70
     1
102
RTVSPropertyOp36
 70
     1
102
RTVSPropertyOp37
 70
     1
102
RTVSPropertyOp38
 70
     1
102
RTVSPropertyOp39
 70
     1
102
RTVSPropertyOp40
 70
     1
102
RTVSPropertyOp41
 70
     1
102
RTVSPropertyOp42
 70
     1
102
RTVSPropertyOp43
 70
     1
102
RTVSPropertyOp44
 70
     1
102
RTVSPropertyOp45
 70
     1
102
RTVSPropertyOp46
 70
     1
102
RTVSPropertyOp47
 70
     1
102
RTVSPropertyOp48
 70
     1
102
RTVSPropertyOp49
 70
     1
102
RTVSPropertyOp50
 70
     1
102
RTVSPropertyOp51
 70
     0
102
RTVSPropertyOp52
 70
     0
102
RTVSPropertyOp53
 70
     1
102
RTVSPropertyOp54
 70
     1
102
RTVSPropertyOp55
 70
     1
102
RTVSPropertyOp56
 70
     1
102
RTVSPropertyOp57
 70
     1
102
RTVSPost2010Prop28
280
     0
102
RTVSPost2010PropOp28
 70
     1
102
RTVSPost2010Prop29
280
     1
102
RTVSPost2010PropOp29
 70
     1
102
RTVSPost2010Prop30
280
     1
102
RTVSPost2010PropOp30
 70
     1
102
RTVSPost2010Prop31
280
     0
102
RTVSPost2010PropOp31
 70
     1
102
RTVSPost2010Prop32
280
     0
102
RTVSPost2010PropOp32
 70
     1
102
RTVSPost2010Prop33
280
     0
102
RTVSPost2010PropOp33
 70
     1
102
RTVSPost2010Prop34
280
     0
102
RTVSPost2010PropOp34
 70
     1
102
RTVSPost2010Prop35
280
     0
102
RTVSPost2010PropOp35
 70
     1
102
RTVSPost2010Prop36
280
     0
102
RTVSPost2010PropOp36
 70
     1
102
RTVSPost2010Prop37
 90
       50
102
RTVSPost2010PropOp37
 70
     1
102
RTVSPost2010Prop38
140
0.0
102
RTVSPost2010PropOp38
 70
     1
102
RTVSPost2010Prop39
140
1.0
102
RTVSPost2010PropOp39
 70
     1
102
RTVSPost2010Prop40
 90
        0
102
RTVSPost2010PropOp40
 70
     1
102
RTVSPost2010Prop41ColorIndex
 90
       18
102
RTVSPost2010Prop41ColorRGB
 90
        0
102
RTVSPost2010PropOp41
 70
     1
102
RTVSPost2010Prop42
 90
       50
102
RTVSPost2010PropOp42
 70
     1
102
RTVSPost2010Prop43
 90
        3
102
RTVSPost2010PropOp43
 70
     1
102
RTVSPost2010Prop44ColorIndex
 90
        5
102
RTVSPost2010Prop44ColorRGB
 90
      255
102
RTVSPost2010PropOp44
 70
     1
102
RTVSPost2010Prop45
280
     0
102
RTVSPost2010PropOp45
 70
     1
102
RTVSPost2010Prop46
 90
       50
102
RTVSPost2010PropOp46
 70
     1
102
RTVSPost2010Prop47
 90
       50
102
RTVSPost2010PropOp47
 70
     1
102
RTVSPost2010Prop48
 90
       50
102
RTVSPost2010PropOp48
 70
     1
102
RTVSPost2010Prop49
280
     0
102
RTVSPost2010PropOp49
 70
     1
102
RTVSPost2010Prop50
 90
       50
102
RTVSPost2010PropOp50
 70
     1
102
RTVSPost2010Prop51ColorIndex
 90
      256
102
RTVSPost2010Prop51ColorRGB
 90
-16777216
102
RTVSPost2010PropOp51
 70
     0
102
RTVSPost2010Prop52
140
1.0
102
RTVSPost2010PropOp52
 70
     0
102
RTVSPost2010Prop53
 90
        2
102
RTVSPost2010PropOp53
 70
     1
102
RTVSPost2010Prop54
  1
strokes_ogs.tif
102
RTVSPost2010PropOp54
 70
     1
102
RTVSPost2010Prop55
280
     0
102
RTVSPost2010PropOp55
 70
     1
102
RTVSPost2010Prop56
140
1.0
102
RTVSPost2010PropOp56
 70
     1
102
RTVSPost2010Prop57
140
1.0
102
RTVSPost2010PropOp57
 70
     1
  0
XRECORD
  5
328
102
{ACAD_REACTORS
330
327
102
}
330
327
100
AcDbXrecord
280
     1
102
RTVSPropertyOp0
 70
     1
102
RTVSPropertyOp1
 70
     1
102
RTVSPropertyOp2
 70
     1
102
RTVSPropertyOp3
 70
     1
102
RTVSPropertyOp4
 70
     1
102
RTVSPropertyOp5
 70
     1
102
RTVSPropertyOp6
 70
     1
102
RTVSPropertyOp7
 70
     1
102
RTVSPropertyOp8
 70
     1
102
RTVSPropertyOp9
 70
     1
102
RTVSPropertyOp10
 70
     1
102
RTVSPropertyOp11
 70
     1
102
RTVSPropertyOp12
 70
     1
102
RTVSPropertyOp13
 70
     1
102
RTVSPropertyOp14
 70
     1
102
RTVSPropertyOp15
 70
     1
102
RTVSPropertyOp16
 70
     1
102
RTVSPropertyOp17
 70
     1
102
RTVSPropertyOp18
 70
     1
102
RTVSPropertyOp19
 70
     1
102
RTVSPropertyOp20
 70
     1
102
RTVSPropertyOp21
 70
     1
102
RTVSPropertyOp22
 70
     1
102
RTVSPropertyOp23
 70
     1
102
RTVSPropertyOp24
 70
     1
102
RTVSPropertyOp25
 70
     1
102
RTVSPropertyOp26
 70
     1
102
RTVSPropertyOp27
 70
     1
102
RTVSPropertyOp28
 70
     1
102
RTVSPropertyOp29
 70
     1
102
RTVSPropertyOp30
 70
     1
102
RTVSPropertyOp31
 70
     1
102
RTVSPropertyOp32
 70
     1
102
RTVSPropertyOp33
 70
     1
102
RTVSPropertyOp34
 70
     1
102
RTVSPropertyOp35
 70
     1
102
RTVSPropertyOp36
 70
     1
102
RTVSPropertyOp37
 70
     1
102
RTVSPropertyOp38
 70
     1
102
RTVSPropertyOp39
 70
     1
102
RTVSPropertyOp40
 70
     1
102
RTVSPropertyOp41
 70
     1
102
RTVSPropertyOp42
 70
     1
102
RTVSPropertyOp43
 70
     1
102
RTVSPropertyOp44
 70
     1
102
RTVSPropertyOp45
 70
     1
102
RTVSPropertyOp46
 70
     1
102
RTVSPropertyOp47
 70
     1
102
RTVSPropertyOp48
 70
     1
102
RTVSPropertyOp49
 70
     1
102
RTVSPropertyOp50
 70
     1
102
RTVSPropertyOp51
 70
     0
102
RTVSPropertyOp52
 70
     0
102
RTVSPropertyOp53
 70
     1
102
RTVSPropertyOp54
 70
     1
102
RTVSPropertyOp55
 70
     1
102
RTVSPropertyOp56
 70
     1
102
RTVSPropertyOp57
 70
     1
102
RTVSPost2010Prop28
280
     0
102
RTVSPost2010PropOp28
 70
     1
102
RTVSPost2010Prop29
280
     1
102
RTVSPost2010PropOp29
 70
     1
102
RTVSPost2010Prop30
280
     1
102
RTVSPost2010PropOp30
 70
     1
102
RTVSPost2010Prop31
280
     0
102
RTVSPost2010PropOp31
 70
     1
102
RTVSPost2010Prop32
280
     0
102
RTVSPost2010PropOp32
 70
     1
102
RTVSPost2010Prop33
280
     0
102
RTVSPost2010PropOp33
 70
     1
102
RTVSPost2010Prop34
280
     0
102
RTVSPost2010PropOp34
 70
     1
102
RTVSPost2010Prop35
280
     0
102
RTVSPost2010PropOp35
 70
     1
102
RTVSPost2010Prop36
280
     0
102
RTVSPost2010PropOp36
 70
     1
102
RTVSPost2010Prop37
 90
       50
102
RTVSPost2010PropOp37
 70
     1
102
RTVSPost2010Prop38
140
0.0
102
RTVSPost2010PropOp38
 70
     1
102
RTVSPost2010Prop39
140
1.0
102
RTVSPost2010PropOp39
 70
     1
102
RTVSPost2010Prop40
 90
        0
102
RTVSPost2010PropOp40
 70
     1
102
RTVSPost2010Prop41ColorIndex
 90
       18
102
RTVSPost2010Prop41ColorRGB
 90
        0
102
RTVSPost2010PropOp41
 70
     1
102
RTVSPost2010Prop42
 90
       50
102
RTVSPost2010PropOp42
 70
     1
102
RTVSPost2010Prop43
 90
        3
102
RTVSPost2010PropOp43
 70
     1
102
RTVSPost2010Prop44ColorIndex
 90
        5
102
RTVSPost2010Prop44ColorRGB
 90
      255
102
RTVSPost2010PropOp44
 70
     1
102
RTVSPost2010Prop45
280
     0
102
RTVSPost2010PropOp45
 70
     1
102
RTVSPost2010Prop46
 90
       50
102
RTVSPost2010PropOp46
 70
     1
102
RTVSPost2010Prop47
 90
       50
102
RTVSPost2010PropOp47
 70
     1
102
RTVSPost2010Prop48
 90
       50
102
RTVSPost2010PropOp48
 70
     1
102
RTVSPost2010Prop49
280
     0
102
RTVSPost2010PropOp49
 70
     1
102
RTVSPost2010Prop50
 90
       50
102
RTVSPost2010PropOp50
 70
     1
102
RTVSPost2010Prop51ColorIndex
 90
      256
102
RTVSPost2010Prop51ColorRGB
 90
-16777216
102
RTVSPost2010PropOp51
 70
     0
102
RTVSPost2010Prop52
140
1.0
102
RTVSPost2010PropOp52
 70
     0
102
RTVSPost2010Prop53
 90
        2
102
RTVSPost2010PropOp53
 70
     1
102
RTVSPost2010Prop54
  1
strokes_ogs.tif
102
RTVSPost2010PropOp54
 70
     1
102
RTVSPost2010Prop55
280
     0
102
RTVSPost2010PropOp55
 70
     1
102
RTVSPost2010Prop56
140
1.0
102
RTVSPost2010PropOp56
 70
     1
102
RTVSPost2010Prop57
140
1.0
102
RTVSPost2010PropOp57
 70
     1
  0
XRECORD
  5
31C
102
{ACAD_REACTORS
330
31B
102
}
330
31B
100
AcDbXrecord
280
     1
102
RTVSPropertyOp0
 70
     1
102
RTVSPropertyOp1
 70
     1
102
RTVSPropertyOp2
 70
     1
102
RTVSPropertyOp3
 70
     1
102
RTVSPropertyOp4
 70
     1
102
RTVSPropertyOp5
 70
     1
102
RTVSPropertyOp6
 70
     1
102
RTVSPropertyOp7
 70
     1
102
RTVSPropertyOp8
 70
     1
102
RTVSPropertyOp9
 70
     1
102
RTVSPropertyOp10
 70
     1
102
RTVSPropertyOp11
 70
     1
102
RTVSPropertyOp12
 70
     1
102
RTVSPropertyOp13
 70
     1
102
RTVSPropertyOp14
 70
     1
102
RTVSPropertyOp15
 70
     1
102
RTVSPropertyOp16
 70
     1
102
RTVSPropertyOp17
 70
     1
102
RTVSPropertyOp18
 70
     1
102
RTVSPropertyOp19
 70
     1
102
RTVSPropertyOp20
 70
     1
102
RTVSPropertyOp21
 70
     1
102
RTVSPropertyOp22
 70
     1
102
RTVSPropertyOp23
 70
     1
102
RTVSPropertyOp24
 70
     1
102
RTVSPropertyOp25
 70
     1
102
RTVSPropertyOp26
 70
     1
102
RTVSPropertyOp27
 70
     1
102
RTVSPropertyOp28
 70
     1
102
RTVSPropertyOp29
 70
     1
102
RTVSPropertyOp30
 70
     1
102
RTVSPropertyOp31
 70
     1
102
RTVSPropertyOp32
 70
     1
102
RTVSPropertyOp33
 70
     1
102
RTVSPropertyOp34
 70
     1
102
RTVSPropertyOp35
 70
     1
102
RTVSPropertyOp36
 70
     1
102
RTVSPropertyOp37
 70
     1
102
RTVSPropertyOp38
 70
     1
102
RTVSPropertyOp39
 70
     1
102
RTVSPropertyOp40
 70
     1
102
RTVSPropertyOp41
 70
     1
102
RTVSPropertyOp42
 70
     1
102
RTVSPropertyOp43
 70
     1
102
RTVSPropertyOp44
 70
     1
102
RTVSPropertyOp45
 70
     1
102
RTVSPropertyOp46
 70
     1
102
RTVSPropertyOp47
 70
     1
102
RTVSPropertyOp48
 70
     1
102
RTVSPropertyOp49
 70
     1
102
RTVSPropertyOp50
 70
     1
102
RTVSPropertyOp51
 70
     0
102
RTVSPropertyOp52
 70
     0
102
RTVSPropertyOp53
 70
     1
102
RTVSPropertyOp54
 70
     1
102
RTVSPropertyOp55
 70
     1
102
RTVSPropertyOp56
 70
     1
102
RTVSPropertyOp57
 70
     1
102
RTVSPost2010Prop28
280
     0
102
RTVSPost2010PropOp28
 70
     1
102
RTVSPost2010Prop29
280
     1
102
RTVSPost2010PropOp29
 70
     1
102
RTVSPost2010Prop30
280
     1
102
RTVSPost2010PropOp30
 70
     1
102
RTVSPost2010Prop31
280
     0
102
RTVSPost2010PropOp31
 70
     1
102
RTVSPost2010Prop32
280
     0
102
RTVSPost2010PropOp32
 70
     1
102
RTVSPost2010Prop33
280
     0
102
RTVSPost2010PropOp33
 70
     1
102
RTVSPost2010Prop34
280
     0
102
RTVSPost2010PropOp34
 70
     1
102
RTVSPost2010Prop35
280
     0
102
RTVSPost2010PropOp35
 70
     1
102
RTVSPost2010Prop36
280
     0
102
RTVSPost2010PropOp36
 70
     1
102
RTVSPost2010Prop37
 90
       50
102
RTVSPost2010PropOp37
 70
     1
102
RTVSPost2010Prop38
140
0.0
102
RTVSPost2010PropOp38
 70
     1
102
RTVSPost2010Prop39
140
1.0
102
RTVSPost2010PropOp39
 70
     1
102
RTVSPost2010Prop40
 90
        0
102
RTVSPost2010PropOp40
 70
     1
102
RTVSPost2010Prop41ColorIndex
 90
       18
102
RTVSPost2010Prop41ColorRGB
 90
        0
102
RTVSPost2010PropOp41
 70
     1
102
RTVSPost2010Prop42
 90
       50
102
RTVSPost2010PropOp42
 70
     1
102
RTVSPost2010Prop43
 90
        3
102
RTVSPost2010PropOp43
 70
     1
102
RTVSPost2010Prop44ColorIndex
 90
        5
102
RTVSPost2010Prop44ColorRGB
 90
      255
102
RTVSPost2010PropOp44
 70
     1
102
RTVSPost2010Prop45
280
     0
102
RTVSPost2010PropOp45
 70
     1
102
RTVSPost2010Prop46
 90
       50
102
RTVSPost2010PropOp46
 70
     1
102
RTVSPost2010Prop47
 90
       50
102
RTVSPost2010PropOp47
 70
     1
102
RTVSPost2010Prop48
 90
       50
102
RTVSPost2010PropOp48
 70
     1
102
RTVSPost2010Prop49
280
     0
102
RTVSPost2010PropOp49
 70
     1
102
RTVSPost2010Prop50
 90
       50
102
RTVSPost2010PropOp50
 70
     1
102
RTVSPost2010Prop51ColorIndex
 90
      256
102
RTVSPost2010Prop51ColorRGB
 90
-16777216
102
RTVSPost2010PropOp51
 70
     0
102
RTVSPost2010Prop52
140
1.0
102
RTVSPost2010PropOp52
 70
     0
102
RTVSPost2010Prop53
 90
        2
102
RTVSPost2010PropOp53
 70
     1
102
RTVSPost2010Prop54
  1
strokes_ogs.tif
102
RTVSPost2010PropOp54
 70
     1
102
RTVSPost2010Prop55
280
     0
102
RTVSPost2010PropOp55
 70
     1
102
RTVSPost2010Prop56
140
1.0
102
RTVSPost2010PropOp56
 70
     1
102
RTVSPost2010Prop57
140
1.0
102
RTVSPost2010PropOp57
 70
     1
  0
XRECORD
  5
31E
102
{ACAD_REACTORS
330
31D
102
}
330
31D
100
AcDbXrecord
280
     1
102
RTVSPropertyOp0
 70
     1
102
RTVSPropertyOp1
 70
     1
102
RTVSPropertyOp2
 70
     1
102
RTVSPropertyOp3
 70
     1
102
RTVSPropertyOp4
 70
     1
102
RTVSPropertyOp5
 70
     1
102
RTVSPropertyOp6
 70
     1
102
RTVSPropertyOp7
 70
     1
102
RTVSPropertyOp8
 70
     1
102
RTVSPropertyOp9
 70
     1
102
RTVSPropertyOp10
 70
     1
102
RTVSPropertyOp11
 70
     1
102
RTVSPropertyOp12
 70
     1
102
RTVSPropertyOp13
 70
     1
102
RTVSPropertyOp14
 70
     1
102
RTVSPropertyOp15
 70
     1
102
RTVSPropertyOp16
 70
     1
102
RTVSPropertyOp17
 70
     1
102
RTVSPropertyOp18
 70
     1
102
RTVSPropertyOp19
 70
     1
102
RTVSPropertyOp20
 70
     1
102
RTVSPropertyOp21
 70
     1
102
RTVSPropertyOp22
 70
     1
102
RTVSPropertyOp23
 70
     1
102
RTVSPropertyOp24
 70
     1
102
RTVSPropertyOp25
 70
     1
102
RTVSPropertyOp26
 70
     1
102
RTVSPropertyOp27
 70
     1
102
RTVSPropertyOp28
 70
     1
102
RTVSPropertyOp29
 70
     1
102
RTVSPropertyOp30
 70
     1
102
RTVSPropertyOp31
 70
     1
102
RTVSPropertyOp32
 70
     1
102
RTVSPropertyOp33
 70
     1
102
RTVSPropertyOp34
 70
     1
102
RTVSPropertyOp35
 70
     1
102
RTVSPropertyOp36
 70
     1
102
RTVSPropertyOp37
 70
     1
102
RTVSPropertyOp38
 70
     1
102
RTVSPropertyOp39
 70
     1
102
RTVSPropertyOp40
 70
     1
102
RTVSPropertyOp41
 70
     1
102
RTVSPropertyOp42
 70
     1
102
RTVSPropertyOp43
 70
     1
102
RTVSPropertyOp44
 70
     1
102
RTVSPropertyOp45
 70
     1
102
RTVSPropertyOp46
 70
     1
102
RTVSPropertyOp47
 70
     1
102
RTVSPropertyOp48
 70
     1
102
RTVSPropertyOp49
 70
     1
102
RTVSPropertyOp50
 70
     1
102
RTVSPropertyOp51
 70
     0
102
RTVSPropertyOp52
 70
     0
102
RTVSPropertyOp53
 70
     1
102
RTVSPropertyOp54
 70
     1
102
RTVSPropertyOp55
 70
     1
102
RTVSPropertyOp56
 70
     1
102
RTVSPropertyOp57
 70
     1
102
RTVSPost2010Prop28
280
     0
102
RTVSPost2010PropOp28
 70
     1
102
RTVSPost2010Prop29
280
     1
102
RTVSPost2010PropOp29
 70
     1
102
RTVSPost2010Prop30
280
     1
102
RTVSPost2010PropOp30
 70
     1
102
RTVSPost2010Prop31
280
     0
102
RTVSPost2010PropOp31
 70
     1
102
RTVSPost2010Prop32
280
     0
102
RTVSPost2010PropOp32
 70
     1
102
RTVSPost2010Prop33
280
     0
102
RTVSPost2010PropOp33
 70
     1
102
RTVSPost2010Prop34
280
     0
102
RTVSPost2010PropOp34
 70
     1
102
RTVSPost2010Prop35
280
     0
102
RTVSPost2010PropOp35
 70
     1
102
RTVSPost2010Prop36
280
     0
102
RTVSPost2010PropOp36
 70
     1
102
RTVSPost2010Prop37
 90
       50
102
RTVSPost2010PropOp37
 70
     1
102
RTVSPost2010Prop38
140
0.0
102
RTVSPost2010PropOp38
 70
     1
102
RTVSPost2010Prop39
140
1.0
102
RTVSPost2010PropOp39
 70
     1
102
RTVSPost2010Prop40
 90
        0
102
RTVSPost2010PropOp40
 70
     1
102
RTVSPost2010Prop41ColorIndex
 90
       18
102
RTVSPost2010Prop41ColorRGB
 90
        0
102
RTVSPost2010PropOp41
 70
     1
102
RTVSPost2010Prop42
 90
       50
102
RTVSPost2010PropOp42
 70
     1
102
RTVSPost2010Prop43
 90
        3
102
RTVSPost2010PropOp43
 70
     1
102
RTVSPost2010Prop44ColorIndex
 90
        5
102
RTVSPost2010Prop44ColorRGB
 90
      255
102
RTVSPost2010PropOp44
 70
     1
102
RTVSPost2010Prop45
280
     0
102
RTVSPost2010PropOp45
 70
     1
102
RTVSPost2010Prop46
 90
       50
102
RTVSPost2010PropOp46
 70
     1
102
RTVSPost2010Prop47
 90
       50
102
RTVSPost2010PropOp47
 70
     1
102
RTVSPost2010Prop48
 90
       50
102
RTVSPost2010PropOp48
 70
     1
102
RTVSPost2010Prop49
280
     0
102
RTVSPost2010PropOp49
 70
     1
102
RTVSPost2010Prop50
 90
       50
102
RTVSPost2010PropOp50
 70
     1
102
RTVSPost2010Prop51ColorIndex
 90
      256
102
RTVSPost2010Prop51ColorRGB
 90
-16777216
102
RTVSPost2010PropOp51
 70
     0
102
RTVSPost2010Prop52
140
1.0
102
RTVSPost2010PropOp52
 70
     0
102
RTVSPost2010Prop53
 90
        2
102
RTVSPost2010PropOp53
 70
     1
102
RTVSPost2010Prop54
  1
strokes_ogs.tif
102
RTVSPost2010PropOp54
 70
     1
102
RTVSPost2010Prop55
280
     0
102
RTVSPost2010PropOp55
 70
     1
102
RTVSPost2010Prop56
140
1.0
102
RTVSPost2010PropOp56
 70
     1
102
RTVSPost2010Prop57
140
1.0
102
RTVSPost2010PropOp57
 70
     1
  0
XRECORD
  5
32E
102
{ACAD_REACTORS
330
32D
102
}
330
32D
100
AcDbXrecord
280
     1
102
RTVSPropertyOp0
 70
     0
102
RTVSPropertyOp1
 70
     0
102
RTVSPropertyOp2
 70
     0
102
RTVSPropertyOp3
 70
     0
102
RTVSPropertyOp4
 70
     0
102
RTVSPropertyOp5
 70
     0
102
RTVSPropertyOp6
 70
     0
102
RTVSPropertyOp7
 70
     0
102
RTVSPropertyOp8
 70
     0
102
RTVSPropertyOp9
 70
     0
102
RTVSPropertyOp10
 70
     0
102
RTVSPropertyOp11
 70
     0
102
RTVSPropertyOp12
 70
     0
102
RTVSPropertyOp13
 70
     0
102
RTVSPropertyOp14
 70
     2
102
RTVSPropertyOp15
 70
     0
102
RTVSPropertyOp16
 70
     0
102
RTVSPropertyOp17
 70
     0
102
RTVSPropertyOp18
 70
     0
102
RTVSPropertyOp19
 70
     0
102
RTVSPropertyOp20
 70
     0
102
RTVSPropertyOp21
 70
     0
102
RTVSPropertyOp22
 70
     0
102
RTVSPropertyOp23
 70
     0
102
RTVSPropertyOp24
 70
     0
102
RTVSPropertyOp25
 70
     0
102
RTVSPropertyOp26
 70
     0
102
RTVSPropertyOp27
 70
     0
102
RTVSPropertyOp28
 70
     0
102
RTVSPropertyOp29
 70
     0
102
RTVSPropertyOp30
 70
     0
102
RTVSPropertyOp31
 70
     0
102
RTVSPropertyOp32
 70
     0
102
RTVSPropertyOp33
 70
     0
102
RTVSPropertyOp34
 70
     0
102
RTVSPropertyOp35
 70
     0
102
RTVSPropertyOp36
 70
     0
102
RTVSPropertyOp37
 70
     0
102
RTVSPropertyOp38
 70
     0
102
RTVSPropertyOp39
 70
     0
102
RTVSPropertyOp40
 70
     0
102
RTVSPropertyOp41
 70
     0
102
RTVSPropertyOp42
 70
     0
102
RTVSPropertyOp43
 70
     0
102
RTVSPropertyOp44
 70
     0
102
RTVSPropertyOp45
 70
     0
102
RTVSPropertyOp46
 70
     0
102
RTVSPropertyOp47
 70
     0
102
RTVSPropertyOp48
 70
     0
102
RTVSPropertyOp49
 70
     0
102
RTVSPropertyOp50
 70
     0
102
RTVSPropertyOp51
 70
     0
102
RTVSPropertyOp52
 70
     0
102
RTVSPropertyOp53
 70
     0
102
RTVSPropertyOp54
 70
     0
102
RTVSPropertyOp55
 70
     0
102
RTVSPropertyOp56
 70
     0
102
RTVSPropertyOp57
 70
     0
102
RTVSPost2010Prop28
280
     0
102
RTVSPost2010PropOp28
 70
     0
102
RTVSPost2010Prop29
280
     1
102
RTVSPost2010PropOp29
 70
     0
102
RTVSPost2010Prop30
280
     1
102
RTVSPost2010PropOp30
 70
     0
102
RTVSPost2010Prop31
280
     0
102
RTVSPost2010PropOp31
 70
     0
102
RTVSPost2010Prop32
280
     0
102
RTVSPost2010PropOp32
 70
     0
102
RTVSPost2010Prop33
280
     0
102
RTVSPost2010PropOp33
 70
     0
102
RTVSPost2010Prop34
280
     0
102
RTVSPost2010PropOp34
 70
     0
102
RTVSPost2010Prop35
280
     0
102
RTVSPost2010PropOp35
 70
     0
102
RTVSPost2010Prop36
280
     0
102
RTVSPost2010PropOp36
 70
     0
102
RTVSPost2010Prop37
 90
       50
102
RTVSPost2010PropOp37
 70
     0
102
RTVSPost2010Prop38
140
0.0
102
RTVSPost2010PropOp38
 70
     0
102
RTVSPost2010Prop39
140
1.0
102
RTVSPost2010PropOp39
 70
     0
102
RTVSPost2010Prop40
 90
        0
102
RTVSPost2010PropOp40
 70
     0
102
RTVSPost2010Prop41ColorIndex
 90
       18
102
RTVSPost2010Prop41ColorRGB
 90
        0
102
RTVSPost2010PropOp41
 70
     0
102
RTVSPost2010Prop42
 90
       50
102
RTVSPost2010PropOp42
 70
     0
102
RTVSPost2010Prop43
 90
        3
102
RTVSPost2010PropOp43
 70
     0
102
RTVSPost2010Prop44ColorIndex
 90
        5
102
RTVSPost2010Prop44ColorRGB
 90
      255
102
RTVSPost2010PropOp44
 70
     0
102
RTVSPost2010Prop45
280
     0
102
RTVSPost2010PropOp45
 70
     0
102
RTVSPost2010Prop46
 90
       50
102
RTVSPost2010PropOp46
 70
     0
102
RTVSPost2010Prop47
 90
       50
102
RTVSPost2010PropOp47
 70
     0
102
RTVSPost2010Prop48
 90
       50
102
RTVSPost2010PropOp48
 70
     0
102
RTVSPost2010Prop49
280
     0
102
RTVSPost2010PropOp49
 70
     0
102
RTVSPost2010Prop50
 90
       50
102
RTVSPost2010PropOp50
 70
     0
102
RTVSPost2010Prop51ColorIndex
 90
      256
102
RTVSPost2010Prop51ColorRGB
 90
-16777216
102
RTVSPost2010PropOp51
 70
     0
102
RTVSPost2010Prop52
140
1.0
102
RTVSPost2010PropOp52
 70
     0
102
RTVSPost2010Prop53
 90
        2
102
RTVSPost2010PropOp53
 70
     0
102
RTVSPost2010Prop54
  1
strokes_ogs.tif
102
RTVSPost2010PropOp54
 70
     0
102
RTVSPost2010Prop55
280
     0
102
RTVSPost2010PropOp55
 70
     0
102
RTVSPost2010Prop56
140
1.0
102
RTVSPost2010PropOp56
 70
     0
102
RTVSPost2010Prop57
140
1.0
102
RTVSPost2010PropOp57
 70
     0
  0
XRECORD
  5
326
102
{ACAD_REACTORS
330
325
102
}
330
325
100
AcDbXrecord
280
     1
102
RTVSPropertyOp0
 70
     1
102
RTVSPropertyOp1
 70
     1
102
RTVSPropertyOp2
 70
     1
102
RTVSPropertyOp3
 70
     1
102
RTVSPropertyOp4
 70
     1
102
RTVSPropertyOp5
 70
     1
102
RTVSPropertyOp6
 70
     1
102
RTVSPropertyOp7
 70
     1
102
RTVSPropertyOp8
 70
     1
102
RTVSPropertyOp9
 70
     1
102
RTVSPropertyOp10
 70
     1
102
RTVSPropertyOp11
 70
     1
102
RTVSPropertyOp12
 70
     1
102
RTVSPropertyOp13
 70
     1
102
RTVSPropertyOp14
 70
     1
102
RTVSPropertyOp15
 70
     1
102
RTVSPropertyOp16
 70
     1
102
RTVSPropertyOp17
 70
     1
102
RTVSPropertyOp18
 70
     1
102
RTVSPropertyOp19
 70
     1
102
RTVSPropertyOp20
 70
     1
102
RTVSPropertyOp21
 70
     1
102
RTVSPropertyOp22
 70
     1
102
RTVSPropertyOp23
 70
     1
102
RTVSPropertyOp24
 70
     1
102
RTVSPropertyOp25
 70
     1
102
RTVSPropertyOp26
 70
     1
102
RTVSPropertyOp27
 70
     1
102
RTVSPropertyOp28
 70
     1
102
RTVSPropertyOp29
 70
     1
102
RTVSPropertyOp30
 70
     1
102
RTVSPropertyOp31
 70
     1
102
RTVSPropertyOp32
 70
     1
102
RTVSPropertyOp33
 70
     1
102
RTVSPropertyOp34
 70
     1
102
RTVSPropertyOp35
 70
     1
102
RTVSPropertyOp36
 70
     1
102
RTVSPropertyOp37
 70
     1
102
RTVSPropertyOp38
 70
     1
102
RTVSPropertyOp39
 70
     1
102
RTVSPropertyOp40
 70
     1
102
RTVSPropertyOp41
 70
     1
102
RTVSPropertyOp42
 70
     1
102
RTVSPropertyOp43
 70
     1
102
RTVSPropertyOp44
 70
     1
102
RTVSPropertyOp45
 70
     1
102
RTVSPropertyOp46
 70
     1
102
RTVSPropertyOp47
 70
     1
102
RTVSPropertyOp48
 70
     1
102
RTVSPropertyOp49
 70
     1
102
RTVSPropertyOp50
 70
     1
102
RTVSPropertyOp51
 70
     0
102
RTVSPropertyOp52
 70
     0
102
RTVSPropertyOp53
 70
     1
102
RTVSPropertyOp54
 70
     1
102
RTVSPropertyOp55
 70
     1
102
RTVSPropertyOp56
 70
     1
102
RTVSPropertyOp57
 70
     1
102
RTVSPost2010Prop28
280
     0
102
RTVSPost2010PropOp28
 70
     1
102
RTVSPost2010Prop29
280
     1
102
RTVSPost2010PropOp29
 70
     1
102
RTVSPost2010Prop30
280
     1
102
RTVSPost2010PropOp30
 70
     1
102
RTVSPost2010Prop31
280
     0
102
RTVSPost2010PropOp31
 70
     1
102
RTVSPost2010Prop32
280
     0
102
RTVSPost2010PropOp32
 70
     1
102
RTVSPost2010Prop33
280
     0
102
RTVSPost2010PropOp33
 70
     1
102
RTVSPost2010Prop34
280
     0
102
RTVSPost2010PropOp34
 70
     1
102
RTVSPost2010Prop35
280
     0
102
RTVSPost2010PropOp35
 70
     1
102
RTVSPost2010Prop36
280
     0
102
RTVSPost2010PropOp36
 70
     1
102
RTVSPost2010Prop37
 90
       50
102
RTVSPost2010PropOp37
 70
     1
102
RTVSPost2010Prop38
140
0.0
102
RTVSPost2010PropOp38
 70
     1
102
RTVSPost2010Prop39
140
1.0
102
RTVSPost2010PropOp39
 70
     1
102
RTVSPost2010Prop40
 90
        0
102
RTVSPost2010PropOp40
 70
     1
102
RTVSPost2010Prop41ColorIndex
 90
       18
102
RTVSPost2010Prop41ColorRGB
 90
        0
102
RTVSPost2010PropOp41
 70
     1
102
RTVSPost2010Prop42
 90
       50
102
RTVSPost2010PropOp42
 70
     1
102
RTVSPost2010Prop43
 90
        3
102
RTVSPost2010PropOp43
 70
     1
102
RTVSPost2010Prop44ColorIndex
 90
        5
102
RTVSPost2010Prop44ColorRGB
 90
      255
102
RTVSPost2010PropOp44
 70
     1
102
RTVSPost2010Prop45
280
     0
102
RTVSPost2010PropOp45
 70
     1
102
RTVSPost2010Prop46
 90
       50
102
RTVSPost2010PropOp46
 70
     1
102
RTVSPost2010Prop47
 90
       50
102
RTVSPost2010PropOp47
 70
     1
102
RTVSPost2010Prop48
 90
       50
102
RTVSPost2010PropOp48
 70
     1
102
RTVSPost2010Prop49
280
     0
102
RTVSPost2010PropOp49
 70
     1
102
RTVSPost2010Prop50
 90
       50
102
RTVSPost2010PropOp50
 70
     1
102
RTVSPost2010Prop51ColorIndex
 90
      256
102
RTVSPost2010Prop51ColorRGB
 90
-16777216
102
RTVSPost2010PropOp51
 70
     0
102
RTVSPost2010Prop52
140
1.0
102
RTVSPost2010PropOp52
 70
     0
102
RTVSPost2010Prop53
 90
        2
102
RTVSPost2010PropOp53
 70
     1
102
RTVSPost2010Prop54
  1
strokes_ogs.tif
102
RTVSPost2010PropOp54
 70
     1
102
RTVSPost2010Prop55
280
     0
102
RTVSPost2010PropOp55
 70
     1
102
RTVSPost2010Prop56
140
1.0
102
RTVSPost2010PropOp56
 70
     1
102
RTVSPost2010Prop57
140
1.0
102
RTVSPost2010PropOp57
 70
     1
  0
XRECORD
  5
30A
102
{ACAD_REACTORS
330
309
102
}
330
309
100
AcDbXrecord
280
     1
102
RTVSPropertyOp0
 70
     1
102
RTVSPropertyOp1
 70
     1
102
RTVSPropertyOp2
 70
     1
102
RTVSPropertyOp3
 70
     1
102
RTVSPropertyOp4
 70
     1
102
RTVSPropertyOp5
 70
     1
102
RTVSPropertyOp6
 70
     1
102
RTVSPropertyOp7
 70
     1
102
RTVSPropertyOp8
 70
     1
102
RTVSPropertyOp9
 70
     1
102
RTVSPropertyOp10
 70
     1
102
RTVSPropertyOp11
 70
     1
102
RTVSPropertyOp12
 70
     1
102
RTVSPropertyOp13
 70
     1
102
RTVSPropertyOp14
 70
     1
102
RTVSPropertyOp15
 70
     1
102
RTVSPropertyOp16
 70
     1
102
RTVSPropertyOp17
 70
     1
102
RTVSPropertyOp18
 70
     1
102
RTVSPropertyOp19
 70
     1
102
RTVSPropertyOp20
 70
     1
102
RTVSPropertyOp21
 70
     1
102
RTVSPropertyOp22
 70
     1
102
RTVSPropertyOp23
 70
     1
102
RTVSPropertyOp24
 70
     1
102
RTVSPropertyOp25
 70
     1
102
RTVSPropertyOp26
 70
     1
102
RTVSPropertyOp27
 70
     1
102
RTVSPropertyOp28
 70
     1
102
RTVSPropertyOp29
 70
     1
102
RTVSPropertyOp30
 70
     1
102
RTVSPropertyOp31
 70
     1
102
RTVSPropertyOp32
 70
     1
102
RTVSPropertyOp33
 70
     1
102
RTVSPropertyOp34
 70
     1
102
RTVSPropertyOp35
 70
     1
102
RTVSPropertyOp36
 70
     1
102
RTVSPropertyOp37
 70
     1
102
RTVSPropertyOp38
 70
     1
102
RTVSPropertyOp39
 70
     1
102
RTVSPropertyOp40
 70
     1
102
RTVSPropertyOp41
 70
     1
102
RTVSPropertyOp42
 70
     1
102
RTVSPropertyOp43
 70
     1
102
RTVSPropertyOp44
 70
     1
102
RTVSPropertyOp45
 70
     1
102
RTVSPropertyOp46
 70
     1
102
RTVSPropertyOp47
 70
     1
102
RTVSPropertyOp48
 70
     1
102
RTVSPropertyOp49
 70
     1
102
RTVSPropertyOp50
 70
     1
102
RTVSPropertyOp51
 70
     0
102
RTVSPropertyOp52
 70
     0
102
RTVSPropertyOp53
 70
     1
102
RTVSPropertyOp54
 70
     1
102
RTVSPropertyOp55
 70
     1
102
RTVSPropertyOp56
 70
     1
102
RTVSPropertyOp57
 70
     1
102
RTVSPost2010Prop28
280
     0
102
RTVSPost2010PropOp28
 70
     1
102
RTVSPost2010Prop29
280
     1
102
RTVSPost2010PropOp29
 70
     1
102
RTVSPost2010Prop30
280
     1
102
RTVSPost2010PropOp30
 70
     1
102
RTVSPost2010Prop31
280
     0
102
RTVSPost2010PropOp31
 70
     1
102
RTVSPost2010Prop32
280
     0
102
RTVSPost2010PropOp32
 70
     1
102
RTVSPost2010Prop33
280
     0
102
RTVSPost2010PropOp33
 70
     1
102
RTVSPost2010Prop34
280
     0
102
RTVSPost2010PropOp34
 70
     1
102
RTVSPost2010Prop35
280
     0
102
RTVSPost2010PropOp35
 70
     1
102
RTVSPost2010Prop36
280
     0
102
RTVSPost2010PropOp36
 70
     1
102
RTVSPost2010Prop37
 90
       50
102
RTVSPost2010PropOp37
 70
     1
102
RTVSPost2010Prop38
140
0.0
102
RTVSPost2010PropOp38
 70
     1
102
RTVSPost2010Prop39
140
1.0
102
RTVSPost2010PropOp39
 70
     1
102
RTVSPost2010Prop40
 90
        0
102
RTVSPost2010PropOp40
 70
     1
102
RTVSPost2010Prop41ColorIndex
 90
       18
102
RTVSPost2010Prop41ColorRGB
 90
        0
102
RTVSPost2010PropOp41
 70
     1
102
RTVSPost2010Prop42
 90
       50
102
RTVSPost2010PropOp42
 70
     1
102
RTVSPost2010Prop43
 90
        3
102
RTVSPost2010PropOp43
 70
     1
102
RTVSPost2010Prop44ColorIndex
 90
        5
102
RTVSPost2010Prop44ColorRGB
 90
      255
102
RTVSPost2010PropOp44
 70
     1
102
RTVSPost2010Prop45
280
     0
102
RTVSPost2010PropOp45
 70
     1
102
RTVSPost2010Prop46
 90
       50
102
RTVSPost2010PropOp46
 70
     1
102
RTVSPost2010Prop47
 90
       50
102
RTVSPost2010PropOp47
 70
     1
102
RTVSPost2010Prop48
 90
       50
102
RTVSPost2010PropOp48
 70
     1
102
RTVSPost2010Prop49
280
     0
102
RTVSPost2010PropOp49
 70
     1
102
RTVSPost2010Prop50
 90
       50
102
RTVSPost2010PropOp50
 70
     1
102
RTVSPost2010Prop51ColorIndex
 90
      256
102
RTVSPost2010Prop51ColorRGB
 90
-16777216
102
RTVSPost2010PropOp51
 70
     0
102
RTVSPost2010Prop52
140
1.0
102
RTVSPost2010PropOp52
 70
     0
102
RTVSPost2010Prop53
 90
        2
102
RTVSPost2010PropOp53
 70
     1
102
RTVSPost2010Prop54
  1
strokes_ogs.tif
102
RTVSPost2010PropOp54
 70
     1
102
RTVSPost2010Prop55
280
     0
102
RTVSPost2010PropOp55
 70
     1
102
RTVSPost2010Prop56
140
1.0
102
RTVSPost2010PropOp56
 70
     1
102
RTVSPost2010Prop57
140
1.0
102
RTVSPost2010PropOp57
 70
     1
  0
XRECORD
  5
30C
102
{ACAD_REACTORS
330
30B
102
}
330
30B
100
AcDbXrecord
280
     1
102
RTVSPropertyOp0
 70
     1
102
RTVSPropertyOp1
 70
     1
102
RTVSPropertyOp2
 70
     1
102
RTVSPropertyOp3
 70
     1
102
RTVSPropertyOp4
 70
     1
102
RTVSPropertyOp5
 70
     1
102
RTVSPropertyOp6
 70
     1
102
RTVSPropertyOp7
 70
     1
102
RTVSPropertyOp8
 70
     1
102
RTVSPropertyOp9
 70
     1
102
RTVSPropertyOp10
 70
     1
102
RTVSPropertyOp11
 70
     1
102
RTVSPropertyOp12
 70
     1
102
RTVSPropertyOp13
 70
     1
102
RTVSPropertyOp14
 70
     1
102
RTVSPropertyOp15
 70
     1
102
RTVSPropertyOp16
 70
     1
102
RTVSPropertyOp17
 70
     1
102
RTVSPropertyOp18
 70
     1
102
RTVSPropertyOp19
 70
     1
102
RTVSPropertyOp20
 70
     1
102
RTVSPropertyOp21
 70
     1
102
RTVSPropertyOp22
 70
     1
102
RTVSPropertyOp23
 70
     1
102
RTVSPropertyOp24
 70
     1
102
RTVSPropertyOp25
 70
     1
102
RTVSPropertyOp26
 70
     1
102
RTVSPropertyOp27
 70
     1
102
RTVSPropertyOp28
 70
     1
102
RTVSPropertyOp29
 70
     1
102
RTVSPropertyOp30
 70
     1
102
RTVSPropertyOp31
 70
     1
102
RTVSPropertyOp32
 70
     1
102
RTVSPropertyOp33
 70
     1
102
RTVSPropertyOp34
 70
     1
102
RTVSPropertyOp35
 70
     1
102
RTVSPropertyOp36
 70
     1
102
RTVSPropertyOp37
 70
     1
102
RTVSPropertyOp38
 70
     1
102
RTVSPropertyOp39
 70
     1
102
RTVSPropertyOp40
 70
     1
102
RTVSPropertyOp41
 70
     1
102
RTVSPropertyOp42
 70
     1
102
RTVSPropertyOp43
 70
     1
102
RTVSPropertyOp44
 70
     1
102
RTVSPropertyOp45
 70
     1
102
RTVSPropertyOp46
 70
     1
102
RTVSPropertyOp47
 70
     1
102
RTVSPropertyOp48
 70
     1
102
RTVSPropertyOp49
 70
     1
102
RTVSPropertyOp50
 70
     1
102
RTVSPropertyOp51
 70
     0
102
RTVSPropertyOp52
 70
     0
102
RTVSPropertyOp53
 70
     1
102
RTVSPropertyOp54
 70
     1
102
RTVSPropertyOp55
 70
     1
102
RTVSPropertyOp56
 70
     1
102
RTVSPropertyOp57
 70
     1
102
RTVSPost2010Prop28
280
     0
102
RTVSPost2010PropOp28
 70
     1
102
RTVSPost2010Prop29
280
     1
102
RTVSPost2010PropOp29
 70
     1
102
RTVSPost2010Prop30
280
     1
102
RTVSPost2010PropOp30
 70
     1
102
RTVSPost2010Prop31
280
     0
102
RTVSPost2010PropOp31
 70
     1
102
RTVSPost2010Prop32
280
     0
102
RTVSPost2010PropOp32
 70
     1
102
RTVSPost2010Prop33
280
     0
102
RTVSPost2010PropOp33
 70
     1
102
RTVSPost2010Prop34
280
     0
102
RTVSPost2010PropOp34
 70
     1
102
RTVSPost2010Prop35
280
     0
102
RTVSPost2010PropOp35
 70
     1
102
RTVSPost2010Prop36
280
     0
102
RTVSPost2010PropOp36
 70
     1
102
RTVSPost2010Prop37
 90
       50
102
RTVSPost2010PropOp37
 70
     1
102
RTVSPost2010Prop38
140
0.0
102
RTVSPost2010PropOp38
 70
     1
102
RTVSPost2010Prop39
140
1.0
102
RTVSPost2010PropOp39
 70
     1
102
RTVSPost2010Prop40
 90
        0
102
RTVSPost2010PropOp40
 70
     1
102
RTVSPost2010Prop41ColorIndex
 90
       18
102
RTVSPost2010Prop41ColorRGB
 90
        0
102
RTVSPost2010PropOp41
 70
     1
102
RTVSPost2010Prop42
 90
       50
102
RTVSPost2010PropOp42
 70
     1
102
RTVSPost2010Prop43
 90
        3
102
RTVSPost2010PropOp43
 70
     1
102
RTVSPost2010Prop44ColorIndex
 90
        5
102
RTVSPost2010Prop44ColorRGB
 90
      255
102
RTVSPost2010PropOp44
 70
     1
102
RTVSPost2010Prop45
280
     0
102
RTVSPost2010PropOp45
 70
     1
102
RTVSPost2010Prop46
 90
       50
102
RTVSPost2010PropOp46
 70
     1
102
RTVSPost2010Prop47
 90
       50
102
RTVSPost2010PropOp47
 70
     1
102
RTVSPost2010Prop48
 90
       50
102
RTVSPost2010PropOp48
 70
     1
102
RTVSPost2010Prop49
280
     0
102
RTVSPost2010PropOp49
 70
     1
102
RTVSPost2010Prop50
 90
       50
102
RTVSPost2010PropOp50
 70
     1
102
RTVSPost2010Prop51ColorIndex
 90
      256
102
RTVSPost2010Prop51ColorRGB
 90
-16777216
102
RTVSPost2010PropOp51
 70
     0
102
RTVSPost2010Prop52
140
1.0
102
RTVSPost2010PropOp52
 70
     0
102
RTVSPost2010Prop53
 90
        2
102
RTVSPost2010PropOp53
 70
     1
102
RTVSPost2010Prop54
  1
strokes_ogs.tif
102
RTVSPost2010PropOp54
 70
     1
102
RTVSPost2010Prop55
280
     0
102
RTVSPost2010PropOp55
 70
     1
102
RTVSPost2010Prop56
140
1.0
102
RTVSPost2010PropOp56
 70
     1
102
RTVSPost2010Prop57
140
1.0
102
RTVSPost2010PropOp57
 70
     1
  0
XRECORD
  5
30E
102
{ACAD_REACTORS
330
30D
102
}
330
30D
100
AcDbXrecord
280
     1
102
RTVSPropertyOp0
 70
     1
102
RTVSPropertyOp1
 70
     1
102
RTVSPropertyOp2
 70
     1
102
RTVSPropertyOp3
 70
     1
102
RTVSPropertyOp4
 70
     1
102
RTVSPropertyOp5
 70
     1
102
RTVSPropertyOp6
 70
     1
102
RTVSPropertyOp7
 70
     1
102
RTVSPropertyOp8
 70
     1
102
RTVSPropertyOp9
 70
     1
102
RTVSPropertyOp10
 70
     1
102
RTVSPropertyOp11
 70
     1
102
RTVSPropertyOp12
 70
     1
102
RTVSPropertyOp13
 70
     1
102
RTVSPropertyOp14
 70
     1
102
RTVSPropertyOp15
 70
     1
102
RTVSPropertyOp16
 70
     1
102
RTVSPropertyOp17
 70
     1
102
RTVSPropertyOp18
 70
     1
102
RTVSPropertyOp19
 70
     1
102
RTVSPropertyOp20
 70
     1
102
RTVSPropertyOp21
 70
     1
102
RTVSPropertyOp22
 70
     1
102
RTVSPropertyOp23
 70
     1
102
RTVSPropertyOp24
 70
     1
102
RTVSPropertyOp25
 70
     1
102
RTVSPropertyOp26
 70
     1
102
RTVSPropertyOp27
 70
     1
102
RTVSPropertyOp28
 70
     1
102
RTVSPropertyOp29
 70
     1
102
RTVSPropertyOp30
 70
     1
102
RTVSPropertyOp31
 70
     1
102
RTVSPropertyOp32
 70
     1
102
RTVSPropertyOp33
 70
     1
102
RTVSPropertyOp34
 70
     1
102
RTVSPropertyOp35
 70
     1
102
RTVSPropertyOp36
 70
     1
102
RTVSPropertyOp37
 70
     1
102
RTVSPropertyOp38
 70
     1
102
RTVSPropertyOp39
 70
     1
102
RTVSPropertyOp40
 70
     1
102
RTVSPropertyOp41
 70
     1
102
RTVSPropertyOp42
 70
     1
102
RTVSPropertyOp43
 70
     1
102
RTVSPropertyOp44
 70
     1
102
RTVSPropertyOp45
 70
     1
102
RTVSPropertyOp46
 70
     1
102
RTVSPropertyOp47
 70
     1
102
RTVSPropertyOp48
 70
     1
102
RTVSPropertyOp49
 70
     1
102
RTVSPropertyOp50
 70
     1
102
RTVSPropertyOp51
 70
     0
102
RTVSPropertyOp52
 70
     0
102
RTVSPropertyOp53
 70
     1
102
RTVSPropertyOp54
 70
     1
102
RTVSPropertyOp55
 70
     1
102
RTVSPropertyOp56
 70
     1
102
RTVSPropertyOp57
 70
     1
102
RTVSPost2010Prop28
280
     0
102
RTVSPost2010PropOp28
 70
     1
102
RTVSPost2010Prop29
280
     1
102
RTVSPost2010PropOp29
 70
     1
102
RTVSPost2010Prop30
280
     1
102
RTVSPost2010PropOp30
 70
     1
102
RTVSPost2010Prop31
280
     0
102
RTVSPost2010PropOp31
 70
     1
102
RTVSPost2010Prop32
280
     0
102
RTVSPost2010PropOp32
 70
     1
102
RTVSPost2010Prop33
280
     0
102
RTVSPost2010PropOp33
 70
     1
102
RTVSPost2010Prop34
280
     0
102
RTVSPost2010PropOp34
 70
     1
102
RTVSPost2010Prop35
280
     0
102
RTVSPost2010PropOp35
 70
     1
102
RTVSPost2010Prop36
280
     0
102
RTVSPost2010PropOp36
 70
     1
102
RTVSPost2010Prop37
 90
       50
102
RTVSPost2010PropOp37
 70
     1
102
RTVSPost2010Prop38
140
0.0
102
RTVSPost2010PropOp38
 70
     1
102
RTVSPost2010Prop39
140
1.0
102
RTVSPost2010PropOp39
 70
     1
102
RTVSPost2010Prop40
 90
        0
102
RTVSPost2010PropOp40
 70
     1
102
RTVSPost2010Prop41ColorIndex
 90
       18
102
RTVSPost2010Prop41ColorRGB
 90
        0
102
RTVSPost2010PropOp41
 70
     1
102
RTVSPost2010Prop42
 90
       50
102
RTVSPost2010PropOp42
 70
     1
102
RTVSPost2010Prop43
 90
        3
102
RTVSPost2010PropOp43
 70
     1
102
RTVSPost2010Prop44ColorIndex
 90
        5
102
RTVSPost2010Prop44ColorRGB
 90
      255
102
RTVSPost2010PropOp44
 70
     1
102
RTVSPost2010Prop45
280
     0
102
RTVSPost2010PropOp45
 70
     1
102
RTVSPost2010Prop46
 90
       50
102
RTVSPost2010PropOp46
 70
     1
102
RTVSPost2010Prop47
 90
       50
102
RTVSPost2010PropOp47
 70
     1
102
RTVSPost2010Prop48
 90
       50
102
RTVSPost2010PropOp48
 70
     1
102
RTVSPost2010Prop49
280
     0
102
RTVSPost2010PropOp49
 70
     1
102
RTVSPost2010Prop50
 90
       50
102
RTVSPost2010PropOp50
 70
     1
102
RTVSPost2010Prop51ColorIndex
 90
      256
102
RTVSPost2010Prop51ColorRGB
 90
-16777216
102
RTVSPost2010PropOp51
 70
     0
102
RTVSPost2010Prop52
140
1.0
102
RTVSPost2010PropOp52
 70
     0
102
RTVSPost2010Prop53
 90
        2
102
RTVSPost2010PropOp53
 70
     1
102
RTVSPost2010Prop54
  1
strokes_ogs.tif
102
RTVSPost2010PropOp54
 70
     1
102
RTVSPost2010Prop55
280
     0
102
RTVSPost2010PropOp55
 70
     1
102
RTVSPost2010Prop56
140
1.0
102
RTVSPost2010PropOp56
 70
     1
102
RTVSPost2010Prop57
140
1.0
102
RTVSPost2010PropOp57
 70
     1
  0
XRECORD
  5
310
102
{ACAD_REACTORS
330
30F
102
}
330
30F
100
AcDbXrecord
280
     1
102
RTVSPropertyOp0
 70
     1
102
RTVSPropertyOp1
 70
     1
102
RTVSPropertyOp2
 70
     1
102
RTVSPropertyOp3
 70
     1
102
RTVSPropertyOp4
 70
     1
102
RTVSPropertyOp5
 70
     1
102
RTVSPropertyOp6
 70
     1
102
RTVSPropertyOp7
 70
     1
102
RTVSPropertyOp8
 70
     1
102
RTVSPropertyOp9
 70
     1
102
RTVSPropertyOp10
 70
     1
102
RTVSPropertyOp11
 70
     1
102
RTVSPropertyOp12
 70
     1
102
RTVSPropertyOp13
 70
     1
102
RTVSPropertyOp14
 70
     1
102
RTVSPropertyOp15
 70
     1
102
RTVSPropertyOp16
 70
     1
102
RTVSPropertyOp17
 70
     1
102
RTVSPropertyOp18
 70
     1
102
RTVSPropertyOp19
 70
     1
102
RTVSPropertyOp20
 70
     1
102
RTVSPropertyOp21
 70
     1
102
RTVSPropertyOp22
 70
     1
102
RTVSPropertyOp23
 70
     1
102
RTVSPropertyOp24
 70
     1
102
RTVSPropertyOp25
 70
     1
102
RTVSPropertyOp26
 70
     1
102
RTVSPropertyOp27
 70
     1
102
RTVSPropertyOp28
 70
     1
102
RTVSPropertyOp29
 70
     1
102
RTVSPropertyOp30
 70
     1
102
RTVSPropertyOp31
 70
     1
102
RTVSPropertyOp32
 70
     1
102
RTVSPropertyOp33
 70
     1
102
RTVSPropertyOp34
 70
     1
102
RTVSPropertyOp35
 70
     1
102
RTVSPropertyOp36
 70
     1
102
RTVSPropertyOp37
 70
     1
102
RTVSPropertyOp38
 70
     1
102
RTVSPropertyOp39
 70
     1
102
RTVSPropertyOp40
 70
     1
102
RTVSPropertyOp41
 70
     1
102
RTVSPropertyOp42
 70
     1
102
RTVSPropertyOp43
 70
     1
102
RTVSPropertyOp44
 70
     1
102
RTVSPropertyOp45
 70
     1
102
RTVSPropertyOp46
 70
     1
102
RTVSPropertyOp47
 70
     1
102
RTVSPropertyOp48
 70
     1
102
RTVSPropertyOp49
 70
     1
102
RTVSPropertyOp50
 70
     1
102
RTVSPropertyOp51
 70
     0
102
RTVSPropertyOp52
 70
     0
102
RTVSPropertyOp53
 70
     1
102
RTVSPropertyOp54
 70
     1
102
RTVSPropertyOp55
 70
     1
102
RTVSPropertyOp56
 70
     1
102
RTVSPropertyOp57
 70
     1
102
RTVSPost2010Prop28
280
     0
102
RTVSPost2010PropOp28
 70
     1
102
RTVSPost2010Prop29
280
     1
102
RTVSPost2010PropOp29
 70
     1
102
RTVSPost2010Prop30
280
     1
102
RTVSPost2010PropOp30
 70
     1
102
RTVSPost2010Prop31
280
     0
102
RTVSPost2010PropOp31
 70
     1
102
RTVSPost2010Prop32
280
     0
102
RTVSPost2010PropOp32
 70
     1
102
RTVSPost2010Prop33
280
     0
102
RTVSPost2010PropOp33
 70
     1
102
RTVSPost2010Prop34
280
     0
102
RTVSPost2010PropOp34
 70
     1
102
RTVSPost2010Prop35
280
     0
102
RTVSPost2010PropOp35
 70
     1
102
RTVSPost2010Prop36
280
     0
102
RTVSPost2010PropOp36
 70
     1
102
RTVSPost2010Prop37
 90
       50
102
RTVSPost2010PropOp37
 70
     1
102
RTVSPost2010Prop38
140
0.0
102
RTVSPost2010PropOp38
 70
     1
102
RTVSPost2010Prop39
140
1.0
102
RTVSPost2010PropOp39
 70
     1
102
RTVSPost2010Prop40
 90
        0
102
RTVSPost2010PropOp40
 70
     1
102
RTVSPost2010Prop41ColorIndex
 90
       18
102
RTVSPost2010Prop41ColorRGB
 90
        0
102
RTVSPost2010PropOp41
 70
     1
102
RTVSPost2010Prop42
 90
       50
102
RTVSPost2010PropOp42
 70
     1
102
RTVSPost2010Prop43
 90
        3
102
RTVSPost2010PropOp43
 70
     1
102
RTVSPost2010Prop44ColorIndex
 90
        5
102
RTVSPost2010Prop44ColorRGB
 90
      255
102
RTVSPost2010PropOp44
 70
     1
102
RTVSPost2010Prop45
280
     0
102
RTVSPost2010PropOp45
 70
     1
102
RTVSPost2010Prop46
 90
       50
102
RTVSPost2010PropOp46
 70
     1
102
RTVSPost2010Prop47
 90
       50
102
RTVSPost2010PropOp47
 70
     1
102
RTVSPost2010Prop48
 90
       50
102
RTVSPost2010PropOp48
 70
     1
102
RTVSPost2010Prop49
280
     0
102
RTVSPost2010PropOp49
 70
     1
102
RTVSPost2010Prop50
 90
       50
102
RTVSPost2010PropOp50
 70
     1
102
RTVSPost2010Prop51ColorIndex
 90
      256
102
RTVSPost2010Prop51ColorRGB
 90
-16777216
102
RTVSPost2010PropOp51
 70
     0
102
RTVSPost2010Prop52
140
1.0
102
RTVSPost2010PropOp52
 70
     0
102
RTVSPost2010Prop53
 90
        2
102
RTVSPost2010PropOp53
 70
     1
102
RTVSPost2010Prop54
  1
strokes_ogs.tif
102
RTVSPost2010PropOp54
 70
     1
102
RTVSPost2010Prop55
280
     0
102
RTVSPost2010PropOp55
 70
     1
102
RTVSPost2010Prop56
140
1.0
102
RTVSPost2010PropOp56
 70
     1
102
RTVSPost2010Prop57
140
1.0
102
RTVSPost2010PropOp57
 70
     1
  0
XRECORD
  5
316
102
{ACAD_REACTORS
330
315
102
}
330
315
100
AcDbXrecord
280
     1
102
RTVSPropertyOp0
 70
     1
102
RTVSPropertyOp1
 70
     1
102
RTVSPropertyOp2
 70
     1
102
RTVSPropertyOp3
 70
     1
102
RTVSPropertyOp4
 70
     1
102
RTVSPropertyOp5
 70
     1
102
RTVSPropertyOp6
 70
     1
102
RTVSPropertyOp7
 70
     1
102
RTVSPropertyOp8
 70
     1
102
RTVSPropertyOp9
 70
     1
102
RTVSPropertyOp10
 70
     1
102
RTVSPropertyOp11
 70
     1
102
RTVSPropertyOp12
 70
     1
102
RTVSPropertyOp13
 70
     1
102
RTVSPropertyOp14
 70
     1
102
RTVSPropertyOp15
 70
     1
102
RTVSPropertyOp16
 70
     1
102
RTVSPropertyOp17
 70
     1
102
RTVSPropertyOp18
 70
     1
102
RTVSPropertyOp19
 70
     1
102
RTVSPropertyOp20
 70
     1
102
RTVSPropertyOp21
 70
     1
102
RTVSPropertyOp22
 70
     1
102
RTVSPropertyOp23
 70
     1
102
RTVSPropertyOp24
 70
     1
102
RTVSPropertyOp25
 70
     1
102
RTVSPropertyOp26
 70
     1
102
RTVSPropertyOp27
 70
     1
102
RTVSPropertyOp28
 70
     1
102
RTVSPropertyOp29
 70
     1
102
RTVSPropertyOp30
 70
     1
102
RTVSPropertyOp31
 70
     1
102
RTVSPropertyOp32
 70
     1
102
RTVSPropertyOp33
 70
     1
102
RTVSPropertyOp34
 70
     1
102
RTVSPropertyOp35
 70
     1
102
RTVSPropertyOp36
 70
     1
102
RTVSPropertyOp37
 70
     1
102
RTVSPropertyOp38
 70
     1
102
RTVSPropertyOp39
 70
     1
102
RTVSPropertyOp40
 70
     1
102
RTVSPropertyOp41
 70
     1
102
RTVSPropertyOp42
 70
     1
102
RTVSPropertyOp43
 70
     1
102
RTVSPropertyOp44
 70
     1
102
RTVSPropertyOp45
 70
     1
102
RTVSPropertyOp46
 70
     1
102
RTVSPropertyOp47
 70
     1
102
RTVSPropertyOp48
 70
     1
102
RTVSPropertyOp49
 70
     1
102
RTVSPropertyOp50
 70
     1
102
RTVSPropertyOp51
 70
     0
102
RTVSPropertyOp52
 70
     0
102
RTVSPropertyOp53
 70
     1
102
RTVSPropertyOp54
 70
     1
102
RTVSPropertyOp55
 70
     1
102
RTVSPropertyOp56
 70
     1
102
RTVSPropertyOp57
 70
     1
102
RTVSPost2010Prop28
280
     0
102
RTVSPost2010PropOp28
 70
     1
102
RTVSPost2010Prop29
280
     1
102
RTVSPost2010PropOp29
 70
     1
102
RTVSPost2010Prop30
280
     1
102
RTVSPost2010PropOp30
 70
     1
102
RTVSPost2010Prop31
280
     0
102
RTVSPost2010PropOp31
 70
     1
102
RTVSPost2010Prop32
280
     0
102
RTVSPost2010PropOp32
 70
     1
102
RTVSPost2010Prop33
280
     0
102
RTVSPost2010PropOp33
 70
     1
102
RTVSPost2010Prop34
280
     0
102
RTVSPost2010PropOp34
 70
     1
102
RTVSPost2010Prop35
280
     0
102
RTVSPost2010PropOp35
 70
     1
102
RTVSPost2010Prop36
280
     0
102
RTVSPost2010PropOp36
 70
     1
102
RTVSPost2010Prop37
 90
       50
102
RTVSPost2010PropOp37
 70
     1
102
RTVSPost2010Prop38
140
0.0
102
RTVSPost2010PropOp38
 70
     1
102
RTVSPost2010Prop39
140
1.0
102
RTVSPost2010PropOp39
 70
     1
102
RTVSPost2010Prop40
 90
        0
102
RTVSPost2010PropOp40
 70
     1
102
RTVSPost2010Prop41ColorIndex
 90
       18
102
RTVSPost2010Prop41ColorRGB
 90
        0
102
RTVSPost2010PropOp41
 70
     1
102
RTVSPost2010Prop42
 90
       50
102
RTVSPost2010PropOp42
 70
     1
102
RTVSPost2010Prop43
 90
        3
102
RTVSPost2010PropOp43
 70
     1
102
RTVSPost2010Prop44ColorIndex
 90
        5
102
RTVSPost2010Prop44ColorRGB
 90
      255
102
RTVSPost2010PropOp44
 70
     1
102
RTVSPost2010Prop45
280
     0
102
RTVSPost2010PropOp45
 70
     1
102
RTVSPost2010Prop46
 90
       50
102
RTVSPost2010PropOp46
 70
     1
102
RTVSPost2010Prop47
 90
       50
102
RTVSPost2010PropOp47
 70
     1
102
RTVSPost2010Prop48
 90
       50
102
RTVSPost2010PropOp48
 70
     1
102
RTVSPost2010Prop49
280
     0
102
RTVSPost2010PropOp49
 70
     1
102
RTVSPost2010Prop50
 90
       50
102
RTVSPost2010PropOp50
 70
     1
102
RTVSPost2010Prop51ColorIndex
 90
      256
102
RTVSPost2010Prop51ColorRGB
 90
-16777216
102
RTVSPost2010PropOp51
 70
     0
102
RTVSPost2010Prop52
140
1.0
102
RTVSPost2010PropOp52
 70
     0
102
RTVSPost2010Prop53
 90
        2
102
RTVSPost2010PropOp53
 70
     1
102
RTVSPost2010Prop54
  1
strokes_ogs.tif
102
RTVSPost2010PropOp54
 70
     1
102
RTVSPost2010Prop55
280
     0
102
RTVSPost2010PropOp55
 70
     1
102
RTVSPost2010Prop56
140
1.0
102
RTVSPost2010PropOp56
 70
     1
102
RTVSPost2010Prop57
140
1.0
102
RTVSPost2010PropOp57
 70
     1
  0
XRECORD
  5
32A
102
{ACAD_REACTORS
330
329
102
}
330
329
100
AcDbXrecord
280
     1
102
RTVSPropertyOp0
 70
     0
102
RTVSPropertyOp1
 70
     0
102
RTVSPropertyOp2
 70
     0
102
RTVSPropertyOp3
 70
     0
102
RTVSPropertyOp4
 70
     0
102
RTVSPropertyOp5
 70
     0
102
RTVSPropertyOp6
 70
     0
102
RTVSPropertyOp7
 70
     0
102
RTVSPropertyOp8
 70
     0
102
RTVSPropertyOp9
 70
     0
102
RTVSPropertyOp10
 70
     0
102
RTVSPropertyOp11
 70
     0
102
RTVSPropertyOp12
 70
     0
102
RTVSPropertyOp13
 70
     0
102
RTVSPropertyOp14
 70
     2
102
RTVSPropertyOp15
 70
     0
102
RTVSPropertyOp16
 70
     0
102
RTVSPropertyOp17
 70
     0
102
RTVSPropertyOp18
 70
     0
102
RTVSPropertyOp19
 70
     0
102
RTVSPropertyOp20
 70
     0
102
RTVSPropertyOp21
 70
     0
102
RTVSPropertyOp22
 70
     0
102
RTVSPropertyOp23
 70
     0
102
RTVSPropertyOp24
 70
     0
102
RTVSPropertyOp25
 70
     0
102
RTVSPropertyOp26
 70
     0
102
RTVSPropertyOp27
 70
     0
102
RTVSPropertyOp28
 70
     0
102
RTVSPropertyOp29
 70
     0
102
RTVSPropertyOp30
 70
     0
102
RTVSPropertyOp31
 70
     0
102
RTVSPropertyOp32
 70
     0
102
RTVSPropertyOp33
 70
     0
102
RTVSPropertyOp34
 70
     0
102
RTVSPropertyOp35
 70
     0
102
RTVSPropertyOp36
 70
     0
102
RTVSPropertyOp37
 70
     0
102
RTVSPropertyOp38
 70
     0
102
RTVSPropertyOp39
 70
     0
102
RTVSPropertyOp40
 70
     0
102
RTVSPropertyOp41
 70
     0
102
RTVSPropertyOp42
 70
     0
102
RTVSPropertyOp43
 70
     0
102
RTVSPropertyOp44
 70
     0
102
RTVSPropertyOp45
 70
     0
102
RTVSPropertyOp46
 70
     0
102
RTVSPropertyOp47
 70
     0
102
RTVSPropertyOp48
 70
     0
102
RTVSPropertyOp49
 70
     0
102
RTVSPropertyOp50
 70
     0
102
RTVSPropertyOp51
 70
     0
102
RTVSPropertyOp52
 70
     0
102
RTVSPropertyOp53
 70
     0
102
RTVSPropertyOp54
 70
     0
102
RTVSPropertyOp55
 70
     0
102
RTVSPropertyOp56
 70
     0
102
RTVSPropertyOp57
 70
     0
102
RTVSPost2010Prop28
280
     0
102
RTVSPost2010PropOp28
 70
     0
102
RTVSPost2010Prop29
280
     1
102
RTVSPost2010PropOp29
 70
     0
102
RTVSPost2010Prop30
280
     1
102
RTVSPost2010PropOp30
 70
     0
102
RTVSPost2010Prop31
280
     0
102
RTVSPost2010PropOp31
 70
     0
102
RTVSPost2010Prop32
280
     0
102
RTVSPost2010PropOp32
 70
     0
102
RTVSPost2010Prop33
280
     0
102
RTVSPost2010PropOp33
 70
     0
102
RTVSPost2010Prop34
280
     0
102
RTVSPost2010PropOp34
 70
     0
102
RTVSPost2010Prop35
280
     0
102
RTVSPost2010PropOp35
 70
     0
102
RTVSPost2010Prop36
280
     0
102
RTVSPost2010PropOp36
 70
     0
102
RTVSPost2010Prop37
 90
       50
102
RTVSPost2010PropOp37
 70
     0
102
RTVSPost2010Prop38
140
0.0
102
RTVSPost2010PropOp38
 70
     0
102
RTVSPost2010Prop39
140
1.0
102
RTVSPost2010PropOp39
 70
     0
102
RTVSPost2010Prop40
 90
        0
102
RTVSPost2010PropOp40
 70
     0
102
RTVSPost2010Prop41ColorIndex
 90
       18
102
RTVSPost2010Prop41ColorRGB
 90
        0
102
RTVSPost2010PropOp41
 70
     0
102
RTVSPost2010Prop42
 90
       50
102
RTVSPost2010PropOp42
 70
     0
102
RTVSPost2010Prop43
 90
        3
102
RTVSPost2010PropOp43
 70
     0
102
RTVSPost2010Prop44ColorIndex
 90
        5
102
RTVSPost2010Prop44ColorRGB
 90
      255
102
RTVSPost2010PropOp44
 70
     0
102
RTVSPost2010Prop45
280
     0
102
RTVSPost2010PropOp45
 70
     0
102
RTVSPost2010Prop46
 90
       50
102
RTVSPost2010PropOp46
 70
     0
102
RTVSPost2010Prop47
 90
       50
102
RTVSPost2010PropOp47
 70
     0
102
RTVSPost2010Prop48
 90
       50
102
RTVSPost2010PropOp48
 70
     0
102
RTVSPost2010Prop49
280
     0
102
RTVSPost2010PropOp49
 70
     0
102
RTVSPost2010Prop50
 90
       50
102
RTVSPost2010PropOp50
 70
     0
102
RTVSPost2010Prop51ColorIndex
 90
      256
102
RTVSPost2010Prop51ColorRGB
 90
-16777216
102
RTVSPost2010PropOp51
 70
     0
102
RTVSPost2010Prop52
140
1.0
102
RTVSPost2010PropOp52
 70
     0
102
RTVSPost2010Prop53
 90
        2
102
RTVSPost2010PropOp53
 70
     0
102
RTVSPost2010Prop54
  1
strokes_ogs.tif
102
RTVSPost2010PropOp54
 70
     0
102
RTVSPost2010Prop55
280
     0
102
RTVSPost2010PropOp55
 70
     0
102
RTVSPost2010Prop56
140
1.0
102
RTVSPost2010PropOp56
 70
     0
102
RTVSPost2010Prop57
140
1.0
102
RTVSPost2010PropOp57
 70
     0
  0
XRECORD
  5
324
102
{ACAD_REACTORS
330
323
102
}
330
323
100
AcDbXrecord
280
     1
102
RTVSPropertyOp0
 70
     1
102
RTVSPropertyOp1
 70
     1
102
RTVSPropertyOp2
 70
     1
102
RTVSPropertyOp3
 70
     1
102
RTVSPropertyOp4
 70
     1
102
RTVSPropertyOp5
 70
     1
102
RTVSPropertyOp6
 70
     1
102
RTVSPropertyOp7
 70
     1
102
RTVSPropertyOp8
 70
     1
102
RTVSPropertyOp9
 70
     1
102
RTVSPropertyOp10
 70
     1
102
RTVSPropertyOp11
 70
     1
102
RTVSPropertyOp12
 70
     1
102
RTVSPropertyOp13
 70
     1
102
RTVSPropertyOp14
 70
     1
102
RTVSPropertyOp15
 70
     1
102
RTVSPropertyOp16
 70
     1
102
RTVSPropertyOp17
 70
     1
102
RTVSPropertyOp18
 70
     1
102
RTVSPropertyOp19
 70
     1
102
RTVSPropertyOp20
 70
     1
102
RTVSPropertyOp21
 70
     1
102
RTVSPropertyOp22
 70
     1
102
RTVSPropertyOp23
 70
     1
102
RTVSPropertyOp24
 70
     1
102
RTVSPropertyOp25
 70
     1
102
RTVSPropertyOp26
 70
     1
102
RTVSPropertyOp27
 70
     1
102
RTVSPropertyOp28
 70
     1
102
RTVSPropertyOp29
 70
     1
102
RTVSPropertyOp30
 70
     1
102
RTVSPropertyOp31
 70
     1
102
RTVSPropertyOp32
 70
     1
102
RTVSPropertyOp33
 70
     1
102
RTVSPropertyOp34
 70
     1
102
RTVSPropertyOp35
 70
     1
102
RTVSPropertyOp36
 70
     1
102
RTVSPropertyOp37
 70
     1
102
RTVSPropertyOp38
 70
     1
102
RTVSPropertyOp39
 70
     1
102
RTVSPropertyOp40
 70
     1
102
RTVSPropertyOp41
 70
     1
102
RTVSPropertyOp42
 70
     1
102
RTVSPropertyOp43
 70
     1
102
RTVSPropertyOp44
 70
     1
102
RTVSPropertyOp45
 70
     1
102
RTVSPropertyOp46
 70
     1
102
RTVSPropertyOp47
 70
     1
102
RTVSPropertyOp48
 70
     1
102
RTVSPropertyOp49
 70
     1
102
RTVSPropertyOp50
 70
     1
102
RTVSPropertyOp51
 70
     0
102
RTVSPropertyOp52
 70
     0
102
RTVSPropertyOp53
 70
     1
102
RTVSPropertyOp54
 70
     1
102
RTVSPropertyOp55
 70
     1
102
RTVSPropertyOp56
 70
     1
102
RTVSPropertyOp57
 70
     1
102
RTVSPost2010Prop28
280
     0
102
RTVSPost2010PropOp28
 70
     1
102
RTVSPost2010Prop29
280
     1
102
RTVSPost2010PropOp29
 70
     1
102
RTVSPost2010Prop30
280
     1
102
RTVSPost2010PropOp30
 70
     1
102
RTVSPost2010Prop31
280
     0
102
RTVSPost2010PropOp31
 70
     1
102
RTVSPost2010Prop32
280
     0
102
RTVSPost2010PropOp32
 70
     1
102
RTVSPost2010Prop33
280
     0
102
RTVSPost2010PropOp33
 70
     1
102
RTVSPost2010Prop34
280
     0
102
RTVSPost2010PropOp34
 70
     1
102
RTVSPost2010Prop35
280
     0
102
RTVSPost2010PropOp35
 70
     1
102
RTVSPost2010Prop36
280
     0
102
RTVSPost2010PropOp36
 70
     1
102
RTVSPost2010Prop37
 90
       50
102
RTVSPost2010PropOp37
 70
     1
102
RTVSPost2010Prop38
140
0.0
102
RTVSPost2010PropOp38
 70
     1
102
RTVSPost2010Prop39
140
1.0
102
RTVSPost2010PropOp39
 70
     1
102
RTVSPost2010Prop40
 90
        0
102
RTVSPost2010PropOp40
 70
     1
102
RTVSPost2010Prop41ColorIndex
 90
       18
102
RTVSPost2010Prop41ColorRGB
 90
        0
102
RTVSPost2010PropOp41
 70
     1
102
RTVSPost2010Prop42
 90
       50
102
RTVSPost2010PropOp42
 70
     1
102
RTVSPost2010Prop43
 90
        3
102
RTVSPost2010PropOp43
 70
     1
102
RTVSPost2010Prop44ColorIndex
 90
        5
102
RTVSPost2010Prop44ColorRGB
 90
      255
102
RTVSPost2010PropOp44
 70
     1
102
RTVSPost2010Prop45
280
     0
102
RTVSPost2010PropOp45
 70
     1
102
RTVSPost2010Prop46
 90
       50
102
RTVSPost2010PropOp46
 70
     1
102
RTVSPost2010Prop47
 90
       50
102
RTVSPost2010PropOp47
 70
     1
102
RTVSPost2010Prop48
 90
       50
102
RTVSPost2010PropOp48
 70
     1
102
RTVSPost2010Prop49
280
     0
102
RTVSPost2010PropOp49
 70
     1
102
RTVSPost2010Prop50
 90
       50
102
RTVSPost2010PropOp50
 70
     1
102
RTVSPost2010Prop51ColorIndex
 90
      256
102
RTVSPost2010Prop51ColorRGB
 90
-16777216
102
RTVSPost2010PropOp51
 70
     0
102
RTVSPost2010Prop52
140
1.0
102
RTVSPost2010PropOp52
 70
     0
102
RTVSPost2010Prop53
 90
        2
102
RTVSPost2010PropOp53
 70
     1
102
RTVSPost2010Prop54
  1
strokes_ogs.tif
102
RTVSPost2010PropOp54
 70
     1
102
RTVSPost2010Prop55
280
     0
102
RTVSPost2010PropOp55
 70
     1
102
RTVSPost2010Prop56
140
1.0
102
RTVSPost2010PropOp56
 70
     1
102
RTVSPost2010Prop57
140
1.0
102
RTVSPost2010PropOp57
 70
     1
  0
XRECORD
  5
32C
102
{ACAD_REACTORS
330
32B
102
}
330
32B
100
AcDbXrecord
280
     1
102
RTVSPropertyOp0
 70
     0
102
RTVSPropertyOp1
 70
     0
102
RTVSPropertyOp2
 70
     0
102
RTVSPropertyOp3
 70
     0
102
RTVSPropertyOp4
 70
     0
102
RTVSPropertyOp5
 70
     0
102
RTVSPropertyOp6
 70
     0
102
RTVSPropertyOp7
 70
     0
102
RTVSPropertyOp8
 70
     0
102
RTVSPropertyOp9
 70
     0
102
RTVSPropertyOp10
 70
     0
102
RTVSPropertyOp11
 70
     0
102
RTVSPropertyOp12
 70
     0
102
RTVSPropertyOp13
 70
     0
102
RTVSPropertyOp14
 70
     2
102
RTVSPropertyOp15
 70
     0
102
RTVSPropertyOp16
 70
     0
102
RTVSPropertyOp17
 70
     0
102
RTVSPropertyOp18
 70
     0
102
RTVSPropertyOp19
 70
     0
102
RTVSPropertyOp20
 70
     0
102
RTVSPropertyOp21
 70
     0
102
RTVSPropertyOp22
 70
     0
102
RTVSPropertyOp23
 70
     0
102
RTVSPropertyOp24
 70
     0
102
RTVSPropertyOp25
 70
     0
102
RTVSPropertyOp26
 70
     0
102
RTVSPropertyOp27
 70
     0
102
RTVSPropertyOp28
 70
     0
102
RTVSPropertyOp29
 70
     0
102
RTVSPropertyOp30
 70
     0
102
RTVSPropertyOp31
 70
     0
102
RTVSPropertyOp32
 70
     0
102
RTVSPropertyOp33
 70
     0
102
RTVSPropertyOp34
 70
     0
102
RTVSPropertyOp35
 70
     0
102
RTVSPropertyOp36
 70
     0
102
RTVSPropertyOp37
 70
     0
102
RTVSPropertyOp38
 70
     0
102
RTVSPropertyOp39
 70
     0
102
RTVSPropertyOp40
 70
     0
102
RTVSPropertyOp41
 70
     0
102
RTVSPropertyOp42
 70
     0
102
RTVSPropertyOp43
 70
     0
102
RTVSPropertyOp44
 70
     0
102
RTVSPropertyOp45
 70
     0
102
RTVSPropertyOp46
 70
     0
102
RTVSPropertyOp47
 70
     0
102
RTVSPropertyOp48
 70
     0
102
RTVSPropertyOp49
 70
     0
102
RTVSPropertyOp50
 70
     0
102
RTVSPropertyOp51
 70
     0
102
RTVSPropertyOp52
 70
     0
102
RTVSPropertyOp53
 70
     0
102
RTVSPropertyOp54
 70
     0
102
RTVSPropertyOp55
 70
     0
102
RTVSPropertyOp56
 70
     0
102
RTVSPropertyOp57
 70
     0
102
RTVSPost2010Prop28
280
     0
102
RTVSPost2010PropOp28
 70
     0
102
RTVSPost2010Prop29
280
     1
102
RTVSPost2010PropOp29
 70
     0
102
RTVSPost2010Prop30
280
     1
102
RTVSPost2010PropOp30
 70
     0
102
RTVSPost2010Prop31
280
     0
102
RTVSPost2010PropOp31
 70
     0
102
RTVSPost2010Prop32
280
     0
102
RTVSPost2010PropOp32
 70
     0
102
RTVSPost2010Prop33
280
     0
102
RTVSPost2010PropOp33
 70
     0
102
RTVSPost2010Prop34
280
     0
102
RTVSPost2010PropOp34
 70
     0
102
RTVSPost2010Prop35
280
     0
102
RTVSPost2010PropOp35
 70
     0
102
RTVSPost2010Prop36
280
     0
102
RTVSPost2010PropOp36
 70
     0
102
RTVSPost2010Prop37
 90
       50
102
RTVSPost2010PropOp37
 70
     0
102
RTVSPost2010Prop38
140
0.0
102
RTVSPost2010PropOp38
 70
     0
102
RTVSPost2010Prop39
140
1.0
102
RTVSPost2010PropOp39
 70
     0
102
RTVSPost2010Prop40
 90
        0
102
RTVSPost2010PropOp40
 70
     0
102
RTVSPost2010Prop41ColorIndex
 90
       18
102
RTVSPost2010Prop41ColorRGB
 90
        0
102
RTVSPost2010PropOp41
 70
     0
102
RTVSPost2010Prop42
 90
       50
102
RTVSPost2010PropOp42
 70
     0
102
RTVSPost2010Prop43
 90
        3
102
RTVSPost2010PropOp43
 70
     0
102
RTVSPost2010Prop44ColorIndex
 90
        5
102
RTVSPost2010Prop44ColorRGB
 90
      255
102
RTVSPost2010PropOp44
 70
     0
102
RTVSPost2010Prop45
280
     0
102
RTVSPost2010PropOp45
 70
     0
102
RTVSPost2010Prop46
 90
       50
102
RTVSPost2010PropOp46
 70
     0
102
RTVSPost2010Prop47
 90
       50
102
RTVSPost2010PropOp47
 70
     0
102
RTVSPost2010Prop48
 90
       50
102
RTVSPost2010PropOp48
 70
     0
102
RTVSPost2010Prop49
280
     0
102
RTVSPost2010PropOp49
 70
     0
102
RTVSPost2010Prop50
 90
       50
102
RTVSPost2010PropOp50
 70
     0
102
RTVSPost2010Prop51ColorIndex
 90
      256
102
RTVSPost2010Prop51ColorRGB
 90
-16777216
102
RTVSPost2010PropOp51
 70
     0
102
RTVSPost2010Prop52
140
1.0
102
RTVSPost2010PropOp52
 70
     0
102
RTVSPost2010Prop53
 90
        2
102
RTVSPost2010PropOp53
 70
     0
102
RTVSPost2010Prop54
  1
strokes_ogs.tif
102
RTVSPost2010PropOp54
 70
     0
102
RTVSPost2010Prop55
280
     0
102
RTVSPost2010PropOp55
 70
     0
102
RTVSPost2010Prop56
140
1.0
102
RTVSPost2010PropOp56
 70
     0
102
RTVSPost2010Prop57
140
1.0
102
RTVSPost2010PropOp57
 70
     0
  0
XRECORD
  5
31A
102
{ACAD_REACTORS
330
319
102
}
330
319
100
AcDbXrecord
280
     1
102
RTVSPropertyOp0
 70
     1
102
RTVSPropertyOp1
 70
     1
102
RTVSPropertyOp2
 70
     1
102
RTVSPropertyOp3
 70
     1
102
RTVSPropertyOp4
 70
     1
102
RTVSPropertyOp5
 70
     1
102
RTVSPropertyOp6
 70
     1
102
RTVSPropertyOp7
 70
     1
102
RTVSPropertyOp8
 70
     1
102
RTVSPropertyOp9
 70
     1
102
RTVSPropertyOp10
 70
     1
102
RTVSPropertyOp11
 70
     1
102
RTVSPropertyOp12
 70
     1
102
RTVSPropertyOp13
 70
     1
102
RTVSPropertyOp14
 70
     1
102
RTVSPropertyOp15
 70
     1
102
RTVSPropertyOp16
 70
     1
102
RTVSPropertyOp17
 70
     1
102
RTVSPropertyOp18
 70
     1
102
RTVSPropertyOp19
 70
     1
102
RTVSPropertyOp20
 70
     1
102
RTVSPropertyOp21
 70
     1
102
RTVSPropertyOp22
 70
     1
102
RTVSPropertyOp23
 70
     1
102
RTVSPropertyOp24
 70
     1
102
RTVSPropertyOp25
 70
     1
102
RTVSPropertyOp26
 70
     1
102
RTVSPropertyOp27
 70
     1
102
RTVSPropertyOp28
 70
     1
102
RTVSPropertyOp29
 70
     1
102
RTVSPropertyOp30
 70
     1
102
RTVSPropertyOp31
 70
     1
102
RTVSPropertyOp32
 70
     1
102
RTVSPropertyOp33
 70
     1
102
RTVSPropertyOp34
 70
     1
102
RTVSPropertyOp35
 70
     1
102
RTVSPropertyOp36
 70
     1
102
RTVSPropertyOp37
 70
     1
102
RTVSPropertyOp38
 70
     1
102
RTVSPropertyOp39
 70
     1
102
RTVSPropertyOp40
 70
     1
102
RTVSPropertyOp41
 70
     1
102
RTVSPropertyOp42
 70
     1
102
RTVSPropertyOp43
 70
     1
102
RTVSPropertyOp44
 70
     1
102
RTVSPropertyOp45
 70
     1
102
RTVSPropertyOp46
 70
     1
102
RTVSPropertyOp47
 70
     1
102
RTVSPropertyOp48
 70
     1
102
RTVSPropertyOp49
 70
     1
102
RTVSPropertyOp50
 70
     1
102
RTVSPropertyOp51
 70
     0
102
RTVSPropertyOp52
 70
     0
102
RTVSPropertyOp53
 70
     1
102
RTVSPropertyOp54
 70
     1
102
RTVSPropertyOp55
 70
     1
102
RTVSPropertyOp56
 70
     1
102
RTVSPropertyOp57
 70
     1
102
RTVSPost2010Prop28
280
     0
102
RTVSPost2010PropOp28
 70
     1
102
RTVSPost2010Prop29
280
     1
102
RTVSPost2010PropOp29
 70
     1
102
RTVSPost2010Prop30
280
     1
102
RTVSPost2010PropOp30
 70
     1
102
RTVSPost2010Prop31
280
     0
102
RTVSPost2010PropOp31
 70
     1
102
RTVSPost2010Prop32
280
     0
102
RTVSPost2010PropOp32
 70
     1
102
RTVSPost2010Prop33
280
     0
102
RTVSPost2010PropOp33
 70
     1
102
RTVSPost2010Prop34
280
     0
102
RTVSPost2010PropOp34
 70
     1
102
RTVSPost2010Prop35
280
     0
102
RTVSPost2010PropOp35
 70
     1
102
RTVSPost2010Prop36
280
     0
102
RTVSPost2010PropOp36
 70
     1
102
RTVSPost2010Prop37
 90
       50
102
RTVSPost2010PropOp37
 70
     1
102
RTVSPost2010Prop38
140
0.0
102
RTVSPost2010PropOp38
 70
     1
102
RTVSPost2010Prop39
140
1.0
102
RTVSPost2010PropOp39
 70
     1
102
RTVSPost2010Prop40
 90
        0
102
RTVSPost2010PropOp40
 70
     1
102
RTVSPost2010Prop41ColorIndex
 90
       18
102
RTVSPost2010Prop41ColorRGB
 90
        0
102
RTVSPost2010PropOp41
 70
     1
102
RTVSPost2010Prop42
 90
       50
102
RTVSPost2010PropOp42
 70
     1
102
RTVSPost2010Prop43
 90
        3
102
RTVSPost2010PropOp43
 70
     1
102
RTVSPost2010Prop44ColorIndex
 90
        5
102
RTVSPost2010Prop44ColorRGB
 90
      255
102
RTVSPost2010PropOp44
 70
     1
102
RTVSPost2010Prop45
280
     0
102
RTVSPost2010PropOp45
 70
     1
102
RTVSPost2010Prop46
 90
       50
102
RTVSPost2010PropOp46
 70
     1
102
RTVSPost2010Prop47
 90
       50
102
RTVSPost2010PropOp47
 70
     1
102
RTVSPost2010Prop48
 90
       50
102
RTVSPost2010PropOp48
 70
     1
102
RTVSPost2010Prop49
280
     0
102
RTVSPost2010PropOp49
 70
     1
102
RTVSPost2010Prop50
 90
       50
102
RTVSPost2010PropOp50
 70
     1
102
RTVSPost2010Prop51ColorIndex
 90
      256
102
RTVSPost2010Prop51ColorRGB
 90
-16777216
102
RTVSPost2010PropOp51
 70
     0
102
RTVSPost2010Prop52
140
1.0
102
RTVSPost2010PropOp52
 70
     0
102
RTVSPost2010Prop53
 90
        2
102
RTVSPost2010PropOp53
 70
     1
102
RTVSPost2010Prop54
  1
strokes_ogs.tif
102
RTVSPost2010PropOp54
 70
     1
102
RTVSPost2010Prop55
280
     0
102
RTVSPost2010PropOp55
 70
     1
102
RTVSPost2010Prop56
140
1.0
102
RTVSPost2010PropOp56
 70
     1
102
RTVSPost2010Prop57
140
1.0
102
RTVSPost2010PropOp57
 70
     1
  0
XRECORD
  5
338
102
{ACAD_REACTORS
330
337
102
}
330
337
100
AcDbXrecord
280
     1
102
RTVSPropertyOp0
 70
     1
102
RTVSPropertyOp1
 70
     1
102
RTVSPropertyOp2
 70
     1
102
RTVSPropertyOp3
 70
     1
102
RTVSPropertyOp4
 70
     1
102
RTVSPropertyOp5
 70
     1
102
RTVSPropertyOp6
 70
     1
102
RTVSPropertyOp7
 70
     1
102
RTVSPropertyOp8
 70
     1
102
RTVSPropertyOp9
 70
     1
102
RTVSPropertyOp10
 70
     1
102
RTVSPropertyOp11
 70
     1
102
RTVSPropertyOp12
 70
     1
102
RTVSPropertyOp13
 70
     1
102
RTVSPropertyOp14
 70
     1
102
RTVSPropertyOp15
 70
     1
102
RTVSPropertyOp16
 70
     1
102
RTVSPropertyOp17
 70
     1
102
RTVSPropertyOp18
 70
     1
102
RTVSPropertyOp19
 70
     1
102
RTVSPropertyOp20
 70
     1
102
RTVSPropertyOp21
 70
     1
102
RTVSPropertyOp22
 70
     1
102
RTVSPropertyOp23
 70
     1
102
RTVSPropertyOp24
 70
     1
102
RTVSPropertyOp25
 70
     1
102
RTVSPropertyOp26
 70
     1
102
RTVSPropertyOp27
 70
     1
102
RTVSPropertyOp28
 70
     1
102
RTVSPropertyOp29
 70
     1
102
RTVSPropertyOp30
 70
     1
102
RTVSPropertyOp31
 70
     1
102
RTVSPropertyOp32
 70
     1
102
RTVSPropertyOp33
 70
     1
102
RTVSPropertyOp34
 70
     1
102
RTVSPropertyOp35
 70
     1
102
RTVSPropertyOp36
 70
     1
102
RTVSPropertyOp37
 70
     1
102
RTVSPropertyOp38
 70
     1
102
RTVSPropertyOp39
 70
     1
102
RTVSPropertyOp40
 70
     1
102
RTVSPropertyOp41
 70
     1
102
RTVSPropertyOp42
 70
     1
102
RTVSPropertyOp43
 70
     1
102
RTVSPropertyOp44
 70
     1
102
RTVSPropertyOp45
 70
     1
102
RTVSPropertyOp46
 70
     1
102
RTVSPropertyOp47
 70
     1
102
RTVSPropertyOp48
 70
     1
102
RTVSPropertyOp49
 70
     1
102
RTVSPropertyOp50
 70
     1
102
RTVSPropertyOp51
 70
     0
102
RTVSPropertyOp52
 70
     0
102
RTVSPropertyOp53
 70
     1
102
RTVSPropertyOp54
 70
     1
102
RTVSPropertyOp55
 70
     1
102
RTVSPropertyOp56
 70
     1
102
RTVSPropertyOp57
 70
     1
102
RTVSPost2010Prop28
280
     0
102
RTVSPost2010PropOp28
 70
     1
102
RTVSPost2010Prop29
280
     1
102
RTVSPost2010PropOp29
 70
     1
102
RTVSPost2010Prop30
280
     1
102
RTVSPost2010PropOp30
 70
     1
102
RTVSPost2010Prop31
280
     0
102
RTVSPost2010PropOp31
 70
     1
102
RTVSPost2010Prop32
280
     0
102
RTVSPost2010PropOp32
 70
     1
102
RTVSPost2010Prop33
280
     0
102
RTVSPost2010PropOp33
 70
     1
102
RTVSPost2010Prop34
280
     0
102
RTVSPost2010PropOp34
 70
     1
102
RTVSPost2010Prop35
280
     0
102
RTVSPost2010PropOp35
 70
     1
102
RTVSPost2010Prop36
280
     0
102
RTVSPost2010PropOp36
 70
     1
102
RTVSPost2010Prop37
 90
       50
102
RTVSPost2010PropOp37
 70
     1
102
RTVSPost2010Prop38
140
0.0
102
RTVSPost2010PropOp38
 70
     1
102
RTVSPost2010Prop39
140
1.0
102
RTVSPost2010PropOp39
 70
     1
102
RTVSPost2010Prop40
 90
        0
102
RTVSPost2010PropOp40
 70
     1
102
RTVSPost2010Prop41ColorIndex
 90
       18
102
RTVSPost2010Prop41ColorRGB
 90
        0
102
RTVSPost2010PropOp41
 70
     1
102
RTVSPost2010Prop42
 90
       50
102
RTVSPost2010PropOp42
 70
     1
102
RTVSPost2010Prop43
 90
        3
102
RTVSPost2010PropOp43
 70
     1
102
RTVSPost2010Prop44ColorIndex
 90
        5
102
RTVSPost2010Prop44ColorRGB
 90
      255
102
RTVSPost2010PropOp44
 70
     1
102
RTVSPost2010Prop45
280
     0
102
RTVSPost2010PropOp45
 70
     1
102
RTVSPost2010Prop46
 90
       50
102
RTVSPost2010PropOp46
 70
     1
102
RTVSPost2010Prop47
 90
       50
102
RTVSPost2010PropOp47
 70
     1
102
RTVSPost2010Prop48
 90
       50
102
RTVSPost2010PropOp48
 70
     1
102
RTVSPost2010Prop49
280
     0
102
RTVSPost2010PropOp49
 70
     1
102
RTVSPost2010Prop50
 90
       50
102
RTVSPost2010PropOp50
 70
     1
102
RTVSPost2010Prop51ColorIndex
 90
      256
102
RTVSPost2010Prop51ColorRGB
 90
-16777216
102
RTVSPost2010PropOp51
 70
     0
102
RTVSPost2010Prop52
140
1.0
102
RTVSPost2010PropOp52
 70
     0
102
RTVSPost2010Prop53
 90
        2
102
RTVSPost2010PropOp53
 70
     1
102
RTVSPost2010Prop54
  1
strokes_ogs.tif
102
RTVSPost2010PropOp54
 70
     1
102
RTVSPost2010Prop55
280
     0
102
RTVSPost2010PropOp55
 70
     1
102
RTVSPost2010Prop56
140
1.0
102
RTVSPost2010PropOp56
 70
     1
102
RTVSPost2010Prop57
140
1.0
102
RTVSPost2010PropOp57
 70
     1
  0
XRECORD
  5
336
102
{ACAD_REACTORS
330
335
102
}
330
335
100
AcDbXrecord
280
     1
102
RTVSPropertyOp0
 70
     1
102
RTVSPropertyOp1
 70
     1
102
RTVSPropertyOp2
 70
     1
102
RTVSPropertyOp3
 70
     1
102
RTVSPropertyOp4
 70
     1
102
RTVSPropertyOp5
 70
     1
102
RTVSPropertyOp6
 70
     1
102
RTVSPropertyOp7
 70
     1
102
RTVSPropertyOp8
 70
     1
102
RTVSPropertyOp9
 70
     1
102
RTVSPropertyOp10
 70
     1
102
RTVSPropertyOp11
 70
     1
102
RTVSPropertyOp12
 70
     1
102
RTVSPropertyOp13
 70
     1
102
RTVSPropertyOp14
 70
     1
102
RTVSPropertyOp15
 70
     1
102
RTVSPropertyOp16
 70
     1
102
RTVSPropertyOp17
 70
     1
102
RTVSPropertyOp18
 70
     1
102
RTVSPropertyOp19
 70
     1
102
RTVSPropertyOp20
 70
     1
102
RTVSPropertyOp21
 70
     1
102
RTVSPropertyOp22
 70
     1
102
RTVSPropertyOp23
 70
     1
102
RTVSPropertyOp24
 70
     1
102
RTVSPropertyOp25
 70
     1
102
RTVSPropertyOp26
 70
     1
102
RTVSPropertyOp27
 70
     1
102
RTVSPropertyOp28
 70
     1
102
RTVSPropertyOp29
 70
     1
102
RTVSPropertyOp30
 70
     1
102
RTVSPropertyOp31
 70
     1
102
RTVSPropertyOp32
 70
     1
102
RTVSPropertyOp33
 70
     1
102
RTVSPropertyOp34
 70
     1
102
RTVSPropertyOp35
 70
     1
102
RTVSPropertyOp36
 70
     1
102
RTVSPropertyOp37
 70
     1
102
RTVSPropertyOp38
 70
     1
102
RTVSPropertyOp39
 70
     1
102
RTVSPropertyOp40
 70
     1
102
RTVSPropertyOp41
 70
     1
102
RTVSPropertyOp42
 70
     1
102
RTVSPropertyOp43
 70
     1
102
RTVSPropertyOp44
 70
     1
102
RTVSPropertyOp45
 70
     1
102
RTVSPropertyOp46
 70
     1
102
RTVSPropertyOp47
 70
     1
102
RTVSPropertyOp48
 70
     1
102
RTVSPropertyOp49
 70
     1
102
RTVSPropertyOp50
 70
     1
102
RTVSPropertyOp51
 70
     0
102
RTVSPropertyOp52
 70
     0
102
RTVSPropertyOp53
 70
     1
102
RTVSPropertyOp54
 70
     1
102
RTVSPropertyOp55
 70
     1
102
RTVSPropertyOp56
 70
     1
102
RTVSPropertyOp57
 70
     1
102
RTVSPost2010Prop28
280
     0
102
RTVSPost2010PropOp28
 70
     1
102
RTVSPost2010Prop29
280
     1
102
RTVSPost2010PropOp29
 70
     1
102
RTVSPost2010Prop30
280
     1
102
RTVSPost2010PropOp30
 70
     1
102
RTVSPost2010Prop31
280
     0
102
RTVSPost2010PropOp31
 70
     1
102
RTVSPost2010Prop32
280
     0
102
RTVSPost2010PropOp32
 70
     1
102
RTVSPost2010Prop33
280
     0
102
RTVSPost2010PropOp33
 70
     1
102
RTVSPost2010Prop34
280
     0
102
RTVSPost2010PropOp34
 70
     1
102
RTVSPost2010Prop35
280
     0
102
RTVSPost2010PropOp35
 70
     1
102
RTVSPost2010Prop36
280
     0
102
RTVSPost2010PropOp36
 70
     1
102
RTVSPost2010Prop37
 90
       50
102
RTVSPost2010PropOp37
 70
     1
102
RTVSPost2010Prop38
140
0.0
102
RTVSPost2010PropOp38
 70
     1
102
RTVSPost2010Prop39
140
1.0
102
RTVSPost2010PropOp39
 70
     1
102
RTVSPost2010Prop40
 90
        0
102
RTVSPost2010PropOp40
 70
     1
102
RTVSPost2010Prop41ColorIndex
 90
       18
102
RTVSPost2010Prop41ColorRGB
 90
        0
102
RTVSPost2010PropOp41
 70
     1
102
RTVSPost2010Prop42
 90
       50
102
RTVSPost2010PropOp42
 70
     1
102
RTVSPost2010Prop43
 90
        3
102
RTVSPost2010PropOp43
 70
     1
102
RTVSPost2010Prop44ColorIndex
 90
        5
102
RTVSPost2010Prop44ColorRGB
 90
      255
102
RTVSPost2010PropOp44
 70
     1
102
RTVSPost2010Prop45
280
     0
102
RTVSPost2010PropOp45
 70
     1
102
RTVSPost2010Prop46
 90
       50
102
RTVSPost2010PropOp46
 70
     1
102
RTVSPost2010Prop47
 90
       50
102
RTVSPost2010PropOp47
 70
     1
102
RTVSPost2010Prop48
 90
       50
102
RTVSPost2010PropOp48
 70
     1
102
RTVSPost2010Prop49
280
     0
102
RTVSPost2010PropOp49
 70
     1
102
RTVSPost2010Prop50
 90
       50
102
RTVSPost2010PropOp50
 70
     1
102
RTVSPost2010Prop51ColorIndex
 90
      256
102
RTVSPost2010Prop51ColorRGB
 90
-16777216
102
RTVSPost2010PropOp51
 70
     0
102
RTVSPost2010Prop52
140
1.0
102
RTVSPost2010PropOp52
 70
     0
102
RTVSPost2010Prop53
 90
        2
102
RTVSPost2010PropOp53
 70
     1
102
RTVSPost2010Prop54
  1
strokes_ogs.tif
102
RTVSPost2010PropOp54
 70
     1
102
RTVSPost2010Prop55
280
     0
102
RTVSPost2010PropOp55
 70
     1
102
RTVSPost2010Prop56
140
1.0
102
RTVSPost2010PropOp56
 70
     1
102
RTVSPost2010Prop57
140
1.0
102
RTVSPost2010PropOp57
 70
     1
  0
XRECORD
  5
330
102
{ACAD_REACTORS
330
32F
102
}
330
32F
100
AcDbXrecord
280
     1
102
RTVSPropertyOp0
 70
     1
102
RTVSPropertyOp1
 70
     1
102
RTVSPropertyOp2
 70
     1
102
RTVSPropertyOp3
 70
     1
102
RTVSPropertyOp4
 70
     1
102
RTVSPropertyOp5
 70
     1
102
RTVSPropertyOp6
 70
     1
102
RTVSPropertyOp7
 70
     1
102
RTVSPropertyOp8
 70
     1
102
RTVSPropertyOp9
 70
     1
102
RTVSPropertyOp10
 70
     1
102
RTVSPropertyOp11
 70
     1
102
RTVSPropertyOp12
 70
     1
102
RTVSPropertyOp13
 70
     1
102
RTVSPropertyOp14
 70
     1
102
RTVSPropertyOp15
 70
     1
102
RTVSPropertyOp16
 70
     1
102
RTVSPropertyOp17
 70
     1
102
RTVSPropertyOp18
 70
     1
102
RTVSPropertyOp19
 70
     1
102
RTVSPropertyOp20
 70
     1
102
RTVSPropertyOp21
 70
     1
102
RTVSPropertyOp22
 70
     1
102
RTVSPropertyOp23
 70
     1
102
RTVSPropertyOp24
 70
     1
102
RTVSPropertyOp25
 70
     1
102
RTVSPropertyOp26
 70
     1
102
RTVSPropertyOp27
 70
     1
102
RTVSPropertyOp28
 70
     1
102
RTVSPropertyOp29
 70
     1
102
RTVSPropertyOp30
 70
     1
102
RTVSPropertyOp31
 70
     1
102
RTVSPropertyOp32
 70
     1
102
RTVSPropertyOp33
 70
     1
102
RTVSPropertyOp34
 70
     1
102
RTVSPropertyOp35
 70
     1
102
RTVSPropertyOp36
 70
     1
102
RTVSPropertyOp37
 70
     1
102
RTVSPropertyOp38
 70
     1
102
RTVSPropertyOp39
 70
     1
102
RTVSPropertyOp40
 70
     1
102
RTVSPropertyOp41
 70
     1
102
RTVSPropertyOp42
 70
     1
102
RTVSPropertyOp43
 70
     1
102
RTVSPropertyOp44
 70
     1
102
RTVSPropertyOp45
 70
     1
102
RTVSPropertyOp46
 70
     1
102
RTVSPropertyOp47
 70
     1
102
RTVSPropertyOp48
 70
     1
102
RTVSPropertyOp49
 70
     1
102
RTVSPropertyOp50
 70
     1
102
RTVSPropertyOp51
 70
     0
102
RTVSPropertyOp52
 70
     0
102
RTVSPropertyOp53
 70
     1
102
RTVSPropertyOp54
 70
     1
102
RTVSPropertyOp55
 70
     1
102
RTVSPropertyOp56
 70
     1
102
RTVSPropertyOp57
 70
     1
102
RTVSPost2010Prop28
280
     0
102
RTVSPost2010PropOp28
 70
     1
102
RTVSPost2010Prop29
280
     1
102
RTVSPost2010PropOp29
 70
     1
102
RTVSPost2010Prop30
280
     1
102
RTVSPost2010PropOp30
 70
     1
102
RTVSPost2010Prop31
280
     0
102
RTVSPost2010PropOp31
 70
     1
102
RTVSPost2010Prop32
280
     0
102
RTVSPost2010PropOp32
 70
     1
102
RTVSPost2010Prop33
280
     0
102
RTVSPost2010PropOp33
 70
     1
102
RTVSPost2010Prop34
280
     0
102
RTVSPost2010PropOp34
 70
     1
102
RTVSPost2010Prop35
280
     0
102
RTVSPost2010PropOp35
 70
     1
102
RTVSPost2010Prop36
280
     0
102
RTVSPost2010PropOp36
 70
     1
102
RTVSPost2010Prop37
 90
       50
102
RTVSPost2010PropOp37
 70
     1
102
RTVSPost2010Prop38
140
0.0
102
RTVSPost2010PropOp38
 70
     1
102
RTVSPost2010Prop39
140
1.0
102
RTVSPost2010PropOp39
 70
     1
102
RTVSPost2010Prop40
 90
        0
102
RTVSPost2010PropOp40
 70
     1
102
RTVSPost2010Prop41ColorIndex
 90
       18
102
RTVSPost2010Prop41ColorRGB
 90
        0
102
RTVSPost2010PropOp41
 70
     1
102
RTVSPost2010Prop42
 90
       50
102
RTVSPost2010PropOp42
 70
     1
102
RTVSPost2010Prop43
 90
        3
102
RTVSPost2010PropOp43
 70
     1
102
RTVSPost2010Prop44ColorIndex
 90
        5
102
RTVSPost2010Prop44ColorRGB
 90
      255
102
RTVSPost2010PropOp44
 70
     1
102
RTVSPost2010Prop45
280
     0
102
RTVSPost2010PropOp45
 70
     1
102
RTVSPost2010Prop46
 90
       50
102
RTVSPost2010PropOp46
 70
     1
102
RTVSPost2010Prop47
 90
       50
102
RTVSPost2010PropOp47
 70
     1
102
RTVSPost2010Prop48
 90
       50
102
RTVSPost2010PropOp48
 70
     1
102
RTVSPost2010Prop49
280
     0
102
RTVSPost2010PropOp49
 70
     1
102
RTVSPost2010Prop50
 90
       50
102
RTVSPost2010PropOp50
 70
     1
102
RTVSPost2010Prop51ColorIndex
 90
      256
102
RTVSPost2010Prop51ColorRGB
 90
-16777216
102
RTVSPost2010PropOp51
 70
     0
102
RTVSPost2010Prop52
140
1.0
102
RTVSPost2010PropOp52
 70
     0
102
RTVSPost2010Prop53
 90
        2
102
RTVSPost2010PropOp53
 70
     1
102
RTVSPost2010Prop54
  1
strokes_ogs.tif
102
RTVSPost2010PropOp54
 70
     1
102
RTVSPost2010Prop55
280
     0
102
RTVSPost2010PropOp55
 70
     1
102
RTVSPost2010Prop56
140
1.0
102
RTVSPost2010PropOp56
 70
     1
102
RTVSPost2010Prop57
140
1.0
102
RTVSPost2010PropOp57
 70
     1
  0
XRECORD
  5
332
102
{ACAD_REACTORS
330
331
102
}
330
331
100
AcDbXrecord
280
     1
102
RTVSPropertyOp0
 70
     1
102
RTVSPropertyOp1
 70
     1
102
RTVSPropertyOp2
 70
     1
102
RTVSPropertyOp3
 70
     1
102
RTVSPropertyOp4
 70
     1
102
RTVSPropertyOp5
 70
     1
102
RTVSPropertyOp6
 70
     1
102
RTVSPropertyOp7
 70
     1
102
RTVSPropertyOp8
 70
     1
102
RTVSPropertyOp9
 70
     1
102
RTVSPropertyOp10
 70
     1
102
RTVSPropertyOp11
 70
     1
102
RTVSPropertyOp12
 70
     1
102
RTVSPropertyOp13
 70
     1
102
RTVSPropertyOp14
 70
     1
102
RTVSPropertyOp15
 70
     1
102
RTVSPropertyOp16
 70
     1
102
RTVSPropertyOp17
 70
     1
102
RTVSPropertyOp18
 70
     1
102
RTVSPropertyOp19
 70
     1
102
RTVSPropertyOp20
 70
     1
102
RTVSPropertyOp21
 70
     1
102
RTVSPropertyOp22
 70
     1
102
RTVSPropertyOp23
 70
     1
102
RTVSPropertyOp24
 70
     1
102
RTVSPropertyOp25
 70
     1
102
RTVSPropertyOp26
 70
     1
102
RTVSPropertyOp27
 70
     1
102
RTVSPropertyOp28
 70
     1
102
RTVSPropertyOp29
 70
     1
102
RTVSPropertyOp30
 70
     1
102
RTVSPropertyOp31
 70
     1
102
RTVSPropertyOp32
 70
     1
102
RTVSPropertyOp33
 70
     1
102
RTVSPropertyOp34
 70
     1
102
RTVSPropertyOp35
 70
     1
102
RTVSPropertyOp36
 70
     1
102
RTVSPropertyOp37
 70
     1
102
RTVSPropertyOp38
 70
     1
102
RTVSPropertyOp39
 70
     1
102
RTVSPropertyOp40
 70
     1
102
RTVSPropertyOp41
 70
     1
102
RTVSPropertyOp42
 70
     1
102
RTVSPropertyOp43
 70
     1
102
RTVSPropertyOp44
 70
     1
102
RTVSPropertyOp45
 70
     1
102
RTVSPropertyOp46
 70
     1
102
RTVSPropertyOp47
 70
     1
102
RTVSPropertyOp48
 70
     1
102
RTVSPropertyOp49
 70
     1
102
RTVSPropertyOp50
 70
     1
102
RTVSPropertyOp51
 70
     0
102
RTVSPropertyOp52
 70
     0
102
RTVSPropertyOp53
 70
     1
102
RTVSPropertyOp54
 70
     1
102
RTVSPropertyOp55
 70
     1
102
RTVSPropertyOp56
 70
     1
102
RTVSPropertyOp57
 70
     1
102
RTVSPost2010Prop28
280
     0
102
RTVSPost2010PropOp28
 70
     1
102
RTVSPost2010Prop29
280
     1
102
RTVSPost2010PropOp29
 70
     1
102
RTVSPost2010Prop30
280
     1
102
RTVSPost2010PropOp30
 70
     1
102
RTVSPost2010Prop31
280
     0
102
RTVSPost2010PropOp31
 70
     1
102
RTVSPost2010Prop32
280
     0
102
RTVSPost2010PropOp32
 70
     1
102
RTVSPost2010Prop33
280
     0
102
RTVSPost2010PropOp33
 70
     1
102
RTVSPost2010Prop34
280
     0
102
RTVSPost2010PropOp34
 70
     1
102
RTVSPost2010Prop35
280
     0
102
RTVSPost2010PropOp35
 70
     1
102
RTVSPost2010Prop36
280
     0
102
RTVSPost2010PropOp36
 70
     1
102
RTVSPost2010Prop37
 90
       50
102
RTVSPost2010PropOp37
 70
     1
102
RTVSPost2010Prop38
140
0.0
102
RTVSPost2010PropOp38
 70
     1
102
RTVSPost2010Prop39
140
1.0
102
RTVSPost2010PropOp39
 70
     1
102
RTVSPost2010Prop40
 90
        0
102
RTVSPost2010PropOp40
 70
     1
102
RTVSPost2010Prop41ColorIndex
 90
       18
102
RTVSPost2010Prop41ColorRGB
 90
        0
102
RTVSPost2010PropOp41
 70
     1
102
RTVSPost2010Prop42
 90
       50
102
RTVSPost2010PropOp42
 70
     1
102
RTVSPost2010Prop43
 90
        3
102
RTVSPost2010PropOp43
 70
     1
102
RTVSPost2010Prop44ColorIndex
 90
        5
102
RTVSPost2010Prop44ColorRGB
 90
      255
102
RTVSPost2010PropOp44
 70
     1
102
RTVSPost2010Prop45
280
     0
102
RTVSPost2010PropOp45
 70
     1
102
RTVSPost2010Prop46
 90
       50
102
RTVSPost2010PropOp46
 70
     1
102
RTVSPost2010Prop47
 90
       50
102
RTVSPost2010PropOp47
 70
     1
102
RTVSPost2010Prop48
 90
       50
102
RTVSPost2010PropOp48
 70
     1
102
RTVSPost2010Prop49
280
     0
102
RTVSPost2010PropOp49
 70
     1
102
RTVSPost2010Prop50
 90
       50
102
RTVSPost2010PropOp50
 70
     1
102
RTVSPost2010Prop51ColorIndex
 90
      256
102
RTVSPost2010Prop51ColorRGB
 90
-16777216
102
RTVSPost2010PropOp51
 70
     0
102
RTVSPost2010Prop52
140
1.0
102
RTVSPost2010PropOp52
 70
     0
102
RTVSPost2010Prop53
 90
        2
102
RTVSPost2010PropOp53
 70
     1
102
RTVSPost2010Prop54
  1
strokes_ogs.tif
102
RTVSPost2010PropOp54
 70
     1
102
RTVSPost2010Prop55
280
     0
102
RTVSPost2010PropOp55
 70
     1
102
RTVSPost2010Prop56
140
1.0
102
RTVSPost2010PropOp56
 70
     1
102
RTVSPost2010Prop57
140
1.0
102
RTVSPost2010PropOp57
 70
     1
  0
XRECORD
  5
322
102
{ACAD_REACTORS
330
321
102
}
330
321
100
AcDbXrecord
280
     1
102
RTVSPropertyOp0
 70
     1
102
RTVSPropertyOp1
 70
     1
102
RTVSPropertyOp2
 70
     1
102
RTVSPropertyOp3
 70
     1
102
RTVSPropertyOp4
 70
     1
102
RTVSPropertyOp5
 70
     1
102
RTVSPropertyOp6
 70
     1
102
RTVSPropertyOp7
 70
     1
102
RTVSPropertyOp8
 70
     1
102
RTVSPropertyOp9
 70
     1
102
RTVSPropertyOp10
 70
     1
102
RTVSPropertyOp11
 70
     1
102
RTVSPropertyOp12
 70
     1
102
RTVSPropertyOp13
 70
     1
102
RTVSPropertyOp14
 70
     1
102
RTVSPropertyOp15
 70
     1
102
RTVSPropertyOp16
 70
     1
102
RTVSPropertyOp17
 70
     1
102
RTVSPropertyOp18
 70
     1
102
RTVSPropertyOp19
 70
     1
102
RTVSPropertyOp20
 70
     1
102
RTVSPropertyOp21
 70
     1
102
RTVSPropertyOp22
 70
     1
102
RTVSPropertyOp23
 70
     1
102
RTVSPropertyOp24
 70
     1
102
RTVSPropertyOp25
 70
     1
102
RTVSPropertyOp26
 70
     1
102
RTVSPropertyOp27
 70
     1
102
RTVSPropertyOp28
 70
     1
102
RTVSPropertyOp29
 70
     1
102
RTVSPropertyOp30
 70
     1
102
RTVSPropertyOp31
 70
     1
102
RTVSPropertyOp32
 70
     1
102
RTVSPropertyOp33
 70
     1
102
RTVSPropertyOp34
 70
     1
102
RTVSPropertyOp35
 70
     1
102
RTVSPropertyOp36
 70
     1
102
RTVSPropertyOp37
 70
     1
102
RTVSPropertyOp38
 70
     1
102
RTVSPropertyOp39
 70
     1
102
RTVSPropertyOp40
 70
     1
102
RTVSPropertyOp41
 70
     1
102
RTVSPropertyOp42
 70
     1
102
RTVSPropertyOp43
 70
     1
102
RTVSPropertyOp44
 70
     1
102
RTVSPropertyOp45
 70
     1
102
RTVSPropertyOp46
 70
     1
102
RTVSPropertyOp47
 70
     1
102
RTVSPropertyOp48
 70
     1
102
RTVSPropertyOp49
 70
     1
102
RTVSPropertyOp50
 70
     1
102
RTVSPropertyOp51
 70
     0
102
RTVSPropertyOp52
 70
     0
102
RTVSPropertyOp53
 70
     1
102
RTVSPropertyOp54
 70
     1
102
RTVSPropertyOp55
 70
     1
102
RTVSPropertyOp56
 70
     1
102
RTVSPropertyOp57
 70
     1
102
RTVSPost2010Prop28
280
     0
102
RTVSPost2010PropOp28
 70
     1
102
RTVSPost2010Prop29
280
     1
102
RTVSPost2010PropOp29
 70
     1
102
RTVSPost2010Prop30
280
     1
102
RTVSPost2010PropOp30
 70
     1
102
RTVSPost2010Prop31
280
     0
102
RTVSPost2010PropOp31
 70
     1
102
RTVSPost2010Prop32
280
     0
102
RTVSPost2010PropOp32
 70
     1
102
RTVSPost2010Prop33
280
     0
102
RTVSPost2010PropOp33
 70
     1
102
RTVSPost2010Prop34
280
     0
102
RTVSPost2010PropOp34
 70
     1
102
RTVSPost2010Prop35
280
     0
102
RTVSPost2010PropOp35
 70
     1
102
RTVSPost2010Prop36
280
     0
102
RTVSPost2010PropOp36
 70
     1
102
RTVSPost2010Prop37
 90
       50
102
RTVSPost2010PropOp37
 70
     1
102
RTVSPost2010Prop38
140
0.0
102
RTVSPost2010PropOp38
 70
     1
102
RTVSPost2010Prop39
140
1.0
102
RTVSPost2010PropOp39
 70
     1
102
RTVSPost2010Prop40
 90
        0
102
RTVSPost2010PropOp40
 70
     1
102
RTVSPost2010Prop41ColorIndex
 90
       18
102
RTVSPost2010Prop41ColorRGB
 90
        0
102
RTVSPost2010PropOp41
 70
     1
102
RTVSPost2010Prop42
 90
       50
102
RTVSPost2010PropOp42
 70
     1
102
RTVSPost2010Prop43
 90
        3
102
RTVSPost2010PropOp43
 70
     1
102
RTVSPost2010Prop44ColorIndex
 90
        5
102
RTVSPost2010Prop44ColorRGB
 90
      255
102
RTVSPost2010PropOp44
 70
     1
102
RTVSPost2010Prop45
280
     0
102
RTVSPost2010PropOp45
 70
     1
102
RTVSPost2010Prop46
 90
       50
102
RTVSPost2010PropOp46
 70
     1
102
RTVSPost2010Prop47
 90
       50
102
RTVSPost2010PropOp47
 70
     1
102
RTVSPost2010Prop48
 90
       50
102
RTVSPost2010PropOp48
 70
     1
102
RTVSPost2010Prop49
280
     0
102
RTVSPost2010PropOp49
 70
     1
102
RTVSPost2010Prop50
 90
       50
102
RTVSPost2010PropOp50
 70
     1
102
RTVSPost2010Prop51ColorIndex
 90
      256
102
RTVSPost2010Prop51ColorRGB
 90
-16777216
102
RTVSPost2010PropOp51
 70
     0
102
RTVSPost2010Prop52
140
1.0
102
RTVSPost2010PropOp52
 70
     0
102
RTVSPost2010Prop53
 90
        2
102
RTVSPost2010PropOp53
 70
     1
102
RTVSPost2010Prop54
  1
strokes_ogs.tif
102
RTVSPost2010PropOp54
 70
     1
102
RTVSPost2010Prop55
280
     0
102
RTVSPost2010PropOp55
 70
     1
102
RTVSPost2010Prop56
140
1.0
102
RTVSPost2010PropOp56
 70
     1
102
RTVSPost2010Prop57
140
1.0
102
RTVSPost2010PropOp57
 70
     1
  0
XRECORD
  5
314
102
{ACAD_REACTORS
330
313
102
}
330
313
100
AcDbXrecord
280
     1
102
RTVSPropertyOp0
 70
     1
102
RTVSPropertyOp1
 70
     1
102
RTVSPropertyOp2
 70
     1
102
RTVSPropertyOp3
 70
     1
102
RTVSPropertyOp4
 70
     1
102
RTVSPropertyOp5
 70
     1
102
RTVSPropertyOp6
 70
     1
102
RTVSPropertyOp7
 70
     1
102
RTVSPropertyOp8
 70
     1
102
RTVSPropertyOp9
 70
     1
102
RTVSPropertyOp10
 70
     1
102
RTVSPropertyOp11
 70
     1
102
RTVSPropertyOp12
 70
     1
102
RTVSPropertyOp13
 70
     1
102
RTVSPropertyOp14
 70
     1
102
RTVSPropertyOp15
 70
     1
102
RTVSPropertyOp16
 70
     1
102
RTVSPropertyOp17
 70
     1
102
RTVSPropertyOp18
 70
     1
102
RTVSPropertyOp19
 70
     1
102
RTVSPropertyOp20
 70
     1
102
RTVSPropertyOp21
 70
     1
102
RTVSPropertyOp22
 70
     1
102
RTVSPropertyOp23
 70
     1
102
RTVSPropertyOp24
 70
     1
102
RTVSPropertyOp25
 70
     1
102
RTVSPropertyOp26
 70
     1
102
RTVSPropertyOp27
 70
     1
102
RTVSPropertyOp28
 70
     1
102
RTVSPropertyOp29
 70
     1
102
RTVSPropertyOp30
 70
     1
102
RTVSPropertyOp31
 70
     1
102
RTVSPropertyOp32
 70
     1
102
RTVSPropertyOp33
 70
     1
102
RTVSPropertyOp34
 70
     1
102
RTVSPropertyOp35
 70
     1
102
RTVSPropertyOp36
 70
     1
102
RTVSPropertyOp37
 70
     1
102
RTVSPropertyOp38
 70
     1
102
RTVSPropertyOp39
 70
     1
102
RTVSPropertyOp40
 70
     1
102
RTVSPropertyOp41
 70
     1
102
RTVSPropertyOp42
 70
     1
102
RTVSPropertyOp43
 70
     1
102
RTVSPropertyOp44
 70
     1
102
RTVSPropertyOp45
 70
     1
102
RTVSPropertyOp46
 70
     1
102
RTVSPropertyOp47
 70
     1
102
RTVSPropertyOp48
 70
     1
102
RTVSPropertyOp49
 70
     1
102
RTVSPropertyOp50
 70
     1
102
RTVSPropertyOp51
 70
     0
102
RTVSPropertyOp52
 70
     0
102
RTVSPropertyOp53
 70
     1
102
RTVSPropertyOp54
 70
     1
102
RTVSPropertyOp55
 70
     1
102
RTVSPropertyOp56
 70
     1
102
RTVSPropertyOp57
 70
     1
102
RTVSPost2010Prop28
280
     0
102
RTVSPost2010PropOp28
 70
     1
102
RTVSPost2010Prop29
280
     1
102
RTVSPost2010PropOp29
 70
     1
102
RTVSPost2010Prop30
280
     1
102
RTVSPost2010PropOp30
 70
     1
102
RTVSPost2010Prop31
280
     0
102
RTVSPost2010PropOp31
 70
     1
102
RTVSPost2010Prop32
280
     0
102
RTVSPost2010PropOp32
 70
     1
102
RTVSPost2010Prop33
280
     0
102
RTVSPost2010PropOp33
 70
     1
102
RTVSPost2010Prop34
280
     0
102
RTVSPost2010PropOp34
 70
     1
102
RTVSPost2010Prop35
280
     0
102
RTVSPost2010PropOp35
 70
     1
102
RTVSPost2010Prop36
280
     0
102
RTVSPost2010PropOp36
 70
     1
102
RTVSPost2010Prop37
 90
       50
102
RTVSPost2010PropOp37
 70
     1
102
RTVSPost2010Prop38
140
0.0
102
RTVSPost2010PropOp38
 70
     1
102
RTVSPost2010Prop39
140
1.0
102
RTVSPost2010PropOp39
 70
     1
102
RTVSPost2010Prop40
 90
        0
102
RTVSPost2010PropOp40
 70
     1
102
RTVSPost2010Prop41ColorIndex
 90
       18
102
RTVSPost2010Prop41ColorRGB
 90
        0
102
RTVSPost2010PropOp41
 70
     1
102
RTVSPost2010Prop42
 90
       50
102
RTVSPost2010PropOp42
 70
     1
102
RTVSPost2010Prop43
 90
        3
102
RTVSPost2010PropOp43
 70
     1
102
RTVSPost2010Prop44ColorIndex
 90
        5
102
RTVSPost2010Prop44ColorRGB
 90
      255
102
RTVSPost2010PropOp44
 70
     1
102
RTVSPost2010Prop45
280
     0
102
RTVSPost2010PropOp45
 70
     1
102
RTVSPost2010Prop46
 90
       50
102
RTVSPost2010PropOp46
 70
     1
102
RTVSPost2010Prop47
 90
       50
102
RTVSPost2010PropOp47
 70
     1
102
RTVSPost2010Prop48
 90
       50
102
RTVSPost2010PropOp48
 70
     1
102
RTVSPost2010Prop49
280
     0
102
RTVSPost2010PropOp49
 70
     1
102
RTVSPost2010Prop50
 90
       50
102
RTVSPost2010PropOp50
 70
     1
102
RTVSPost2010Prop51ColorIndex
 90
      256
102
RTVSPost2010Prop51ColorRGB
 90
-16777216
102
RTVSPost2010PropOp51
 70
     0
102
RTVSPost2010Prop52
140
1.0
102
RTVSPost2010PropOp52
 70
     0
102
RTVSPost2010Prop53
 90
        2
102
RTVSPost2010PropOp53
 70
     1
102
RTVSPost2010Prop54
  1
strokes_ogs.tif
102
RTVSPost2010PropOp54
 70
     1
102
RTVSPost2010Prop55
280
     0
102
RTVSPost2010PropOp55
 70
     1
102
RTVSPost2010Prop56
140
1.0
102
RTVSPost2010PropOp56
 70
     1
102
RTVSPost2010Prop57
140
1.0
102
RTVSPost2010PropOp57
 70
     1
  0
XRECORD
  5
334
102
{ACAD_REACTORS
330
333
102
}
330
333
100
AcDbXrecord
280
     1
102
RTVSPropertyOp0
 70
     1
102
RTVSPropertyOp1
 70
     1
102
RTVSPropertyOp2
 70
     1
102
RTVSPropertyOp3
 70
     1
102
RTVSPropertyOp4
 70
     1
102
RTVSPropertyOp5
 70
     1
102
RTVSPropertyOp6
 70
     1
102
RTVSPropertyOp7
 70
     1
102
RTVSPropertyOp8
 70
     1
102
RTVSPropertyOp9
 70
     1
102
RTVSPropertyOp10
 70
     1
102
RTVSPropertyOp11
 70
     1
102
RTVSPropertyOp12
 70
     1
102
RTVSPropertyOp13
 70
     1
102
RTVSPropertyOp14
 70
     1
102
RTVSPropertyOp15
 70
     1
102
RTVSPropertyOp16
 70
     1
102
RTVSPropertyOp17
 70
     1
102
RTVSPropertyOp18
 70
     1
102
RTVSPropertyOp19
 70
     1
102
RTVSPropertyOp20
 70
     1
102
RTVSPropertyOp21
 70
     1
102
RTVSPropertyOp22
 70
     1
102
RTVSPropertyOp23
 70
     1
102
RTVSPropertyOp24
 70
     1
102
RTVSPropertyOp25
 70
     1
102
RTVSPropertyOp26
 70
     1
102
RTVSPropertyOp27
 70
     1
102
RTVSPropertyOp28
 70
     1
102
RTVSPropertyOp29
 70
     1
102
RTVSPropertyOp30
 70
     1
102
RTVSPropertyOp31
 70
     1
102
RTVSPropertyOp32
 70
     1
102
RTVSPropertyOp33
 70
     1
102
RTVSPropertyOp34
 70
     1
102
RTVSPropertyOp35
 70
     1
102
RTVSPropertyOp36
 70
     1
102
RTVSPropertyOp37
 70
     1
102
RTVSPropertyOp38
 70
     1
102
RTVSPropertyOp39
 70
     1
102
RTVSPropertyOp40
 70
     1
102
RTVSPropertyOp41
 70
     1
102
RTVSPropertyOp42
 70
     1
102
RTVSPropertyOp43
 70
     1
102
RTVSPropertyOp44
 70
     1
102
RTVSPropertyOp45
 70
     1
102
RTVSPropertyOp46
 70
     1
102
RTVSPropertyOp47
 70
     1
102
RTVSPropertyOp48
 70
     1
102
RTVSPropertyOp49
 70
     1
102
RTVSPropertyOp50
 70
     1
102
RTVSPropertyOp51
 70
     0
102
RTVSPropertyOp52
 70
     0
102
RTVSPropertyOp53
 70
     1
102
RTVSPropertyOp54
 70
     1
102
RTVSPropertyOp55
 70
     1
102
RTVSPropertyOp56
 70
     1
102
RTVSPropertyOp57
 70
     1
102
RTVSPost2010Prop28
280
     0
102
RTVSPost2010PropOp28
 70
     1
102
RTVSPost2010Prop29
280
     1
102
RTVSPost2010PropOp29
 70
     1
102
RTVSPost2010Prop30
280
     1
102
RTVSPost2010PropOp30
 70
     1
102
RTVSPost2010Prop31
280
     0
102
RTVSPost2010PropOp31
 70
     1
102
RTVSPost2010Prop32
280
     0
102
RTVSPost2010PropOp32
 70
     1
102
RTVSPost2010Prop33
280
     0
102
RTVSPost2010PropOp33
 70
     1
102
RTVSPost2010Prop34
280
     0
102
RTVSPost2010PropOp34
 70
     1
102
RTVSPost2010Prop35
280
     0
102
RTVSPost2010PropOp35
 70
     1
102
RTVSPost2010Prop36
280
     0
102
RTVSPost2010PropOp36
 70
     1
102
RTVSPost2010Prop37
 90
       50
102
RTVSPost2010PropOp37
 70
     1
102
RTVSPost2010Prop38
140
0.0
102
RTVSPost2010PropOp38
 70
     1
102
RTVSPost2010Prop39
140
1.0
102
RTVSPost2010PropOp39
 70
     1
102
RTVSPost2010Prop40
 90
        0
102
RTVSPost2010PropOp40
 70
     1
102
RTVSPost2010Prop41ColorIndex
 90
       18
102
RTVSPost2010Prop41ColorRGB
 90
        0
102
RTVSPost2010PropOp41
 70
     1
102
RTVSPost2010Prop42
 90
       50
102
RTVSPost2010PropOp42
 70
     1
102
RTVSPost2010Prop43
 90
        3
102
RTVSPost2010PropOp43
 70
     1
102
RTVSPost2010Prop44ColorIndex
 90
        5
102
RTVSPost2010Prop44ColorRGB
 90
      255
102
RTVSPost2010PropOp44
 70
     1
102
RTVSPost2010Prop45
280
     0
102
RTVSPost2010PropOp45
 70
     1
102
RTVSPost2010Prop46
 90
       50
102
RTVSPost2010PropOp46
 70
     1
102
RTVSPost2010Prop47
 90
       50
102
RTVSPost2010PropOp47
 70
     1
102
RTVSPost2010Prop48
 90
       50
102
RTVSPost2010PropOp48
 70
     1
102
RTVSPost2010Prop49
280
     0
102
RTVSPost2010PropOp49
 70
     1
102
RTVSPost2010Prop50
 90
       50
102
RTVSPost2010PropOp50
 70
     1
102
RTVSPost2010Prop51ColorIndex
 90
      256
102
RTVSPost2010Prop51ColorRGB
 90
-16777216
102
RTVSPost2010PropOp51
 70
     0
102
RTVSPost2010Prop52
140
1.0
102
RTVSPost2010PropOp52
 70
     0
102
RTVSPost2010Prop53
 90
        2
102
RTVSPost2010PropOp53
 70
     1
102
RTVSPost2010Prop54
  1
strokes_ogs.tif
102
RTVSPost2010PropOp54
 70
     1
102
RTVSPost2010Prop55
280
     0
102
RTVSPost2010PropOp55
 70
     1
102
RTVSPost2010Prop56
140
1.0
102
RTVSPost2010PropOp56
 70
     1
102
RTVSPost2010Prop57
140
1.0
102
RTVSPost2010PropOp57
 70
     1
  0
ENDSEC
  0
EOF
