  0
SECTION
  2
HEADER
  9
$ACADVER
  1
AC1015
  9
$ACADMAINTVER
 70
     6
  9
$DWGCODEPAGE
  3
ANSI_932
  9
$INSBASE
 10
0.0
 20
0.0
 30
0.0
  9
$EXTMIN
 10
-2100.0
 20
-1485.0
 30
0.0
  9
$EXTMAX
 10
2100.0
 20
1485.0
 30
0.0
  9
$LIMMIN
 10
-2100.0
 20
-1485.0
  9
$LIMMAX
 10
2100.0
 20
1485.0
  9
$ORTHOMODE
 70
     0
  9
$REGENMODE
 70
     1
  9
$FILLMODE
 70
     1
  9
$QTEXTMODE
 70
     0
  9
$MIRRTEXT
 70
     1
  9
$LTSCALE
 40
10.0
  9
$ATTMODE
 70
     1
  9
$TEXTSIZE
 40
2.5
  9
$TRACEWID
 40
1.0
  9
$TEXTSTYLE
  7
Standard
  9
$CLAYER
  8
0
  9
$CELTYPE
  6
ByLayer
  9
$CECOLOR
 62
   256
  9
$CELTSCALE
 40
1.0
  9
$DISPSILH
 70
     0
  9
$DIMSCALE
 40
1.0
  9
$DIMASZ
 40
2.5
  9
$DIMEXO
 40
0.625
  9
$DIMDLI
 40
3.75
  9
$DIMRND
 40
0.0
  9
$DIMDLE
 40
0.0
  9
$DIMEXE
 40
1.25
  9
$DIMTP
 40
0.0
  9
$DIMTM
 40
0.0
  9
$DIMTXT
 40
2.5
  9
$DIMCEN
 40
2.5
  9
$DIMTSZ
 40
0.0
  9
$DIMTOL
 70
     0
  9
$DIMLIM
 70
     0
  9
$DIMTIH
 70
     0
  9
$DIMTOH
 70
     0
  9
$DIMSE1
 70
     0
  9
$DIMSE2
 70
     0
  9
$DIMTAD
 70
     1
  9
$DIMZIN
 70
     8
  9
$DIMBLK
  1

  9
$DIMASO
 70
     1
  9
$DIMSHO
 70
     1
  9
$DIMPOST
  1

  9
$DIMAPOST
  1

  9
$DIMALT
 70
     0
  9
$DIMALTD
 70
     3
  9
$DIMALTF
 40
0.03937007874016
  9
$DIMLFAC
 40
1.0
  9
$DIMTOFL
 70
     1
  9
$DIMTVP
 40
0.0
  9
$DIMTIX
 70
     0
  9
$DIMSOXD
 70
     0
  9
$DIMSAH
 70
     0
  9
$DIMBLK1
  1

  9
$DIMBLK2
  1

  9
$DIMSTYLE
  2
ISO-25
  9
$DIMCLRD
 70
     0
  9
$DIMCLRE
 70
     0
  9
$DIMCLRT
 70
     0
  9
$DIMTFAC
 40
1.0
  9
$DIMGAP
 40
0.625
  9
$DIMJUST
 70
     0
  9
$DIMSD1
 70
     0
  9
$DIMSD2
 70
     0
  9
$DIMTOLJ
 70
     0
  9
$DIMTZIN
 70
     8
  9
$DIMALTZ
 70
     0
  9
$DIMALTTZ
 70
     0
  9
$DIMUPT
 70
     0
  9
$DIMDEC
 70
     2
  9
$DIMTDEC
 70
     2
  9
$DIMALTU
 70
     2
  9
$DIMALTTD
 70
     3
  9
$DIMTXSTY
  7
Standard
  9
$DIMAUNIT
 70
     0
  9
$DIMADEC
 70
     0
  9
$DIMALTRND
 40
0.0
  9
$DIMAZIN
 70
     0
  9
$DIMDSEP
 70
    44
  9
$DIMATFIT
 70
     3
  9
$DIMFRAC
 70
     0
  9
$DIMLDRBLK
  1

  9
$DIMLUNIT
 70
     2
  9
$DIMLWD
 70
    -2
  9
$DIMLWE
 70
    -2
  9
$DIMTMOVE
 70
     0
  9
$LUNITS
 70
     2
  9
$LUPREC
 70
     4
  9
$SKETCHINC
 40
1.0
  9
$FILLETRAD
 40
10.0
  9
$AUNITS
 70
     0
  9
$AUPREC
 70
     0
  9
$MENU
  1
.
  9
$ELEVATION
 40
0.0
  9
$PELEVATION
 40
0.0
  9
$THICKNESS
 40
0.0
  9
$LIMCHECK
 70
     0
  9
$CHAMFERA
 40
10.0
  9
$CHAMFERB
 40
10.0
  9
$CHAMFERC
 40
20.0
  9
$CHAMFERD
 40
0.0
  9
$SKPOLY
 70
     0
  9
$TDCREATE
 40
2456904.769377905
  9
$TDUCREATE
 40
2456904.394377905
  9
$TDUPDATE
 40
2456904.769377917
  9
$TDUUPDATE
 40
2456904.394377917
  9
$TDINDWG
 40
0.0000000116
  9
$TDUSRTIMER
 40
0.0000000116
  9
$USRTIMER
 70
     1
  9
$ANGBASE
 50
0.0
  9
$ANGDIR
 70
     0
  9
$PDMODE
 70
     0
  9
$PDSIZE
 40
0.0
  9
$PLINEWID
 40
0.0
  9
$SPLFRAME
 70
     0
  9
$SPLINETYPE
 70
     6
  9
$SPLINESEGS
 70
     8
  9
$HANDSEED
  5
369
  9
$SURFTAB1
 70
     6
  9
$SURFTAB2
 70
     6
  9
$SURFTYPE
 70
     6
  9
$SURFU
 70
     6
  9
$SURFV
 70
     6
  9
$UCSBASE
  2

  9
$UCSNAME
  2

  9
$UCSORG
 10
0.0
 20
0.0
 30
0.0
  9
$UCSXDIR
 10
1.0
 20
0.0
 30
0.0
  9
$UCSYDIR
 10
0.0
 20
1.0
 30
0.0
  9
$UCSORTHOREF
  2

  9
$UCSORTHOVIEW
 70
     0
  9
$UCSORGTOP
 10
0.0
 20
0.0
 30
0.0
  9
$UCSORGBOTTOM
 10
0.0
 20
0.0
 30
0.0
  9
$UCSORGLEFT
 10
0.0
 20
0.0
 30
0.0
  9
$UCSORGRIGHT
 10
0.0
 20
0.0
 30
0.0
  9
$UCSORGFRONT
 10
0.0
 20
0.0
 30
0.0
  9
$UCSORGBACK
 10
0.0
 20
0.0
 30
0.0
  9
$PUCSBASE
  2

  9
$PUCSNAME
  2

  9
$PUCSORG
 10
0.0
 20
0.0
 30
0.0
  9
$PUCSXDIR
 10
1.0
 20
0.0
 30
0.0
  9
$PUCSYDIR
 10
0.0
 20
1.0
 30
0.0
  9
$PUCSORTHOREF
  2

  9
$PUCSORTHOVIEW
 70
     0
  9
$PUCSORGTOP
 10
0.0
 20
0.0
 30
0.0
  9
$PUCSORGBOTTOM
 10
0.0
 20
0.0
 30
0.0
  9
$PUCSORGLEFT
 10
0.0
 20
0.0
 30
0.0
  9
$PUCSORGRIGHT
 10
0.0
 20
0.0
 30
0.0
  9
$PUCSORGFRONT
 10
0.0
 20
0.0
 30
0.0
  9
$PUCSORGBACK
 10
0.0
 20
0.0
 30
0.0
  9
$USERI1
 70
     0
  9
$USERI2
 70
     0
  9
$USERI3
 70
     0
  9
$USERI4
 70
     0
  9
$USERI5
 70
     0
  9
$USERR1
 40
0.0
  9
$USERR2
 40
0.0
  9
$USERR3
 40
0.0
  9
$USERR4
 40
0.0
  9
$USERR5
 40
0.0
  9
$WORLDVIEW
 70
     1
  9
$SHADEDGE
 70
     3
  9
$SHADEDIF
 70
    70
  9
$TILEMODE
 70
     1
  9
$MAXACTVP
 70
    64
  9
$PINSBASE
 10
0.0
 20
0.0
 30
0.0
  9
$PLIMCHECK
 70
     0
  9
$PEXTMIN
 10
1.000000000000000E+20
 20
1.000000000000000E+20
 30
1.000000000000000E+20
  9
$PEXTMAX
 10
-1.000000000000000E+20
 20
-1.000000000000000E+20
 30
-1.000000000000000E+20
  9
$PLIMMIN
 10
0.0
 20
0.0
  9
$PLIMMAX
 10
420.0
 20
297.0
  9
$UNITMODE
 70
     0
  9
$VISRETAIN
 70
     1
  9
$PLINEGEN
 70
     0
  9
$PSLTSCALE
 70
     1
  9
$TREEDEPTH
 70
  3020
  9
$CMLSTYLE
  2
Standard
  9
$CMLJUST
 70
     0
  9
$CMLSCALE
 40
20.0
  9
$PROXYGRAPHICS
 70
     1
  9
$MEASUREMENT
 70
     1
  9
$CELWEIGHT
370
    -1
  9
$ENDCAPS
280
     0
  9
$JOINSTYLE
280
     0
  9
$LWDISPLAY
290
     0
  9
$INSUNITS
 70
     4
  9
$HYPERLINKBASE
  1

  9
$STYLESHEET
  1

  9
$XEDIT
290
     1
  9
$CEPSNTYPE
380
     0
  9
$PSTYLEMODE
290
     1
  9
$FINGERPRINTGUID
  2
{7E0D192A-5F68-4067-AE3D-4E279D12EB60}
  9
$VERSIONGUID
  2
{FAEB1C32-E019-11D5-929B-00C0DF256EC4}
  9
$EXTNAMES
290
     1
  9
$PSVPSCALE
 40
0.0
  9
$OLESTARTUP
290
     0
  0
ENDSEC
  0
SECTION
  2
CLASSES
  0
CLASS
  1
ACDBDICTIONARYWDFLT
  2
AcDbDictionaryWithDefault
  3
ObjectDBX Classes
 90
        0
280
     0
281
     0
  0
CLASS
  1
VISUALSTYLE
  2
AcDbVisualStyle
  3
ObjectDBX Classes
 90
     4095
280
     0
281
     0
  0
CLASS
  1
DICTIONARYVAR
  2
AcDbDictionaryVar
  3
ObjectDBX Classes
 90
        0
280
     0
281
     0
  0
CLASS
  1
ACDBPLACEHOLDER
  2
AcDbPlaceHolder
  3
ObjectDBX Classes
 90
        0
280
     0
281
     0
  0
CLASS
  1
LAYOUT
  2
AcDbLayout
  3
ObjectDBX Classes
 90
        0
280
     0
281
     0
  0
ENDSEC
  0
SECTION
  2
TABLES
  0
TABLE
  2
VPORT
  5
8
330
0
100
AcDbSymbolTable
 70
     1
  0
VPORT
  5
29
330
8
100
AcDbSymbolTableRecord
100
AcDbViewportTableRecord
  2
*Active
 70
     0
 10
0.0
 20
0.0
 11
1.0
 21
1.0
 12
0.0
 22
0.0
 13
0.0
 23
0.0
 14
10.0
 24
10.0
 15
10.0
 25
10.0
 16
0.0
 26
0.0
 36
1.0
 17
0.0
 27
0.0
 37
0.0
 40
3267.0
 41
1.414141414141414
 42
50.0
 43
0.0
 44
0.0
 50
0.0
 51
0.0
 71
     0
 72
 10000
 73
     1
 74
     3
 75
     0
 76
     0
 77
     0
 78
     0
281
     0
 65
     1
110
0.0
120
0.0
130
0.0
111
1.0
121
0.0
131
0.0
112
0.0
122
1.0
132
0.0
 79
     0
146
0.0
  0
ENDTAB
  0
TABLE
  2
LTYPE
  5
5
330
0
100
AcDbSymbolTable
 70
     6
  0
LTYPE
  5
14
330
5
100
AcDbSymbolTableRecord
100
AcDbLinetypeTableRecord
  2
ByBlock
 70
     0
  3

 72
    65
 73
     0
 40
0.0
  0
LTYPE
  5
15
330
5
100
AcDbSymbolTableRecord
100
AcDbLinetypeTableRecord
  2
ByLayer
 70
     0
  3

 72
    65
 73
     0
 40
0.0
  0
LTYPE
  5
16
330
5
100
AcDbSymbolTableRecord
100
AcDbLinetypeTableRecord
  2
Continuous
 70
     0
  3
Solid line
 72
    65
 73
     0
 40
0.0
  0
LTYPE
  5
3C
330
5
100
AcDbSymbolTableRecord
100
AcDbLinetypeTableRecord
  2
JWW_CENTER1
 70
     0
  3
-----  --  ----------  --  -----
 72
    65
 73
     4
 40
6.773333333333333
 49
4.233333333333333
 74
     0
 49
-0.8466666666666667
 74
     0
 49
0.8466666666666667
 74
     0
 49
-0.8466666666666667
 74
     0
  0
LTYPE
  5
3D
330
5
100
AcDbSymbolTableRecord
100
AcDbLinetypeTableRecord
  2
JWW_CENTER2
 70
     0
  3
-------------  --  -------------
 72
    65
 73
     4
 40
13.54666666666667
 49
11.00666666666667
 74
     0
 49
-0.8466666666666667
 74
     0
 49
0.8466666666666667
 74
     0
 49
-0.8466666666666667
 74
     0
  0
LTYPE
  5
3E
330
5
100
AcDbSymbolTableRecord
100
AcDbLinetypeTableRecord
  2
JWW_PHANTOM1
 70
     0
  3
----  -  -  --------  -  -  ----
 72
    65
 73
     6
 40
6.773333333333333
 49
3.386666666666667
 74
     0
 49
-0.8466666666666667
 74
     0
 49
0.4233333333333333
 74
     0
 49
-0.8466666666666667
 74
     0
 49
0.4233333333333333
 74
     0
 49
-0.8466666666666667
 74
     0
  0
LTYPE
  5
3F
330
5
100
AcDbSymbolTableRecord
100
AcDbLinetypeTableRecord
  2
JWW_DASHED3
 70
     0
  3
---  ------  ------  ------  ---
 72
    65
 73
     2
 40
3.386666666666667
 49
2.54
 74
     0
 49
-0.8466666666666667
 74
     0
  0
LTYPE
  5
40
330
5
100
AcDbSymbolTableRecord
100
AcDbLinetypeTableRecord
  2
JWW_DASHED2
 70
     0
  3
--    ----    ----    ----    --
 72
    65
 73
     2
 40
3.386666666666667
 49
1.693333333333333
 74
     0
 49
-1.693333333333333
 74
     0
  0
ENDTAB
  0
TABLE
  2
LAYER
  5
2
330
0
100
AcDbSymbolTable
 70
    17
  0
LAYER
  5
10
330
2
100
AcDbSymbolTableRecord
100
AcDbLayerTableRecord
  2
0
 70
     0
 62
     7
  6
Continuous
370
    -3
390
F
  0
LAYER
  5
41
330
2
100
AcDbSymbolTableRecord
100
AcDbLayerTableRecord
  2
C-1
 70
     0
 62
     7
  6
Continuous
370
    -3
390
F
  0
LAYER
  5
42
330
2
100
AcDbSymbolTableRecord
100
AcDbLayerTableRecord
  2
C-4
 70
     0
 62
     7
  6
Continuous
370
    -3
390
F
  0
LAYER
  5
43
330
2
100
AcDbSymbolTableRecord
100
AcDbLayerTableRecord
  2
C-0
 70
     0
 62
     7
  6
Continuous
370
    -3
390
F
  0
LAYER
  5
44
330
2
100
AcDbSymbolTableRecord
100
AcDbLayerTableRecord
  2
C-2
 70
     0
 62
     7
  6
Continuous
370
    -3
390
F
  0
LAYER
  5
45
330
2
100
AcDbSymbolTableRecord
100
AcDbLayerTableRecord
  2
C-A
 70
     0
 62
     7
  6
Continuous
370
    -3
390
F
  0
LAYER
  5
46
330
2
100
AcDbSymbolTableRecord
100
AcDbLayerTableRecord
  2
C-5
 70
     0
 62
     7
  6
Continuous
370
    -3
390
F
  0
LAYER
  5
47
330
2
100
AcDbSymbolTableRecord
100
AcDbLayerTableRecord
  2
F-5
 70
     0
 62
     7
  6
Continuous
370
    -3
390
F
  0
LAYER
  5
48
330
2
100
AcDbSymbolTableRecord
100
AcDbLayerTableRecord
  2
D-4
 70
     0
 62
     7
  6
Continuous
370
    -3
390
F
  0
LAYER
  5
49
330
2
100
AcDbSymbolTableRecord
100
AcDbLayerTableRecord
  2
D-6
 70
     0
 62
     7
  6
Continuous
370
    -3
390
F
  0
LAYER
  5
4A
330
2
100
AcDbSymbolTableRecord
100
AcDbLayerTableRecord
  2
D-5
 70
     0
 62
     7
  6
Continuous
370
    -3
390
F
  0
LAYER
  5
4B
330
2
100
AcDbSymbolTableRecord
100
AcDbLayerTableRecord
  2
D-0
 70
     0
 62
     7
  6
Continuous
370
    -3
390
F
  0
LAYER
  5
4C
330
2
100
AcDbSymbolTableRecord
100
AcDbLayerTableRecord
  2
D-9
 70
     0
 62
     7
  6
Continuous
370
    -3
390
F
  0
LAYER
  5
4D
330
2
100
AcDbSymbolTableRecord
100
AcDbLayerTableRecord
  2
D-1
 70
     0
 62
     7
  6
Continuous
370
    -3
390
F
  0
LAYER
  5
4E
330
2
100
AcDbSymbolTableRecord
100
AcDbLayerTableRecord
  2
D-3
 70
     0
 62
     7
  6
Continuous
370
    -3
390
F
  0
LAYER
  5
4F
330
2
100
AcDbSymbolTableRecord
100
AcDbLayerTableRecord
  2
D-A
 70
     0
 62
     7
  6
Continuous
370
    -3
390
F
  0
LAYER
  5
50
330
2
100
AcDbSymbolTableRecord
100
AcDbLayerTableRecord
  2
D-2
 70
     0
 62
     7
  6
Continuous
370
    -3
390
F
  0
ENDTAB
  0
TABLE
  2
STYLE
  5
3
330
0
100
AcDbSymbolTable
 70
     2
  0
STYLE
  5
11
330
3
100
AcDbSymbolTableRecord
100
AcDbTextStyleTableRecord
  2
Standard
 70
     0
 40
0.0
 41
1.0
 50
0.0
 71
     0
 42
2.5
  3
txt
  4

1001
ACAD
1000

1071
        0
  0
STYLE
  5
3B
330
3
100
AcDbSymbolTableRecord
100
AcDbTextStyleTableRecord
  2
ＭＳ ゴシック
 70
     0
 40
1.0
 41
1.0
 50
0.0
 71
     0
 42
10.0
  3

  4

1001
ACAD
1000
MS Gothic
1071
    32817
  0
ENDTAB
  0
TABLE
  2
VIEW
  5
6
330
0
100
AcDbSymbolTable
 70
     0
  0
ENDTAB
  0
TABLE
  2
UCS
  5
7
330
0
100
AcDbSymbolTable
 70
     0
  0
ENDTAB
  0
TABLE
  2
APPID
  5
9
330
0
100
AcDbSymbolTable
 70
     1
  0
APPID
  5
12
330
9
100
AcDbSymbolTableRecord
100
AcDbRegAppTableRecord
  2
ACAD
 70
     0
  0
ENDTAB
  0
TABLE
  2
DIMSTYLE
  5
A
330
0
100
AcDbSymbolTable
 70
     1
100
AcDbDimStyleTable
  0
DIMSTYLE
105
27
330
A
100
AcDbSymbolTableRecord
100
AcDbDimStyleTableRecord
  2
ISO-25
 70
     0
 41
2.5
 42
0.625
 43
3.75
 44
1.25
 73
     0
 74
     0
 77
     1
 78
     8
140
2.5
141
2.5
143
0.03937007874016
147
0.625
171
     3
172
     1
271
     2
272
     2
274
     3
278
    44
283
     0
284
     8
340
11
  0
ENDTAB
  0
TABLE
  2
BLOCK_RECORD
  5
1
330
0
100
AcDbSymbolTable
 70
     1
  0
BLOCK_RECORD
  5
1F
330
1
100
AcDbSymbolTableRecord
100
AcDbBlockTableRecord
  2
*Model_Space
340
22
  0
BLOCK_RECORD
  5
1B
330
1
100
AcDbSymbolTableRecord
100
AcDbBlockTableRecord
  2
*Paper_Space
340
1E
  0
BLOCK_RECORD
  5
23
330
1
100
AcDbSymbolTableRecord
100
AcDbBlockTableRecord
  2
*Paper_Space0
340
26
  0
ENDTAB
  0
ENDSEC
  0
SECTION
  2
BLOCKS
  0
BLOCK
  5
20
330
1F
100
AcDbEntity
  8
0
100
AcDbBlockBegin
  2
*Model_Space
 70
     0
 10
0.0
 20
0.0
 30
0.0
  3
*Model_Space
  1

  0
ENDBLK
  5
21
330
1F
100
AcDbEntity
  8
0
100
AcDbBlockEnd
  0
BLOCK
  5
1C
330
1B
100
AcDbEntity
 67
     1
  8
0
100
AcDbBlockBegin
  2
*Paper_Space
 70
     0
 10
0.0
 20
0.0
 30
0.0
  3
*Paper_Space
  1

  0
ENDBLK
  5
1D
330
1B
100
AcDbEntity
 67
     1
  8
0
100
AcDbBlockEnd
  0
BLOCK
  5
24
330
23
100
AcDbEntity
  8
0
100
AcDbBlockBegin
  2
*Paper_Space0
 70
     0
 10
0.0
 20
0.0
 30
0.0
  3
*Paper_Space0
  1

  0
ENDBLK
  5
25
330
23
100
AcDbEntity
  8
0
100
AcDbBlockEnd
  0
ENDSEC
  0
SECTION
  2
ENTITIES
  0
LINE
  5
51
330
1F
100
AcDbEntity
  8
C-1
  6
Continuous
 62
     2
370
     9
100
AcDbLine
 10
-1500.499877929688
 20
416.4203905672641
 30
0.0
 11
300.0001220703125
 21
416.4203905672641
 31
0.0
  0
LINE
  5
52
330
1F
100
AcDbEntity
  8
C-4
  6
Continuous
 62
     7
370
     9
100
AcDbLine
 10
786.24853515625
 20
181.8917269320102
 30
0.0
 11
786.24853515625
 21
246.8912882418246
 31
0.0
  0
LINE
  5
53
330
1F
100
AcDbEntity
  8
C-4
  6
Continuous
 62
     7
370
     9
100
AcDbLine
 10
786.24853515625
 20
246.8912882418246
 30
0.0
 11
1361.24853515625
 21
246.8912882418246
 31
0.0
  0
LINE
  5
54
330
1F
100
AcDbEntity
  8
C-4
  6
Continuous
 62
     7
370
     9
100
AcDbLine
 10
1361.24853515625
 20
246.8912882418246
 30
0.0
 11
1361.24853515625
 21
181.8917269320102
 31
0.0
  0
LINE
  5
55
330
1F
100
AcDbEntity
  8
C-4
  6
Continuous
 62
     7
370
     9
100
AcDbLine
 10
1361.24853515625
 20
181.8917269320102
 30
0.0
 11
786.24853515625
 21
181.8917269320102
 31
0.0
  0
LINE
  5
56
330
1F
100
AcDbEntity
  8
C-4
  6
Continuous
 62
     7
370
     9
100
AcDbLine
 10
463.4067382812501
 20
783.1292376131626
 30
0.0
 11
793.30322265625
 21
783.1292376131626
 31
0.0
  0
LINE
  5
57
330
1F
100
AcDbEntity
  8
C-4
  6
Continuous
 62
     7
370
     9
100
AcDbLine
 10
522.2313232421874
 20
352.2353853792758
 30
0.0
 11
865.4013671875
 21
352.2353853792758
 31
0.0
  0
LINE
  5
58
330
1F
100
AcDbEntity
  8
C-4
  6
Continuous
 62
     7
370
     9
100
AcDbLine
 10
523.5289306640624
 20
514.8695482821079
 30
0.0
 11
857.85986328125
 21
514.8695482821079
 31
0.0
  0
LINE
  5
59
330
1F
100
AcDbEntity
  8
C-0
  6
Continuous
 62
     3
370
     9
100
AcDbLine
 10
1288.613525390625
 20
1119.577815494022
 30
0.0
 11
848.6134033203126
 21
1119.577815494022
 31
0.0
  0
LINE
  5
5A
330
1F
100
AcDbEntity
  8
C-0
  6
Continuous
 62
     3
370
     9
100
AcDbLine
 10
1298.613525390625
 20
954.5777544588657
 30
0.0
 11
1298.613525390625
 21
1109.577754458866
 31
0.0
  0
LINE
  5
5B
330
1F
100
AcDbEntity
  8
C-0
  6
Continuous
 62
     3
370
     9
100
AcDbLine
 10
838.6134033203126
 20
954.5777544588657
 30
0.0
 11
838.6134033203126
 21
1109.577754458866
 31
0.0
  0
LINE
  5
5C
330
1F
100
AcDbEntity
  8
C-0
  6
Continuous
 62
     3
370
     9
100
AcDbLine
 10
848.6134033203126
 20
944.5777544588657
 30
0.0
 11
1288.613525390625
 21
944.5777544588657
 31
0.0
  0
LINE
  5
5D
330
1F
100
AcDbEntity
  8
C-0
  6
Continuous
 62
     3
370
     9
100
AcDbLine
 10
905.6136474609375
 20
1012.577876529178
 30
0.0
 11
905.6136474609375
 21
1051.57769342371
 31
0.0
  0
LINE
  5
5E
330
1F
100
AcDbEntity
  8
C-0
  6
Continuous
 62
     3
370
     9
100
AcDbLine
 10
1220.613525390625
 20
1062.577571353397
 30
0.0
 11
916.613525390625
 21
1062.577571353397
 31
0.0
  0
LINE
  5
5F
330
1F
100
AcDbEntity
  8
C-0
  6
Continuous
 62
     3
370
     9
100
AcDbLine
 10
1231.613525390625
 20
1012.577876529178
 30
0.0
 11
1231.613525390625
 21
1051.57769342371
 31
0.0
  0
LINE
  5
60
330
1F
100
AcDbEntity
  8
C-0
  6
Continuous
 62
     3
370
     9
100
AcDbLine
 10
1220.613525390625
 20
1001.577937564334
 30
0.0
 11
916.613525390625
 21
1001.577937564334
 31
0.0
  0
LINE
  5
61
330
1F
100
AcDbEntity
  8
C-4
  6
Continuous
 62
     7
370
     9
100
AcDbLine
 10
838.6134033203126
 20
856.0691485018344
 30
0.0
 11
1298.613525390625
 21
856.0691485018344
 31
0.0
  0
LINE
  5
62
330
1F
100
AcDbEntity
  8
C-4
  6
Continuous
 62
     7
370
     9
100
AcDbLine
 10
838.6134033203126
 20
929.5779375643347
 30
0.0
 11
838.6134033203126
 21
853.0690874666783
 31
0.0
  0
LINE
  5
63
330
1F
100
AcDbEntity
  8
C-4
  6
Continuous
 62
     7
370
     9
100
AcDbLine
 10
1298.613525390625
 20
929.5779375643347
 30
0.0
 11
1298.613525390625
 21
853.0690874666783
 31
0.0
  0
LINE
  5
64
330
1F
100
AcDbEntity
  8
C-4
  6
Continuous
 62
     7
370
     9
100
AcDbLine
 10
1477.313232421875
 20
944.5777544588657
 30
0.0
 11
1477.313232421875
 21
1119.577815494022
 31
0.0
  0
LINE
  5
65
330
1F
100
AcDbEntity
  8
C-4
  6
Continuous
 62
     7
370
     9
100
AcDbLine
 10
1313.613525390625
 20
944.5777544588657
 30
0.0
 11
1480.3134765625
 21
944.5777544588657
 31
0.0
  0
LINE
  5
66
330
1F
100
AcDbEntity
  8
C-4
  6
Continuous
 62
     7
370
     9
100
AcDbLine
 10
1313.613525390625
 20
1119.577815494022
 30
0.0
 11
1480.3134765625
 21
1119.577815494022
 31
0.0
  0
LINE
  5
67
330
1F
100
AcDbEntity
  8
C-4
  6
Continuous
 62
     7
370
     9
100
AcDbLine
 10
1477.313232421875
 20
364.5789980501743
 30
0.0
 11
1477.313232421875
 21
764.5788836092563
 31
0.0
  0
LINE
  5
68
330
1F
100
AcDbEntity
  8
C-4
  6
Continuous
 62
     7
370
     9
100
AcDbLine
 10
1168.613525390625
 20
364.5789980501743
 30
0.0
 11
1480.3134765625
 21
364.5789980501743
 31
0.0
  0
LINE
  5
69
330
1F
100
AcDbEntity
  8
C-4
  6
Continuous
 62
     7
370
     9
100
AcDbLine
 10
1323.61376953125
 20
614.5786699862093
 30
0.0
 11
1480.3134765625
 21
614.5786699862093
 31
0.0
  0
LINE
  5
6A
330
1F
100
AcDbEntity
  8
C-4
  6
Continuous
 62
     7
370
     9
100
AcDbLine
 10
1253.11376953125
 20
764.5788836092563
 30
0.0
 11
1480.3134765625
 21
764.5788836092563
 31
0.0
  0
LINE
  5
6B
330
1F
100
AcDbEntity
  8
C-0
  6
JWW_CENTER1
 62
     3
370
     9
100
AcDbLine
 10
1068.613525390625
 20
913.0738482088657
 30
0.0
 11
1068.613525390625
 21
1156.250422915897
 31
0.0
  0
LINE
  5
6C
330
1F
100
AcDbEntity
  8
C-0
  6
JWW_CENTER1
 62
     3
370
     9
100
AcDbLine
 10
803.7760009765625
 20
1032.077510318241
 30
0.0
 11
1335.024169921875
 21
1032.077510318241
 31
0.0
  0
LINE
  5
6D
330
1F
100
AcDbEntity
  8
C-0
  6
JWW_CENTER2
 62
     3
370
     9
100
AcDbLine
 10
1068.613525390625
 20
821.9249224276157
 30
0.0
 11
1068.613525390625
 21
293.9964975924106
 31
0.0
  0
LINE
  5
6E
330
1F
100
AcDbEntity
  8
C-0
  6
Continuous
 62
     3
370
     9
100
AcDbLine
 10
908.6137695312502
 20
417.0788683504672
 30
0.0
 11
1228.613525390625
 21
417.0788683504672
 31
0.0
  0
LINE
  5
6F
330
1F
100
AcDbEntity
  8
C-0
  6
Continuous
 62
     3
370
     9
100
AcDbLine
 10
908.6137695312502
 20
404.578692874393
 30
0.0
 11
1228.613525390625
 21
404.578692874393
 31
0.0
  0
LINE
  5
70
330
1F
100
AcDbEntity
  8
C-0
  6
Continuous
 62
     3
370
     9
100
AcDbLine
 10
993.6136474609375
 20
424.0788530916782
 30
0.0
 11
1008.613647460938
 21
418.5786547274204
 31
0.0
  0
LINE
  5
71
330
1F
100
AcDbEntity
  8
C-0
  6
Continuous
 62
     3
370
     9
100
AcDbLine
 10
1143.613525390625
 20
424.0788530916782
 30
0.0
 11
1128.613525390625
 21
418.5786547274204
 31
0.0
  0
LINE
  5
72
330
1F
100
AcDbEntity
  8
C-0
  6
Continuous
 62
     3
370
     9
100
AcDbLine
 10
1008.613647460938
 20
418.5786547274204
 30
0.0
 11
1008.613647460938
 21
417.0788683504672
 31
0.0
  0
LINE
  5
73
330
1F
100
AcDbEntity
  8
C-0
  6
Continuous
 62
     3
370
     9
100
AcDbLine
 10
1128.613525390625
 20
418.5786547274204
 30
0.0
 11
1128.613525390625
 21
417.0788683504672
 31
0.0
  0
LINE
  5
74
330
1F
100
AcDbEntity
  8
C-0
  6
Continuous
 62
     3
370
     9
100
AcDbLine
 10
988.6136474609375
 20
369.5787767977328
 30
0.0
 11
988.6136474609375
 21
404.578692874393
 31
0.0
  0
LINE
  5
75
330
1F
100
AcDbEntity
  8
C-0
  6
Continuous
 62
     3
370
     9
100
AcDbLine
 10
1143.613525390625
 20
364.5789980501743
 30
0.0
 11
993.6136474609375
 21
364.5789980501743
 31
0.0
  0
LINE
  5
76
330
1F
100
AcDbEntity
  8
C-0
  6
Continuous
 62
     3
370
     9
100
AcDbLine
 10
1148.613647460938
 20
369.5787767977328
 30
0.0
 11
1148.613647460938
 21
404.578692874393
 31
0.0
  0
LINE
  5
77
330
1F
100
AcDbEntity
  8
C-0
  6
Continuous
 62
     3
370
     9
100
AcDbLine
 10
908.6137695312502
 20
417.0788683504672
 30
0.0
 11
908.6137695312502
 21
394.5786470980258
 31
0.0
  0
LINE
  5
78
330
1F
100
AcDbEntity
  8
C-0
  6
Continuous
 62
     3
370
     9
100
AcDbLine
 10
1228.613525390625
 20
417.0788683504672
 30
0.0
 11
1228.613525390625
 21
394.5786470980258
 31
0.0
  0
LINE
  5
79
330
1F
100
AcDbEntity
  8
C-0
  6
Continuous
 62
     3
370
     9
100
AcDbLine
 10
908.6137695312502
 20
394.5786470980258
 30
0.0
 11
987.363525390625
 21
394.5786470980258
 31
0.0
  0
LINE
  5
7A
330
1F
100
AcDbEntity
  8
C-0
  6
Continuous
 62
     3
370
     9
100
AcDbLine
 10
1149.863647460938
 20
394.5786470980258
 30
0.0
 11
1228.613525390625
 21
394.5786470980258
 31
0.0
  0
LINE
  5
7B
330
1F
100
AcDbEntity
  8
C-0
  6
Continuous
 62
     3
370
     9
100
AcDbLine
 10
1149.863647460938
 20
404.578692874393
 30
0.0
 11
1149.863647460938
 21
394.5786470980258
 31
0.0
  0
LINE
  5
7C
330
1F
100
AcDbEntity
  8
C-0
  6
Continuous
 62
     3
370
     9
100
AcDbLine
 10
987.363525390625
 20
404.578692874393
 30
0.0
 11
987.363525390625
 21
394.5786470980258
 31
0.0
  0
LINE
  5
7D
330
1F
100
AcDbEntity
  8
C-0
  6
Continuous
 62
     3
370
     9
100
AcDbLine
 10
1231.613525390625
 20
564.5789446444126
 30
0.0
 11
905.6136474609375
 21
564.5789446444126
 31
0.0
  0
LINE
  5
7E
330
1F
100
AcDbEntity
  8
C-0
  6
Continuous
 62
     3
370
     9
100
AcDbLine
 10
1249.56494140625
 20
595.9653887362093
 30
0.0
 11
1244.113525390625
 21
577.0791277498812
 31
0.0
  0
LINE
  5
7F
330
1F
100
AcDbEntity
  8
C-0
  6
Continuous
 62
     3
370
     9
100
AcDbLine
 10
887.662353515625
 20
595.9653887362093
 30
0.0
 11
893.11376953125
 21
577.0791277498812
 31
0.0
  0
LINE
  5
80
330
1F
100
AcDbEntity
  8
C-0
  6
Continuous
 62
     3
370
     9
100
AcDbLine
 10
838.6138916015625
 20
599.5788530916782
 30
0.0
 11
1298.613525390625
 21
599.5788530916782
 31
0.0
  0
LINE
  5
81
330
1F
100
AcDbEntity
  8
C-0
  6
JWW_PHANTOM1
 62
     3
370
     9
100
AcDbLine
 10
909.1136474609377
 20
764.5788836092563
 30
0.0
 11
1228.113525390625
 21
764.5788836092563
 31
0.0
  0
LINE
  5
82
330
1F
100
AcDbEntity
  8
C-0
  6
JWW_PHANTOM1
 62
     3
370
     9
100
AcDbLine
 10
909.1136474609377
 20
742.0786394686314
 30
0.0
 11
1228.113525390625
 21
742.0786394686314
 31
0.0
  0
LINE
  5
83
330
1F
100
AcDbEntity
  8
C-0
  6
JWW_PHANTOM1
 62
     3
370
     9
100
AcDbLine
 10
909.1136474609377
 20
764.5788836092563
 30
0.0
 11
909.1136474609377
 21
742.0786394686314
 31
0.0
  0
LINE
  5
84
330
1F
100
AcDbEntity
  8
C-0
  6
JWW_PHANTOM1
 62
     3
370
     9
100
AcDbLine
 10
1228.113525390625
 20
764.5788836092563
 30
0.0
 11
1228.113525390625
 21
742.0786394686314
 31
0.0
  0
LINE
  5
85
330
1F
100
AcDbEntity
  8
C-0
  6
JWW_PHANTOM1
 62
     3
370
     9
100
AcDbLine
 10
1222.11376953125
 20
742.0786394686314
 30
0.0
 11
1222.11376953125
 21
729.5789751619907
 31
0.0
  0
LINE
  5
86
330
1F
100
AcDbEntity
  8
C-0
  6
JWW_PHANTOM1
 62
     3
370
     9
100
AcDbLine
 10
915.113525390625
 20
742.0786394686314
 30
0.0
 11
915.113525390625
 21
729.5789751619907
 31
0.0
  0
LINE
  5
87
330
1F
100
AcDbEntity
  8
C-0
  6
JWW_PHANTOM1
 62
     3
370
     9
100
AcDbLine
 10
1003.613403320313
 20
729.5789751619907
 30
0.0
 11
915.113525390625
 21
729.5789751619907
 31
0.0
  0
LINE
  5
88
330
1F
100
AcDbEntity
  8
C-0
  6
JWW_PHANTOM1
 62
     3
370
     9
100
AcDbLine
 10
1133.613525390625
 20
729.5789751619907
 30
0.0
 11
1222.11376953125
 21
729.5789751619907
 31
0.0
  0
LINE
  5
89
330
1F
100
AcDbEntity
  8
C-0
  6
Continuous
 62
     3
370
     9
100
AcDbLine
 10
838.6138916015625
 20
610.0788225741001
 30
0.0
 11
838.6138916015625
 21
599.5788530916782
 31
0.0
  0
LINE
  5
8A
330
1F
100
AcDbEntity
  8
C-0
  6
Continuous
 62
     3
370
     9
100
AcDbLine
 10
1294.11376953125
 20
614.5786699862093
 30
0.0
 11
843.11376953125
 21
614.5786699862093
 31
0.0
  0
LINE
  5
8B
330
1F
100
AcDbEntity
  8
C-0
  6
Continuous
 62
     3
370
     9
100
AcDbLine
 10
1298.613525390625
 20
610.0788225741001
 30
0.0
 11
1298.613525390625
 21
599.5788530916782
 31
0.0
  0
LINE
  5
8C
330
1F
100
AcDbEntity
  8
C-0
  6
Continuous
 62
     3
370
     9
100
AcDbLine
 10
993.6136474609375
 20
490.0787615389438
 30
0.0
 11
993.6136474609375
 21
424.0788530916782
 31
0.0
  0
LINE
  5
8D
330
1F
100
AcDbEntity
  8
C-0
  6
JWW_PHANTOM1
 62
     3
370
     9
100
AcDbLine
 10
993.6138916015625
 20
642.5790972323032
 30
0.0
 11
993.6138916015625
 21
614.5786699862093
 31
0.0
  0
LINE
  5
8E
330
1F
100
AcDbEntity
  8
C-0
  6
Continuous
 62
     3
370
     9
100
AcDbLine
 10
1018.61328125
 20
527.0788836092563
 30
0.0
 11
1018.61328125
 21
564.5789446444126
 31
0.0
  0
LINE
  5
8F
330
1F
100
AcDbEntity
  8
C-0
  6
JWW_PHANTOM1
 62
     3
370
     9
100
AcDbLine
 10
1018.61376953125
 20
679.5787310213657
 30
0.0
 11
1018.61376953125
 21
714.5786394686314
 31
0.0
  0
LINE
  5
90
330
1F
100
AcDbEntity
  8
C-0
  6
JWW_PHANTOM1
 62
     3
370
     9
100
AcDbLine
 10
1118.614013671875
 20
679.5787310213657
 30
0.0
 11
1118.614013671875
 21
714.5786394686314
 31
0.0
  0
LINE
  5
91
330
1F
100
AcDbEntity
  8
C-0
  6
Continuous
 62
     3
370
     9
100
AcDbLine
 10
1143.613525390625
 20
489.998012027225
 30
0.0
 11
1143.613525390625
 21
424.0788530916782
 31
0.0
  0
LINE
  5
92
330
1F
100
AcDbEntity
  8
C-0
  6
Continuous
 62
     3
370
     9
100
AcDbLine
 10
1118.613403320312
 20
527.0788836092563
 30
0.0
 11
1118.613403320312
 21
564.5789446444126
 31
0.0
  0
LINE
  5
93
330
1F
100
AcDbEntity
  8
C-0
  6
JWW_PHANTOM1
 62
     3
370
     9
100
AcDbLine
 10
1143.61376953125
 20
642.4978594393343
 30
0.0
 11
1143.61376953125
 21
614.5786699862093
 31
0.0
  0
LINE
  5
94
330
1F
100
AcDbEntity
  8
C-0
  6
JWW_PHANTOM1
 62
     3
370
     9
100
AcDbLine
 10
1015.613647460938
 20
757.0789751619907
 30
0.0
 11
1121.61328125
 21
757.0789751619907
 31
0.0
  0
LINE
  5
95
330
1F
100
AcDbEntity
  8
C-0
  6
JWW_PHANTOM1
 62
     3
370
     9
100
AcDbLine
 10
1015.613647460938
 20
757.0789751619907
 30
0.0
 11
1015.613647460938
 21
742.0786394686314
 31
0.0
  0
LINE
  5
96
330
1F
100
AcDbEntity
  8
C-0
  6
JWW_PHANTOM1
 62
     3
370
     9
100
AcDbLine
 10
1121.61328125
 20
757.0789751619907
 30
0.0
 11
1121.61328125
 21
742.0786394686314
 31
0.0
  0
LINE
  5
97
330
1F
100
AcDbEntity
  8
C-4
  6
Continuous
 62
     7
370
     9
100
AcDbLine
 10
793.30322265625
 20
783.1292376131626
 30
0.0
 11
888.6870117187502
 21
614.5786699862093
 31
0.0
  0
LINE
  5
98
330
1F
100
AcDbEntity
  8
C-4
  6
Continuous
 62
     7
370
     9
100
AcDbLine
 10
888.6870117187502
 20
614.5786699862093
 30
0.0
 11
873.6392822265625
 21
634.5430864901157
 31
0.0
  0
LINE
  5
99
330
1F
100
AcDbEntity
  8
C-4
  6
Continuous
 62
     7
370
     9
100
AcDbLine
 10
888.6870117187502
 20
614.5786699862093
 30
0.0
 11
879.3193359375002
 21
637.7576860994906
 31
0.0
  0
LINE
  5
9A
330
1F
100
AcDbEntity
  8
C-4
  6
Continuous
 62
     7
370
     9
100
AcDbLine
 10
857.85986328125
 20
514.8695482821079
 30
0.0
 11
942.2708740234375
 21
564.5789446444126
 31
0.0
  0
LINE
  5
9B
330
1F
100
AcDbEntity
  8
C-4
  6
Continuous
 62
     7
370
     9
100
AcDbLine
 10
942.2708740234375
 20
564.5789446444126
 30
0.0
 11
922.5688476562502
 21
549.1896929354282
 31
0.0
  0
LINE
  5
9C
330
1F
100
AcDbEntity
  8
C-4
  6
Continuous
 62
     7
370
     9
100
AcDbLine
 10
942.2708740234375
 20
564.5789446444126
 30
0.0
 11
919.2570800781252
 21
554.8132586092563
 31
0.0
  0
LINE
  5
9D
330
1F
100
AcDbEntity
  8
C-4
  6
Continuous
 62
     7
370
     9
100
AcDbLine
 10
857.85986328125
 20
514.8695482821079
 30
0.0
 11
993.6136474609375
 21
476.6039995760531
 31
0.0
  0
LINE
  5
9E
330
1F
100
AcDbEntity
  8
C-4
  6
Continuous
 62
     7
370
     9
100
AcDbLine
 10
993.6136474609375
 20
476.6039995760531
 30
0.0
 11
968.8715820312501
 21
480.1877245516391
 31
0.0
  0
LINE
  5
9F
330
1F
100
AcDbEntity
  8
C-4
  6
Continuous
 62
     7
370
     9
100
AcDbLine
 10
993.6136474609375
 20
476.6039995760531
 30
0.0
 11
970.6424560546875
 21
486.4692797274204
 31
0.0
  0
LINE
  5
A0
330
1F
100
AcDbEntity
  8
C-4
  6
Continuous
 62
     7
370
     9
100
AcDbLine
 10
865.4013671875
 20
352.2353853792758
 30
0.0
 11
911.343994140625
 21
412.967967471561
 31
0.0
  0
LINE
  5
A1
330
1F
100
AcDbEntity
  8
C-4
  6
Continuous
 62
     7
370
     9
100
AcDbLine
 10
911.343994140625
 20
412.967967471561
 30
0.0
 11
898.99267578125
 21
391.2322496981235
 31
0.0
  0
LINE
  5
A2
330
1F
100
AcDbEntity
  8
C-4
  6
Continuous
 62
     7
370
     9
100
AcDbLine
 10
911.343994140625
 20
412.967967471561
 30
0.0
 11
893.7883300781252
 21
395.1692461580844
 31
0.0
  0
LINE
  5
A3
330
1F
100
AcDbEntity
  8
C-2
  6
Continuous
 62
     3
370
     9
100
AcDbLine
 10
-1199.999877929688
 20
417.4202532381626
 30
0.0
 11
-1199.999877929688
 21
617.4201922030063
 31
0.0
  0
LINE
  5
A4
330
1F
100
AcDbEntity
  8
C-2
  6
Continuous
 62
     3
370
     9
100
AcDbLine
 10
-1199.999877929688
 20
617.4201922030063
 30
0.0
 11
-600.5
 21
617.4201922030063
 31
0.0
  0
LINE
  5
A5
330
1F
100
AcDbEntity
  8
C-2
  6
Continuous
 62
     3
370
     9
100
AcDbLine
 10
-600.5
 20
617.4201922030063
 30
0.0
 11
-600.5
 21
417.4202532381626
 31
0.0
  0
LINE
  5
A6
330
1F
100
AcDbEntity
  8
C-2
  6
Continuous
 62
     3
370
     9
100
AcDbLine
 10
-600.5
 20
417.4202532381626
 30
0.0
 11
-1199.999877929688
 21
417.4202532381626
 31
0.0
  0
LINE
  5
A7
330
1F
100
AcDbEntity
  8
C-2
  6
Continuous
 62
     3
370
     9
100
AcDbLine
 10
-1195.000091552734
 20
422.4205278963657
 30
0.0
 11
-1195.000091552734
 21
612.4204058260532
 31
0.0
  0
LINE
  5
A8
330
1F
100
AcDbEntity
  8
C-2
  6
Continuous
 62
     3
370
     9
100
AcDbLine
 10
-1195.000091552734
 20
612.4204058260532
 30
0.0
 11
-605.4995117187501
 21
612.4204058260532
 31
0.0
  0
LINE
  5
A9
330
1F
100
AcDbEntity
  8
C-2
  6
Continuous
 62
     3
370
     9
100
AcDbLine
 10
-605.4995117187501
 20
612.4204058260532
 30
0.0
 11
-605.4995117187501
 21
422.4205278963657
 31
0.0
  0
LINE
  5
AA
330
1F
100
AcDbEntity
  8
C-2
  6
Continuous
 62
     3
370
     9
100
AcDbLine
 10
-605.4995117187501
 20
422.4205278963657
 30
0.0
 11
-1195.000091552734
 21
422.4205278963657
 31
0.0
  0
LINE
  5
AB
330
1F
100
AcDbEntity
  8
C-2
  6
Continuous
 62
     3
370
     9
100
AcDbLine
 10
-605.4995117187501
 20
422.4205278963657
 30
0.0
 11
-600.5
 21
417.4202532381626
 31
0.0
  0
LINE
  5
AC
330
1F
100
AcDbEntity
  8
C-2
  6
Continuous
 62
     3
370
     9
100
AcDbLine
 10
-600.5
 20
617.4201922030063
 30
0.0
 11
-605.4995117187501
 21
612.4204058260532
 31
0.0
  0
LINE
  5
AD
330
1F
100
AcDbEntity
  8
C-2
  6
Continuous
 62
     3
370
     9
100
AcDbLine
 10
-1199.999877929688
 20
617.4201922030063
 30
0.0
 11
-1195.000091552734
 21
612.4204058260532
 31
0.0
  0
LINE
  5
AE
330
1F
100
AcDbEntity
  8
C-2
  6
Continuous
 62
     3
370
     9
100
AcDbLine
 10
-1199.999877929688
 20
417.4202532381626
 30
0.0
 11
-1195.000091552734
 21
422.4205278963657
 31
0.0
  0
LINE
  5
AF
330
1F
100
AcDbEntity
  8
C-A
  6
Continuous
 62
     3
370
     9
100
AcDbLine
 10
-1130.499923706055
 20
471.4199022860141
 30
0.0
 11
-1161.499969482422
 21
471.4199022860141
 31
0.0
  0
LINE
  5
B0
330
1F
100
AcDbEntity
  8
C-A
  6
Continuous
 62
     3
370
     9
100
AcDbLine
 10
-1128.499771118164
 20
561.4203142733188
 30
0.0
 11
-1128.499771118164
 21
473.420604190311
 31
0.0
  0
LINE
  5
B1
330
1F
100
AcDbEntity
  8
C-A
  6
Continuous
 62
     3
370
     9
100
AcDbLine
 10
-1163.499816894531
 20
561.4203142733188
 30
0.0
 11
-1163.499816894531
 21
473.420604190311
 31
0.0
  0
LINE
  5
B2
330
1F
100
AcDbEntity
  8
C-A
  6
Continuous
 62
     3
370
     9
100
AcDbLine
 10
-1161.499969482422
 20
563.4205278963656
 30
0.0
 11
-1130.499923706055
 21
563.4205278963656
 31
0.0
  0
LINE
  5
B3
330
1F
100
AcDbEntity
  8
C-A
  6
Continuous
 62
     3
370
     9
100
AcDbLine
 10
-1152.100067138672
 20
547.8202166170688
 30
0.0
 11
-1152.100067138672
 21
487.0197405428501
 31
0.0
  0
LINE
  5
B4
330
1F
100
AcDbEntity
  8
C-A
  6
Continuous
 62
     3
370
     9
100
AcDbLine
 10
-1142.100021362305
 20
550.0205950350376
 30
0.0
 11
-1149.899810791016
 21
550.0205950350376
 31
0.0
  0
LINE
  5
B5
330
1F
100
AcDbEntity
  8
C-A
  6
Continuous
 62
     3
370
     9
100
AcDbLine
 10
-1142.100021362305
 20
484.8198656649203
 30
0.0
 11
-1149.899810791016
 21
484.8198656649203
 31
0.0
  0
LINE
  5
B6
330
1F
100
AcDbEntity
  8
C-A
  6
Continuous
 62
     3
370
     9
100
AcDbLine
 10
-1139.899887084961
 20
487.0197405428501
 30
0.0
 11
-1139.899887084961
 21
547.8202166170688
 31
0.0
  0
LINE
  5
B7
330
1F
100
AcDbEntity
  8
C-5
  6
Continuous
 62
     7
370
     9
100
AcDbLine
 10
-887.75
 20
277.4205889315219
 30
0.0
 11
-887.75
 21
342.4201464266391
 31
0.0
  0
LINE
  5
B8
330
1F
100
AcDbEntity
  8
C-5
  6
Continuous
 62
     7
370
     9
100
AcDbLine
 10
-887.75
 20
342.4201464266391
 30
0.0
 11
-312.7495727539062
 21
342.4201464266391
 31
0.0
  0
LINE
  5
B9
330
1F
100
AcDbEntity
  8
C-5
  6
Continuous
 62
     7
370
     9
100
AcDbLine
 10
-312.7495727539062
 20
342.4201464266391
 30
0.0
 11
-312.7495727539062
 21
277.4205889315219
 31
0.0
  0
LINE
  5
BA
330
1F
100
AcDbEntity
  8
C-5
  6
Continuous
 62
     7
370
     9
100
AcDbLine
 10
-312.7495727539062
 20
277.4205889315219
 30
0.0
 11
-887.75
 21
277.4205889315219
 31
0.0
  0
LINE
  5
BB
330
1F
100
AcDbEntity
  8
C-A
  6
JWW_CENTER1
 62
     3
370
     9
100
AcDbLine
 10
-1178.499633789062
 20
517.4202227205844
 30
0.0
 11
-1113.499954223633
 21
517.4202227205844
 31
0.0
  0
LINE
  5
BC
330
1F
100
AcDbEntity
  8
C-A
  6
JWW_CENTER1
 62
     3
370
     9
100
AcDbLine
 10
-1145.999969482422
 20
456.4200853914829
 30
0.0
 11
-1145.999969482422
 21
578.4203447908969
 31
0.0
  0
LINE
  5
BD
330
1F
100
AcDbEntity
  8
C-2
  6
Continuous
 62
     3
370
     9
100
AcDbLine
 10
-600.0000610351562
 20
417.4202532381626
 30
0.0
 11
-600.0000610351562
 21
617.4201922030063
 31
0.0
  0
LINE
  5
BE
330
1F
100
AcDbEntity
  8
C-2
  6
Continuous
 62
     3
370
     9
100
AcDbLine
 10
-600.0000610351562
 20
617.4201922030063
 30
0.0
 11
-0.4994506835937784
 21
617.4201922030063
 31
0.0
  0
LINE
  5
BF
330
1F
100
AcDbEntity
  8
C-2
  6
Continuous
 62
     3
370
     9
100
AcDbLine
 10
-0.4994506835937784
 20
617.4201922030063
 30
0.0
 11
-0.4994506835937784
 21
417.4202532381626
 31
0.0
  0
LINE
  5
C0
330
1F
100
AcDbEntity
  8
C-2
  6
Continuous
 62
     3
370
     9
100
AcDbLine
 10
-0.4994506835937784
 20
417.4202532381626
 30
0.0
 11
-600.0000610351562
 21
417.4202532381626
 31
0.0
  0
LINE
  5
C1
330
1F
100
AcDbEntity
  8
C-2
  6
Continuous
 62
     3
370
     9
100
AcDbLine
 10
-594.9997863769532
 20
422.4205278963657
 30
0.0
 11
-594.9997863769532
 21
612.4204058260532
 31
0.0
  0
LINE
  5
C2
330
1F
100
AcDbEntity
  8
C-2
  6
Continuous
 62
     3
370
     9
100
AcDbLine
 10
-594.9997863769532
 20
612.4204058260532
 30
0.0
 11
-5.499816894531193
 21
612.4204058260532
 31
0.0
  0
LINE
  5
C3
330
1F
100
AcDbEntity
  8
C-2
  6
Continuous
 62
     3
370
     9
100
AcDbLine
 10
-5.499816894531193
 20
612.4204058260532
 30
0.0
 11
-5.499816894531193
 21
422.4205278963657
 31
0.0
  0
LINE
  5
C4
330
1F
100
AcDbEntity
  8
C-2
  6
Continuous
 62
     3
370
     9
100
AcDbLine
 10
-5.499816894531193
 20
422.4205278963657
 30
0.0
 11
-594.9997863769532
 21
422.4205278963657
 31
0.0
  0
LINE
  5
C5
330
1F
100
AcDbEntity
  8
C-2
  6
Continuous
 62
     3
370
     9
100
AcDbLine
 10
-5.499816894531193
 20
422.4205278963657
 30
0.0
 11
-0.4994506835937784
 21
417.4202532381626
 31
0.0
  0
LINE
  5
C6
330
1F
100
AcDbEntity
  8
C-2
  6
Continuous
 62
     3
370
     9
100
AcDbLine
 10
-0.4994506835937784
 20
617.4201922030063
 30
0.0
 11
-5.499816894531193
 21
612.4204058260532
 31
0.0
  0
LINE
  5
C7
330
1F
100
AcDbEntity
  8
C-2
  6
Continuous
 62
     3
370
     9
100
AcDbLine
 10
-600.0000610351562
 20
617.4201922030063
 30
0.0
 11
-594.9997863769532
 21
612.4204058260532
 31
0.0
  0
LINE
  5
C8
330
1F
100
AcDbEntity
  8
C-2
  6
Continuous
 62
     3
370
     9
100
AcDbLine
 10
-600.0000610351562
 20
417.4202532381626
 30
0.0
 11
-594.9997863769532
 21
422.4205278963657
 31
0.0
  0
LINE
  5
C9
330
1F
100
AcDbEntity
  8
C-2
  6
Continuous
 62
     3
370
     9
100
AcDbLine
 10
0.0
 20
417.4202532381626
 30
0.0
 11
0.0
 21
617.4201922030063
 31
0.0
  0
LINE
  5
CA
330
1F
100
AcDbEntity
  8
C-2
  6
Continuous
 62
     3
370
     9
100
AcDbLine
 10
5.000061035156307
 20
422.4205278963657
 30
0.0
 11
5.000061035156307
 21
612.4204058260532
 31
0.0
  0
LINE
  5
CB
330
1F
100
AcDbEntity
  8
C-2
  6
Continuous
 62
     3
370
     9
100
AcDbLine
 10
0.0
 20
617.4201922030063
 30
0.0
 11
5.000061035156307
 21
612.4204058260532
 31
0.0
  0
LINE
  5
CC
330
1F
100
AcDbEntity
  8
C-2
  6
Continuous
 62
     3
370
     9
100
AcDbLine
 10
0.0
 20
417.4202532381626
 30
0.0
 11
5.000061035156307
 21
422.4205278963657
 31
0.0
  0
LINE
  5
CD
330
1F
100
AcDbEntity
  8
C-2
  6
Continuous
 62
     3
370
     9
100
AcDbLine
 10
-1200.499816894531
 20
617.4201922030063
 30
0.0
 11
-1200.499816894531
 21
417.4202532381626
 31
0.0
  0
LINE
  5
CE
330
1F
100
AcDbEntity
  8
C-2
  6
Continuous
 62
     3
370
     9
100
AcDbLine
 10
-1205.500091552734
 20
612.4204058260532
 30
0.0
 11
-1205.500091552734
 21
422.4205278963657
 31
0.0
  0
LINE
  5
CF
330
1F
100
AcDbEntity
  8
C-2
  6
Continuous
 62
     3
370
     9
100
AcDbLine
 10
-1205.500091552734
 20
422.4205278963657
 30
0.0
 11
-1200.499816894531
 21
417.4202532381626
 31
0.0
  0
LINE
  5
D0
330
1F
100
AcDbEntity
  8
C-2
  6
Continuous
 62
     3
370
     9
100
AcDbLine
 10
-1200.499816894531
 20
617.4201922030063
 30
0.0
 11
-1205.500091552734
 21
612.4204058260532
 31
0.0
  0
LINE
  5
D1
330
1F
100
AcDbEntity
  8
C-2
  6
Continuous
 62
     3
370
     9
100
AcDbLine
 10
0.0
 20
617.4201922030063
 30
0.0
 11
300.0001220703125
 21
617.4201922030063
 31
0.0
  0
LINE
  5
D2
330
1F
100
AcDbEntity
  8
C-2
  6
Continuous
 62
     3
370
     9
100
AcDbLine
 10
5.000061035156307
 20
612.4204058260532
 30
0.0
 11
300.0001220703125
 21
612.4204058260532
 31
0.0
  0
LINE
  5
D3
330
1F
100
AcDbEntity
  8
C-2
  6
Continuous
 62
     3
370
     9
100
AcDbLine
 10
300.0001220703125
 20
422.4205278963657
 30
0.0
 11
5.000061035156307
 21
422.4205278963657
 31
0.0
  0
LINE
  5
D4
330
1F
100
AcDbEntity
  8
C-2
  6
Continuous
 62
     3
370
     9
100
AcDbLine
 10
300.0001220703125
 20
417.4202532381626
 30
0.0
 11
0.0
 21
417.4202532381626
 31
0.0
  0
LINE
  5
D5
330
1F
100
AcDbEntity
  8
C-2
  6
Continuous
 62
     3
370
     9
100
AcDbLine
 10
-1500.499877929688
 20
617.4201922030063
 30
0.0
 11
-1200.499816894531
 21
617.4201922030063
 31
0.0
  0
LINE
  5
D6
330
1F
100
AcDbEntity
  8
C-2
  6
Continuous
 62
     3
370
     9
100
AcDbLine
 10
-1200.499816894531
 20
417.4202532381626
 30
0.0
 11
-1500.499877929688
 21
417.4202532381626
 31
0.0
  0
LINE
  5
D7
330
1F
100
AcDbEntity
  8
C-2
  6
Continuous
 62
     3
370
     9
100
AcDbLine
 10
-1500.499877929688
 20
612.4204058260532
 30
0.0
 11
-1205.500091552734
 21
612.4204058260532
 31
0.0
  0
LINE
  5
D8
330
1F
100
AcDbEntity
  8
C-2
  6
Continuous
 62
     3
370
     9
100
AcDbLine
 10
-1205.500091552734
 20
422.4205278963657
 30
0.0
 11
-1500.499877929688
 21
422.4205278963657
 31
0.0
  0
LINE
  5
D9
330
1F
100
AcDbEntity
  8
C-1
  6
JWW_DASHED3
 62
     2
370
     9
100
AcDbLine
 10
-1500.499877929688
 20
592.4198259920688
 30
0.0
 11
300.0001220703125
 21
592.4198259920688
 31
0.0
  0
LINE
  5
DA
330
1F
100
AcDbEntity
  8
C-1
  6
Continuous
 62
     2
370
     9
100
AcDbLine
 10
-1500.499877929688
 20
618.4200396151157
 30
0.0
 11
300.0001220703125
 21
618.4200396151157
 31
0.0
  0
LINE
  5
DB
330
1F
100
AcDbEntity
  8
C-1
  6
JWW_DASHED3
 62
     2
370
     9
100
AcDbLine
 10
-1500.499877929688
 20
442.4201159090609
 30
0.0
 11
300.0001220703125
 21
442.4201159090609
 31
0.0
  0
LINE
  5
DC
330
1F
100
AcDbEntity
  8
C-4
  6
Continuous
 62
     7
370
     9
100
AcDbLine
 10
-1500.499877929688
 20
725.4200090975377
 30
0.0
 11
300.0001220703125
 21
725.4200090975377
 31
0.0
  0
LINE
  5
DD
330
1F
100
AcDbEntity
  8
C-4
  6
Continuous
 62
     7
370
     9
100
AcDbLine
 10
-1200.499816894531
 20
645.4201311678501
 30
0.0
 11
-1200.499816894531
 21
728.4200701326938
 31
0.0
  0
LINE
  5
DE
330
1F
100
AcDbEntity
  8
C-4
  6
Continuous
 62
     7
370
     9
100
AcDbLine
 10
-1199.999877929688
 20
645.4201311678501
 30
0.0
 11
-1199.999877929688
 21
808.4204668612094
 31
0.0
  0
LINE
  5
DF
330
1F
100
AcDbEntity
  8
C-4
  6
Continuous
 62
     7
370
     9
100
AcDbLine
 10
-600.5
 20
645.4201311678501
 30
0.0
 11
-600.5
 21
728.4200701326938
 31
0.0
  0
LINE
  5
E0
330
1F
100
AcDbEntity
  8
C-4
  6
Continuous
 62
     7
370
     9
100
AcDbLine
 10
-600.0000610351562
 20
645.4201311678501
 30
0.0
 11
-600.0000610351562
 21
808.4204668612094
 31
0.0
  0
LINE
  5
E1
330
1F
100
AcDbEntity
  8
C-4
  6
Continuous
 62
     7
370
     9
100
AcDbLine
 10
-0.4994506835937784
 20
645.4201311678501
 30
0.0
 11
-0.4994506835937784
 21
728.4200701326938
 31
0.0
  0
LINE
  5
E2
330
1F
100
AcDbEntity
  8
C-4
  6
Continuous
 62
     7
370
     9
100
AcDbLine
 10
0.0
 20
645.4201311678501
 30
0.0
 11
0.0
 21
808.4204668612094
 31
0.0
  0
LINE
  5
E3
330
1F
100
AcDbEntity
  8
C-4
  6
Continuous
 62
     7
370
     9
100
AcDbLine
 10
-1500.499877929688
 20
805.419856509647
 30
0.0
 11
300.0001220703125
 21
805.419856509647
 31
0.0
  0
LINE
  5
E4
330
1F
100
AcDbEntity
  8
C-2
  6
Continuous
 62
     3
370
     9
100
AcDbLine
 10
-1520.499877929688
 20
502.4199022860141
 30
0.0
 11
-1500.499877929688
 21
502.4199022860141
 31
0.0
  0
LINE
  5
E5
330
1F
100
AcDbEntity
  8
C-2
  6
Continuous
 62
     3
370
     9
100
AcDbLine
 10
-1520.499877929688
 20
502.4199022860141
 30
0.0
 11
-1480.499938964844
 21
532.4200396151157
 31
0.0
  0
LINE
  5
E6
330
1F
100
AcDbEntity
  8
C-2
  6
Continuous
 62
     3
370
     9
100
AcDbLine
 10
-1500.499877929688
 20
532.4200396151157
 30
0.0
 11
-1480.499938964844
 21
532.4200396151157
 31
0.0
  0
LINE
  5
E7
330
1F
100
AcDbEntity
  8
C-2
  6
Continuous
 62
     3
370
     9
100
AcDbLine
 10
280.0003662109376
 20
502.4199022860141
 30
0.0
 11
320.0002441406249
 21
532.4200396151157
 31
0.0
  0
LINE
  5
E8
330
1F
100
AcDbEntity
  8
C-2
  6
Continuous
 62
     3
370
     9
100
AcDbLine
 10
280.0003662109376
 20
502.4199022860141
 30
0.0
 11
300.0001220703125
 21
502.4199022860141
 31
0.0
  0
LINE
  5
E9
330
1F
100
AcDbEntity
  8
C-2
  6
Continuous
 62
     3
370
     9
100
AcDbLine
 10
300.0001220703125
 20
532.4200396151157
 30
0.0
 11
320.0002441406249
 21
532.4200396151157
 31
0.0
  0
LINE
  5
EA
330
1F
100
AcDbEntity
  8
C-2
  6
Continuous
 62
     3
370
     9
100
AcDbLine
 10
-1500.499877929688
 20
502.4199022860141
 30
0.0
 11
-1500.499877929688
 21
394.4200930208774
 31
0.0
  0
LINE
  5
EB
330
1F
100
AcDbEntity
  8
C-2
  6
Continuous
 62
     3
370
     9
100
AcDbLine
 10
-1500.499877929688
 20
640.4203447908969
 30
0.0
 11
-1500.499877929688
 21
532.4200396151157
 31
0.0
  0
LINE
  5
EC
330
1F
100
AcDbEntity
  8
C-2
  6
Continuous
 62
     3
370
     9
100
AcDbLine
 10
300.0001220703125
 20
640.4203447908969
 30
0.0
 11
300.0001220703125
 21
532.4200396151157
 31
0.0
  0
LINE
  5
ED
330
1F
100
AcDbEntity
  8
C-2
  6
Continuous
 62
     3
370
     9
100
AcDbLine
 10
300.0001220703125
 20
502.4199022860141
 30
0.0
 11
300.0001220703125
 21
394.4200930208774
 31
0.0
  0
ARC
  5
EE
330
1F
100
AcDbEntity
  8
C-0
  6
Continuous
 62
     3
370
     9
100
AcDbCircle
 10
848.6134033203126
 20
1109.577754458866
 30
0.0
 40
10.00000095367432
100
AcDbArc
 50
90.0
 51
180.0
  0
ARC
  5
EF
330
1F
100
AcDbEntity
  8
C-0
  6
Continuous
 62
     3
370
     9
100
AcDbCircle
 10
1288.613525390625
 20
1109.577754458866
 30
0.0
 40
10.00000095367432
100
AcDbArc
 50
0.0
 51
90.0
  0
ARC
  5
F0
330
1F
100
AcDbEntity
  8
C-0
  6
Continuous
 62
     3
370
     9
100
AcDbCircle
 10
1288.613525390625
 20
954.5777544588657
 30
0.0
 40
10.00000095367432
100
AcDbArc
 50
270.0
 51
0.0
  0
ARC
  5
F1
330
1F
100
AcDbEntity
  8
C-0
  6
Continuous
 62
     3
370
     9
100
AcDbCircle
 10
848.6134033203126
 20
954.5777544588657
 30
0.0
 40
10.00000095367432
100
AcDbArc
 50
180.0
 51
270.0
  0
ARC
  5
F2
330
1F
100
AcDbEntity
  8
C-0
  6
Continuous
 62
     3
370
     9
100
AcDbCircle
 10
916.613525390625
 20
1051.57769342371
 30
0.0
 40
11.00000095367432
100
AcDbArc
 50
90.0
 51
180.0
  0
ARC
  5
F3
330
1F
100
AcDbEntity
  8
C-0
  6
Continuous
 62
     3
370
     9
100
AcDbCircle
 10
916.613525390625
 20
1012.577876529178
 30
0.0
 40
11.00000095367432
100
AcDbArc
 50
180.0
 51
270.0
  0
ARC
  5
F4
330
1F
100
AcDbEntity
  8
C-0
  6
Continuous
 62
     3
370
     9
100
AcDbCircle
 10
1220.613525390625
 20
1051.57769342371
 30
0.0
 40
11.00000095367432
100
AcDbArc
 50
0.0
 51
90.0
  0
ARC
  5
F5
330
1F
100
AcDbEntity
  8
C-0
  6
Continuous
 62
     3
370
     9
100
AcDbCircle
 10
1220.613525390625
 20
1012.577876529178
 30
0.0
 40
11.00000095367432
100
AcDbArc
 50
270.0
 51
0.0
  0
ARC
  5
F6
330
1F
100
AcDbEntity
  8
C-0
  6
Continuous
 62
     3
370
     9
100
AcDbCircle
 10
993.6136474609375
 20
369.5787767977328
 30
0.0
 40
5.000000476837158
100
AcDbArc
 50
180.0
 51
270.0
  0
ARC
  5
F7
330
1F
100
AcDbEntity
  8
C-0
  6
Continuous
 62
     3
370
     9
100
AcDbCircle
 10
1143.613525390625
 20
369.5787767977328
 30
0.0
 40
5.000000476837158
100
AcDbArc
 50
270.0
 51
0.0
  0
ARC
  5
F8
330
1F
100
AcDbEntity
  8
C-0
  6
Continuous
 62
     3
370
     9
100
AcDbCircle
 10
905.6136474609375
 20
577.0791277498812
 30
0.0
 40
12.5
100
AcDbArc
 50
180.0
 51
270.0
  0
ARC
  5
F9
330
1F
100
AcDbEntity
  8
C-0
  6
Continuous
 62
     3
370
     9
100
AcDbCircle
 10
1231.613525390625
 20
577.0791277498812
 30
0.0
 40
12.5
100
AcDbArc
 50
270.0
 51
0.0
  0
ARC
  5
FA
330
1F
100
AcDbEntity
  8
C-0
  6
Continuous
 62
     3
370
     9
100
AcDbCircle
 10
1254.36865234375
 20
594.5790667147251
 30
0.0
 40
5.000000476837158
100
AcDbArc
 50
90.0
 51
163.8988037109375
  0
ARC
  5
FB
330
1F
100
AcDbEntity
  8
C-0
  6
Continuous
 62
     3
370
     9
100
AcDbCircle
 10
882.8582763671875
 20
594.5790667147251
 30
0.0
 40
5.000000476837158
100
AcDbArc
 50
16.1011962890625
 51
90.0
  0
ARC
  5
FC
330
1F
100
AcDbEntity
  8
C-0
  6
JWW_PHANTOM1
 62
     3
370
     9
100
AcDbCircle
 10
1003.613403320313
 20
714.5786394686314
 30
0.0
 40
15.00000095367432
100
AcDbArc
 50
0.0
 51
90.0
  0
ARC
  5
FD
330
1F
100
AcDbEntity
  8
C-0
  6
JWW_PHANTOM1
 62
     3
370
     9
100
AcDbCircle
 10
1133.613525390625
 20
714.5786394686314
 30
0.0
 40
15.00000095367432
100
AcDbArc
 50
90.0
 51
180.0
  0
ARC
  5
FE
330
1F
100
AcDbEntity
  8
C-0
  6
Continuous
 62
     3
370
     9
100
AcDbCircle
 10
843.11376953125
 20
610.0788225741001
 30
0.0
 40
4.500000476837158
100
AcDbArc
 50
90.0
 51
180.0
  0
ARC
  5
FF
330
1F
100
AcDbEntity
  8
C-0
  6
Continuous
 62
     3
370
     9
100
AcDbCircle
 10
1294.11376953125
 20
610.0788225741001
 30
0.0
 40
4.500000476837158
100
AcDbArc
 50
0.0
 51
90.0
  0
ARC
  5
100
330
1F
100
AcDbEntity
  8
C-0
  6
Continuous
 62
     3
370
     9
100
AcDbCircle
 10
1003.613403320313
 20
527.0788836092563
 30
0.0
 40
15.00000095367432
100
AcDbArc
 50
292.0240478515625
 51
0.0000000000000382
  0
ARC
  5
101
330
1F
100
AcDbEntity
  8
C-0
  6
Continuous
 62
     3
370
     9
100
AcDbCircle
 10
1018.61376953125
 20
489.998012027225
 30
0.0
 40
25.0
100
AcDbArc
 50
112.0243377685547
 51
180.0
  0
ARC
  5
102
330
1F
100
AcDbEntity
  8
C-0
  6
Continuous
 62
     3
370
     9
100
AcDbCircle
 10
1118.613403320312
 20
489.998012027225
 30
0.0
 40
25.0
100
AcDbArc
 50
0.0
 51
67.9756622314453
  0
ARC
  5
103
330
1F
100
AcDbEntity
  8
C-0
  6
Continuous
 62
     3
370
     9
100
AcDbCircle
 10
1133.613525390625
 20
527.0788836092563
 30
0.0
 40
15.00000095367432
100
AcDbArc
 50
180.0
 51
247.9759521484375
  0
ARC
  5
104
330
1F
100
AcDbEntity
  8
C-0
  6
Continuous
 62
     3
370
     9
100
AcDbCircle
 10
1068.613525390625
 20
1032.077510318241
 30
0.0
 40
65.0
100
AcDbArc
 50
207.9842987060547
 51
332.0157012939453
  0
ARC
  5
105
330
1F
100
AcDbEntity
  8
C-0
  6
Continuous
 62
     3
370
     9
100
AcDbCircle
 10
1068.613525390625
 20
1032.077510318241
 30
0.0
 40
65.0
100
AcDbArc
 50
27.98429870605469
 51
152.0157012939453
  0
ARC
  5
106
330
1F
100
AcDbEntity
  8
C-0
  6
JWW_PHANTOM1
 62
     3
370
     9
100
AcDbCircle
 10
1133.613525390625
 20
679.5787310213657
 30
0.0
 40
15.00000095367432
100
AcDbArc
 50
180.0
 51
247.9759521484375
  0
ARC
  5
107
330
1F
100
AcDbEntity
  8
C-0
  6
JWW_PHANTOM1
 62
     3
370
     9
100
AcDbCircle
 10
1118.614013671875
 20
642.4978594393343
 30
0.0
 40
25.0
100
AcDbArc
 50
0.0
 51
67.97628784179688
  0
ARC
  5
108
330
1F
100
AcDbEntity
  8
C-0
  6
JWW_PHANTOM1
 62
     3
370
     9
100
AcDbCircle
 10
1003.613403320313
 20
679.5787310213657
 30
0.0
 40
15.00000095367432
100
AcDbArc
 50
292.0240478515625
 51
0.0000000000000382
  0
ARC
  5
109
330
1F
100
AcDbEntity
  8
C-0
  6
JWW_PHANTOM1
 62
     3
370
     9
100
AcDbCircle
 10
1018.61328125
 20
642.4978594393343
 30
0.0
 40
25.0
100
AcDbArc
 50
112.0237121582031
 51
180.0
  0
ARC
  5
10A
330
1F
100
AcDbEntity
  8
C-A
  6
Continuous
 62
     3
370
     9
100
AcDbCircle
 10
-1161.499969482422
 20
473.420604190311
 30
0.0
 40
2.0
100
AcDbArc
 50
180.0
 51
270.0
  0
ARC
  5
10B
330
1F
100
AcDbEntity
  8
C-A
  6
Continuous
 62
     3
370
     9
100
AcDbCircle
 10
-1130.499923706055
 20
473.420604190311
 30
0.0
 40
2.0
100
AcDbArc
 50
270.0
 51
0.0
  0
ARC
  5
10C
330
1F
100
AcDbEntity
  8
C-A
  6
Continuous
 62
     3
370
     9
100
AcDbCircle
 10
-1130.499923706055
 20
561.4203142733188
 30
0.0
 40
2.0
100
AcDbArc
 50
0.0
 51
90.0
  0
ARC
  5
10D
330
1F
100
AcDbEntity
  8
C-A
  6
Continuous
 62
     3
370
     9
100
AcDbCircle
 10
-1161.499969482422
 20
561.4203142733188
 30
0.0
 40
2.0
100
AcDbArc
 50
90.0
 51
180.0
  0
ARC
  5
10E
330
1F
100
AcDbEntity
  8
C-A
  6
Continuous
 62
     3
370
     9
100
AcDbCircle
 10
-1149.899810791016
 20
487.0197405428501
 30
0.0
 40
2.200001001358032
100
AcDbArc
 50
180.0
 51
270.0
  0
ARC
  5
10F
330
1F
100
AcDbEntity
  8
C-A
  6
Continuous
 62
     3
370
     9
100
AcDbCircle
 10
-1149.899810791016
 20
547.8202166170688
 30
0.0
 40
2.200001001358032
100
AcDbArc
 50
90.0
 51
180.0
  0
ARC
  5
110
330
1F
100
AcDbEntity
  8
C-A
  6
Continuous
 62
     3
370
     9
100
AcDbCircle
 10
-1142.100021362305
 20
547.8202166170688
 30
0.0
 40
2.200001001358032
100
AcDbArc
 50
0.0
 51
90.0
  0
ARC
  5
111
330
1F
100
AcDbEntity
  8
C-A
  6
Continuous
 62
     3
370
     9
100
AcDbCircle
 10
-1142.100021362305
 20
487.0197405428501
 30
0.0
 40
2.200001001358032
100
AcDbArc
 50
270.0
 51
0.0
  0
ARC
  5
112
330
1F
100
AcDbEntity
  8
C-A
  6
Continuous
 62
     3
370
     9
100
AcDbCircle
 10
-1145.999969482422
 20
517.4202227205844
 30
0.0
 40
12.5
100
AcDbArc
 50
299.2091369628906
 51
60.7908630371094
  0
ARC
  5
113
330
1F
100
AcDbEntity
  8
C-A
  6
Continuous
 62
     3
370
     9
100
AcDbCircle
 10
-1145.999969482422
 20
517.4202227205844
 30
0.0
 40
12.5
100
AcDbArc
 50
119.2092742919922
 51
240.7907257080078
  0
LWPOLYLINE
  5
114
330
1F
100
AcDbEntity
  8
C-4
  6
Continuous
 62
     7
370
     9
100
AcDbPolyline
 90
        4
 70
     1
 43
1.0
 10
839.1134033203126
 20
856.0691485018344
 42
0.4142135623731
 10
838.6134033203126
 20
856.5691485018344
 42
0.4142135623731
 10
838.1134033203126
 20
856.0691485018344
 42
0.4142135623731
 10
838.6134033203126
 20
855.5691485018344
 42
0.4142135623731
  0
LWPOLYLINE
  5
115
330
1F
100
AcDbEntity
  8
C-4
  6
Continuous
 62
     7
370
     9
100
AcDbPolyline
 90
        4
 70
     1
 43
1.0
 10
1299.113525390625
 20
856.0691485018344
 42
0.4142135623731
 10
1298.613525390625
 20
856.5691485018344
 42
0.4142135623731
 10
1298.113525390625
 20
856.0691485018344
 42
0.4142135623731
 10
1298.613525390625
 20
855.5691485018344
 42
0.4142135623731
  0
LWPOLYLINE
  5
116
330
1F
100
AcDbEntity
  8
C-4
  6
Continuous
 62
     7
370
     9
100
AcDbPolyline
 90
        4
 70
     1
 43
1.0
 10
1477.813232421875
 20
944.5777544588657
 42
0.4142135623731
 10
1477.313232421875
 20
945.0777544588657
 42
0.4142135623731
 10
1476.813232421875
 20
944.5777544588657
 42
0.4142135623731
 10
1477.313232421875
 20
944.0777544588657
 42
0.4142135623731
  0
LWPOLYLINE
  5
117
330
1F
100
AcDbEntity
  8
C-4
  6
Continuous
 62
     7
370
     9
100
AcDbPolyline
 90
        4
 70
     1
 43
1.0
 10
1477.813232421875
 20
1119.577815494022
 42
0.4142135623731
 10
1477.313232421875
 20
1120.077815494022
 42
0.4142135623731
 10
1476.813232421875
 20
1119.577815494022
 42
0.4142135623731
 10
1477.313232421875
 20
1119.077815494022
 42
0.4142135623731
  0
LWPOLYLINE
  5
118
330
1F
100
AcDbEntity
  8
C-4
  6
Continuous
 62
     7
370
     9
100
AcDbPolyline
 90
        4
 70
     1
 43
1.0
 10
1477.813232421875
 20
364.5789980501743
 42
0.4142135623731
 10
1477.313232421875
 20
365.0789980501742
 42
0.4142135623731
 10
1476.813232421875
 20
364.5789980501743
 42
0.4142135623731
 10
1477.313232421875
 20
364.0789980501743
 42
0.4142135623731
  0
LWPOLYLINE
  5
119
330
1F
100
AcDbEntity
  8
C-4
  6
Continuous
 62
     7
370
     9
100
AcDbPolyline
 90
        4
 70
     1
 43
1.0
 10
1477.813232421875
 20
614.5786699862093
 42
0.4142135623731
 10
1477.313232421875
 20
615.0786699862093
 42
0.4142135623731
 10
1476.813232421875
 20
614.5786699862093
 42
0.4142135623731
 10
1477.313232421875
 20
614.0786699862094
 42
0.4142135623731
  0
LWPOLYLINE
  5
11A
330
1F
100
AcDbEntity
  8
C-4
  6
Continuous
 62
     7
370
     9
100
AcDbPolyline
 90
        4
 70
     1
 43
1.0
 10
1477.813232421875
 20
764.5788836092563
 42
0.4142135623731
 10
1477.313232421875
 20
765.0788836092563
 42
0.4142135623731
 10
1476.813232421875
 20
764.5788836092563
 42
0.4142135623731
 10
1477.313232421875
 20
764.0788836092564
 42
0.4142135623731
  0
LWPOLYLINE
  5
11B
330
1F
100
AcDbEntity
  8
C-4
  6
Continuous
 62
     7
370
     9
100
AcDbPolyline
 90
        4
 70
     1
 43
1.0
 10
-1199.999816894531
 20
725.4200090975377
 42
0.4142135623731
 10
-1200.499816894531
 20
725.9200090975377
 42
0.4142135623731
 10
-1200.999816894531
 20
725.4200090975377
 42
0.4142135623731
 10
-1200.499816894531
 20
724.9200090975377
 42
0.4142135623731
  0
LWPOLYLINE
  5
11C
330
1F
100
AcDbEntity
  8
C-4
  6
Continuous
 62
     7
370
     9
100
AcDbPolyline
 90
        4
 70
     1
 43
1.0
 10
-1199.499877929688
 20
725.4200090975377
 42
0.4142135623731
 10
-1199.999877929688
 20
725.9200090975377
 42
0.4142135623731
 10
-1200.499877929688
 20
725.4200090975377
 42
0.4142135623731
 10
-1199.999877929688
 20
724.9200090975377
 42
0.4142135623731
  0
LWPOLYLINE
  5
11D
330
1F
100
AcDbEntity
  8
C-4
  6
Continuous
 62
     7
370
     9
100
AcDbPolyline
 90
        4
 70
     1
 43
1.0
 10
-600.0000000000001
 20
725.4200090975377
 42
0.4142135623731
 10
-600.5
 20
725.9200090975377
 42
0.4142135623731
 10
-601.0
 20
725.4200090975377
 42
0.4142135623731
 10
-600.5
 20
724.9200090975377
 42
0.4142135623731
  0
LWPOLYLINE
  5
11E
330
1F
100
AcDbEntity
  8
C-4
  6
Continuous
 62
     7
370
     9
100
AcDbPolyline
 90
        4
 70
     1
 43
1.0
 10
-599.5000610351564
 20
725.4200090975377
 42
0.4142135623731
 10
-600.0000610351562
 20
725.9200090975377
 42
0.4142135623731
 10
-600.5000610351562
 20
725.4200090975377
 42
0.4142135623731
 10
-600.0000610351562
 20
724.9200090975377
 42
0.4142135623731
  0
LWPOLYLINE
  5
11F
330
1F
100
AcDbEntity
  8
C-4
  6
Continuous
 62
     7
370
     9
100
AcDbPolyline
 90
        4
 70
     1
 43
1.0
 10
0.0005493164062216
 20
725.4200090975377
 42
0.4142135623731
 10
-0.4994506835937784
 20
725.9200090975377
 42
0.4142135623731
 10
-0.9994506835937784
 20
725.4200090975377
 42
0.4142135623731
 10
-0.4994506835937784
 20
724.9200090975377
 42
0.4142135623731
  0
LWPOLYLINE
  5
120
330
1F
100
AcDbEntity
  8
C-4
  6
Continuous
 62
     7
370
     9
100
AcDbPolyline
 90
        4
 70
     1
 43
1.0
 10
0.5
 20
725.4200090975377
 42
0.4142135623731
 10
0.0
 20
725.9200090975377
 42
0.4142135623731
 10
-0.5
 20
725.4200090975377
 42
0.4142135623731
 10
0.0
 20
724.9200090975377
 42
0.4142135623731
  0
LWPOLYLINE
  5
121
330
1F
100
AcDbEntity
  8
C-4
  6
Continuous
 62
     7
370
     9
100
AcDbPolyline
 90
        4
 70
     1
 43
1.0
 10
-1199.499877929688
 20
805.419856509647
 42
0.4142135623731
 10
-1199.999877929688
 20
805.919856509647
 42
0.4142135623731
 10
-1200.499877929688
 20
805.419856509647
 42
0.4142135623731
 10
-1199.999877929688
 20
804.919856509647
 42
0.4142135623731
  0
LWPOLYLINE
  5
122
330
1F
100
AcDbEntity
  8
C-4
  6
Continuous
 62
     7
370
     9
100
AcDbPolyline
 90
        4
 70
     1
 43
1.0
 10
-599.5000610351564
 20
805.419856509647
 42
0.4142135623731
 10
-600.0000610351562
 20
805.919856509647
 42
0.4142135623731
 10
-600.5000610351562
 20
805.419856509647
 42
0.4142135623731
 10
-600.0000610351562
 20
804.919856509647
 42
0.4142135623731
  0
LWPOLYLINE
  5
123
330
1F
100
AcDbEntity
  8
C-4
  6
Continuous
 62
     7
370
     9
100
AcDbPolyline
 90
        4
 70
     1
 43
1.0
 10
0.5
 20
805.419856509647
 42
0.4142135623731
 10
0.0
 20
805.919856509647
 42
0.4142135623731
 10
-0.5
 20
805.419856509647
 42
0.4142135623731
 10
0.0
 20
804.919856509647
 42
0.4142135623731
  0
TEXT
  5
124
330
1F
100
AcDbEntity
  8
C-4
  6
Continuous
 62
     2
370
     9
100
AcDbText
 10
828.7486572265627
 20
200.0314141268344
 30
0.0
 40
30.48
  1
把手詳細図　Ｓ＝１：２
 41
1.113636363636363
  7
ＭＳ ゴシック
100
AcDbText
  0
TEXT
  5
125
330
1F
100
AcDbEntity
  8
C-4
  6
Continuous
 62
     7
370
     9
100
AcDbText
 10
468.2274169921874
 20
797.1264190096472
 30
0.0
 40
22.86
  1
把手カバー　ｔ＝0.5
 41
1.157894736842105
  7
ＭＳ ゴシック
100
AcDbText
  0
TEXT
  5
126
330
1F
100
AcDbEntity
  8
C-4
  6
Continuous
 62
     7
370
     9
100
AcDbText
 10
501.97509765625
 20
753.435470523319
 30
0.0
 40
22.86
  1
（SUS304　ＨＬ）
 41
1.145833333333333
  7
ＭＳ ゴシック
100
AcDbText
  0
TEXT
  5
127
330
1F
100
AcDbEntity
  8
C-4
  6
Continuous
 62
     7
370
     9
100
AcDbText
 10
539.10546875
 20
366.7399215120884
 30
0.0
 40
22.86
  1
ストッパープレート
 41
1.148148148148148
  7
ＭＳ ゴシック
100
AcDbText
  0
TEXT
  5
128
330
1F
100
AcDbEntity
  8
C-4
  6
Continuous
 62
     7
370
     9
100
AcDbText
 10
614.971923828125
 20
525.6456756014438
 30
0.0
 40
22.86
  1
把手本体
 41
1.125
  7
ＭＳ ゴシック
100
AcDbText
  0
TEXT
  5
129
330
1F
100
AcDbEntity
  8
C-4
  6
Continuous
 62
     7
370
     9
100
AcDbText
 10
515.5771484375
 20
480.4252318758579
 30
0.0
 40
22.86
  1
（強化ナイロン樹脂）
 41
1.15
  7
ＭＳ ゴシック
100
AcDbText
  0
TEXT
  5
12A
330
1F
100
AcDbEntity
  8
C-4
  6
Continuous
 62
     2
370
     9
100
AcDbText
 10
1047.36376953125
 20
871.7092095369907
 30
0.0
 40
30.48
  1
92
 41
1.0625
  7
ＭＳ ゴシック
100
AcDbText
  0
TEXT
  5
12B
330
1F
100
AcDbEntity
  8
C-4
  6
Continuous
 62
     2
370
     9
100
AcDbText
 10
1461.673232421875
 20
1010.827876529178
 30
0.0
 40
30.48
  1
35
 50
90.0
 41
1.0625
  7
ＭＳ ゴシック
100
AcDbText
  0
TEXT
  5
12C
330
1F
100
AcDbEntity
  8
C-4
  6
Continuous
 62
     2
370
     9
100
AcDbText
 10
1461.673232421875
 20
468.3286699862094
 30
0.0
 40
30.48
  1
50
 50
90.0
 41
1.0625
  7
ＭＳ ゴシック
100
AcDbText
  0
TEXT
  5
12D
330
1F
100
AcDbEntity
  8
C-4
  6
Continuous
 62
     2
370
     9
100
AcDbText
 10
1461.673232421875
 20
668.3291277498813
 30
0.0
 40
30.48
  1
30
 50
90.0
 41
1.0625
  7
ＭＳ ゴシック
100
AcDbText
  0
TEXT
  5
12E
330
1F
100
AcDbEntity
  8
C-4
  6
Continuous
 62
     7
370
     9
100
AcDbText
 10
523.6973876953124
 20
319.8537101168247
 30
0.0
 40
22.86
  1
（SUS304　ｔ＝2.5）
 41
1.149122807017544
  7
ＭＳ ゴシック
100
AcDbText
  0
TEXT
  5
12F
330
1F
100
AcDbEntity
  8
C-5
  6
Continuous
 62
     2
370
     9
100
AcDbText
 10
-867.7499065399171
 20
295.5602751726718
 30
0.0
 40
30.48
  1
平面詳細図　Ｓ＝１：１０
 41
1.114583333333333
  7
ＭＳ ゴシック
100
AcDbText
  0
TEXT
  5
130
330
1F
100
AcDbEntity
  8
C-4
  6
Continuous
 62
     2
370
     9
100
AcDbText
 10
-1276.079819486178
 20
736.060283755561
 30
0.0
 40
30.48
  1
0.5
 50
359.9995426925653
 41
1.083333333333336
  7
ＭＳ ゴシック
100
AcDbText
  0
TEXT
  5
131
330
1F
100
AcDbEntity
  8
C-4
  6
Continuous
 62
     2
370
     9
100
AcDbText
 10
-955.2496337890625
 20
736.0602837557407
 30
0.0
 40
30.48
  1
599.5
 41
1.1
  7
ＭＳ ゴシック
100
AcDbText
  0
TEXT
  5
132
330
1F
100
AcDbEntity
  8
C-4
  6
Continuous
 62
     2
370
     9
100
AcDbText
 10
-676.0797882080078
 20
736.0602837557407
 30
0.0
 40
30.48
  1
0.5
 41
1.083333333333333
  7
ＭＳ ゴシック
100
AcDbText
  0
TEXT
  5
133
330
1F
100
AcDbEntity
  8
C-4
  6
Continuous
 62
     2
370
     9
100
AcDbText
 10
-355.2498513294567
 20
736.0602837556779
 30
0.0
 40
30.48
  1
599.5
 50
359.9997297728795
 41
1.100000000000002
  7
ＭＳ ゴシック
100
AcDbText
  0
TEXT
  5
134
330
1F
100
AcDbEntity
  8
C-4
  6
Continuous
 62
     2
370
     9
100
AcDbText
 10
-76.07995605468744
 20
736.0602837557407
 30
0.0
 40
30.48
  1
0.5
 41
1.083333333333333
  7
ＭＳ ゴシック
100
AcDbText
  0
TEXT
  5
135
330
1F
100
AcDbEntity
  8
C-4
  6
Continuous
 62
     2
370
     9
100
AcDbText
 10
-932.4997520446777
 20
816.0601616854283
 30
0.0
 40
30.48
  1
600
 41
1.083333333333333
  7
ＭＳ ゴシック
100
AcDbText
  0
TEXT
  5
136
330
1F
100
AcDbEntity
  8
C-4
  6
Continuous
 62
     2
370
     9
100
AcDbText
 10
-332.4999389648438
 20
816.0601616854283
 30
0.0
 40
30.48
  1
600
 41
1.083333333333333
  7
ＭＳ ゴシック
100
AcDbText
  0
LINE
  5
137
330
1F
100
AcDbEntity
  8
C-1
  6
Continuous
 62
     2
370
     9
100
AcDbLine
 10
-1500.499877929688
 20
623.4200396151157
 30
0.0
 11
300.0001220703126
 21
623.4200396151157
 31
0.0
  0
LINE
  5
138
330
1F
100
AcDbEntity
  8
C-1
  6
Continuous
 62
     2
370
     9
100
AcDbLine
 10
-1500.499877929688
 20
411.4203905672641
 30
0.0
 11
300.0001220703126
 21
411.4203905672641
 31
0.0
  0
TEXT
  5
139
330
1F
100
AcDbEntity
  8
F-5
  6
Continuous
 62
     4
370
     0
100
AcDbText
 10
-840.2125797981039
 20
-1326.097326194793
 30
0.0
 40
26.67000000000001
  1
樹脂タイル用　ステンレス目地　配線・配管ピット蓋
 41
1.027380952380952
  7
ＭＳ ゴシック
100
AcDbText
  0
LINE
  5
13A
330
1F
100
AcDbEntity
  8
D-4
  6
Continuous
 62
     7
370
     9
100
AcDbLine
 10
-1244.351762533188
 20
-222.330252945423
 30
0.0
 11
-671.6839826107024
 21
-222.330252945423
 31
0.0
  0
LINE
  5
13B
330
1F
100
AcDbEntity
  8
D-4
  6
Continuous
 62
     7
370
     9
100
AcDbLine
 10
-671.6839826107024
 20
-327.7937517762183
 30
0.0
 11
-671.6839826107024
 21
-219.3296883702277
 31
0.0
  0
LINE
  5
13C
330
1F
100
AcDbEntity
  8
D-4
  6
Continuous
 62
     7
370
     9
100
AcDbLine
 10
-671.6839826107024
 20
-222.330252945423
 30
0.0
 11
-546.6841447353362
 21
-222.330252945423
 31
0.0
  0
LINE
  5
13D
330
1F
100
AcDbEntity
  8
D-4
  6
Continuous
 62
     7
370
     9
100
AcDbLine
 10
-546.6841447353362
 20
-327.7937517762183
 30
0.0
 11
-546.6841447353362
 21
-110.5782578587531
 31
0.0
  0
LINE
  5
13E
330
1F
100
AcDbEntity
  8
D-4
  6
Continuous
 62
     7
370
     9
100
AcDbLine
 10
-541.6838741302489
 20
-327.7937517762183
 30
0.0
 11
-541.6838741302489
 21
-110.5782578587531
 31
0.0
  0
LINE
  5
13F
330
1F
100
AcDbEntity
  8
D-4
  6
Continuous
 62
     7
370
     9
100
AcDbLine
 10
-516.6849958896636
 20
-327.7937517762183
 30
0.0
 11
-516.6849958896636
 21
0.118401229381675
 31
0.0
  0
LINE
  5
140
330
1F
100
AcDbEntity
  8
D-4
  6
Continuous
 62
     7
370
     9
100
AcDbLine
 10
-671.6839826107024
 20
-903.3322594761847
 30
0.0
 11
-271.6831147670745
 21
-903.3322594761847
 31
0.0
  0
LINE
  5
141
330
1F
100
AcDbEntity
  8
D-4
  6
Continuous
 62
     7
370
     9
100
AcDbLine
 10
-271.6831147670745
 20
-663.1230614781379
 30
0.0
 11
-271.6831147670745
 21
-906.331832230091
 31
0.0
  0
LINE
  5
142
330
1F
100
AcDbEntity
  8
D-4
  6
Continuous
 62
     7
370
     9
100
AcDbLine
 10
-671.6839826107024
 20
-748.8678811192511
 30
0.0
 11
-521.6847717761992
 21
-748.8678811192511
 31
0.0
  0
LINE
  5
143
330
1F
100
AcDbEntity
  8
D-4
  6
Continuous
 62
     7
370
     9
100
AcDbLine
 10
0.0012266635894775
 20
-593.2490800023078
 30
0.0
 11
0.0012266635894775
 21
-343.2494042515754
 31
0.0
  0
LINE
  5
144
330
1F
100
AcDbEntity
  8
D-4
  6
Continuous
 62
     7
370
     9
100
AcDbLine
 10
-95.65394759178147
 20
-343.2494042515754
 30
0.0
 11
3.000799417495728
 21
-343.2494042515754
 31
0.0
  0
LINE
  5
145
330
1F
100
AcDbEntity
  8
D-6
  6
Continuous
 62
     6
370
     9
100
AcDbLine
 10
-521.6847717761992
 20
-593.2490800023078
 30
0.0
 11
-521.6847717761992
 21
-843.2487557530402
 31
0.0
  0
LINE
  5
146
330
1F
100
AcDbEntity
  8
D-6
  6
JWW_DASHED3
 62
     6
370
     9
100
AcDbLine
 10
-428.1828820705413
 20
-720.7490609288215
 30
0.0
 11
-428.1828820705413
 21
-593.2490800023078
 31
0.0
  0
LINE
  5
147
330
1F
100
AcDbEntity
  8
D-6
  6
JWW_DASHED3
 62
     6
370
     9
100
AcDbLine
 10
-383.1824243068694
 20
-593.2490800023078
 30
0.0
 11
-383.1824243068694
 21
-720.7490609288215
 31
0.0
  0
LINE
  5
148
330
1F
100
AcDbEntity
  8
D-6
  6
Continuous
 62
     6
370
     9
100
AcDbLine
 10
-271.6841065883635
 20
-493.2496045231818
 30
0.0
 11
-106.6831147670744
 21
-493.2496045231818
 31
0.0
  0
LINE
  5
149
330
1F
100
AcDbEntity
  8
D-6
  6
Continuous
 62
     6
370
     9
100
AcDbLine
 10
-271.6841065883635
 20
-493.2496045231818
 30
0.0
 11
-271.6841065883635
 21
-593.2490800023078
 31
0.0
  0
LINE
  5
14A
330
1F
100
AcDbEntity
  8
D-4
  6
Continuous
 62
     7
370
     9
100
AcDbLine
 10
-215.9052217006682
 20
-593.2490800023078
 30
0.0
 11
3.000799417495728
 21
-593.2490800023078
 31
0.0
  0
LINE
  5
14B
330
1F
100
AcDbEntity
  8
D-6
  6
Continuous
 62
     6
370
     9
100
AcDbLine
 10
-521.6847717761992
 20
-593.2490800023078
 30
0.0
 11
-271.6841065883635
 21
-593.2490800023078
 31
0.0
  0
LINE
  5
14C
330
1F
100
AcDbEntity
  8
D-6
  6
Continuous
 62
     6
370
     9
100
AcDbLine
 10
-428.1828820705413
 20
-395.7492755055426
 30
0.0
 11
-383.1824243068694
 21
-395.7492755055426
 31
0.0
  0
LINE
  5
14D
330
1F
100
AcDbEntity
  8
D-6
  6
JWW_CENTER2
 62
     6
370
     9
100
AcDbLine
 10
-405.6826531887053
 20
-391.670081436634
 30
0.0
 11
-405.6826531887053
 21
-720.7490609288215
 31
0.0
  0
LINE
  5
14E
330
1F
100
AcDbEntity
  8
D-4
  6
Continuous
 62
     7
370
     9
100
AcDbLine
 10
-516.6849958896636
 20
-481.2166474461554
 30
0.0
 11
-516.6849958896636
 21
-552.5591920018195
 31
0.0
  0
LINE
  5
14F
330
1F
100
AcDbEntity
  8
D-6
  6
Continuous
 62
     6
370
     9
100
AcDbLine
 10
-428.1828820705413
 20
-428.2490513920783
 30
0.0
 11
-428.1828820705413
 21
-395.7492755055426
 31
0.0
  0
LINE
  5
150
330
1F
100
AcDbEntity
  8
D-6
  6
Continuous
 62
     6
370
     9
100
AcDbLine
 10
-383.1824243068694
 20
-428.2490513920783
 30
0.0
 11
-383.1824243068694
 21
-395.7492755055426
 31
0.0
  0
LINE
  5
151
330
1F
100
AcDbEntity
  8
D-6
  6
Continuous
 62
     6
370
     9
100
AcDbLine
 10
-428.1828820705413
 20
-593.2490800023078
 30
0.0
 11
-428.1828820705413
 21
-478.2487939000129
 31
0.0
  0
LINE
  5
152
330
1F
100
AcDbEntity
  8
D-6
  6
Continuous
 62
     6
370
     9
100
AcDbLine
 10
-383.1824243068694
 20
-593.2490800023078
 30
0.0
 11
-383.1824243068694
 21
-478.2487939000129
 31
0.0
  0
LINE
  5
153
330
1F
100
AcDbEntity
  8
D-4
  6
Continuous
 62
     7
370
     9
100
AcDbLine
 10
-817.1664941310881
 20
-468.2492421269416
 30
0.0
 11
-817.1664941310881
 21
-343.2494042515754
 31
0.0
  0
LINE
  5
154
330
1F
100
AcDbEntity
  8
D-4
  6
Continuous
 62
     7
370
     9
100
AcDbLine
 10
-544.8291096091269
 20
-343.2494042515754
 30
0.0
 11
-820.1670587062835
 21
-343.2494042515754
 31
0.0
  0
LINE
  5
155
330
1F
100
AcDbEntity
  8
D-4
  6
Continuous
 62
     7
370
     9
100
AcDbLine
 10
-1244.351762533188
 20
-2.882163345813638
 30
0.0
 11
-516.6849958896636
 21
-2.882163345813638
 31
0.0
  0
LINE
  5
156
330
1F
100
AcDbEntity
  8
D-4
  6
Continuous
 62
     7
370
     9
100
AcDbLine
 10
-1244.351762533188
 20
-113.5778306126593
 30
0.0
 11
-480.598520040512
 21
-113.5778306126593
 31
0.0
  0
LINE
  5
157
330
1F
100
AcDbEntity
  8
D-4
  6
Continuous
 62
     7
370
     9
100
AcDbLine
 10
-516.6849958896636
 20
-549.5586465001105
 30
0.0
 11
-371.6845643520354
 21
-549.5586465001105
 31
0.0
  0
LINE
  5
158
330
1F
100
AcDbEntity
  8
D-5
  6
Continuous
 62
     2
370
     9
100
AcDbLine
 10
-1013.679307699203
 20
-1039.19155818224
 30
0.0
 11
-1013.679307699203
 21
-974.1919777989386
 31
0.0
  0
LINE
  5
159
330
1F
100
AcDbEntity
  8
D-5
  6
Continuous
 62
     2
370
     9
100
AcDbLine
 10
-1013.679307699203
 20
-974.1919777989386
 30
0.0
 11
-438.6788880825042
 21
-974.1919777989386
 31
0.0
  0
LINE
  5
15A
330
1F
100
AcDbEntity
  8
D-5
  6
Continuous
 62
     2
370
     9
100
AcDbLine
 10
-438.6788880825042
 20
-974.1919777989386
 30
0.0
 11
-438.6788880825042
 21
-1039.19155818224
 31
0.0
  0
LINE
  5
15B
330
1F
100
AcDbEntity
  8
D-5
  6
Continuous
 62
     2
370
     9
100
AcDbLine
 10
-438.6788880825042
 20
-1039.19155818224
 30
0.0
 11
-1013.679307699203
 21
-1039.19155818224
 31
0.0
  0
LINE
  5
15C
330
1F
100
AcDbEntity
  8
D-4
  6
Continuous
 62
     7
370
     9
100
AcDbLine
 10
-671.6839826107024
 20
-868.2490990757941
 30
0.0
 11
-671.6839826107024
 21
-906.331832230091
 31
0.0
  0
LINE
  5
15D
330
1F
100
AcDbEntity
  8
D-5
  6
Continuous
 62
     7
370
     9
100
AcDbLine
 10
-332.3393952846526
 20
-235.2005456089972
 30
0.0
 11
-72.95653700828538
 21
-235.2005456089972
 31
0.0
  0
LINE
  5
15E
330
1F
100
AcDbEntity
  8
D-5
  6
Continuous
 62
     7
370
     9
100
AcDbLine
 10
-523.6270105838774
 20
-343.2494042515754
 30
0.0
 11
-509.8163139820098
 21
-322.410979092121
 31
0.0
  0
LINE
  5
15F
330
1F
100
AcDbEntity
  8
D-5
  6
Continuous
 62
     7
370
     9
100
AcDbLine
 10
-523.6270105838774
 20
-343.2494042515754
 30
0.0
 11
-504.8933351039885
 21
-326.6952965855597
 31
0.0
  0
LINE
  5
160
330
1F
100
AcDbEntity
  8
D-5
  6
Continuous
 62
     7
370
     9
100
AcDbLine
 10
-381.8347489833831
 20
-180.3382752537726
 30
0.0
 11
-523.6270105838774
 21
-343.2494042515754
 31
0.0
  0
LINE
  5
161
330
1F
100
AcDbEntity
  8
D-5
  6
Continuous
 62
     7
370
     9
100
AcDbLine
 10
-332.3393952846526
 20
-235.2005456089972
 30
0.0
 11
-547.1677222475408
 21
-482.026240646839
 31
0.0
  0
LINE
  5
162
330
1F
100
AcDbEntity
  8
D-5
  6
Continuous
 62
     7
370
     9
100
AcDbLine
 10
-381.8347489833831
 20
-180.3382752537726
 30
0.0
 11
68.95561814308167
 21
-180.3382752537726
 31
0.0
  0
LINE
  5
163
330
1F
100
AcDbEntity
  8
D-6
  6
Continuous
 62
     6
370
     9
100
AcDbLine
 10
-271.6841065883635
 20
-540.5891678929328
 30
0.0
 11
-224.3440568447112
 21
-493.2491086125373
 31
0.0
  0
LINE
  5
164
330
1F
100
AcDbEntity
  8
D-6
  6
Continuous
 62
     6
370
     9
100
AcDbLine
 10
-521.683782339096
 20
-790.5868600010871
 30
0.0
 11
-324.3445146083831
 21
-593.2490800023078
 31
0.0
  0
LINE
  5
165
330
1F
100
AcDbEntity
  8
D-6
  6
Continuous
 62
     6
370
     9
100
AcDbLine
 10
-521.683782339096
 20
-804.7275231480597
 30
0.0
 11
-310.2038323879241
 21
-593.2490800023078
 31
0.0
  0
LINE
  5
166
330
1F
100
AcDbEntity
  8
D-6
  6
Continuous
 62
     6
370
     9
100
AcDbLine
 10
-271.6841065883635
 20
-554.7298501133918
 30
0.0
 11
-210.2033555507658
 21
-493.2491086125373
 31
0.0
  0
LINE
  5
167
330
1F
100
AcDbEntity
  8
D-6
  6
Continuous
 62
     6
370
     9
100
AcDbLine
 10
-521.683782339096
 20
-818.868224442005
 30
0.0
 11
-296.0631501674651
 21
-593.2490800023078
 31
0.0
  0
LINE
  5
168
330
1F
100
AcDbEntity
  8
D-6
  6
Continuous
 62
     6
370
     9
100
AcDbLine
 10
-271.6841065883635
 20
-568.8705323338507
 30
0.0
 11
-196.0626924037932
 21
-493.2491086125373
 31
0.0
  0
LINE
  5
169
330
1F
100
AcDbEntity
  8
D-6
  6
Continuous
 62
     6
370
     9
100
AcDbLine
 10
-182.5116288661955
 20
-843.2487557530402
 30
0.0
 11
-106.6831147670744
 21
-767.4207375645636
 31
0.0
  0
LINE
  5
16A
330
1F
100
AcDbEntity
  8
D-6
  6
Continuous
 62
     6
370
     9
100
AcDbLine
 10
-196.6522920131682
 20
-843.2487557530402
 30
0.0
 11
-106.6831147670744
 21
-753.2800362706183
 31
0.0
  0
LINE
  5
16B
330
1F
100
AcDbEntity
  8
D-6
  6
Continuous
 62
     6
370
     9
100
AcDbLine
 10
-168.3709275722502
 20
-843.2487557530402
 30
0.0
 11
-106.6831147670744
 21
-781.5614007115363
 31
0.0
  0
LINE
  5
16C
330
1F
100
AcDbEntity
  8
D-0
  6
Continuous
 62
     7
370
     9
100
AcDbLine
 10
-244.8386132717131
 20
-364.1988156437873
 30
0.0
 11
-244.8386132717131
 21
-362.6985357403754
 31
0.0
  0
LINE
  5
16D
330
1F
100
AcDbEntity
  8
D-0
  6
Continuous
 62
     7
370
     9
100
AcDbLine
 10
-244.8386132717131
 20
-362.6985357403754
 30
0.0
 11
-243.3388459682463
 21
-362.6985357403754
 31
0.0
  0
LINE
  5
16E
330
1F
100
AcDbEntity
  8
D-0
  6
Continuous
 62
     7
370
     9
100
AcDbLine
 10
-243.3388459682463
 20
-362.6985357403754
 30
0.0
 11
-243.3388459682463
 21
-364.1988156437873
 31
0.0
  0
LINE
  5
16F
330
1F
100
AcDbEntity
  8
D-0
  6
Continuous
 62
     7
370
     9
100
AcDbLine
 10
-243.3388459682463
 20
-364.1988156437873
 30
0.0
 11
-244.8386132717131
 21
-364.1988156437873
 31
0.0
  0
LINE
  5
170
330
1F
100
AcDbEntity
  8
D-0
  6
Continuous
 62
     7
370
     9
100
AcDbLine
 10
-194.0827882289885
 20
-366.9060562252997
 30
0.0
 11
-194.0827882289885
 21
-365.4057763218879
 31
0.0
  0
LINE
  5
171
330
1F
100
AcDbEntity
  8
D-0
  6
Continuous
 62
     7
370
     9
100
AcDbLine
 10
-194.0827882289885
 20
-365.4057763218879
 30
0.0
 11
-192.5825059413908
 21
-365.4057763218879
 31
0.0
  0
LINE
  5
172
330
1F
100
AcDbEntity
  8
D-0
  6
Continuous
 62
     7
370
     9
100
AcDbLine
 10
-192.5825059413908
 20
-365.4057763218879
 30
0.0
 11
-192.5825059413908
 21
-366.9060562252997
 31
0.0
  0
LINE
  5
173
330
1F
100
AcDbEntity
  8
D-0
  6
Continuous
 62
     7
370
     9
100
AcDbLine
 10
-192.5825059413908
 20
-366.9060562252997
 30
0.0
 11
-194.0827882289885
 21
-366.9060562252997
 31
0.0
  0
LINE
  5
174
330
1F
100
AcDbEntity
  8
D-0
  6
Continuous
 62
     7
370
     9
100
AcDbLine
 10
-129.1149461269377
 20
-364.8756263852118
 30
0.0
 11
-129.1149461269377
 21
-363.3753464818
 31
0.0
  0
LINE
  5
175
330
1F
100
AcDbEntity
  8
D-0
  6
Continuous
 62
     7
370
     9
100
AcDbLine
 10
-129.1149461269377
 20
-363.3753464818
 30
0.0
 11
-127.6151597499846
 21
-363.3753464818
 31
0.0
  0
LINE
  5
176
330
1F
100
AcDbEntity
  8
D-0
  6
Continuous
 62
     7
370
     9
100
AcDbLine
 10
-127.6151597499846
 20
-363.3753464818
 30
0.0
 11
-127.6151597499846
 21
-364.8756263852118
 31
0.0
  0
LINE
  5
177
330
1F
100
AcDbEntity
  8
D-0
  6
Continuous
 62
     7
370
     9
100
AcDbLine
 10
-127.6151597499846
 20
-364.8756263852118
 30
0.0
 11
-129.1149461269377
 21
-364.8756263852118
 31
0.0
  0
LINE
  5
178
330
1F
100
AcDbEntity
  8
D-0
  6
Continuous
 62
     7
370
     9
100
AcDbLine
 10
-153.4781587123869
 20
-397.359549820423
 30
0.0
 11
-153.4781587123869
 21
-395.8592675328254
 31
0.0
  0
LINE
  5
179
330
1F
100
AcDbEntity
  8
D-0
  6
Continuous
 62
     7
370
     9
100
AcDbLine
 10
-153.4781587123869
 20
-395.8592675328254
 30
0.0
 11
-151.9778764247893
 21
-395.8592675328254
 31
0.0
  0
LINE
  5
17A
330
1F
100
AcDbEntity
  8
D-0
  6
Continuous
 62
     7
370
     9
100
AcDbLine
 10
-151.9778764247893
 20
-395.8592675328254
 30
0.0
 11
-151.9778764247893
 21
-397.359549820423
 31
0.0
  0
LINE
  5
17B
330
1F
100
AcDbEntity
  8
D-0
  6
Continuous
 62
     7
370
     9
100
AcDbLine
 10
-151.9778764247893
 20
-397.359549820423
 30
0.0
 11
-153.4781587123869
 21
-397.359549820423
 31
0.0
  0
LINE
  5
17C
330
1F
100
AcDbEntity
  8
D-0
  6
Continuous
 62
     7
370
     9
100
AcDbLine
 10
-204.0431916713713
 20
-401.2906001210212
 30
0.0
 11
-204.0431916713713
 21
-399.7903178334235
 31
0.0
  0
LINE
  5
17D
330
1F
100
AcDbEntity
  8
D-0
  6
Continuous
 62
     7
370
     9
100
AcDbLine
 10
-204.0431916713713
 20
-399.7903178334235
 30
0.0
 11
-202.5434434413908
 21
-399.7903178334235
 31
0.0
  0
LINE
  5
17E
330
1F
100
AcDbEntity
  8
D-0
  6
Continuous
 62
     7
370
     9
100
AcDbLine
 10
-202.5434434413908
 20
-399.7903178334235
 30
0.0
 11
-202.5434434413908
 21
-401.2906001210212
 31
0.0
  0
LINE
  5
17F
330
1F
100
AcDbEntity
  8
D-0
  6
Continuous
 62
     7
370
     9
100
AcDbLine
 10
-202.5434434413908
 20
-401.2906001210212
 30
0.0
 11
-204.0431916713713
 21
-401.2906001210212
 31
0.0
  0
LINE
  5
180
330
1F
100
AcDbEntity
  8
D-0
  6
Continuous
 62
     7
370
     9
100
AcDbLine
 10
-221.1527192592619
 20
-435.2574608922004
 30
0.0
 11
-221.1527192592619
 21
-433.7571786046027
 31
0.0
  0
LINE
  5
181
330
1F
100
AcDbEntity
  8
D-0
  6
Continuous
 62
     7
370
     9
100
AcDbLine
 10
-221.1527192592619
 20
-433.7571786046027
 30
0.0
 11
-219.6524751186369
 21
-433.7571786046027
 31
0.0
  0
LINE
  5
182
330
1F
100
AcDbEntity
  8
D-0
  6
Continuous
 62
     7
370
     9
100
AcDbLine
 10
-219.6524751186369
 20
-433.7571786046027
 30
0.0
 11
-219.6524751186369
 21
-435.2574608922004
 31
0.0
  0
LINE
  5
183
330
1F
100
AcDbEntity
  8
D-0
  6
Continuous
 62
     7
370
     9
100
AcDbLine
 10
-219.6524751186369
 20
-435.2574608922004
 30
0.0
 11
-221.1527192592619
 21
-435.2574608922004
 31
0.0
  0
LINE
  5
184
330
1F
100
AcDbEntity
  8
D-0
  6
Continuous
 62
     7
370
     9
100
AcDbLine
 10
-252.5089776515959
 20
-420.6857226490973
 30
0.0
 11
-252.5089776515959
 21
-419.1854451298713
 31
0.0
  0
LINE
  5
185
330
1F
100
AcDbEntity
  8
D-0
  6
Continuous
 62
     7
370
     9
100
AcDbLine
 10
-252.5089776515959
 20
-419.1854451298713
 30
0.0
 11
-251.0091912746428
 21
-419.1854451298713
 31
0.0
  0
LINE
  5
186
330
1F
100
AcDbEntity
  8
D-0
  6
Continuous
 62
     7
370
     9
100
AcDbLine
 10
-251.0091912746428
 20
-419.1854451298713
 30
0.0
 11
-251.0091912746428
 21
-420.6857226490973
 31
0.0
  0
LINE
  5
187
330
1F
100
AcDbEntity
  8
D-0
  6
Continuous
 62
     7
370
     9
100
AcDbLine
 10
-251.0091912746428
 20
-420.6857226490973
 30
0.0
 11
-252.5089776515959
 21
-420.6857226490973
 31
0.0
  0
LINE
  5
188
330
1F
100
AcDbEntity
  8
D-0
  6
Continuous
 62
     7
370
     9
100
AcDbLine
 10
-263.2333886623381
 20
-461.9057534337043
 30
0.0
 11
-263.2333886623381
 21
-460.4054711461066
 31
0.0
  0
LINE
  5
189
330
1F
100
AcDbEntity
  8
D-0
  6
Continuous
 62
     7
370
     9
100
AcDbLine
 10
-263.2333886623381
 20
-460.4054711461066
 30
0.0
 11
-261.7331063747405
 21
-460.4054711461066
 31
0.0
  0
LINE
  5
18A
330
1F
100
AcDbEntity
  8
D-0
  6
Continuous
 62
     7
370
     9
100
AcDbLine
 10
-261.7331063747405
 20
-460.4054711461066
 30
0.0
 11
-261.7331063747405
 21
-461.9057534337043
 31
0.0
  0
LINE
  5
18B
330
1F
100
AcDbEntity
  8
D-0
  6
Continuous
 62
     7
370
     9
100
AcDbLine
 10
-261.7331063747405
 20
-461.9057534337043
 30
0.0
 11
-263.2333886623381
 21
-461.9057534337043
 31
0.0
  0
LINE
  5
18C
330
1F
100
AcDbEntity
  8
D-0
  6
Continuous
 62
     7
370
     9
100
AcDbLine
 10
-225.889924764633
 20
-470.4481289982795
 30
0.0
 11
-225.889924764633
 21
-468.9478467106818
 31
0.0
  0
LINE
  5
18D
330
1F
100
AcDbEntity
  8
D-0
  6
Continuous
 62
     7
370
     9
100
AcDbLine
 10
-225.889924764633
 20
-468.9478467106818
 30
0.0
 11
-224.3896424770354
 21
-468.9478467106818
 31
0.0
  0
LINE
  5
18E
330
1F
100
AcDbEntity
  8
D-0
  6
Continuous
 62
     7
370
     9
100
AcDbLine
 10
-224.3896424770354
 20
-468.9478467106818
 30
0.0
 11
-224.3896424770354
 21
-470.4481289982795
 31
0.0
  0
LINE
  5
18F
330
1F
100
AcDbEntity
  8
D-0
  6
Continuous
 62
     7
370
     9
100
AcDbLine
 10
-224.3896424770354
 20
-470.4481289982795
 30
0.0
 11
-225.889924764633
 21
-470.4481289982795
 31
0.0
  0
LINE
  5
190
330
1F
100
AcDbEntity
  8
D-0
  6
Continuous
 62
     7
370
     9
100
AcDbLine
 10
-173.6848390102385
 20
-475.1729176640509
 30
0.0
 11
-173.6848390102385
 21
-473.6726449131965
 31
0.0
  0
LINE
  5
191
330
1F
100
AcDbEntity
  8
D-0
  6
Continuous
 62
     7
370
     9
100
AcDbLine
 10
-173.6848390102385
 20
-473.6726449131965
 30
0.0
 11
-172.1850526332854
 21
-473.6726449131965
 31
0.0
  0
LINE
  5
192
330
1F
100
AcDbEntity
  8
D-0
  6
Continuous
 62
     7
370
     9
100
AcDbLine
 10
-172.1850526332854
 20
-473.6726449131965
 30
0.0
 11
-172.1850526332854
 21
-475.1729176640509
 31
0.0
  0
LINE
  5
193
330
1F
100
AcDbEntity
  8
D-0
  6
Continuous
 62
     7
370
     9
100
AcDbLine
 10
-172.1850526332854
 20
-475.1729176640509
 30
0.0
 11
-173.6848390102385
 21
-475.1729176640509
 31
0.0
  0
LINE
  5
194
330
1F
100
AcDbEntity
  8
D-0
  6
Continuous
 62
     7
370
     9
100
AcDbLine
 10
-118.963769674301
 20
-468.4176991581916
 30
0.0
 11
-118.963769674301
 21
-466.9174168705939
 31
0.0
  0
LINE
  5
195
330
1F
100
AcDbEntity
  8
D-0
  6
Continuous
 62
     7
370
     9
100
AcDbLine
 10
-118.963769674301
 20
-466.9174168705939
 30
0.0
 11
-117.4640214443205
 21
-466.9174168705939
 31
0.0
  0
LINE
  5
196
330
1F
100
AcDbEntity
  8
D-0
  6
Continuous
 62
     7
370
     9
100
AcDbLine
 10
-117.4640214443205
 20
-466.9174168705939
 30
0.0
 11
-117.4640214443205
 21
-468.4176991581916
 31
0.0
  0
LINE
  5
197
330
1F
100
AcDbEntity
  8
D-0
  6
Continuous
 62
     7
370
     9
100
AcDbLine
 10
-117.4640214443205
 20
-468.4176991581916
 30
0.0
 11
-118.963769674301
 21
-468.4176991581916
 31
0.0
  0
LINE
  5
198
330
1F
100
AcDbEntity
  8
D-0
  6
Continuous
 62
     7
370
     9
100
AcDbLine
 10
-131.1453950405119
 20
-428.4898541569709
 30
0.0
 11
-131.1453950405119
 21
-426.9895718693732
 31
0.0
  0
LINE
  5
199
330
1F
100
AcDbEntity
  8
D-0
  6
Continuous
 62
     7
370
     9
100
AcDbLine
 10
-131.1453950405119
 20
-426.9895718693732
 30
0.0
 11
-129.6451127529143
 21
-426.9895718693732
 31
0.0
  0
LINE
  5
19A
330
1F
100
AcDbEntity
  8
D-0
  6
Continuous
 62
     7
370
     9
100
AcDbLine
 10
-129.6451127529143
 20
-426.9895718693732
 30
0.0
 11
-129.6451127529143
 21
-428.4898541569709
 31
0.0
  0
LINE
  5
19B
330
1F
100
AcDbEntity
  8
D-0
  6
Continuous
 62
     7
370
     9
100
AcDbLine
 10
-129.6451127529143
 20
-428.4898541569709
 30
0.0
 11
-131.1453950405119
 21
-428.4898541569709
 31
0.0
  0
LINE
  5
19C
330
1F
100
AcDbEntity
  8
D-0
  6
Continuous
 62
     7
370
     9
100
AcDbLine
 10
-172.1741425991057
 20
-437.607466995716
 30
0.0
 11
-172.1741425991057
 21
-436.1071847081183
 31
0.0
  0
LINE
  5
19D
330
1F
100
AcDbEntity
  8
D-0
  6
Continuous
 62
     7
370
     9
100
AcDbLine
 10
-172.1741425991057
 20
-436.1071847081183
 30
0.0
 11
-170.6743943691252
 21
-436.1071847081183
 31
0.0
  0
LINE
  5
19E
330
1F
100
AcDbEntity
  8
D-0
  6
Continuous
 62
     7
370
     9
100
AcDbLine
 10
-170.6743943691252
 20
-436.1071847081183
 30
0.0
 11
-170.6743943691252
 21
-437.607466995716
 31
0.0
  0
LINE
  5
19F
330
1F
100
AcDbEntity
  8
D-0
  6
Continuous
 62
     7
370
     9
100
AcDbLine
 10
-170.6743943691252
 20
-437.607466995716
 30
0.0
 11
-172.1741425991057
 21
-437.607466995716
 31
0.0
  0
LINE
  5
1A0
330
1F
100
AcDbEntity
  8
D-0
  6
Continuous
 62
     7
370
     9
100
AcDbLine
 10
-111.6893327236174
 20
-398.1191037297248
 30
0.0
 11
-111.6893327236174
 21
-396.6188214421271
 31
0.0
  0
LINE
  5
1A1
330
1F
100
AcDbEntity
  8
D-0
  6
Continuous
 62
     7
370
     9
100
AcDbLine
 10
-111.6893327236174
 20
-396.6188214421271
 30
0.0
 11
-110.1890504360198
 21
-396.6188214421271
 31
0.0
  0
LINE
  5
1A2
330
1F
100
AcDbEntity
  8
D-0
  6
Continuous
 62
     7
370
     9
100
AcDbLine
 10
-110.1890504360198
 20
-396.6188214421271
 30
0.0
 11
-110.1890504360198
 21
-398.1191037297248
 31
0.0
  0
LINE
  5
1A3
330
1F
100
AcDbEntity
  8
D-0
  6
Continuous
 62
     7
370
     9
100
AcDbLine
 10
-110.1890504360198
 20
-398.1191037297248
 30
0.0
 11
-111.6893327236174
 21
-398.1191037297248
 31
0.0
  0
LINE
  5
1A4
330
1F
100
AcDbEntity
  8
D-0
  6
Continuous
 62
     7
370
     9
100
AcDbLine
 10
-265.6899201869963
 20
-387.2262213826178
 30
0.0
 11
-265.6899201869963
 21
-385.7259438633918
 31
0.0
  0
LINE
  5
1A5
330
1F
100
AcDbEntity
  8
D-0
  6
Continuous
 62
     7
370
     9
100
AcDbLine
 10
-265.6899201869963
 20
-385.7259438633918
 30
0.0
 11
-264.189656972885
 21
-385.7259438633918
 31
0.0
  0
LINE
  5
1A6
330
1F
100
AcDbEntity
  8
D-0
  6
Continuous
 62
     7
370
     9
100
AcDbLine
 10
-264.189656972885
 20
-385.7259438633918
 30
0.0
 11
-264.189656972885
 21
-387.2262213826178
 31
0.0
  0
LINE
  5
1A7
330
1F
100
AcDbEntity
  8
D-0
  6
Continuous
 62
     7
370
     9
100
AcDbLine
 10
-264.189656972885
 20
-387.2262213826178
 30
0.0
 11
-265.6899201869963
 21
-387.2262213826178
 31
0.0
  0
LINE
  5
1A8
330
1F
100
AcDbEntity
  8
D-0
  6
Continuous
 62
     7
370
     9
100
AcDbLine
 10
-349.0396630764006
 20
-510.4765580296515
 30
0.0
 11
-349.0396630764006
 21
-508.9762757420539
 31
0.0
  0
LINE
  5
1A9
330
1F
100
AcDbEntity
  8
D-0
  6
Continuous
 62
     7
370
     9
100
AcDbLine
 10
-349.0396630764006
 20
-508.9762757420539
 30
0.0
 11
-347.539380788803
 21
-508.9762757420539
 31
0.0
  0
LINE
  5
1AA
330
1F
100
AcDbEntity
  8
D-0
  6
Continuous
 62
     7
370
     9
100
AcDbLine
 10
-347.539380788803
 20
-508.9762757420539
 30
0.0
 11
-347.539380788803
 21
-510.4765580296515
 31
0.0
  0
LINE
  5
1AB
330
1F
100
AcDbEntity
  8
D-0
  6
Continuous
 62
     7
370
     9
100
AcDbLine
 10
-347.539380788803
 20
-510.4765580296515
 30
0.0
 11
-349.0396630764006
 21
-510.4765580296515
 31
0.0
  0
LINE
  5
1AC
330
1F
100
AcDbEntity
  8
D-0
  6
Continuous
 62
     7
370
     9
100
AcDbLine
 10
-299.6751153469085
 20
-518.3748314976691
 30
0.0
 11
-299.6751153469085
 21
-516.8745492100715
 31
0.0
  0
LINE
  5
1AD
330
1F
100
AcDbEntity
  8
D-0
  6
Continuous
 62
     7
370
     9
100
AcDbLine
 10
-299.6751153469085
 20
-516.8745492100715
 30
0.0
 11
-298.1748521327971
 21
-516.8745492100715
 31
0.0
  0
LINE
  5
1AE
330
1F
100
AcDbEntity
  8
D-0
  6
Continuous
 62
     7
370
     9
100
AcDbLine
 10
-298.1748521327971
 20
-516.8745492100715
 30
0.0
 11
-298.1748521327971
 21
-518.3748314976691
 31
0.0
  0
LINE
  5
1AF
330
1F
100
AcDbEntity
  8
D-0
  6
Continuous
 62
     7
370
     9
100
AcDbLine
 10
-298.1748521327971
 20
-518.3748314976691
 30
0.0
 11
-299.6751153469085
 21
-518.3748314976691
 31
0.0
  0
LINE
  5
1B0
330
1F
100
AcDbEntity
  8
D-0
  6
Continuous
 62
     7
370
     9
100
AcDbLine
 10
-316.5562379360198
 20
-538.9556000828742
 30
0.0
 11
-316.5562379360198
 21
-537.4553368687629
 31
0.0
  0
LINE
  5
1B1
330
1F
100
AcDbEntity
  8
D-0
  6
Continuous
 62
     7
370
     9
100
AcDbLine
 10
-316.5562379360198
 20
-537.4553368687629
 30
0.0
 11
-315.0564515590667
 21
-537.4553368687629
 31
0.0
  0
LINE
  5
1B2
330
1F
100
AcDbEntity
  8
D-0
  6
Continuous
 62
     7
370
     9
100
AcDbLine
 10
-315.0564515590667
 20
-537.4553368687629
 30
0.0
 11
-315.0564515590667
 21
-538.9556000828742
 31
0.0
  0
LINE
  5
1B3
330
1F
100
AcDbEntity
  8
D-0
  6
Continuous
 62
     7
370
     9
100
AcDbLine
 10
-315.0564515590667
 20
-538.9556000828742
 30
0.0
 11
-316.5562379360198
 21
-538.9556000828742
 31
0.0
  0
LINE
  5
1B4
330
1F
100
AcDbEntity
  8
D-0
  6
Continuous
 62
     7
370
     9
100
AcDbLine
 10
-364.8362100124358
 20
-573.6636994481086
 30
0.0
 11
-364.8362100124358
 21
-572.1634171605109
 31
0.0
  0
LINE
  5
1B5
330
1F
100
AcDbEntity
  8
D-0
  6
Continuous
 62
     7
370
     9
100
AcDbLine
 10
-364.8362100124358
 20
-572.1634171605109
 30
0.0
 11
-363.3364236354827
 21
-572.1634171605109
 31
0.0
  0
LINE
  5
1B6
330
1F
100
AcDbEntity
  8
D-0
  6
Continuous
 62
     7
370
     9
100
AcDbLine
 10
-363.3364236354827
 20
-572.1634171605109
 30
0.0
 11
-363.3364236354827
 21
-573.6636994481086
 31
0.0
  0
LINE
  5
1B7
330
1F
100
AcDbEntity
  8
D-0
  6
Continuous
 62
     7
370
     9
100
AcDbLine
 10
-363.3364236354827
 20
-573.6636994481086
 30
0.0
 11
-364.8362100124358
 21
-573.6636994481086
 31
0.0
  0
LINE
  5
1B8
330
1F
100
AcDbEntity
  8
D-0
  6
Continuous
 62
     7
370
     9
100
AcDbLine
 10
-293.7512910366057
 20
-571.6887543797492
 30
0.0
 11
-293.7512910366057
 21
-570.1884720921515
 31
0.0
  0
LINE
  5
1B9
330
1F
100
AcDbEntity
  8
D-0
  6
Continuous
 62
     7
370
     9
100
AcDbLine
 10
-293.7512910366057
 20
-570.1884720921515
 30
0.0
 11
-292.2510278224944
 21
-570.1884720921515
 31
0.0
  0
LINE
  5
1BA
330
1F
100
AcDbEntity
  8
D-0
  6
Continuous
 62
     7
370
     9
100
AcDbLine
 10
-292.2510278224944
 20
-570.1884720921515
 30
0.0
 11
-292.2510278224944
 21
-571.6887543797492
 31
0.0
  0
LINE
  5
1BB
330
1F
100
AcDbEntity
  8
D-0
  6
Continuous
 62
     7
370
     9
100
AcDbLine
 10
-292.2510278224944
 20
-571.6887543797492
 30
0.0
 11
-293.7512910366057
 21
-571.6887543797492
 31
0.0
  0
LINE
  5
1BC
330
1F
100
AcDbEntity
  8
D-0
  6
Continuous
 62
     7
370
     9
100
AcDbLine
 10
-351.0141122341155
 20
-540.0956795811652
 30
0.0
 11
-351.0141122341155
 21
-538.5953972935675
 31
0.0
  0
LINE
  5
1BD
330
1F
100
AcDbEntity
  8
D-0
  6
Continuous
 62
     7
370
     9
100
AcDbLine
 10
-351.0141122341155
 20
-538.5953972935675
 30
0.0
 11
-349.5143258571624
 21
-538.5953972935675
 31
0.0
  0
LINE
  5
1BE
330
1F
100
AcDbEntity
  8
D-0
  6
Continuous
 62
     7
370
     9
100
AcDbLine
 10
-349.5143258571624
 20
-538.5953972935675
 30
0.0
 11
-349.5143258571624
 21
-540.0956795811652
 31
0.0
  0
LINE
  5
1BF
330
1F
100
AcDbEntity
  8
D-0
  6
Continuous
 62
     7
370
     9
100
AcDbLine
 10
-349.5143258571624
 20
-540.0956795811652
 30
0.0
 11
-351.0141122341155
 21
-540.0956795811652
 31
0.0
  0
LINE
  5
1C0
330
1F
100
AcDbEntity
  8
D-0
  6
Continuous
 62
     7
370
     9
100
AcDbLine
 10
-319.147046804428
 20
-496.2169621586798
 30
0.0
 11
-319.147046804428
 21
-494.7166894078254
 31
0.0
  0
LINE
  5
1C1
330
1F
100
AcDbEntity
  8
D-0
  6
Continuous
 62
     7
370
     9
100
AcDbLine
 10
-319.147046804428
 20
-494.7166894078254
 30
0.0
 11
-317.6467645168303
 21
-494.7166894078254
 31
0.0
  0
LINE
  5
1C2
330
1F
100
AcDbEntity
  8
D-0
  6
Continuous
 62
     7
370
     9
100
AcDbLine
 10
-317.6467645168303
 20
-494.7166894078254
 30
0.0
 11
-317.6467645168303
 21
-496.2169621586798
 31
0.0
  0
LINE
  5
1C3
330
1F
100
AcDbEntity
  8
D-0
  6
Continuous
 62
     7
370
     9
100
AcDbLine
 10
-317.6467645168303
 20
-496.2169621586798
 30
0.0
 11
-319.147046804428
 21
-496.2169621586798
 31
0.0
  0
LINE
  5
1C4
330
1F
100
AcDbEntity
  8
D-0
  6
Continuous
 62
     7
370
     9
100
AcDbLine
 10
-328.4306466579436
 20
-567.6566193699836
 30
0.0
 11
-328.4306466579436
 21
-566.1563561558722
 31
0.0
  0
LINE
  5
1C5
330
1F
100
AcDbEntity
  8
D-0
  6
Continuous
 62
     7
370
     9
100
AcDbLine
 10
-328.4306466579436
 20
-566.1563561558722
 30
0.0
 11
-326.930364370346
 21
-566.1563561558722
 31
0.0
  0
LINE
  5
1C6
330
1F
100
AcDbEntity
  8
D-0
  6
Continuous
 62
     7
370
     9
100
AcDbLine
 10
-326.930364370346
 20
-566.1563561558722
 30
0.0
 11
-326.930364370346
 21
-567.6566193699836
 31
0.0
  0
LINE
  5
1C7
330
1F
100
AcDbEntity
  8
D-0
  6
Continuous
 62
     7
370
     9
100
AcDbLine
 10
-326.930364370346
 20
-567.6566193699836
 30
0.0
 11
-328.4306466579436
 21
-567.6566193699836
 31
0.0
  0
LINE
  5
1C8
330
1F
100
AcDbEntity
  8
D-0
  6
Continuous
 62
     7
370
     9
100
AcDbLine
 10
-491.5563046932219
 20
-357.7805123925208
 30
0.0
 11
-491.5563046932219
 21
-356.2802324891089
 31
0.0
  0
LINE
  5
1C9
330
1F
100
AcDbEntity
  8
D-0
  6
Continuous
 62
     7
370
     9
100
AcDbLine
 10
-491.5563046932219
 20
-356.2802324891089
 30
0.0
 11
-490.0560271739959
 21
-356.2802324891089
 31
0.0
  0
LINE
  5
1CA
330
1F
100
AcDbEntity
  8
D-0
  6
Continuous
 62
     7
370
     9
100
AcDbLine
 10
-490.0560271739959
 20
-356.2802324891089
 30
0.0
 11
-490.0560271739959
 21
-357.7805123925208
 31
0.0
  0
LINE
  5
1CB
330
1F
100
AcDbEntity
  8
D-0
  6
Continuous
 62
     7
370
     9
100
AcDbLine
 10
-490.0560271739959
 20
-357.7805123925208
 30
0.0
 11
-491.5563046932219
 21
-357.7805123925208
 31
0.0
  0
LINE
  5
1CC
330
1F
100
AcDbEntity
  8
D-0
  6
Continuous
 62
     7
370
     9
100
AcDbLine
 10
-470.311597585678
 20
-373.5790298581122
 30
0.0
 11
-470.311597585678
 21
-372.0787499547004
 31
0.0
  0
LINE
  5
1CD
330
1F
100
AcDbEntity
  8
D-0
  6
Continuous
 62
     7
370
     9
100
AcDbLine
 10
-470.311597585678
 20
-372.0787499547004
 30
0.0
 11
-468.8113152980803
 21
-372.0787499547004
 31
0.0
  0
LINE
  5
1CE
330
1F
100
AcDbEntity
  8
D-0
  6
Continuous
 62
     7
370
     9
100
AcDbLine
 10
-468.8113152980803
 20
-372.0787499547004
 30
0.0
 11
-468.8113152980803
 21
-373.5790298581122
 31
0.0
  0
LINE
  5
1CF
330
1F
100
AcDbEntity
  8
D-0
  6
Continuous
 62
     7
370
     9
100
AcDbLine
 10
-468.8113152980803
 20
-373.5790298581122
 30
0.0
 11
-470.311597585678
 21
-373.5790298581122
 31
0.0
  0
LINE
  5
1D0
330
1F
100
AcDbEntity
  8
D-0
  6
Continuous
 62
     7
370
     9
100
AcDbLine
 10
-446.4453637599944
 20
-414.6593354344367
 30
0.0
 11
-446.4453637599944
 21
-413.1590579152106
 31
0.0
  0
LINE
  5
1D1
330
1F
100
AcDbEntity
  8
D-0
  6
Continuous
 62
     7
370
     9
100
AcDbLine
 10
-446.4453637599944
 20
-413.1590579152106
 30
0.0
 11
-444.9455773830413
 21
-413.1590579152106
 31
0.0
  0
LINE
  5
1D2
330
1F
100
AcDbEntity
  8
D-0
  6
Continuous
 62
     7
370
     9
100
AcDbLine
 10
-444.9455773830413
 20
-413.1590579152106
 30
0.0
 11
-444.9455773830413
 21
-414.6593354344367
 31
0.0
  0
LINE
  5
1D3
330
1F
100
AcDbEntity
  8
D-0
  6
Continuous
 62
     7
370
     9
100
AcDbLine
 10
-444.9455773830413
 20
-414.6593354344367
 30
0.0
 11
-446.4453637599944
 21
-414.6593354344367
 31
0.0
  0
LINE
  5
1D4
330
1F
100
AcDbEntity
  8
D-0
  6
Continuous
 62
     7
370
     9
100
AcDbLine
 10
-400.68088889122
 20
-361.7031393647193
 30
0.0
 11
-400.68088889122
 21
-360.2028594613074
 31
0.0
  0
LINE
  5
1D5
330
1F
100
AcDbEntity
  8
D-0
  6
Continuous
 62
     7
370
     9
100
AcDbLine
 10
-400.68088889122
 20
-360.2028594613074
 30
0.0
 11
-399.18111205101
 21
-360.2028594613074
 31
0.0
  0
LINE
  5
1D6
330
1F
100
AcDbEntity
  8
D-0
  6
Continuous
 62
     7
370
     9
100
AcDbLine
 10
-399.18111205101
 20
-360.2028594613074
 30
0.0
 11
-399.18111205101
 21
-361.7031393647193
 31
0.0
  0
LINE
  5
1D7
330
1F
100
AcDbEntity
  8
D-0
  6
Continuous
 62
     7
370
     9
100
AcDbLine
 10
-399.18111205101
 20
-361.7031393647193
 30
0.0
 11
-400.68088889122
 21
-361.7031393647193
 31
0.0
  0
LINE
  5
1D8
330
1F
100
AcDbEntity
  8
D-0
  6
Continuous
 62
     7
370
     9
100
AcDbLine
 10
-353.122819662094
 20
-356.3050065636634
 30
0.0
 11
-353.122819662094
 21
-354.8047266602515
 31
0.0
  0
LINE
  5
1D9
330
1F
100
AcDbEntity
  8
D-0
  6
Continuous
 62
     7
370
     9
100
AcDbLine
 10
-353.122819662094
 20
-354.8047266602515
 30
0.0
 11
-351.6230332851409
 21
-354.8047266602515
 31
0.0
  0
LINE
  5
1DA
330
1F
100
AcDbEntity
  8
D-0
  6
Continuous
 62
     7
370
     9
100
AcDbLine
 10
-351.6230332851409
 20
-354.8047266602515
 30
0.0
 11
-351.6230332851409
 21
-356.3050065636634
 31
0.0
  0
LINE
  5
1DB
330
1F
100
AcDbEntity
  8
D-0
  6
Continuous
 62
     7
370
     9
100
AcDbLine
 10
-351.6230332851409
 20
-356.3050065636634
 30
0.0
 11
-353.122819662094
 21
-356.3050065636634
 31
0.0
  0
LINE
  5
1DC
330
1F
100
AcDbEntity
  8
D-0
  6
Continuous
 62
     7
370
     9
100
AcDbLine
 10
-372.7364480495452
 20
-377.8796980977057
 30
0.0
 11
-372.7364480495452
 21
-376.3794205784797
 31
0.0
  0
LINE
  5
1DD
330
1F
100
AcDbEntity
  8
D-0
  6
Continuous
 62
     7
370
     9
100
AcDbLine
 10
-372.7364480495452
 20
-376.3794205784797
 30
0.0
 11
-371.2361657619475
 21
-376.3794205784797
 31
0.0
  0
LINE
  5
1DE
330
1F
100
AcDbEntity
  8
D-0
  6
Continuous
 62
     7
370
     9
100
AcDbLine
 10
-371.2361657619475
 20
-376.3794205784797
 30
0.0
 11
-371.2361657619475
 21
-377.8796980977057
 31
0.0
  0
LINE
  5
1DF
330
1F
100
AcDbEntity
  8
D-0
  6
Continuous
 62
     7
370
     9
100
AcDbLine
 10
-371.2361657619475
 20
-377.8796980977057
 30
0.0
 11
-372.7364480495452
 21
-377.8796980977057
 31
0.0
  0
LINE
  5
1E0
330
1F
100
AcDbEntity
  8
D-0
  6
Continuous
 62
     7
370
     9
100
AcDbLine
 10
-348.3787095546721
 20
-414.0058158040046
 30
0.0
 11
-348.3787095546721
 21
-412.5055335164069
 31
0.0
  0
LINE
  5
1E1
330
1F
100
AcDbEntity
  8
D-0
  6
Continuous
 62
     7
370
     9
100
AcDbLine
 10
-348.3787095546721
 20
-412.5055335164069
 30
0.0
 11
-346.8784272670745
 21
-412.5055335164069
 31
0.0
  0
LINE
  5
1E2
330
1F
100
AcDbEntity
  8
D-0
  6
Continuous
 62
     7
370
     9
100
AcDbLine
 10
-346.8784272670745
 20
-412.5055335164069
 30
0.0
 11
-346.8784272670745
 21
-414.0058158040046
 31
0.0
  0
LINE
  5
1E3
330
1F
100
AcDbEntity
  8
D-0
  6
Continuous
 62
     7
370
     9
100
AcDbLine
 10
-346.8784272670745
 20
-414.0058158040046
 30
0.0
 11
-348.3787095546721
 21
-414.0058158040046
 31
0.0
  0
LINE
  5
1E4
330
1F
100
AcDbEntity
  8
D-0
  6
Continuous
 62
     7
370
     9
100
AcDbLine
 10
-344.4555985927581
 20
-452.5785515904425
 30
0.0
 11
-344.4555985927581
 21
-451.0782693028449
 31
0.0
  0
LINE
  5
1E5
330
1F
100
AcDbEntity
  8
D-0
  6
Continuous
 62
     7
370
     9
100
AcDbLine
 10
-344.4555985927581
 20
-451.0782693028449
 30
0.0
 11
-342.9558122158049
 21
-451.0782693028449
 31
0.0
  0
LINE
  5
1E6
330
1F
100
AcDbEntity
  8
D-0
  6
Continuous
 62
     7
370
     9
100
AcDbLine
 10
-342.9558122158049
 20
-451.0782693028449
 30
0.0
 11
-342.9558122158049
 21
-452.5785515904425
 31
0.0
  0
LINE
  5
1E7
330
1F
100
AcDbEntity
  8
D-0
  6
Continuous
 62
     7
370
     9
100
AcDbLine
 10
-342.9558122158049
 20
-452.5785515904425
 30
0.0
 11
-344.4555985927581
 21
-452.5785515904425
 31
0.0
  0
LINE
  5
1E8
330
1F
100
AcDbEntity
  8
D-0
  6
Continuous
 62
     7
370
     9
100
AcDbLine
 10
-420.1245725154876
 20
-376.2045190930365
 30
0.0
 11
-420.1245725154876
 21
-374.7042391896247
 31
0.0
  0
LINE
  5
1E9
330
1F
100
AcDbEntity
  8
D-0
  6
Continuous
 62
     7
370
     9
100
AcDbLine
 10
-420.1245725154876
 20
-374.7042391896247
 30
0.0
 11
-418.6242902278899
 21
-374.7042391896247
 31
0.0
  0
LINE
  5
1EA
330
1F
100
AcDbEntity
  8
D-0
  6
Continuous
 62
     7
370
     9
100
AcDbLine
 10
-418.6242902278899
 20
-374.7042391896247
 30
0.0
 11
-418.6242902278899
 21
-376.2045190930365
 31
0.0
  0
LINE
  5
1EB
330
1F
100
AcDbEntity
  8
D-0
  6
Continuous
 62
     7
370
     9
100
AcDbLine
 10
-418.6242902278899
 20
-376.2045190930365
 30
0.0
 11
-420.1245725154876
 21
-376.2045190930365
 31
0.0
  0
LINE
  5
1EC
330
1F
100
AcDbEntity
  8
D-0
  6
Continuous
 62
     7
370
     9
100
AcDbLine
 10
-498.4066569805144
 20
-503.6435387730597
 30
0.0
 11
-498.4066569805144
 21
-502.1432660222052
 31
0.0
  0
LINE
  5
1ED
330
1F
100
AcDbEntity
  8
D-0
  6
Continuous
 62
     7
370
     9
100
AcDbLine
 10
-498.4066569805144
 20
-502.1432660222052
 30
0.0
 11
-496.9063794612883
 21
-502.1432660222052
 31
0.0
  0
LINE
  5
1EE
330
1F
100
AcDbEntity
  8
D-0
  6
Continuous
 62
     7
370
     9
100
AcDbLine
 10
-496.9063794612883
 20
-502.1432660222052
 30
0.0
 11
-496.9063794612883
 21
-503.6435387730597
 31
0.0
  0
LINE
  5
1EF
330
1F
100
AcDbEntity
  8
D-0
  6
Continuous
 62
     7
370
     9
100
AcDbLine
 10
-496.9063794612883
 20
-503.6435387730597
 30
0.0
 11
-498.4066569805144
 21
-503.6435387730597
 31
0.0
  0
LINE
  5
1F0
330
1F
100
AcDbEntity
  8
D-0
  6
Continuous
 62
     7
370
     9
100
AcDbLine
 10
-649.1778028011321
 20
-492.7050850987433
 30
0.0
 11
-649.1778028011321
 21
-491.2048028111457
 31
0.0
  0
LINE
  5
1F1
330
1F
100
AcDbEntity
  8
D-0
  6
Continuous
 62
     7
370
     9
100
AcDbLine
 10
-649.1778028011321
 20
-491.2048028111457
 30
0.0
 11
-647.6775300502776
 21
-491.2048028111457
 31
0.0
  0
LINE
  5
1F2
330
1F
100
AcDbEntity
  8
D-0
  6
Continuous
 62
     7
370
     9
100
AcDbLine
 10
-647.6775300502776
 20
-491.2048028111457
 30
0.0
 11
-647.6775300502776
 21
-492.7050850987433
 31
0.0
  0
LINE
  5
1F3
330
1F
100
AcDbEntity
  8
D-0
  6
Continuous
 62
     7
370
     9
100
AcDbLine
 10
-647.6775300502776
 20
-492.7050850987433
 30
0.0
 11
-649.1778028011321
 21
-492.7050850987433
 31
0.0
  0
LINE
  5
1F4
330
1F
100
AcDbEntity
  8
D-0
  6
Continuous
 62
     7
370
     9
100
AcDbLine
 10
-589.9395596981047
 20
-597.358500778675
 30
0.0
 11
-589.9395596981047
 21
-595.8582184910773
 31
0.0
  0
LINE
  5
1F5
330
1F
100
AcDbEntity
  8
D-0
  6
Continuous
 62
     7
370
     9
100
AcDbLine
 10
-589.9395596981047
 20
-595.8582184910773
 30
0.0
 11
-588.4397780895232
 21
-595.8582184910773
 31
0.0
  0
LINE
  5
1F6
330
1F
100
AcDbEntity
  8
D-0
  6
Continuous
 62
     7
370
     9
100
AcDbLine
 10
-588.4397780895232
 20
-595.8582184910773
 30
0.0
 11
-588.4397780895232
 21
-597.358500778675
 31
0.0
  0
LINE
  5
1F7
330
1F
100
AcDbEntity
  8
D-0
  6
Continuous
 62
     7
370
     9
100
AcDbLine
 10
-588.4397780895232
 20
-597.358500778675
 30
0.0
 11
-589.9395596981047
 21
-597.358500778675
 31
0.0
  0
LINE
  5
1F8
330
1F
100
AcDbEntity
  8
D-0
  6
Continuous
 62
     7
370
     9
100
AcDbLine
 10
-603.762148618698
 20
-656.5962479710578
 30
0.0
 11
-603.762148618698
 21
-655.0959656834601
 31
0.0
  0
LINE
  5
1F9
330
1F
100
AcDbEntity
  8
D-0
  6
Continuous
 62
     7
370
     9
100
AcDbLine
 10
-603.762148618698
 20
-655.0959656834601
 30
0.0
 11
-602.2618663311004
 21
-655.0959656834601
 31
0.0
  0
LINE
  5
1FA
330
1F
100
AcDbEntity
  8
D-0
  6
Continuous
 62
     7
370
     9
100
AcDbLine
 10
-602.2618663311004
 20
-655.0959656834601
 30
0.0
 11
-602.2618663311004
 21
-656.5962479710578
 31
0.0
  0
LINE
  5
1FB
330
1F
100
AcDbEntity
  8
D-0
  6
Continuous
 62
     7
370
     9
100
AcDbLine
 10
-602.2618663311004
 20
-656.5962479710578
 30
0.0
 11
-603.762148618698
 21
-656.5962479710578
 31
0.0
  0
LINE
  5
1FC
330
1F
100
AcDbEntity
  8
D-0
  6
Continuous
 62
     7
370
     9
100
AcDbLine
 10
-634.3682420253753
 20
-667.4564431309699
 30
0.0
 11
-634.3682420253753
 21
-665.9561608433722
 31
0.0
  0
LINE
  5
1FD
330
1F
100
AcDbEntity
  8
D-0
  6
Continuous
 62
     7
370
     9
100
AcDbLine
 10
-634.3682420253753
 20
-665.9561608433722
 30
0.0
 11
-632.8679692745208
 21
-665.9561608433722
 31
0.0
  0
LINE
  5
1FE
330
1F
100
AcDbEntity
  8
D-0
  6
Continuous
 62
     7
370
     9
100
AcDbLine
 10
-632.8679692745208
 20
-665.9561608433722
 30
0.0
 11
-632.8679692745208
 21
-667.4564431309699
 31
0.0
  0
LINE
  5
1FF
330
1F
100
AcDbEntity
  8
D-0
  6
Continuous
 62
     7
370
     9
100
AcDbLine
 10
-632.8679692745208
 20
-667.4564431309699
 30
0.0
 11
-634.3682420253753
 21
-667.4564431309699
 31
0.0
  0
LINE
  5
200
330
1F
100
AcDbEntity
  8
D-0
  6
Continuous
 62
     7
370
     9
100
AcDbLine
 10
-657.2217404842376
 20
-601.3078759312629
 30
0.0
 11
-657.2217404842376
 21
-599.8075936436652
 31
0.0
  0
LINE
  5
201
330
1F
100
AcDbEntity
  8
D-0
  6
Continuous
 62
     7
370
     9
100
AcDbLine
 10
-657.2217404842376
 20
-599.8075936436652
 30
0.0
 11
-655.7219541072844
 21
-599.8075936436652
 31
0.0
  0
LINE
  5
202
330
1F
100
AcDbEntity
  8
D-0
  6
Continuous
 62
     7
370
     9
100
AcDbLine
 10
-655.7219541072844
 20
-599.8075936436652
 30
0.0
 11
-655.7219541072844
 21
-601.3078759312629
 31
0.0
  0
LINE
  5
203
330
1F
100
AcDbEntity
  8
D-0
  6
Continuous
 62
     7
370
     9
100
AcDbLine
 10
-655.7219541072844
 20
-601.3078759312629
 30
0.0
 11
-657.2217404842376
 21
-601.3078759312629
 31
0.0
  0
LINE
  5
204
330
1F
100
AcDbEntity
  8
D-0
  6
Continuous
 62
     7
370
     9
100
AcDbLine
 10
-631.4063298702239
 20
-579.5875237584113
 30
0.0
 11
-631.4063298702239
 21
-578.0872414708136
 31
0.0
  0
LINE
  5
205
330
1F
100
AcDbEntity
  8
D-0
  6
Continuous
 62
     7
370
     9
100
AcDbLine
 10
-631.4063298702239
 20
-578.0872414708136
 30
0.0
 11
-629.9060571193694
 21
-578.0872414708136
 31
0.0
  0
LINE
  5
206
330
1F
100
AcDbEntity
  8
D-0
  6
Continuous
 62
     7
370
     9
100
AcDbLine
 10
-629.9060571193694
 20
-578.0872414708136
 30
0.0
 11
-629.9060571193694
 21
-579.5875237584113
 31
0.0
  0
LINE
  5
207
330
1F
100
AcDbEntity
  8
D-0
  6
Continuous
 62
     7
370
     9
100
AcDbLine
 10
-629.9060571193694
 20
-579.5875237584113
 30
0.0
 11
-631.4063298702239
 21
-579.5875237584113
 31
0.0
  0
LINE
  5
208
330
1F
100
AcDbEntity
  8
D-0
  6
Continuous
 62
     7
370
     9
100
AcDbLine
 10
-568.2192003726958
 20
-632.0804474949836
 30
0.0
 11
-568.2192003726958
 21
-630.5801652073859
 31
0.0
  0
LINE
  5
209
330
1F
100
AcDbEntity
  8
D-0
  6
Continuous
 62
     7
370
     9
100
AcDbLine
 10
-568.2192003726958
 20
-630.5801652073859
 30
0.0
 11
-566.7194163799285
 21
-630.5801652073859
 31
0.0
  0
LINE
  5
20A
330
1F
100
AcDbEntity
  8
D-0
  6
Continuous
 62
     7
370
     9
100
AcDbLine
 10
-566.7194163799285
 20
-630.5801652073859
 30
0.0
 11
-566.7194163799285
 21
-632.0804474949836
 31
0.0
  0
LINE
  5
20B
330
1F
100
AcDbEntity
  8
D-0
  6
Continuous
 62
     7
370
     9
100
AcDbLine
 10
-566.7194163799285
 20
-632.0804474949836
 30
0.0
 11
-568.2192003726958
 21
-632.0804474949836
 31
0.0
  0
LINE
  5
20C
330
1F
100
AcDbEntity
  8
D-0
  6
Continuous
 62
     7
370
     9
100
AcDbLine
 10
-645.2284276485442
 20
-769.9594948887824
 30
0.0
 11
-645.2284276485442
 21
-768.4592126011847
 31
0.0
  0
LINE
  5
20D
330
1F
100
AcDbEntity
  8
D-0
  6
Continuous
 62
     7
370
     9
100
AcDbLine
 10
-645.2284276485442
 20
-768.4592126011847
 30
0.0
 11
-643.7286412715911
 21
-768.4592126011847
 31
0.0
  0
LINE
  5
20E
330
1F
100
AcDbEntity
  8
D-0
  6
Continuous
 62
     7
370
     9
100
AcDbLine
 10
-643.7286412715911
 20
-768.4592126011847
 30
0.0
 11
-643.7286412715911
 21
-769.9594948887824
 31
0.0
  0
LINE
  5
20F
330
1F
100
AcDbEntity
  8
D-0
  6
Continuous
 62
     7
370
     9
100
AcDbLine
 10
-643.7286412715911
 20
-769.9594948887824
 30
0.0
 11
-645.2284276485442
 21
-769.9594948887824
 31
0.0
  0
LINE
  5
210
330
1F
100
AcDbEntity
  8
D-0
  6
Continuous
 62
     7
370
     9
100
AcDbLine
 10
-574.8381674289702
 20
-773.6715386509894
 30
0.0
 11
-574.8381674289702
 21
-772.1712563633918
 31
0.0
  0
LINE
  5
211
330
1F
100
AcDbEntity
  8
D-0
  6
Continuous
 62
     7
370
     9
100
AcDbLine
 10
-574.8381674289702
 20
-772.1712563633918
 30
0.0
 11
-573.3383834362029
 21
-772.1712563633918
 31
0.0
  0
LINE
  5
212
330
1F
100
AcDbEntity
  8
D-0
  6
Continuous
 62
     7
370
     9
100
AcDbLine
 10
-573.3383834362029
 20
-772.1712563633918
 30
0.0
 11
-573.3383834362029
 21
-773.6715386509894
 31
0.0
  0
LINE
  5
213
330
1F
100
AcDbEntity
  8
D-0
  6
Continuous
 62
     7
370
     9
100
AcDbLine
 10
-573.3383834362029
 20
-773.6715386509894
 30
0.0
 11
-574.8381674289702
 21
-773.6715386509894
 31
0.0
  0
LINE
  5
214
330
1F
100
AcDbEntity
  8
D-0
  6
Continuous
 62
     7
370
     9
100
AcDbLine
 10
-550.4477256536483
 20
-799.5781396031379
 30
0.0
 11
-550.4477256536483
 21
-798.0778573155402
 31
0.0
  0
LINE
  5
215
330
1F
100
AcDbEntity
  8
D-0
  6
Continuous
 62
     7
370
     9
100
AcDbLine
 10
-550.4477256536483
 20
-798.0778573155402
 30
0.0
 11
-548.9479415118693
 21
-798.0778573155402
 31
0.0
  0
LINE
  5
216
330
1F
100
AcDbEntity
  8
D-0
  6
Continuous
 62
     7
370
     9
100
AcDbLine
 10
-548.9479415118693
 20
-798.0778573155402
 30
0.0
 11
-548.9479415118693
 21
-799.5781396031379
 31
0.0
  0
LINE
  5
217
330
1F
100
AcDbEntity
  8
D-0
  6
Continuous
 62
     7
370
     9
100
AcDbLine
 10
-548.9479415118693
 20
-799.5781396031379
 30
0.0
 11
-550.4477256536483
 21
-799.5781396031379
 31
0.0
  0
LINE
  5
218
330
1F
100
AcDbEntity
  8
D-0
  6
Continuous
 62
     7
370
     9
100
AcDbLine
 10
-544.1691452264785
 20
-837.7901528477668
 30
0.0
 11
-544.1691452264785
 21
-836.2898705601691
 31
0.0
  0
LINE
  5
219
330
1F
100
AcDbEntity
  8
D-0
  6
Continuous
 62
     7
370
     9
100
AcDbLine
 10
-544.1691452264785
 20
-836.2898705601691
 30
0.0
 11
-542.668865919113
 21
-836.2898705601691
 31
0.0
  0
LINE
  5
21A
330
1F
100
AcDbEntity
  8
D-0
  6
Continuous
 62
     7
370
     9
100
AcDbLine
 10
-542.668865919113
 20
-836.2898705601691
 30
0.0
 11
-542.668865919113
 21
-837.7901528477668
 31
0.0
  0
LINE
  5
21B
330
1F
100
AcDbEntity
  8
D-0
  6
Continuous
 62
     7
370
     9
100
AcDbLine
 10
-542.668865919113
 20
-837.7901528477668
 30
0.0
 11
-544.1691452264785
 21
-837.7901528477668
 31
0.0
  0
LINE
  5
21C
330
1F
100
AcDbEntity
  8
D-0
  6
Continuous
 62
     7
370
     9
100
AcDbLine
 10
-618.3978021144866
 20
-843.2487557530402
 30
0.0
 11
-618.3978021144866
 21
-841.7484734654425
 31
0.0
  0
LINE
  5
21D
330
1F
100
AcDbEntity
  8
D-0
  6
Continuous
 62
     7
370
     9
100
AcDbLine
 10
-618.3978021144866
 20
-841.7484734654425
 30
0.0
 11
-616.8975198268889
 21
-841.7484734654425
 31
0.0
  0
LINE
  5
21E
330
1F
100
AcDbEntity
  8
D-0
  6
Continuous
 62
     7
370
     9
100
AcDbLine
 10
-616.8975198268889
 20
-841.7484734654425
 30
0.0
 11
-616.8975198268889
 21
-843.2487557530402
 31
0.0
  0
LINE
  5
21F
330
1F
100
AcDbEntity
  8
D-0
  6
Continuous
 62
     7
370
     9
100
AcDbLine
 10
-616.8975198268889
 20
-843.2487557530402
 30
0.0
 11
-618.3978021144866
 21
-843.2487557530402
 31
0.0
  0
LINE
  5
220
330
1F
100
AcDbEntity
  8
D-0
  6
Continuous
 62
     7
370
     9
100
AcDbLine
 10
-653.1266915798186
 20
-833.9522622227668
 30
0.0
 11
-653.1266915798186
 21
-832.4519799351691
 31
0.0
  0
LINE
  5
221
330
1F
100
AcDbEntity
  8
D-0
  6
Continuous
 62
     7
370
     9
100
AcDbLine
 10
-653.1266915798186
 20
-832.4519799351691
 30
0.0
 11
-651.626409292221
 21
-832.4519799351691
 31
0.0
  0
LINE
  5
222
330
1F
100
AcDbEntity
  8
D-0
  6
Continuous
 62
     7
370
     9
100
AcDbLine
 10
-651.626409292221
 20
-832.4519799351691
 30
0.0
 11
-651.626409292221
 21
-833.9522622227668
 31
0.0
  0
LINE
  5
223
330
1F
100
AcDbEntity
  8
D-0
  6
Continuous
 62
     7
370
     9
100
AcDbLine
 10
-651.626409292221
 20
-833.9522622227668
 30
0.0
 11
-653.1266915798186
 21
-833.9522622227668
 31
0.0
  0
LINE
  5
224
330
1F
100
AcDbEntity
  8
D-0
  6
Continuous
 62
     7
370
     9
100
AcDbLine
 10
-655.3379666805266
 20
-793.6542962193488
 30
0.0
 11
-655.3379666805266
 21
-792.1540139317511
 31
0.0
  0
LINE
  5
225
330
1F
100
AcDbEntity
  8
D-0
  6
Continuous
 62
     7
370
     9
100
AcDbLine
 10
-655.3379666805266
 20
-792.1540139317511
 30
0.0
 11
-653.8381898403167
 21
-792.1540139317511
 31
0.0
  0
LINE
  5
226
330
1F
100
AcDbEntity
  8
D-0
  6
Continuous
 62
     7
370
     9
100
AcDbLine
 10
-653.8381898403167
 20
-792.1540139317511
 30
0.0
 11
-653.8381898403167
 21
-793.6542962193488
 31
0.0
  0
LINE
  5
227
330
1F
100
AcDbEntity
  8
D-0
  6
Continuous
 62
     7
370
     9
100
AcDbLine
 10
-653.8381898403167
 20
-793.6542962193488
 30
0.0
 11
-655.3379666805266
 21
-793.6542962193488
 31
0.0
  0
LINE
  5
228
330
1F
100
AcDbEntity
  8
D-0
  6
Continuous
 62
     7
370
     9
100
AcDbLine
 10
-597.8383243083953
 20
-813.4002373814582
 30
0.0
 11
-597.8383243083953
 21
-811.8999550938605
 31
0.0
  0
LINE
  5
229
330
1F
100
AcDbEntity
  8
D-0
  6
Continuous
 62
     7
370
     9
100
AcDbLine
 10
-597.8383243083953
 20
-811.8999550938605
 30
0.0
 11
-596.3380420207976
 21
-811.8999550938605
 31
0.0
  0
LINE
  5
22A
330
1F
100
AcDbEntity
  8
D-0
  6
Continuous
 62
     7
370
     9
100
AcDbLine
 10
-596.3380420207976
 20
-811.8999550938605
 30
0.0
 11
-596.3380420207976
 21
-813.4002373814582
 31
0.0
  0
LINE
  5
22B
330
1F
100
AcDbEntity
  8
D-0
  6
Continuous
 62
     7
370
     9
100
AcDbLine
 10
-596.3380420207976
 20
-813.4002373814582
 30
0.0
 11
-597.8383243083953
 21
-813.4002373814582
 31
0.0
  0
LINE
  5
22C
330
1F
100
AcDbEntity
  8
D-0
  6
Continuous
 62
     7
370
     9
100
AcDbLine
 10
-609.6859729290007
 20
-779.8321984410285
 30
0.0
 11
-609.6859729290007
 21
-778.3319161534308
 31
0.0
  0
LINE
  5
22D
330
1F
100
AcDbEntity
  8
D-0
  6
Continuous
 62
     7
370
     9
100
AcDbLine
 10
-609.6859729290007
 20
-778.3319161534308
 30
0.0
 11
-608.1856906414031
 21
-778.3319161534308
 31
0.0
  0
LINE
  5
22E
330
1F
100
AcDbEntity
  8
D-0
  6
Continuous
 62
     7
370
     9
100
AcDbLine
 10
-608.1856906414031
 20
-778.3319161534308
 30
0.0
 11
-608.1856906414031
 21
-779.8321984410285
 31
0.0
  0
LINE
  5
22F
330
1F
100
AcDbEntity
  8
D-0
  6
Continuous
 62
     7
370
     9
100
AcDbLine
 10
-608.1856906414031
 20
-779.8321984410285
 30
0.0
 11
-609.6859729290007
 21
-779.8321984410285
 31
0.0
  0
LINE
  5
230
330
1F
100
AcDbEntity
  8
D-0
  6
Continuous
 62
     7
370
     9
100
AcDbLine
 10
-554.3971073627471
 20
-665.6484673619269
 30
0.0
 11
-554.3971073627471
 21
-664.1481850743293
 31
0.0
  0
LINE
  5
231
330
1F
100
AcDbEntity
  8
D-0
  6
Continuous
 62
     7
370
     9
100
AcDbLine
 10
-554.3971073627471
 20
-664.1481850743293
 30
0.0
 11
-552.8973233699797
 21
-664.1481850743293
 31
0.0
  0
LINE
  5
232
330
1F
100
AcDbEntity
  8
D-0
  6
Continuous
 62
     7
370
     9
100
AcDbLine
 10
-552.8973233699797
 20
-664.1481850743293
 30
0.0
 11
-552.8973233699797
 21
-665.6484673619269
 31
0.0
  0
LINE
  5
233
330
1F
100
AcDbEntity
  8
D-0
  6
Continuous
 62
     7
370
     9
100
AcDbLine
 10
-552.8973233699797
 20
-665.6484673619269
 30
0.0
 11
-554.3971073627471
 21
-665.6484673619269
 31
0.0
  0
LINE
  5
234
330
1F
100
AcDbEntity
  8
D-0
  6
Continuous
 62
     7
370
     9
100
AcDbLine
 10
-542.54995316267
 20
-565.7649300694465
 30
0.0
 11
-542.54995316267
 21
-564.2646477818488
 31
0.0
  0
LINE
  5
235
330
1F
100
AcDbEntity
  8
D-0
  6
Continuous
 62
     7
370
     9
100
AcDbLine
 10
-542.54995316267
 20
-564.2646477818488
 30
0.0
 11
-541.0496735572814
 21
-564.2646477818488
 31
0.0
  0
LINE
  5
236
330
1F
100
AcDbEntity
  8
D-0
  6
Continuous
 62
     7
370
     9
100
AcDbLine
 10
-541.0496735572814
 20
-564.2646477818488
 30
0.0
 11
-541.0496735572814
 21
-565.7649300694465
 31
0.0
  0
LINE
  5
237
330
1F
100
AcDbEntity
  8
D-0
  6
Continuous
 62
     7
370
     9
100
AcDbLine
 10
-541.0496735572814
 20
-565.7649300694465
 30
0.0
 11
-542.54995316267
 21
-565.7649300694465
 31
0.0
  0
LINE
  5
238
330
1F
100
AcDbEntity
  8
D-0
  6
Continuous
 62
     7
370
     9
100
AcDbLine
 10
-446.4389169216155
 20
-576.9892762303351
 30
0.0
 11
-446.4389169216155
 21
-575.4889939427375
 31
0.0
  0
LINE
  5
239
330
1F
100
AcDbEntity
  8
D-0
  6
Continuous
 62
     7
370
     9
100
AcDbLine
 10
-446.4389169216155
 20
-575.4889939427375
 30
0.0
 11
-444.9391400814055
 21
-575.4889939427375
 31
0.0
  0
LINE
  5
23A
330
1F
100
AcDbEntity
  8
D-0
  6
Continuous
 62
     7
370
     9
100
AcDbLine
 10
-444.9391400814055
 20
-575.4889939427375
 30
0.0
 11
-444.9391400814055
 21
-576.9892762303351
 31
0.0
  0
LINE
  5
23B
330
1F
100
AcDbEntity
  8
D-0
  6
Continuous
 62
     7
370
     9
100
AcDbLine
 10
-444.9391400814055
 20
-576.9892762303351
 30
0.0
 11
-446.4389169216155
 21
-576.9892762303351
 31
0.0
  0
LINE
  5
23C
330
1F
100
AcDbEntity
  8
D-0
  6
Continuous
 62
     7
370
     9
100
AcDbLine
 10
-498.9734733104705
 20
-568.3641503453254
 30
0.0
 11
-498.9734733104705
 21
-566.8638680577277
 31
0.0
  0
LINE
  5
23D
330
1F
100
AcDbEntity
  8
D-0
  6
Continuous
 62
     7
370
     9
100
AcDbLine
 10
-498.9734733104705
 20
-566.8638680577277
 30
0.0
 11
-497.4736917018889
 21
-566.8638680577277
 31
0.0
  0
LINE
  5
23E
330
1F
100
AcDbEntity
  8
D-0
  6
Continuous
 62
     7
370
     9
100
AcDbLine
 10
-497.4736917018889
 20
-566.8638680577277
 30
0.0
 11
-497.4736917018889
 21
-568.3641503453254
 31
0.0
  0
LINE
  5
23F
330
1F
100
AcDbEntity
  8
D-0
  6
Continuous
 62
     7
370
     9
100
AcDbLine
 10
-497.4736917018889
 20
-568.3641503453254
 30
0.0
 11
-498.9734733104705
 21
-568.3641503453254
 31
0.0
  0
LINE
  5
240
330
1F
100
AcDbEntity
  8
D-0
  6
Continuous
 62
     7
370
     9
100
AcDbLine
 10
-635.3552186489104
 20
-628.9520524144172
 30
0.0
 11
-635.3552186489104
 21
-627.4517892003058
 31
0.0
  0
LINE
  5
241
330
1F
100
AcDbEntity
  8
D-0
  6
Continuous
 62
     7
370
     9
100
AcDbLine
 10
-635.3552186489104
 20
-627.4517892003058
 30
0.0
 11
-633.8554322719573
 21
-627.4517892003058
 31
0.0
  0
LINE
  5
242
330
1F
100
AcDbEntity
  8
D-0
  6
Continuous
 62
     7
370
     9
100
AcDbLine
 10
-633.8554322719573
 20
-627.4517892003058
 30
0.0
 11
-633.8554322719573
 21
-628.9520524144172
 31
0.0
  0
LINE
  5
243
330
1F
100
AcDbEntity
  8
D-0
  6
Continuous
 62
     7
370
     9
100
AcDbLine
 10
-633.8554322719573
 20
-628.9520524144172
 30
0.0
 11
-635.3552186489104
 21
-628.9520524144172
 31
0.0
  0
LINE
  5
244
330
1F
100
AcDbEntity
  8
D-0
  6
Continuous
 62
     7
370
     9
100
AcDbLine
 10
-604.23482298851
 20
-487.1810982823371
 30
0.0
 11
-604.23482298851
 21
-485.6808255314826
 31
0.0
  0
LINE
  5
245
330
1F
100
AcDbEntity
  8
D-0
  6
Continuous
 62
     7
370
     9
100
AcDbLine
 10
-604.23482298851
 20
-485.6808255314826
 30
0.0
 11
-602.734545469284
 21
-485.6808255314826
 31
0.0
  0
LINE
  5
246
330
1F
100
AcDbEntity
  8
D-0
  6
Continuous
 62
     7
370
     9
100
AcDbLine
 10
-602.734545469284
 20
-485.6808255314826
 30
0.0
 11
-602.734545469284
 21
-487.1810982823371
 31
0.0
  0
LINE
  5
247
330
1F
100
AcDbEntity
  8
D-0
  6
Continuous
 62
     7
370
     9
100
AcDbLine
 10
-602.734545469284
 20
-487.1810982823371
 30
0.0
 11
-604.23482298851
 21
-487.1810982823371
 31
0.0
  0
LINE
  5
248
330
1F
100
AcDbEntity
  8
D-0
  6
Continuous
 62
     7
370
     9
100
AcDbLine
 10
-548.4737779200076
 20
-598.5124467015265
 30
0.0
 11
-548.4737779200076
 21
-597.0121644139289
 31
0.0
  0
LINE
  5
249
330
1F
100
AcDbEntity
  8
D-0
  6
Continuous
 62
     7
370
     9
100
AcDbLine
 10
-548.4737779200076
 20
-597.0121644139289
 30
0.0
 11
-546.9734985008835
 21
-597.0121644139289
 31
0.0
  0
LINE
  5
24A
330
1F
100
AcDbEntity
  8
D-0
  6
Continuous
 62
     7
370
     9
100
AcDbLine
 10
-546.9734985008835
 20
-597.0121644139289
 30
0.0
 11
-546.9734985008835
 21
-598.5124467015265
 31
0.0
  0
LINE
  5
24B
330
1F
100
AcDbEntity
  8
D-0
  6
Continuous
 62
     7
370
     9
100
AcDbLine
 10
-546.9734985008835
 20
-598.5124467015265
 30
0.0
 11
-548.4737779200076
 21
-598.5124467015265
 31
0.0
  0
LINE
  5
24C
330
1F
100
AcDbEntity
  8
D-0
  6
Continuous
 62
     7
370
     9
100
AcDbLine
 10
-607.711032629013
 20
-621.0537980198859
 30
0.0
 11
-607.711032629013
 21
-619.5535157322882
 31
0.0
  0
LINE
  5
24D
330
1F
100
AcDbEntity
  8
D-0
  6
Continuous
 62
     7
370
     9
100
AcDbLine
 10
-607.711032629013
 20
-619.5535157322882
 30
0.0
 11
-606.2112510204314
 21
-619.5535157322882
 31
0.0
  0
LINE
  5
24E
330
1F
100
AcDbEntity
  8
D-0
  6
Continuous
 62
     7
370
     9
100
AcDbLine
 10
-606.2112510204314
 20
-619.5535157322882
 30
0.0
 11
-606.2112510204314
 21
-621.0537980198859
 31
0.0
  0
LINE
  5
24F
330
1F
100
AcDbEntity
  8
D-0
  6
Continuous
 62
     7
370
     9
100
AcDbLine
 10
-606.2112510204314
 20
-621.0537980198859
 30
0.0
 11
-607.711032629013
 21
-621.0537980198859
 31
0.0
  0
LINE
  5
250
330
1F
100
AcDbEntity
  8
D-0
  6
Continuous
 62
     7
370
     9
100
AcDbLine
 10
-595.8633840084075
 20
-694.1136239171027
 30
0.0
 11
-595.8633840084075
 21
-692.613341629505
 31
0.0
  0
LINE
  5
251
330
1F
100
AcDbEntity
  8
D-0
  6
Continuous
 62
     7
370
     9
100
AcDbLine
 10
-595.8633840084075
 20
-692.613341629505
 30
0.0
 11
-594.3636023998259
 21
-692.613341629505
 31
0.0
  0
LINE
  5
252
330
1F
100
AcDbEntity
  8
D-0
  6
Continuous
 62
     7
370
     9
100
AcDbLine
 10
-594.3636023998259
 20
-692.613341629505
 30
0.0
 11
-594.3636023998259
 21
-694.1136239171027
 31
0.0
  0
LINE
  5
253
330
1F
100
AcDbEntity
  8
D-0
  6
Continuous
 62
     7
370
     9
100
AcDbLine
 10
-594.3636023998259
 20
-694.1136239171027
 30
0.0
 11
-595.8633840084075
 21
-694.1136239171027
 31
0.0
  0
LINE
  5
254
330
1F
100
AcDbEntity
  8
D-0
  6
Continuous
 62
     7
370
     9
100
AcDbLine
 10
-644.2409551143645
 20
-693.126151382923
 30
0.0
 11
-644.2409551143645
 21
-691.6258690953254
 31
0.0
  0
LINE
  5
255
330
1F
100
AcDbEntity
  8
D-0
  6
Continuous
 62
     7
370
     9
100
AcDbLine
 10
-644.2409551143645
 20
-691.6258690953254
 30
0.0
 11
-642.7406728267669
 21
-691.6258690953254
 31
0.0
  0
LINE
  5
256
330
1F
100
AcDbEntity
  8
D-0
  6
Continuous
 62
     7
370
     9
100
AcDbLine
 10
-642.7406728267669
 20
-691.6258690953254
 30
0.0
 11
-642.7406728267669
 21
-693.126151382923
 31
0.0
  0
LINE
  5
257
330
1F
100
AcDbEntity
  8
D-0
  6
Continuous
 62
     7
370
     9
100
AcDbLine
 10
-642.7406728267669
 20
-693.126151382923
 30
0.0
 11
-644.2409551143645
 21
-693.126151382923
 31
0.0
  0
LINE
  5
258
330
1F
100
AcDbEntity
  8
D-0
  6
Continuous
 62
     7
370
     9
100
AcDbLine
 10
-631.2879121303557
 20
-812.2319100499152
 30
0.0
 11
-631.2879121303557
 21
-810.7316277623175
 31
0.0
  0
LINE
  5
259
330
1F
100
AcDbEntity
  8
D-0
  6
Continuous
 62
     7
370
     9
100
AcDbLine
 10
-631.2879121303557
 20
-810.7316277623175
 30
0.0
 11
-629.7881352901458
 21
-810.7316277623175
 31
0.0
  0
LINE
  5
25A
330
1F
100
AcDbEntity
  8
D-0
  6
Continuous
 62
     7
370
     9
100
AcDbLine
 10
-629.7881352901458
 20
-810.7316277623175
 30
0.0
 11
-629.7881352901458
 21
-812.2319100499152
 31
0.0
  0
LINE
  5
25B
330
1F
100
AcDbEntity
  8
D-0
  6
Continuous
 62
     7
370
     9
100
AcDbLine
 10
-629.7881352901458
 20
-812.2319100499152
 30
0.0
 11
-631.2879121303557
 21
-812.2319100499152
 31
0.0
  0
LINE
  5
25C
330
1F
100
AcDbEntity
  8
D-0
  6
Continuous
 62
     7
370
     9
100
AcDbLine
 10
-580.761991739273
 20
-841.739547073841
 30
0.0
 11
-580.761991739273
 21
-840.2392647862433
 31
0.0
  0
LINE
  5
25D
330
1F
100
AcDbEntity
  8
D-0
  6
Continuous
 62
     7
370
     9
100
AcDbLine
 10
-580.761991739273
 20
-840.2392647862433
 30
0.0
 11
-579.2622077465056
 21
-840.2392647862433
 31
0.0
  0
LINE
  5
25E
330
1F
100
AcDbEntity
  8
D-0
  6
Continuous
 62
     7
370
     9
100
AcDbLine
 10
-579.2622077465056
 20
-840.2392647862433
 30
0.0
 11
-579.2622077465056
 21
-841.739547073841
 31
0.0
  0
LINE
  5
25F
330
1F
100
AcDbEntity
  8
D-0
  6
Continuous
 62
     7
370
     9
100
AcDbLine
 10
-579.2622077465056
 20
-841.739547073841
 30
0.0
 11
-580.761991739273
 21
-841.739547073841
 31
0.0
  0
LINE
  5
260
330
1F
100
AcDbEntity
  8
D-0
  6
Continuous
 62
     7
370
     9
100
AcDbLine
 10
-544.5243963599204
 20
-766.0101006627082
 30
0.0
 11
-544.5243963599204
 21
-764.5098565220832
 31
0.0
  0
LINE
  5
261
330
1F
100
AcDbEntity
  8
D-0
  6
Continuous
 62
     7
370
     9
100
AcDbLine
 10
-544.5243963599204
 20
-764.5098565220832
 30
0.0
 11
-543.0241167545317
 21
-764.5098565220832
 31
0.0
  0
LINE
  5
262
330
1F
100
AcDbEntity
  8
D-0
  6
Continuous
 62
     7
370
     9
100
AcDbLine
 10
-543.0241167545317
 20
-764.5098565220832
 30
0.0
 11
-543.0241167545317
 21
-766.0101006627082
 31
0.0
  0
LINE
  5
263
330
1F
100
AcDbEntity
  8
D-0
  6
Continuous
 62
     7
370
     9
100
AcDbLine
 10
-543.0241167545317
 20
-766.0101006627082
 30
0.0
 11
-544.5243963599204
 21
-766.0101006627082
 31
0.0
  0
LINE
  5
264
330
1F
100
AcDbEntity
  8
D-0
  6
Continuous
 62
     7
370
     9
100
AcDbLine
 10
-661.5570962429045
 20
-647.9468415379523
 30
0.0
 11
-661.5570962429045
 21
-646.4465592503547
 31
0.0
  0
LINE
  5
265
330
1F
100
AcDbEntity
  8
D-0
  6
Continuous
 62
     7
370
     9
100
AcDbLine
 10
-661.5570962429045
 20
-646.4465592503547
 30
0.0
 11
-660.0568139553069
 21
-646.4465592503547
 31
0.0
  0
LINE
  5
266
330
1F
100
AcDbEntity
  8
D-0
  6
Continuous
 62
     7
370
     9
100
AcDbLine
 10
-660.0568139553069
 20
-646.4465592503547
 30
0.0
 11
-660.0568139553069
 21
-647.9468415379523
 31
0.0
  0
LINE
  5
267
330
1F
100
AcDbEntity
  8
D-0
  6
Continuous
 62
     7
370
     9
100
AcDbLine
 10
-660.0568139553069
 20
-647.9468415379523
 30
0.0
 11
-661.5570962429045
 21
-647.9468415379523
 31
0.0
  0
LINE
  5
268
330
1F
100
AcDbEntity
  8
D-0
  6
Continuous
 62
     7
370
     9
100
AcDbLine
 10
-544.6353814005851
 20
-691.6808770298957
 30
0.0
 11
-544.6353814005851
 21
-690.180594742298
 31
0.0
  0
LINE
  5
269
330
1F
100
AcDbEntity
  8
D-0
  6
Continuous
 62
     7
370
     9
100
AcDbLine
 10
-544.6353814005851
 20
-690.180594742298
 30
0.0
 11
-543.1351017951964
 21
-690.180594742298
 31
0.0
  0
LINE
  5
26A
330
1F
100
AcDbEntity
  8
D-0
  6
Continuous
 62
     7
370
     9
100
AcDbLine
 10
-543.1351017951964
 20
-690.180594742298
 30
0.0
 11
-543.1351017951964
 21
-691.6808770298957
 31
0.0
  0
LINE
  5
26B
330
1F
100
AcDbEntity
  8
D-0
  6
Continuous
 62
     7
370
     9
100
AcDbLine
 10
-543.1351017951964
 20
-691.6808770298957
 30
0.0
 11
-544.6353814005851
 21
-691.6808770298957
 31
0.0
  0
LINE
  5
26C
330
1F
100
AcDbEntity
  8
D-0
  6
Continuous
 62
     7
370
     9
100
AcDbLine
 10
-569.3657147884368
 20
-815.0268624424933
 30
0.0
 11
-569.3657147884368
 21
-813.5265801548957
 31
0.0
  0
LINE
  5
26D
330
1F
100
AcDbEntity
  8
D-0
  6
Continuous
 62
     7
370
     9
100
AcDbLine
 10
-569.3657147884368
 20
-813.5265801548957
 30
0.0
 11
-567.8654348850249
 21
-813.5265801548957
 31
0.0
  0
LINE
  5
26E
330
1F
100
AcDbEntity
  8
D-0
  6
Continuous
 62
     7
370
     9
100
AcDbLine
 10
-567.8654348850249
 20
-813.5265801548957
 30
0.0
 11
-567.8654348850249
 21
-815.0268624424933
 31
0.0
  0
LINE
  5
26F
330
1F
100
AcDbEntity
  8
D-0
  6
Continuous
 62
     7
370
     9
100
AcDbLine
 10
-567.8654348850249
 20
-815.0268624424933
 30
0.0
 11
-569.3657147884368
 21
-815.0268624424933
 31
0.0
  0
LINE
  5
270
330
1F
100
AcDbEntity
  8
D-0
  6
Continuous
 62
     7
370
     9
100
AcDbLine
 10
-537.5219362974166
 20
-502.5649140477179
 30
0.0
 11
-537.5219362974166
 21
-501.0646317601203
 31
0.0
  0
LINE
  5
271
330
1F
100
AcDbEntity
  8
D-0
  6
Continuous
 62
     7
370
     9
100
AcDbLine
 10
-537.5219362974166
 20
-501.0646317601203
 30
0.0
 11
-536.0216569900512
 21
-501.0646317601203
 31
0.0
  0
LINE
  5
272
330
1F
100
AcDbEntity
  8
D-0
  6
Continuous
 62
     7
370
     9
100
AcDbLine
 10
-536.0216569900512
 20
-501.0646317601203
 30
0.0
 11
-536.0216569900512
 21
-502.5649140477179
 31
0.0
  0
LINE
  5
273
330
1F
100
AcDbEntity
  8
D-0
  6
Continuous
 62
     7
370
     9
100
AcDbLine
 10
-536.0216569900512
 20
-502.5649140477179
 30
0.0
 11
-537.5219362974166
 21
-502.5649140477179
 31
0.0
  0
LINE
  5
274
330
1F
100
AcDbEntity
  8
D-4
  6
Continuous
 62
     7
370
     9
100
AcDbLine
 10
-371.6845643520354
 20
-490.0756333470343
 30
0.0
 11
-371.6845643520354
 21
-552.5591920018195
 31
0.0
  0
LINE
  5
275
330
1F
100
AcDbEntity
  8
D-5
  6
Continuous
 62
     7
370
     9
100
AcDbLine
 10
-381.6851174831389
 20
-428.2495949864386
 30
0.0
 11
-367.8734338283538
 21
-407.410180389881
 31
0.0
  0
LINE
  5
276
330
1F
100
AcDbEntity
  8
D-5
  6
Continuous
 62
     7
370
     9
100
AcDbLine
 10
-381.6851174831389
 20
-428.2495949864386
 30
0.0
 11
-362.9504525661467
 21
-411.6954920887946
 31
0.0
  0
LINE
  5
277
330
1F
100
AcDbEntity
  8
D-5
  6
Continuous
 62
     7
370
     9
100
AcDbLine
 10
-381.6851174831389
 20
-428.2495949864386
 30
0.0
 11
-259.9385201930999
 21
-288.3688519597052
 31
0.0
  0
LINE
  5
278
330
1F
100
AcDbEntity
  8
D-5
  6
Continuous
 62
     7
370
     9
100
AcDbLine
 10
-259.9385201930999
 20
-288.3688519597052
 30
0.0
 11
126.7649519443512
 21
-288.3688519597052
 31
0.0
  0
LINE
  5
279
330
1F
100
AcDbEntity
  8
D-4
  6
Continuous
 62
     7
370
     9
100
AcDbLine
 10
-359.8577249050139
 20
-478.2497857213019
 30
0.0
 11
-270.1106774806975
 21
-478.2497857213019
 31
0.0
  0
LINE
  5
27A
330
1F
100
AcDbEntity
  8
D-4
  6
Continuous
 62
     7
370
     9
100
AcDbLine
 10
-359.8577249050139
 20
-428.2495473027228
 30
0.0
 11
-270.1106774806975
 21
-428.2495473027228
 31
0.0
  0
LINE
  5
27B
330
1F
100
AcDbEntity
  8
D-4
  6
Continuous
 62
     7
370
     9
100
AcDbLine
 10
-273.1112229824065
 20
-428.2495473027228
 30
0.0
 11
-273.1112229824065
 21
-343.2494042515754
 31
0.0
  0
LINE
  5
27C
330
1F
100
AcDbEntity
  8
D-4
  6
Continuous
 62
     7
370
     9
100
AcDbLine
 10
-273.1112229824065
 20
-478.2497857213019
 30
0.0
 11
-273.1112229824065
 21
-428.2495473027228
 31
0.0
  0
LINE
  5
27D
330
1F
100
AcDbEntity
  8
D-4
  6
Continuous
 62
     7
370
     9
100
AcDbLine
 10
-516.6849958896636
 20
-549.5586465001105
 30
0.0
 11
-671.6839826107024
 21
-549.5586465001105
 31
0.0
  0
LINE
  5
27E
330
1F
100
AcDbEntity
  8
D-9
  6
Continuous
 62
     4
370
     9
100
AcDbLine
 10
-656.6846215724944
 20
-420.7500718235968
 30
0.0
 11
-541.6848647594451
 21
-420.7500718235968
 31
0.0
  0
LINE
  5
27F
330
1F
100
AcDbEntity
  8
D-1
  6
Continuous
 62
     2
370
     9
100
AcDbLine
 10
-516.6850292682647
 20
-346.2494043707846
 30
0.0
 11
-516.6850292682647
 21
-370.7492874264716
 31
0.0
  0
LINE
  5
280
330
1F
100
AcDbEntity
  8
D-1
  6
Continuous
 62
     2
370
     9
100
AcDbLine
 10
-516.6850292682647
 20
-465.2490304112433
 30
0.0
 11
-516.6850292682647
 21
-440.7491467595099
 31
0.0
  0
LINE
  5
281
330
1F
100
AcDbEntity
  8
D-1
  6
Continuous
 62
     2
370
     9
100
AcDbLine
 10
-538.6847805976867
 20
-343.2498150403552
 30
0.0
 11
-519.6844947338103
 21
-343.2498150403552
 31
0.0
  0
LINE
  5
282
330
1F
100
AcDbEntity
  8
D-1
  6
Continuous
 62
     2
370
     9
100
AcDbLine
 10
-666.684659719467
 20
-438.24932795763
 30
0.0
 11
-666.684659719467
 21
-430.7494233250617
 31
0.0
  0
LINE
  5
283
330
1F
100
AcDbEntity
  8
D-1
  6
Continuous
 62
     2
370
     9
100
AcDbLine
 10
-671.6850507259368
 20
-438.24932795763
 30
0.0
 11
-671.6850507259368
 21
-430.7494233250617
 31
0.0
  0
LINE
  5
284
330
1F
100
AcDbEntity
  8
D-1
  6
Continuous
 62
     2
370
     9
100
AcDbLine
 10
-536.6850954294204
 20
-463.2493470311164
 30
0.0
 11
-521.6847980022429
 21
-463.2493470311164
 31
0.0
  0
LINE
  5
285
330
1F
100
AcDbEntity
  8
D-1
  6
Continuous
 62
     2
370
     9
100
AcDbLine
 10
-536.6848480701445
 20
-468.2496045231818
 30
0.0
 11
-519.6844947338103
 21
-468.2496045231818
 31
0.0
  0
LINE
  5
286
330
1F
100
AcDbEntity
  8
D-1
  6
Continuous
 62
     2
370
     9
100
AcDbLine
 10
-541.6848647594451
 20
-433.2490609288215
 30
0.0
 11
-541.6848647594451
 21
-346.2494043707846
 31
0.0
  0
LINE
  5
287
330
1F
100
AcDbEntity
  8
D-1
  6
Continuous
 62
     2
370
     9
100
AcDbLine
 10
-541.6848647594451
 20
-433.2490609288215
 30
0.0
 11
-591.6845357418059
 21
-433.2490609288215
 31
0.0
  0
LINE
  5
288
330
1F
100
AcDbEntity
  8
D-1
  6
Continuous
 62
     2
370
     9
100
AcDbLine
 10
-666.684659719467
 20
-443.2495854496955
 30
0.0
 11
-541.6848647594451
 21
-443.2495854496955
 31
0.0
  0
LINE
  5
289
330
1F
100
AcDbEntity
  8
D-1
  6
Continuous
 62
     2
370
     9
100
AcDbLine
 10
-541.6848647594451
 20
-463.2495949864386
 30
0.0
 11
-541.6848647594451
 21
-443.2495854496955
 31
0.0
  0
LINE
  5
28A
330
1F
100
AcDbEntity
  8
D-1
  6
Continuous
 62
     2
370
     9
100
AcDbLine
 10
-536.6850954294204
 20
-443.2493374943732
 30
0.0
 11
-536.6850954294204
 21
-463.2493470311164
 31
0.0
  0
LINE
  5
28B
330
1F
100
AcDbEntity
  8
D-1
  6
Continuous
 62
     2
370
     9
100
AcDbLine
 10
-541.6851121187209
 20
-438.24932795763
 30
0.0
 11
-666.684659719467
 21
-438.24932795763
 31
0.0
  0
LINE
  5
28C
330
1F
100
AcDbEntity
  8
D-1
  6
Continuous
 62
     2
370
     9
100
AcDbLine
 10
-536.6850954294204
 20
-433.2493088841437
 30
0.0
 11
-536.6850954294204
 21
-348.2490892410277
 31
0.0
  0
LINE
  5
28D
330
1F
100
AcDbEntity
  8
D-9
  6
Continuous
 62
     4
370
     9
100
AcDbLine
 10
-541.6848647594451
 20
-426.3404820561408
 30
0.0
 11
-548.5934464633464
 21
-433.2490609288215
 31
0.0
  0
LINE
  5
28E
330
1F
100
AcDbEntity
  8
D-9
  6
Continuous
 62
     4
370
     9
100
AcDbLine
 10
-543.1648021936415
 20
-420.7500718235968
 30
0.0
 11
-555.6639772653579
 21
-433.2490609288215
 31
0.0
  0
LINE
  5
28F
330
1F
100
AcDbEntity
  8
D-9
  6
Continuous
 62
     4
370
     9
100
AcDbLine
 10
-550.2361375093459
 20
-420.7500718235968
 30
0.0
 11
-562.7353131771087
 21
-433.2490609288215
 31
0.0
  0
LINE
  5
290
330
1F
100
AcDbEntity
  8
D-9
  6
Continuous
 62
     4
370
     9
100
AcDbLine
 10
-557.3069775104522
 20
-420.7500718235968
 30
0.0
 11
-569.8061525821685
 21
-433.2490609288215
 31
0.0
  0
LINE
  5
291
330
1F
100
AcDbEntity
  8
D-9
  6
Continuous
 62
     4
370
     9
100
AcDbLine
 10
-564.3783128261565
 20
-420.7500718235968
 30
0.0
 11
-576.8774878978728
 21
-433.2490609288215
 31
0.0
  0
LINE
  5
292
330
1F
100
AcDbEntity
  8
D-9
  6
Continuous
 62
     4
370
     9
100
AcDbLine
 10
-571.4491546154021
 20
-420.7500718235968
 30
0.0
 11
-583.9485132694243
 21
-433.2490609288215
 31
0.0
  0
LINE
  5
293
330
1F
100
AcDbEntity
  8
D-9
  6
Continuous
 62
     4
370
     9
100
AcDbLine
 10
-578.5204899311065
 20
-420.7500718235968
 30
0.0
 11
-591.0198485851287
 21
-433.2490609288215
 31
0.0
  0
LINE
  5
294
330
1F
100
AcDbEntity
  8
D-9
  6
Continuous
 62
     4
370
     9
100
AcDbLine
 10
-613.8761746883391
 20
-420.7500718235968
 30
0.0
 11
-618.875263929367
 21
-425.7491562962531
 31
0.0
  0
LINE
  5
295
330
1F
100
AcDbEntity
  8
D-9
  6
Continuous
 62
     4
370
     9
100
AcDbLine
 10
-620.9470164775847
 20
-420.7500718235968
 30
0.0
 11
-625.9461677074431
 21
-425.7491562962531
 31
0.0
  0
LINE
  5
296
330
1F
100
AcDbEntity
  8
D-9
  6
Continuous
 62
     4
370
     9
100
AcDbLine
 10
-656.3027036190032
 20
-420.7500718235968
 30
0.0
 11
-661.3021600246428
 21
-425.7491562962531
 31
0.0
  0
LINE
  5
297
330
1F
100
AcDbEntity
  8
D-9
  6
Continuous
 62
     4
370
     9
100
AcDbLine
 10
-606.8048417568206
 20
-420.7500718235968
 30
0.0
 11
-611.8041074275969
 21
-425.7491562962531
 31
0.0
  0
LINE
  5
298
330
1F
100
AcDbEntity
  8
D-9
  6
Continuous
 62
     4
370
     9
100
AcDbLine
 10
-592.6626622676848
 20
-420.7500718235968
 30
0.0
 11
-597.6618564128875
 21
-425.7491562962531
 31
0.0
  0
LINE
  5
299
330
1F
100
AcDbEntity
  8
D-9
  6
Continuous
 62
     4
370
     9
100
AcDbLine
 10
-599.733999967575
 20
-420.7500718235968
 30
0.0
 11
-604.7331750392913
 21
-425.7491562962531
 31
0.0
  0
LINE
  5
29A
330
1F
100
AcDbEntity
  8
D-9
  6
Continuous
 62
     4
370
     9
100
AcDbLine
 10
-628.0183541774749
 20
-420.7500718235968
 30
0.0
 11
-633.0174386501311
 21
-425.7491562962531
 31
0.0
  0
LINE
  5
29B
330
1F
100
AcDbEntity
  8
D-9
  6
Continuous
 62
     4
370
     9
100
AcDbLine
 10
-635.0891911983489
 20
-420.7500718235968
 30
0.0
 11
-640.0883710384368
 21
-425.7491562962531
 31
0.0
  0
LINE
  5
29C
330
1F
100
AcDbEntity
  8
D-9
  6
Continuous
 62
     4
370
     9
100
AcDbLine
 10
-642.1600282192229
 20
-420.7500718235968
 30
0.0
 11
-647.1592366695403
 21
-425.7491562962531
 31
0.0
  0
LINE
  5
29D
330
1F
100
AcDbEntity
  8
D-9
  6
Continuous
 62
     4
370
     9
100
AcDbLine
 10
-649.2313706874846
 20
-420.7500718235968
 30
0.0
 11
-654.230636358261
 21
-425.7491562962531
 31
0.0
  0
LINE
  5
29E
330
1F
100
AcDbEntity
  8
D-1
  6
Continuous
 62
     2
370
     9
100
AcDbLine
 10
-596.6848647594451
 20
-430.7494233250617
 30
0.0
 11
-666.684659719467
 21
-430.7494233250617
 31
0.0
  0
LINE
  5
29F
330
1F
100
AcDbEntity
  8
D-1
  6
Continuous
 62
     2
370
     9
100
AcDbLine
 10
-596.6848647594451
 20
-433.24932795763
 30
0.0
 11
-596.6848647594451
 21
-430.7494233250617
 31
0.0
  0
LINE
  5
2A0
330
1F
100
AcDbEntity
  8
D-1
  6
Continuous
 62
     2
370
     9
100
AcDbLine
 10
-596.6848647594451
 20
-425.7491562962531
 30
0.0
 11
-666.684659719467
 21
-425.7491562962531
 31
0.0
  0
LINE
  5
2A1
330
1F
100
AcDbEntity
  8
D-1
  6
Continuous
 62
     2
370
     9
100
AcDbLine
 10
-591.6848647594451
 20
-430.7491562962531
 30
0.0
 11
-591.6848647594451
 21
-433.2490609288215
 31
0.0
  0
LINE
  5
2A2
330
1F
100
AcDbEntity
  8
D-9
  6
Continuous
 62
     4
370
     9
100
AcDbLine
 10
-585.5918252468108
 20
-420.7500718235968
 30
0.0
 11
-592.6449239253997
 21
-427.8031705021857
 31
0.0
  0
LINE
  5
2A3
330
1F
100
AcDbEntity
  8
D-3
  6
Continuous
 62
     3
370
     9
100
AcDbLine
 10
-533.1848120689391
 20
-348.2490892410277
 30
0.0
 11
-533.1848120689391
 21
-460.7490895390509
 31
0.0
  0
LINE
  5
2A4
330
1F
100
AcDbEntity
  8
D-3
  6
Continuous
 62
     3
370
     9
100
AcDbLine
 10
-371.6849267482756
 20
-438.2490132451056
 30
0.0
 11
-371.6849267482756
 21
-478.2490227818488
 31
0.0
  0
LINE
  5
2A5
330
1F
100
AcDbEntity
  8
D-3
  6
Continuous
 62
     3
370
     9
100
AcDbLine
 10
-496.6848409175872
 20
-460.0687573552131
 30
0.0
 11
-496.6848409175872
 21
-478.2490227818488
 31
0.0
  0
LINE
  5
2A6
330
1F
100
AcDbEntity
  8
D-3
  6
Continuous
 62
     3
370
     9
100
AcDbLine
 10
-499.6137845516204
 20
-452.9976628422736
 30
0.0
 11
-521.6847980022429
 21
-430.9266541600226
 31
0.0
  0
LINE
  5
2A7
330
1F
100
AcDbEntity
  8
D-3
  6
JWW_CENTER1
 62
     3
370
     9
100
AcDbLine
 10
-471.7463719844817
 20
-399.7489855885505
 30
0.0
 11
-540.417354106903
 21
-399.7489855885505
 31
0.0
  0
LINE
  5
2A8
330
1F
100
AcDbEntity
  8
D-3
  6
Continuous
 62
     3
370
     9
100
AcDbLine
 10
-479.0072429180144
 20
-420.9266207814215
 30
0.0
 11
-482.1846187114714
 21
-417.7492449879645
 31
0.0
  0
LINE
  5
2A9
330
1F
100
AcDbEntity
  8
D-3
  6
Continuous
 62
     3
370
     9
100
AcDbLine
 10
-510.1852810382842
 20
-389.7484610676764
 30
0.0
 11
-521.6847980022429
 21
-378.2489417195319
 31
0.0
  0
LINE
  5
2AA
330
1F
100
AcDbEntity
  8
D-A
  6
Continuous
 62
     7
370
     9
100
AcDbLine
 10
-535.4355251789092
 20
-409.748523056507
 30
0.0
 11
-535.4355251789092
 21
-389.7484610676764
 31
0.0
  0
LINE
  5
2AB
330
1F
100
AcDbEntity
  8
D-A
  6
Continuous
 62
     7
370
     9
100
AcDbLine
 10
-535.4355251789092
 20
-389.7484610676764
 30
0.0
 11
-536.6850954294204
 21
-390.998523056507
 31
0.0
  0
LINE
  5
2AC
330
1F
100
AcDbEntity
  8
D-A
  6
Continuous
 62
     7
370
     9
100
AcDbLine
 10
-535.4355251789092
 20
-409.748523056507
 30
0.0
 11
-536.6850954294204
 21
-408.4989522099494
 31
0.0
  0
LINE
  5
2AD
330
1F
100
AcDbEntity
  8
D-A
  6
Continuous
 62
     7
370
     9
100
AcDbLine
 10
-473.6850631237029
 20
-411.2492488026618
 30
0.0
 11
-473.6850631237029
 21
-388.2487271428107
 31
0.0
  0
LINE
  5
2AE
330
1F
100
AcDbEntity
  8
D-A
  6
Continuous
 62
     7
370
     9
100
AcDbLine
 10
-480.1850593090056
 20
-417.7492449879645
 30
0.0
 11
-486.6850554943084
 21
-417.7492449879645
 31
0.0
  0
LINE
  5
2AF
330
1F
100
AcDbEntity
  8
D-A
  6
Continuous
 62
     7
370
     9
100
AcDbLine
 10
-480.1850593090056
 20
-381.7487285733222
 30
0.0
 11
-486.6850554943084
 21
-381.7487285733222
 31
0.0
  0
LINE
  5
2B0
330
1F
100
AcDbEntity
  8
D-A
  6
Continuous
 62
     7
370
     9
100
AcDbLine
 10
-486.6850554943084
 20
-381.7487285733222
 30
0.0
 11
-486.6850554943084
 21
-417.7492449879645
 31
0.0
  0
LINE
  5
2B1
330
1F
100
AcDbEntity
  8
D-A
  6
Continuous
 62
     7
370
     9
100
AcDbLine
 10
-486.6850554943084
 20
-389.7484610676764
 30
0.0
 11
-521.6847980022429
 21
-389.7484610676764
 31
0.0
  0
LINE
  5
2B2
330
1F
100
AcDbEntity
  8
D-A
  6
Continuous
 62
     7
370
     9
100
AcDbLine
 10
-486.6850554943084
 20
-390.998523056507
 30
0.0
 11
-521.6847980022429
 21
-390.998523056507
 31
0.0
  0
LINE
  5
2B3
330
1F
100
AcDbEntity
  8
D-A
  6
Continuous
 62
     7
370
     9
100
AcDbLine
 10
-486.6850554943084
 20
-408.4989522099494
 30
0.0
 11
-521.6847980022429
 21
-408.4989522099494
 31
0.0
  0
LINE
  5
2B4
330
1F
100
AcDbEntity
  8
D-A
  6
Continuous
 62
     7
370
     9
100
AcDbLine
 10
-486.6850554943084
 20
-409.748523056507
 30
0.0
 11
-521.6847980022429
 21
-409.748523056507
 31
0.0
  0
LINE
  5
2B5
330
1F
100
AcDbEntity
  8
D-A
  6
Continuous
 62
     7
370
     9
100
AcDbLine
 10
-533.1848120689391
 20
-408.4989522099494
 30
0.0
 11
-536.6850954294204
 21
-408.4989522099494
 31
0.0
  0
LINE
  5
2B6
330
1F
100
AcDbEntity
  8
D-A
  6
Continuous
 62
     7
370
     9
100
AcDbLine
 10
-533.1848120689391
 20
-409.748523056507
 30
0.0
 11
-535.4355251789092
 21
-409.748523056507
 31
0.0
  0
LINE
  5
2B7
330
1F
100
AcDbEntity
  8
D-A
  6
Continuous
 62
     7
370
     9
100
AcDbLine
 10
-533.1848120689391
 20
-390.998523056507
 30
0.0
 11
-536.6850954294204
 21
-390.998523056507
 31
0.0
  0
LINE
  5
2B8
330
1F
100
AcDbEntity
  8
D-A
  6
Continuous
 62
     7
370
     9
100
AcDbLine
 10
-533.1848120689391
 20
-389.7484610676764
 30
0.0
 11
-535.4355251789092
 21
-389.7484610676764
 31
0.0
  0
LINE
  5
2B9
330
1F
100
AcDbEntity
  8
D-3
  6
JWW_DASHED2
 62
     3
370
     9
100
AcDbLine
 10
-496.6848409175872
 20
-466.7490075230597
 30
0.0
 11
-371.6849267482756
 21
-466.7490075230597
 31
0.0
  0
LINE
  5
2BA
330
1F
100
AcDbEntity
  8
D-3
  6
Continuous
 62
     3
370
     9
100
AcDbLine
 10
-381.684831380844
 20
-428.2491086125373
 30
0.0
 11
-461.3295209407805
 21
-428.2491086125373
 31
0.0
  0
LINE
  5
2BB
330
1F
100
AcDbEntity
  8
D-3
  6
Continuous
 62
     3
370
     9
100
AcDbLine
 10
-496.6848409175872
 20
-478.2490227818488
 30
0.0
 11
-371.6849267482756
 21
-478.2490227818488
 31
0.0
  0
LINE
  5
2BC
330
1F
100
AcDbEntity
  8
D-1
  6
Continuous
 62
     2
370
     9
100
AcDbLine
 10
-536.6850954294204
 20
-348.2490892410277
 30
0.0
 11
-521.6847980022429
 21
-348.2490892410277
 31
0.0
  0
LINE
  5
2BD
330
1F
100
AcDbEntity
  8
D-1
  6
Continuous
 62
     2
370
     9
100
AcDbLine
 10
-516.6850292682647
 20
-370.7492874264716
 30
0.0
 11
-521.6847980022429
 21
-370.7492874264716
 31
0.0
  0
LINE
  5
2BE
330
1F
100
AcDbEntity
  8
D-1
  6
Continuous
 62
     2
370
     9
100
AcDbLine
 10
-521.6847980022429
 20
-370.7492874264716
 30
0.0
 11
-521.6847980022429
 21
-348.2490892410277
 31
0.0
  0
LINE
  5
2BF
330
1F
100
AcDbEntity
  8
D-3
  6
Continuous
 62
     3
370
     9
100
AcDbLine
 10
-533.1848120689391
 20
-348.2490892410277
 30
0.0
 11
-521.6847980022429
 21
-348.2490892410277
 31
0.0
  0
LINE
  5
2C0
330
1F
100
AcDbEntity
  8
D-1
  6
Continuous
 62
     2
370
     9
100
AcDbLine
 10
-516.6850292682647
 20
-440.7491467595099
 30
0.0
 11
-521.6847980022429
 21
-440.7491467595099
 31
0.0
  0
LINE
  5
2C1
330
1F
100
AcDbEntity
  8
D-1
  6
Continuous
 62
     2
370
     9
100
AcDbLine
 10
-521.6847980022429
 20
-463.2493470311164
 30
0.0
 11
-521.6847980022429
 21
-440.7491467595099
 31
0.0
  0
LINE
  5
2C2
330
1F
100
AcDbEntity
  8
D-3
  6
Continuous
 62
     3
370
     9
100
AcDbLine
 10
-533.1848120689391
 20
-460.7490895390509
 30
0.0
 11
-521.6847980022429
 21
-460.7490895390509
 31
0.0
  0
LINE
  5
2C3
330
1F
100
AcDbEntity
  8
D-3
  6
Continuous
 62
     3
370
     9
100
AcDbLine
 10
-521.6847980022429
 20
-348.2490892410277
 30
0.0
 11
-521.6847980022429
 21
-460.7490895390509
 31
0.0
  0
LINE
  5
2C4
330
1F
100
AcDbEntity
  8
D-6
  6
Continuous
 62
     6
370
     9
100
AcDbLine
 10
-519.6844947338103
 20
-343.2494042515754
 30
0.0
 11
-106.6831147670744
 21
-343.2494042515754
 31
0.0
  0
LINE
  5
2C5
330
1F
100
AcDbEntity
  8
D-6
  6
Continuous
 62
     6
370
     9
100
AcDbLine
 10
-671.6839826107024
 20
-438.24932795763
 30
0.0
 11
-671.6839826107024
 21
-843.2487557530402
 31
0.0
  0
LINE
  5
2C6
330
1F
100
AcDbEntity
  8
D-4
  6
Continuous
 62
     7
370
     9
100
AcDbLine
 10
-588.5388600826262
 20
-468.2492421269416
 30
0.0
 11
-820.1670587062835
 21
-468.2492421269416
 31
0.0
  0
LINE
  5
2C7
330
1F
100
AcDbEntity
  8
D-5
  6
Continuous
 62
     7
370
     9
100
AcDbLine
 10
-547.1677222475408
 20
-482.026240646839
 30
0.0
 11
-612.216213941574
 21
-425.4092381596564
 31
0.0
  0
LINE
  5
2C8
330
1F
100
AcDbEntity
  8
D-5
  6
Continuous
 62
     7
370
     9
100
AcDbLine
 10
-612.216213941574
 20
-425.4092381596564
 30
0.0
 11
-595.6626021862029
 21
-444.1434071660041
 31
0.0
  0
LINE
  5
2C9
330
1F
100
AcDbEntity
  8
D-5
  6
Continuous
 62
     7
370
     9
100
AcDbLine
 10
-612.216213941574
 20
-425.4092381596564
 30
0.0
 11
-591.3777911663054
 21
-439.2209313511847
 31
0.0
  0
ARC
  5
2CA
330
1F
100
AcDbEntity
  8
D-9
  6
Continuous
 62
     4
370
     9
100
AcDbCircle
 10
-656.6846215724944
 20
-425.7493470311164
 30
0.0
 40
5.0
100
AcDbArc
 50
90.0
 51
180.0
  0
ARC
  5
2CB
330
1F
100
AcDbEntity
  8
D-1
  6
Continuous
 62
     2
370
     9
100
AcDbCircle
 10
-666.684659719467
 20
-430.7494233250617
 30
0.0
 40
5.0
100
AcDbArc
 50
90.0
 51
180.0
  0
ARC
  5
2CC
330
1F
100
AcDbEntity
  8
D-1
  6
Continuous
 62
     2
370
     9
100
AcDbCircle
 10
-519.6844947338103
 20
-346.2494043707846
 30
0.0
 40
3.00000011920929
100
AcDbArc
 50
0.0
 51
90.0
  0
ARC
  5
2CD
330
1F
100
AcDbEntity
  8
D-1
  6
Continuous
 62
     2
370
     9
100
AcDbCircle
 10
-538.6847805976867
 20
-346.2494043707846
 30
0.0
 40
3.00000011920929
100
AcDbArc
 50
90.0
 51
180.0
  0
ARC
  5
2CE
330
1F
100
AcDbEntity
  8
D-1
  6
Continuous
 62
     2
370
     9
100
AcDbCircle
 10
-519.6844947338103
 20
-465.2490304112433
 30
0.0
 40
3.00000011920929
100
AcDbArc
 50
270.0
 51
0.0
  0
ARC
  5
2CF
330
1F
100
AcDbEntity
  8
D-1
  6
Continuous
 62
     2
370
     9
100
AcDbCircle
 10
-666.684659719467
 20
-438.24932795763
 30
0.0
 40
5.0
100
AcDbArc
 50
180.0
 51
270.0
  0
ARC
  5
2D0
330
1F
100
AcDbEntity
  8
D-1
  6
Continuous
 62
     2
370
     9
100
AcDbCircle
 10
-536.6848480701445
 20
-463.2495949864386
 30
0.0
 40
5.0
100
AcDbArc
 50
180.0
 51
270.0
  0
ARC
  5
2D1
330
1F
100
AcDbEntity
  8
D-1
  6
Continuous
 62
     2
370
     9
100
AcDbCircle
 10
-541.6851121187209
 20
-443.2493374943732
 30
0.0
 40
5.0
100
AcDbArc
 50
0.0
 51
90.0
  0
ARC
  5
2D2
330
1F
100
AcDbEntity
  8
D-1
  6
Continuous
 62
     2
370
     9
100
AcDbCircle
 10
-541.6851121187209
 20
-433.2493088841437
 30
0.0
 40
5.0
100
AcDbArc
 50
270.0
 51
0.0
  0
ARC
  5
2D3
330
1F
100
AcDbEntity
  8
D-1
  6
Continuous
 62
     2
370
     9
100
AcDbCircle
 10
-591.6848647594451
 20
-433.24932795763
 30
0.0
 40
5.0
100
AcDbArc
 50
180.0
 51
270.0
  0
ARC
  5
2D4
330
1F
100
AcDbEntity
  8
D-1
  6
Continuous
 62
     2
370
     9
100
AcDbCircle
 10
-596.6848647594451
 20
-430.7491562962531
 30
0.0
 40
5.0
100
AcDbArc
 50
0.0
 51
90.0
  0
ARC
  5
2D5
330
1F
100
AcDbEntity
  8
D-3
  6
Continuous
 62
     3
370
     9
100
AcDbCircle
 10
-461.3295209407805
 20
-403.2490227818488
 30
0.0
 40
25.0
100
AcDbArc
 50
225.0
 51
270.0
  0
ARC
  5
2D6
330
1F
100
AcDbEntity
  8
D-3
  6
Continuous
 62
     3
370
     9
100
AcDbCircle
 10
-381.684831380844
 20
-438.2490132451056
 30
0.0
 40
10.0
100
AcDbArc
 50
0.0
 51
90.0
  0
ARC
  5
2D7
330
1F
100
AcDbEntity
  8
D-3
  6
Continuous
 62
     3
370
     9
100
AcDbCircle
 10
-506.6848719120024
 20
-460.0687573552131
 30
0.0
 40
10.0
100
AcDbArc
 50
0.0
 51
45.000244140625
  0
ARC
  5
2D8
330
1F
100
AcDbEntity
  8
D-A
  6
Continuous
 62
     7
370
     9
100
AcDbCircle
 10
-480.1850593090056
 20
-388.2487271428107
 30
0.0
 40
6.499999761581421
100
AcDbArc
 50
0.0
 51
90.0
  0
ARC
  5
2D9
330
1F
100
AcDbEntity
  8
D-A
  6
Continuous
 62
     7
370
     9
100
AcDbCircle
 10
-480.1850593090056
 20
-411.2492488026618
 30
0.0
 40
6.499999761581421
100
AcDbArc
 50
270.0
 51
0.0
  0
LWPOLYLINE
  5
2DA
330
1F
100
AcDbEntity
  8
D-4
  6
Continuous
 62
     7
370
     9
100
AcDbPolyline
 90
        4
 70
     1
 43
1.0
 10
-516.1849958896636
 20
-2.882163345813638
 42
0.4142135623731
 10
-516.6849958896636
 20
-2.382163345813638
 42
0.4142135623731
 10
-517.1849958896635
 20
-2.882163345813638
 42
0.4142135623731
 10
-516.6849958896636
 20
-3.382163345813638
 42
0.4142135623731
  0
LWPOLYLINE
  5
2DB
330
1F
100
AcDbEntity
  8
D-4
  6
Continuous
 62
     7
370
     9
100
AcDbPolyline
 90
        4
 70
     1
 43
1.0
 10
-671.1839826107024
 20
-222.330252945423
 42
0.4142135623731
 10
-671.6839826107024
 20
-221.830252945423
 42
0.4142135623731
 10
-672.1839826107023
 20
-222.330252945423
 42
0.4142135623731
 10
-671.6839826107024
 20
-222.830252945423
 42
0.4142135623731
  0
LWPOLYLINE
  5
2DC
330
1F
100
AcDbEntity
  8
D-4
  6
Continuous
 62
     7
370
     9
100
AcDbPolyline
 90
        4
 70
     1
 43
1.0
 10
-546.1841447353362
 20
-222.330252945423
 42
0.4142135623731
 10
-546.6841447353362
 20
-221.830252945423
 42
0.4142135623731
 10
-547.1841447353361
 20
-222.330252945423
 42
0.4142135623731
 10
-546.6841447353362
 20
-222.830252945423
 42
0.4142135623731
  0
LWPOLYLINE
  5
2DD
330
1F
100
AcDbEntity
  8
D-4
  6
Continuous
 62
     7
370
     9
100
AcDbPolyline
 90
        4
 70
     1
 43
1.0
 10
-546.1841447353362
 20
-113.5778306126593
 42
0.4142135623731
 10
-546.6841447353362
 20
-113.0778306126593
 42
0.4142135623731
 10
-547.1841447353361
 20
-113.5778306126593
 42
0.4142135623731
 10
-546.6841447353362
 20
-114.0778306126593
 42
0.4142135623731
  0
LWPOLYLINE
  5
2DE
330
1F
100
AcDbEntity
  8
D-4
  6
Continuous
 62
     7
370
     9
100
AcDbPolyline
 90
        4
 70
     1
 43
1.0
 10
-541.1838741302489
 20
-113.5778306126593
 42
0.4142135623731
 10
-541.6838741302489
 20
-113.0778306126593
 42
0.4142135623731
 10
-542.1838741302488
 20
-113.5778306126593
 42
0.4142135623731
 10
-541.6838741302489
 20
-114.0778306126593
 42
0.4142135623731
  0
LWPOLYLINE
  5
2DF
330
1F
100
AcDbEntity
  8
D-4
  6
Continuous
 62
     7
370
     9
100
AcDbPolyline
 90
        4
 70
     1
 43
1.0
 10
-516.1849958896636
 20
-113.5778306126593
 42
0.4142135623731
 10
-516.6849958896636
 20
-113.0778306126593
 42
0.4142135623731
 10
-517.1849958896635
 20
-113.5778306126593
 42
0.4142135623731
 10
-516.6849958896636
 20
-114.0778306126593
 42
0.4142135623731
  0
LWPOLYLINE
  5
2E0
330
1F
100
AcDbEntity
  8
D-4
  6
Continuous
 62
     7
370
     9
100
AcDbPolyline
 90
        4
 70
     1
 43
1.0
 10
-816.6664941310881
 20
-468.2492421269416
 42
0.4142135623731
 10
-817.1664941310881
 20
-467.7492421269416
 42
0.4142135623731
 10
-817.666494131088
 20
-468.2492421269416
 42
0.4142135623731
 10
-817.1664941310881
 20
-468.7492421269416
 42
0.4142135623731
  0
LWPOLYLINE
  5
2E1
330
1F
100
AcDbEntity
  8
D-4
  6
Continuous
 62
     7
370
     9
100
AcDbPolyline
 90
        4
 70
     1
 43
1.0
 10
-816.6664941310881
 20
-343.2494042515754
 42
0.4142135623731
 10
-817.1664941310881
 20
-342.7494042515754
 42
0.4142135623731
 10
-817.666494131088
 20
-343.2494042515754
 42
0.4142135623731
 10
-817.1664941310881
 20
-343.7494042515754
 42
0.4142135623731
  0
LWPOLYLINE
  5
2E2
330
1F
100
AcDbEntity
  8
D-4
  6
Continuous
 62
     7
370
     9
100
AcDbPolyline
 90
        4
 70
     1
 43
1.0
 10
-516.1849958896636
 20
-549.5586465001105
 42
0.4142135623731
 10
-516.6849958896636
 20
-549.0586465001105
 42
0.4142135623731
 10
-517.1849958896635
 20
-549.5586465001105
 42
0.4142135623731
 10
-516.6849958896636
 20
-550.0586465001105
 42
0.4142135623731
  0
LWPOLYLINE
  5
2E3
330
1F
100
AcDbEntity
  8
D-4
  6
Continuous
 62
     7
370
     9
100
AcDbPolyline
 90
        4
 70
     1
 43
1.0
 10
-371.1845643520354
 20
-549.5586465001105
 42
0.4142135623731
 10
-371.6845643520354
 20
-549.0586465001105
 42
0.4142135623731
 10
-372.1845643520354
 20
-549.5586465001105
 42
0.4142135623731
 10
-371.6845643520354
 20
-550.0586465001105
 42
0.4142135623731
  0
LWPOLYLINE
  5
2E4
330
1F
100
AcDbEntity
  8
D-4
  6
Continuous
 62
     7
370
     9
100
AcDbPolyline
 90
        4
 70
     1
 43
1.0
 10
-671.1839826107024
 20
-748.8678811192511
 42
0.4142135623731
 10
-671.6839826107024
 20
-748.3678811192511
 42
0.4142135623731
 10
-672.1839826107023
 20
-748.8678811192511
 42
0.4142135623731
 10
-671.6839826107024
 20
-749.3678811192511
 42
0.4142135623731
  0
LWPOLYLINE
  5
2E5
330
1F
100
AcDbEntity
  8
D-4
  6
Continuous
 62
     7
370
     9
100
AcDbPolyline
 90
        4
 70
     1
 43
1.0
 10
-521.1847717761992
 20
-748.8678811192511
 42
0.4142135623731
 10
-521.6847717761992
 20
-748.3678811192511
 42
0.4142135623731
 10
-522.1847717761991
 20
-748.8678811192511
 42
0.4142135623731
 10
-521.6847717761992
 20
-749.3678811192511
 42
0.4142135623731
  0
LWPOLYLINE
  5
2E6
330
1F
100
AcDbEntity
  8
D-4
  6
Continuous
 62
     7
370
     9
100
AcDbPolyline
 90
        4
 70
     1
 43
1.0
 10
-671.1839826107024
 20
-903.3322594761847
 42
0.4142135623731
 10
-671.6839826107024
 20
-902.8322594761847
 42
0.4142135623731
 10
-672.1839826107023
 20
-903.3322594761847
 42
0.4142135623731
 10
-671.6839826107024
 20
-903.8322594761847
 42
0.4142135623731
  0
LWPOLYLINE
  5
2E7
330
1F
100
AcDbEntity
  8
D-4
  6
Continuous
 62
     7
370
     9
100
AcDbPolyline
 90
        4
 70
     1
 43
1.0
 10
-271.1831147670744
 20
-903.3322594761847
 42
0.4142135623731
 10
-271.6831147670745
 20
-902.8322594761847
 42
0.4142135623731
 10
-272.1831147670745
 20
-903.3322594761847
 42
0.4142135623731
 10
-271.6831147670745
 20
-903.8322594761847
 42
0.4142135623731
  0
LWPOLYLINE
  5
2E8
330
1F
100
AcDbEntity
  8
D-4
  6
Continuous
 62
     7
370
     9
100
AcDbPolyline
 90
        4
 70
     1
 43
1.0
 10
0.5012266635894775
 20
-343.2494042515754
 42
0.4142135623731
 10
0.0012266635894775
 20
-342.7494042515754
 42
0.4142135623731
 10
-0.4987733364105225
 20
-343.2494042515754
 42
0.4142135623731
 10
0.0012266635894775
 20
-343.7494042515754
 42
0.4142135623731
  0
LWPOLYLINE
  5
2E9
330
1F
100
AcDbEntity
  8
D-4
  6
Continuous
 62
     7
370
     9
100
AcDbPolyline
 90
        4
 70
     1
 43
1.0
 10
0.5012266635894775
 20
-593.2490800023078
 42
0.4142135623731
 10
0.0012266635894775
 20
-592.7490800023078
 42
0.4142135623731
 10
-0.4987733364105225
 20
-593.2490800023078
 42
0.4142135623731
 10
0.0012266635894775
 20
-593.7490800023078
 42
0.4142135623731
  0
LWPOLYLINE
  5
2EA
330
1F
100
AcDbEntity
  8
D-4
  6
Continuous
 62
     7
370
     9
100
AcDbPolyline
 90
        4
 70
     1
 43
1.0
 10
-272.6112229824064
 20
-343.2494042515754
 42
0.4142135623731
 10
-273.1112229824065
 20
-342.7494042515754
 42
0.4142135623731
 10
-273.6112229824065
 20
-343.2494042515754
 42
0.4142135623731
 10
-273.1112229824065
 20
-343.7494042515754
 42
0.4142135623731
  0
LWPOLYLINE
  5
2EB
330
1F
100
AcDbEntity
  8
D-4
  6
Continuous
 62
     7
370
     9
100
AcDbPolyline
 90
        4
 70
     1
 43
1.0
 10
-272.6112229824064
 20
-428.2495473027228
 42
0.4142135623731
 10
-273.1112229824065
 20
-427.7495473027228
 42
0.4142135623731
 10
-273.6112229824065
 20
-428.2495473027228
 42
0.4142135623731
 10
-273.1112229824065
 20
-428.7495473027228
 42
0.4142135623731
  0
LWPOLYLINE
  5
2EC
330
1F
100
AcDbEntity
  8
D-4
  6
Continuous
 62
     7
370
     9
100
AcDbPolyline
 90
        4
 70
     1
 43
1.0
 10
-272.6112229824064
 20
-478.2497857213019
 42
0.4142135623731
 10
-273.1112229824065
 20
-477.7497857213019
 42
0.4142135623731
 10
-273.6112229824065
 20
-478.2497857213019
 42
0.4142135623731
 10
-273.1112229824065
 20
-478.7497857213019
 42
0.4142135623731
  0
LWPOLYLINE
  5
2ED
330
1F
100
AcDbEntity
  8
D-4
  6
Continuous
 62
     7
370
     9
100
AcDbPolyline
 90
        4
 70
     1
 43
1.0
 10
-516.1849958896636
 20
-549.5586465001105
 42
0.4142135623731
 10
-516.6849958896636
 20
-549.0586465001105
 42
0.4142135623731
 10
-517.1849958896635
 20
-549.5586465001105
 42
0.4142135623731
 10
-516.6849958896636
 20
-550.0586465001105
 42
0.4142135623731
  0
LWPOLYLINE
  5
2EE
330
1F
100
AcDbEntity
  8
D-4
  6
Continuous
 62
     7
370
     9
100
AcDbPolyline
 90
        4
 70
     1
 43
1.0
 10
-671.1839826107024
 20
-549.5586465001105
 42
0.4142135623731
 10
-671.6839826107024
 20
-549.0586465001105
 42
0.4142135623731
 10
-672.1839826107023
 20
-549.5586465001105
 42
0.4142135623731
 10
-671.6839826107024
 20
-550.0586465001105
 42
0.4142135623731
  0
TEXT
  5
2EF
330
1F
100
AcDbEntity
  8
D-4
  6
Continuous
 62
     2
370
     9
100
AcDbText
 10
-579.6288549900054
 20
-102.9385554051398
 30
0.0
 40
30.48
  1
1
 41
0.9999999999999998
  7
ＭＳ ゴシック
100
AcDbText
  0
TEXT
  5
2F0
330
1F
100
AcDbEntity
  8
D-4
  6
Continuous
 62
     2
370
     9
100
AcDbText
 10
-630.4332292079924
 20
-211.6899763798713
 30
0.0
 40
30.48
  1
25
 41
1.0625
  7
ＭＳ ゴシック
100
AcDbText
  0
TEXT
  5
2F1
330
1F
100
AcDbEntity
  8
D-4
  6
Continuous
 62
     2
370
     9
100
AcDbText
 10
-662.9340016841887
 20
-738.2286059117316
 30
0.0
 40
30.48
  1
25～30
 41
1.104166666666667
  7
ＭＳ ゴシック
100
AcDbText
  0
TEXT
  5
2F2
330
1F
100
AcDbEntity
  8
D-4
  6
Continuous
 62
     2
370
     9
100
AcDbText
 10
-539.5523462206459
 20
-892.6919924474156
 30
0.0
 40
30.48
  1
75～80
 50
359.9997855578312
 41
1.104166666666667
  7
ＭＳ ゴシック
100
AcDbText
  0
TEXT
  5
2F3
330
1F
100
AcDbEntity
  8
D-4
  6
Continuous
 62
     2
370
     9
100
AcDbText
 10
-10.63804854393005
 20
-534.499366351135
 30
0.0
 40
30.48
  1
40～50
 50
90.00000250447816
 41
1.104166666666667
  7
ＭＳ ゴシック
100
AcDbText
  0
TEXT
  5
2F4
330
1F
100
AcDbEntity
  8
D-4
  6
Continuous
 62
     2
370
     9
100
AcDbText
 10
-481.1009910173988
 20
-538.9193522194886
 30
0.0
 40
30.48
  1
29
 50
0.0006685549992706
 41
1.062500000000002
  7
ＭＳ ゴシック
100
AcDbText
  0
TEXT
  5
2F5
330
1F
100
AcDbEntity
  8
D-4
  6
Continuous
 62
     2
370
     9
100
AcDbText
 10
-507.7715146541594
 20
-102.9385554051398
 30
0.0
 40
30.48
  1
5
 41
0.9999999999999998
  7
ＭＳ ゴシック
100
AcDbText
  0
TEXT
  5
2F6
330
1F
100
AcDbEntity
  8
D-5
  6
Continuous
 62
     2
370
     9
100
AcDbText
 10
-971.1780133366098
 20
-1021.051863358021
 30
0.0
 40
30.48
  1
断面詳細図　Ｓ＝１：２
 50
0.0000267631904831
 41
1.113636363636363
  7
ＭＳ ゴシック
100
AcDbText
  0
TEXT
  5
2F7
330
1F
100
AcDbEntity
  8
D-5
  6
Continuous
 62
     7
370
     9
100
AcDbText
 10
-322.7074754238128
 20
-227.4487503361701
 30
0.0
 40
22.86
  1
塩ビクッション
 41
1.142857142857143
  7
ＭＳ ゴシック
100
AcDbText
  0
TEXT
  5
2F8
330
1F
100
AcDbEntity
  8
D-5
  6
Continuous
 62
     7
370
     9
100
AcDbText
 10
-382.1954476833342
 20
-171.3498028111457
 30
0.0
 40
22.86
  1
ステンレス製受枠ＳＦ１５Ｂ
 41
1.153846153846154
  7
ＭＳ ゴシック
100
AcDbText
  0
TEXT
  5
2F9
330
1F
100
AcDbEntity
  8
D-5
  6
Continuous
 62
     7
370
     9
100
AcDbText
 10
-259.4965684413909
 20
-276.675110657215
 30
0.0
 40
22.86
  1
溶接用アンカー＠５００
 41
1.151515151515151
  7
ＭＳ ゴシック
100
AcDbText
  0
TEXT
  5
2FA
330
1F
100
AcDbEntity
  8
D-5
  6
Continuous
 62
     7
370
     9
100
AcDbText
 10
-259.4965684413909
 20
-317.8986080479621
 30
0.0
 40
22.86
  1
ｔ＝２．３（ＳＰＨＣ）
 41
1.151515151515151
  7
ＭＳ ゴシック
100
AcDbText
  0
TEXT
  5
2FB
330
1F
100
AcDbEntity
  8
D-4
  6
Continuous
 62
     2
370
     9
100
AcDbText
 10
-283.7515090847014
 20
-474.49908024884
 30
0.0
 40
30.48
  1
10
 50
90.00000250447819
 41
1.062500000000001
  7
ＭＳ ゴシック
100
AcDbText
  0
TEXT
  5
2FC
330
1F
100
AcDbEntity
  8
D-4
  6
Continuous
 62
     2
370
     9
100
AcDbText
 10
-283.7515090847014
 20
-406.9993901929928
 30
0.0
 40
30.48
  1
17
 50
90.00000250447819
 41
1.062500000000001
  7
ＭＳ ゴシック
100
AcDbText
  0
TEXT
  5
2FD
330
1F
100
AcDbEntity
  8
D-4
  6
Continuous
 62
     2
370
     9
100
AcDbText
 10
-615.4344880580901
 20
-537.9186426854133
 30
0.0
 40
30.48
  1
31
 41
1.0625
  7
ＭＳ ゴシック
100
AcDbText
  0
LINE
  5
2FE
330
1F
100
AcDbEntity
  8
D-2
  6
Continuous
 62
     3
370
     9
100
AcDbLine
 10
-566.684237718582
 20
-348.2491795420646
 30
0.0
 11
-566.684237718582
 21
-378.2490704655646
 31
0.0
  0
LINE
  5
2FF
330
1F
100
AcDbEntity
  8
D-2
  6
Continuous
 62
     3
370
     9
100
AcDbLine
 10
-551.6844153404235
 20
-348.2491795420646
 30
0.0
 11
-566.684237718582
 21
-348.2491795420646
 31
0.0
  0
LINE
  5
300
330
1F
100
AcDbEntity
  8
D-2
  6
Continuous
 62
     3
370
     9
100
AcDbLine
 10
-551.6844153404235
 20
-415.7493661046027
 30
0.0
 11
-551.6844153404235
 21
-348.2491795420646
 31
0.0
  0
LINE
  5
301
330
1F
100
AcDbEntity
  8
D-2
  6
Continuous
 62
     3
370
     9
100
AcDbLine
 10
-566.684237718582
 20
-415.7493661046027
 30
0.0
 11
-551.6844153404235
 21
-415.7493661046027
 31
0.0
  0
LINE
  5
302
330
1F
100
AcDbEntity
  8
D-2
  6
Continuous
 62
     3
370
     9
100
AcDbLine
 10
-566.684237718582
 20
-400.7495473027228
 30
0.0
 11
-566.684237718582
 21
-415.7493661046027
 31
0.0
  0
LINE
  5
303
330
1F
100
AcDbEntity
  8
D-2
  6
Continuous
 62
     3
370
     9
100
AcDbLine
 10
-571.6845071315764
 20
-417.2491524815558
 30
0.0
 11
-571.6845071315764
 21
-400.7495473027228
 31
0.0
  0
LINE
  5
304
330
1F
100
AcDbEntity
  8
D-2
  6
Continuous
 62
     3
370
     9
100
AcDbLine
 10
-546.6841447353362
 20
-346.7493955492972
 30
0.0
 11
-546.6841447353362
 21
-417.2491524815558
 31
0.0
  0
LINE
  5
305
330
1F
100
AcDbEntity
  8
D-2
  6
Continuous
 62
     3
370
     9
100
AcDbLine
 10
-574.1846430301665
 20
-378.2490704655646
 30
0.0
 11
-641.6843354701995
 21
-378.2490704655646
 31
0.0
  0
LINE
  5
306
330
1F
100
AcDbEntity
  8
D-2
  6
Continuous
 62
     3
370
     9
100
AcDbLine
 10
-550.1843839883803
 20
-343.2494042515754
 30
0.0
 11
-568.1842696666716
 21
-343.2494042515754
 31
0.0
  0
LINE
  5
307
330
1F
100
AcDbEntity
  8
D-5
  6
Continuous
 62
     7
370
     9
100
AcDbLine
 10
-361.1642777919768
 20
-63.52160197496403
 30
0.0
 11
56.71803116798401
 21
-63.52160197496403
 31
0.0
  0
LINE
  5
308
330
1F
100
AcDbEntity
  8
D-2
  6
Continuous
 62
     3
370
     9
100
AcDbLine
 10
-1244.352754354477
 20
-498.4931538701056
 30
0.0
 11
-1244.352754354477
 21
-274.5506785511969
 31
0.0
  0
LINE
  5
309
330
1F
100
AcDbEntity
  8
D-4
  6
Continuous
 62
     7
370
     9
100
AcDbLine
 10
-1290.191529989243
 20
-420.7491419911383
 30
0.0
 11
-1290.191529989243
 21
-343.2494042515754
 31
0.0
  0
LINE
  5
30A
330
1F
100
AcDbEntity
  8
D-4
  6
Continuous
 62
     7
370
     9
100
AcDbLine
 10
-1254.058717489242
 20
-420.7491419911383
 30
0.0
 11
-1293.191560506821
 21
-420.7491419911383
 31
0.0
  0
LINE
  5
30B
330
1F
100
AcDbEntity
  8
D-4
  6
Continuous
 62
     7
370
     9
100
AcDbLine
 10
-1254.058717489242
 20
-343.2494042515754
 30
0.0
 11
-1293.191560506821
 21
-343.2494042515754
 31
0.0
  0
LINE
  5
30C
330
1F
100
AcDbEntity
  8
D-2
  6
Continuous
 62
     3
370
     9
100
AcDbLine
 10
-550.1843839883803
 20
-420.7496379017829
 30
0.0
 11
-1244.352754354477
 21
-420.7496379017829
 31
0.0
  0
LINE
  5
30D
330
1F
100
AcDbEntity
  8
D-5
  6
Continuous
 62
     7
370
     9
100
AcDbLine
 10
-361.1642777919768
 20
-117.0035050511359
 30
0.0
 11
56.71803116798401
 21
-117.0035050511359
 31
0.0
  0
LINE
  5
30E
330
1F
100
AcDbEntity
  8
D-2
  6
Continuous
 62
     3
370
     9
100
AcDbLine
 10
-1244.352754354477
 20
-383.2493422627448
 30
0.0
 11
-571.6845071315764
 21
-383.2493422627448
 31
0.0
  0
LINE
  5
30F
330
1F
100
AcDbEntity
  8
D-5
  6
Continuous
 62
     2
370
     9
100
AcDbLine
 10
453.4351789951324
 20
-393.2491419911383
 30
0.0
 11
228.4351027011871
 21
-393.2491419911383
 31
0.0
  0
LINE
  5
310
330
1F
100
AcDbEntity
  8
D-5
  6
Continuous
 62
     2
370
     9
100
AcDbLine
 10
453.4351789951324
 20
-343.2494042515754
 30
0.0
 11
453.4351789951324
 21
-393.2491419911383
 31
0.0
  0
LINE
  5
311
330
1F
100
AcDbEntity
  8
D-5
  6
Continuous
 62
     2
370
     9
100
AcDbLine
 10
228.4351027011871
 20
-343.2494042515754
 30
0.0
 11
453.4351789951324
 21
-343.2494042515754
 31
0.0
  0
LINE
  5
312
330
1F
100
AcDbEntity
  8
D-5
  6
Continuous
 62
     2
370
     9
100
AcDbLine
 10
228.4351027011871
 20
-393.2491419911383
 30
0.0
 11
228.4351027011871
 21
-343.2494042515754
 31
0.0
  0
LINE
  5
313
330
1F
100
AcDbEntity
  8
D-5
  6
Continuous
 62
     7
370
     9
100
AcDbLine
 10
-1234.218171834945
 20
-589.349238693714
 30
0.0
 11
-1080.762094259262
 21
-371.9162366986274
 31
0.0
  0
LINE
  5
314
330
1F
100
AcDbEntity
  8
D-5
  6
Continuous
 62
     7
370
     9
100
AcDbLine
 10
-1080.762094259262
 20
-371.9162366986274
 30
0.0
 11
-1092.388490438461
 21
-394.0483306050299
 31
0.0
  0
LINE
  5
315
330
1F
100
AcDbEntity
  8
D-5
  6
Continuous
 62
     7
370
     9
100
AcDbLine
 10
-1080.762094259262
 20
-371.9162366986274
 30
0.0
 11
-1097.720254659652
 21
-390.2852461934089
 31
0.0
  0
LINE
  5
316
330
1F
100
AcDbEntity
  8
D-5
  6
Continuous
 62
     7
370
     9
100
AcDbLine
 10
-556.5182089805602
 20
-343.2494042515754
 30
0.0
 11
-542.7897602319716
 21
-322.3564766049384
 31
0.0
  0
LINE
  5
317
330
1F
100
AcDbEntity
  8
D-5
  6
Continuous
 62
     7
370
     9
100
AcDbLine
 10
-556.5182089805602
 20
-343.2494042515754
 30
0.0
 11
-537.8499364852904
 21
-326.6214726567267
 31
0.0
  0
LINE
  5
318
330
1F
100
AcDbEntity
  8
D-5
  6
Continuous
 62
     7
370
     9
100
AcDbLine
 10
-361.1642777919768
 20
-117.0035050511359
 30
0.0
 11
-556.5182089805602
 21
-343.2494042515754
 31
0.0
  0
LINE
  5
319
330
1F
100
AcDbEntity
  8
D-5
  6
Continuous
 62
     7
370
     9
100
AcDbLine
 10
-609.1840636730193
 20
-350.7612065672873
 30
0.0
 11
-595.4548680782317
 21
-329.8682795166968
 31
0.0
  0
LINE
  5
31A
330
1F
100
AcDbEntity
  8
D-5
  6
Continuous
 62
     7
370
     9
100
AcDbLine
 10
-609.1840636730193
 20
-350.7612065672873
 30
0.0
 11
-590.5152928829192
 21
-334.1332743763923
 31
0.0
  0
LINE
  5
31B
330
1F
100
AcDbEntity
  8
D-5
  6
Continuous
 62
     7
370
     9
100
AcDbLine
 10
-361.1642777919768
 20
-63.52160197496403
 30
0.0
 11
-609.1840636730193
 21
-350.7612065672873
 31
0.0
  0
LINE
  5
31C
330
1F
100
AcDbEntity
  8
D-2
  6
Continuous
 62
     3
370
     9
100
AcDbLine
 10
-576.6845309734343
 20
-373.249294579029
 30
0.0
 11
-576.6845309734343
 21
-378.2490704655646
 31
0.0
  0
LINE
  5
31D
330
1F
100
AcDbEntity
  8
D-A
  6
Continuous
 62
     2
370
     9
100
AcDbLine
 10
-1233.962968587875
 20
-357.2491226792334
 30
0.0
 11
-1219.963258504867
 21
-343.2494042515754
 31
0.0
  0
LINE
  5
31E
330
1F
100
AcDbEntity
  8
D-A
  6
Continuous
 62
     2
370
     9
100
AcDbLine
 10
-1205.678666830063
 20
-357.2491226792334
 30
0.0
 11
-1191.678956747055
 21
-343.2494042515754
 31
0.0
  0
LINE
  5
31F
330
1F
100
AcDbEntity
  8
D-A
  6
Continuous
 62
     2
370
     9
100
AcDbLine
 10
-1177.394326925277
 20
-357.2491226792334
 30
0.0
 11
-1163.39461684227
 21
-343.2494042515754
 31
0.0
  0
LINE
  5
320
330
1F
100
AcDbEntity
  8
D-A
  6
Continuous
 62
     2
370
     9
100
AcDbLine
 10
-1149.110025167465
 20
-357.2491226792334
 30
0.0
 11
-1135.110276937485
 21
-343.2494042515754
 31
0.0
  0
LINE
  5
321
330
1F
100
AcDbEntity
  8
D-A
  6
Continuous
 62
     2
370
     9
100
AcDbLine
 10
-1120.82568526268
 20
-357.2491226792334
 30
0.0
 11
-1106.825975179672
 21
-343.2494042515754
 31
0.0
  0
LINE
  5
322
330
1F
100
AcDbEntity
  8
D-A
  6
Continuous
 62
     2
370
     9
100
AcDbLine
 10
-1092.541345357895
 20
-357.2491226792334
 30
0.0
 11
-1078.541635274887
 21
-343.2494042515754
 31
0.0
  0
LINE
  5
323
330
1F
100
AcDbEntity
  8
D-A
  6
Continuous
 62
     2
370
     9
100
AcDbLine
 10
-1064.257272481918
 20
-357.2491226792334
 30
0.0
 11
-1050.257295370102
 21
-343.2494042515754
 31
0.0
  0
LINE
  5
324
330
1F
100
AcDbEntity
  8
D-A
  6
Continuous
 62
     2
370
     9
100
AcDbLine
 10
-1035.972932577133
 20
-357.2491226792334
 30
0.0
 11
-1021.972955465317
 21
-343.2494042515754
 31
0.0
  0
LINE
  5
325
330
1F
100
AcDbEntity
  8
D-A
  6
Continuous
 62
     2
370
     9
100
AcDbLine
 10
-1007.688592672348
 20
-357.2491226792334
 30
0.0
 11
-993.6888825893401
 21
-343.2494042515754
 31
0.0
  0
LINE
  5
326
330
1F
100
AcDbEntity
  8
D-A
  6
Continuous
 62
     2
370
     9
100
AcDbLine
 10
-979.4042909145354
 20
-357.2491226792334
 30
0.0
 11
-965.4045426845549
 21
-343.2494042515754
 31
0.0
  0
LINE
  5
327
330
1F
100
AcDbEntity
  8
D-A
  6
Continuous
 62
     2
370
     9
100
AcDbLine
 10
-951.1199510097503
 20
-357.2491226792334
 30
0.0
 11
-937.1199738979338
 21
-343.2494042515754
 31
0.0
  0
LINE
  5
328
330
1F
100
AcDbEntity
  8
D-A
  6
Continuous
 62
     2
370
     9
100
AcDbLine
 10
-922.8356111049651
 20
-357.2491226792334
 30
0.0
 11
-908.8359010219573
 21
-343.2494042515754
 31
0.0
  0
LINE
  5
329
330
1F
100
AcDbEntity
  8
D-A
  6
Continuous
 62
     2
370
     9
100
AcDbLine
 10
-894.5512712001799
 20
-357.2491226792334
 30
0.0
 11
-880.5515611171721
 21
-343.2494042515754
 31
0.0
  0
LINE
  5
32A
330
1F
100
AcDbEntity
  8
D-A
  6
Continuous
 62
     2
370
     9
100
AcDbLine
 10
-866.2669503688811
 20
-357.2491226792334
 30
0.0
 11
-852.2672402858733
 21
-343.2494042515754
 31
0.0
  0
LINE
  5
32B
330
1F
100
AcDbEntity
  8
D-A
  6
Continuous
 62
     2
370
     9
100
AcDbLine
 10
-837.9826295375823
 20
-357.2491226792334
 30
0.0
 11
-823.9826524257659
 21
-343.2494042515754
 31
0.0
  0
LINE
  5
32C
330
1F
100
AcDbEntity
  8
D-A
  6
Continuous
 62
     2
370
     9
100
AcDbLine
 10
-809.6982896327971
 20
-357.2491226792334
 30
0.0
 11
-795.6985795497893
 21
-343.2494042515754
 31
0.0
  0
LINE
  5
32D
330
1F
100
AcDbEntity
  8
D-A
  6
Continuous
 62
     2
370
     9
100
AcDbLine
 10
-781.4139688014983
 20
-357.2491226792334
 30
0.0
 11
-767.4142396450042
 21
-343.2494042515754
 31
0.0
  0
LINE
  5
32E
330
1F
100
AcDbEntity
  8
D-A
  6
Continuous
 62
     2
370
     9
100
AcDbLine
 10
-753.1301248073577
 20
-357.2491226792334
 30
0.0
 11
-739.1299188137053
 21
-343.2494042515754
 31
0.0
  0
LINE
  5
32F
330
1F
100
AcDbEntity
  8
D-A
  6
Continuous
 62
     2
370
     9
100
AcDbLine
 10
-724.8453080654143
 20
-357.2491226792334
 30
0.0
 11
-710.8455789089202
 21
-343.2494042515754
 31
0.0
  0
LINE
  5
330
330
1F
100
AcDbEntity
  8
D-A
  6
Continuous
 62
     2
370
     9
100
AcDbLine
 10
-696.5609681606292
 20
-357.2491226792334
 30
0.0
 11
-682.5612580776213
 21
-343.2494042515754
 31
0.0
  0
LINE
  5
331
330
1F
100
AcDbEntity
  8
D-A
  6
Continuous
 62
     2
370
     9
100
AcDbLine
 10
-668.2766377925872
 20
-357.2491226792334
 30
0.0
 11
-654.2769277095794
 21
-343.2494042515754
 31
0.0
  0
LINE
  5
332
330
1F
100
AcDbEntity
  8
D-A
  6
Continuous
 62
     2
370
     9
100
AcDbLine
 10
-639.9920594692229
 20
-357.2491226792334
 30
0.0
 11
-625.9923446178435
 21
-343.2494042515754
 31
0.0
  0
LINE
  5
333
330
1F
100
AcDbEntity
  8
D-A
  6
Continuous
 62
     2
370
     9
100
AcDbLine
 10
-611.7079818248748
 20
-357.2491226792334
 30
0.0
 11
-597.708510160446
 21
-343.2494042515754
 31
0.0
  0
LINE
  5
334
330
1F
100
AcDbEntity
  8
D-4
  6
Continuous
 62
     7
370
     9
100
AcDbLine
 10
-1155.652421712875
 20
-357.2493694424628
 30
0.0
 11
-1155.652421712875
 21
-270.18931132555
 31
0.0
  0
LINE
  5
335
330
1F
100
AcDbEntity
  8
D-2
  6
Continuous
 62
     4
370
     9
100
AcDbLine
 10
-1244.352754354477
 20
-373.249294579029
 30
0.0
 11
-574.184147119522
 21
-373.249294579029
 31
0.0
  0
LINE
  5
336
330
1F
100
AcDbEntity
  8
D-2
  6
Continuous
 62
     4
370
     9
100
AcDbLine
 10
-574.184147119522
 20
-357.2491226792334
 30
0.0
 11
-574.184147119522
 21
-373.249294579029
 31
0.0
  0
LINE
  5
337
330
1F
100
AcDbEntity
  8
D-2
  6
Continuous
 62
     4
370
     9
100
AcDbLine
 10
-1244.352754354477
 20
-361.2485466599463
 30
0.0
 11
-574.184147119522
 21
-361.2485466599463
 31
0.0
  0
LINE
  5
338
330
1F
100
AcDbEntity
  8
D-2
  6
Continuous
 62
     4
370
     9
100
AcDbLine
 10
-1244.352754354477
 20
-365.2499530911444
 30
0.0
 11
-574.184147119522
 21
-365.2499530911444
 31
0.0
  0
LINE
  5
339
330
1F
100
AcDbEntity
  8
D-2
  6
Continuous
 62
     4
370
     9
100
AcDbLine
 10
-1244.352754354477
 20
-369.2488811612128
 30
0.0
 11
-574.184147119522
 21
-369.2488811612128
 31
0.0
  0
LINE
  5
33A
330
1F
100
AcDbEntity
  8
D-2
  6
Continuous
 62
     4
370
     9
100
AcDbLine
 10
-1244.352754354477
 20
-357.2491226792334
 30
0.0
 11
-571.6845071315764
 21
-357.2491226792334
 31
0.0
  0
LINE
  5
33B
330
1F
100
AcDbEntity
  8
D-2
  6
Continuous
 62
     3
370
     9
100
AcDbLine
 10
-1244.352754354477
 20
-343.2494042515754
 30
0.0
 11
-571.6845071315764
 21
-343.2494042515754
 31
0.0
  0
LINE
  5
33C
330
1F
100
AcDbEntity
  8
D-2
  6
Continuous
 62
     3
370
     9
100
AcDbLine
 10
-571.6845071315764
 20
-343.2494042515754
 30
0.0
 11
-571.6845071315764
 21
-375.7494304776191
 31
0.0
  0
LINE
  5
33D
330
1F
100
AcDbEntity
  8
D-A
  6
Continuous
 62
     2
370
     9
100
AcDbLine
 10
-583.423649072647
 20
-357.2491226792334
 30
0.0
 11
-571.6845071315764
 21
-345.5094851255416
 31
0.0
  0
LINE
  5
33E
330
1F
100
AcDbEntity
  8
D-5
  6
Continuous
 62
     7
370
     9
100
AcDbLine
 10
-1234.218171834945
 20
-589.349238693714
 30
0.0
 11
-861.8035256862639
 21
-589.349238693714
 31
0.0
  0
LINE
  5
33F
330
1F
100
AcDbEntity
  8
D-2
  6
Continuous
 62
     3
370
     9
100
AcDbLine
 10
-1244.352754354477
 20
-400.7495473027228
 30
0.0
 11
-566.684237718582
 21
-400.7495473027228
 31
0.0
  0
ARC
  5
340
330
1F
100
AcDbEntity
  8
D-2
  6
Continuous
 62
     3
370
     9
100
AcDbCircle
 10
-571.6845071315764
 20
-378.2490704655646
 30
0.0
 40
5.0
100
AcDbArc
 50
270.0
 51
0.0
  0
ARC
  5
341
330
1F
100
AcDbEntity
  8
D-2
  6
Continuous
 62
     3
370
     9
100
AcDbCircle
 10
-574.1846430301665
 20
-375.7494304776191
 30
0.0
 40
2.5
100
AcDbArc
 50
270.0
 51
0.0
  0
ARC
  5
342
330
1F
100
AcDbEntity
  8
D-2
  6
Continuous
 62
     3
370
     9
100
AcDbCircle
 10
-568.1842696666716
 20
-417.2491524815558
 30
0.0
 40
3.499999940395355
100
AcDbArc
 50
180.0
 51
270.0
  0
ARC
  5
343
330
1F
100
AcDbEntity
  8
D-2
  6
Continuous
 62
     3
370
     9
100
AcDbCircle
 10
-550.1843839883803
 20
-417.2491524815558
 30
0.0
 40
3.499999940395355
100
AcDbArc
 50
270.0
 51
0.0
  0
ARC
  5
344
330
1F
100
AcDbEntity
  8
D-2
  6
Continuous
 62
     3
370
     9
100
AcDbCircle
 10
-550.1843839883803
 20
-346.7493955492972
 30
0.0
 40
3.499999940395355
100
AcDbArc
 50
7.016464233398438
 51
90.0
  0
ARC
  5
345
330
1F
100
AcDbEntity
  8
D-2
  6
Continuous
 62
     3
370
     9
100
AcDbCircle
 10
-568.1842696666716
 20
-346.7493955492972
 30
0.0
 40
3.499999940395355
100
AcDbArc
 50
90.0
 51
180.0
  0
ARC
  5
346
330
1F
100
AcDbEntity
  8
D-2
  6
Continuous
 62
     3
370
     9
100
AcDbCircle
 10
-641.6843354701995
 20
-378.2490704655646
 30
0.0
 40
5.0
100
AcDbArc
 50
90.0
 51
270.0
  0
LWPOLYLINE
  5
347
330
1F
100
AcDbEntity
  8
D-4
  6
Continuous
 62
     7
370
     9
100
AcDbPolyline
 90
        4
 70
     1
 43
1.0
 10
-1289.691529989243
 20
-420.7491419911383
 42
0.4142135623731
 10
-1290.191529989243
 20
-420.2491419911383
 42
0.4142135623731
 10
-1290.691529989243
 20
-420.7491419911383
 42
0.4142135623731
 10
-1290.191529989243
 20
-421.2491419911383
 42
0.4142135623731
  0
LWPOLYLINE
  5
348
330
1F
100
AcDbEntity
  8
D-4
  6
Continuous
 62
     7
370
     9
100
AcDbPolyline
 90
        4
 70
     1
 43
1.0
 10
-1289.691529989243
 20
-343.2494042515754
 42
0.4142135623731
 10
-1290.191529989243
 20
-342.7494042515754
 42
0.4142135623731
 10
-1290.691529989243
 20
-343.2494042515754
 42
0.4142135623731
 10
-1290.191529989243
 20
-343.7494042515754
 42
0.4142135623731
  0
LWPOLYLINE
  5
349
330
1F
100
AcDbEntity
  8
D-4
  6
Continuous
 62
     7
370
     9
100
AcDbPolyline
 90
        4
 70
     1
 43
1.0
 10
-1155.152421712875
 20
-357.2493694424628
 42
0.4142135623731
 10
-1155.652421712875
 20
-356.7493694424628
 42
0.4142135623731
 10
-1156.152421712875
 20
-357.2493694424628
 42
0.4142135623731
 10
-1155.652421712875
 20
-357.7493694424628
 42
0.4142135623731
  0
LWPOLYLINE
  5
34A
330
1F
100
AcDbEntity
  8
D-4
  6
Continuous
 62
     7
370
     9
100
AcDbPolyline
 90
        4
 70
     1
 43
1.0
 10
-1155.152421712875
 20
-343.2494042515754
 42
0.4142135623731
 10
-1155.652421712875
 20
-342.7494042515754
 42
0.4142135623731
 10
-1156.152421712875
 20
-343.2494042515754
 42
0.4142135623731
 10
-1155.652421712875
 20
-343.7494042515754
 42
0.4142135623731
  0
TEXT
  5
34B
330
1F
100
AcDbEntity
  8
D-5
  6
Continuous
 62
     7
370
     9
100
AcDbText
 10
-361.1642777919768
 20
-55.67963679552066
 30
0.0
 40
22.86
  1
床仕上材貼り（別途工事）
 41
1.152777777777777
  7
ＭＳ ゴシック
100
AcDbText
  0
TEXT
  5
34C
330
1F
100
AcDbEntity
  8
D-4
  6
Continuous
 62
     2
370
     9
100
AcDbText
 10
-1300.831758871079
 20
-425.7494140348508
 30
0.0
 40
30.48
  1
15.5
 50
90.0000025044782
 41
1.093750000000001
  7
ＭＳ ゴシック
100
AcDbText
  0
TEXT
  5
34D
330
1F
100
AcDbEntity
  8
D-5
  6
Continuous
 62
     7
370
     9
100
AcDbText
 10
-361.1642777919768
 20
-109.7070415806769
 30
0.0
 40
22.86
  1
ステンレス形鋼蓋フレーム
 41
1.152777777777777
  7
ＭＳ ゴシック
100
AcDbText
  0
TEXT
  5
34E
330
1F
100
AcDbEntity
  8
D-5
  6
Continuous
 62
     2
370
     9
100
AcDbText
 10
275.9352552890778
 20
-382.6093661046027
 30
0.0
 40
30.48
  1
仕　様
 41
1.083333333333333
  7
ＭＳ ゴシック
100
AcDbText
  0
TEXT
  5
34F
330
1F
100
AcDbEntity
  8
D-4
  6
Continuous
 62
     2
370
     9
100
AcDbText
 10
-1166.292459859848
 20
-335.3191787681653
 30
0.0
 40
30.48
  1
2.8
 50
90.00000250447822
 41
1.083333333333334
  7
ＭＳ ゴシック
100
AcDbText
  0
TEXT
  5
350
330
1F
100
AcDbEntity
  8
D-5
  6
Continuous
 62
     7
370
     9
100
AcDbText
 10
-1207.227510213852
 20
-578.2366855931281
 30
0.0
 40
22.86
  1
プレート　ｔ＝３．２
 41
1.15
  7
ＭＳ ゴシック
100
AcDbText
  0
TEXT
  5
351
330
1F
100
AcDbEntity
  8
D-4
  6
Continuous
 62
     2
370
     9
100
AcDbText
 10
-827.8067611598967
 20
-469.1972593142081
 30
0.0
 40
30.48
  1
25
 50
90.0000025
 41
1.062500000000001
  7
ＭＳ ゴシック
100
AcDbText
  0
TEXT
  5
352
330
1F
100
AcDbEntity
  8
D-4
  6
Continuous
 62
     2
370
     9
100
AcDbText
 10
-1234.351762533188
 20
-102.8902529454231
 30
0.0
 40
30.48
  1
200
 41
1.083333333333333
  7
ＭＳ ゴシック
100
AcDbText
  0
TEXT
  5
353
330
1F
100
AcDbEntity
  8
D-4
  6
Continuous
 62
     2
370
     9
100
AcDbText
 10
-1234.351762533188
 20
7.809747054576874
 30
0.0
 40
30.48
  1
212
 41
1.083333333333333
  7
ＭＳ ゴシック
100
AcDbText
  0
TEXT
  5
354
330
1F
100
AcDbEntity
  8
D-4
  6
Continuous
 62
     2
370
     9
100
AcDbText
 10
-1234.351762533188
 20
-211.690252945423
 30
0.0
 40
30.48
  1
150
 41
1.083333333333333
  7
ＭＳ ゴシック
100
AcDbText
  0
TEXT
  5
355
330
1F
100
AcDbEntity
  8
F-5
  6
Continuous
 62
     4
370
     0
100
AcDbText
 10
-410.2109885459379
 20
-1373.173307252066
 30
0.0
 40
26.67000000000001
  1
ＳＣ－１５　２００×６００×１５＋ＳＦ１５Ｂ
 41
1.027272727272727
  7
ＭＳ ゴシック
100
AcDbText
  0
TEXT
  5
356
330
1F
100
AcDbEntity
  8
D-5
  6
Continuous
 62
     2
370
     9
100
AcDbText
 10
389.789477676576
 20
-980.2926050877591
 30
0.0
 40
30.48
  1
定尺：３０００
 50
359.9999506463765
 41
1.107142857142857
  7
ＭＳ ゴシック
100
AcDbText
  0
TEXT
  5
357
330
1F
100
AcDbEntity
  8
D-5
  6
Continuous
 62
     2
370
     9
100
AcDbText
 10
330.0775587558746
 20
-850.2922617650031
 30
0.0
 40
30.48
  1
ステンレス製受枠　ＳＦ１５Ｂ
 41
1.116071428571428
  7
ＭＳ ゴシック
100
AcDbText
  0
TEXT
  5
358
330
1F
100
AcDbEntity
  8
D-5
  6
Continuous
 62
     2
370
     9
100
AcDbText
 10
389.7894728183746
 20
-915.2918040013312
 30
0.0
 40
30.48
  1
材質：冷間圧延ステンレス鋼板（ＳＵＳ３０４－２Ｂ）
 41
1.12
  7
ＭＳ ゴシック
100
AcDbText
  0
TEXT
  5
359
330
1F
100
AcDbEntity
  8
D-5
  6
Continuous
 62
     2
370
     9
100
AcDbText
 10
390.2371656894684
 20
-582.0818697667121
 30
0.0
 40
30.48
  1
材質：目地部　ＳＵＳ３０４　ｔ＝１．０
 41
1.118421052631579
  7
ＭＳ ゴシック
100
AcDbText
  0
TEXT
  5
35A
330
1F
100
AcDbEntity
  8
D-5
  6
Continuous
 62
     2
370
     9
100
AcDbText
 10
390.2371656894684
 20
-647.0819269871711
 30
0.0
 40
30.48
  1
　　　プレート部　溶融亜鉛めっき鋼板
 41
1.118055555555555
  7
ＭＳ ゴシック
100
AcDbText
  0
TEXT
  5
35B
330
1F
100
AcDbEntity
  8
D-5
  6
Continuous
 62
     2
370
     9
100
AcDbText
 10
330.5252516269684
 20
-452.0820128178595
 30
0.0
 40
30.48
  1
ステンレス目地付樹脂タイル用化粧蓋
 41
1.117647058823529
  7
ＭＳ ゴシック
100
AcDbText
  0
TEXT
  5
35C
330
1F
100
AcDbEntity
  8
D-5
  6
Continuous
 62
     2
370
     9
100
AcDbText
 10
330.5252516269684
 20
-517.0820700383185
 30
0.0
 40
30.48
  1
ＳＣ－１５　２００×６００×１５
 41
1.1171875
  7
ＭＳ ゴシック
100
AcDbText
  0
TEXT
  5
35D
330
1F
100
AcDbEntity
  8
D-5
  6
Continuous
 62
     2
370
     9
100
AcDbText
 10
390.2371604122305
 20
-712.0819842076326
 30
0.0
 40
30.48
  1
定尺：５９９．５
 50
0.00005361054221
 41
1.109375
  7
ＭＳ ゴシック
100
AcDbText
  0
ENDSEC
  0
SECTION
  2
OBJECTS
  0
DICTIONARY
  5
C
330
0
100
AcDbDictionary
281
     1
  3
ACAD_GROUP
350
D
  3
ACAD_LAYOUT
350
1A
  3
ACAD_MLEADERSTYLE
350
35F
  3
ACAD_MLINESTYLE
350
17
  3
ACAD_PLOTSETTINGS
350
19
  3
ACAD_PLOTSTYLENAME
350
E
  3
ACAD_TABLESTYLE
350
35E
  3
ACAD_VISUALSTYLE
350
2A
  3
AcDbVariableDictionary
350
360
  0
DICTIONARY
  5
D
102
{ACAD_REACTORS
330
C
102
}
330
C
100
AcDbDictionary
281
     1
  0
DICTIONARY
  5
1A
102
{ACAD_REACTORS
330
C
102
}
330
C
100
AcDbDictionary
281
     1
  3
Layout1
350
1E
  3
Layout2
350
26
  3
Model
350
22
  0
DICTIONARY
  5
35F
102
{ACAD_REACTORS
330
C
102
}
330
C
100
AcDbDictionary
281
     1
  0
DICTIONARY
  5
17
102
{ACAD_REACTORS
330
C
102
}
330
C
100
AcDbDictionary
281
     1
  3
Standard
350
18
  0
DICTIONARY
  5
19
102
{ACAD_REACTORS
330
C
102
}
330
C
100
AcDbDictionary
281
     1
  0
ACDBDICTIONARYWDFLT
  5
E
102
{ACAD_REACTORS
330
C
102
}
330
C
100
AcDbDictionary
281
     1
  3
Normal
350
F
100
AcDbDictionaryWithDefault
340
F
  0
DICTIONARY
  5
35E
102
{ACAD_REACTORS
330
C
102
}
330
C
100
AcDbDictionary
281
     1
  0
DICTIONARY
  5
2A
102
{ACAD_REACTORS
330
C
102
}
330
C
100
AcDbDictionary
281
     1
  3
2dWireframe
350
2F
  3
3D Hidden
350
31
  3
3dWireframe
350
30
  3
Basic
350
32
  3
Brighten
350
36
  3
ColorChange
350
3A
  3
Conceptual
350
34
  3
Dim
350
35
  3
Facepattern
350
39
  3
Flat
350
2B
  3
FlatWithEdges
350
2C
  3
Gouraud
350
2D
  3
GouraudWithEdges
350
2E
  3
Linepattern
350
38
  3
Realistic
350
33
  3
Thicken
350
37
  0
DICTIONARY
  5
360
102
{ACAD_REACTORS
330
C
102
}
330
C
100
AcDbDictionary
281
     1
  3
PSOLHEIGHT
350
362
  3
PSOLWIDTH
350
361
  0
LAYOUT
  5
1E
102
{ACAD_REACTORS
330
1A
102
}
102
{ACAD_XDICTIONARY
360
363
102
}
330
1A
100
AcDbPlotSettings
  1

  2
none_device
  4

  6

 40
0.0
 41
0.0
 42
0.0
 43
0.0
 44
0.0
 45
0.0
 46
0.0
 47
0.0
 48
0.0
 49
0.0
140
0.0
141
0.0
142
1.0
143
1.0
 70
   688
 72
     0
 73
     0
 74
     5
  7

 75
    16
147
1.0
148
0.0
149
0.0
100
AcDbLayout
  1
Layout1
 70
     1
 71
     1
 10
0.0
 20
0.0
 11
420.0
 21
297.0
 12
0.0
 22
0.0
 32
0.0
 14
1.000000000000000E+20
 24
1.000000000000000E+20
 34
1.000000000000000E+20
 15
-1.000000000000000E+20
 25
-1.000000000000000E+20
 35
-1.000000000000000E+20
146
0.0
 13
0.0
 23
0.0
 33
0.0
 16
1.0
 26
0.0
 36
0.0
 17
0.0
 27
1.0
 37
0.0
 76
     0
330
1B
  0
LAYOUT
  5
26
102
{ACAD_REACTORS
330
1A
102
}
102
{ACAD_XDICTIONARY
360
367
102
}
330
1A
100
AcDbPlotSettings
  1

  2
none_device
  4

  6

 40
0.0
 41
0.0
 42
0.0
 43
0.0
 44
0.0
 45
0.0
 46
0.0
 47
0.0
 48
0.0
 49
0.0
140
0.0
141
0.0
142
1.0
143
1.0
 70
   688
 72
     0
 73
     0
 74
     5
  7

 75
    16
147
1.0
148
0.0
149
0.0
100
AcDbLayout
  1
Layout2
 70
     1
 71
     2
 10
0.0
 20
0.0
 11
0.0
 21
0.0
 12
0.0
 22
0.0
 32
0.0
 14
0.0
 24
0.0
 34
0.0
 15
0.0
 25
0.0
 35
0.0
146
0.0
 13
0.0
 23
0.0
 33
0.0
 16
1.0
 26
0.0
 36
0.0
 17
0.0
 27
1.0
 37
0.0
 76
     0
330
23
  0
LAYOUT
  5
22
102
{ACAD_REACTORS
330
1A
102
}
102
{ACAD_XDICTIONARY
360
365
102
}
330
1A
100
AcDbPlotSettings
  1

  2
none_device
  4

  6

 40
0.0
 41
0.0
 42
0.0
 43
0.0
 44
0.0
 45
0.0
 46
0.0
 47
0.0
 48
0.0
 49
0.0
140
0.0
141
0.0
142
1.0
143
1.0
 70
  1712
 72
     0
 73
     0
 74
     0
  7

 75
     0
147
1.0
148
0.0
149
0.0
100
AcDbLayout
  1
Model
 70
     1
 71
     0
 10
-2100.0
 20
-1485.0
 11
2100.0
 21
1485.0
 12
0.0
 22
0.0
 32
0.0
 14
-2100.0
 24
-1485.0
 34
0.0
 15
2100.0
 25
1485.0
 35
0.0
146
0.0
 13
0.0
 23
0.0
 33
0.0
 16
1.0
 26
0.0
 36
0.0
 17
0.0
 27
1.0
 37
0.0
 76
     0
330
1F
331
29
  0
MLINESTYLE
  5
18
102
{ACAD_REACTORS
330
17
102
}
330
17
100
AcDbMlineStyle
  2
Standard
 70
     0
  3

 62
   256
 51
90.0
 52
90.0
 71
     2
 49
0.5
 62
   256
  6
BYLAYER
 49
-0.5
 62
   256
  6
BYLAYER
  0
ACDBPLACEHOLDER
  5
F
102
{ACAD_REACTORS
330
E
102
}
330
E
  0
VISUALSTYLE
  5
2F
102
{ACAD_REACTORS
330
2A
102
}
330
2A
100
AcDbVisualStyle
  2
2dWireframe
 70
     4
 71
     0
 72
     2
 73
     0
 90
        0
 40
-0.6
 41
-30.0
 62
     5
 63
     7
 74
     1
 91
        4
 64
     7
 65
   257
 75
     1
175
     1
 42
1.0
 92
        0
 66
   257
 43
1.0
 76
     1
 77
     6
 78
     2
 67
     7
 79
     5
170
     0
171
     0
290
     0
174
     0
 93
        1
 44
0.0
173
     0
291
     0
 45
0.0
1001
ACAD
1000
AcDbSavedByObjectVersion
1070
     0
  0
VISUALSTYLE
  5
31
102
{ACAD_REACTORS
330
2A
102
}
330
2A
100
AcDbVisualStyle
  2
3D Hidden
 70
     6
 71
     1
 72
     2
 73
     2
 90
        0
 40
-0.6
 41
-30.0
 62
     5
 63
     7
 74
     2
 91
        2
 64
     7
 65
   257
 75
     2
175
     1
 42
40.0
 92
        0
 66
   257
 43
1.0
 76
     1
 77
     6
 78
     2
 67
     7
 79
     3
170
     0
171
     0
290
     0
174
     0
 93
        1
 44
0.0
173
     0
291
     0
 45
0.0
1001
ACAD
1000
AcDbSavedByObjectVersion
1070
     0
  0
VISUALSTYLE
  5
30
102
{ACAD_REACTORS
330
2A
102
}
330
2A
100
AcDbVisualStyle
  2
3dWireframe
 70
     5
 71
     0
 72
     2
 73
     0
 90
        0
 40
-0.6
 41
-30.0
 62
     5
 63
     7
 74
     1
 91
        4
 64
     7
 65
   257
 75
     1
175
     1
 42
1.0
 92
        0
 66
   257
 43
1.0
 76
     1
 77
     6
 78
     2
 67
     7
 79
     5
170
     0
171
     0
290
     0
174
     0
 93
        1
 44
0.0
173
     0
291
     0
 45
0.0
1001
ACAD
1000
AcDbSavedByObjectVersion
1070
     0
  0
VISUALSTYLE
  5
32
102
{ACAD_REACTORS
330
2A
102
}
330
2A
100
AcDbVisualStyle
  2
Basic
 70
     7
 71
     1
 72
     0
 73
     1
 90
        0
 40
-0.6
 41
-30.0
 62
     5
 63
     7
 74
     0
 91
        4
 64
     7
 65
   257
 75
     1
175
     1
 42
1.0
 92
        8
 66
     7
 43
1.0
 76
     1
 77
     6
 78
     2
 67
     7
 79
     5
170
     0
171
     0
290
     0
174
     0
 93
        1
 44
0.0
173
     0
291
     1
 45
0.0
1001
ACAD
1000
AcDbSavedByObjectVersion
1070
     0
  0
VISUALSTYLE
  5
36
102
{ACAD_REACTORS
330
2A
102
}
330
2A
100
AcDbVisualStyle
  2
Brighten
 70
    12
 71
     2
 72
     2
 73
     0
 90
        0
 40
-0.6
 41
-30.0
 62
     5
 63
     7
 74
     1
 91
        4
 64
     7
 65
   257
 75
     1
175
     1
 42
1.0
 92
        8
 66
     7
 43
1.0
 76
     1
 77
     6
 78
     2
 67
     7
 79
     5
170
     0
171
     0
290
     0
174
     0
 93
        1
 44
50.0
173
     0
291
     1
 45
0.0
1001
ACAD
1000
AcDbSavedByObjectVersion
1070
     0
  0
VISUALSTYLE
  5
3A
102
{ACAD_REACTORS
330
2A
102
}
330
2A
100
AcDbVisualStyle
  2
ColorChange
 70
    16
 71
     2
 72
     2
 73
     3
 90
        0
 40
-0.6
 41
-30.0
 62
     5
 63
     8
 74
     1
 91
        4
 64
     7
 65
   257
 75
     1
175
     1
 42
1.0
 92
        8
 66
     8
 43
1.0
 76
     1
 77
     6
 78
     2
 67
     7
 79
     5
170
     0
171
     0
290
     0
174
     0
 93
        1
 44
0.0
173
     0
291
     1
 45
0.0
1001
ACAD
1000
AcDbSavedByObjectVersion
1070
     0
  0
VISUALSTYLE
  5
34
102
{ACAD_REACTORS
330
2A
102
}
330
2A
100
AcDbVisualStyle
  2
Conceptual
 70
     9
 71
     3
 72
     2
 73
     0
 90
        0
 40
-0.6
 41
-30.0
 62
     5
 63
     7
 74
     2
 91
        2
 64
     7
 65
   257
 75
     1
175
     1
 42
40.0
 92
        8
 66
     7
 43
1.0
 76
     1
 77
     6
 78
     2
 67
     7
 79
     3
170
     0
171
     0
290
     0
174
     0
 93
        1
 44
0.0
173
     0
291
     0
 45
0.0
1001
ACAD
1000
AcDbSavedByObjectVersion
1070
     0
  0
VISUALSTYLE
  5
35
102
{ACAD_REACTORS
330
2A
102
}
330
2A
100
AcDbVisualStyle
  2
Dim
 70
    11
 71
     2
 72
     2
 73
     0
 90
        0
 40
-0.6
 41
-30.0
 62
     5
 63
     7
 74
     1
 91
        4
 64
     7
 65
   257
 75
     1
175
     1
 42
1.0
 92
        8
 66
     7
 43
1.0
 76
     1
 77
     6
 78
     2
 67
     7
 79
     5
170
     0
171
     0
290
     0
174
     0
 93
        1
 44
-50.0
173
     0
291
     1
 45
0.0
1001
ACAD
1000
AcDbSavedByObjectVersion
1070
     0
  0
VISUALSTYLE
  5
39
102
{ACAD_REACTORS
330
2A
102
}
330
2A
100
AcDbVisualStyle
  2
Facepattern
 70
    15
 71
     2
 72
     2
 73
     0
 90
        0
 40
-0.6
 41
-30.0
 62
     5
 63
     7
 74
     1
 91
        4
 64
     7
 65
   257
 75
     1
175
     1
 42
1.0
 92
        8
 66
     7
 43
1.0
 76
     1
 77
     6
 78
     2
 67
     7
 79
     5
170
     0
171
     0
290
     0
174
     0
 93
        1
 44
0.0
173
     0
291
     1
 45
0.0
1001
ACAD
1000
AcDbSavedByObjectVersion
1070
     0
  0
VISUALSTYLE
  5
2B
102
{ACAD_REACTORS
330
2A
102
}
330
2A
100
AcDbVisualStyle
  2
Flat
 70
     0
 71
     2
 72
     1
 73
     1
 90
        2
 40
-0.6
 41
30.0
 62
     5
 63
     7
 74
     0
 91
        4
 64
     7
 65
   257
 75
     1
175
     1
 42
1.0
 92
        8
 66
     7
 43
1.0
 76
     1
 77
     6
 78
     2
 67
     7
 79
     5
170
     0
171
     0
290
     0
174
     0
 93
       13
 44
0.0
173
     0
291
     1
 45
0.0
1001
ACAD
1000
AcDbSavedByObjectVersion
1070
     0
  0
VISUALSTYLE
  5
2C
102
{ACAD_REACTORS
330
2A
102
}
330
2A
100
AcDbVisualStyle
  2
FlatWithEdges
 70
     1
 71
     2
 72
     1
 73
     1
 90
        2
 40
-0.6
 41
30.0
 62
     5
 63
     7
 74
     1
 91
        4
 64
     7
 65
   257
 75
     1
175
     1
 42
1.0
 92
        0
 66
   257
 43
1.0
 76
     1
 77
     6
 78
     2
 67
     7
 79
     5
170
     0
171
     0
290
     0
174
     0
 93
       13
 44
0.0
173
     0
291
     1
 45
0.0
1001
ACAD
1000
AcDbSavedByObjectVersion
1070
     0
  0
VISUALSTYLE
  5
2D
102
{ACAD_REACTORS
330
2A
102
}
330
2A
100
AcDbVisualStyle
  2
Gouraud
 70
     2
 71
     2
 72
     2
 73
     1
 90
        2
 40
-0.6
 41
30.0
 62
     5
 63
     7
 74
     0
 91
        4
 64
     7
 65
   257
 75
     1
175
     1
 42
1.0
 92
        0
 66
     7
 43
1.0
 76
     1
 77
     6
 78
     2
 67
     7
 79
     5
170
     0
171
     0
290
     0
174
     0
 93
       13
 44
0.0
173
     0
291
     1
 45
0.0
1001
ACAD
1000
AcDbSavedByObjectVersion
1070
     0
  0
VISUALSTYLE
  5
2E
102
{ACAD_REACTORS
330
2A
102
}
330
2A
100
AcDbVisualStyle
  2
GouraudWithEdges
 70
     3
 71
     2
 72
     2
 73
     1
 90
        2
 40
-0.6
 41
30.0
 62
     5
 63
     7
 74
     1
 91
        4
 64
     7
 65
   257
 75
     1
175
     1
 42
1.0
 92
        0
 66
   257
 43
1.0
 76
     1
 77
     6
 78
     2
 67
     7
 79
     5
170
     0
171
     0
290
     0
174
     0
 93
       13
 44
0.0
173
     0
291
     1
 45
0.0
1001
ACAD
1000
AcDbSavedByObjectVersion
1070
     0
  0
VISUALSTYLE
  5
38
102
{ACAD_REACTORS
330
2A
102
}
330
2A
100
AcDbVisualStyle
  2
Linepattern
 70
    14
 71
     2
 72
     2
 73
     0
 90
        0
 40
-0.6
 41
-30.0
 62
     5
 63
     7
 74
     1
 91
        4
 64
     7
 65
   257
 75
     7
175
     7
 42
1.0
 92
        8
 66
     7
 43
1.0
 76
     1
 77
     6
 78
     2
 67
     7
 79
     5
170
     0
171
     0
290
     0
174
     0
 93
        1
 44
0.0
173
     0
291
     1
 45
0.0
1001
ACAD
1000
AcDbSavedByObjectVersion
1070
     0
  0
VISUALSTYLE
  5
33
102
{ACAD_REACTORS
330
2A
102
}
330
2A
100
AcDbVisualStyle
  2
Realistic
 70
     8
 71
     2
 72
     2
 73
     0
 90
        0
 40
-0.6
 41
-30.0
 62
     5
 63
     7
 74
     1
 91
        0
 64
     7
 65
   257
 75
     1
175
     1
 42
1.0
 92
        8
 66
     8
 43
1.0
 76
     1
 77
     6
 78
     2
 67
     7
 79
     5
170
     0
171
     0
290
     0
174
     0
 93
       13
 44
0.0
173
     0
291
     0
 45
0.0
1001
ACAD
1000
AcDbSavedByObjectVersion
1070
     0
  0
VISUALSTYLE
  5
37
102
{ACAD_REACTORS
330
2A
102
}
330
2A
100
AcDbVisualStyle
  2
Thicken
 70
    13
 71
     2
 72
     2
 73
     0
 90
        0
 40
-0.6
 41
-30.0
 62
     5
 63
     7
 74
     1
 91
        4
 64
     7
 65
   257
 75
     1
175
     1
 42
1.0
 92
       12
 66
     7
 43
1.0
 76
     1
 77
     6
 78
     2
 67
     7
 79
     5
170
     0
171
     0
290
     0
174
     0
 93
        1
 44
0.0
173
     0
291
     1
 45
0.0
1001
ACAD
1000
AcDbSavedByObjectVersion
1070
     0
  0
DICTIONARYVAR
  5
362
102
{ACAD_REACTORS
330
360
102
}
330
360
100
DictionaryVariables
280
     0
  1
80.000000
  0
DICTIONARYVAR
  5
361
102
{ACAD_REACTORS
330
360
102
}
330
360
100
DictionaryVariables
280
     0
  1
5.000000
  0
DICTIONARY
  5
363
330
1E
100
AcDbDictionary
280
     1
281
     1
  3
ACAD_XREC_ROUNDTRIP
360
364
  0
DICTIONARY
  5
367
330
26
100
AcDbDictionary
280
     1
281
     1
  3
ACAD_XREC_ROUNDTRIP
360
368
  0
DICTIONARY
  5
365
330
22
100
AcDbDictionary
280
     1
281
     1
  3
ACAD_XREC_ROUNDTRIP
360
366
  0
XRECORD
  5
364
102
{ACAD_REACTORS
330
363
102
}
330
363
100
AcDbXrecord
280
     1
102
SHADEPLOT
 70
     0
102
SHADEPLOTRESLEVEL
 70
     5
102
SHADEPLOTCUSTOMDPI
 70
   300
  0
XRECORD
  5
368
102
{ACAD_REACTORS
330
367
102
}
330
367
100
AcDbXrecord
280
     1
102
SHADEPLOT
 70
     0
102
SHADEPLOTRESLEVEL
 70
     5
102
SHADEPLOTCUSTOMDPI
 70
   300
  0
XRECORD
  5
366
102
{ACAD_REACTORS
330
365
102
}
330
365
100
AcDbXrecord
280
     1
102
SHADEPLOT
 70
     0
102
SHADEPLOTRESLEVEL
 70
     5
102
SHADEPLOTCUSTOMDPI
 70
   300
  0
ENDSEC
  0
EOF
