  0
SECTION
  2
HEADER
  9
$ACADVER
  1
AC1015
  9
$ACADMAINTVER
 70
     6
  9
$DWGCODEPAGE
  3
ANSI_932
  9
$INSBASE
 10
0.0
 20
0.0
 30
0.0
  9
$EXTMIN
 10
-2100.0
 20
-1485.0
 30
0.0
  9
$EXTMAX
 10
2100.0
 20
1485.0
 30
0.0
  9
$LIMMIN
 10
-2100.0
 20
-1485.0
  9
$LIMMAX
 10
2100.0
 20
1485.0
  9
$ORTHOMODE
 70
     0
  9
$REGENMODE
 70
     1
  9
$FILLMODE
 70
     1
  9
$QTEXTMODE
 70
     0
  9
$MIRRTEXT
 70
     1
  9
$LTSCALE
 40
10.0
  9
$ATTMODE
 70
     1
  9
$TEXTSIZE
 40
2.5
  9
$TRACEWID
 40
1.0
  9
$TEXTSTYLE
  7
Standard
  9
$CLAYER
  8
0
  9
$CELTYPE
  6
ByLayer
  9
$CECOLOR
 62
   256
  9
$CELTSCALE
 40
1.0
  9
$DISPSILH
 70
     0
  9
$DIMSCALE
 40
1.0
  9
$DIMASZ
 40
2.5
  9
$DIMEXO
 40
0.625
  9
$DIMDLI
 40
3.75
  9
$DIMRND
 40
0.0
  9
$DIMDLE
 40
0.0
  9
$DIMEXE
 40
1.25
  9
$DIMTP
 40
0.0
  9
$DIMTM
 40
0.0
  9
$DIMTXT
 40
2.5
  9
$DIMCEN
 40
2.5
  9
$DIMTSZ
 40
0.0
  9
$DIMTOL
 70
     0
  9
$DIMLIM
 70
     0
  9
$DIMTIH
 70
     0
  9
$DIMTOH
 70
     0
  9
$DIMSE1
 70
     0
  9
$DIMSE2
 70
     0
  9
$DIMTAD
 70
     1
  9
$DIMZIN
 70
     8
  9
$DIMBLK
  1

  9
$DIMASO
 70
     1
  9
$DIMSHO
 70
     1
  9
$DIMPOST
  1

  9
$DIMAPOST
  1

  9
$DIMALT
 70
     0
  9
$DIMALTD
 70
     3
  9
$DIMALTF
 40
0.03937007874016
  9
$DIMLFAC
 40
1.0
  9
$DIMTOFL
 70
     1
  9
$DIMTVP
 40
0.0
  9
$DIMTIX
 70
     0
  9
$DIMSOXD
 70
     0
  9
$DIMSAH
 70
     0
  9
$DIMBLK1
  1

  9
$DIMBLK2
  1

  9
$DIMSTYLE
  2
ISO-25
  9
$DIMCLRD
 70
     0
  9
$DIMCLRE
 70
     0
  9
$DIMCLRT
 70
     0
  9
$DIMTFAC
 40
1.0
  9
$DIMGAP
 40
0.625
  9
$DIMJUST
 70
     0
  9
$DIMSD1
 70
     0
  9
$DIMSD2
 70
     0
  9
$DIMTOLJ
 70
     0
  9
$DIMTZIN
 70
     8
  9
$DIMALTZ
 70
     0
  9
$DIMALTTZ
 70
     0
  9
$DIMUPT
 70
     0
  9
$DIMDEC
 70
     2
  9
$DIMTDEC
 70
     2
  9
$DIMALTU
 70
     2
  9
$DIMALTTD
 70
     3
  9
$DIMTXSTY
  7
Standard
  9
$DIMAUNIT
 70
     0
  9
$DIMADEC
 70
     0
  9
$DIMALTRND
 40
0.0
  9
$DIMAZIN
 70
     0
  9
$DIMDSEP
 70
    44
  9
$DIMATFIT
 70
     3
  9
$DIMFRAC
 70
     0
  9
$DIMLDRBLK
  1

  9
$DIMLUNIT
 70
     2
  9
$DIMLWD
 70
    -2
  9
$DIMLWE
 70
    -2
  9
$DIMTMOVE
 70
     0
  9
$LUNITS
 70
     2
  9
$LUPREC
 70
     4
  9
$SKETCHINC
 40
1.0
  9
$FILLETRAD
 40
10.0
  9
$AUNITS
 70
     0
  9
$AUPREC
 70
     0
  9
$MENU
  1
.
  9
$ELEVATION
 40
0.0
  9
$PELEVATION
 40
0.0
  9
$THICKNESS
 40
0.0
  9
$LIMCHECK
 70
     0
  9
$CHAMFERA
 40
10.0
  9
$CHAMFERB
 40
10.0
  9
$CHAMFERC
 40
20.0
  9
$CHAMFERD
 40
0.0
  9
$SKPOLY
 70
     0
  9
$TDCREATE
 40
2456904.815981979
  9
$TDUCREATE
 40
2456904.440981979
  9
$TDUPDATE
 40
2456904.815981991
  9
$TDUUPDATE
 40
2456904.440981991
  9
$TDINDWG
 40
0.0000000116
  9
$TDUSRTIMER
 40
0.0000000116
  9
$USRTIMER
 70
     1
  9
$ANGBASE
 50
0.0
  9
$ANGDIR
 70
     0
  9
$PDMODE
 70
     0
  9
$PDSIZE
 40
0.0
  9
$PLINEWID
 40
0.0
  9
$SPLFRAME
 70
     0
  9
$SPLINETYPE
 70
     6
  9
$SPLINESEGS
 70
     8
  9
$HANDSEED
  5
365
  9
$SURFTAB1
 70
     6
  9
$SURFTAB2
 70
     6
  9
$SURFTYPE
 70
     6
  9
$SURFU
 70
     6
  9
$SURFV
 70
     6
  9
$UCSBASE
  2

  9
$UCSNAME
  2

  9
$UCSORG
 10
0.0
 20
0.0
 30
0.0
  9
$UCSXDIR
 10
1.0
 20
0.0
 30
0.0
  9
$UCSYDIR
 10
0.0
 20
1.0
 30
0.0
  9
$UCSORTHOREF
  2

  9
$UCSORTHOVIEW
 70
     0
  9
$UCSORGTOP
 10
0.0
 20
0.0
 30
0.0
  9
$UCSORGBOTTOM
 10
0.0
 20
0.0
 30
0.0
  9
$UCSORGLEFT
 10
0.0
 20
0.0
 30
0.0
  9
$UCSORGRIGHT
 10
0.0
 20
0.0
 30
0.0
  9
$UCSORGFRONT
 10
0.0
 20
0.0
 30
0.0
  9
$UCSORGBACK
 10
0.0
 20
0.0
 30
0.0
  9
$PUCSBASE
  2

  9
$PUCSNAME
  2

  9
$PUCSORG
 10
0.0
 20
0.0
 30
0.0
  9
$PUCSXDIR
 10
1.0
 20
0.0
 30
0.0
  9
$PUCSYDIR
 10
0.0
 20
1.0
 30
0.0
  9
$PUCSORTHOREF
  2

  9
$PUCSORTHOVIEW
 70
     0
  9
$PUCSORGTOP
 10
0.0
 20
0.0
 30
0.0
  9
$PUCSORGBOTTOM
 10
0.0
 20
0.0
 30
0.0
  9
$PUCSORGLEFT
 10
0.0
 20
0.0
 30
0.0
  9
$PUCSORGRIGHT
 10
0.0
 20
0.0
 30
0.0
  9
$PUCSORGFRONT
 10
0.0
 20
0.0
 30
0.0
  9
$PUCSORGBACK
 10
0.0
 20
0.0
 30
0.0
  9
$USERI1
 70
     0
  9
$USERI2
 70
     0
  9
$USERI3
 70
     0
  9
$USERI4
 70
     0
  9
$USERI5
 70
     0
  9
$USERR1
 40
0.0
  9
$USERR2
 40
0.0
  9
$USERR3
 40
0.0
  9
$USERR4
 40
0.0
  9
$USERR5
 40
0.0
  9
$WORLDVIEW
 70
     1
  9
$SHADEDGE
 70
     3
  9
$SHADEDIF
 70
    70
  9
$TILEMODE
 70
     1
  9
$MAXACTVP
 70
    64
  9
$PINSBASE
 10
0.0
 20
0.0
 30
0.0
  9
$PLIMCHECK
 70
     0
  9
$PEXTMIN
 10
1.000000000000000E+20
 20
1.000000000000000E+20
 30
1.000000000000000E+20
  9
$PEXTMAX
 10
-1.000000000000000E+20
 20
-1.000000000000000E+20
 30
-1.000000000000000E+20
  9
$PLIMMIN
 10
0.0
 20
0.0
  9
$PLIMMAX
 10
420.0
 20
297.0
  9
$UNITMODE
 70
     0
  9
$VISRETAIN
 70
     1
  9
$PLINEGEN
 70
     0
  9
$PSLTSCALE
 70
     1
  9
$TREEDEPTH
 70
  3020
  9
$CMLSTYLE
  2
Standard
  9
$CMLJUST
 70
     0
  9
$CMLSCALE
 40
20.0
  9
$PROXYGRAPHICS
 70
     1
  9
$MEASUREMENT
 70
     1
  9
$CELWEIGHT
370
    -1
  9
$ENDCAPS
280
     0
  9
$JOINSTYLE
280
     0
  9
$LWDISPLAY
290
     0
  9
$INSUNITS
 70
     4
  9
$HYPERLINKBASE
  1

  9
$STYLESHEET
  1

  9
$XEDIT
290
     1
  9
$CEPSNTYPE
380
     0
  9
$PSTYLEMODE
290
     1
  9
$FINGERPRINTGUID
  2
{27514764-AE83-4A50-84CD-0B83A8C36F87}
  9
$VERSIONGUID
  2
{FAEB1C32-E019-11D5-929B-00C0DF256EC4}
  9
$EXTNAMES
290
     1
  9
$PSVPSCALE
 40
0.0
  9
$OLESTARTUP
290
     0
  0
ENDSEC
  0
SECTION
  2
CLASSES
  0
CLASS
  1
ACDBDICTIONARYWDFLT
  2
AcDbDictionaryWithDefault
  3
ObjectDBX Classes
 90
        0
280
     0
281
     0
  0
CLASS
  1
VISUALSTYLE
  2
AcDbVisualStyle
  3
ObjectDBX Classes
 90
     4095
280
     0
281
     0
  0
CLASS
  1
DICTIONARYVAR
  2
AcDbDictionaryVar
  3
ObjectDBX Classes
 90
        0
280
     0
281
     0
  0
CLASS
  1
ACDBPLACEHOLDER
  2
AcDbPlaceHolder
  3
ObjectDBX Classes
 90
        0
280
     0
281
     0
  0
CLASS
  1
LAYOUT
  2
AcDbLayout
  3
ObjectDBX Classes
 90
        0
280
     0
281
     0
  0
ENDSEC
  0
SECTION
  2
TABLES
  0
TABLE
  2
VPORT
  5
8
330
0
100
AcDbSymbolTable
 70
     1
  0
VPORT
  5
29
330
8
100
AcDbSymbolTableRecord
100
AcDbViewportTableRecord
  2
*Active
 70
     0
 10
0.0
 20
0.0
 11
1.0
 21
1.0
 12
0.0
 22
0.0
 13
0.0
 23
0.0
 14
10.0
 24
10.0
 15
10.0
 25
10.0
 16
0.0
 26
0.0
 36
1.0
 17
0.0
 27
0.0
 37
0.0
 40
3267.0
 41
1.414141414141414
 42
50.0
 43
0.0
 44
0.0
 50
0.0
 51
0.0
 71
     0
 72
 10000
 73
     1
 74
     3
 75
     0
 76
     0
 77
     0
 78
     0
281
     0
 65
     1
110
0.0
120
0.0
130
0.0
111
1.0
121
0.0
131
0.0
112
0.0
122
1.0
132
0.0
 79
     0
146
0.0
  0
ENDTAB
  0
TABLE
  2
LTYPE
  5
5
330
0
100
AcDbSymbolTable
 70
     6
  0
LTYPE
  5
14
330
5
100
AcDbSymbolTableRecord
100
AcDbLinetypeTableRecord
  2
ByBlock
 70
     0
  3

 72
    65
 73
     0
 40
0.0
  0
LTYPE
  5
15
330
5
100
AcDbSymbolTableRecord
100
AcDbLinetypeTableRecord
  2
ByLayer
 70
     0
  3

 72
    65
 73
     0
 40
0.0
  0
LTYPE
  5
16
330
5
100
AcDbSymbolTableRecord
100
AcDbLinetypeTableRecord
  2
Continuous
 70
     0
  3
Solid line
 72
    65
 73
     0
 40
0.0
  0
LTYPE
  5
3C
330
5
100
AcDbSymbolTableRecord
100
AcDbLinetypeTableRecord
  2
JWW_CENTER1
 70
     0
  3
-----  --  ----------  --  -----
 72
    65
 73
     4
 40
6.773333333333333
 49
4.233333333333333
 74
     0
 49
-0.8466666666666667
 74
     0
 49
0.8466666666666667
 74
     0
 49
-0.8466666666666667
 74
     0
  0
LTYPE
  5
3D
330
5
100
AcDbSymbolTableRecord
100
AcDbLinetypeTableRecord
  2
JWW_DASHED3
 70
     0
  3
---  ------  ------  ------  ---
 72
    65
 73
     2
 40
3.386666666666667
 49
2.54
 74
     0
 49
-0.8466666666666667
 74
     0
  0
LTYPE
  5
3E
330
5
100
AcDbSymbolTableRecord
100
AcDbLinetypeTableRecord
  2
JWW_CENTER2
 70
     0
  3
-------------  --  -------------
 72
    65
 73
     4
 40
13.54666666666667
 49
11.00666666666667
 74
     0
 49
-0.8466666666666667
 74
     0
 49
0.8466666666666667
 74
     0
 49
-0.8466666666666667
 74
     0
  0
LTYPE
  5
3F
330
5
100
AcDbSymbolTableRecord
100
AcDbLinetypeTableRecord
  2
JWW_PHANTOM1
 70
     0
  3
----  -  -  --------  -  -  ----
 72
    65
 73
     6
 40
6.773333333333333
 49
3.386666666666667
 74
     0
 49
-0.8466666666666667
 74
     0
 49
0.4233333333333333
 74
     0
 49
-0.8466666666666667
 74
     0
 49
0.4233333333333333
 74
     0
 49
-0.8466666666666667
 74
     0
  0
LTYPE
  5
40
330
5
100
AcDbSymbolTableRecord
100
AcDbLinetypeTableRecord
  2
JWW_DASHED2
 70
     0
  3
--    ----    ----    ----    --
 72
    65
 73
     2
 40
3.386666666666667
 49
1.693333333333333
 74
     0
 49
-1.693333333333333
 74
     0
  0
ENDTAB
  0
TABLE
  2
LAYER
  5
2
330
0
100
AcDbSymbolTable
 70
    17
  0
LAYER
  5
10
330
2
100
AcDbSymbolTableRecord
100
AcDbLayerTableRecord
  2
0
 70
     0
 62
     7
  6
Continuous
370
    -3
390
F
  0
LAYER
  5
41
330
2
100
AcDbSymbolTableRecord
100
AcDbLayerTableRecord
  2
C-2
 70
     0
 62
     7
  6
Continuous
370
    -3
390
F
  0
LAYER
  5
42
330
2
100
AcDbSymbolTableRecord
100
AcDbLayerTableRecord
  2
C-A
 70
     0
 62
     7
  6
Continuous
370
    -3
390
F
  0
LAYER
  5
43
330
2
100
AcDbSymbolTableRecord
100
AcDbLayerTableRecord
  2
C-5
 70
     0
 62
     7
  6
Continuous
370
    -3
390
F
  0
LAYER
  5
44
330
2
100
AcDbSymbolTableRecord
100
AcDbLayerTableRecord
  2
C-1
 70
     0
 62
     7
  6
Continuous
370
    -3
390
F
  0
LAYER
  5
45
330
2
100
AcDbSymbolTableRecord
100
AcDbLayerTableRecord
  2
C-4
 70
     0
 62
     7
  6
Continuous
370
    -3
390
F
  0
LAYER
  5
46
330
2
100
AcDbSymbolTableRecord
100
AcDbLayerTableRecord
  2
C-0
 70
     0
 62
     7
  6
Continuous
370
    -3
390
F
  0
LAYER
  5
47
330
2
100
AcDbSymbolTableRecord
100
AcDbLayerTableRecord
  2
D-4
 70
     0
 62
     7
  6
Continuous
370
    -3
390
F
  0
LAYER
  5
48
330
2
100
AcDbSymbolTableRecord
100
AcDbLayerTableRecord
  2
D-6
 70
     0
 62
     7
  6
Continuous
370
    -3
390
F
  0
LAYER
  5
49
330
2
100
AcDbSymbolTableRecord
100
AcDbLayerTableRecord
  2
D-5
 70
     0
 62
     7
  6
Continuous
370
    -3
390
F
  0
LAYER
  5
4A
330
2
100
AcDbSymbolTableRecord
100
AcDbLayerTableRecord
  2
D-0
 70
     0
 62
     7
  6
Continuous
370
    -3
390
F
  0
LAYER
  5
4B
330
2
100
AcDbSymbolTableRecord
100
AcDbLayerTableRecord
  2
D-9
 70
     0
 62
     7
  6
Continuous
370
    -3
390
F
  0
LAYER
  5
4C
330
2
100
AcDbSymbolTableRecord
100
AcDbLayerTableRecord
  2
D-1
 70
     0
 62
     7
  6
Continuous
370
    -3
390
F
  0
LAYER
  5
4D
330
2
100
AcDbSymbolTableRecord
100
AcDbLayerTableRecord
  2
D-3
 70
     0
 62
     7
  6
Continuous
370
    -3
390
F
  0
LAYER
  5
4E
330
2
100
AcDbSymbolTableRecord
100
AcDbLayerTableRecord
  2
D-A
 70
     0
 62
     7
  6
Continuous
370
    -3
390
F
  0
LAYER
  5
4F
330
2
100
AcDbSymbolTableRecord
100
AcDbLayerTableRecord
  2
D-2
 70
     0
 62
     7
  6
Continuous
370
    -3
390
F
  0
LAYER
  5
50
330
2
100
AcDbSymbolTableRecord
100
AcDbLayerTableRecord
  2
F-4
 70
     0
 62
     7
  6
Continuous
370
    -3
390
F
  0
ENDTAB
  0
TABLE
  2
STYLE
  5
3
330
0
100
AcDbSymbolTable
 70
     2
  0
STYLE
  5
11
330
3
100
AcDbSymbolTableRecord
100
AcDbTextStyleTableRecord
  2
Standard
 70
     0
 40
0.0
 41
1.0
 50
0.0
 71
     0
 42
2.5
  3
txt
  4

1001
ACAD
1000

1071
        0
  0
STYLE
  5
3B
330
3
100
AcDbSymbolTableRecord
100
AcDbTextStyleTableRecord
  2
ＭＳ ゴシック
 70
     0
 40
1.0
 41
1.0
 50
0.0
 71
     0
 42
10.0
  3

  4

1001
ACAD
1000
MS Gothic
1071
    32817
  0
ENDTAB
  0
TABLE
  2
VIEW
  5
6
330
0
100
AcDbSymbolTable
 70
     0
  0
ENDTAB
  0
TABLE
  2
UCS
  5
7
330
0
100
AcDbSymbolTable
 70
     0
  0
ENDTAB
  0
TABLE
  2
APPID
  5
9
330
0
100
AcDbSymbolTable
 70
     1
  0
APPID
  5
12
330
9
100
AcDbSymbolTableRecord
100
AcDbRegAppTableRecord
  2
ACAD
 70
     0
  0
ENDTAB
  0
TABLE
  2
DIMSTYLE
  5
A
330
0
100
AcDbSymbolTable
 70
     1
100
AcDbDimStyleTable
  0
DIMSTYLE
105
27
330
A
100
AcDbSymbolTableRecord
100
AcDbDimStyleTableRecord
  2
ISO-25
 70
     0
 41
2.5
 42
0.625
 43
3.75
 44
1.25
 73
     0
 74
     0
 77
     1
 78
     8
140
2.5
141
2.5
143
0.03937007874016
147
0.625
171
     3
172
     1
271
     2
272
     2
274
     3
278
    44
283
     0
284
     8
340
11
  0
ENDTAB
  0
TABLE
  2
BLOCK_RECORD
  5
1
330
0
100
AcDbSymbolTable
 70
     1
  0
BLOCK_RECORD
  5
1F
330
1
100
AcDbSymbolTableRecord
100
AcDbBlockTableRecord
  2
*Model_Space
340
22
  0
BLOCK_RECORD
  5
1B
330
1
100
AcDbSymbolTableRecord
100
AcDbBlockTableRecord
  2
*Paper_Space
340
1E
  0
BLOCK_RECORD
  5
23
330
1
100
AcDbSymbolTableRecord
100
AcDbBlockTableRecord
  2
*Paper_Space0
340
26
  0
ENDTAB
  0
ENDSEC
  0
SECTION
  2
BLOCKS
  0
BLOCK
  5
20
330
1F
100
AcDbEntity
  8
0
100
AcDbBlockBegin
  2
*Model_Space
 70
     0
 10
0.0
 20
0.0
 30
0.0
  3
*Model_Space
  1

  0
ENDBLK
  5
21
330
1F
100
AcDbEntity
  8
0
100
AcDbBlockEnd
  0
BLOCK
  5
1C
330
1B
100
AcDbEntity
 67
     1
  8
0
100
AcDbBlockBegin
  2
*Paper_Space
 70
     0
 10
0.0
 20
0.0
 30
0.0
  3
*Paper_Space
  1

  0
ENDBLK
  5
1D
330
1B
100
AcDbEntity
 67
     1
  8
0
100
AcDbBlockEnd
  0
BLOCK
  5
24
330
23
100
AcDbEntity
  8
0
100
AcDbBlockBegin
  2
*Paper_Space0
 70
     0
 10
0.0
 20
0.0
 30
0.0
  3
*Paper_Space0
  1

  0
ENDBLK
  5
25
330
23
100
AcDbEntity
  8
0
100
AcDbBlockEnd
  0
ENDSEC
  0
SECTION
  2
ENTITIES
  0
LINE
  5
51
330
1F
100
AcDbEntity
  8
C-2
  6
Continuous
 62
     3
370
     9
100
AcDbLine
 10
-1155.49312282253
 20
463.1078276763091
 30
0.0
 11
-1155.49312282253
 21
713.107415276605
 31
0.0
  0
LINE
  5
52
330
1F
100
AcDbEntity
  8
C-2
  6
Continuous
 62
     3
370
     9
100
AcDbLine
 10
-1155.49312282253
 20
713.107415276605
 30
0.0
 11
-555.9933224239865
 21
713.107415276605
 31
0.0
  0
LINE
  5
53
330
1F
100
AcDbEntity
  8
C-2
  6
Continuous
 62
     3
370
     9
100
AcDbLine
 10
-555.9933224239865
 20
713.107415276605
 30
0.0
 11
-555.9933224239865
 21
463.1078276763091
 31
0.0
  0
LINE
  5
54
330
1F
100
AcDbEntity
  8
C-2
  6
Continuous
 62
     3
370
     9
100
AcDbLine
 10
-555.9933224239865
 20
463.1078276763091
 30
0.0
 11
-1155.49312282253
 21
463.1078276763091
 31
0.0
  0
LINE
  5
55
330
1F
100
AcDbEntity
  8
C-2
  6
Continuous
 62
     3
370
     9
100
AcDbLine
 10
-1150.493230046452
 20
468.1078441722974
 30
0.0
 11
-1150.493230046452
 21
708.107151340794
 31
0.0
  0
LINE
  5
56
330
1F
100
AcDbEntity
  8
C-2
  6
Continuous
 62
     3
370
     9
100
AcDbLine
 10
-1150.493230046452
 20
708.107151340794
 30
0.0
 11
-560.9929677602406
 21
708.107151340794
 31
0.0
  0
LINE
  5
57
330
1F
100
AcDbEntity
  8
C-2
  6
Continuous
 62
     3
370
     9
100
AcDbLine
 10
-560.9929677602406
 20
708.107151340794
 30
0.0
 11
-560.9929677602406
 21
468.1078441722974
 31
0.0
  0
LINE
  5
58
330
1F
100
AcDbEntity
  8
C-2
  6
Continuous
 62
     3
370
     9
100
AcDbLine
 10
-560.9929677602406
 20
468.1078441722974
 30
0.0
 11
-1150.493230046452
 21
468.1078441722974
 31
0.0
  0
LINE
  5
59
330
1F
100
AcDbEntity
  8
C-2
  6
Continuous
 62
     3
370
     9
100
AcDbLine
 10
-560.9929677602406
 20
468.1078441722974
 30
0.0
 11
-555.9933224239865
 21
463.1078276763091
 31
0.0
  0
LINE
  5
5A
330
1F
100
AcDbEntity
  8
C-2
  6
Continuous
 62
     3
370
     9
100
AcDbLine
 10
-555.9933224239865
 20
713.107415276605
 30
0.0
 11
-560.9929677602406
 21
708.107151340794
 31
0.0
  0
LINE
  5
5B
330
1F
100
AcDbEntity
  8
C-2
  6
Continuous
 62
     3
370
     9
100
AcDbLine
 10
-1155.49312282253
 20
713.107415276605
 30
0.0
 11
-1150.493230046452
 21
708.107151340794
 31
0.0
  0
LINE
  5
5C
330
1F
100
AcDbEntity
  8
C-2
  6
Continuous
 62
     3
370
     9
100
AcDbLine
 10
-1155.49312282253
 20
463.1078276763091
 30
0.0
 11
-1150.493230046452
 21
468.1078441722974
 31
0.0
  0
LINE
  5
5D
330
1F
100
AcDbEntity
  8
C-A
  6
Continuous
 62
     3
370
     9
100
AcDbLine
 10
-1054.493012299409
 20
542.1078161291175
 30
0.0
 11
-1085.493139318518
 21
542.1078161291175
 31
0.0
  0
LINE
  5
5E
330
1F
100
AcDbEntity
  8
C-A
  6
Continuous
 62
     3
370
     9
100
AcDbLine
 10
-1052.49307993296
 20
632.1077418971709
 30
0.0
 11
-1052.49307993296
 21
544.1079959353885
 31
0.0
  0
LINE
  5
5F
330
1F
100
AcDbEntity
  8
C-A
  6
Continuous
 62
     3
370
     9
100
AcDbLine
 10
-1087.493133544922
 20
632.1077418971709
 30
0.0
 11
-1087.493133544922
 21
544.1079959353885
 31
0.0
  0
LINE
  5
60
330
1F
100
AcDbEntity
  8
C-A
  6
Continuous
 62
     3
370
     9
100
AcDbLine
 10
-1085.493139318518
 20
634.1077979835304
 30
0.0
 11
-1054.493012299409
 21
634.1077979835304
 31
0.0
  0
LINE
  5
61
330
1F
100
AcDbEntity
  8
C-A
  6
Continuous
 62
     3
370
     9
100
AcDbLine
 10
-1076.093395336254
 20
618.5077069256758
 30
0.0
 11
-1076.093395336254
 21
557.7071648675044
 31
0.0
  0
LINE
  5
62
330
1F
100
AcDbEntity
  8
C-A
  6
Continuous
 62
     3
370
     9
100
AcDbLine
 10
-1066.093238624366
 20
620.7079418285474
 30
0.0
 11
-1073.892974853516
 21
620.7079418285474
 31
0.0
  0
LINE
  5
63
330
1F
100
AcDbEntity
  8
C-A
  6
Continuous
 62
     3
370
     9
100
AcDbLine
 10
-1066.093238624366
 20
555.5073011243667
 30
0.0
 11
-1073.892974853516
 21
555.5073011243667
 31
0.0
  0
LINE
  5
64
330
1F
100
AcDbEntity
  8
C-A
  6
Continuous
 62
     3
370
     9
100
AcDbLine
 10
-1063.893065581451
 20
557.7071648675044
 30
0.0
 11
-1063.893065581451
 21
618.5077069256758
 31
0.0
  0
LINE
  5
65
330
1F
100
AcDbEntity
  8
C-5
  6
Continuous
 62
     7
370
     9
100
AcDbLine
 10
-843.2432432432432
 20
323.1081081081081
 30
0.0
 11
-843.2432432432432
 21
388.1077039563979
 31
0.0
  0
LINE
  5
66
330
1F
100
AcDbEntity
  8
C-5
  6
Continuous
 62
     7
370
     9
100
AcDbLine
 10
-843.2432432432432
 20
388.1077039563979
 30
0.0
 11
-268.2428308435388
 21
388.1077039563979
 31
0.0
  0
LINE
  5
67
330
1F
100
AcDbEntity
  8
C-5
  6
Continuous
 62
     7
370
     9
100
AcDbLine
 10
-268.2428308435388
 20
388.1077039563979
 30
0.0
 11
-268.2428308435388
 21
323.1081081081081
 31
0.0
  0
LINE
  5
68
330
1F
100
AcDbEntity
  8
C-5
  6
Continuous
 62
     7
370
     9
100
AcDbLine
 10
-268.2428308435388
 20
323.1081081081081
 30
0.0
 11
-843.2432432432432
 21
323.1081081081081
 31
0.0
  0
LINE
  5
69
330
1F
100
AcDbEntity
  8
C-A
  6
JWW_CENTER1
 62
     3
370
     9
100
AcDbLine
 10
-1102.492935593064
 20
588.1076214764571
 30
0.0
 11
-1037.493154164907
 21
588.1076214764571
 31
0.0
  0
LINE
  5
6A
330
1F
100
AcDbEntity
  8
C-A
  6
JWW_CENTER1
 62
     3
370
     9
100
AcDbLine
 10
-1069.993137668919
 20
527.1080140809755
 30
0.0
 11
-1069.993137668919
 21
649.1076000316724
 31
0.0
  0
LINE
  5
6B
330
1F
100
AcDbEntity
  8
C-2
  6
Continuous
 62
     3
370
     9
100
AcDbLine
 10
-555.4932465424408
 20
463.1078276763091
 30
0.0
 11
-555.4932465424408
 21
713.107415276605
 31
0.0
  0
LINE
  5
6C
330
1F
100
AcDbEntity
  8
C-2
  6
Continuous
 62
     3
370
     9
100
AcDbLine
 10
-555.4932465424408
 20
713.107415276605
 30
0.0
 11
44.00717245565886
 21
713.107415276605
 31
0.0
  0
LINE
  5
6D
330
1F
100
AcDbEntity
  8
C-2
  6
Continuous
 62
     3
370
     9
100
AcDbLine
 10
44.00717245565886
 20
713.107415276605
 30
0.0
 11
44.00717245565886
 21
463.1078276763091
 31
0.0
  0
LINE
  5
6E
330
1F
100
AcDbEntity
  8
C-2
  6
Continuous
 62
     3
370
     9
100
AcDbLine
 10
44.00717245565886
 20
463.1078276763091
 30
0.0
 11
-555.4932465424408
 21
463.1078276763091
 31
0.0
  0
LINE
  5
6F
330
1F
100
AcDbEntity
  8
C-2
  6
Continuous
 62
     3
370
     9
100
AcDbLine
 10
-550.49298260663
 20
468.1078441722974
 30
0.0
 11
-550.49298260663
 21
708.107151340794
 31
0.0
  0
LINE
  5
70
330
1F
100
AcDbEntity
  8
C-2
  6
Continuous
 62
     3
370
     9
100
AcDbLine
 10
-550.49298260663
 20
708.107151340794
 30
0.0
 11
39.0069085198482
 21
708.107151340794
 31
0.0
  0
LINE
  5
71
330
1F
100
AcDbEntity
  8
C-2
  6
Continuous
 62
     3
370
     9
100
AcDbLine
 10
39.0069085198482
 20
708.107151340794
 30
0.0
 11
39.0069085198482
 21
468.1078441722974
 31
0.0
  0
LINE
  5
72
330
1F
100
AcDbEntity
  8
C-2
  6
Continuous
 62
     3
370
     9
100
AcDbLine
 10
39.0069085198482
 20
468.1078441722974
 30
0.0
 11
-550.49298260663
 21
468.1078441722974
 31
0.0
  0
LINE
  5
73
330
1F
100
AcDbEntity
  8
C-2
  6
Continuous
 62
     3
370
     9
100
AcDbLine
 10
39.0069085198482
 20
468.1078441722974
 30
0.0
 11
44.00717245565886
 21
463.1078276763091
 31
0.0
  0
LINE
  5
74
330
1F
100
AcDbEntity
  8
C-2
  6
Continuous
 62
     3
370
     9
100
AcDbLine
 10
44.00717245565886
 20
713.107415276605
 30
0.0
 11
39.0069085198482
 21
708.107151340794
 31
0.0
  0
LINE
  5
75
330
1F
100
AcDbEntity
  8
C-2
  6
Continuous
 62
     3
370
     9
100
AcDbLine
 10
-555.4932465424408
 20
713.107415276605
 30
0.0
 11
-550.49298260663
 21
708.107151340794
 31
0.0
  0
LINE
  5
76
330
1F
100
AcDbEntity
  8
C-2
  6
Continuous
 62
     3
370
     9
100
AcDbLine
 10
-555.4932465424408
 20
463.1078276763091
 30
0.0
 11
-550.49298260663
 21
468.1078441722974
 31
0.0
  0
LINE
  5
77
330
1F
100
AcDbEntity
  8
C-2
  6
Continuous
 62
     3
370
     9
100
AcDbLine
 10
44.50675345755911
 20
463.1078276763091
 30
0.0
 11
44.50675345755911
 21
713.107415276605
 31
0.0
  0
LINE
  5
78
330
1F
100
AcDbEntity
  8
C-2
  6
Continuous
 62
     3
370
     9
100
AcDbLine
 10
49.5067699535474
 20
468.1078441722974
 30
0.0
 11
49.5067699535474
 21
708.107151340794
 31
0.0
  0
LINE
  5
79
330
1F
100
AcDbEntity
  8
C-2
  6
Continuous
 62
     3
370
     9
100
AcDbLine
 10
44.50675345755911
 20
713.107415276605
 30
0.0
 11
49.5067699535474
 21
708.107151340794
 31
0.0
  0
LINE
  5
7A
330
1F
100
AcDbEntity
  8
C-2
  6
Continuous
 62
     3
370
     9
100
AcDbLine
 10
44.50675345755911
 20
463.1078276763091
 30
0.0
 11
49.5067699535474
 21
468.1078441722974
 31
0.0
  0
LINE
  5
7B
330
1F
100
AcDbEntity
  8
C-2
  6
Continuous
 62
     3
370
     9
100
AcDbLine
 10
-1155.993074984164
 20
713.107415276605
 30
0.0
 11
-1155.993074984164
 21
463.1078276763091
 31
0.0
  0
LINE
  5
7C
330
1F
100
AcDbEntity
  8
C-2
  6
Continuous
 62
     3
370
     9
100
AcDbLine
 10
-1160.993215200063
 20
708.107151340794
 30
0.0
 11
-1160.993215200063
 21
468.1078441722974
 31
0.0
  0
LINE
  5
7D
330
1F
100
AcDbEntity
  8
C-2
  6
Continuous
 62
     3
370
     9
100
AcDbLine
 10
-1160.993215200063
 20
468.1078441722974
 30
0.0
 11
-1155.993074984164
 21
463.1078276763091
 31
0.0
  0
LINE
  5
7E
330
1F
100
AcDbEntity
  8
C-2
  6
Continuous
 62
     3
370
     9
100
AcDbLine
 10
-1155.993074984164
 20
713.107415276605
 30
0.0
 11
-1160.993215200063
 21
708.107151340794
 31
0.0
  0
LINE
  5
7F
330
1F
100
AcDbEntity
  8
C-2
  6
Continuous
 62
     3
370
     9
100
AcDbLine
 10
44.50675345755911
 20
713.107415276605
 30
0.0
 11
344.5070008973818
 21
713.107415276605
 31
0.0
  0
LINE
  5
80
330
1F
100
AcDbEntity
  8
C-2
  6
Continuous
 62
     3
370
     9
100
AcDbLine
 10
49.5067699535474
 20
708.107151340794
 30
0.0
 11
344.5070008973818
 21
708.107151340794
 31
0.0
  0
LINE
  5
81
330
1F
100
AcDbEntity
  8
C-2
  6
Continuous
 62
     3
370
     9
100
AcDbLine
 10
344.5070008973818
 20
468.1078441722974
 30
0.0
 11
49.5067699535474
 21
468.1078441722974
 31
0.0
  0
LINE
  5
82
330
1F
100
AcDbEntity
  8
C-2
  6
Continuous
 62
     3
370
     9
100
AcDbLine
 10
344.5070008973818
 20
463.1078276763091
 30
0.0
 11
44.50675345755911
 21
463.1078276763091
 31
0.0
  0
LINE
  5
83
330
1F
100
AcDbEntity
  8
C-2
  6
Continuous
 62
     3
370
     9
100
AcDbLine
 10
-1455.99313684412
 20
713.107415276605
 30
0.0
 11
-1155.993074984164
 21
713.107415276605
 31
0.0
  0
LINE
  5
84
330
1F
100
AcDbEntity
  8
C-2
  6
Continuous
 62
     3
370
     9
100
AcDbLine
 10
-1155.993074984164
 20
463.1078276763091
 30
0.0
 11
-1455.99313684412
 21
463.1078276763091
 31
0.0
  0
LINE
  5
85
330
1F
100
AcDbEntity
  8
C-2
  6
Continuous
 62
     3
370
     9
100
AcDbLine
 10
-1455.99313684412
 20
708.107151340794
 30
0.0
 11
-1160.993215200063
 21
708.107151340794
 31
0.0
  0
LINE
  5
86
330
1F
100
AcDbEntity
  8
C-2
  6
Continuous
 62
     3
370
     9
100
AcDbLine
 10
-1160.993215200063
 20
468.1078441722974
 30
0.0
 11
-1455.99313684412
 21
468.1078441722974
 31
0.0
  0
LINE
  5
87
330
1F
100
AcDbEntity
  8
C-1
  6
JWW_DASHED3
 62
     2
370
     9
100
AcDbLine
 10
-1455.99313684412
 20
688.1070853568415
 30
0.0
 11
344.5070008973818
 21
688.1070853568415
 31
0.0
  0
LINE
  5
88
330
1F
100
AcDbEntity
  8
C-1
  6
Continuous
 62
     2
370
     9
100
AcDbLine
 10
-1455.99313684412
 20
714.1073195998734
 30
0.0
 11
344.5070008973818
 21
714.1073195998734
 31
0.0
  0
LINE
  5
89
330
1F
100
AcDbEntity
  8
C-1
  6
Continuous
 62
     2
370
     9
100
AcDbLine
 10
-1455.99313684412
 20
721.1071447423988
 30
0.0
 11
344.5070008973818
 21
721.1071447423988
 31
0.0
  0
LINE
  5
8A
330
1F
100
AcDbEntity
  8
C-1
  6
JWW_DASHED3
 62
     2
370
     9
100
AcDbLine
 10
-1455.99313684412
 20
488.1076627164273
 30
0.0
 11
344.5070008973818
 21
488.1076627164273
 31
0.0
  0
LINE
  5
8B
330
1F
100
AcDbEntity
  8
C-1
  6
Continuous
 62
     2
370
     9
100
AcDbLine
 10
-1455.99313684412
 20
462.107675913218
 30
0.0
 11
344.5070008973818
 21
462.107675913218
 31
0.0
  0
LINE
  5
8C
330
1F
100
AcDbEntity
  8
C-1
  6
Continuous
 62
     2
370
     9
100
AcDbLine
 10
-1455.99313684412
 20
455.1077270507812
 30
0.0
 11
344.5070008973818
 21
455.1077270507812
 31
0.0
  0
LINE
  5
8D
330
1F
100
AcDbEntity
  8
C-4
  6
Continuous
 62
     7
370
     9
100
AcDbLine
 10
-1455.99313684412
 20
821.1072272223396
 30
0.0
 11
344.5070008973818
 21
821.1072272223396
 31
0.0
  0
LINE
  5
8E
330
1F
100
AcDbEntity
  8
C-4
  6
Continuous
 62
     7
370
     9
100
AcDbLine
 10
-1155.993074984164
 20
741.1074581661742
 30
0.0
 11
-1155.993074984164
 21
824.1071876319679
 31
0.0
  0
LINE
  5
8F
330
1F
100
AcDbEntity
  8
C-4
  6
Continuous
 62
     7
370
     9
100
AcDbLine
 10
-1155.49312282253
 20
741.1074581661742
 30
0.0
 11
-1155.49312282253
 21
904.1076990076016
 31
0.0
  0
LINE
  5
90
330
1F
100
AcDbEntity
  8
C-4
  6
Continuous
 62
     7
370
     9
100
AcDbLine
 10
-555.9933224239865
 20
741.1074581661742
 30
0.0
 11
-555.9933224239865
 21
824.1071876319679
 31
0.0
  0
LINE
  5
91
330
1F
100
AcDbEntity
  8
C-4
  6
Continuous
 62
     7
370
     9
100
AcDbLine
 10
-555.4932465424408
 20
741.1074581661742
 30
0.0
 11
-555.4932465424408
 21
904.1076990076016
 31
0.0
  0
LINE
  5
92
330
1F
100
AcDbEntity
  8
C-4
  6
Continuous
 62
     7
370
     9
100
AcDbLine
 10
44.00717245565886
 20
741.1074581661742
 30
0.0
 11
44.00717245565886
 21
824.1071876319679
 31
0.0
  0
LINE
  5
93
330
1F
100
AcDbEntity
  8
C-4
  6
Continuous
 62
     7
370
     9
100
AcDbLine
 10
44.50675345755911
 20
741.1074581661742
 30
0.0
 11
44.50675345755911
 21
904.1076990076016
 31
0.0
  0
LINE
  5
94
330
1F
100
AcDbEntity
  8
C-4
  6
Continuous
 62
     7
370
     9
100
AcDbLine
 10
-1455.99313684412
 20
901.1072437183279
 30
0.0
 11
344.5070008973818
 21
901.1072437183279
 31
0.0
  0
LINE
  5
95
330
1F
100
AcDbEntity
  8
C-2
  6
Continuous
 62
     3
370
     9
100
AcDbLine
 10
-1475.993140968117
 20
573.1073245486698
 30
0.0
 11
-1455.99313684412
 21
573.1073245486698
 31
0.0
  0
LINE
  5
96
330
1F
100
AcDbEntity
  8
C-2
  6
Continuous
 62
     3
370
     9
100
AcDbLine
 10
-1475.993140968117
 20
573.1073245486698
 30
0.0
 11
-1435.993194580078
 21
603.1080421241554
 31
0.0
  0
LINE
  5
97
330
1F
100
AcDbEntity
  8
C-2
  6
Continuous
 62
     3
370
     9
100
AcDbLine
 10
-1455.99313684412
 20
603.1080421241554
 30
0.0
 11
-1435.993194580078
 21
603.1080421241554
 31
0.0
  0
LINE
  5
98
330
1F
100
AcDbEntity
  8
C-2
  6
Continuous
 62
     3
370
     9
100
AcDbLine
 10
324.5069349134292
 20
573.1073245486698
 30
0.0
 11
364.5070668813347
 21
603.1080421241554
 31
0.0
  0
LINE
  5
99
330
1F
100
AcDbEntity
  8
C-2
  6
Continuous
 62
     3
370
     9
100
AcDbLine
 10
324.5069349134292
 20
573.1073245486698
 30
0.0
 11
344.5070008973818
 21
573.1073245486698
 31
0.0
  0
LINE
  5
9A
330
1F
100
AcDbEntity
  8
C-2
  6
Continuous
 62
     3
370
     9
100
AcDbLine
 10
344.5070008973818
 20
603.1080421241554
 30
0.0
 11
364.5070668813347
 21
603.1080421241554
 31
0.0
  0
LINE
  5
9B
330
1F
100
AcDbEntity
  8
C-2
  6
Continuous
 62
     3
370
     9
100
AcDbLine
 10
-1455.99313684412
 20
573.1073245486698
 30
0.0
 11
-1455.99313684412
 21
440.1075538429055
 31
0.0
  0
LINE
  5
9C
330
1F
100
AcDbEntity
  8
C-2
  6
Continuous
 62
     3
370
     9
100
AcDbLine
 10
-1455.99313684412
 20
736.1069467905406
 30
0.0
 11
-1455.99313684412
 21
603.1080421241554
 31
0.0
  0
LINE
  5
9D
330
1F
100
AcDbEntity
  8
C-2
  6
Continuous
 62
     3
370
     9
100
AcDbLine
 10
344.5070008973818
 20
736.1069467905406
 30
0.0
 11
344.5070008973818
 21
603.1080421241554
 31
0.0
  0
LINE
  5
9E
330
1F
100
AcDbEntity
  8
C-2
  6
Continuous
 62
     3
370
     9
100
AcDbLine
 10
344.5070008973818
 20
573.1073245486698
 30
0.0
 11
344.5070008973818
 21
440.1075538429055
 31
0.0
  0
LINE
  5
9F
330
1F
100
AcDbEntity
  8
C-4
  6
Continuous
 62
     7
370
     9
100
AcDbLine
 10
1382.403234533361
 20
233.3908823374156
 30
0.0
 11
855.9270085515203
 21
233.3908823374156
 31
0.0
  0
LINE
  5
A0
330
1F
100
AcDbEntity
  8
C-4
  6
Continuous
 62
     7
370
     9
100
AcDbLine
 10
507.9132904877537
 20
828.8172046558279
 30
0.0
 11
837.8099596178214
 21
828.8172046558279
 31
0.0
  0
LINE
  5
A1
330
1F
100
AcDbEntity
  8
C-4
  6
Continuous
 62
     7
370
     9
100
AcDbLine
 10
566.7381492820948
 20
397.9236417203336
 30
0.0
 11
909.9079853779563
 21
397.9236417203336
 31
0.0
  0
LINE
  5
A2
330
1F
100
AcDbEntity
  8
C-4
  6
Continuous
 62
     7
370
     9
100
AcDbLine
 10
568.0357237119932
 20
560.5575479043498
 30
0.0
 11
902.3665144636828
 21
560.5575479043498
 31
0.0
  0
LINE
  5
A3
330
1F
100
AcDbEntity
  8
C-0
  6
Continuous
 62
     3
370
     9
100
AcDbLine
 10
1333.120150179477
 20
1165.266080289274
 30
0.0
 11
893.1201831714526
 21
1165.266080289274
 31
0.0
  0
LINE
  5
A4
330
1F
100
AcDbEntity
  8
C-0
  6
Continuous
 62
     3
370
     9
100
AcDbLine
 10
1343.120183171453
 20
1000.265783361487
 30
0.0
 11
1343.120183171453
 21
1155.266047297298
 31
0.0
  0
LINE
  5
A5
330
1F
100
AcDbEntity
  8
C-0
  6
Continuous
 62
     3
370
     9
100
AcDbLine
 10
883.1201501794766
 20
1000.265783361487
 30
0.0
 11
883.1201501794766
 21
1155.266047297298
 31
0.0
  0
LINE
  5
A6
330
1F
100
AcDbEntity
  8
C-0
  6
Continuous
 62
     3
370
     9
100
AcDbLine
 10
893.1201831714526
 20
990.2659978093328
 30
0.0
 11
1333.120150179477
 21
990.2659978093328
 31
0.0
  0
LINE
  5
A7
330
1F
100
AcDbEntity
  8
C-0
  6
Continuous
 62
     3
370
     9
100
AcDbLine
 10
950.1204207136828
 20
1058.266172666808
 30
0.0
 11
950.1204207136828
 21
1097.265657991977
 31
0.0
  0
LINE
  5
A8
330
1F
100
AcDbEntity
  8
C-0
  6
Continuous
 62
     3
370
     9
100
AcDbLine
 10
1265.119975322002
 20
1108.265842747044
 30
0.0
 11
961.1201105891047
 21
1108.265842747044
 31
0.0
  0
LINE
  5
A9
330
1F
100
AcDbEntity
  8
C-0
  6
Continuous
 62
     3
370
     9
100
AcDbLine
 10
1276.120160077069
 20
1058.266172666808
 30
0.0
 11
1276.120160077069
 21
1097.265657991977
 31
0.0
  0
LINE
  5
AA
330
1F
100
AcDbEntity
  8
C-0
  6
Continuous
 62
     3
370
     9
100
AcDbLine
 10
1265.119975322002
 20
1047.266235351562
 30
0.0
 11
961.1201105891047
 21
1047.266235351562
 31
0.0
  0
LINE
  5
AB
330
1F
100
AcDbEntity
  8
C-4
  6
Continuous
 62
     7
370
     9
100
AcDbLine
 10
883.1201501794766
 20
901.7572681323904
 30
0.0
 11
1343.120183171453
 21
901.7572681323904
 31
0.0
  0
LINE
  5
AC
330
1F
100
AcDbEntity
  8
C-4
  6
Continuous
 62
     7
370
     9
100
AcDbLine
 10
883.1201501794766
 20
975.2659483213686
 30
0.0
 11
883.1201501794766
 21
898.7570602829394
 31
0.0
  0
LINE
  5
AD
330
1F
100
AcDbEntity
  8
C-4
  6
Continuous
 62
     7
370
     9
100
AcDbLine
 10
1343.120183171453
 20
975.2659483213686
 30
0.0
 11
1343.120183171453
 21
898.7570602829394
 31
0.0
  0
LINE
  5
AE
330
1F
100
AcDbEntity
  8
C-4
  6
Continuous
 62
     7
370
     9
100
AcDbLine
 10
1521.819985879434
 20
990.2659978093328
 30
0.0
 11
1521.819985879434
 21
1165.266080289274
 31
0.0
  0
LINE
  5
AF
330
1F
100
AcDbEntity
  8
C-4
  6
Continuous
 62
     7
370
     9
100
AcDbLine
 10
1358.120232659417
 20
990.2659978093328
 30
0.0
 11
1524.820441168708
 21
990.2659978093328
 31
0.0
  0
LINE
  5
B0
330
1F
100
AcDbEntity
  8
C-4
  6
Continuous
 62
     7
370
     9
100
AcDbLine
 10
1358.120232659417
 20
1165.266080289274
 30
0.0
 11
1524.820441168708
 21
1165.266080289274
 31
0.0
  0
LINE
  5
B1
330
1F
100
AcDbEntity
  8
C-4
  6
Continuous
 62
     7
370
     9
100
AcDbLine
 10
1521.819985879434
 20
410.267053552576
 30
0.0
 11
1521.819985879434
 21
810.2668885926943
 31
0.0
  0
LINE
  5
B2
330
1F
100
AcDbEntity
  8
C-4
  6
Continuous
 62
     7
370
     9
100
AcDbLine
 10
1213.120249155406
 20
410.267053552576
 30
0.0
 11
1524.820441168708
 21
410.267053552576
 31
0.0
  0
LINE
  5
B3
330
1F
100
AcDbEntity
  8
C-4
  6
Continuous
 62
     7
370
     9
100
AcDbLine
 10
1368.120513091216
 20
660.2666411528717
 30
0.0
 11
1524.820441168708
 21
660.2666411528717
 31
0.0
  0
LINE
  5
B4
330
1F
100
AcDbEntity
  8
C-4
  6
Continuous
 62
     7
370
     9
100
AcDbLine
 10
1297.620453705659
 20
810.2668885926943
 30
0.0
 11
1524.820441168708
 21
810.2668885926943
 31
0.0
  0
LINE
  5
B5
330
1F
100
AcDbEntity
  8
C-0
  6
JWW_CENTER1
 62
     3
370
     9
100
AcDbLine
 10
1113.120166675465
 20
958.761712151605
 30
0.0
 11
1113.120166675465
 21
1201.938394082559
 31
0.0
  0
LINE
  5
B6
330
1F
100
AcDbEntity
  8
C-0
  6
JWW_CENTER1
 62
     3
370
     9
100
AcDbLine
 10
848.2826026710308
 20
1077.765420449747
 30
0.0
 11
1379.530705632391
 21
1077.765420449747
 31
0.0
  0
LINE
  5
B7
330
1F
100
AcDbEntity
  8
C-0
  6
JWW_CENTER2
 62
     3
370
     9
100
AcDbLine
 10
1113.120166675465
 20
867.6127995671453
 30
0.0
 11
1113.120166675465
 21
339.6847204259925
 31
0.0
  0
LINE
  5
B8
330
1F
100
AcDbEntity
  8
C-0
  6
Continuous
 62
     3
370
     9
100
AcDbLine
 10
953.120381123311
 20
462.766855600718
 30
0.0
 11
1273.120199667441
 21
462.766855600718
 31
0.0
  0
LINE
  5
B9
330
1F
100
AcDbEntity
  8
C-0
  6
Continuous
 62
     3
370
     9
100
AcDbLine
 10
953.120381123311
 20
450.2666906408362
 30
0.0
 11
1273.120199667441
 21
450.2666906408362
 31
0.0
  0
LINE
  5
BA
330
1F
100
AcDbEntity
  8
C-0
  6
Continuous
 62
     3
370
     9
100
AcDbLine
 10
1038.120414115288
 20
469.7671756228885
 30
0.0
 11
1053.120216163429
 21
464.2667120856208
 31
0.0
  0
LINE
  5
BB
330
1F
100
AcDbEntity
  8
C-0
  6
Continuous
 62
     3
370
     9
100
AcDbLine
 10
1188.120166675465
 20
469.7671756228885
 30
0.0
 11
1173.1201171875
 21
464.2667120856208
 31
0.0
  0
LINE
  5
BC
330
1F
100
AcDbEntity
  8
C-0
  6
Continuous
 62
     3
370
     9
100
AcDbLine
 10
1053.120216163429
 20
464.2667120856208
 30
0.0
 11
1053.120216163429
 21
462.766855600718
 31
0.0
  0
LINE
  5
BD
330
1F
100
AcDbEntity
  8
C-0
  6
Continuous
 62
     3
370
     9
100
AcDbLine
 10
1173.1201171875
 20
464.2667120856208
 30
0.0
 11
1173.1201171875
 21
462.766855600718
 31
0.0
  0
LINE
  5
BE
330
1F
100
AcDbEntity
  8
C-0
  6
Continuous
 62
     3
370
     9
100
AcDbLine
 10
1033.120150179477
 20
415.2668226087417
 30
0.0
 11
1033.120150179477
 21
450.2666906408362
 31
0.0
  0
LINE
  5
BF
330
1F
100
AcDbEntity
  8
C-0
  6
Continuous
 62
     3
370
     9
100
AcDbLine
 10
1188.120166675465
 20
410.267053552576
 30
0.0
 11
1038.120414115288
 21
410.267053552576
 31
0.0
  0
LINE
  5
C0
330
1F
100
AcDbEntity
  8
C-0
  6
Continuous
 62
     3
370
     9
100
AcDbLine
 10
1193.120183171453
 20
415.2668226087417
 30
0.0
 11
1193.120183171453
 21
450.2666906408362
 31
0.0
  0
LINE
  5
C1
330
1F
100
AcDbEntity
  8
C-0
  6
Continuous
 62
     3
370
     9
100
AcDbLine
 10
953.120381123311
 20
462.766855600718
 30
0.0
 11
953.120381123311
 21
440.2666576488599
 31
0.0
  0
LINE
  5
C2
330
1F
100
AcDbEntity
  8
C-0
  6
Continuous
 62
     3
370
     9
100
AcDbLine
 10
1273.120199667441
 20
462.766855600718
 30
0.0
 11
1273.120199667441
 21
440.2666576488599
 31
0.0
  0
LINE
  5
C3
330
1F
100
AcDbEntity
  8
C-0
  6
Continuous
 62
     3
370
     9
100
AcDbLine
 10
953.120381123311
 20
440.2666576488599
 30
0.0
 11
1031.870084195524
 21
440.2666576488599
 31
0.0
  0
LINE
  5
C4
330
1F
100
AcDbEntity
  8
C-0
  6
Continuous
 62
     3
370
     9
100
AcDbLine
 10
1194.370249155406
 20
440.2666576488599
 30
0.0
 11
1273.120199667441
 21
440.2666576488599
 31
0.0
  0
LINE
  5
C5
330
1F
100
AcDbEntity
  8
C-0
  6
Continuous
 62
     3
370
     9
100
AcDbLine
 10
1194.370249155406
 20
450.2666906408362
 30
0.0
 11
1194.370249155406
 21
440.2666576488599
 31
0.0
  0
LINE
  5
C6
330
1F
100
AcDbEntity
  8
C-0
  6
Continuous
 62
     3
370
     9
100
AcDbLine
 10
1031.870084195524
 20
450.2666906408362
 30
0.0
 11
1031.870084195524
 21
440.2666576488599
 31
0.0
  0
LINE
  5
C7
330
1F
100
AcDbEntity
  8
C-0
  6
Continuous
 62
     3
370
     9
100
AcDbLine
 10
1276.120160077069
 20
610.2669710726352
 30
0.0
 11
950.1204207136828
 21
610.2669710726352
 31
0.0
  0
LINE
  5
C8
330
1F
100
AcDbEntity
  8
C-0
  6
Continuous
 62
     3
370
     9
100
AcDbLine
 10
1294.071671769426
 20
641.6537228146117
 30
0.0
 11
1288.620077597129
 21
622.7673834723396
 31
0.0
  0
LINE
  5
C9
330
1F
100
AcDbEntity
  8
C-0
  6
Continuous
 62
     3
370
     9
100
AcDbLine
 10
932.169156461149
 20
641.6537228146117
 30
0.0
 11
937.6205031936234
 21
622.7673834723396
 31
0.0
  0
LINE
  5
CA
330
1F
100
AcDbEntity
  8
C-0
  6
Continuous
 62
     3
370
     9
100
AcDbLine
 10
883.1206450591219
 20
645.26683910473
 30
0.0
 11
1343.120183171453
 21
645.26683910473
 31
0.0
  0
LINE
  5
CB
330
1F
100
AcDbEntity
  8
C-0
  6
JWW_PHANTOM1
 62
     3
370
     9
100
AcDbLine
 10
953.6202095650339
 20
810.2668885926943
 30
0.0
 11
1272.620123785895
 21
810.2668885926943
 31
0.0
  0
LINE
  5
CC
330
1F
100
AcDbEntity
  8
C-0
  6
JWW_PHANTOM1
 62
     3
370
     9
100
AcDbLine
 10
953.6202095650339
 20
787.7669380806589
 30
0.0
 11
1272.620123785895
 21
787.7669380806589
 31
0.0
  0
LINE
  5
CD
330
1F
100
AcDbEntity
  8
C-0
  6
JWW_PHANTOM1
 62
     3
370
     9
100
AcDbLine
 10
953.6202095650339
 20
810.2668885926943
 30
0.0
 11
953.6202095650339
 21
787.7669380806589
 31
0.0
  0
LINE
  5
CE
330
1F
100
AcDbEntity
  8
C-0
  6
JWW_PHANTOM1
 62
     3
370
     9
100
AcDbLine
 10
1272.620123785895
 20
810.2668885926943
 30
0.0
 11
1272.620123785895
 21
787.7669380806589
 31
0.0
  0
LINE
  5
CF
330
1F
100
AcDbEntity
  8
C-0
  6
JWW_PHANTOM1
 62
     3
370
     9
100
AcDbLine
 10
1266.620450406461
 20
787.7669380806589
 30
0.0
 11
1266.620450406461
 21
775.2672680004224
 31
0.0
  0
LINE
  5
D0
330
1F
100
AcDbEntity
  8
C-0
  6
JWW_PHANTOM1
 62
     3
370
     9
100
AcDbLine
 10
959.6201303842906
 20
787.7669380806589
 30
0.0
 11
959.6201303842906
 21
775.2672680004224
 31
0.0
  0
LINE
  5
D1
330
1F
100
AcDbEntity
  8
C-0
  6
JWW_PHANTOM1
 62
     3
370
     9
100
AcDbLine
 10
1048.119952227618
 20
775.2672680004224
 30
0.0
 11
959.6201303842906
 21
775.2672680004224
 31
0.0
  0
LINE
  5
D2
330
1F
100
AcDbEntity
  8
C-0
  6
JWW_PHANTOM1
 62
     3
370
     9
100
AcDbLine
 10
1178.120133683489
 20
775.2672680004224
 30
0.0
 11
1266.620450406461
 21
775.2672680004224
 31
0.0
  0
LINE
  5
D3
330
1F
100
AcDbEntity
  8
C-0
  6
Continuous
 62
     3
370
     9
100
AcDbLine
 10
883.1206450591219
 20
655.7667005384292
 30
0.0
 11
883.1206450591219
 21
645.26683910473
 31
0.0
  0
LINE
  5
D4
330
1F
100
AcDbEntity
  8
C-0
  6
Continuous
 62
     3
370
     9
100
AcDbLine
 10
1338.620489996833
 20
660.2666411528717
 30
0.0
 11
887.6205856735646
 21
660.2666411528717
 31
0.0
  0
LINE
  5
D5
330
1F
100
AcDbEntity
  8
C-0
  6
Continuous
 62
     3
370
     9
100
AcDbLine
 10
1343.120183171453
 20
655.7667005384292
 30
0.0
 11
1343.120183171453
 21
645.26683910473
 31
0.0
  0
LINE
  5
D6
330
1F
100
AcDbEntity
  8
C-0
  6
Continuous
 62
     3
370
     9
100
AcDbLine
 10
1038.120414115288
 20
535.7667995143584
 30
0.0
 11
1038.120414115288
 21
469.7671756228885
 31
0.0
  0
LINE
  5
D7
330
1F
100
AcDbEntity
  8
C-0
  6
JWW_PHANTOM1
 62
     3
370
     9
100
AcDbLine
 10
1038.120414115288
 20
688.2674263619089
 30
0.0
 11
1038.120414115288
 21
660.2666411528717
 31
0.0
  0
LINE
  5
D8
330
1F
100
AcDbEntity
  8
C-0
  6
Continuous
 62
     3
370
     9
100
AcDbLine
 10
1063.120001715583
 20
572.7670947925467
 30
0.0
 11
1063.120001715583
 21
610.2669710726352
 31
0.0
  0
LINE
  5
D9
330
1F
100
AcDbEntity
  8
C-0
  6
JWW_PHANTOM1
 62
     3
370
     9
100
AcDbLine
 10
1063.120496595228
 20
725.2666081608953
 30
0.0
 11
1063.120496595228
 21
760.2669710726352
 31
0.0
  0
LINE
  5
DA
330
1F
100
AcDbEntity
  8
C-0
  6
JWW_PHANTOM1
 62
     3
370
     9
100
AcDbLine
 10
1163.120579075169
 20
725.2666081608953
 30
0.0
 11
1163.120579075169
 21
760.2669710726352
 31
0.0
  0
LINE
  5
DB
330
1F
100
AcDbEntity
  8
C-0
  6
Continuous
 62
     3
370
     9
100
AcDbLine
 10
1188.120166675465
 20
535.6862578520904
 30
0.0
 11
1188.120166675465
 21
469.7671756228885
 31
0.0
  0
LINE
  5
DC
330
1F
100
AcDbEntity
  8
C-0
  6
Continuous
 62
     3
370
     9
100
AcDbLine
 10
1163.120084195524
 20
572.7670947925467
 30
0.0
 11
1163.120084195524
 21
610.2669710726352
 31
0.0
  0
LINE
  5
DD
330
1F
100
AcDbEntity
  8
C-0
  6
JWW_PHANTOM1
 62
     3
370
     9
100
AcDbLine
 10
1188.120166675465
 20
688.1857712204394
 30
0.0
 11
1188.120166675465
 21
660.2666411528717
 31
0.0
  0
LINE
  5
DE
330
1F
100
AcDbEntity
  8
C-0
  6
JWW_PHANTOM1
 62
     3
370
     9
100
AcDbLine
 10
1060.120288745777
 20
802.7669875686234
 30
0.0
 11
1166.120044605152
 21
802.7669875686234
 31
0.0
  0
LINE
  5
DF
330
1F
100
AcDbEntity
  8
C-0
  6
JWW_PHANTOM1
 62
     3
370
     9
100
AcDbLine
 10
1060.120288745777
 20
802.7669875686234
 30
0.0
 11
1060.120288745777
 21
787.7669380806589
 31
0.0
  0
LINE
  5
E0
330
1F
100
AcDbEntity
  8
C-0
  6
JWW_PHANTOM1
 62
     3
370
     9
100
AcDbLine
 10
1166.120044605152
 20
802.7669875686234
 30
0.0
 11
1166.120044605152
 21
787.7669380806589
 31
0.0
  0
LINE
  5
E1
330
1F
100
AcDbEntity
  8
C-4
  6
Continuous
 62
     7
370
     9
100
AcDbLine
 10
837.8099596178214
 20
828.8172046558279
 30
0.0
 11
933.1935573268584
 21
660.2666411528717
 31
0.0
  0
LINE
  5
E2
330
1F
100
AcDbEntity
  8
C-4
  6
Continuous
 62
     7
370
     9
100
AcDbLine
 10
933.1935573268584
 20
660.2666411528717
 30
0.0
 11
918.1459993929479
 21
680.2313232421875
 31
0.0
  0
LINE
  5
E3
330
1F
100
AcDbEntity
  8
C-4
  6
Continuous
 62
     7
370
     9
100
AcDbLine
 10
933.1935573268584
 20
660.2666411528717
 30
0.0
 11
923.8257330817146
 21
683.4458139780406
 31
0.0
  0
LINE
  5
E4
330
1F
100
AcDbEntity
  8
C-4
  6
Continuous
 62
     7
370
     9
100
AcDbLine
 10
902.3665144636828
 20
560.5575479043498
 30
0.0
 11
986.7776406777875
 21
610.2669710726352
 31
0.0
  0
LINE
  5
E5
330
1F
100
AcDbEntity
  8
C-4
  6
Continuous
 62
     7
370
     9
100
AcDbLine
 10
986.7776406777875
 20
610.2669710726352
 30
0.0
 11
967.0754922402875
 21
594.8776987436656
 31
0.0
  0
LINE
  5
E6
330
1F
100
AcDbEntity
  8
C-4
  6
Continuous
 62
     7
370
     9
100
AcDbLine
 10
986.7776406777875
 20
610.2669710726352
 30
0.0
 11
963.7635102143162
 21
600.5015110325169
 31
0.0
  0
LINE
  5
E7
330
1F
100
AcDbEntity
  8
C-4
  6
Continuous
 62
     7
370
     9
100
AcDbLine
 10
902.3665144636828
 20
560.5575479043498
 30
0.0
 11
1038.120414115288
 21
522.2919690931167
 31
0.0
  0
LINE
  5
E8
330
1F
100
AcDbEntity
  8
C-4
  6
Continuous
 62
     7
370
     9
100
AcDbLine
 10
1038.120414115288
 20
522.2919690931167
 30
0.0
 11
1013.378658810178
 21
525.8757637642526
 31
0.0
  0
LINE
  5
E9
330
1F
100
AcDbEntity
  8
C-4
  6
Continuous
 62
     7
370
     9
100
AcDbLine
 10
1038.120414115288
 20
522.2919690931167
 30
0.0
 11
1015.149090741132
 21
532.1575185414908
 31
0.0
  0
LINE
  5
EA
330
1F
100
AcDbEntity
  8
C-4
  6
Continuous
 62
     7
370
     9
100
AcDbLine
 10
909.9079853779563
 20
397.9236417203336
 30
0.0
 11
955.8506321262672
 21
458.6560141073693
 31
0.0
  0
LINE
  5
EB
330
1F
100
AcDbEntity
  8
C-4
  6
Continuous
 62
     7
370
     9
100
AcDbLine
 10
955.8506321262672
 20
458.6560141073693
 30
0.0
 11
943.4994259396115
 21
436.9205289273648
 31
0.0
  0
LINE
  5
EC
330
1F
100
AcDbEntity
  8
C-4
  6
Continuous
 62
     7
370
     9
100
AcDbLine
 10
955.8506321262672
 20
458.6560141073693
 30
0.0
 11
938.2950241501271
 21
440.8575439453125
 31
0.0
  0
ARC
  5
ED
330
1F
100
AcDbEntity
  8
C-A
  6
Continuous
 62
     3
370
     9
100
AcDbCircle
 10
-1085.493139318518
 20
544.1079959353885
 30
0.0
 40
1.999999904954756
100
AcDbArc
 50
180.0
 51
270.0
  0
ARC
  5
EE
330
1F
100
AcDbEntity
  8
C-A
  6
Continuous
 62
     3
370
     9
100
AcDbCircle
 10
-1054.493012299409
 20
544.1079959353885
 30
0.0
 40
1.999999904954756
100
AcDbArc
 50
270.0
 51
0.0
  0
ARC
  5
EF
330
1F
100
AcDbEntity
  8
C-A
  6
Continuous
 62
     3
370
     9
100
AcDbCircle
 10
-1054.493012299409
 20
632.1077418971709
 30
0.0
 40
1.999999904954756
100
AcDbArc
 50
0.0
 51
90.0
  0
ARC
  5
F0
330
1F
100
AcDbEntity
  8
C-A
  6
Continuous
 62
     3
370
     9
100
AcDbCircle
 10
-1085.493139318518
 20
632.1077418971709
 30
0.0
 40
1.999999904954756
100
AcDbArc
 50
90.0
 51
180.0
  0
ARC
  5
F1
330
1F
100
AcDbEntity
  8
C-A
  6
Continuous
 62
     3
370
     9
100
AcDbCircle
 10
-1073.892974853516
 20
557.7071648675044
 30
0.0
 40
2.200000994914287
100
AcDbArc
 50
180.0
 51
270.0
  0
ARC
  5
F2
330
1F
100
AcDbEntity
  8
C-A
  6
Continuous
 62
     3
370
     9
100
AcDbCircle
 10
-1073.892974853516
 20
618.5077069256758
 30
0.0
 40
2.200000994914287
100
AcDbArc
 50
90.0
 51
180.0
  0
ARC
  5
F3
330
1F
100
AcDbEntity
  8
C-A
  6
Continuous
 62
     3
370
     9
100
AcDbCircle
 10
-1066.093238624366
 20
618.5077069256758
 30
0.0
 40
2.200000994914287
100
AcDbArc
 50
0.0
 51
90.0
  0
ARC
  5
F4
330
1F
100
AcDbEntity
  8
C-A
  6
Continuous
 62
     3
370
     9
100
AcDbCircle
 10
-1066.093238624366
 20
557.7071648675044
 30
0.0
 40
2.200000994914287
100
AcDbArc
 50
270.0
 51
0.0
  0
ARC
  5
F5
330
1F
100
AcDbEntity
  8
C-A
  6
Continuous
 62
     3
370
     9
100
AcDbCircle
 10
-1069.993137668919
 20
588.1076214764571
 30
0.0
 40
12.49999967781273
100
AcDbArc
 50
299.2091369628906
 51
60.79086303710935
  0
ARC
  5
F6
330
1F
100
AcDbEntity
  8
C-A
  6
Continuous
 62
     3
370
     9
100
AcDbCircle
 10
-1069.993137668919
 20
588.1076214764571
 30
0.0
 40
12.49999967781273
100
AcDbArc
 50
119.2092742919922
 51
240.7907257080078
  0
ARC
  5
F7
330
1F
100
AcDbEntity
  8
C-0
  6
Continuous
 62
     3
370
     9
100
AcDbCircle
 10
893.1201831714526
 20
1155.266047297298
 30
0.0
 40
9.9999991623131
100
AcDbArc
 50
90.0
 51
180.0
  0
ARC
  5
F8
330
1F
100
AcDbEntity
  8
C-0
  6
Continuous
 62
     3
370
     9
100
AcDbCircle
 10
1333.120150179477
 20
1155.266047297298
 30
0.0
 40
9.9999991623131
100
AcDbArc
 50
0.0
 51
90.0
  0
ARC
  5
F9
330
1F
100
AcDbEntity
  8
C-0
  6
Continuous
 62
     3
370
     9
100
AcDbCircle
 10
1333.120150179477
 20
1000.265783361487
 30
0.0
 40
9.9999991623131
100
AcDbArc
 50
270.0
 51
0.0
  0
ARC
  5
FA
330
1F
100
AcDbEntity
  8
C-0
  6
Continuous
 62
     3
370
     9
100
AcDbCircle
 10
893.1201831714526
 20
1000.265783361487
 30
0.0
 40
9.9999991623131
100
AcDbArc
 50
180.0
 51
270.0
  0
ARC
  5
FB
330
1F
100
AcDbEntity
  8
C-0
  6
Continuous
 62
     3
370
     9
100
AcDbCircle
 10
961.1201105891047
 20
1097.265657991977
 30
0.0
 40
10.99999917520059
100
AcDbArc
 50
90.0
 51
180.0
  0
ARC
  5
FC
330
1F
100
AcDbEntity
  8
C-0
  6
Continuous
 62
     3
370
     9
100
AcDbCircle
 10
961.1201105891047
 20
1058.266172666808
 30
0.0
 40
10.99999917520059
100
AcDbArc
 50
180.0
 51
270.0
  0
ARC
  5
FD
330
1F
100
AcDbEntity
  8
C-0
  6
Continuous
 62
     3
370
     9
100
AcDbCircle
 10
1265.119975322002
 20
1097.265657991977
 30
0.0
 40
10.99999917520059
100
AcDbArc
 50
0.0
 51
90.0
  0
ARC
  5
FE
330
1F
100
AcDbEntity
  8
C-0
  6
Continuous
 62
     3
370
     9
100
AcDbCircle
 10
1265.119975322002
 20
1058.266172666808
 30
0.0
 40
10.99999917520059
100
AcDbArc
 50
270.0
 51
0.0
  0
ARC
  5
FF
330
1F
100
AcDbEntity
  8
C-0
  6
Continuous
 62
     3
370
     9
100
AcDbCircle
 10
1038.120414115288
 20
415.2668226087417
 30
0.0
 40
4.99999958115655
100
AcDbArc
 50
180.0
 51
270.0
  0
ARC
  5
100
330
1F
100
AcDbEntity
  8
C-0
  6
Continuous
 62
     3
370
     9
100
AcDbCircle
 10
1188.120166675465
 20
415.2668226087417
 30
0.0
 40
4.99999958115655
100
AcDbArc
 50
270.0
 51
0.0
  0
ARC
  5
101
330
1F
100
AcDbEntity
  8
C-0
  6
Continuous
 62
     3
370
     9
100
AcDbCircle
 10
950.1204207136828
 20
622.7673834723396
 30
0.0
 40
12.49999967781273
100
AcDbArc
 50
180.0
 51
270.0
  0
ARC
  5
102
330
1F
100
AcDbEntity
  8
C-0
  6
Continuous
 62
     3
370
     9
100
AcDbCircle
 10
1276.120160077069
 20
622.7673834723396
 30
0.0
 40
12.49999967781273
100
AcDbArc
 50
270.0
 51
0.0
  0
ARC
  5
103
330
1F
100
AcDbEntity
  8
C-0
  6
Continuous
 62
     3
370
     9
100
AcDbCircle
 10
1298.874973606419
 20
640.2670700485644
 30
0.0
 40
4.99999958115655
100
AcDbArc
 50
90.0
 51
163.8988037109375
  0
ARC
  5
104
330
1F
100
AcDbEntity
  8
C-0
  6
Continuous
 62
     3
370
     9
100
AcDbCircle
 10
927.3648648648651
 20
640.2670700485644
 30
0.0
 40
4.99999958115655
100
AcDbArc
 50
16.1011962890625
 51
90.0
  0
ARC
  5
105
330
1F
100
AcDbEntity
  8
C-0
  6
JWW_PHANTOM1
 62
     3
370
     9
100
AcDbCircle
 10
1048.119952227618
 20
760.2669710726352
 30
0.0
 40
14.99999826018875
100
AcDbArc
 50
0.0
 51
90.0
  0
ARC
  5
106
330
1F
100
AcDbEntity
  8
C-0
  6
JWW_PHANTOM1
 62
     3
370
     9
100
AcDbCircle
 10
1178.120133683489
 20
760.2669710726352
 30
0.0
 40
14.99999826018875
100
AcDbArc
 50
90.0
 51
180.0
  0
ARC
  5
107
330
1F
100
AcDbEntity
  8
C-0
  6
Continuous
 62
     3
370
     9
100
AcDbCircle
 10
887.6205856735646
 20
655.7667005384292
 30
0.0
 40
4.499999091431902
100
AcDbArc
 50
90.0
 51
180.0
  0
ARC
  5
108
330
1F
100
AcDbEntity
  8
C-0
  6
Continuous
 62
     3
370
     9
100
AcDbCircle
 10
1338.620489996833
 20
655.7667005384292
 30
0.0
 40
4.499999091431902
100
AcDbArc
 50
0.0
 51
90.0
  0
ARC
  5
109
330
1F
100
AcDbEntity
  8
C-0
  6
Continuous
 62
     3
370
     9
100
AcDbCircle
 10
1048.119952227618
 20
572.7670947925467
 30
0.0
 40
14.99999826018875
100
AcDbArc
 50
292.0240478515625
 51
0.0000000000000254
  0
ARC
  5
10A
330
1F
100
AcDbEntity
  8
C-0
  6
Continuous
 62
     3
370
     9
100
AcDbCircle
 10
1063.120496595228
 20
535.6862578520904
 30
0.0
 40
24.99999935562546
100
AcDbArc
 50
112.0243377685547
 51
180.0
  0
ARC
  5
10B
330
1F
100
AcDbEntity
  8
C-0
  6
Continuous
 62
     3
370
     9
100
AcDbCircle
 10
1163.120084195524
 20
535.6862578520904
 30
0.0
 40
24.99999935562546
100
AcDbArc
 50
0.0
 51
67.97566223144531
  0
ARC
  5
10C
330
1F
100
AcDbEntity
  8
C-0
  6
Continuous
 62
     3
370
     9
100
AcDbCircle
 10
1178.120133683489
 20
572.7670947925467
 30
0.0
 40
14.99999826018875
100
AcDbArc
 50
180.0
 51
247.9759521484375
  0
ARC
  5
10D
330
1F
100
AcDbEntity
  8
C-0
  6
Continuous
 62
     3
370
     9
100
AcDbCircle
 10
1113.120166675465
 20
1077.765420449747
 30
0.0
 40
64.99999020550702
100
AcDbArc
 50
207.9842987060547
 51
332.0157012939453
  0
ARC
  5
10E
330
1F
100
AcDbEntity
  8
C-0
  6
Continuous
 62
     3
370
     9
100
AcDbCircle
 10
1113.120166675465
 20
1077.765420449747
 30
0.0
 40
64.99999020550702
100
AcDbArc
 50
27.98429870605469
 51
152.0157012939453
  0
ARC
  5
10F
330
1F
100
AcDbEntity
  8
C-0
  6
JWW_PHANTOM1
 62
     3
370
     9
100
AcDbCircle
 10
1178.120133683489
 20
725.2666081608953
 30
0.0
 40
14.99999826018875
100
AcDbArc
 50
180.0
 51
247.9759521484375
  0
ARC
  5
110
330
1F
100
AcDbEntity
  8
C-0
  6
JWW_PHANTOM1
 62
     3
370
     9
100
AcDbCircle
 10
1163.120579075169
 20
688.1857712204394
 30
0.0
 40
24.99999935562546
100
AcDbArc
 50
0.0
 51
67.97628784179688
  0
ARC
  5
111
330
1F
100
AcDbEntity
  8
C-0
  6
JWW_PHANTOM1
 62
     3
370
     9
100
AcDbCircle
 10
1048.119952227618
 20
725.2666081608953
 30
0.0
 40
14.99999826018875
100
AcDbArc
 50
292.0240478515625
 51
0.0000000000000254
  0
ARC
  5
112
330
1F
100
AcDbEntity
  8
C-0
  6
JWW_PHANTOM1
 62
     3
370
     9
100
AcDbCircle
 10
1063.120001715583
 20
688.1857712204394
 30
0.0
 40
24.99999935562546
100
AcDbArc
 50
112.0237121582031
 51
180.0
  0
TEXT
  5
113
330
1F
100
AcDbEntity
  8
C-5
  6
Continuous
 62
     2
370
     9
100
AcDbText
 10
-823.243037043391
 20
341.2477781883448
 30
0.0
 40
30.48
  1
平面詳細図　Ｓ＝１：１０
 41
1.114583333333333
  7
ＭＳ ゴシック
100
AcDbText
  0
TEXT
  5
114
330
1F
100
AcDbEntity
  8
C-4
  6
Continuous
 62
     2
370
     9
100
AcDbText
 10
-1231.572935774519
 20
831.7469962785052
 30
0.0
 40
30.48
  1
0.5
 41
1.083333333333333
  7
ＭＳ ゴシック
100
AcDbText
  0
TEXT
  5
115
330
1F
100
AcDbEntity
  8
C-4
  6
Continuous
 62
     2
370
     9
100
AcDbText
 10
-910.7430989033467
 20
831.7469962785052
 30
0.0
 40
30.48
  1
599.5
 41
1.1
  7
ＭＳ ゴシック
100
AcDbText
  0
TEXT
  5
116
330
1F
100
AcDbEntity
  8
C-4
  6
Continuous
 62
     2
370
     9
100
AcDbText
 10
-631.5730904244087
 20
831.7469962785052
 30
0.0
 40
30.48
  1
0.5
 41
1.083333333333333
  7
ＭＳ ゴシック
100
AcDbText
  0
TEXT
  5
117
330
1F
100
AcDbEntity
  8
C-4
  6
Continuous
 62
     2
370
     9
100
AcDbText
 10
-310.7430989033466
 20
831.7469962785052
 30
0.0
 40
30.48
  1
599.5
 41
1.1
  7
ＭＳ ゴシック
100
AcDbText
  0
TEXT
  5
118
330
1F
100
AcDbEntity
  8
C-4
  6
Continuous
 62
     2
370
     9
100
AcDbText
 10
-31.57333786423138
 20
831.7469962785052
 30
0.0
 40
30.48
  1
0.5
 41
1.083333333333333
  7
ＭＳ ゴシック
100
AcDbText
  0
TEXT
  5
119
330
1F
100
AcDbEntity
  8
C-4
  6
Continuous
 62
     2
370
     9
100
AcDbText
 10
-887.9931228225294
 20
911.7472602143158
 30
0.0
 40
30.48
  1
600
 41
1.083333333333333
  7
ＭＳ ゴシック
100
AcDbText
  0
TEXT
  5
11A
330
1F
100
AcDbEntity
  8
C-4
  6
Continuous
 62
     2
370
     9
100
AcDbText
 10
-287.9932465424407
 20
911.7472602143158
 30
0.0
 40
30.48
  1
600
 41
1.083333333333333
  7
ＭＳ ゴシック
100
AcDbText
  0
TEXT
  5
11B
330
1F
100
AcDbEntity
  8
C-4
  6
Continuous
 62
     2
370
     9
100
AcDbText
 10
875.1823495014073
 20
255.0010196499848
 30
0.0
 40
30.48
  1
把手詳細図　Ｓ＝１：２
 50
359.9999710668298
 41
1.113636363636363
  7
ＭＳ ゴシック
100
AcDbText
  0
TEXT
  5
11C
330
1F
100
AcDbEntity
  8
C-4
  6
Continuous
 62
     7
370
     9
100
AcDbText
 10
512.7340863202071
 20
842.8143967747044
 30
0.0
 40
22.86
  1
把手カバー　ｔ＝0.5
 41
1.157894736842105
  7
ＭＳ ゴシック
100
AcDbText
  0
TEXT
  5
11D
330
1F
100
AcDbEntity
  8
C-4
  6
Continuous
 62
     7
370
     9
100
AcDbText
 10
546.4816944019217
 20
799.1234524123735
 30
0.0
 40
22.86
  1
（SUS304　ＨＬ）
 41
1.145833333333333
  7
ＭＳ ゴシック
100
AcDbText
  0
TEXT
  5
11E
330
1F
100
AcDbEntity
  8
C-4
  6
Continuous
 62
     7
370
     9
100
AcDbText
 10
583.6120770428633
 20
412.4279617557011
 30
0.0
 40
22.86
  1
ストッパープレート
 41
1.148148148148148
  7
ＭＳ ゴシック
100
AcDbText
  0
TEXT
  5
11F
330
1F
100
AcDbEntity
  8
C-4
  6
Continuous
 62
     7
370
     9
100
AcDbText
 10
659.4783226219386
 20
571.3336921320738
 30
0.0
 40
22.86
  1
把手本体
 41
1.125
  7
ＭＳ ゴシック
100
AcDbText
  0
TEXT
  5
120
330
1F
100
AcDbEntity
  8
C-4
  6
Continuous
 62
     7
370
     9
100
AcDbText
 10
560.083948083826
 20
526.1131985061235
 30
0.0
 40
22.86
  1
（強化ナイロン樹脂）
 41
1.15
  7
ＭＳ ゴシック
100
AcDbText
  0
TEXT
  5
121
330
1F
100
AcDbEntity
  8
C-4
  6
Continuous
 62
     2
370
     9
100
AcDbText
 10
1091.870290395376
 20
917.397053684544
 30
0.0
 40
30.48
  1
92
 41
1.0625
  7
ＭＳ ゴシック
100
AcDbText
  0
TEXT
  5
122
330
1F
100
AcDbEntity
  8
C-4
  6
Continuous
 62
     2
370
     9
100
AcDbText
 10
1506.179953816325
 20
1056.515791362949
 30
0.0
 40
30.48
  1
35
 50
90.00000250447816
 41
1.062500000000001
  7
ＭＳ ゴシック
100
AcDbText
  0
TEXT
  5
123
330
1F
100
AcDbEntity
  8
C-4
  6
Continuous
 62
     2
370
     9
100
AcDbText
 10
1506.179953816325
 20
514.0167233862803
 30
0.0
 40
30.48
  1
50
 50
90.00000250447816
 41
1.062499999999999
  7
ＭＳ ゴシック
100
AcDbText
  0
TEXT
  5
124
330
1F
100
AcDbEntity
  8
C-4
  6
Continuous
 62
     2
370
     9
100
AcDbText
 10
1506.179953816325
 20
714.0170120660734
 30
0.0
 40
30.48
  1
30
 50
90.00000250447816
 41
1.062500000000001
  7
ＭＳ ゴシック
100
AcDbText
  0
TEXT
  5
125
330
1F
100
AcDbEntity
  8
C-4
  6
Continuous
 62
     7
370
     9
100
AcDbText
 10
568.2039662953971
 20
365.5419506835938
 30
0.0
 40
22.86
  1
（SUS304　ｔ＝2.5）
 41
1.149122807017544
  7
ＭＳ ゴシック
100
AcDbText
  0
LWPOLYLINE
  5
126
330
1F
100
AcDbEntity
  8
C-4
  6
Continuous
 62
     7
370
     9
100
AcDbPolyline
 90
        4
 70
     1
 43
1.0
 10
-1155.493074984164
 20
821.1072272223396
 42
0.4142135623731
 10
-1155.993074984164
 20
821.6072272223396
 42
0.4142135623731
 10
-1156.493074984164
 20
821.1072272223396
 42
0.4142135623731
 10
-1155.993074984164
 20
820.6072272223396
 42
0.4142135623731
  0
LWPOLYLINE
  5
127
330
1F
100
AcDbEntity
  8
C-4
  6
Continuous
 62
     7
370
     9
100
AcDbPolyline
 90
        4
 70
     1
 43
1.0
 10
-1154.99312282253
 20
821.1072272223396
 42
0.4142135623731
 10
-1155.49312282253
 20
821.6072272223396
 42
0.4142135623731
 10
-1155.99312282253
 20
821.1072272223396
 42
0.4142135623731
 10
-1155.49312282253
 20
820.6072272223396
 42
0.4142135623731
  0
LWPOLYLINE
  5
128
330
1F
100
AcDbEntity
  8
C-4
  6
Continuous
 62
     7
370
     9
100
AcDbPolyline
 90
        4
 70
     1
 43
1.0
 10
-555.4933224239865
 20
821.1072272223396
 42
0.4142135623731
 10
-555.9933224239865
 20
821.6072272223396
 42
0.4142135623731
 10
-556.4933224239865
 20
821.1072272223396
 42
0.4142135623731
 10
-555.9933224239865
 20
820.6072272223396
 42
0.4142135623731
  0
LWPOLYLINE
  5
129
330
1F
100
AcDbEntity
  8
C-4
  6
Continuous
 62
     7
370
     9
100
AcDbPolyline
 90
        4
 70
     1
 43
1.0
 10
-554.9932465424409
 20
821.1072272223396
 42
0.4142135623731
 10
-555.4932465424408
 20
821.6072272223396
 42
0.4142135623731
 10
-555.9932465424408
 20
821.1072272223396
 42
0.4142135623731
 10
-555.4932465424408
 20
820.6072272223396
 42
0.4142135623731
  0
LWPOLYLINE
  5
12A
330
1F
100
AcDbEntity
  8
C-4
  6
Continuous
 62
     7
370
     9
100
AcDbPolyline
 90
        4
 70
     1
 43
1.0
 10
44.50717245565886
 20
821.1072272223396
 42
0.4142135623731
 10
44.00717245565886
 20
821.6072272223396
 42
0.4142135623731
 10
43.50717245565886
 20
821.1072272223396
 42
0.4142135623731
 10
44.00717245565886
 20
820.6072272223396
 42
0.4142135623731
  0
LWPOLYLINE
  5
12B
330
1F
100
AcDbEntity
  8
C-4
  6
Continuous
 62
     7
370
     9
100
AcDbPolyline
 90
        4
 70
     1
 43
1.0
 10
45.00675345755911
 20
821.1072272223396
 42
0.4142135623731
 10
44.50675345755911
 20
821.6072272223396
 42
0.4142135623731
 10
44.00675345755911
 20
821.1072272223396
 42
0.4142135623731
 10
44.50675345755911
 20
820.6072272223396
 42
0.4142135623731
  0
LWPOLYLINE
  5
12C
330
1F
100
AcDbEntity
  8
C-4
  6
Continuous
 62
     7
370
     9
100
AcDbPolyline
 90
        4
 70
     1
 43
1.0
 10
-1154.99312282253
 20
901.1072437183279
 42
0.4142135623731
 10
-1155.49312282253
 20
901.6072437183278
 42
0.4142135623731
 10
-1155.99312282253
 20
901.1072437183279
 42
0.4142135623731
 10
-1155.49312282253
 20
900.6072437183279
 42
0.4142135623731
  0
LWPOLYLINE
  5
12D
330
1F
100
AcDbEntity
  8
C-4
  6
Continuous
 62
     7
370
     9
100
AcDbPolyline
 90
        4
 70
     1
 43
1.0
 10
-554.9932465424409
 20
901.1072437183279
 42
0.4142135623731
 10
-555.4932465424408
 20
901.6072437183278
 42
0.4142135623731
 10
-555.9932465424408
 20
901.1072437183279
 42
0.4142135623731
 10
-555.4932465424408
 20
900.6072437183279
 42
0.4142135623731
  0
LWPOLYLINE
  5
12E
330
1F
100
AcDbEntity
  8
C-4
  6
Continuous
 62
     7
370
     9
100
AcDbPolyline
 90
        4
 70
     1
 43
1.0
 10
45.00675345755911
 20
901.1072437183279
 42
0.4142135623731
 10
44.50675345755911
 20
901.6072437183278
 42
0.4142135623731
 10
44.00675345755911
 20
901.1072437183279
 42
0.4142135623731
 10
44.50675345755911
 20
900.6072437183279
 42
0.4142135623731
  0
LWPOLYLINE
  5
12F
330
1F
100
AcDbEntity
  8
C-4
  6
Continuous
 62
     7
370
     9
100
AcDbPolyline
 90
        4
 70
     1
 43
1.0
 10
883.6201501794766
 20
901.7572681323904
 42
0.4142135623731
 10
883.1201501794766
 20
902.2572681323903
 42
0.4142135623731
 10
882.6201501794766
 20
901.7572681323904
 42
0.4142135623731
 10
883.1201501794766
 20
901.2572681323904
 42
0.4142135623731
  0
LWPOLYLINE
  5
130
330
1F
100
AcDbEntity
  8
C-4
  6
Continuous
 62
     7
370
     9
100
AcDbPolyline
 90
        4
 70
     1
 43
1.0
 10
1343.620183171453
 20
901.7572681323904
 42
0.4142135623731
 10
1343.120183171453
 20
902.2572681323903
 42
0.4142135623731
 10
1342.620183171453
 20
901.7572681323904
 42
0.4142135623731
 10
1343.120183171453
 20
901.2572681323904
 42
0.4142135623731
  0
LWPOLYLINE
  5
131
330
1F
100
AcDbEntity
  8
C-4
  6
Continuous
 62
     7
370
     9
100
AcDbPolyline
 90
        4
 70
     1
 43
1.0
 10
1522.319985879435
 20
990.2659978093328
 42
0.4142135623731
 10
1521.819985879434
 20
990.7659978093328
 42
0.4142135623731
 10
1521.319985879434
 20
990.2659978093328
 42
0.4142135623731
 10
1521.819985879434
 20
989.7659978093328
 42
0.4142135623731
  0
LWPOLYLINE
  5
132
330
1F
100
AcDbEntity
  8
C-4
  6
Continuous
 62
     7
370
     9
100
AcDbPolyline
 90
        4
 70
     1
 43
1.0
 10
1522.319985879435
 20
1165.266080289274
 42
0.4142135623731
 10
1521.819985879434
 20
1165.766080289274
 42
0.4142135623731
 10
1521.319985879434
 20
1165.266080289274
 42
0.4142135623731
 10
1521.819985879434
 20
1164.766080289274
 42
0.4142135623731
  0
LWPOLYLINE
  5
133
330
1F
100
AcDbEntity
  8
C-4
  6
Continuous
 62
     7
370
     9
100
AcDbPolyline
 90
        4
 70
     1
 43
1.0
 10
1522.319985879435
 20
410.267053552576
 42
0.4142135623731
 10
1521.819985879434
 20
410.767053552576
 42
0.4142135623731
 10
1521.319985879434
 20
410.267053552576
 42
0.4142135623731
 10
1521.819985879434
 20
409.767053552576
 42
0.4142135623731
  0
LWPOLYLINE
  5
134
330
1F
100
AcDbEntity
  8
C-4
  6
Continuous
 62
     7
370
     9
100
AcDbPolyline
 90
        4
 70
     1
 43
1.0
 10
1522.319985879435
 20
660.2666411528717
 42
0.4142135623731
 10
1521.819985879434
 20
660.7666411528716
 42
0.4142135623731
 10
1521.319985879434
 20
660.2666411528717
 42
0.4142135623731
 10
1521.819985879434
 20
659.7666411528717
 42
0.4142135623731
  0
LWPOLYLINE
  5
135
330
1F
100
AcDbEntity
  8
C-4
  6
Continuous
 62
     7
370
     9
100
AcDbPolyline
 90
        4
 70
     1
 43
1.0
 10
1522.319985879435
 20
810.2668885926943
 42
0.4142135623731
 10
1521.819985879434
 20
810.7668885926943
 42
0.4142135623731
 10
1521.319985879434
 20
810.2668885926943
 42
0.4142135623731
 10
1521.819985879434
 20
809.7668885926943
 42
0.4142135623731
  0
LINE
  5
136
330
1F
100
AcDbEntity
  8
D-4
  6
Continuous
 62
     7
370
     9
100
AcDbLine
 10
-1502.644340185438
 20
-132.9817324504404
 30
0.0
 11
-929.9765602629531
 21
-132.9817324504404
 31
0.0
  0
LINE
  5
137
330
1F
100
AcDbEntity
  8
D-4
  6
Continuous
 62
     7
370
     9
100
AcDbLine
 10
-929.9765602629531
 20
-238.4452312812357
 30
0.0
 11
-929.9765602629531
 21
-129.9811678752451
 31
0.0
  0
LINE
  5
138
330
1F
100
AcDbEntity
  8
D-4
  6
Continuous
 62
     7
370
     9
100
AcDbLine
 10
-929.9765602629531
 20
-132.9817324504404
 30
0.0
 11
-804.9767223875868
 21
-132.9817324504404
 31
0.0
  0
LINE
  5
139
330
1F
100
AcDbEntity
  8
D-4
  6
Continuous
 62
     7
370
     9
100
AcDbLine
 10
-804.9767223875868
 20
-238.4452312812357
 30
0.0
 11
-804.9767223875868
 21
-21.22973736377048
 31
0.0
  0
LINE
  5
13A
330
1F
100
AcDbEntity
  8
D-4
  6
Continuous
 62
     7
370
     9
100
AcDbLine
 10
-799.9764517824996
 20
-238.4452312812357
 30
0.0
 11
-799.9764517824996
 21
-21.22973736377048
 31
0.0
  0
LINE
  5
13B
330
1F
100
AcDbEntity
  8
D-4
  6
Continuous
 62
     7
370
     9
100
AcDbLine
 10
-774.9775735419142
 20
-238.4452312812357
 30
0.0
 11
-774.9775735419142
 21
89.46692172436428
 31
0.0
  0
LINE
  5
13C
330
1F
100
AcDbEntity
  8
D-4
  6
Continuous
 62
     7
370
     9
100
AcDbLine
 10
-929.9765602629531
 20
-813.9837389812021
 30
0.0
 11
-529.9756924193251
 21
-813.9837389812021
 31
0.0
  0
LINE
  5
13D
330
1F
100
AcDbEntity
  8
D-4
  6
Continuous
 62
     7
370
     9
100
AcDbLine
 10
-529.9756924193251
 20
-573.7745409831552
 30
0.0
 11
-529.9756924193251
 21
-816.9833117351084
 31
0.0
  0
LINE
  5
13E
330
1F
100
AcDbEntity
  8
D-4
  6
Continuous
 62
     7
370
     9
100
AcDbLine
 10
-929.9765602629531
 20
-659.5193606242685
 30
0.0
 11
-779.9773494284499
 21
-659.5193606242685
 31
0.0
  0
LINE
  5
13F
330
1F
100
AcDbEntity
  8
D-4
  6
Continuous
 62
     7
370
     9
100
AcDbLine
 10
-258.2913509886611
 20
-503.9005595073252
 30
0.0
 11
-258.2913509886611
 21
-253.9008837565927
 31
0.0
  0
LINE
  5
140
330
1F
100
AcDbEntity
  8
D-4
  6
Continuous
 62
     7
370
     9
100
AcDbLine
 10
-353.9465252440322
 20
-253.9008837565927
 30
0.0
 11
-255.2917782347548
 21
-253.9008837565927
 31
0.0
  0
LINE
  5
141
330
1F
100
AcDbEntity
  8
D-6
  6
Continuous
 62
     6
370
     9
100
AcDbLine
 10
-779.9773494284499
 20
-503.9005595073252
 30
0.0
 11
-779.9773494284499
 21
-753.9002352580576
 31
0.0
  0
LINE
  5
142
330
1F
100
AcDbEntity
  8
D-6
  6
JWW_DASHED3
 62
     6
370
     9
100
AcDbLine
 10
-686.4754597227919
 20
-631.4005404338388
 30
0.0
 11
-686.4754597227919
 21
-503.9005595073252
 31
0.0
  0
LINE
  5
143
330
1F
100
AcDbEntity
  8
D-6
  6
JWW_DASHED3
 62
     6
370
     9
100
AcDbLine
 10
-641.47500195912
 20
-503.9005595073252
 30
0.0
 11
-641.47500195912
 21
-631.4005404338388
 31
0.0
  0
LINE
  5
144
330
1F
100
AcDbEntity
  8
D-6
  6
Continuous
 62
     6
370
     9
100
AcDbLine
 10
-529.9766842406142
 20
-403.9010840281992
 30
0.0
 11
-364.9756924193251
 21
-403.9010840281992
 31
0.0
  0
LINE
  5
145
330
1F
100
AcDbEntity
  8
D-6
  6
Continuous
 62
     6
370
     9
100
AcDbLine
 10
-529.9766842406142
 20
-403.9010840281992
 30
0.0
 11
-529.9766842406142
 21
-503.9005595073252
 31
0.0
  0
LINE
  5
146
330
1F
100
AcDbEntity
  8
D-4
  6
Continuous
 62
     7
370
     9
100
AcDbLine
 10
-474.1977993529189
 20
-503.9005595073252
 30
0.0
 11
-255.2917782347548
 21
-503.9005595073252
 31
0.0
  0
LINE
  5
147
330
1F
100
AcDbEntity
  8
D-6
  6
Continuous
 62
     6
370
     9
100
AcDbLine
 10
-779.9773494284499
 20
-503.9005595073252
 30
0.0
 11
-529.9766842406142
 21
-503.9005595073252
 31
0.0
  0
LINE
  5
148
330
1F
100
AcDbEntity
  8
D-6
  6
Continuous
 62
     6
370
     9
100
AcDbLine
 10
-686.4754597227919
 20
-306.40075501056
 30
0.0
 11
-641.47500195912
 21
-306.40075501056
 31
0.0
  0
LINE
  5
149
330
1F
100
AcDbEntity
  8
D-6
  6
JWW_CENTER2
 62
     6
370
     9
100
AcDbLine
 10
-663.975230840956
 20
-302.3215609416513
 30
0.0
 11
-663.975230840956
 21
-631.4005404338388
 31
0.0
  0
LINE
  5
14A
330
1F
100
AcDbEntity
  8
D-4
  6
Continuous
 62
     7
370
     9
100
AcDbLine
 10
-774.9775735419142
 20
-391.8681269511728
 30
0.0
 11
-774.9775735419142
 21
-463.2106715068369
 31
0.0
  0
LINE
  5
14B
330
1F
100
AcDbEntity
  8
D-6
  6
Continuous
 62
     6
370
     9
100
AcDbLine
 10
-686.4754597227919
 20
-338.9005308970957
 30
0.0
 11
-686.4754597227919
 21
-306.40075501056
 31
0.0
  0
LINE
  5
14C
330
1F
100
AcDbEntity
  8
D-6
  6
Continuous
 62
     6
370
     9
100
AcDbLine
 10
-641.47500195912
 20
-338.9005308970957
 30
0.0
 11
-641.47500195912
 21
-306.40075501056
 31
0.0
  0
LINE
  5
14D
330
1F
100
AcDbEntity
  8
D-6
  6
Continuous
 62
     6
370
     9
100
AcDbLine
 10
-686.4754597227919
 20
-503.9005595073252
 30
0.0
 11
-686.4754597227919
 21
-388.9002734050302
 31
0.0
  0
LINE
  5
14E
330
1F
100
AcDbEntity
  8
D-6
  6
Continuous
 62
     6
370
     9
100
AcDbLine
 10
-641.47500195912
 20
-503.9005595073252
 30
0.0
 11
-641.47500195912
 21
-388.9002734050302
 31
0.0
  0
LINE
  5
14F
330
1F
100
AcDbEntity
  8
D-4
  6
Continuous
 62
     7
370
     9
100
AcDbLine
 10
-1075.459071783339
 20
-378.900721631959
 30
0.0
 11
-1075.459071783339
 21
-253.9008837565927
 31
0.0
  0
LINE
  5
150
330
1F
100
AcDbEntity
  8
D-4
  6
Continuous
 62
     7
370
     9
100
AcDbLine
 10
-803.1216872613776
 20
-253.9008837565927
 30
0.0
 11
-1078.459636358534
 21
-253.9008837565927
 31
0.0
  0
LINE
  5
151
330
1F
100
AcDbEntity
  8
D-4
  6
Continuous
 62
     7
370
     9
100
AcDbLine
 10
-1502.644340185438
 20
86.46635714916897
 30
0.0
 11
-774.9775735419142
 21
86.46635714916897
 31
0.0
  0
LINE
  5
152
330
1F
100
AcDbEntity
  8
D-4
  6
Continuous
 62
     7
370
     9
100
AcDbLine
 10
-1502.644340185438
 20
-24.22931011767673
 30
0.0
 11
-738.8910976927626
 21
-24.22931011767673
 31
0.0
  0
LINE
  5
153
330
1F
100
AcDbEntity
  8
D-4
  6
Continuous
 62
     7
370
     9
100
AcDbLine
 10
-774.9775735419142
 20
-460.2101260051279
 30
0.0
 11
-629.9771420042861
 21
-460.2101260051279
 31
0.0
  0
LINE
  5
154
330
1F
100
AcDbEntity
  8
D-5
  6
Continuous
 62
     2
370
     9
100
AcDbLine
 10
-1271.971885351454
 20
-949.8430376872568
 30
0.0
 11
-1271.971885351454
 21
-884.843457303956
 31
0.0
  0
LINE
  5
155
330
1F
100
AcDbEntity
  8
D-5
  6
Continuous
 62
     2
370
     9
100
AcDbLine
 10
-1271.971885351454
 20
-884.843457303956
 30
0.0
 11
-696.9714657347548
 21
-884.843457303956
 31
0.0
  0
LINE
  5
156
330
1F
100
AcDbEntity
  8
D-5
  6
Continuous
 62
     2
370
     9
100
AcDbLine
 10
-696.9714657347548
 20
-884.843457303956
 30
0.0
 11
-696.9714657347548
 21
-949.8430376872568
 31
0.0
  0
LINE
  5
157
330
1F
100
AcDbEntity
  8
D-5
  6
Continuous
 62
     2
370
     9
100
AcDbLine
 10
-696.9714657347548
 20
-949.8430376872568
 30
0.0
 11
-1271.971885351454
 21
-949.8430376872568
 31
0.0
  0
LINE
  5
158
330
1F
100
AcDbEntity
  8
D-4
  6
Continuous
 62
     7
370
     9
100
AcDbLine
 10
-929.9765602629531
 20
-778.9005785808115
 30
0.0
 11
-929.9765602629531
 21
-816.9833117351084
 31
0.0
  0
LINE
  5
159
330
1F
100
AcDbEntity
  8
D-5
  6
Continuous
 62
     7
370
     9
100
AcDbLine
 10
-590.6319729369033
 20
-145.8520251140146
 30
0.0
 11
-331.2491146605361
 21
-145.8520251140146
 31
0.0
  0
LINE
  5
15A
330
1F
100
AcDbEntity
  8
D-5
  6
Continuous
 62
     7
370
     9
100
AcDbLine
 10
-781.9195882361281
 20
-253.9008837565927
 30
0.0
 11
-768.1088916342604
 21
-233.0624585971384
 31
0.0
  0
LINE
  5
15B
330
1F
100
AcDbEntity
  8
D-5
  6
Continuous
 62
     7
370
     9
100
AcDbLine
 10
-781.9195882361281
 20
-253.9008837565927
 30
0.0
 11
-763.1859127562392
 21
-237.3467760905771
 31
0.0
  0
LINE
  5
15C
330
1F
100
AcDbEntity
  8
D-5
  6
Continuous
 62
     7
370
     9
100
AcDbLine
 10
-640.1273266356337
 20
-90.98975475879001
 30
0.0
 11
-781.9195882361281
 21
-253.9008837565927
 31
0.0
  0
LINE
  5
15D
330
1F
100
AcDbEntity
  8
D-5
  6
Continuous
 62
     7
370
     9
100
AcDbLine
 10
-590.6319729369033
 20
-145.8520251140146
 30
0.0
 11
-805.4602998997915
 21
-392.6777201518564
 31
0.0
  0
LINE
  5
15E
330
1F
100
AcDbEntity
  8
D-5
  6
Continuous
 62
     7
370
     9
100
AcDbLine
 10
-640.1273266356337
 20
-90.98975475879001
 30
0.0
 11
-189.3369595091688
 21
-90.98975475879001
 31
0.0
  0
LINE
  5
15F
330
1F
100
AcDbEntity
  8
D-6
  6
Continuous
 62
     6
370
     9
100
AcDbLine
 10
-529.9766842406142
 20
-451.2406473979502
 30
0.0
 11
-482.6366344969618
 21
-403.9005881175547
 31
0.0
  0
LINE
  5
160
330
1F
100
AcDbEntity
  8
D-6
  6
Continuous
 62
     6
370
     9
100
AcDbLine
 10
-779.9763599913466
 20
-701.2383395061045
 30
0.0
 11
-582.6370922606337
 21
-503.9005595073252
 31
0.0
  0
LINE
  5
161
330
1F
100
AcDbEntity
  8
D-6
  6
Continuous
 62
     6
370
     9
100
AcDbLine
 10
-779.9763599913466
 20
-715.3790026530771
 30
0.0
 11
-568.4964100401747
 21
-503.9005595073252
 31
0.0
  0
LINE
  5
162
330
1F
100
AcDbEntity
  8
D-6
  6
Continuous
 62
     6
370
     9
100
AcDbLine
 10
-529.9766842406142
 20
-465.3813296184092
 30
0.0
 11
-468.4959332030165
 21
-403.9005881175547
 31
0.0
  0
LINE
  5
163
330
1F
100
AcDbEntity
  8
D-6
  6
Continuous
 62
     6
370
     9
100
AcDbLine
 10
-779.9763599913466
 20
-729.5197039470224
 30
0.0
 11
-554.3557278197158
 21
-503.9005595073252
 31
0.0
  0
LINE
  5
164
330
1F
100
AcDbEntity
  8
D-6
  6
Continuous
 62
     6
370
     9
100
AcDbLine
 10
-529.9766842406142
 20
-479.5220118388681
 30
0.0
 11
-454.3552700560439
 21
-403.9005881175547
 31
0.0
  0
LINE
  5
165
330
1F
100
AcDbEntity
  8
D-6
  6
Continuous
 62
     6
370
     9
100
AcDbLine
 10
-440.8042065184462
 20
-753.9002352580576
 30
0.0
 11
-364.9756924193251
 21
-678.072217069581
 31
0.0
  0
LINE
  5
166
330
1F
100
AcDbEntity
  8
D-6
  6
Continuous
 62
     6
370
     9
100
AcDbLine
 10
-454.9448696654189
 20
-753.9002352580576
 30
0.0
 11
-364.9756924193251
 21
-663.9315157756357
 31
0.0
  0
LINE
  5
167
330
1F
100
AcDbEntity
  8
D-6
  6
Continuous
 62
     6
370
     9
100
AcDbLine
 10
-426.6635052245009
 20
-753.9002352580576
 30
0.0
 11
-364.9756924193251
 21
-692.2128802165537
 31
0.0
  0
LINE
  5
168
330
1F
100
AcDbEntity
  8
D-0
  6
Continuous
 62
     7
370
     9
100
AcDbLine
 10
-503.1311909239638
 20
-274.8502951488047
 30
0.0
 11
-503.1311909239638
 21
-273.3500152453928
 31
0.0
  0
LINE
  5
169
330
1F
100
AcDbEntity
  8
D-0
  6
Continuous
 62
     7
370
     9
100
AcDbLine
 10
-503.1311909239638
 20
-273.3500152453928
 30
0.0
 11
-501.631423620497
 21
-273.3500152453928
 31
0.0
  0
LINE
  5
16A
330
1F
100
AcDbEntity
  8
D-0
  6
Continuous
 62
     7
370
     9
100
AcDbLine
 10
-501.631423620497
 20
-273.3500152453928
 30
0.0
 11
-501.631423620497
 21
-274.8502951488047
 31
0.0
  0
LINE
  5
16B
330
1F
100
AcDbEntity
  8
D-0
  6
Continuous
 62
     7
370
     9
100
AcDbLine
 10
-501.631423620497
 20
-274.8502951488047
 30
0.0
 11
-503.1311909239638
 21
-274.8502951488047
 31
0.0
  0
LINE
  5
16C
330
1F
100
AcDbEntity
  8
D-0
  6
Continuous
 62
     7
370
     9
100
AcDbLine
 10
-452.3753658812392
 20
-277.5575357303171
 30
0.0
 11
-452.3753658812392
 21
-276.0572558269052
 31
0.0
  0
LINE
  5
16D
330
1F
100
AcDbEntity
  8
D-0
  6
Continuous
 62
     7
370
     9
100
AcDbLine
 10
-452.3753658812392
 20
-276.0572558269052
 30
0.0
 11
-450.8750835936415
 21
-276.0572558269052
 31
0.0
  0
LINE
  5
16E
330
1F
100
AcDbEntity
  8
D-0
  6
Continuous
 62
     7
370
     9
100
AcDbLine
 10
-450.8750835936415
 20
-276.0572558269052
 30
0.0
 11
-450.8750835936415
 21
-277.5575357303171
 31
0.0
  0
LINE
  5
16F
330
1F
100
AcDbEntity
  8
D-0
  6
Continuous
 62
     7
370
     9
100
AcDbLine
 10
-450.8750835936415
 20
-277.5575357303171
 30
0.0
 11
-452.3753658812392
 21
-277.5575357303171
 31
0.0
  0
LINE
  5
170
330
1F
100
AcDbEntity
  8
D-0
  6
Continuous
 62
     7
370
     9
100
AcDbLine
 10
-387.4075237791884
 20
-275.5271058902292
 30
0.0
 11
-387.4075237791884
 21
-274.0268259868174
 31
0.0
  0
LINE
  5
171
330
1F
100
AcDbEntity
  8
D-0
  6
Continuous
 62
     7
370
     9
100
AcDbLine
 10
-387.4075237791884
 20
-274.0268259868174
 30
0.0
 11
-385.9077374022353
 21
-274.0268259868174
 31
0.0
  0
LINE
  5
172
330
1F
100
AcDbEntity
  8
D-0
  6
Continuous
 62
     7
370
     9
100
AcDbLine
 10
-385.9077374022353
 20
-274.0268259868174
 30
0.0
 11
-385.9077374022353
 21
-275.5271058902292
 31
0.0
  0
LINE
  5
173
330
1F
100
AcDbEntity
  8
D-0
  6
Continuous
 62
     7
370
     9
100
AcDbLine
 10
-385.9077374022353
 20
-275.5271058902292
 30
0.0
 11
-387.4075237791884
 21
-275.5271058902292
 31
0.0
  0
LINE
  5
174
330
1F
100
AcDbEntity
  8
D-0
  6
Continuous
 62
     7
370
     9
100
AcDbLine
 10
-411.7707363646376
 20
-308.0110293254404
 30
0.0
 11
-411.7707363646376
 21
-306.5107470378427
 31
0.0
  0
LINE
  5
175
330
1F
100
AcDbEntity
  8
D-0
  6
Continuous
 62
     7
370
     9
100
AcDbLine
 10
-411.7707363646376
 20
-306.5107470378427
 30
0.0
 11
-410.27045407704
 21
-306.5107470378427
 31
0.0
  0
LINE
  5
176
330
1F
100
AcDbEntity
  8
D-0
  6
Continuous
 62
     7
370
     9
100
AcDbLine
 10
-410.27045407704
 20
-306.5107470378427
 30
0.0
 11
-410.27045407704
 21
-308.0110293254404
 31
0.0
  0
LINE
  5
177
330
1F
100
AcDbEntity
  8
D-0
  6
Continuous
 62
     7
370
     9
100
AcDbLine
 10
-410.27045407704
 20
-308.0110293254404
 30
0.0
 11
-411.7707363646376
 21
-308.0110293254404
 31
0.0
  0
LINE
  5
178
330
1F
100
AcDbEntity
  8
D-0
  6
Continuous
 62
     7
370
     9
100
AcDbLine
 10
-462.335769323622
 20
-311.9420796260385
 30
0.0
 11
-462.335769323622
 21
-310.4417973384409
 31
0.0
  0
LINE
  5
179
330
1F
100
AcDbEntity
  8
D-0
  6
Continuous
 62
     7
370
     9
100
AcDbLine
 10
-462.335769323622
 20
-310.4417973384409
 30
0.0
 11
-460.8360210936415
 21
-310.4417973384409
 31
0.0
  0
LINE
  5
17A
330
1F
100
AcDbEntity
  8
D-0
  6
Continuous
 62
     7
370
     9
100
AcDbLine
 10
-460.8360210936415
 20
-310.4417973384409
 30
0.0
 11
-460.8360210936415
 21
-311.9420796260385
 31
0.0
  0
LINE
  5
17B
330
1F
100
AcDbEntity
  8
D-0
  6
Continuous
 62
     7
370
     9
100
AcDbLine
 10
-460.8360210936415
 20
-311.9420796260385
 30
0.0
 11
-462.335769323622
 21
-311.9420796260385
 31
0.0
  0
LINE
  5
17C
330
1F
100
AcDbEntity
  8
D-0
  6
Continuous
 62
     7
370
     9
100
AcDbLine
 10
-479.4452969115126
 20
-345.9089403972177
 30
0.0
 11
-479.4452969115126
 21
-344.4086581096201
 31
0.0
  0
LINE
  5
17D
330
1F
100
AcDbEntity
  8
D-0
  6
Continuous
 62
     7
370
     9
100
AcDbLine
 10
-479.4452969115126
 20
-344.4086581096201
 30
0.0
 11
-477.9450527708876
 21
-344.4086581096201
 31
0.0
  0
LINE
  5
17E
330
1F
100
AcDbEntity
  8
D-0
  6
Continuous
 62
     7
370
     9
100
AcDbLine
 10
-477.9450527708876
 20
-344.4086581096201
 30
0.0
 11
-477.9450527708876
 21
-345.9089403972177
 31
0.0
  0
LINE
  5
17F
330
1F
100
AcDbEntity
  8
D-0
  6
Continuous
 62
     7
370
     9
100
AcDbLine
 10
-477.9450527708876
 20
-345.9089403972177
 30
0.0
 11
-479.4452969115126
 21
-345.9089403972177
 31
0.0
  0
LINE
  5
180
330
1F
100
AcDbEntity
  8
D-0
  6
Continuous
 62
     7
370
     9
100
AcDbLine
 10
-510.8015553038466
 20
-331.3372021541147
 30
0.0
 11
-510.8015553038466
 21
-329.8369246348886
 31
0.0
  0
LINE
  5
181
330
1F
100
AcDbEntity
  8
D-0
  6
Continuous
 62
     7
370
     9
100
AcDbLine
 10
-510.8015553038466
 20
-329.8369246348886
 30
0.0
 11
-509.3017689268935
 21
-329.8369246348886
 31
0.0
  0
LINE
  5
182
330
1F
100
AcDbEntity
  8
D-0
  6
Continuous
 62
     7
370
     9
100
AcDbLine
 10
-509.3017689268935
 20
-329.8369246348886
 30
0.0
 11
-509.3017689268935
 21
-331.3372021541147
 31
0.0
  0
LINE
  5
183
330
1F
100
AcDbEntity
  8
D-0
  6
Continuous
 62
     7
370
     9
100
AcDbLine
 10
-509.3017689268935
 20
-331.3372021541147
 30
0.0
 11
-510.8015553038466
 21
-331.3372021541147
 31
0.0
  0
LINE
  5
184
330
1F
100
AcDbEntity
  8
D-0
  6
Continuous
 62
     7
370
     9
100
AcDbLine
 10
-521.5259663145888
 20
-372.5572329387217
 30
0.0
 11
-521.5259663145888
 21
-371.056950651124
 31
0.0
  0
LINE
  5
185
330
1F
100
AcDbEntity
  8
D-0
  6
Continuous
 62
     7
370
     9
100
AcDbLine
 10
-521.5259663145888
 20
-371.056950651124
 30
0.0
 11
-520.0256840269911
 21
-371.056950651124
 31
0.0
  0
LINE
  5
186
330
1F
100
AcDbEntity
  8
D-0
  6
Continuous
 62
     7
370
     9
100
AcDbLine
 10
-520.0256840269911
 20
-371.056950651124
 30
0.0
 11
-520.0256840269911
 21
-372.5572329387217
 31
0.0
  0
LINE
  5
187
330
1F
100
AcDbEntity
  8
D-0
  6
Continuous
 62
     7
370
     9
100
AcDbLine
 10
-520.0256840269911
 20
-372.5572329387217
 30
0.0
 11
-521.5259663145888
 21
-372.5572329387217
 31
0.0
  0
LINE
  5
188
330
1F
100
AcDbEntity
  8
D-0
  6
Continuous
 62
     7
370
     9
100
AcDbLine
 10
-484.1825024168837
 20
-381.0996085032968
 30
0.0
 11
-484.1825024168837
 21
-379.5993262156992
 31
0.0
  0
LINE
  5
189
330
1F
100
AcDbEntity
  8
D-0
  6
Continuous
 62
     7
370
     9
100
AcDbLine
 10
-484.1825024168837
 20
-379.5993262156992
 30
0.0
 11
-482.6822201292861
 21
-379.5993262156992
 31
0.0
  0
LINE
  5
18A
330
1F
100
AcDbEntity
  8
D-0
  6
Continuous
 62
     7
370
     9
100
AcDbLine
 10
-482.6822201292861
 20
-379.5993262156992
 30
0.0
 11
-482.6822201292861
 21
-381.0996085032968
 31
0.0
  0
LINE
  5
18B
330
1F
100
AcDbEntity
  8
D-0
  6
Continuous
 62
     7
370
     9
100
AcDbLine
 10
-482.6822201292861
 20
-381.0996085032968
 30
0.0
 11
-484.1825024168837
 21
-381.0996085032968
 31
0.0
  0
LINE
  5
18C
330
1F
100
AcDbEntity
  8
D-0
  6
Continuous
 62
     7
370
     9
100
AcDbLine
 10
-431.9774166624892
 20
-385.8243971690683
 30
0.0
 11
-431.9774166624892
 21
-384.3241244182138
 31
0.0
  0
LINE
  5
18D
330
1F
100
AcDbEntity
  8
D-0
  6
Continuous
 62
     7
370
     9
100
AcDbLine
 10
-431.9774166624892
 20
-384.3241244182138
 30
0.0
 11
-430.4776302855361
 21
-384.3241244182138
 31
0.0
  0
LINE
  5
18E
330
1F
100
AcDbEntity
  8
D-0
  6
Continuous
 62
     7
370
     9
100
AcDbLine
 10
-430.4776302855361
 20
-384.3241244182138
 30
0.0
 11
-430.4776302855361
 21
-385.8243971690683
 31
0.0
  0
LINE
  5
18F
330
1F
100
AcDbEntity
  8
D-0
  6
Continuous
 62
     7
370
     9
100
AcDbLine
 10
-430.4776302855361
 20
-385.8243971690683
 30
0.0
 11
-431.9774166624892
 21
-385.8243971690683
 31
0.0
  0
LINE
  5
190
330
1F
100
AcDbEntity
  8
D-0
  6
Continuous
 62
     7
370
     9
100
AcDbLine
 10
-377.2563473265517
 20
-379.069178663209
 30
0.0
 11
-377.2563473265517
 21
-377.5688963756113
 31
0.0
  0
LINE
  5
191
330
1F
100
AcDbEntity
  8
D-0
  6
Continuous
 62
     7
370
     9
100
AcDbLine
 10
-377.2563473265517
 20
-377.5688963756113
 30
0.0
 11
-375.7565990965712
 21
-377.5688963756113
 31
0.0
  0
LINE
  5
192
330
1F
100
AcDbEntity
  8
D-0
  6
Continuous
 62
     7
370
     9
100
AcDbLine
 10
-375.7565990965712
 20
-377.5688963756113
 30
0.0
 11
-375.7565990965712
 21
-379.069178663209
 31
0.0
  0
LINE
  5
193
330
1F
100
AcDbEntity
  8
D-0
  6
Continuous
 62
     7
370
     9
100
AcDbLine
 10
-375.7565990965712
 20
-379.069178663209
 30
0.0
 11
-377.2563473265517
 21
-379.069178663209
 31
0.0
  0
LINE
  5
194
330
1F
100
AcDbEntity
  8
D-0
  6
Continuous
 62
     7
370
     9
100
AcDbLine
 10
-389.4379726927626
 20
-339.1413336619883
 30
0.0
 11
-389.4379726927626
 21
-337.6410513743906
 31
0.0
  0
LINE
  5
195
330
1F
100
AcDbEntity
  8
D-0
  6
Continuous
 62
     7
370
     9
100
AcDbLine
 10
-389.4379726927626
 20
-337.6410513743906
 30
0.0
 11
-387.937690405165
 21
-337.6410513743906
 31
0.0
  0
LINE
  5
196
330
1F
100
AcDbEntity
  8
D-0
  6
Continuous
 62
     7
370
     9
100
AcDbLine
 10
-387.937690405165
 20
-337.6410513743906
 30
0.0
 11
-387.937690405165
 21
-339.1413336619883
 31
0.0
  0
LINE
  5
197
330
1F
100
AcDbEntity
  8
D-0
  6
Continuous
 62
     7
370
     9
100
AcDbLine
 10
-387.937690405165
 20
-339.1413336619883
 30
0.0
 11
-389.4379726927626
 21
-339.1413336619883
 31
0.0
  0
LINE
  5
198
330
1F
100
AcDbEntity
  8
D-0
  6
Continuous
 62
     7
370
     9
100
AcDbLine
 10
-430.4667202513564
 20
-348.2589465007334
 30
0.0
 11
-430.4667202513564
 21
-346.7586642131357
 31
0.0
  0
LINE
  5
199
330
1F
100
AcDbEntity
  8
D-0
  6
Continuous
 62
     7
370
     9
100
AcDbLine
 10
-430.4667202513564
 20
-346.7586642131357
 30
0.0
 11
-428.9669720213759
 21
-346.7586642131357
 31
0.0
  0
LINE
  5
19A
330
1F
100
AcDbEntity
  8
D-0
  6
Continuous
 62
     7
370
     9
100
AcDbLine
 10
-428.9669720213759
 20
-346.7586642131357
 30
0.0
 11
-428.9669720213759
 21
-348.2589465007334
 31
0.0
  0
LINE
  5
19B
330
1F
100
AcDbEntity
  8
D-0
  6
Continuous
 62
     7
370
     9
100
AcDbLine
 10
-428.9669720213759
 20
-348.2589465007334
 30
0.0
 11
-430.4667202513564
 21
-348.2589465007334
 31
0.0
  0
LINE
  5
19C
330
1F
100
AcDbEntity
  8
D-0
  6
Continuous
 62
     7
370
     9
100
AcDbLine
 10
-369.9819103758681
 20
-308.7705832347422
 30
0.0
 11
-369.9819103758681
 21
-307.2703009471445
 31
0.0
  0
LINE
  5
19D
330
1F
100
AcDbEntity
  8
D-0
  6
Continuous
 62
     7
370
     9
100
AcDbLine
 10
-369.9819103758681
 20
-307.2703009471445
 30
0.0
 11
-368.4816280882704
 21
-307.2703009471445
 31
0.0
  0
LINE
  5
19E
330
1F
100
AcDbEntity
  8
D-0
  6
Continuous
 62
     7
370
     9
100
AcDbLine
 10
-368.4816280882704
 20
-307.2703009471445
 30
0.0
 11
-368.4816280882704
 21
-308.7705832347422
 31
0.0
  0
LINE
  5
19F
330
1F
100
AcDbEntity
  8
D-0
  6
Continuous
 62
     7
370
     9
100
AcDbLine
 10
-368.4816280882704
 20
-308.7705832347422
 30
0.0
 11
-369.9819103758681
 21
-308.7705832347422
 31
0.0
  0
LINE
  5
1A0
330
1F
100
AcDbEntity
  8
D-0
  6
Continuous
 62
     7
370
     9
100
AcDbLine
 10
-523.982497839247
 20
-297.8777008876352
 30
0.0
 11
-523.982497839247
 21
-296.3774233684092
 31
0.0
  0
LINE
  5
1A1
330
1F
100
AcDbEntity
  8
D-0
  6
Continuous
 62
     7
370
     9
100
AcDbLine
 10
-523.982497839247
 20
-296.3774233684092
 30
0.0
 11
-522.4822346251357
 21
-296.3774233684092
 31
0.0
  0
LINE
  5
1A2
330
1F
100
AcDbEntity
  8
D-0
  6
Continuous
 62
     7
370
     9
100
AcDbLine
 10
-522.4822346251357
 20
-296.3774233684092
 30
0.0
 11
-522.4822346251357
 21
-297.8777008876352
 31
0.0
  0
LINE
  5
1A3
330
1F
100
AcDbEntity
  8
D-0
  6
Continuous
 62
     7
370
     9
100
AcDbLine
 10
-522.4822346251357
 20
-297.8777008876352
 30
0.0
 11
-523.982497839247
 21
-297.8777008876352
 31
0.0
  0
LINE
  5
1A4
330
1F
100
AcDbEntity
  8
D-0
  6
Continuous
 62
     7
370
     9
100
AcDbLine
 10
-607.3322407286513
 20
-421.1280375346689
 30
0.0
 11
-607.3322407286513
 21
-419.6277552470713
 31
0.0
  0
LINE
  5
1A5
330
1F
100
AcDbEntity
  8
D-0
  6
Continuous
 62
     7
370
     9
100
AcDbLine
 10
-607.3322407286513
 20
-419.6277552470713
 30
0.0
 11
-605.8319584410536
 21
-419.6277552470713
 31
0.0
  0
LINE
  5
1A6
330
1F
100
AcDbEntity
  8
D-0
  6
Continuous
 62
     7
370
     9
100
AcDbLine
 10
-605.8319584410536
 20
-419.6277552470713
 30
0.0
 11
-605.8319584410536
 21
-421.1280375346689
 31
0.0
  0
LINE
  5
1A7
330
1F
100
AcDbEntity
  8
D-0
  6
Continuous
 62
     7
370
     9
100
AcDbLine
 10
-605.8319584410536
 20
-421.1280375346689
 30
0.0
 11
-607.3322407286513
 21
-421.1280375346689
 31
0.0
  0
LINE
  5
1A8
330
1F
100
AcDbEntity
  8
D-0
  6
Continuous
 62
     7
370
     9
100
AcDbLine
 10
-557.9676929991591
 20
-429.0263110026865
 30
0.0
 11
-557.9676929991591
 21
-427.5260287150888
 31
0.0
  0
LINE
  5
1A9
330
1F
100
AcDbEntity
  8
D-0
  6
Continuous
 62
     7
370
     9
100
AcDbLine
 10
-557.9676929991591
 20
-427.5260287150888
 30
0.0
 11
-556.4674297850478
 21
-427.5260287150888
 31
0.0
  0
LINE
  5
1AA
330
1F
100
AcDbEntity
  8
D-0
  6
Continuous
 62
     7
370
     9
100
AcDbLine
 10
-556.4674297850478
 20
-427.5260287150888
 30
0.0
 11
-556.4674297850478
 21
-429.0263110026865
 31
0.0
  0
LINE
  5
1AB
330
1F
100
AcDbEntity
  8
D-0
  6
Continuous
 62
     7
370
     9
100
AcDbLine
 10
-556.4674297850478
 20
-429.0263110026865
 30
0.0
 11
-557.9676929991591
 21
-429.0263110026865
 31
0.0
  0
LINE
  5
1AC
330
1F
100
AcDbEntity
  8
D-0
  6
Continuous
 62
     7
370
     9
100
AcDbLine
 10
-574.8488155882704
 20
-449.6070795878916
 30
0.0
 11
-574.8488155882704
 21
-448.1068163737802
 31
0.0
  0
LINE
  5
1AD
330
1F
100
AcDbEntity
  8
D-0
  6
Continuous
 62
     7
370
     9
100
AcDbLine
 10
-574.8488155882704
 20
-448.1068163737802
 30
0.0
 11
-573.3490292113173
 21
-448.1068163737802
 31
0.0
  0
LINE
  5
1AE
330
1F
100
AcDbEntity
  8
D-0
  6
Continuous
 62
     7
370
     9
100
AcDbLine
 10
-573.3490292113173
 20
-448.1068163737802
 30
0.0
 11
-573.3490292113173
 21
-449.6070795878916
 31
0.0
  0
LINE
  5
1AF
330
1F
100
AcDbEntity
  8
D-0
  6
Continuous
 62
     7
370
     9
100
AcDbLine
 10
-573.3490292113173
 20
-449.6070795878916
 30
0.0
 11
-574.8488155882704
 21
-449.6070795878916
 31
0.0
  0
LINE
  5
1B0
330
1F
100
AcDbEntity
  8
D-0
  6
Continuous
 62
     7
370
     9
100
AcDbLine
 10
-623.1287876646865
 20
-484.315178953126
 30
0.0
 11
-623.1287876646865
 21
-482.8148966655283
 31
0.0
  0
LINE
  5
1B1
330
1F
100
AcDbEntity
  8
D-0
  6
Continuous
 62
     7
370
     9
100
AcDbLine
 10
-623.1287876646865
 20
-482.8148966655283
 30
0.0
 11
-621.6290012877333
 21
-482.8148966655283
 31
0.0
  0
LINE
  5
1B2
330
1F
100
AcDbEntity
  8
D-0
  6
Continuous
 62
     7
370
     9
100
AcDbLine
 10
-621.6290012877333
 20
-482.8148966655283
 30
0.0
 11
-621.6290012877333
 21
-484.315178953126
 31
0.0
  0
LINE
  5
1B3
330
1F
100
AcDbEntity
  8
D-0
  6
Continuous
 62
     7
370
     9
100
AcDbLine
 10
-621.6290012877333
 20
-484.315178953126
 30
0.0
 11
-623.1287876646865
 21
-484.315178953126
 31
0.0
  0
LINE
  5
1B4
330
1F
100
AcDbEntity
  8
D-0
  6
Continuous
 62
     7
370
     9
100
AcDbLine
 10
-552.0438686888564
 20
-482.3402338847666
 30
0.0
 11
-552.0438686888564
 21
-480.8399515971689
 31
0.0
  0
LINE
  5
1B5
330
1F
100
AcDbEntity
  8
D-0
  6
Continuous
 62
     7
370
     9
100
AcDbLine
 10
-552.0438686888564
 20
-480.8399515971689
 30
0.0
 11
-550.543605474745
 21
-480.8399515971689
 31
0.0
  0
LINE
  5
1B6
330
1F
100
AcDbEntity
  8
D-0
  6
Continuous
 62
     7
370
     9
100
AcDbLine
 10
-550.543605474745
 20
-480.8399515971689
 30
0.0
 11
-550.543605474745
 21
-482.3402338847666
 31
0.0
  0
LINE
  5
1B7
330
1F
100
AcDbEntity
  8
D-0
  6
Continuous
 62
     7
370
     9
100
AcDbLine
 10
-550.543605474745
 20
-482.3402338847666
 30
0.0
 11
-552.0438686888564
 21
-482.3402338847666
 31
0.0
  0
LINE
  5
1B8
330
1F
100
AcDbEntity
  8
D-0
  6
Continuous
 62
     7
370
     9
100
AcDbLine
 10
-609.3066898863661
 20
-450.7471590861826
 30
0.0
 11
-609.3066898863661
 21
-449.2468767985849
 31
0.0
  0
LINE
  5
1B9
330
1F
100
AcDbEntity
  8
D-0
  6
Continuous
 62
     7
370
     9
100
AcDbLine
 10
-609.3066898863661
 20
-449.2468767985849
 30
0.0
 11
-607.806903509413
 21
-449.2468767985849
 31
0.0
  0
LINE
  5
1BA
330
1F
100
AcDbEntity
  8
D-0
  6
Continuous
 62
     7
370
     9
100
AcDbLine
 10
-607.806903509413
 20
-449.2468767985849
 30
0.0
 11
-607.806903509413
 21
-450.7471590861826
 31
0.0
  0
LINE
  5
1BB
330
1F
100
AcDbEntity
  8
D-0
  6
Continuous
 62
     7
370
     9
100
AcDbLine
 10
-607.806903509413
 20
-450.7471590861826
 30
0.0
 11
-609.3066898863661
 21
-450.7471590861826
 31
0.0
  0
LINE
  5
1BC
330
1F
100
AcDbEntity
  8
D-0
  6
Continuous
 62
     7
370
     9
100
AcDbLine
 10
-577.4396244566786
 20
-406.8684416636972
 30
0.0
 11
-577.4396244566786
 21
-405.3681689128427
 31
0.0
  0
LINE
  5
1BD
330
1F
100
AcDbEntity
  8
D-0
  6
Continuous
 62
     7
370
     9
100
AcDbLine
 10
-577.4396244566786
 20
-405.3681689128427
 30
0.0
 11
-575.939342169081
 21
-405.3681689128427
 31
0.0
  0
LINE
  5
1BE
330
1F
100
AcDbEntity
  8
D-0
  6
Continuous
 62
     7
370
     9
100
AcDbLine
 10
-575.939342169081
 20
-405.3681689128427
 30
0.0
 11
-575.939342169081
 21
-406.8684416636972
 31
0.0
  0
LINE
  5
1BF
330
1F
100
AcDbEntity
  8
D-0
  6
Continuous
 62
     7
370
     9
100
AcDbLine
 10
-575.939342169081
 20
-406.8684416636972
 30
0.0
 11
-577.4396244566786
 21
-406.8684416636972
 31
0.0
  0
LINE
  5
1C0
330
1F
100
AcDbEntity
  8
D-0
  6
Continuous
 62
     7
370
     9
100
AcDbLine
 10
-586.7232243101943
 20
-478.308098875001
 30
0.0
 11
-586.7232243101943
 21
-476.8078356608896
 31
0.0
  0
LINE
  5
1C1
330
1F
100
AcDbEntity
  8
D-0
  6
Continuous
 62
     7
370
     9
100
AcDbLine
 10
-586.7232243101943
 20
-476.8078356608896
 30
0.0
 11
-585.2229420225966
 21
-476.8078356608896
 31
0.0
  0
LINE
  5
1C2
330
1F
100
AcDbEntity
  8
D-0
  6
Continuous
 62
     7
370
     9
100
AcDbLine
 10
-585.2229420225966
 20
-476.8078356608896
 30
0.0
 11
-585.2229420225966
 21
-478.308098875001
 31
0.0
  0
LINE
  5
1C3
330
1F
100
AcDbEntity
  8
D-0
  6
Continuous
 62
     7
370
     9
100
AcDbLine
 10
-585.2229420225966
 20
-478.308098875001
 30
0.0
 11
-586.7232243101943
 21
-478.308098875001
 31
0.0
  0
LINE
  5
1C4
330
1F
100
AcDbEntity
  8
D-0
  6
Continuous
 62
     7
370
     9
100
AcDbLine
 10
-749.8488823454726
 20
-268.4319918975382
 30
0.0
 11
-749.8488823454726
 21
-266.9317119941263
 31
0.0
  0
LINE
  5
1C5
330
1F
100
AcDbEntity
  8
D-0
  6
Continuous
 62
     7
370
     9
100
AcDbLine
 10
-749.8488823454726
 20
-266.9317119941263
 30
0.0
 11
-748.3486048262465
 21
-266.9317119941263
 31
0.0
  0
LINE
  5
1C6
330
1F
100
AcDbEntity
  8
D-0
  6
Continuous
 62
     7
370
     9
100
AcDbLine
 10
-748.3486048262465
 20
-266.9317119941263
 30
0.0
 11
-748.3486048262465
 21
-268.4319918975382
 31
0.0
  0
LINE
  5
1C7
330
1F
100
AcDbEntity
  8
D-0
  6
Continuous
 62
     7
370
     9
100
AcDbLine
 10
-748.3486048262465
 20
-268.4319918975382
 30
0.0
 11
-749.8488823454726
 21
-268.4319918975382
 31
0.0
  0
LINE
  5
1C8
330
1F
100
AcDbEntity
  8
D-0
  6
Continuous
 62
     7
370
     9
100
AcDbLine
 10
-728.6041752379286
 20
-284.2305093631296
 30
0.0
 11
-728.6041752379286
 21
-282.7302294597177
 31
0.0
  0
LINE
  5
1C9
330
1F
100
AcDbEntity
  8
D-0
  6
Continuous
 62
     7
370
     9
100
AcDbLine
 10
-728.6041752379286
 20
-282.7302294597177
 30
0.0
 11
-727.103892950331
 21
-282.7302294597177
 31
0.0
  0
LINE
  5
1CA
330
1F
100
AcDbEntity
  8
D-0
  6
Continuous
 62
     7
370
     9
100
AcDbLine
 10
-727.103892950331
 20
-282.7302294597177
 30
0.0
 11
-727.103892950331
 21
-284.2305093631296
 31
0.0
  0
LINE
  5
1CB
330
1F
100
AcDbEntity
  8
D-0
  6
Continuous
 62
     7
370
     9
100
AcDbLine
 10
-727.103892950331
 20
-284.2305093631296
 30
0.0
 11
-728.6041752379286
 21
-284.2305093631296
 31
0.0
  0
LINE
  5
1CC
330
1F
100
AcDbEntity
  8
D-0
  6
Continuous
 62
     7
370
     9
100
AcDbLine
 10
-704.737941412245
 20
-325.3108149394541
 30
0.0
 11
-704.737941412245
 21
-323.810537420228
 31
0.0
  0
LINE
  5
1CD
330
1F
100
AcDbEntity
  8
D-0
  6
Continuous
 62
     7
370
     9
100
AcDbLine
 10
-704.737941412245
 20
-323.810537420228
 30
0.0
 11
-703.2381550352919
 21
-323.810537420228
 31
0.0
  0
LINE
  5
1CE
330
1F
100
AcDbEntity
  8
D-0
  6
Continuous
 62
     7
370
     9
100
AcDbLine
 10
-703.2381550352919
 20
-323.810537420228
 30
0.0
 11
-703.2381550352919
 21
-325.3108149394541
 31
0.0
  0
LINE
  5
1CF
330
1F
100
AcDbEntity
  8
D-0
  6
Continuous
 62
     7
370
     9
100
AcDbLine
 10
-703.2381550352919
 20
-325.3108149394541
 30
0.0
 11
-704.737941412245
 21
-325.3108149394541
 31
0.0
  0
LINE
  5
1D0
330
1F
100
AcDbEntity
  8
D-0
  6
Continuous
 62
     7
370
     9
100
AcDbLine
 10
-658.9734665434706
 20
-272.3546188697367
 30
0.0
 11
-658.9734665434706
 21
-270.8543389663248
 31
0.0
  0
LINE
  5
1D1
330
1F
100
AcDbEntity
  8
D-0
  6
Continuous
 62
     7
370
     9
100
AcDbLine
 10
-658.9734665434706
 20
-270.8543389663248
 30
0.0
 11
-657.4736897032607
 21
-270.8543389663248
 31
0.0
  0
LINE
  5
1D2
330
1F
100
AcDbEntity
  8
D-0
  6
Continuous
 62
     7
370
     9
100
AcDbLine
 10
-657.4736897032607
 20
-270.8543389663248
 30
0.0
 11
-657.4736897032607
 21
-272.3546188697367
 31
0.0
  0
LINE
  5
1D3
330
1F
100
AcDbEntity
  8
D-0
  6
Continuous
 62
     7
370
     9
100
AcDbLine
 10
-657.4736897032607
 20
-272.3546188697367
 30
0.0
 11
-658.9734665434706
 21
-272.3546188697367
 31
0.0
  0
LINE
  5
1D4
330
1F
100
AcDbEntity
  8
D-0
  6
Continuous
 62
     7
370
     9
100
AcDbLine
 10
-611.4153973143447
 20
-266.9564860686808
 30
0.0
 11
-611.4153973143447
 21
-265.4562061652689
 31
0.0
  0
LINE
  5
1D5
330
1F
100
AcDbEntity
  8
D-0
  6
Continuous
 62
     7
370
     9
100
AcDbLine
 10
-611.4153973143447
 20
-265.4562061652689
 30
0.0
 11
-609.9156109373915
 21
-265.4562061652689
 31
0.0
  0
LINE
  5
1D6
330
1F
100
AcDbEntity
  8
D-0
  6
Continuous
 62
     7
370
     9
100
AcDbLine
 10
-609.9156109373915
 20
-265.4562061652689
 30
0.0
 11
-609.9156109373915
 21
-266.9564860686808
 31
0.0
  0
LINE
  5
1D7
330
1F
100
AcDbEntity
  8
D-0
  6
Continuous
 62
     7
370
     9
100
AcDbLine
 10
-609.9156109373915
 20
-266.9564860686808
 30
0.0
 11
-611.4153973143447
 21
-266.9564860686808
 31
0.0
  0
LINE
  5
1D8
330
1F
100
AcDbEntity
  8
D-0
  6
Continuous
 62
     7
370
     9
100
AcDbLine
 10
-631.0290257017958
 20
-288.5311776027231
 30
0.0
 11
-631.0290257017958
 21
-287.030900083497
 31
0.0
  0
LINE
  5
1D9
330
1F
100
AcDbEntity
  8
D-0
  6
Continuous
 62
     7
370
     9
100
AcDbLine
 10
-631.0290257017958
 20
-287.030900083497
 30
0.0
 11
-629.5287434141982
 21
-287.030900083497
 31
0.0
  0
LINE
  5
1DA
330
1F
100
AcDbEntity
  8
D-0
  6
Continuous
 62
     7
370
     9
100
AcDbLine
 10
-629.5287434141982
 20
-287.030900083497
 30
0.0
 11
-629.5287434141982
 21
-288.5311776027231
 31
0.0
  0
LINE
  5
1DB
330
1F
100
AcDbEntity
  8
D-0
  6
Continuous
 62
     7
370
     9
100
AcDbLine
 10
-629.5287434141982
 20
-288.5311776027231
 30
0.0
 11
-631.0290257017958
 21
-288.5311776027231
 31
0.0
  0
LINE
  5
1DC
330
1F
100
AcDbEntity
  8
D-0
  6
Continuous
 62
     7
370
     9
100
AcDbLine
 10
-606.6712872069228
 20
-324.6572953090219
 30
0.0
 11
-606.6712872069228
 21
-323.1570130214243
 31
0.0
  0
LINE
  5
1DD
330
1F
100
AcDbEntity
  8
D-0
  6
Continuous
 62
     7
370
     9
100
AcDbLine
 10
-606.6712872069228
 20
-323.1570130214243
 30
0.0
 11
-605.1710049193251
 21
-323.1570130214243
 31
0.0
  0
LINE
  5
1DE
330
1F
100
AcDbEntity
  8
D-0
  6
Continuous
 62
     7
370
     9
100
AcDbLine
 10
-605.1710049193251
 20
-323.1570130214243
 30
0.0
 11
-605.1710049193251
 21
-324.6572953090219
 31
0.0
  0
LINE
  5
1DF
330
1F
100
AcDbEntity
  8
D-0
  6
Continuous
 62
     7
370
     9
100
AcDbLine
 10
-605.1710049193251
 20
-324.6572953090219
 30
0.0
 11
-606.6712872069228
 21
-324.6572953090219
 31
0.0
  0
LINE
  5
1E0
330
1F
100
AcDbEntity
  8
D-0
  6
Continuous
 62
     7
370
     9
100
AcDbLine
 10
-602.7481762450087
 20
-363.2300310954599
 30
0.0
 11
-602.7481762450087
 21
-361.7297488078623
 31
0.0
  0
LINE
  5
1E1
330
1F
100
AcDbEntity
  8
D-0
  6
Continuous
 62
     7
370
     9
100
AcDbLine
 10
-602.7481762450087
 20
-361.7297488078623
 30
0.0
 11
-601.2483898680556
 21
-361.7297488078623
 31
0.0
  0
LINE
  5
1E2
330
1F
100
AcDbEntity
  8
D-0
  6
Continuous
 62
     7
370
     9
100
AcDbLine
 10
-601.2483898680556
 20
-361.7297488078623
 30
0.0
 11
-601.2483898680556
 21
-363.2300310954599
 31
0.0
  0
LINE
  5
1E3
330
1F
100
AcDbEntity
  8
D-0
  6
Continuous
 62
     7
370
     9
100
AcDbLine
 10
-601.2483898680556
 20
-363.2300310954599
 30
0.0
 11
-602.7481762450087
 21
-363.2300310954599
 31
0.0
  0
LINE
  5
1E4
330
1F
100
AcDbEntity
  8
D-0
  6
Continuous
 62
     7
370
     9
100
AcDbLine
 10
-678.4171501677382
 20
-286.8559985980539
 30
0.0
 11
-678.4171501677382
 21
-285.3557186946421
 31
0.0
  0
LINE
  5
1E5
330
1F
100
AcDbEntity
  8
D-0
  6
Continuous
 62
     7
370
     9
100
AcDbLine
 10
-678.4171501677382
 20
-285.3557186946421
 30
0.0
 11
-676.9168678801406
 21
-285.3557186946421
 31
0.0
  0
LINE
  5
1E6
330
1F
100
AcDbEntity
  8
D-0
  6
Continuous
 62
     7
370
     9
100
AcDbLine
 10
-676.9168678801406
 20
-285.3557186946421
 30
0.0
 11
-676.9168678801406
 21
-286.8559985980539
 31
0.0
  0
LINE
  5
1E7
330
1F
100
AcDbEntity
  8
D-0
  6
Continuous
 62
     7
370
     9
100
AcDbLine
 10
-676.9168678801406
 20
-286.8559985980539
 30
0.0
 11
-678.4171501677382
 21
-286.8559985980539
 31
0.0
  0
LINE
  5
1E8
330
1F
100
AcDbEntity
  8
D-0
  6
Continuous
 62
     7
370
     9
100
AcDbLine
 10
-756.6992346327651
 20
-414.2950182780771
 30
0.0
 11
-756.6992346327651
 21
-412.7947455272226
 31
0.0
  0
LINE
  5
1E9
330
1F
100
AcDbEntity
  8
D-0
  6
Continuous
 62
     7
370
     9
100
AcDbLine
 10
-756.6992346327651
 20
-412.7947455272226
 30
0.0
 11
-755.198957113539
 21
-412.7947455272226
 31
0.0
  0
LINE
  5
1EA
330
1F
100
AcDbEntity
  8
D-0
  6
Continuous
 62
     7
370
     9
100
AcDbLine
 10
-755.198957113539
 20
-412.7947455272226
 30
0.0
 11
-755.198957113539
 21
-414.2950182780771
 31
0.0
  0
LINE
  5
1EB
330
1F
100
AcDbEntity
  8
D-0
  6
Continuous
 62
     7
370
     9
100
AcDbLine
 10
-755.198957113539
 20
-414.2950182780771
 30
0.0
 11
-756.6992346327651
 21
-414.2950182780771
 31
0.0
  0
LINE
  5
1EC
330
1F
100
AcDbEntity
  8
D-0
  6
Continuous
 62
     7
370
     9
100
AcDbLine
 10
-907.4703804533827
 20
-403.3565646037607
 30
0.0
 11
-907.4703804533827
 21
-401.8562823161631
 31
0.0
  0
LINE
  5
1ED
330
1F
100
AcDbEntity
  8
D-0
  6
Continuous
 62
     7
370
     9
100
AcDbLine
 10
-907.4703804533827
 20
-401.8562823161631
 30
0.0
 11
-905.9701077025283
 21
-401.8562823161631
 31
0.0
  0
LINE
  5
1EE
330
1F
100
AcDbEntity
  8
D-0
  6
Continuous
 62
     7
370
     9
100
AcDbLine
 10
-905.9701077025283
 20
-401.8562823161631
 30
0.0
 11
-905.9701077025283
 21
-403.3565646037607
 31
0.0
  0
LINE
  5
1EF
330
1F
100
AcDbEntity
  8
D-0
  6
Continuous
 62
     7
370
     9
100
AcDbLine
 10
-905.9701077025283
 20
-403.3565646037607
 30
0.0
 11
-907.4703804533827
 21
-403.3565646037607
 31
0.0
  0
LINE
  5
1F0
330
1F
100
AcDbEntity
  8
D-0
  6
Continuous
 62
     7
370
     9
100
AcDbLine
 10
-848.2321373503554
 20
-508.0099802836924
 30
0.0
 11
-848.2321373503554
 21
-506.5096979960947
 31
0.0
  0
LINE
  5
1F1
330
1F
100
AcDbEntity
  8
D-0
  6
Continuous
 62
     7
370
     9
100
AcDbLine
 10
-848.2321373503554
 20
-506.5096979960947
 30
0.0
 11
-846.7323557417739
 21
-506.5096979960947
 31
0.0
  0
LINE
  5
1F2
330
1F
100
AcDbEntity
  8
D-0
  6
Continuous
 62
     7
370
     9
100
AcDbLine
 10
-846.7323557417739
 20
-506.5096979960947
 30
0.0
 11
-846.7323557417739
 21
-508.0099802836924
 31
0.0
  0
LINE
  5
1F3
330
1F
100
AcDbEntity
  8
D-0
  6
Continuous
 62
     7
370
     9
100
AcDbLine
 10
-846.7323557417739
 20
-508.0099802836924
 30
0.0
 11
-848.2321373503554
 21
-508.0099802836924
 31
0.0
  0
LINE
  5
1F4
330
1F
100
AcDbEntity
  8
D-0
  6
Continuous
 62
     7
370
     9
100
AcDbLine
 10
-862.0547262709487
 20
-567.2477274760752
 30
0.0
 11
-862.0547262709487
 21
-565.7474451884775
 31
0.0
  0
LINE
  5
1F5
330
1F
100
AcDbEntity
  8
D-0
  6
Continuous
 62
     7
370
     9
100
AcDbLine
 10
-862.0547262709487
 20
-565.7474451884775
 30
0.0
 11
-860.554443983351
 21
-565.7474451884775
 31
0.0
  0
LINE
  5
1F6
330
1F
100
AcDbEntity
  8
D-0
  6
Continuous
 62
     7
370
     9
100
AcDbLine
 10
-860.554443983351
 20
-565.7474451884775
 30
0.0
 11
-860.554443983351
 21
-567.2477274760752
 31
0.0
  0
LINE
  5
1F7
330
1F
100
AcDbEntity
  8
D-0
  6
Continuous
 62
     7
370
     9
100
AcDbLine
 10
-860.554443983351
 20
-567.2477274760752
 30
0.0
 11
-862.0547262709487
 21
-567.2477274760752
 31
0.0
  0
LINE
  5
1F8
330
1F
100
AcDbEntity
  8
D-0
  6
Continuous
 62
     7
370
     9
100
AcDbLine
 10
-892.6608196776259
 20
-578.1079226359873
 30
0.0
 11
-892.6608196776259
 21
-576.6076403483896
 31
0.0
  0
LINE
  5
1F9
330
1F
100
AcDbEntity
  8
D-0
  6
Continuous
 62
     7
370
     9
100
AcDbLine
 10
-892.6608196776259
 20
-576.6076403483896
 30
0.0
 11
-891.1605469267714
 21
-576.6076403483896
 31
0.0
  0
LINE
  5
1FA
330
1F
100
AcDbEntity
  8
D-0
  6
Continuous
 62
     7
370
     9
100
AcDbLine
 10
-891.1605469267714
 20
-576.6076403483896
 30
0.0
 11
-891.1605469267714
 21
-578.1079226359873
 31
0.0
  0
LINE
  5
1FB
330
1F
100
AcDbEntity
  8
D-0
  6
Continuous
 62
     7
370
     9
100
AcDbLine
 10
-891.1605469267714
 20
-578.1079226359873
 30
0.0
 11
-892.6608196776259
 21
-578.1079226359873
 31
0.0
  0
LINE
  5
1FC
330
1F
100
AcDbEntity
  8
D-0
  6
Continuous
 62
     7
370
     9
100
AcDbLine
 10
-915.5143181364882
 20
-511.9593554362802
 30
0.0
 11
-915.5143181364882
 21
-510.4590731486826
 31
0.0
  0
LINE
  5
1FD
330
1F
100
AcDbEntity
  8
D-0
  6
Continuous
 62
     7
370
     9
100
AcDbLine
 10
-915.5143181364882
 20
-510.4590731486826
 30
0.0
 11
-914.0145317595351
 21
-510.4590731486826
 31
0.0
  0
LINE
  5
1FE
330
1F
100
AcDbEntity
  8
D-0
  6
Continuous
 62
     7
370
     9
100
AcDbLine
 10
-914.0145317595351
 20
-510.4590731486826
 30
0.0
 11
-914.0145317595351
 21
-511.9593554362802
 31
0.0
  0
LINE
  5
1FF
330
1F
100
AcDbEntity
  8
D-0
  6
Continuous
 62
     7
370
     9
100
AcDbLine
 10
-914.0145317595351
 20
-511.9593554362802
 30
0.0
 11
-915.5143181364882
 21
-511.9593554362802
 31
0.0
  0
LINE
  5
200
330
1F
100
AcDbEntity
  8
D-0
  6
Continuous
 62
     7
370
     9
100
AcDbLine
 10
-889.6989075224745
 20
-490.2390032634287
 30
0.0
 11
-889.6989075224745
 21
-488.738720975831
 31
0.0
  0
LINE
  5
201
330
1F
100
AcDbEntity
  8
D-0
  6
Continuous
 62
     7
370
     9
100
AcDbLine
 10
-889.6989075224745
 20
-488.738720975831
 30
0.0
 11
-888.19863477162
 21
-488.738720975831
 31
0.0
  0
LINE
  5
202
330
1F
100
AcDbEntity
  8
D-0
  6
Continuous
 62
     7
370
     9
100
AcDbLine
 10
-888.19863477162
 20
-488.738720975831
 30
0.0
 11
-888.19863477162
 21
-490.2390032634287
 31
0.0
  0
LINE
  5
203
330
1F
100
AcDbEntity
  8
D-0
  6
Continuous
 62
     7
370
     9
100
AcDbLine
 10
-888.19863477162
 20
-490.2390032634287
 30
0.0
 11
-889.6989075224745
 21
-490.2390032634287
 31
0.0
  0
LINE
  5
204
330
1F
100
AcDbEntity
  8
D-0
  6
Continuous
 62
     7
370
     9
100
AcDbLine
 10
-826.5117780249465
 20
-542.731927000001
 30
0.0
 11
-826.5117780249465
 21
-541.2316447124033
 31
0.0
  0
LINE
  5
205
330
1F
100
AcDbEntity
  8
D-0
  6
Continuous
 62
     7
370
     9
100
AcDbLine
 10
-826.5117780249465
 20
-541.2316447124033
 30
0.0
 11
-825.0119940321791
 21
-541.2316447124033
 31
0.0
  0
LINE
  5
206
330
1F
100
AcDbEntity
  8
D-0
  6
Continuous
 62
     7
370
     9
100
AcDbLine
 10
-825.0119940321791
 20
-541.2316447124033
 30
0.0
 11
-825.0119940321791
 21
-542.731927000001
 31
0.0
  0
LINE
  5
207
330
1F
100
AcDbEntity
  8
D-0
  6
Continuous
 62
     7
370
     9
100
AcDbLine
 10
-825.0119940321791
 20
-542.731927000001
 30
0.0
 11
-826.5117780249465
 21
-542.731927000001
 31
0.0
  0
LINE
  5
208
330
1F
100
AcDbEntity
  8
D-0
  6
Continuous
 62
     7
370
     9
100
AcDbLine
 10
-903.5210053007949
 20
-680.6109743937998
 30
0.0
 11
-903.5210053007949
 21
-679.1106921062021
 31
0.0
  0
LINE
  5
209
330
1F
100
AcDbEntity
  8
D-0
  6
Continuous
 62
     7
370
     9
100
AcDbLine
 10
-903.5210053007949
 20
-679.1106921062021
 30
0.0
 11
-902.0212189238417
 21
-679.1106921062021
 31
0.0
  0
LINE
  5
20A
330
1F
100
AcDbEntity
  8
D-0
  6
Continuous
 62
     7
370
     9
100
AcDbLine
 10
-902.0212189238417
 20
-679.1106921062021
 30
0.0
 11
-902.0212189238417
 21
-680.6109743937998
 31
0.0
  0
LINE
  5
20B
330
1F
100
AcDbEntity
  8
D-0
  6
Continuous
 62
     7
370
     9
100
AcDbLine
 10
-902.0212189238417
 20
-680.6109743937998
 30
0.0
 11
-903.5210053007949
 21
-680.6109743937998
 31
0.0
  0
LINE
  5
20C
330
1F
100
AcDbEntity
  8
D-0
  6
Continuous
 62
     7
370
     9
100
AcDbLine
 10
-833.1307450812209
 20
-684.3230181560068
 30
0.0
 11
-833.1307450812209
 21
-682.8227358684092
 31
0.0
  0
LINE
  5
20D
330
1F
100
AcDbEntity
  8
D-0
  6
Continuous
 62
     7
370
     9
100
AcDbLine
 10
-833.1307450812209
 20
-682.8227358684092
 30
0.0
 11
-831.6309610884535
 21
-682.8227358684092
 31
0.0
  0
LINE
  5
20E
330
1F
100
AcDbEntity
  8
D-0
  6
Continuous
 62
     7
370
     9
100
AcDbLine
 10
-831.6309610884535
 20
-682.8227358684092
 30
0.0
 11
-831.6309610884535
 21
-684.3230181560068
 31
0.0
  0
LINE
  5
20F
330
1F
100
AcDbEntity
  8
D-0
  6
Continuous
 62
     7
370
     9
100
AcDbLine
 10
-831.6309610884535
 20
-684.3230181560068
 30
0.0
 11
-833.1307450812209
 21
-684.3230181560068
 31
0.0
  0
LINE
  5
210
330
1F
100
AcDbEntity
  8
D-0
  6
Continuous
 62
     7
370
     9
100
AcDbLine
 10
-808.7403033058989
 20
-710.2296191081552
 30
0.0
 11
-808.7403033058989
 21
-708.7293368205576
 31
0.0
  0
LINE
  5
211
330
1F
100
AcDbEntity
  8
D-0
  6
Continuous
 62
     7
370
     9
100
AcDbLine
 10
-808.7403033058989
 20
-708.7293368205576
 30
0.0
 11
-807.24051916412
 21
-708.7293368205576
 31
0.0
  0
LINE
  5
212
330
1F
100
AcDbEntity
  8
D-0
  6
Continuous
 62
     7
370
     9
100
AcDbLine
 10
-807.24051916412
 20
-708.7293368205576
 30
0.0
 11
-807.24051916412
 21
-710.2296191081552
 31
0.0
  0
LINE
  5
213
330
1F
100
AcDbEntity
  8
D-0
  6
Continuous
 62
     7
370
     9
100
AcDbLine
 10
-807.24051916412
 20
-710.2296191081552
 30
0.0
 11
-808.7403033058989
 21
-710.2296191081552
 31
0.0
  0
LINE
  5
214
330
1F
100
AcDbEntity
  8
D-0
  6
Continuous
 62
     7
370
     9
100
AcDbLine
 10
-802.4617228787291
 20
-748.4416323527842
 30
0.0
 11
-802.4617228787291
 21
-746.9413500651865
 31
0.0
  0
LINE
  5
215
330
1F
100
AcDbEntity
  8
D-0
  6
Continuous
 62
     7
370
     9
100
AcDbLine
 10
-802.4617228787291
 20
-746.9413500651865
 30
0.0
 11
-800.9614435713637
 21
-746.9413500651865
 31
0.0
  0
LINE
  5
216
330
1F
100
AcDbEntity
  8
D-0
  6
Continuous
 62
     7
370
     9
100
AcDbLine
 10
-800.9614435713637
 20
-746.9413500651865
 30
0.0
 11
-800.9614435713637
 21
-748.4416323527842
 31
0.0
  0
LINE
  5
217
330
1F
100
AcDbEntity
  8
D-0
  6
Continuous
 62
     7
370
     9
100
AcDbLine
 10
-800.9614435713637
 20
-748.4416323527842
 30
0.0
 11
-802.4617228787291
 21
-748.4416323527842
 31
0.0
  0
LINE
  5
218
330
1F
100
AcDbEntity
  8
D-0
  6
Continuous
 62
     7
370
     9
100
AcDbLine
 10
-876.6903797667372
 20
-753.9002352580576
 30
0.0
 11
-876.6903797667372
 21
-752.3999529704599
 31
0.0
  0
LINE
  5
219
330
1F
100
AcDbEntity
  8
D-0
  6
Continuous
 62
     7
370
     9
100
AcDbLine
 10
-876.6903797667372
 20
-752.3999529704599
 30
0.0
 11
-875.1900974791396
 21
-752.3999529704599
 31
0.0
  0
LINE
  5
21A
330
1F
100
AcDbEntity
  8
D-0
  6
Continuous
 62
     7
370
     9
100
AcDbLine
 10
-875.1900974791396
 20
-752.3999529704599
 30
0.0
 11
-875.1900974791396
 21
-753.9002352580576
 31
0.0
  0
LINE
  5
21B
330
1F
100
AcDbEntity
  8
D-0
  6
Continuous
 62
     7
370
     9
100
AcDbLine
 10
-875.1900974791396
 20
-753.9002352580576
 30
0.0
 11
-876.6903797667372
 21
-753.9002352580576
 31
0.0
  0
LINE
  5
21C
330
1F
100
AcDbEntity
  8
D-0
  6
Continuous
 62
     7
370
     9
100
AcDbLine
 10
-911.4192692320693
 20
-744.6037417277842
 30
0.0
 11
-911.4192692320693
 21
-743.1034594401865
 31
0.0
  0
LINE
  5
21D
330
1F
100
AcDbEntity
  8
D-0
  6
Continuous
 62
     7
370
     9
100
AcDbLine
 10
-911.4192692320693
 20
-743.1034594401865
 30
0.0
 11
-909.9189869444716
 21
-743.1034594401865
 31
0.0
  0
LINE
  5
21E
330
1F
100
AcDbEntity
  8
D-0
  6
Continuous
 62
     7
370
     9
100
AcDbLine
 10
-909.9189869444716
 20
-743.1034594401865
 30
0.0
 11
-909.9189869444716
 21
-744.6037417277842
 31
0.0
  0
LINE
  5
21F
330
1F
100
AcDbEntity
  8
D-0
  6
Continuous
 62
     7
370
     9
100
AcDbLine
 10
-909.9189869444716
 20
-744.6037417277842
 30
0.0
 11
-911.4192692320693
 21
-744.6037417277842
 31
0.0
  0
LINE
  5
220
330
1F
100
AcDbEntity
  8
D-0
  6
Continuous
 62
     7
370
     9
100
AcDbLine
 10
-913.6305443327773
 20
-704.3057757243662
 30
0.0
 11
-913.6305443327773
 21
-702.8054934367685
 31
0.0
  0
LINE
  5
221
330
1F
100
AcDbEntity
  8
D-0
  6
Continuous
 62
     7
370
     9
100
AcDbLine
 10
-913.6305443327773
 20
-702.8054934367685
 30
0.0
 11
-912.1307674925673
 21
-702.8054934367685
 31
0.0
  0
LINE
  5
222
330
1F
100
AcDbEntity
  8
D-0
  6
Continuous
 62
     7
370
     9
100
AcDbLine
 10
-912.1307674925673
 20
-702.8054934367685
 30
0.0
 11
-912.1307674925673
 21
-704.3057757243662
 31
0.0
  0
LINE
  5
223
330
1F
100
AcDbEntity
  8
D-0
  6
Continuous
 62
     7
370
     9
100
AcDbLine
 10
-912.1307674925673
 20
-704.3057757243662
 30
0.0
 11
-913.6305443327773
 21
-704.3057757243662
 31
0.0
  0
LINE
  5
224
330
1F
100
AcDbEntity
  8
D-0
  6
Continuous
 62
     7
370
     9
100
AcDbLine
 10
-856.1309019606459
 20
-724.0517168864756
 30
0.0
 11
-856.1309019606459
 21
-722.5514345988779
 31
0.0
  0
LINE
  5
225
330
1F
100
AcDbEntity
  8
D-0
  6
Continuous
 62
     7
370
     9
100
AcDbLine
 10
-856.1309019606459
 20
-722.5514345988779
 30
0.0
 11
-854.6306196730483
 21
-722.5514345988779
 31
0.0
  0
LINE
  5
226
330
1F
100
AcDbEntity
  8
D-0
  6
Continuous
 62
     7
370
     9
100
AcDbLine
 10
-854.6306196730483
 20
-722.5514345988779
 30
0.0
 11
-854.6306196730483
 21
-724.0517168864756
 31
0.0
  0
LINE
  5
227
330
1F
100
AcDbEntity
  8
D-0
  6
Continuous
 62
     7
370
     9
100
AcDbLine
 10
-854.6306196730483
 20
-724.0517168864756
 30
0.0
 11
-856.1309019606459
 21
-724.0517168864756
 31
0.0
  0
LINE
  5
228
330
1F
100
AcDbEntity
  8
D-0
  6
Continuous
 62
     7
370
     9
100
AcDbLine
 10
-867.9785505812514
 20
-690.4836779460459
 30
0.0
 11
-867.9785505812514
 21
-688.9833956584482
 31
0.0
  0
LINE
  5
229
330
1F
100
AcDbEntity
  8
D-0
  6
Continuous
 62
     7
370
     9
100
AcDbLine
 10
-867.9785505812514
 20
-688.9833956584482
 30
0.0
 11
-866.4782682936537
 21
-688.9833956584482
 31
0.0
  0
LINE
  5
22A
330
1F
100
AcDbEntity
  8
D-0
  6
Continuous
 62
     7
370
     9
100
AcDbLine
 10
-866.4782682936537
 20
-688.9833956584482
 30
0.0
 11
-866.4782682936537
 21
-690.4836779460459
 31
0.0
  0
LINE
  5
22B
330
1F
100
AcDbEntity
  8
D-0
  6
Continuous
 62
     7
370
     9
100
AcDbLine
 10
-866.4782682936537
 20
-690.4836779460459
 30
0.0
 11
-867.9785505812514
 21
-690.4836779460459
 31
0.0
  0
LINE
  5
22C
330
1F
100
AcDbEntity
  8
D-0
  6
Continuous
 62
     7
370
     9
100
AcDbLine
 10
-812.6896850149977
 20
-576.2999468669443
 30
0.0
 11
-812.6896850149977
 21
-574.7996645793467
 31
0.0
  0
LINE
  5
22D
330
1F
100
AcDbEntity
  8
D-0
  6
Continuous
 62
     7
370
     9
100
AcDbLine
 10
-812.6896850149977
 20
-574.7996645793467
 30
0.0
 11
-811.1899010222304
 21
-574.7996645793467
 31
0.0
  0
LINE
  5
22E
330
1F
100
AcDbEntity
  8
D-0
  6
Continuous
 62
     7
370
     9
100
AcDbLine
 10
-811.1899010222304
 20
-574.7996645793467
 30
0.0
 11
-811.1899010222304
 21
-576.2999468669443
 31
0.0
  0
LINE
  5
22F
330
1F
100
AcDbEntity
  8
D-0
  6
Continuous
 62
     7
370
     9
100
AcDbLine
 10
-811.1899010222304
 20
-576.2999468669443
 30
0.0
 11
-812.6896850149977
 21
-576.2999468669443
 31
0.0
  0
LINE
  5
230
330
1F
100
AcDbEntity
  8
D-0
  6
Continuous
 62
     7
370
     9
100
AcDbLine
 10
-800.8425308149207
 20
-476.4164095744638
 30
0.0
 11
-800.8425308149207
 21
-474.9161272868662
 31
0.0
  0
LINE
  5
231
330
1F
100
AcDbEntity
  8
D-0
  6
Continuous
 62
     7
370
     9
100
AcDbLine
 10
-800.8425308149207
 20
-474.9161272868662
 30
0.0
 11
-799.342251209532
 21
-474.9161272868662
 31
0.0
  0
LINE
  5
232
330
1F
100
AcDbEntity
  8
D-0
  6
Continuous
 62
     7
370
     9
100
AcDbLine
 10
-799.342251209532
 20
-474.9161272868662
 30
0.0
 11
-799.342251209532
 21
-476.4164095744638
 31
0.0
  0
LINE
  5
233
330
1F
100
AcDbEntity
  8
D-0
  6
Continuous
 62
     7
370
     9
100
AcDbLine
 10
-799.342251209532
 20
-476.4164095744638
 30
0.0
 11
-800.8425308149207
 21
-476.4164095744638
 31
0.0
  0
LINE
  5
234
330
1F
100
AcDbEntity
  8
D-0
  6
Continuous
 62
     7
370
     9
100
AcDbLine
 10
-704.7314945738661
 20
-487.6407557353525
 30
0.0
 11
-704.7314945738661
 21
-486.1404734477549
 31
0.0
  0
LINE
  5
235
330
1F
100
AcDbEntity
  8
D-0
  6
Continuous
 62
     7
370
     9
100
AcDbLine
 10
-704.7314945738661
 20
-486.1404734477549
 30
0.0
 11
-703.2317177336562
 21
-486.1404734477549
 31
0.0
  0
LINE
  5
236
330
1F
100
AcDbEntity
  8
D-0
  6
Continuous
 62
     7
370
     9
100
AcDbLine
 10
-703.2317177336562
 20
-486.1404734477549
 30
0.0
 11
-703.2317177336562
 21
-487.6407557353525
 31
0.0
  0
LINE
  5
237
330
1F
100
AcDbEntity
  8
D-0
  6
Continuous
 62
     7
370
     9
100
AcDbLine
 10
-703.2317177336562
 20
-487.6407557353525
 30
0.0
 11
-704.7314945738661
 21
-487.6407557353525
 31
0.0
  0
LINE
  5
238
330
1F
100
AcDbEntity
  8
D-0
  6
Continuous
 62
     7
370
     9
100
AcDbLine
 10
-757.2660509627211
 20
-479.0156298503427
 30
0.0
 11
-757.2660509627211
 21
-477.5153475627451
 31
0.0
  0
LINE
  5
239
330
1F
100
AcDbEntity
  8
D-0
  6
Continuous
 62
     7
370
     9
100
AcDbLine
 10
-757.2660509627211
 20
-477.5153475627451
 30
0.0
 11
-755.7662693541396
 21
-477.5153475627451
 31
0.0
  0
LINE
  5
23A
330
1F
100
AcDbEntity
  8
D-0
  6
Continuous
 62
     7
370
     9
100
AcDbLine
 10
-755.7662693541396
 20
-477.5153475627451
 30
0.0
 11
-755.7662693541396
 21
-479.0156298503427
 31
0.0
  0
LINE
  5
23B
330
1F
100
AcDbEntity
  8
D-0
  6
Continuous
 62
     7
370
     9
100
AcDbLine
 10
-755.7662693541396
 20
-479.0156298503427
 30
0.0
 11
-757.2660509627211
 21
-479.0156298503427
 31
0.0
  0
LINE
  5
23C
330
1F
100
AcDbEntity
  8
D-0
  6
Continuous
 62
     7
370
     9
100
AcDbLine
 10
-893.6477963011611
 20
-539.6035319194345
 30
0.0
 11
-893.6477963011611
 21
-538.1032687053232
 31
0.0
  0
LINE
  5
23D
330
1F
100
AcDbEntity
  8
D-0
  6
Continuous
 62
     7
370
     9
100
AcDbLine
 10
-893.6477963011611
 20
-538.1032687053232
 30
0.0
 11
-892.1480099242079
 21
-538.1032687053232
 31
0.0
  0
LINE
  5
23E
330
1F
100
AcDbEntity
  8
D-0
  6
Continuous
 62
     7
370
     9
100
AcDbLine
 10
-892.1480099242079
 20
-538.1032687053232
 30
0.0
 11
-892.1480099242079
 21
-539.6035319194345
 31
0.0
  0
LINE
  5
23F
330
1F
100
AcDbEntity
  8
D-0
  6
Continuous
 62
     7
370
     9
100
AcDbLine
 10
-892.1480099242079
 20
-539.6035319194345
 30
0.0
 11
-893.6477963011611
 21
-539.6035319194345
 31
0.0
  0
LINE
  5
240
330
1F
100
AcDbEntity
  8
D-0
  6
Continuous
 62
     7
370
     9
100
AcDbLine
 10
-862.5274006407607
 20
-397.8325777873545
 30
0.0
 11
-862.5274006407607
 21
-396.3323050365
 31
0.0
  0
LINE
  5
241
330
1F
100
AcDbEntity
  8
D-0
  6
Continuous
 62
     7
370
     9
100
AcDbLine
 10
-862.5274006407607
 20
-396.3323050365
 30
0.0
 11
-861.0271231215346
 21
-396.3323050365
 31
0.0
  0
LINE
  5
242
330
1F
100
AcDbEntity
  8
D-0
  6
Continuous
 62
     7
370
     9
100
AcDbLine
 10
-861.0271231215346
 20
-396.3323050365
 30
0.0
 11
-861.0271231215346
 21
-397.8325777873545
 31
0.0
  0
LINE
  5
243
330
1F
100
AcDbEntity
  8
D-0
  6
Continuous
 62
     7
370
     9
100
AcDbLine
 10
-861.0271231215346
 20
-397.8325777873545
 30
0.0
 11
-862.5274006407607
 21
-397.8325777873545
 31
0.0
  0
LINE
  5
244
330
1F
100
AcDbEntity
  8
D-0
  6
Continuous
 62
     7
370
     9
100
AcDbLine
 10
-806.7663555722582
 20
-509.1639262065439
 30
0.0
 11
-806.7663555722582
 21
-507.6636439189463
 31
0.0
  0
LINE
  5
245
330
1F
100
AcDbEntity
  8
D-0
  6
Continuous
 62
     7
370
     9
100
AcDbLine
 10
-806.7663555722582
 20
-507.6636439189463
 30
0.0
 11
-805.2660761531341
 21
-507.6636439189463
 31
0.0
  0
LINE
  5
246
330
1F
100
AcDbEntity
  8
D-0
  6
Continuous
 62
     7
370
     9
100
AcDbLine
 10
-805.2660761531341
 20
-507.6636439189463
 30
0.0
 11
-805.2660761531341
 21
-509.1639262065439
 31
0.0
  0
LINE
  5
247
330
1F
100
AcDbEntity
  8
D-0
  6
Continuous
 62
     7
370
     9
100
AcDbLine
 10
-805.2660761531341
 20
-509.1639262065439
 30
0.0
 11
-806.7663555722582
 21
-509.1639262065439
 31
0.0
  0
LINE
  5
248
330
1F
100
AcDbEntity
  8
D-0
  6
Continuous
 62
     7
370
     9
100
AcDbLine
 10
-866.0036102812636
 20
-531.7052775249033
 30
0.0
 11
-866.0036102812636
 21
-530.2049952373056
 31
0.0
  0
LINE
  5
249
330
1F
100
AcDbEntity
  8
D-0
  6
Continuous
 62
     7
370
     9
100
AcDbLine
 10
-866.0036102812636
 20
-530.2049952373056
 30
0.0
 11
-864.5038286726821
 21
-530.2049952373056
 31
0.0
  0
LINE
  5
24A
330
1F
100
AcDbEntity
  8
D-0
  6
Continuous
 62
     7
370
     9
100
AcDbLine
 10
-864.5038286726821
 20
-530.2049952373056
 30
0.0
 11
-864.5038286726821
 21
-531.7052775249033
 31
0.0
  0
LINE
  5
24B
330
1F
100
AcDbEntity
  8
D-0
  6
Continuous
 62
     7
370
     9
100
AcDbLine
 10
-864.5038286726821
 20
-531.7052775249033
 30
0.0
 11
-866.0036102812636
 21
-531.7052775249033
 31
0.0
  0
LINE
  5
24C
330
1F
100
AcDbEntity
  8
D-0
  6
Continuous
 62
     7
370
     9
100
AcDbLine
 10
-854.1559616606581
 20
-604.7651034221201
 30
0.0
 11
-854.1559616606581
 21
-603.2648211345224
 31
0.0
  0
LINE
  5
24D
330
1F
100
AcDbEntity
  8
D-0
  6
Continuous
 62
     7
370
     9
100
AcDbLine
 10
-854.1559616606581
 20
-603.2648211345224
 30
0.0
 11
-852.6561800520766
 21
-603.2648211345224
 31
0.0
  0
LINE
  5
24E
330
1F
100
AcDbEntity
  8
D-0
  6
Continuous
 62
     7
370
     9
100
AcDbLine
 10
-852.6561800520766
 20
-603.2648211345224
 30
0.0
 11
-852.6561800520766
 21
-604.7651034221201
 31
0.0
  0
LINE
  5
24F
330
1F
100
AcDbEntity
  8
D-0
  6
Continuous
 62
     7
370
     9
100
AcDbLine
 10
-852.6561800520766
 20
-604.7651034221201
 30
0.0
 11
-854.1559616606581
 21
-604.7651034221201
 31
0.0
  0
LINE
  5
250
330
1F
100
AcDbEntity
  8
D-0
  6
Continuous
 62
     7
370
     9
100
AcDbLine
 10
-902.5335327666152
 20
-603.7776308879404
 30
0.0
 11
-902.5335327666152
 21
-602.2773486003427
 31
0.0
  0
LINE
  5
251
330
1F
100
AcDbEntity
  8
D-0
  6
Continuous
 62
     7
370
     9
100
AcDbLine
 10
-902.5335327666152
 20
-602.2773486003427
 30
0.0
 11
-901.0332504790175
 21
-602.2773486003427
 31
0.0
  0
LINE
  5
252
330
1F
100
AcDbEntity
  8
D-0
  6
Continuous
 62
     7
370
     9
100
AcDbLine
 10
-901.0332504790175
 20
-602.2773486003427
 30
0.0
 11
-901.0332504790175
 21
-603.7776308879404
 31
0.0
  0
LINE
  5
253
330
1F
100
AcDbEntity
  8
D-0
  6
Continuous
 62
     7
370
     9
100
AcDbLine
 10
-901.0332504790175
 20
-603.7776308879404
 30
0.0
 11
-902.5335327666152
 21
-603.7776308879404
 31
0.0
  0
LINE
  5
254
330
1F
100
AcDbEntity
  8
D-0
  6
Continuous
 62
     7
370
     9
100
AcDbLine
 10
-889.5804897826064
 20
-722.8833895549326
 30
0.0
 11
-889.5804897826064
 21
-721.3831072673349
 31
0.0
  0
LINE
  5
255
330
1F
100
AcDbEntity
  8
D-0
  6
Continuous
 62
     7
370
     9
100
AcDbLine
 10
-889.5804897826064
 20
-721.3831072673349
 30
0.0
 11
-888.0807129423964
 21
-721.3831072673349
 31
0.0
  0
LINE
  5
256
330
1F
100
AcDbEntity
  8
D-0
  6
Continuous
 62
     7
370
     9
100
AcDbLine
 10
-888.0807129423964
 20
-721.3831072673349
 30
0.0
 11
-888.0807129423964
 21
-722.8833895549326
 31
0.0
  0
LINE
  5
257
330
1F
100
AcDbEntity
  8
D-0
  6
Continuous
 62
     7
370
     9
100
AcDbLine
 10
-888.0807129423964
 20
-722.8833895549326
 30
0.0
 11
-889.5804897826064
 21
-722.8833895549326
 31
0.0
  0
LINE
  5
258
330
1F
100
AcDbEntity
  8
D-0
  6
Continuous
 62
     7
370
     9
100
AcDbLine
 10
-839.0545693915236
 20
-752.3910265788584
 30
0.0
 11
-839.0545693915236
 21
-750.8907442912607
 31
0.0
  0
LINE
  5
259
330
1F
100
AcDbEntity
  8
D-0
  6
Continuous
 62
     7
370
     9
100
AcDbLine
 10
-839.0545693915236
 20
-750.8907442912607
 30
0.0
 11
-837.5547853987563
 21
-750.8907442912607
 31
0.0
  0
LINE
  5
25A
330
1F
100
AcDbEntity
  8
D-0
  6
Continuous
 62
     7
370
     9
100
AcDbLine
 10
-837.5547853987563
 20
-750.8907442912607
 30
0.0
 11
-837.5547853987563
 21
-752.3910265788584
 31
0.0
  0
LINE
  5
25B
330
1F
100
AcDbEntity
  8
D-0
  6
Continuous
 62
     7
370
     9
100
AcDbLine
 10
-837.5547853987563
 20
-752.3910265788584
 30
0.0
 11
-839.0545693915236
 21
-752.3910265788584
 31
0.0
  0
LINE
  5
25C
330
1F
100
AcDbEntity
  8
D-0
  6
Continuous
 62
     7
370
     9
100
AcDbLine
 10
-802.816974012171
 20
-676.6615801677256
 30
0.0
 11
-802.816974012171
 21
-675.1613360271006
 31
0.0
  0
LINE
  5
25D
330
1F
100
AcDbEntity
  8
D-0
  6
Continuous
 62
     7
370
     9
100
AcDbLine
 10
-802.816974012171
 20
-675.1613360271006
 30
0.0
 11
-801.3166944067824
 21
-675.1613360271006
 31
0.0
  0
LINE
  5
25E
330
1F
100
AcDbEntity
  8
D-0
  6
Continuous
 62
     7
370
     9
100
AcDbLine
 10
-801.3166944067824
 20
-675.1613360271006
 30
0.0
 11
-801.3166944067824
 21
-676.6615801677256
 31
0.0
  0
LINE
  5
25F
330
1F
100
AcDbEntity
  8
D-0
  6
Continuous
 62
     7
370
     9
100
AcDbLine
 10
-801.3166944067824
 20
-676.6615801677256
 30
0.0
 11
-802.816974012171
 21
-676.6615801677256
 31
0.0
  0
LINE
  5
260
330
1F
100
AcDbEntity
  8
D-0
  6
Continuous
 62
     7
370
     9
100
AcDbLine
 10
-919.8496738951552
 20
-558.5983210429697
 30
0.0
 11
-919.8496738951552
 21
-557.098038755372
 31
0.0
  0
LINE
  5
261
330
1F
100
AcDbEntity
  8
D-0
  6
Continuous
 62
     7
370
     9
100
AcDbLine
 10
-919.8496738951552
 20
-557.098038755372
 30
0.0
 11
-918.3493916075575
 21
-557.098038755372
 31
0.0
  0
LINE
  5
262
330
1F
100
AcDbEntity
  8
D-0
  6
Continuous
 62
     7
370
     9
100
AcDbLine
 10
-918.3493916075575
 20
-557.098038755372
 30
0.0
 11
-918.3493916075575
 21
-558.5983210429697
 31
0.0
  0
LINE
  5
263
330
1F
100
AcDbEntity
  8
D-0
  6
Continuous
 62
     7
370
     9
100
AcDbLine
 10
-918.3493916075575
 20
-558.5983210429697
 30
0.0
 11
-919.8496738951552
 21
-558.5983210429697
 31
0.0
  0
LINE
  5
264
330
1F
100
AcDbEntity
  8
D-0
  6
Continuous
 62
     7
370
     9
100
AcDbLine
 10
-802.9279590528357
 20
-602.3323565349131
 30
0.0
 11
-802.9279590528357
 21
-600.8320742473154
 31
0.0
  0
LINE
  5
265
330
1F
100
AcDbEntity
  8
D-0
  6
Continuous
 62
     7
370
     9
100
AcDbLine
 10
-802.9279590528357
 20
-600.8320742473154
 30
0.0
 11
-801.4276794474471
 21
-600.8320742473154
 31
0.0
  0
LINE
  5
266
330
1F
100
AcDbEntity
  8
D-0
  6
Continuous
 62
     7
370
     9
100
AcDbLine
 10
-801.4276794474471
 20
-600.8320742473154
 30
0.0
 11
-801.4276794474471
 21
-602.3323565349131
 31
0.0
  0
LINE
  5
267
330
1F
100
AcDbEntity
  8
D-0
  6
Continuous
 62
     7
370
     9
100
AcDbLine
 10
-801.4276794474471
 20
-602.3323565349131
 30
0.0
 11
-802.9279590528357
 21
-602.3323565349131
 31
0.0
  0
LINE
  5
268
330
1F
100
AcDbEntity
  8
D-0
  6
Continuous
 62
     7
370
     9
100
AcDbLine
 10
-827.6582924406874
 20
-725.6783419475107
 30
0.0
 11
-827.6582924406874
 21
-724.1780596599131
 31
0.0
  0
LINE
  5
269
330
1F
100
AcDbEntity
  8
D-0
  6
Continuous
 62
     7
370
     9
100
AcDbLine
 10
-827.6582924406874
 20
-724.1780596599131
 30
0.0
 11
-826.1580125372756
 21
-724.1780596599131
 31
0.0
  0
LINE
  5
26A
330
1F
100
AcDbEntity
  8
D-0
  6
Continuous
 62
     7
370
     9
100
AcDbLine
 10
-826.1580125372756
 20
-724.1780596599131
 30
0.0
 11
-826.1580125372756
 21
-725.6783419475107
 31
0.0
  0
LINE
  5
26B
330
1F
100
AcDbEntity
  8
D-0
  6
Continuous
 62
     7
370
     9
100
AcDbLine
 10
-826.1580125372756
 20
-725.6783419475107
 30
0.0
 11
-827.6582924406874
 21
-725.6783419475107
 31
0.0
  0
LINE
  5
26C
330
1F
100
AcDbEntity
  8
D-0
  6
Continuous
 62
     7
370
     9
100
AcDbLine
 10
-795.8145139496672
 20
-413.2163935527353
 30
0.0
 11
-795.8145139496672
 21
-411.7161112651377
 31
0.0
  0
LINE
  5
26D
330
1F
100
AcDbEntity
  8
D-0
  6
Continuous
 62
     7
370
     9
100
AcDbLine
 10
-795.8145139496672
 20
-411.7161112651377
 30
0.0
 11
-794.3142346423018
 21
-411.7161112651377
 31
0.0
  0
LINE
  5
26E
330
1F
100
AcDbEntity
  8
D-0
  6
Continuous
 62
     7
370
     9
100
AcDbLine
 10
-794.3142346423018
 20
-411.7161112651377
 30
0.0
 11
-794.3142346423018
 21
-413.2163935527353
 31
0.0
  0
LINE
  5
26F
330
1F
100
AcDbEntity
  8
D-0
  6
Continuous
 62
     7
370
     9
100
AcDbLine
 10
-794.3142346423018
 20
-413.2163935527353
 30
0.0
 11
-795.8145139496672
 21
-413.2163935527353
 31
0.0
  0
LINE
  5
270
330
1F
100
AcDbEntity
  8
D-4
  6
Continuous
 62
     7
370
     9
100
AcDbLine
 10
-629.9771420042861
 20
-400.7271128520517
 30
0.0
 11
-629.9771420042861
 21
-463.2106715068369
 31
0.0
  0
LINE
  5
271
330
1F
100
AcDbEntity
  8
D-5
  6
Continuous
 62
     7
370
     9
100
AcDbLine
 10
-639.9776951353896
 20
-338.901074491456
 30
0.0
 11
-626.1660114806044
 21
-318.0616598948984
 31
0.0
  0
LINE
  5
272
330
1F
100
AcDbEntity
  8
D-5
  6
Continuous
 62
     7
370
     9
100
AcDbLine
 10
-639.9776951353896
 20
-338.901074491456
 30
0.0
 11
-621.2430302183974
 21
-322.346971593812
 31
0.0
  0
LINE
  5
273
330
1F
100
AcDbEntity
  8
D-5
  6
Continuous
 62
     7
370
     9
100
AcDbLine
 10
-639.9776951353896
 20
-338.901074491456
 30
0.0
 11
-518.2310978453505
 21
-199.0203314647226
 31
0.0
  0
LINE
  5
274
330
1F
100
AcDbEntity
  8
D-5
  6
Continuous
 62
     7
370
     9
100
AcDbLine
 10
-518.2310978453505
 20
-199.0203314647226
 30
0.0
 11
-131.5276257078993
 21
-199.0203314647226
 31
0.0
  0
LINE
  5
275
330
1F
100
AcDbEntity
  8
D-4
  6
Continuous
 62
     7
370
     9
100
AcDbLine
 10
-618.1503025572646
 20
-388.9012652263193
 30
0.0
 11
-528.4032551329482
 21
-388.9012652263193
 31
0.0
  0
LINE
  5
276
330
1F
100
AcDbEntity
  8
D-4
  6
Continuous
 62
     7
370
     9
100
AcDbLine
 10
-618.1503025572646
 20
-338.9010268077402
 30
0.0
 11
-528.4032551329482
 21
-338.9010268077402
 31
0.0
  0
LINE
  5
277
330
1F
100
AcDbEntity
  8
D-4
  6
Continuous
 62
     7
370
     9
100
AcDbLine
 10
-531.4038006346572
 20
-338.9010268077402
 30
0.0
 11
-531.4038006346572
 21
-253.9008837565927
 31
0.0
  0
LINE
  5
278
330
1F
100
AcDbEntity
  8
D-4
  6
Continuous
 62
     7
370
     9
100
AcDbLine
 10
-531.4038006346572
 20
-388.9012652263193
 30
0.0
 11
-531.4038006346572
 21
-338.9010268077402
 31
0.0
  0
LINE
  5
279
330
1F
100
AcDbEntity
  8
D-4
  6
Continuous
 62
     7
370
     9
100
AcDbLine
 10
-774.9775735419142
 20
-460.2101260051279
 30
0.0
 11
-929.9765602629531
 21
-460.2101260051279
 31
0.0
  0
LINE
  5
27A
330
1F
100
AcDbEntity
  8
D-9
  6
Continuous
 62
     4
370
     9
100
AcDbLine
 10
-914.977199224745
 20
-331.4015513286142
 30
0.0
 11
-799.9774424116957
 21
-331.4015513286142
 31
0.0
  0
LINE
  5
27B
330
1F
100
AcDbEntity
  8
D-1
  6
Continuous
 62
     2
370
     9
100
AcDbLine
 10
-774.9776069205153
 20
-256.900883875802
 30
0.0
 11
-774.9776069205153
 21
-281.400766931489
 31
0.0
  0
LINE
  5
27C
330
1F
100
AcDbEntity
  8
D-1
  6
Continuous
 62
     2
370
     9
100
AcDbLine
 10
-774.9776069205153
 20
-375.9005099162607
 30
0.0
 11
-774.9776069205153
 21
-351.4006262645273
 31
0.0
  0
LINE
  5
27D
330
1F
100
AcDbEntity
  8
D-1
  6
Continuous
 62
     2
370
     9
100
AcDbLine
 10
-796.9773582499373
 20
-253.9012945453726
 30
0.0
 11
-777.977072386061
 21
-253.9012945453726
 31
0.0
  0
LINE
  5
27E
330
1F
100
AcDbEntity
  8
D-1
  6
Continuous
 62
     2
370
     9
100
AcDbLine
 10
-924.9772373717177
 20
-348.9008074626474
 30
0.0
 11
-924.9772373717177
 21
-341.4009028300791
 31
0.0
  0
LINE
  5
27F
330
1F
100
AcDbEntity
  8
D-1
  6
Continuous
 62
     2
370
     9
100
AcDbLine
 10
-929.9776283781874
 20
-348.9008074626474
 30
0.0
 11
-929.9776283781874
 21
-341.4009028300791
 31
0.0
  0
LINE
  5
280
330
1F
100
AcDbEntity
  8
D-1
  6
Continuous
 62
     2
370
     9
100
AcDbLine
 10
-794.977673081671
 20
-373.9008265361338
 30
0.0
 11
-779.9773756544936
 21
-373.9008265361338
 31
0.0
  0
LINE
  5
281
330
1F
100
AcDbEntity
  8
D-1
  6
Continuous
 62
     2
370
     9
100
AcDbLine
 10
-794.9774257223952
 20
-378.9010840281992
 30
0.0
 11
-777.977072386061
 21
-378.9010840281992
 31
0.0
  0
LINE
  5
282
330
1F
100
AcDbEntity
  8
D-1
  6
Continuous
 62
     2
370
     9
100
AcDbLine
 10
-799.9774424116957
 20
-343.9005404338388
 30
0.0
 11
-799.9774424116957
 21
-256.900883875802
 31
0.0
  0
LINE
  5
283
330
1F
100
AcDbEntity
  8
D-1
  6
Continuous
 62
     2
370
     9
100
AcDbLine
 10
-799.9774424116957
 20
-343.9005404338388
 30
0.0
 11
-849.9771133940566
 21
-343.9005404338388
 31
0.0
  0
LINE
  5
284
330
1F
100
AcDbEntity
  8
D-1
  6
Continuous
 62
     2
370
     9
100
AcDbLine
 10
-924.9772373717177
 20
-353.9010649547129
 30
0.0
 11
-799.9774424116957
 21
-353.9010649547129
 31
0.0
  0
LINE
  5
285
330
1F
100
AcDbEntity
  8
D-1
  6
Continuous
 62
     2
370
     9
100
AcDbLine
 10
-799.9774424116957
 20
-373.901074491456
 30
0.0
 11
-799.9774424116957
 21
-353.9010649547129
 31
0.0
  0
LINE
  5
286
330
1F
100
AcDbEntity
  8
D-1
  6
Continuous
 62
     2
370
     9
100
AcDbLine
 10
-794.977673081671
 20
-353.9008169993906
 30
0.0
 11
-794.977673081671
 21
-373.9008265361338
 31
0.0
  0
LINE
  5
287
330
1F
100
AcDbEntity
  8
D-1
  6
Continuous
 62
     2
370
     9
100
AcDbLine
 10
-799.9776897709716
 20
-348.9008074626474
 30
0.0
 11
-924.9772373717177
 21
-348.9008074626474
 31
0.0
  0
LINE
  5
288
330
1F
100
AcDbEntity
  8
D-1
  6
Continuous
 62
     2
370
     9
100
AcDbLine
 10
-794.977673081671
 20
-343.9007883891611
 30
0.0
 11
-794.977673081671
 21
-258.9005687460451
 31
0.0
  0
LINE
  5
289
330
1F
100
AcDbEntity
  8
D-9
  6
Continuous
 62
     4
370
     9
100
AcDbLine
 10
-799.9774424116957
 20
-336.9919615611582
 30
0.0
 11
-806.886024115597
 21
-343.9005404338388
 31
0.0
  0
LINE
  5
28A
330
1F
100
AcDbEntity
  8
D-9
  6
Continuous
 62
     4
370
     9
100
AcDbLine
 10
-801.4573798458922
 20
-331.4015513286142
 30
0.0
 11
-813.9565549176085
 21
-343.9005404338388
 31
0.0
  0
LINE
  5
28B
330
1F
100
AcDbEntity
  8
D-9
  6
Continuous
 62
     4
370
     9
100
AcDbLine
 10
-808.5287151615966
 20
-331.4015513286142
 30
0.0
 11
-821.0278908293593
 21
-343.9005404338388
 31
0.0
  0
LINE
  5
28C
330
1F
100
AcDbEntity
  8
D-9
  6
Continuous
 62
     4
370
     9
100
AcDbLine
 10
-815.5995551627028
 20
-331.4015513286142
 30
0.0
 11
-828.0987302344191
 21
-343.9005404338388
 31
0.0
  0
LINE
  5
28D
330
1F
100
AcDbEntity
  8
D-9
  6
Continuous
 62
     4
370
     9
100
AcDbLine
 10
-822.6708904784072
 20
-331.4015513286142
 30
0.0
 11
-835.1700655501235
 21
-343.9005404338388
 31
0.0
  0
LINE
  5
28E
330
1F
100
AcDbEntity
  8
D-9
  6
Continuous
 62
     4
370
     9
100
AcDbLine
 10
-829.7417322676528
 20
-331.4015513286142
 30
0.0
 11
-842.241090921675
 21
-343.9005404338388
 31
0.0
  0
LINE
  5
28F
330
1F
100
AcDbEntity
  8
D-9
  6
Continuous
 62
     4
370
     9
100
AcDbLine
 10
-836.8130675833571
 20
-331.4015513286142
 30
0.0
 11
-849.3124262373793
 21
-343.9005404338388
 31
0.0
  0
LINE
  5
290
330
1F
100
AcDbEntity
  8
D-9
  6
Continuous
 62
     4
370
     9
100
AcDbLine
 10
-872.1687523405898
 20
-331.4015513286142
 30
0.0
 11
-877.1678415816176
 21
-336.4006358012705
 31
0.0
  0
LINE
  5
291
330
1F
100
AcDbEntity
  8
D-9
  6
Continuous
 62
     4
370
     9
100
AcDbLine
 10
-879.2395941298354
 20
-331.4015513286142
 30
0.0
 11
-884.2387453596938
 21
-336.4006358012705
 31
0.0
  0
LINE
  5
292
330
1F
100
AcDbEntity
  8
D-9
  6
Continuous
 62
     4
370
     9
100
AcDbLine
 10
-914.5952812712538
 20
-331.4015513286142
 30
0.0
 11
-919.5947376768935
 21
-336.4006358012705
 31
0.0
  0
LINE
  5
293
330
1F
100
AcDbEntity
  8
D-9
  6
Continuous
 62
     4
370
     9
100
AcDbLine
 10
-865.0974194090712
 20
-331.4015513286142
 30
0.0
 11
-870.0966850798476
 21
-336.4006358012705
 31
0.0
  0
LINE
  5
294
330
1F
100
AcDbEntity
  8
D-9
  6
Continuous
 62
     4
370
     9
100
AcDbLine
 10
-850.9552399199355
 20
-331.4015513286142
 30
0.0
 11
-855.9544340651381
 21
-336.4006358012705
 31
0.0
  0
LINE
  5
295
330
1F
100
AcDbEntity
  8
D-9
  6
Continuous
 62
     4
370
     9
100
AcDbLine
 10
-858.0265776198256
 20
-331.4015513286142
 30
0.0
 11
-863.0257526915419
 21
-336.4006358012705
 31
0.0
  0
LINE
  5
296
330
1F
100
AcDbEntity
  8
D-9
  6
Continuous
 62
     4
370
     9
100
AcDbLine
 10
-886.3109318297255
 20
-331.4015513286142
 30
0.0
 11
-891.3100163023818
 21
-336.4006358012705
 31
0.0
  0
LINE
  5
297
330
1F
100
AcDbEntity
  8
D-9
  6
Continuous
 62
     4
370
     9
100
AcDbLine
 10
-893.3817688505995
 20
-331.4015513286142
 30
0.0
 11
-898.3809486906874
 21
-336.4006358012705
 31
0.0
  0
LINE
  5
298
330
1F
100
AcDbEntity
  8
D-9
  6
Continuous
 62
     4
370
     9
100
AcDbLine
 10
-900.4526058714736
 20
-331.4015513286142
 30
0.0
 11
-905.451814321791
 21
-336.4006358012705
 31
0.0
  0
LINE
  5
299
330
1F
100
AcDbEntity
  8
D-9
  6
Continuous
 62
     4
370
     9
100
AcDbLine
 10
-907.5239483397353
 20
-331.4015513286142
 30
0.0
 11
-912.5232140105117
 21
-336.4006358012705
 31
0.0
  0
LINE
  5
29A
330
1F
100
AcDbEntity
  8
D-1
  6
Continuous
 62
     2
370
     9
100
AcDbLine
 10
-854.9774424116957
 20
-341.4009028300791
 30
0.0
 11
-924.9772373717177
 21
-341.4009028300791
 31
0.0
  0
LINE
  5
29B
330
1F
100
AcDbEntity
  8
D-1
  6
Continuous
 62
     2
370
     9
100
AcDbLine
 10
-854.9774424116957
 20
-343.9008074626474
 30
0.0
 11
-854.9774424116957
 21
-341.4009028300791
 31
0.0
  0
LINE
  5
29C
330
1F
100
AcDbEntity
  8
D-1
  6
Continuous
 62
     2
370
     9
100
AcDbLine
 10
-854.9774424116957
 20
-336.4006358012705
 30
0.0
 11
-924.9772373717177
 21
-336.4006358012705
 31
0.0
  0
LINE
  5
29D
330
1F
100
AcDbEntity
  8
D-1
  6
Continuous
 62
     2
370
     9
100
AcDbLine
 10
-849.9774424116957
 20
-341.4006358012705
 30
0.0
 11
-849.9774424116957
 21
-343.9005404338388
 31
0.0
  0
LINE
  5
29E
330
1F
100
AcDbEntity
  8
D-9
  6
Continuous
 62
     4
370
     9
100
AcDbLine
 10
-843.8844028990615
 20
-331.4015513286142
 30
0.0
 11
-850.9375015776503
 21
-338.4546500072031
 31
0.0
  0
LINE
  5
29F
330
1F
100
AcDbEntity
  8
D-3
  6
Continuous
 62
     3
370
     9
100
AcDbLine
 10
-791.4773897211898
 20
-258.9005687460451
 30
0.0
 11
-791.4773897211898
 21
-371.4005690440683
 31
0.0
  0
LINE
  5
2A0
330
1F
100
AcDbEntity
  8
D-3
  6
Continuous
 62
     3
370
     9
100
AcDbLine
 10
-629.9775044005263
 20
-348.900492750123
 30
0.0
 11
-629.9775044005263
 21
-388.9005022868662
 31
0.0
  0
LINE
  5
2A1
330
1F
100
AcDbEntity
  8
D-3
  6
Continuous
 62
     3
370
     9
100
AcDbLine
 10
-754.9774185698378
 20
-370.7202368602304
 30
0.0
 11
-754.9774185698378
 21
-388.9005022868662
 31
0.0
  0
LINE
  5
2A2
330
1F
100
AcDbEntity
  8
D-3
  6
Continuous
 62
     3
370
     9
100
AcDbLine
 10
-757.906362203871
 20
-363.649142347291
 30
0.0
 11
-779.9773756544936
 21
-341.57813366504
 31
0.0
  0
LINE
  5
2A3
330
1F
100
AcDbEntity
  8
D-3
  6
JWW_CENTER1
 62
     3
370
     9
100
AcDbLine
 10
-730.0389496367324
 20
-310.4004650935678
 30
0.0
 11
-798.7099317591536
 21
-310.4004650935678
 31
0.0
  0
LINE
  5
2A4
330
1F
100
AcDbEntity
  8
D-3
  6
Continuous
 62
     3
370
     9
100
AcDbLine
 10
-737.2998205702651
 20
-331.5781002864389
 30
0.0
 11
-740.4771963637221
 21
-328.4007244929819
 31
0.0
  0
LINE
  5
2A5
330
1F
100
AcDbEntity
  8
D-3
  6
Continuous
 62
     3
370
     9
100
AcDbLine
 10
-768.4778586905348
 20
-300.3999405726938
 30
0.0
 11
-779.9773756544936
 21
-288.9004212245493
 31
0.0
  0
LINE
  5
2A6
330
1F
100
AcDbEntity
  8
D-A
  6
Continuous
 62
     7
370
     9
100
AcDbLine
 10
-793.7281028311598
 20
-320.4000025615244
 30
0.0
 11
-793.7281028311598
 21
-300.3999405726938
 31
0.0
  0
LINE
  5
2A7
330
1F
100
AcDbEntity
  8
D-A
  6
Continuous
 62
     7
370
     9
100
AcDbLine
 10
-793.7281028311598
 20
-300.3999405726938
 30
0.0
 11
-794.977673081671
 21
-301.6500025615244
 31
0.0
  0
LINE
  5
2A8
330
1F
100
AcDbEntity
  8
D-A
  6
Continuous
 62
     7
370
     9
100
AcDbLine
 10
-793.7281028311598
 20
-320.4000025615244
 30
0.0
 11
-794.977673081671
 21
-319.1504317149668
 31
0.0
  0
LINE
  5
2A9
330
1F
100
AcDbEntity
  8
D-A
  6
Continuous
 62
     7
370
     9
100
AcDbLine
 10
-731.9776407759535
 20
-321.9007283076792
 30
0.0
 11
-731.9776407759535
 21
-298.9002066478281
 31
0.0
  0
LINE
  5
2AA
330
1F
100
AcDbEntity
  8
D-A
  6
Continuous
 62
     7
370
     9
100
AcDbLine
 10
-738.4776369612563
 20
-328.4007244929819
 30
0.0
 11
-744.977633146559
 21
-328.4007244929819
 31
0.0
  0
LINE
  5
2AB
330
1F
100
AcDbEntity
  8
D-A
  6
Continuous
 62
     7
370
     9
100
AcDbLine
 10
-738.4776369612563
 20
-292.4002080783396
 30
0.0
 11
-744.977633146559
 21
-292.4002080783396
 31
0.0
  0
LINE
  5
2AC
330
1F
100
AcDbEntity
  8
D-A
  6
Continuous
 62
     7
370
     9
100
AcDbLine
 10
-744.977633146559
 20
-292.4002080783396
 30
0.0
 11
-744.977633146559
 21
-328.4007244929819
 31
0.0
  0
LINE
  5
2AD
330
1F
100
AcDbEntity
  8
D-A
  6
Continuous
 62
     7
370
     9
100
AcDbLine
 10
-744.977633146559
 20
-300.3999405726938
 30
0.0
 11
-779.9773756544936
 21
-300.3999405726938
 31
0.0
  0
LINE
  5
2AE
330
1F
100
AcDbEntity
  8
D-A
  6
Continuous
 62
     7
370
     9
100
AcDbLine
 10
-744.977633146559
 20
-301.6500025615244
 30
0.0
 11
-779.9773756544936
 21
-301.6500025615244
 31
0.0
  0
LINE
  5
2AF
330
1F
100
AcDbEntity
  8
D-A
  6
Continuous
 62
     7
370
     9
100
AcDbLine
 10
-744.977633146559
 20
-319.1504317149668
 30
0.0
 11
-779.9773756544936
 21
-319.1504317149668
 31
0.0
  0
LINE
  5
2B0
330
1F
100
AcDbEntity
  8
D-A
  6
Continuous
 62
     7
370
     9
100
AcDbLine
 10
-744.977633146559
 20
-320.4000025615244
 30
0.0
 11
-779.9773756544936
 21
-320.4000025615244
 31
0.0
  0
LINE
  5
2B1
330
1F
100
AcDbEntity
  8
D-A
  6
Continuous
 62
     7
370
     9
100
AcDbLine
 10
-791.4773897211898
 20
-319.1504317149668
 30
0.0
 11
-794.977673081671
 21
-319.1504317149668
 31
0.0
  0
LINE
  5
2B2
330
1F
100
AcDbEntity
  8
D-A
  6
Continuous
 62
     7
370
     9
100
AcDbLine
 10
-791.4773897211898
 20
-320.4000025615244
 30
0.0
 11
-793.7281028311598
 21
-320.4000025615244
 31
0.0
  0
LINE
  5
2B3
330
1F
100
AcDbEntity
  8
D-A
  6
Continuous
 62
     7
370
     9
100
AcDbLine
 10
-791.4773897211898
 20
-301.6500025615244
 30
0.0
 11
-794.977673081671
 21
-301.6500025615244
 31
0.0
  0
LINE
  5
2B4
330
1F
100
AcDbEntity
  8
D-A
  6
Continuous
 62
     7
370
     9
100
AcDbLine
 10
-791.4773897211898
 20
-300.3999405726938
 30
0.0
 11
-793.7281028311598
 21
-300.3999405726938
 31
0.0
  0
LINE
  5
2B5
330
1F
100
AcDbEntity
  8
D-3
  6
JWW_DASHED2
 62
     3
370
     9
100
AcDbLine
 10
-754.9774185698378
 20
-377.4004870280771
 30
0.0
 11
-629.9775044005263
 21
-377.4004870280771
 31
0.0
  0
LINE
  5
2B6
330
1F
100
AcDbEntity
  8
D-3
  6
Continuous
 62
     3
370
     9
100
AcDbLine
 10
-639.9774090330947
 20
-338.9005881175547
 30
0.0
 11
-719.6220985930312
 21
-338.9005881175547
 31
0.0
  0
LINE
  5
2B7
330
1F
100
AcDbEntity
  8
D-3
  6
Continuous
 62
     3
370
     9
100
AcDbLine
 10
-754.9774185698378
 20
-388.9005022868662
 30
0.0
 11
-629.9775044005263
 21
-388.9005022868662
 31
0.0
  0
LINE
  5
2B8
330
1F
100
AcDbEntity
  8
D-1
  6
Continuous
 62
     2
370
     9
100
AcDbLine
 10
-794.977673081671
 20
-258.9005687460451
 30
0.0
 11
-779.9773756544936
 21
-258.9005687460451
 31
0.0
  0
LINE
  5
2B9
330
1F
100
AcDbEntity
  8
D-1
  6
Continuous
 62
     2
370
     9
100
AcDbLine
 10
-774.9776069205153
 20
-281.400766931489
 30
0.0
 11
-779.9773756544936
 21
-281.400766931489
 31
0.0
  0
LINE
  5
2BA
330
1F
100
AcDbEntity
  8
D-1
  6
Continuous
 62
     2
370
     9
100
AcDbLine
 10
-779.9773756544936
 20
-281.400766931489
 30
0.0
 11
-779.9773756544936
 21
-258.9005687460451
 31
0.0
  0
LINE
  5
2BB
330
1F
100
AcDbEntity
  8
D-3
  6
Continuous
 62
     3
370
     9
100
AcDbLine
 10
-791.4773897211898
 20
-258.9005687460451
 30
0.0
 11
-779.9773756544936
 21
-258.9005687460451
 31
0.0
  0
LINE
  5
2BC
330
1F
100
AcDbEntity
  8
D-1
  6
Continuous
 62
     2
370
     9
100
AcDbLine
 10
-774.9776069205153
 20
-351.4006262645273
 30
0.0
 11
-779.9773756544936
 21
-351.4006262645273
 31
0.0
  0
LINE
  5
2BD
330
1F
100
AcDbEntity
  8
D-1
  6
Continuous
 62
     2
370
     9
100
AcDbLine
 10
-779.9773756544936
 20
-373.9008265361338
 30
0.0
 11
-779.9773756544936
 21
-351.4006262645273
 31
0.0
  0
LINE
  5
2BE
330
1F
100
AcDbEntity
  8
D-3
  6
Continuous
 62
     3
370
     9
100
AcDbLine
 10
-791.4773897211898
 20
-371.4005690440683
 30
0.0
 11
-779.9773756544936
 21
-371.4005690440683
 31
0.0
  0
LINE
  5
2BF
330
1F
100
AcDbEntity
  8
D-3
  6
Continuous
 62
     3
370
     9
100
AcDbLine
 10
-779.9773756544936
 20
-258.9005687460451
 30
0.0
 11
-779.9773756544936
 21
-371.4005690440683
 31
0.0
  0
LINE
  5
2C0
330
1F
100
AcDbEntity
  8
D-6
  6
Continuous
 62
     6
370
     9
100
AcDbLine
 10
-777.977072386061
 20
-253.9008837565927
 30
0.0
 11
-364.9756924193251
 21
-253.9008837565927
 31
0.0
  0
LINE
  5
2C1
330
1F
100
AcDbEntity
  8
D-6
  6
Continuous
 62
     6
370
     9
100
AcDbLine
 10
-929.9765602629531
 20
-348.9008074626474
 30
0.0
 11
-929.9765602629531
 21
-753.9002352580576
 31
0.0
  0
LINE
  5
2C2
330
1F
100
AcDbEntity
  8
D-4
  6
Continuous
 62
     7
370
     9
100
AcDbLine
 10
-846.8314377348769
 20
-378.900721631959
 30
0.0
 11
-1078.459636358534
 21
-378.900721631959
 31
0.0
  0
LINE
  5
2C3
330
1F
100
AcDbEntity
  8
D-5
  6
Continuous
 62
     7
370
     9
100
AcDbLine
 10
-805.4602998997915
 20
-392.6777201518564
 30
0.0
 11
-870.5087915938246
 21
-336.0607176646738
 31
0.0
  0
LINE
  5
2C4
330
1F
100
AcDbEntity
  8
D-5
  6
Continuous
 62
     7
370
     9
100
AcDbLine
 10
-870.5087915938246
 20
-336.0607176646738
 30
0.0
 11
-853.9551798384535
 21
-354.7948866710215
 31
0.0
  0
LINE
  5
2C5
330
1F
100
AcDbEntity
  8
D-5
  6
Continuous
 62
     7
370
     9
100
AcDbLine
 10
-870.5087915938246
 20
-336.0607176646738
 30
0.0
 11
-849.6703688185561
 21
-349.8724108562021
 31
0.0
  0
ARC
  5
2C6
330
1F
100
AcDbEntity
  8
D-9
  6
Continuous
 62
     4
370
     9
100
AcDbCircle
 10
-914.977199224745
 20
-336.4008265361338
 30
0.0
 40
5.0
100
AcDbArc
 50
90.0
 51
180.0
  0
ARC
  5
2C7
330
1F
100
AcDbEntity
  8
D-1
  6
Continuous
 62
     2
370
     9
100
AcDbCircle
 10
-924.9772373717177
 20
-341.4009028300791
 30
0.0
 40
5.0
100
AcDbArc
 50
90.0
 51
180.0
  0
ARC
  5
2C8
330
1F
100
AcDbEntity
  8
D-1
  6
Continuous
 62
     2
370
     9
100
AcDbCircle
 10
-777.977072386061
 20
-256.900883875802
 30
0.0
 40
3.00000011920929
100
AcDbArc
 50
0.0
 51
90.0
  0
ARC
  5
2C9
330
1F
100
AcDbEntity
  8
D-1
  6
Continuous
 62
     2
370
     9
100
AcDbCircle
 10
-796.9773582499373
 20
-256.900883875802
 30
0.0
 40
3.00000011920929
100
AcDbArc
 50
90.0
 51
180.0
  0
ARC
  5
2CA
330
1F
100
AcDbEntity
  8
D-1
  6
Continuous
 62
     2
370
     9
100
AcDbCircle
 10
-777.977072386061
 20
-375.9005099162607
 30
0.0
 40
3.00000011920929
100
AcDbArc
 50
270.0
 51
0.0
  0
ARC
  5
2CB
330
1F
100
AcDbEntity
  8
D-1
  6
Continuous
 62
     2
370
     9
100
AcDbCircle
 10
-924.9772373717177
 20
-348.9008074626474
 30
0.0
 40
5.0
100
AcDbArc
 50
180.0
 51
270.0
  0
ARC
  5
2CC
330
1F
100
AcDbEntity
  8
D-1
  6
Continuous
 62
     2
370
     9
100
AcDbCircle
 10
-794.9774257223952
 20
-373.901074491456
 30
0.0
 40
5.0
100
AcDbArc
 50
180.0
 51
270.0
  0
ARC
  5
2CD
330
1F
100
AcDbEntity
  8
D-1
  6
Continuous
 62
     2
370
     9
100
AcDbCircle
 10
-799.9776897709716
 20
-353.9008169993906
 30
0.0
 40
5.0
100
AcDbArc
 50
0.0
 51
90.0
  0
ARC
  5
2CE
330
1F
100
AcDbEntity
  8
D-1
  6
Continuous
 62
     2
370
     9
100
AcDbCircle
 10
-799.9776897709716
 20
-343.9007883891611
 30
0.0
 40
5.0
100
AcDbArc
 50
270.0
 51
0.0
  0
ARC
  5
2CF
330
1F
100
AcDbEntity
  8
D-1
  6
Continuous
 62
     2
370
     9
100
AcDbCircle
 10
-849.9774424116957
 20
-343.9008074626474
 30
0.0
 40
5.0
100
AcDbArc
 50
180.0
 51
270.0
  0
ARC
  5
2D0
330
1F
100
AcDbEntity
  8
D-1
  6
Continuous
 62
     2
370
     9
100
AcDbCircle
 10
-854.9774424116957
 20
-341.4006358012705
 30
0.0
 40
5.0
100
AcDbArc
 50
0.0
 51
90.0
  0
ARC
  5
2D1
330
1F
100
AcDbEntity
  8
D-3
  6
Continuous
 62
     3
370
     9
100
AcDbCircle
 10
-719.6220985930312
 20
-313.9005022868662
 30
0.0
 40
25.0
100
AcDbArc
 50
225.0
 51
270.0
  0
ARC
  5
2D2
330
1F
100
AcDbEntity
  8
D-3
  6
Continuous
 62
     3
370
     9
100
AcDbCircle
 10
-639.9774090330947
 20
-348.900492750123
 30
0.0
 40
10.0
100
AcDbArc
 50
0.0
 51
90.0
  0
ARC
  5
2D3
330
1F
100
AcDbEntity
  8
D-3
  6
Continuous
 62
     3
370
     9
100
AcDbCircle
 10
-764.9774495642531
 20
-370.7202368602304
 30
0.0
 40
10.0
100
AcDbArc
 50
0.0
 51
45.000244140625
  0
ARC
  5
2D4
330
1F
100
AcDbEntity
  8
D-A
  6
Continuous
 62
     7
370
     9
100
AcDbCircle
 10
-738.4776369612563
 20
-298.9002066478281
 30
0.0
 40
6.499999761581421
100
AcDbArc
 50
0.0
 51
90.0
  0
ARC
  5
2D5
330
1F
100
AcDbEntity
  8
D-A
  6
Continuous
 62
     7
370
     9
100
AcDbCircle
 10
-738.4776369612563
 20
-321.9007283076792
 30
0.0
 40
6.499999761581421
100
AcDbArc
 50
270.0
 51
0.0
  0
LWPOLYLINE
  5
2D6
330
1F
100
AcDbEntity
  8
D-4
  6
Continuous
 62
     7
370
     9
100
AcDbPolyline
 90
        4
 70
     1
 43
1.0
 10
-774.4775735419142
 20
86.46635714916897
 42
0.4142135623731
 10
-774.9775735419142
 20
86.96635714916897
 42
0.4142135623731
 10
-775.4775735419141
 20
86.46635714916897
 42
0.4142135623731
 10
-774.9775735419142
 20
85.96635714916897
 42
0.4142135623731
  0
LWPOLYLINE
  5
2D7
330
1F
100
AcDbEntity
  8
D-4
  6
Continuous
 62
     7
370
     9
100
AcDbPolyline
 90
        4
 70
     1
 43
1.0
 10
-929.4765602629531
 20
-132.9817324504404
 42
0.4142135623731
 10
-929.9765602629531
 20
-132.4817324504404
 42
0.4142135623731
 10
-930.476560262953
 20
-132.9817324504404
 42
0.4142135623731
 10
-929.9765602629531
 20
-133.4817324504404
 42
0.4142135623731
  0
LWPOLYLINE
  5
2D8
330
1F
100
AcDbEntity
  8
D-4
  6
Continuous
 62
     7
370
     9
100
AcDbPolyline
 90
        4
 70
     1
 43
1.0
 10
-804.4767223875868
 20
-132.9817324504404
 42
0.4142135623731
 10
-804.9767223875868
 20
-132.4817324504404
 42
0.4142135623731
 10
-805.4767223875867
 20
-132.9817324504404
 42
0.4142135623731
 10
-804.9767223875868
 20
-133.4817324504404
 42
0.4142135623731
  0
LWPOLYLINE
  5
2D9
330
1F
100
AcDbEntity
  8
D-4
  6
Continuous
 62
     7
370
     9
100
AcDbPolyline
 90
        4
 70
     1
 43
1.0
 10
-804.4767223875868
 20
-24.22931011767673
 42
0.4142135623731
 10
-804.9767223875868
 20
-23.72931011767673
 42
0.4142135623731
 10
-805.4767223875867
 20
-24.22931011767673
 42
0.4142135623731
 10
-804.9767223875868
 20
-24.72931011767673
 42
0.4142135623731
  0
LWPOLYLINE
  5
2DA
330
1F
100
AcDbEntity
  8
D-4
  6
Continuous
 62
     7
370
     9
100
AcDbPolyline
 90
        4
 70
     1
 43
1.0
 10
-799.4764517824996
 20
-24.22931011767673
 42
0.4142135623731
 10
-799.9764517824996
 20
-23.72931011767673
 42
0.4142135623731
 10
-800.4764517824995
 20
-24.22931011767673
 42
0.4142135623731
 10
-799.9764517824996
 20
-24.72931011767673
 42
0.4142135623731
  0
LWPOLYLINE
  5
2DB
330
1F
100
AcDbEntity
  8
D-4
  6
Continuous
 62
     7
370
     9
100
AcDbPolyline
 90
        4
 70
     1
 43
1.0
 10
-774.4775735419142
 20
-24.22931011767673
 42
0.4142135623731
 10
-774.9775735419142
 20
-23.72931011767673
 42
0.4142135623731
 10
-775.4775735419141
 20
-24.22931011767673
 42
0.4142135623731
 10
-774.9775735419142
 20
-24.72931011767673
 42
0.4142135623731
  0
LWPOLYLINE
  5
2DC
330
1F
100
AcDbEntity
  8
D-4
  6
Continuous
 62
     7
370
     9
100
AcDbPolyline
 90
        4
 70
     1
 43
1.0
 10
-1074.959071783339
 20
-378.900721631959
 42
0.4142135623731
 10
-1075.459071783339
 20
-378.400721631959
 42
0.4142135623731
 10
-1075.959071783339
 20
-378.900721631959
 42
0.4142135623731
 10
-1075.459071783339
 20
-379.400721631959
 42
0.4142135623731
  0
LWPOLYLINE
  5
2DD
330
1F
100
AcDbEntity
  8
D-4
  6
Continuous
 62
     7
370
     9
100
AcDbPolyline
 90
        4
 70
     1
 43
1.0
 10
-1074.959071783339
 20
-253.9008837565927
 42
0.4142135623731
 10
-1075.459071783339
 20
-253.4008837565927
 42
0.4142135623731
 10
-1075.959071783339
 20
-253.9008837565927
 42
0.4142135623731
 10
-1075.459071783339
 20
-254.4008837565927
 42
0.4142135623731
  0
LWPOLYLINE
  5
2DE
330
1F
100
AcDbEntity
  8
D-4
  6
Continuous
 62
     7
370
     9
100
AcDbPolyline
 90
        4
 70
     1
 43
1.0
 10
-774.4775735419142
 20
-460.2101260051279
 42
0.4142135623731
 10
-774.9775735419142
 20
-459.7101260051279
 42
0.4142135623731
 10
-775.4775735419141
 20
-460.2101260051279
 42
0.4142135623731
 10
-774.9775735419142
 20
-460.7101260051279
 42
0.4142135623731
  0
LWPOLYLINE
  5
2DF
330
1F
100
AcDbEntity
  8
D-4
  6
Continuous
 62
     7
370
     9
100
AcDbPolyline
 90
        4
 70
     1
 43
1.0
 10
-629.4771420042861
 20
-460.2101260051279
 42
0.4142135623731
 10
-629.9771420042861
 20
-459.7101260051279
 42
0.4142135623731
 10
-630.477142004286
 20
-460.2101260051279
 42
0.4142135623731
 10
-629.9771420042861
 20
-460.7101260051279
 42
0.4142135623731
  0
LWPOLYLINE
  5
2E0
330
1F
100
AcDbEntity
  8
D-4
  6
Continuous
 62
     7
370
     9
100
AcDbPolyline
 90
        4
 70
     1
 43
1.0
 10
-929.4765602629531
 20
-659.5193606242685
 42
0.4142135623731
 10
-929.9765602629531
 20
-659.0193606242685
 42
0.4142135623731
 10
-930.476560262953
 20
-659.5193606242685
 42
0.4142135623731
 10
-929.9765602629531
 20
-660.0193606242685
 42
0.4142135623731
  0
LWPOLYLINE
  5
2E1
330
1F
100
AcDbEntity
  8
D-4
  6
Continuous
 62
     7
370
     9
100
AcDbPolyline
 90
        4
 70
     1
 43
1.0
 10
-779.4773494284499
 20
-659.5193606242685
 42
0.4142135623731
 10
-779.9773494284499
 20
-659.0193606242685
 42
0.4142135623731
 10
-780.4773494284498
 20
-659.5193606242685
 42
0.4142135623731
 10
-779.9773494284499
 20
-660.0193606242685
 42
0.4142135623731
  0
LWPOLYLINE
  5
2E2
330
1F
100
AcDbEntity
  8
D-4
  6
Continuous
 62
     7
370
     9
100
AcDbPolyline
 90
        4
 70
     1
 43
1.0
 10
-929.4765602629531
 20
-813.9837389812021
 42
0.4142135623731
 10
-929.9765602629531
 20
-813.4837389812021
 42
0.4142135623731
 10
-930.476560262953
 20
-813.9837389812021
 42
0.4142135623731
 10
-929.9765602629531
 20
-814.4837389812021
 42
0.4142135623731
  0
LWPOLYLINE
  5
2E3
330
1F
100
AcDbEntity
  8
D-4
  6
Continuous
 62
     7
370
     9
100
AcDbPolyline
 90
        4
 70
     1
 43
1.0
 10
-529.4756924193251
 20
-813.9837389812021
 42
0.4142135623731
 10
-529.9756924193251
 20
-813.4837389812021
 42
0.4142135623731
 10
-530.475692419325
 20
-813.9837389812021
 42
0.4142135623731
 10
-529.9756924193251
 20
-814.4837389812021
 42
0.4142135623731
  0
LWPOLYLINE
  5
2E4
330
1F
100
AcDbEntity
  8
D-4
  6
Continuous
 62
     7
370
     9
100
AcDbPolyline
 90
        4
 70
     1
 43
1.0
 10
-257.791350988661
 20
-253.9008837565927
 42
0.4142135623731
 10
-258.2913509886611
 20
-253.4008837565927
 42
0.4142135623731
 10
-258.7913509886611
 20
-253.9008837565927
 42
0.4142135623731
 10
-258.2913509886611
 20
-254.4008837565927
 42
0.4142135623731
  0
LWPOLYLINE
  5
2E5
330
1F
100
AcDbEntity
  8
D-4
  6
Continuous
 62
     7
370
     9
100
AcDbPolyline
 90
        4
 70
     1
 43
1.0
 10
-257.791350988661
 20
-503.9005595073252
 42
0.4142135623731
 10
-258.2913509886611
 20
-503.4005595073252
 42
0.4142135623731
 10
-258.7913509886611
 20
-503.9005595073252
 42
0.4142135623731
 10
-258.2913509886611
 20
-504.4005595073252
 42
0.4142135623731
  0
LWPOLYLINE
  5
2E6
330
1F
100
AcDbEntity
  8
D-4
  6
Continuous
 62
     7
370
     9
100
AcDbPolyline
 90
        4
 70
     1
 43
1.0
 10
-530.9038006346572
 20
-253.9008837565927
 42
0.4142135623731
 10
-531.4038006346572
 20
-253.4008837565927
 42
0.4142135623731
 10
-531.903800634657
 20
-253.9008837565927
 42
0.4142135623731
 10
-531.4038006346572
 20
-254.4008837565927
 42
0.4142135623731
  0
LWPOLYLINE
  5
2E7
330
1F
100
AcDbEntity
  8
D-4
  6
Continuous
 62
     7
370
     9
100
AcDbPolyline
 90
        4
 70
     1
 43
1.0
 10
-530.9038006346572
 20
-338.9010268077402
 42
0.4142135623731
 10
-531.4038006346572
 20
-338.4010268077402
 42
0.4142135623731
 10
-531.903800634657
 20
-338.9010268077402
 42
0.4142135623731
 10
-531.4038006346572
 20
-339.4010268077402
 42
0.4142135623731
  0
LWPOLYLINE
  5
2E8
330
1F
100
AcDbEntity
  8
D-4
  6
Continuous
 62
     7
370
     9
100
AcDbPolyline
 90
        4
 70
     1
 43
1.0
 10
-530.9038006346572
 20
-388.9012652263193
 42
0.4142135623731
 10
-531.4038006346572
 20
-388.4012652263193
 42
0.4142135623731
 10
-531.903800634657
 20
-388.9012652263193
 42
0.4142135623731
 10
-531.4038006346572
 20
-389.4012652263193
 42
0.4142135623731
  0
LWPOLYLINE
  5
2E9
330
1F
100
AcDbEntity
  8
D-4
  6
Continuous
 62
     7
370
     9
100
AcDbPolyline
 90
        4
 70
     1
 43
1.0
 10
-774.4775735419142
 20
-460.2101260051279
 42
0.4142135623731
 10
-774.9775735419142
 20
-459.7101260051279
 42
0.4142135623731
 10
-775.4775735419141
 20
-460.2101260051279
 42
0.4142135623731
 10
-774.9775735419142
 20
-460.7101260051279
 42
0.4142135623731
  0
LWPOLYLINE
  5
2EA
330
1F
100
AcDbEntity
  8
D-4
  6
Continuous
 62
     7
370
     9
100
AcDbPolyline
 90
        4
 70
     1
 43
1.0
 10
-929.4765602629531
 20
-460.2101260051279
 42
0.4142135623731
 10
-929.9765602629531
 20
-459.7101260051279
 42
0.4142135623731
 10
-930.476560262953
 20
-460.2101260051279
 42
0.4142135623731
 10
-929.9765602629531
 20
-460.7101260051279
 42
0.4142135623731
  0
TEXT
  5
2EB
330
1F
100
AcDbEntity
  8
D-4
  6
Continuous
 62
     2
370
     9
100
AcDbText
 10
-837.921432642256
 20
-13.5900349101572
 30
0.0
 40
30.48
  1
1
 41
0.9999999999999998
  7
ＭＳ ゴシック
100
AcDbText
  0
TEXT
  5
2EC
330
1F
100
AcDbEntity
  8
D-4
  6
Continuous
 62
     2
370
     9
100
AcDbText
 10
-888.7258068602431
 20
-122.3414558848886
 30
0.0
 40
30.48
  1
25
 41
1.0625
  7
ＭＳ ゴシック
100
AcDbText
  0
TEXT
  5
2ED
330
1F
100
AcDbEntity
  8
D-4
  6
Continuous
 62
     2
370
     9
100
AcDbText
 10
-921.2265793364394
 20
-648.880085416749
 30
0.0
 40
30.48
  1
25～30
 41
1.104166666666667
  7
ＭＳ ゴシック
100
AcDbText
  0
TEXT
  5
2EE
330
1F
100
AcDbEntity
  8
D-4
  6
Continuous
 62
     2
370
     9
100
AcDbText
 10
-797.8449238728965
 20
-803.343471952433
 30
0.0
 40
30.48
  1
75～80
 50
359.9997855578312
 41
1.104166666666666
  7
ＭＳ ゴシック
100
AcDbText
  0
TEXT
  5
2EF
330
1F
100
AcDbEntity
  8
D-4
  6
Continuous
 62
     2
370
     9
100
AcDbText
 10
-268.9306261961806
 20
-445.1508458561523
 30
0.0
 40
30.48
  1
40～50
 50
90.00000250447816
 41
1.104166666666667
  7
ＭＳ ゴシック
100
AcDbText
  0
TEXT
  5
2F0
330
1F
100
AcDbEntity
  8
D-4
  6
Continuous
 62
     2
370
     9
100
AcDbText
 10
-739.3935686696494
 20
-449.570831724506
 30
0.0
 40
30.48
  1
29
 50
0.0006685549992706
 41
1.062500000000002
  7
ＭＳ ゴシック
100
AcDbText
  0
TEXT
  5
2F1
330
1F
100
AcDbEntity
  8
D-4
  6
Continuous
 62
     2
370
     9
100
AcDbText
 10
-766.0640923064101
 20
-13.5900349101572
 30
0.0
 40
30.48
  1
5
 41
0.9999999999999998
  7
ＭＳ ゴシック
100
AcDbText
  0
TEXT
  5
2F2
330
1F
100
AcDbEntity
  8
D-5
  6
Continuous
 62
     2
370
     9
100
AcDbText
 10
-1229.47059098886
 20
-931.7033428630386
 30
0.0
 40
30.48
  1
断面詳細図　Ｓ＝１：２
 50
0.0000267631904831
 41
1.113636363636364
  7
ＭＳ ゴシック
100
AcDbText
  0
TEXT
  5
2F3
330
1F
100
AcDbEntity
  8
D-5
  6
Continuous
 62
     2
370
     9
100
AcDbText
 10
131.4969000243255
 20
-825.9440273723175
 30
0.0
 40
30.48
  1
定尺：３０００
 50
359.9999506463765
 41
1.107142857142857
  7
ＭＳ ゴシック
100
AcDbText
  0
TEXT
  5
2F4
330
1F
100
AcDbEntity
  8
D-5
  6
Continuous
 62
     2
370
     9
100
AcDbText
 10
71.78498110362412
 20
-695.9436840495615
 30
0.0
 40
30.48
  1
ステンレス製受枠　ＳＦ１５Ｂ
 41
1.116071428571428
  7
ＭＳ ゴシック
100
AcDbText
  0
TEXT
  5
2F5
330
1F
100
AcDbEntity
  8
D-5
  6
Continuous
 62
     7
370
     9
100
AcDbText
 10
-581.0000530760634
 20
-138.1002298411875
 30
0.0
 40
22.86
  1
塩ビクッション
 41
1.142857142857143
  7
ＭＳ ゴシック
100
AcDbText
  0
TEXT
  5
2F6
330
1F
100
AcDbEntity
  8
D-5
  6
Continuous
 62
     7
370
     9
100
AcDbText
 10
-640.4880253355849
 20
-82.00128231616306
 30
0.0
 40
22.86
  1
ステンレス製受枠ＳＦ１５Ｂ
 41
1.153846153846154
  7
ＭＳ ゴシック
100
AcDbText
  0
TEXT
  5
2F7
330
1F
100
AcDbEntity
  8
D-5
  6
Continuous
 62
     2
370
     9
100
AcDbText
 10
131.496895166124
 20
-760.9432262858896
 30
0.0
 40
30.48
  1
材質：冷間圧延ステンレス鋼板（ＳＵＳ３０４－２Ｂ）
 41
1.12
  7
ＭＳ ゴシック
100
AcDbText
  0
TEXT
  5
2F8
330
1F
100
AcDbEntity
  8
D-5
  6
Continuous
 62
     7
370
     9
100
AcDbText
 10
-517.7891460936415
 20
-187.3265901622324
 30
0.0
 40
22.86
  1
溶接用アンカー＠５００
 41
1.151515151515152
  7
ＭＳ ゴシック
100
AcDbText
  0
TEXT
  5
2F9
330
1F
100
AcDbEntity
  8
D-5
  6
Continuous
 62
     7
370
     9
100
AcDbText
 10
-517.7891460936415
 20
-228.5500875529795
 30
0.0
 40
22.86
  1
ｔ＝２．３（ＳＰＨＣ）
 41
1.151515151515152
  7
ＭＳ ゴシック
100
AcDbText
  0
TEXT
  5
2FA
330
1F
100
AcDbEntity
  8
D-4
  6
Continuous
 62
     2
370
     9
100
AcDbText
 10
-542.0440867369521
 20
-385.1505597538574
 30
0.0
 40
30.48
  1
10
 50
90.00000250447819
 41
1.062500000000001
  7
ＭＳ ゴシック
100
AcDbText
  0
TEXT
  5
2FB
330
1F
100
AcDbEntity
  8
D-4
  6
Continuous
 62
     2
370
     9
100
AcDbText
 10
-542.0440867369521
 20
-317.6508696980102
 30
0.0
 40
30.48
  1
17
 50
90.00000250447819
 41
1.062500000000001
  7
ＭＳ ゴシック
100
AcDbText
  0
TEXT
  5
2FC
330
1F
100
AcDbEntity
  8
D-4
  6
Continuous
 62
     2
370
     9
100
AcDbText
 10
-873.7270657103408
 20
-448.5701221904307
 30
0.0
 40
30.48
  1
31
 41
1.0625
  7
ＭＳ ゴシック
100
AcDbText
  0
LINE
  5
2FD
330
1F
100
AcDbEntity
  8
D-2
  6
Continuous
 62
     3
370
     9
100
AcDbLine
 10
-824.9768153708327
 20
-258.9006590470819
 30
0.0
 11
-824.9768153708327
 21
-288.9007979259043
 31
0.0
  0
LINE
  5
2FE
330
1F
100
AcDbEntity
  8
D-2
  6
Continuous
 62
     3
370
     9
100
AcDbLine
 10
-809.9769929926741
 20
-258.9006590470819
 30
0.0
 11
-824.9768153708327
 21
-258.9006590470819
 31
0.0
  0
LINE
  5
2FF
330
1F
100
AcDbEntity
  8
D-2
  6
Continuous
 62
     3
370
     9
100
AcDbLine
 10
-809.9769929926741
 20
-326.4008456096201
 30
0.0
 11
-809.9769929926741
 21
-258.9006590470819
 31
0.0
  0
LINE
  5
300
330
1F
100
AcDbEntity
  8
D-2
  6
Continuous
 62
     3
370
     9
100
AcDbLine
 10
-824.9768153708327
 20
-326.4008456096201
 30
0.0
 11
-809.9769929926741
 21
-326.4008456096201
 31
0.0
  0
LINE
  5
301
330
1F
100
AcDbEntity
  8
D-2
  6
Continuous
 62
     3
370
     9
100
AcDbLine
 10
-824.9768153708327
 20
-311.4010268077402
 30
0.0
 11
-824.9768153708327
 21
-326.4008456096201
 31
0.0
  0
LINE
  5
302
330
1F
100
AcDbEntity
  8
D-2
  6
Continuous
 62
     3
370
     9
100
AcDbLine
 10
-829.9770847838271
 20
-311.4010268077402
 30
0.0
 11
-824.9768153708327
 21
-311.4010268077402
 31
0.0
  0
LINE
  5
303
330
1F
100
AcDbEntity
  8
D-2
  6
Continuous
 62
     3
370
     9
100
AcDbLine
 10
-829.9770847838271
 20
-327.9006319865732
 30
0.0
 11
-829.9770847838271
 21
-311.4010268077402
 31
0.0
  0
LINE
  5
304
330
1F
100
AcDbEntity
  8
D-2
  6
Continuous
 62
     3
370
     9
100
AcDbLine
 10
-832.4772206824172
 20
-288.9007979259043
 30
0.0
 11
-899.9769131224501
 21
-288.9007979259043
 31
0.0
  0
LINE
  5
305
330
1F
100
AcDbEntity
  8
D-2
  6
Continuous
 62
     3
370
     9
100
AcDbLine
 10
-808.476961640631
 20
-253.9008837565927
 30
0.0
 11
-826.4768473189223
 21
-253.9008837565927
 31
0.0
  0
LINE
  5
306
330
1F
100
AcDbEntity
  8
D-5
  6
Continuous
 62
     7
370
     9
100
AcDbLine
 10
-619.4568554442275
 20
25.82691852001858
 30
0.0
 11
-201.5745464842665
 21
25.82691852001858
 31
0.0
  0
LINE
  5
307
330
1F
100
AcDbEntity
  8
D-2
  6
Continuous
 62
     3
370
     9
100
AcDbLine
 10
-1502.645332006727
 20
-409.144633375123
 30
0.0
 11
-1502.645332006727
 21
-185.2021580562143
 31
0.0
  0
LINE
  5
308
330
1F
100
AcDbEntity
  8
D-4
  6
Continuous
 62
     7
370
     9
100
AcDbLine
 10
-1548.484107641493
 20
-331.4006214961557
 30
0.0
 11
-1548.484107641493
 21
-253.9008837565927
 31
0.0
  0
LINE
  5
309
330
1F
100
AcDbEntity
  8
D-4
  6
Continuous
 62
     7
370
     9
100
AcDbLine
 10
-1512.351295141493
 20
-331.4006214961557
 30
0.0
 11
-1551.484138159071
 21
-331.4006214961557
 31
0.0
  0
LINE
  5
30A
330
1F
100
AcDbEntity
  8
D-4
  6
Continuous
 62
     7
370
     9
100
AcDbLine
 10
-1512.351295141493
 20
-253.9008837565927
 30
0.0
 11
-1551.484138159071
 21
-253.9008837565927
 31
0.0
  0
LINE
  5
30B
330
1F
100
AcDbEntity
  8
D-2
  6
Continuous
 62
     3
370
     9
100
AcDbLine
 10
-808.476961640631
 20
-331.4011174068003
 30
0.0
 11
-1502.645332006727
 21
-331.4011174068003
 31
0.0
  0
LINE
  5
30C
330
1F
100
AcDbEntity
  8
D-5
  6
Continuous
 62
     7
370
     9
100
AcDbLine
 10
-619.4568554442275
 20
-27.65498455615329
 30
0.0
 11
-201.5745464842665
 21
-27.65498455615329
 31
0.0
  0
LINE
  5
30D
330
1F
100
AcDbEntity
  8
D-2
  6
Continuous
 62
     3
370
     9
100
AcDbLine
 10
-1502.645332006727
 20
-293.9010697230844
 30
0.0
 11
-829.9770847838271
 21
-293.9010697230844
 31
0.0
  0
LINE
  5
30E
330
1F
100
AcDbEntity
  8
D-5
  6
Continuous
 62
     2
370
     9
100
AcDbLine
 10
195.1426013428819
 20
-303.9006214961557
 30
0.0
 11
-29.85747495106338
 21
-303.9006214961557
 31
0.0
  0
LINE
  5
30F
330
1F
100
AcDbEntity
  8
D-5
  6
Continuous
 62
     2
370
     9
100
AcDbLine
 10
195.1426013428819
 20
-253.9008837565927
 30
0.0
 11
195.1426013428819
 21
-303.9006214961557
 31
0.0
  0
LINE
  5
310
330
1F
100
AcDbEntity
  8
D-5
  6
Continuous
 62
     2
370
     9
100
AcDbLine
 10
-29.85747495106338
 20
-253.9008837565927
 30
0.0
 11
195.1426013428819
 21
-253.9008837565927
 31
0.0
  0
LINE
  5
311
330
1F
100
AcDbEntity
  8
D-5
  6
Continuous
 62
     2
370
     9
100
AcDbLine
 10
-29.85747495106338
 20
-303.9006214961557
 30
0.0
 11
-29.85747495106338
 21
-253.9008837565927
 31
0.0
  0
LINE
  5
312
330
1F
100
AcDbEntity
  8
D-5
  6
Continuous
 62
     7
370
     9
100
AcDbLine
 10
-1492.510749487196
 20
-500.0007181987314
 30
0.0
 11
-1339.054671911513
 21
-282.5677162036447
 31
0.0
  0
LINE
  5
313
330
1F
100
AcDbEntity
  8
D-5
  6
Continuous
 62
     7
370
     9
100
AcDbLine
 10
-1492.510749487196
 20
-500.0007181987314
 30
0.0
 11
-1117.252856878554
 21
-500.0007181987314
 31
0.0
  0
LINE
  5
314
330
1F
100
AcDbEntity
  8
D-5
  6
Continuous
 62
     7
370
     9
100
AcDbLine
 10
-1339.054671911513
 20
-282.5677162036447
 30
0.0
 11
-1350.681068090712
 21
-304.6998101100473
 31
0.0
  0
LINE
  5
315
330
1F
100
AcDbEntity
  8
D-5
  6
Continuous
 62
     7
370
     9
100
AcDbLine
 10
-1339.054671911513
 20
-282.5677162036447
 30
0.0
 11
-1356.012832311903
 21
-300.9367256984262
 31
0.0
  0
LINE
  5
316
330
1F
100
AcDbEntity
  8
D-5
  6
Continuous
 62
     7
370
     9
100
AcDbLine
 10
-814.8107866328108
 20
-253.9008837565927
 30
0.0
 11
-801.0823378842223
 21
-233.0079561099558
 31
0.0
  0
LINE
  5
317
330
1F
100
AcDbEntity
  8
D-5
  6
Continuous
 62
     7
370
     9
100
AcDbLine
 10
-814.8107866328108
 20
-253.9008837565927
 30
0.0
 11
-796.1425141375411
 21
-237.2729521617441
 31
0.0
  0
LINE
  5
318
330
1F
100
AcDbEntity
  8
D-5
  6
Continuous
 62
     7
370
     9
100
AcDbLine
 10
-619.4568554442275
 20
-27.65498455615329
 30
0.0
 11
-814.8107866328108
 21
-253.9008837565927
 31
0.0
  0
LINE
  5
319
330
1F
100
AcDbEntity
  8
D-5
  6
Continuous
 62
     7
370
     9
100
AcDbLine
 10
-867.47664132527
 20
-261.4126860723047
 30
0.0
 11
-853.7474457304824
 21
-240.5197590217142
 31
0.0
  0
LINE
  5
31A
330
1F
100
AcDbEntity
  8
D-5
  6
Continuous
 62
     7
370
     9
100
AcDbLine
 10
-867.47664132527
 20
-261.4126860723047
 30
0.0
 11
-848.8078705351699
 21
-244.7847538814096
 31
0.0
  0
LINE
  5
31B
330
1F
100
AcDbEntity
  8
D-5
  6
Continuous
 62
     7
370
     9
100
AcDbLine
 10
-619.4568554442275
 20
25.82691852001858
 30
0.0
 11
-867.47664132527
 21
-261.4126860723047
 31
0.0
  0
LINE
  5
31C
330
1F
100
AcDbEntity
  8
D-2
  6
Continuous
 62
     3
370
     9
100
AcDbLine
 10
-834.977108625685
 20
-283.9005261287241
 30
0.0
 11
-834.977108625685
 21
-288.9007979259043
 31
0.0
  0
LINE
  5
31D
330
1F
100
AcDbEntity
  8
D-2
  6
Continuous
 62
     4
370
     9
100
AcDbLine
 10
-1502.645332006727
 20
-283.9005261287241
 30
0.0
 11
-832.4767247717726
 21
-283.9005261287241
 31
0.0
  0
LINE
  5
31E
330
1F
100
AcDbEntity
  8
D-2
  6
Continuous
 62
     3
370
     9
100
AcDbLine
 10
-1502.645332006727
 20
-253.9008837565927
 30
0.0
 11
-829.9770847838271
 21
-253.9008837565927
 31
0.0
  0
LINE
  5
31F
330
1F
100
AcDbEntity
  8
D-2
  6
Continuous
 62
     3
370
     9
100
AcDbLine
 10
-829.9770847838271
 20
-253.9008837565927
 30
0.0
 11
-829.9770847838271
 21
-286.4006620273142
 31
0.0
  0
LINE
  5
320
330
1F
100
AcDbEntity
  8
D-2
  6
Continuous
 62
     4
370
     9
100
AcDbLine
 10
-1502.645332006727
 20
-280.1503234729319
 30
0.0
 11
-832.4767247717726
 21
-280.1503234729319
 31
0.0
  0
LINE
  5
321
330
1F
100
AcDbEntity
  8
D-2
  6
Continuous
 62
     4
370
     9
100
AcDbLine
 10
-1502.645332006727
 20
-276.4001208171396
 30
0.0
 11
-832.4767247717726
 21
-276.4001208171396
 31
0.0
  0
LINE
  5
322
330
1F
100
AcDbEntity
  8
D-2
  6
Continuous
 62
     4
370
     9
100
AcDbLine
 10
-1502.645332006727
 20
-272.6499181613474
 30
0.0
 11
-832.4767247717726
 21
-272.6499181613474
 31
0.0
  0
LINE
  5
323
330
1F
100
AcDbEntity
  8
D-2
  6
Continuous
 62
     4
370
     9
100
AcDbLine
 10
-832.4767247717726
 20
-268.8997143134623
 30
0.0
 11
-832.4767247717726
 21
-283.9005261287241
 31
0.0
  0
LINE
  5
324
330
1F
100
AcDbEntity
  8
D-2
  6
Continuous
 62
     4
370
     9
100
AcDbLine
 10
-1502.645332006727
 20
-268.8997143134623
 30
0.0
 11
-829.9770847838271
 21
-268.8997143134623
 31
0.0
  0
LINE
  5
325
330
1F
100
AcDbEntity
  8
D-A
  6
Continuous
 62
     2
370
     9
100
AcDbLine
 10
-1493.254462866102
 20
-268.8997143134623
 30
0.0
 11
-1478.255836157118
 21
-253.9008837565927
 31
0.0
  0
LINE
  5
326
330
1F
100
AcDbEntity
  8
D-A
  6
Continuous
 62
     2
370
     9
100
AcDbLine
 10
-1464.970084814344
 20
-268.8997143134623
 30
0.0
 11
-1449.971534399305
 21
-253.9008837565927
 31
0.0
  0
LINE
  5
327
330
1F
100
AcDbEntity
  8
D-A
  6
Continuous
 62
     2
370
     9
100
AcDbLine
 10
-1436.685783056532
 20
-268.8997143134623
 30
0.0
 11
-1421.68719449452
 21
-253.9008837565927
 31
0.0
  0
LINE
  5
328
330
1F
100
AcDbEntity
  8
D-A
  6
Continuous
 62
     2
370
     9
100
AcDbLine
 10
-1408.401443151747
 20
-268.8997143134623
 30
0.0
 11
-1393.402854589735
 21
-253.9008837565927
 31
0.0
  0
LINE
  5
329
330
1F
100
AcDbEntity
  8
D-A
  6
Continuous
 62
     2
370
     9
100
AcDbLine
 10
-1380.117141393934
 20
-268.8997143134623
 30
0.0
 11
-1365.118552831922
 21
-253.9008837565927
 31
0.0
  0
LINE
  5
32A
330
1F
100
AcDbEntity
  8
D-A
  6
Continuous
 62
     2
370
     9
100
AcDbLine
 10
-1351.832801489149
 20
-268.8997143134623
 30
0.0
 11
-1336.834212927138
 21
-253.9008837565927
 31
0.0
  0
LINE
  5
32B
330
1F
100
AcDbEntity
  8
D-A
  6
Continuous
 62
     2
370
     9
100
AcDbLine
 10
-1323.548728613173
 20
-268.8997143134623
 30
0.0
 11
-1308.549873022353
 21
-253.9008837565927
 31
0.0
  0
LINE
  5
32C
330
1F
100
AcDbEntity
  8
D-A
  6
Continuous
 62
     2
370
     9
100
AcDbLine
 10
-1295.264388708388
 20
-268.8997143134623
 30
0.0
 11
-1280.265533117567
 21
-253.9008837565927
 31
0.0
  0
LINE
  5
32D
330
1F
100
AcDbEntity
  8
D-A
  6
Continuous
 62
     2
370
     9
100
AcDbLine
 10
-1266.980048803602
 20
-268.8997143134623
 30
0.0
 11
-1251.981460241591
 21
-253.9008837565927
 31
0.0
  0
LINE
  5
32E
330
1F
100
AcDbEntity
  8
D-A
  6
Continuous
 62
     2
370
     9
100
AcDbLine
 10
-1238.695708898817
 20
-268.8997143134623
 30
0.0
 11
-1223.697120336805
 21
-253.9008837565927
 31
0.0
  0
LINE
  5
32F
330
1F
100
AcDbEntity
  8
D-A
  6
Continuous
 62
     2
370
     9
100
AcDbLine
 10
-1210.411407141005
 20
-268.8997143134623
 30
0.0
 11
-1195.412551550184
 21
-253.9008837565927
 31
0.0
  0
LINE
  5
330
330
1F
100
AcDbEntity
  8
D-A
  6
Continuous
 62
     2
370
     9
100
AcDbLine
 10
-1182.12706723622
 20
-268.8997143134623
 30
0.0
 11
-1167.128478674208
 21
-253.9008837565927
 31
0.0
  0
LINE
  5
331
330
1F
100
AcDbEntity
  8
D-A
  6
Continuous
 62
     2
370
     9
100
AcDbLine
 10
-1153.842727331434
 20
-268.8997143134623
 30
0.0
 11
-1138.844138769423
 21
-253.9008837565927
 31
0.0
  0
LINE
  5
332
330
1F
100
AcDbEntity
  8
D-A
  6
Continuous
 62
     2
370
     9
100
AcDbLine
 10
-1125.558387426649
 20
-268.8997143134623
 30
0.0
 11
-1110.559817938124
 21
-253.9008837565927
 31
0.0
  0
LINE
  5
333
330
1F
100
AcDbEntity
  8
D-A
  6
Continuous
 62
     2
370
     9
100
AcDbLine
 10
-1097.27406659535
 20
-268.8997143134623
 30
0.0
 11
-1082.275230078016
 21
-253.9008837565927
 31
0.0
  0
LINE
  5
334
330
1F
100
AcDbEntity
  8
D-A
  6
Continuous
 62
     2
370
     9
100
AcDbLine
 10
-1068.989745764052
 20
-268.8997143134623
 30
0.0
 11
-1053.99115720204
 21
-253.9008837565927
 31
0.0
  0
LINE
  5
335
330
1F
100
AcDbEntity
  8
D-A
  6
Continuous
 62
     2
370
     9
100
AcDbLine
 10
-1040.705405859266
 20
-268.8997143134623
 30
0.0
 11
-1025.706817297255
 21
-253.9008837565927
 31
0.0
  0
LINE
  5
336
330
1F
100
AcDbEntity
  8
D-A
  6
Continuous
 62
     2
370
     9
100
AcDbLine
 10
-1012.421561865126
 20
-268.8997143134623
 30
0.0
 11
-997.422496465956
 21
-253.9008837565927
 31
0.0
  0
LINE
  5
337
330
1F
100
AcDbEntity
  8
D-A
  6
Continuous
 62
     2
370
     9
100
AcDbLine
 10
-984.1367451231825
 20
-268.8997143134623
 30
0.0
 11
-969.1381565611708
 21
-253.9008837565927
 31
0.0
  0
LINE
  5
338
330
1F
100
AcDbEntity
  8
D-A
  6
Continuous
 62
     2
370
     9
100
AcDbLine
 10
-955.8524147551406
 20
-268.8997143134623
 30
0.0
 11
-940.853835729872
 21
-253.9008837565927
 31
0.0
  0
LINE
  5
339
330
1F
100
AcDbEntity
  8
D-A
  6
Continuous
 62
     2
370
     9
100
AcDbLine
 10
-927.5680843870986
 20
-268.8997143134623
 30
0.0
 11
-912.56950536183
 21
-253.9008837565927
 31
0.0
  0
LINE
  5
33A
330
1F
100
AcDbEntity
  8
D-A
  6
Continuous
 62
     2
370
     9
100
AcDbLine
 10
-899.2835060637343
 20
-268.8997143134623
 30
0.0
 11
-884.2849222700942
 21
-253.9008837565927
 31
0.0
  0
LINE
  5
33B
330
1F
100
AcDbEntity
  8
D-A
  6
Continuous
 62
     2
370
     9
100
AcDbLine
 10
-870.9994236510146
 20
-268.8997143134623
 30
0.0
 11
-856.0010878126967
 21
-253.9008837565927
 31
0.0
  0
LINE
  5
33C
330
1F
100
AcDbEntity
  8
D-A
  6
Continuous
 62
     2
370
     9
100
AcDbLine
 10
-842.7150932829726
 20
-268.8997143134623
 30
0.0
 11
-829.9770847838271
 21
-256.161212287858
 31
0.0
  0
LINE
  5
33D
330
1F
100
AcDbEntity
  8
D-4
  6
Continuous
 62
     7
370
     9
100
AcDbLine
 10
-1413.944999365126
 20
-268.8997143134623
 30
0.0
 11
-1413.944999365126
 21
-222.4381214007883
 31
0.0
  0
LINE
  5
33E
330
1F
100
AcDbEntity
  8
D-2
  6
Continuous
 62
     3
370
     9
100
AcDbLine
 10
-804.9767223875868
 20
-257.4008750543146
 30
0.0
 11
-804.9767223875868
 21
-327.9006319865732
 31
0.0
  0
ARC
  5
33F
330
1F
100
AcDbEntity
  8
D-2
  6
Continuous
 62
     3
370
     9
100
AcDbCircle
 10
-829.9770847838271
 20
-288.9007979259043
 30
0.0
 40
5.0
100
AcDbArc
 50
270.0
 51
0.0
  0
ARC
  5
340
330
1F
100
AcDbEntity
  8
D-2
  6
Continuous
 62
     3
370
     9
100
AcDbCircle
 10
-832.4772206824172
 20
-286.4006620273142
 30
0.0
 40
2.5
100
AcDbArc
 50
270.0
 51
0.0
  0
ARC
  5
341
330
1F
100
AcDbEntity
  8
D-2
  6
Continuous
 62
     3
370
     9
100
AcDbCircle
 10
-826.4768473189223
 20
-327.9006319865732
 30
0.0
 40
3.499999940395355
100
AcDbArc
 50
180.0
 51
270.0
  0
ARC
  5
342
330
1F
100
AcDbEntity
  8
D-2
  6
Continuous
 62
     3
370
     9
100
AcDbCircle
 10
-808.476961640631
 20
-327.9006319865732
 30
0.0
 40
3.499999940395355
100
AcDbArc
 50
270.0
 51
0.0
  0
ARC
  5
343
330
1F
100
AcDbEntity
  8
D-2
  6
Continuous
 62
     3
370
     9
100
AcDbCircle
 10
-826.4768473189223
 20
-257.4008750543146
 30
0.0
 40
3.499999940395355
100
AcDbArc
 50
90.0
 51
180.0
  0
ARC
  5
344
330
1F
100
AcDbEntity
  8
D-2
  6
Continuous
 62
     3
370
     9
100
AcDbCircle
 10
-899.9769131224501
 20
-288.9007979259043
 30
0.0
 40
5.0
100
AcDbArc
 50
90.0
 51
270.0
  0
ARC
  5
345
330
1F
100
AcDbEntity
  8
D-2
  6
Continuous
 62
     3
370
     9
100
AcDbCircle
 10
-808.476961640631
 20
-257.4008750543146
 30
0.0
 40
3.499999940395355
100
AcDbArc
 50
0.0
 51
90.0
  0
LWPOLYLINE
  5
346
330
1F
100
AcDbEntity
  8
D-4
  6
Continuous
 62
     7
370
     9
100
AcDbPolyline
 90
        4
 70
     1
 43
1.0
 10
-1547.984107641493
 20
-331.4006214961557
 42
0.4142135623731
 10
-1548.484107641493
 20
-330.9006214961557
 42
0.4142135623731
 10
-1548.984107641493
 20
-331.4006214961557
 42
0.4142135623731
 10
-1548.484107641493
 20
-331.9006214961557
 42
0.4142135623731
  0
LWPOLYLINE
  5
347
330
1F
100
AcDbEntity
  8
D-4
  6
Continuous
 62
     7
370
     9
100
AcDbPolyline
 90
        4
 70
     1
 43
1.0
 10
-1547.984107641493
 20
-253.9008837565927
 42
0.4142135623731
 10
-1548.484107641493
 20
-253.4008837565927
 42
0.4142135623731
 10
-1548.984107641493
 20
-253.9008837565927
 42
0.4142135623731
 10
-1548.484107641493
 20
-254.4008837565927
 42
0.4142135623731
  0
LWPOLYLINE
  5
348
330
1F
100
AcDbEntity
  8
D-4
  6
Continuous
 62
     7
370
     9
100
AcDbPolyline
 90
        4
 70
     1
 43
1.0
 10
-1413.444999365125
 20
-268.8997143134623
 42
0.4142135623731
 10
-1413.944999365126
 20
-268.3997143134623
 42
0.4142135623731
 10
-1414.444999365126
 20
-268.8997143134623
 42
0.4142135623731
 10
-1413.944999365126
 20
-269.3997143134623
 42
0.4142135623731
  0
LWPOLYLINE
  5
349
330
1F
100
AcDbEntity
  8
D-4
  6
Continuous
 62
     7
370
     9
100
AcDbPolyline
 90
        4
 70
     1
 43
1.0
 10
-1413.444999365125
 20
-253.9008837565927
 42
0.4142135623731
 10
-1413.944999365126
 20
-253.4008837565927
 42
0.4142135623731
 10
-1414.444999365126
 20
-253.9008837565927
 42
0.4142135623731
 10
-1413.944999365126
 20
-254.4008837565927
 42
0.4142135623731
  0
TEXT
  5
34A
330
1F
100
AcDbEntity
  8
D-5
  6
Continuous
 62
     7
370
     9
100
AcDbText
 10
-619.4568554442275
 20
33.66888369946194
 30
0.0
 40
22.86
  1
床仕上材貼り（別途工事）
 41
1.152777777777778
  7
ＭＳ ゴシック
100
AcDbText
  0
TEXT
  5
34B
330
1F
100
AcDbEntity
  8
D-4
  6
Continuous
 62
     2
370
     9
100
AcDbText
 10
-1559.124336523329
 20
-336.4008935398682
 30
0.0
 40
30.48
  1
15.5
 50
90.0000025044784
 41
1.093750000000001
  7
ＭＳ ゴシック
100
AcDbText
  0
TEXT
  5
34C
330
1F
100
AcDbEntity
  8
D-5
  6
Continuous
 62
     7
370
     9
100
AcDbText
 10
-619.4568554442275
 20
-20.35852108569431
 30
0.0
 40
22.86
  1
ステンレス形鋼蓋フレーム
 41
1.152777777777778
  7
ＭＳ ゴシック
100
AcDbText
  0
TEXT
  5
34D
330
1F
100
AcDbEntity
  8
D-5
  6
Continuous
 62
     2
370
     9
100
AcDbText
 10
17.64267763682724
 20
-293.2608456096201
 30
0.0
 40
30.48
  1
仕　様
 41
1.083333333333333
  7
ＭＳ ゴシック
100
AcDbText
  0
TEXT
  5
34E
330
1F
100
AcDbEntity
  8
D-5
  6
Continuous
 62
     2
370
     9
100
AcDbText
 10
131.9445880372179
 20
-427.7330440959482
 30
0.0
 40
30.48
  1
材質：目地部　ＳＵＳ３０４　ｔ＝１．０
 41
1.118421052631579
  7
ＭＳ ゴシック
100
AcDbText
  0
TEXT
  5
34F
330
1F
100
AcDbEntity
  8
D-4
  6
Continuous
 62
     2
370
     9
100
AcDbText
 10
-1424.585037512098
 20
-245.9704109139069
 30
0.0
 40
30.48
  1
3
 50
90.00000250447847
 41
1.000000000000001
  7
ＭＳ ゴシック
100
AcDbText
  0
TEXT
  5
350
330
1F
100
AcDbEntity
  8
D-5
  6
Continuous
 62
     7
370
     9
100
AcDbText
 10
-1465.520087866102
 20
-488.8881650981455
 30
0.0
 40
22.86
  1
ステンレス鋼板ｔ＝３
 41
1.149999999999999
  7
ＭＳ ゴシック
100
AcDbText
  0
TEXT
  5
351
330
1F
100
AcDbEntity
  8
D-5
  6
Continuous
 62
     2
370
     9
100
AcDbText
 10
131.9445880372179
 20
-492.7331013164072
 30
0.0
 40
30.48
  1
　　　プレート部　ＳＵＳ３０４（ｔ＝３）
 41
1.11875
  7
ＭＳ ゴシック
100
AcDbText
  0
TEXT
  5
352
330
1F
100
AcDbEntity
  8
D-4
  6
Continuous
 62
     2
370
     9
100
AcDbText
 10
-1086.099338812147
 20
-382.7665024148121
 30
0.0
 40
30.48
  1
25
 50
90.00000250447809
 41
1.062500000000001
  7
ＭＳ ゴシック
100
AcDbText
  0
TEXT
  5
353
330
1F
100
AcDbEntity
  8
D-4
  6
Continuous
 62
     2
370
     9
100
AcDbText
 10
-1501.501648650519
 20
-119.6671389115891
 30
0.0
 40
30.48
  1
200
 41
1.083333333333333
  7
ＭＳ ゴシック
100
AcDbText
  0
TEXT
  5
354
330
1F
100
AcDbEntity
  8
D-4
  6
Continuous
 62
     2
370
     9
100
AcDbText
 10
-1501.501648650519
 20
-10.63018294927922
 30
0.0
 40
30.48
  1
250
 41
1.083333333333333
  7
ＭＳ ゴシック
100
AcDbText
  0
TEXT
  5
355
330
1F
100
AcDbEntity
  8
D-4
  6
Continuous
 62
     2
370
     9
100
AcDbText
 10
-1499.482415977905
 20
98.40664929311949
 30
0.0
 40
30.48
  1
262
 41
1.083333333333333
  7
ＭＳ ゴシック
100
AcDbText
  0
TEXT
  5
356
330
1F
100
AcDbEntity
  8
D-5
  6
Continuous
 62
     2
370
     9
100
AcDbText
 10
72.23267397471787
 20
-362.7334923228769
 30
0.0
 40
30.48
  1
オールステンレス製樹脂タイル用化粧蓋　ＳＥ　２５０×６００×１５
 41
1.12109375
  7
ＭＳ ゴシック
100
AcDbText
  0
TEXT
  5
357
330
1F
100
AcDbEntity
  8
F-4
  6
Continuous
 62
     2
370
     9
100
AcDbText
 10
-836.6214656821127
 20
-1325.649794720744
 30
0.0
 40
30.48
  1
オールステンレス製樹脂タイル用化粧蓋
 41
1.118055555555555
  7
ＭＳ ゴシック
100
AcDbText
  0
TEXT
  5
358
330
1F
100
AcDbEntity
  8
F-4
  6
Continuous
 62
     2
370
     9
100
AcDbText
 10
-836.6214656821127
 20
-1370.308027976812
 30
0.0
 40
30.48
  1
ＳＥ　２５０×６００×１５＋ＳＦ１５Ｂ
 41
1.118421052631579
  7
ＭＳ ゴシック
100
AcDbText
  0
TEXT
  5
359
330
1F
100
AcDbEntity
  8
D-5
  6
Continuous
 62
     2
370
     9
100
AcDbText
 10
131.9445774827512
 20
-557.7336544475206
 30
0.0
 40
30.48
  1
定尺：５９９．５
 50
0.0001072209932
 41
1.109375
  7
ＭＳ ゴシック
100
AcDbText
  0
ENDSEC
  0
SECTION
  2
OBJECTS
  0
DICTIONARY
  5
C
330
0
100
AcDbDictionary
281
     1
  3
ACAD_GROUP
350
D
  3
ACAD_LAYOUT
350
1A
  3
ACAD_MLEADERSTYLE
350
35B
  3
ACAD_MLINESTYLE
350
17
  3
ACAD_PLOTSETTINGS
350
19
  3
ACAD_PLOTSTYLENAME
350
E
  3
ACAD_TABLESTYLE
350
35A
  3
ACAD_VISUALSTYLE
350
2A
  3
AcDbVariableDictionary
350
35C
  0
DICTIONARY
  5
D
102
{ACAD_REACTORS
330
C
102
}
330
C
100
AcDbDictionary
281
     1
  0
DICTIONARY
  5
1A
102
{ACAD_REACTORS
330
C
102
}
330
C
100
AcDbDictionary
281
     1
  3
Layout1
350
1E
  3
Layout2
350
26
  3
Model
350
22
  0
DICTIONARY
  5
35B
102
{ACAD_REACTORS
330
C
102
}
330
C
100
AcDbDictionary
281
     1
  0
DICTIONARY
  5
17
102
{ACAD_REACTORS
330
C
102
}
330
C
100
AcDbDictionary
281
     1
  3
Standard
350
18
  0
DICTIONARY
  5
19
102
{ACAD_REACTORS
330
C
102
}
330
C
100
AcDbDictionary
281
     1
  0
ACDBDICTIONARYWDFLT
  5
E
102
{ACAD_REACTORS
330
C
102
}
330
C
100
AcDbDictionary
281
     1
  3
Normal
350
F
100
AcDbDictionaryWithDefault
340
F
  0
DICTIONARY
  5
35A
102
{ACAD_REACTORS
330
C
102
}
330
C
100
AcDbDictionary
281
     1
  0
DICTIONARY
  5
2A
102
{ACAD_REACTORS
330
C
102
}
330
C
100
AcDbDictionary
281
     1
  3
2dWireframe
350
2F
  3
3D Hidden
350
31
  3
3dWireframe
350
30
  3
Basic
350
32
  3
Brighten
350
36
  3
ColorChange
350
3A
  3
Conceptual
350
34
  3
Dim
350
35
  3
Facepattern
350
39
  3
Flat
350
2B
  3
FlatWithEdges
350
2C
  3
Gouraud
350
2D
  3
GouraudWithEdges
350
2E
  3
Linepattern
350
38
  3
Realistic
350
33
  3
Thicken
350
37
  0
DICTIONARY
  5
35C
102
{ACAD_REACTORS
330
C
102
}
330
C
100
AcDbDictionary
281
     1
  3
PSOLHEIGHT
350
35E
  3
PSOLWIDTH
350
35D
  0
LAYOUT
  5
1E
102
{ACAD_REACTORS
330
1A
102
}
102
{ACAD_XDICTIONARY
360
35F
102
}
330
1A
100
AcDbPlotSettings
  1

  2
none_device
  4

  6

 40
0.0
 41
0.0
 42
0.0
 43
0.0
 44
0.0
 45
0.0
 46
0.0
 47
0.0
 48
0.0
 49
0.0
140
0.0
141
0.0
142
1.0
143
1.0
 70
   688
 72
     0
 73
     0
 74
     5
  7

 75
    16
147
1.0
148
0.0
149
0.0
100
AcDbLayout
  1
Layout1
 70
     1
 71
     1
 10
0.0
 20
0.0
 11
420.0
 21
297.0
 12
0.0
 22
0.0
 32
0.0
 14
1.000000000000000E+20
 24
1.000000000000000E+20
 34
1.000000000000000E+20
 15
-1.000000000000000E+20
 25
-1.000000000000000E+20
 35
-1.000000000000000E+20
146
0.0
 13
0.0
 23
0.0
 33
0.0
 16
1.0
 26
0.0
 36
0.0
 17
0.0
 27
1.0
 37
0.0
 76
     0
330
1B
  0
LAYOUT
  5
26
102
{ACAD_REACTORS
330
1A
102
}
102
{ACAD_XDICTIONARY
360
363
102
}
330
1A
100
AcDbPlotSettings
  1

  2
none_device
  4

  6

 40
0.0
 41
0.0
 42
0.0
 43
0.0
 44
0.0
 45
0.0
 46
0.0
 47
0.0
 48
0.0
 49
0.0
140
0.0
141
0.0
142
1.0
143
1.0
 70
   688
 72
     0
 73
     0
 74
     5
  7

 75
    16
147
1.0
148
0.0
149
0.0
100
AcDbLayout
  1
Layout2
 70
     1
 71
     2
 10
0.0
 20
0.0
 11
0.0
 21
0.0
 12
0.0
 22
0.0
 32
0.0
 14
0.0
 24
0.0
 34
0.0
 15
0.0
 25
0.0
 35
0.0
146
0.0
 13
0.0
 23
0.0
 33
0.0
 16
1.0
 26
0.0
 36
0.0
 17
0.0
 27
1.0
 37
0.0
 76
     0
330
23
  0
LAYOUT
  5
22
102
{ACAD_REACTORS
330
1A
102
}
102
{ACAD_XDICTIONARY
360
361
102
}
330
1A
100
AcDbPlotSettings
  1

  2
none_device
  4

  6

 40
0.0
 41
0.0
 42
0.0
 43
0.0
 44
0.0
 45
0.0
 46
0.0
 47
0.0
 48
0.0
 49
0.0
140
0.0
141
0.0
142
1.0
143
1.0
 70
  1712
 72
     0
 73
     0
 74
     0
  7

 75
     0
147
1.0
148
0.0
149
0.0
100
AcDbLayout
  1
Model
 70
     1
 71
     0
 10
-2100.0
 20
-1485.0
 11
2100.0
 21
1485.0
 12
0.0
 22
0.0
 32
0.0
 14
-2100.0
 24
-1485.0
 34
0.0
 15
2100.0
 25
1485.0
 35
0.0
146
0.0
 13
0.0
 23
0.0
 33
0.0
 16
1.0
 26
0.0
 36
0.0
 17
0.0
 27
1.0
 37
0.0
 76
     0
330
1F
331
29
  0
MLINESTYLE
  5
18
102
{ACAD_REACTORS
330
17
102
}
330
17
100
AcDbMlineStyle
  2
Standard
 70
     0
  3

 62
   256
 51
90.0
 52
90.0
 71
     2
 49
0.5
 62
   256
  6
BYLAYER
 49
-0.5
 62
   256
  6
BYLAYER
  0
ACDBPLACEHOLDER
  5
F
102
{ACAD_REACTORS
330
E
102
}
330
E
  0
VISUALSTYLE
  5
2F
102
{ACAD_REACTORS
330
2A
102
}
330
2A
100
AcDbVisualStyle
  2
2dWireframe
 70
     4
 71
     0
 72
     2
 73
     0
 90
        0
 40
-0.6
 41
-30.0
 62
     5
 63
     7
 74
     1
 91
        4
 64
     7
 65
   257
 75
     1
175
     1
 42
1.0
 92
        0
 66
   257
 43
1.0
 76
     1
 77
     6
 78
     2
 67
     7
 79
     5
170
     0
171
     0
290
     0
174
     0
 93
        1
 44
0.0
173
     0
291
     0
 45
0.0
1001
ACAD
1000
AcDbSavedByObjectVersion
1070
     0
  0
VISUALSTYLE
  5
31
102
{ACAD_REACTORS
330
2A
102
}
330
2A
100
AcDbVisualStyle
  2
3D Hidden
 70
     6
 71
     1
 72
     2
 73
     2
 90
        0
 40
-0.6
 41
-30.0
 62
     5
 63
     7
 74
     2
 91
        2
 64
     7
 65
   257
 75
     2
175
     1
 42
40.0
 92
        0
 66
   257
 43
1.0
 76
     1
 77
     6
 78
     2
 67
     7
 79
     3
170
     0
171
     0
290
     0
174
     0
 93
        1
 44
0.0
173
     0
291
     0
 45
0.0
1001
ACAD
1000
AcDbSavedByObjectVersion
1070
     0
  0
VISUALSTYLE
  5
30
102
{ACAD_REACTORS
330
2A
102
}
330
2A
100
AcDbVisualStyle
  2
3dWireframe
 70
     5
 71
     0
 72
     2
 73
     0
 90
        0
 40
-0.6
 41
-30.0
 62
     5
 63
     7
 74
     1
 91
        4
 64
     7
 65
   257
 75
     1
175
     1
 42
1.0
 92
        0
 66
   257
 43
1.0
 76
     1
 77
     6
 78
     2
 67
     7
 79
     5
170
     0
171
     0
290
     0
174
     0
 93
        1
 44
0.0
173
     0
291
     0
 45
0.0
1001
ACAD
1000
AcDbSavedByObjectVersion
1070
     0
  0
VISUALSTYLE
  5
32
102
{ACAD_REACTORS
330
2A
102
}
330
2A
100
AcDbVisualStyle
  2
Basic
 70
     7
 71
     1
 72
     0
 73
     1
 90
        0
 40
-0.6
 41
-30.0
 62
     5
 63
     7
 74
     0
 91
        4
 64
     7
 65
   257
 75
     1
175
     1
 42
1.0
 92
        8
 66
     7
 43
1.0
 76
     1
 77
     6
 78
     2
 67
     7
 79
     5
170
     0
171
     0
290
     0
174
     0
 93
        1
 44
0.0
173
     0
291
     1
 45
0.0
1001
ACAD
1000
AcDbSavedByObjectVersion
1070
     0
  0
VISUALSTYLE
  5
36
102
{ACAD_REACTORS
330
2A
102
}
330
2A
100
AcDbVisualStyle
  2
Brighten
 70
    12
 71
     2
 72
     2
 73
     0
 90
        0
 40
-0.6
 41
-30.0
 62
     5
 63
     7
 74
     1
 91
        4
 64
     7
 65
   257
 75
     1
175
     1
 42
1.0
 92
        8
 66
     7
 43
1.0
 76
     1
 77
     6
 78
     2
 67
     7
 79
     5
170
     0
171
     0
290
     0
174
     0
 93
        1
 44
50.0
173
     0
291
     1
 45
0.0
1001
ACAD
1000
AcDbSavedByObjectVersion
1070
     0
  0
VISUALSTYLE
  5
3A
102
{ACAD_REACTORS
330
2A
102
}
330
2A
100
AcDbVisualStyle
  2
ColorChange
 70
    16
 71
     2
 72
     2
 73
     3
 90
        0
 40
-0.6
 41
-30.0
 62
     5
 63
     8
 74
     1
 91
        4
 64
     7
 65
   257
 75
     1
175
     1
 42
1.0
 92
        8
 66
     8
 43
1.0
 76
     1
 77
     6
 78
     2
 67
     7
 79
     5
170
     0
171
     0
290
     0
174
     0
 93
        1
 44
0.0
173
     0
291
     1
 45
0.0
1001
ACAD
1000
AcDbSavedByObjectVersion
1070
     0
  0
VISUALSTYLE
  5
34
102
{ACAD_REACTORS
330
2A
102
}
330
2A
100
AcDbVisualStyle
  2
Conceptual
 70
     9
 71
     3
 72
     2
 73
     0
 90
        0
 40
-0.6
 41
-30.0
 62
     5
 63
     7
 74
     2
 91
        2
 64
     7
 65
   257
 75
     1
175
     1
 42
40.0
 92
        8
 66
     7
 43
1.0
 76
     1
 77
     6
 78
     2
 67
     7
 79
     3
170
     0
171
     0
290
     0
174
     0
 93
        1
 44
0.0
173
     0
291
     0
 45
0.0
1001
ACAD
1000
AcDbSavedByObjectVersion
1070
     0
  0
VISUALSTYLE
  5
35
102
{ACAD_REACTORS
330
2A
102
}
330
2A
100
AcDbVisualStyle
  2
Dim
 70
    11
 71
     2
 72
     2
 73
     0
 90
        0
 40
-0.6
 41
-30.0
 62
     5
 63
     7
 74
     1
 91
        4
 64
     7
 65
   257
 75
     1
175
     1
 42
1.0
 92
        8
 66
     7
 43
1.0
 76
     1
 77
     6
 78
     2
 67
     7
 79
     5
170
     0
171
     0
290
     0
174
     0
 93
        1
 44
-50.0
173
     0
291
     1
 45
0.0
1001
ACAD
1000
AcDbSavedByObjectVersion
1070
     0
  0
VISUALSTYLE
  5
39
102
{ACAD_REACTORS
330
2A
102
}
330
2A
100
AcDbVisualStyle
  2
Facepattern
 70
    15
 71
     2
 72
     2
 73
     0
 90
        0
 40
-0.6
 41
-30.0
 62
     5
 63
     7
 74
     1
 91
        4
 64
     7
 65
   257
 75
     1
175
     1
 42
1.0
 92
        8
 66
     7
 43
1.0
 76
     1
 77
     6
 78
     2
 67
     7
 79
     5
170
     0
171
     0
290
     0
174
     0
 93
        1
 44
0.0
173
     0
291
     1
 45
0.0
1001
ACAD
1000
AcDbSavedByObjectVersion
1070
     0
  0
VISUALSTYLE
  5
2B
102
{ACAD_REACTORS
330
2A
102
}
330
2A
100
AcDbVisualStyle
  2
Flat
 70
     0
 71
     2
 72
     1
 73
     1
 90
        2
 40
-0.6
 41
30.0
 62
     5
 63
     7
 74
     0
 91
        4
 64
     7
 65
   257
 75
     1
175
     1
 42
1.0
 92
        8
 66
     7
 43
1.0
 76
     1
 77
     6
 78
     2
 67
     7
 79
     5
170
     0
171
     0
290
     0
174
     0
 93
       13
 44
0.0
173
     0
291
     1
 45
0.0
1001
ACAD
1000
AcDbSavedByObjectVersion
1070
     0
  0
VISUALSTYLE
  5
2C
102
{ACAD_REACTORS
330
2A
102
}
330
2A
100
AcDbVisualStyle
  2
FlatWithEdges
 70
     1
 71
     2
 72
     1
 73
     1
 90
        2
 40
-0.6
 41
30.0
 62
     5
 63
     7
 74
     1
 91
        4
 64
     7
 65
   257
 75
     1
175
     1
 42
1.0
 92
        0
 66
   257
 43
1.0
 76
     1
 77
     6
 78
     2
 67
     7
 79
     5
170
     0
171
     0
290
     0
174
     0
 93
       13
 44
0.0
173
     0
291
     1
 45
0.0
1001
ACAD
1000
AcDbSavedByObjectVersion
1070
     0
  0
VISUALSTYLE
  5
2D
102
{ACAD_REACTORS
330
2A
102
}
330
2A
100
AcDbVisualStyle
  2
Gouraud
 70
     2
 71
     2
 72
     2
 73
     1
 90
        2
 40
-0.6
 41
30.0
 62
     5
 63
     7
 74
     0
 91
        4
 64
     7
 65
   257
 75
     1
175
     1
 42
1.0
 92
        0
 66
     7
 43
1.0
 76
     1
 77
     6
 78
     2
 67
     7
 79
     5
170
     0
171
     0
290
     0
174
     0
 93
       13
 44
0.0
173
     0
291
     1
 45
0.0
1001
ACAD
1000
AcDbSavedByObjectVersion
1070
     0
  0
VISUALSTYLE
  5
2E
102
{ACAD_REACTORS
330
2A
102
}
330
2A
100
AcDbVisualStyle
  2
GouraudWithEdges
 70
     3
 71
     2
 72
     2
 73
     1
 90
        2
 40
-0.6
 41
30.0
 62
     5
 63
     7
 74
     1
 91
        4
 64
     7
 65
   257
 75
     1
175
     1
 42
1.0
 92
        0
 66
   257
 43
1.0
 76
     1
 77
     6
 78
     2
 67
     7
 79
     5
170
     0
171
     0
290
     0
174
     0
 93
       13
 44
0.0
173
     0
291
     1
 45
0.0
1001
ACAD
1000
AcDbSavedByObjectVersion
1070
     0
  0
VISUALSTYLE
  5
38
102
{ACAD_REACTORS
330
2A
102
}
330
2A
100
AcDbVisualStyle
  2
Linepattern
 70
    14
 71
     2
 72
     2
 73
     0
 90
        0
 40
-0.6
 41
-30.0
 62
     5
 63
     7
 74
     1
 91
        4
 64
     7
 65
   257
 75
     7
175
     7
 42
1.0
 92
        8
 66
     7
 43
1.0
 76
     1
 77
     6
 78
     2
 67
     7
 79
     5
170
     0
171
     0
290
     0
174
     0
 93
        1
 44
0.0
173
     0
291
     1
 45
0.0
1001
ACAD
1000
AcDbSavedByObjectVersion
1070
     0
  0
VISUALSTYLE
  5
33
102
{ACAD_REACTORS
330
2A
102
}
330
2A
100
AcDbVisualStyle
  2
Realistic
 70
     8
 71
     2
 72
     2
 73
     0
 90
        0
 40
-0.6
 41
-30.0
 62
     5
 63
     7
 74
     1
 91
        0
 64
     7
 65
   257
 75
     1
175
     1
 42
1.0
 92
        8
 66
     8
 43
1.0
 76
     1
 77
     6
 78
     2
 67
     7
 79
     5
170
     0
171
     0
290
     0
174
     0
 93
       13
 44
0.0
173
     0
291
     0
 45
0.0
1001
ACAD
1000
AcDbSavedByObjectVersion
1070
     0
  0
VISUALSTYLE
  5
37
102
{ACAD_REACTORS
330
2A
102
}
330
2A
100
AcDbVisualStyle
  2
Thicken
 70
    13
 71
     2
 72
     2
 73
     0
 90
        0
 40
-0.6
 41
-30.0
 62
     5
 63
     7
 74
     1
 91
        4
 64
     7
 65
   257
 75
     1
175
     1
 42
1.0
 92
       12
 66
     7
 43
1.0
 76
     1
 77
     6
 78
     2
 67
     7
 79
     5
170
     0
171
     0
290
     0
174
     0
 93
        1
 44
0.0
173
     0
291
     1
 45
0.0
1001
ACAD
1000
AcDbSavedByObjectVersion
1070
     0
  0
DICTIONARYVAR
  5
35E
102
{ACAD_REACTORS
330
35C
102
}
330
35C
100
DictionaryVariables
280
     0
  1
80.000000
  0
DICTIONARYVAR
  5
35D
102
{ACAD_REACTORS
330
35C
102
}
330
35C
100
DictionaryVariables
280
     0
  1
5.000000
  0
DICTIONARY
  5
35F
330
1E
100
AcDbDictionary
280
     1
281
     1
  3
ACAD_XREC_ROUNDTRIP
360
360
  0
DICTIONARY
  5
363
330
26
100
AcDbDictionary
280
     1
281
     1
  3
ACAD_XREC_ROUNDTRIP
360
364
  0
DICTIONARY
  5
361
330
22
100
AcDbDictionary
280
     1
281
     1
  3
ACAD_XREC_ROUNDTRIP
360
362
  0
XRECORD
  5
360
102
{ACAD_REACTORS
330
35F
102
}
330
35F
100
AcDbXrecord
280
     1
102
SHADEPLOT
 70
     0
102
SHADEPLOTRESLEVEL
 70
     5
102
SHADEPLOTCUSTOMDPI
 70
   300
  0
XRECORD
  5
364
102
{ACAD_REACTORS
330
363
102
}
330
363
100
AcDbXrecord
280
     1
102
SHADEPLOT
 70
     0
102
SHADEPLOTRESLEVEL
 70
     5
102
SHADEPLOTCUSTOMDPI
 70
   300
  0
XRECORD
  5
362
102
{ACAD_REACTORS
330
361
102
}
330
361
100
AcDbXrecord
280
     1
102
SHADEPLOT
 70
     0
102
SHADEPLOTRESLEVEL
 70
     5
102
SHADEPLOTCUSTOMDPI
 70
   300
  0
ENDSEC
  0
EOF
