  0
SECTION
  2
HEADER
  9
$ACADVER
  1
AC1015
  9
$ACADMAINTVER
 70
     6
  9
$DWGCODEPAGE
  3
ANSI_932
  9
$INSBASE
 10
0.0
 20
0.0
 30
0.0
  9
$EXTMIN
 10
-2100.0
 20
-1485.0
 30
0.0
  9
$EXTMAX
 10
2100.0
 20
1485.0
 30
0.0
  9
$LIMMIN
 10
-2100.0
 20
-1485.0
  9
$LIMMAX
 10
2100.0
 20
1485.0
  9
$ORTHOMODE
 70
     0
  9
$REGENMODE
 70
     1
  9
$FILLMODE
 70
     1
  9
$QTEXTMODE
 70
     0
  9
$MIRRTEXT
 70
     1
  9
$LTSCALE
 40
10.0
  9
$ATTMODE
 70
     1
  9
$TEXTSIZE
 40
2.5
  9
$TRACEWID
 40
1.0
  9
$TEXTSTYLE
  7
Standard
  9
$CLAYER
  8
0
  9
$CELTYPE
  6
ByLayer
  9
$CECOLOR
 62
   256
  9
$CELTSCALE
 40
1.0
  9
$DISPSILH
 70
     0
  9
$DIMSCALE
 40
1.0
  9
$DIMASZ
 40
2.5
  9
$DIMEXO
 40
0.625
  9
$DIMDLI
 40
3.75
  9
$DIMRND
 40
0.0
  9
$DIMDLE
 40
0.0
  9
$DIMEXE
 40
1.25
  9
$DIMTP
 40
0.0
  9
$DIMTM
 40
0.0
  9
$DIMTXT
 40
2.5
  9
$DIMCEN
 40
2.5
  9
$DIMTSZ
 40
0.0
  9
$DIMTOL
 70
     0
  9
$DIMLIM
 70
     0
  9
$DIMTIH
 70
     0
  9
$DIMTOH
 70
     0
  9
$DIMSE1
 70
     0
  9
$DIMSE2
 70
     0
  9
$DIMTAD
 70
     1
  9
$DIMZIN
 70
     8
  9
$DIMBLK
  1

  9
$DIMASO
 70
     1
  9
$DIMSHO
 70
     1
  9
$DIMPOST
  1

  9
$DIMAPOST
  1

  9
$DIMALT
 70
     0
  9
$DIMALTD
 70
     3
  9
$DIMALTF
 40
0.03937007874016
  9
$DIMLFAC
 40
1.0
  9
$DIMTOFL
 70
     1
  9
$DIMTVP
 40
0.0
  9
$DIMTIX
 70
     0
  9
$DIMSOXD
 70
     0
  9
$DIMSAH
 70
     0
  9
$DIMBLK1
  1

  9
$DIMBLK2
  1

  9
$DIMSTYLE
  2
ISO-25
  9
$DIMCLRD
 70
     0
  9
$DIMCLRE
 70
     0
  9
$DIMCLRT
 70
     0
  9
$DIMTFAC
 40
1.0
  9
$DIMGAP
 40
0.625
  9
$DIMJUST
 70
     0
  9
$DIMSD1
 70
     0
  9
$DIMSD2
 70
     0
  9
$DIMTOLJ
 70
     0
  9
$DIMTZIN
 70
     8
  9
$DIMALTZ
 70
     0
  9
$DIMALTTZ
 70
     0
  9
$DIMUPT
 70
     0
  9
$DIMDEC
 70
     2
  9
$DIMTDEC
 70
     2
  9
$DIMALTU
 70
     2
  9
$DIMALTTD
 70
     3
  9
$DIMTXSTY
  7
Standard
  9
$DIMAUNIT
 70
     0
  9
$DIMADEC
 70
     0
  9
$DIMALTRND
 40
0.0
  9
$DIMAZIN
 70
     0
  9
$DIMDSEP
 70
    44
  9
$DIMATFIT
 70
     3
  9
$DIMFRAC
 70
     0
  9
$DIMLDRBLK
  1

  9
$DIMLUNIT
 70
     2
  9
$DIMLWD
 70
    -2
  9
$DIMLWE
 70
    -2
  9
$DIMTMOVE
 70
     0
  9
$LUNITS
 70
     2
  9
$LUPREC
 70
     4
  9
$SKETCHINC
 40
1.0
  9
$FILLETRAD
 40
10.0
  9
$AUNITS
 70
     0
  9
$AUPREC
 70
     0
  9
$MENU
  1
.
  9
$ELEVATION
 40
0.0
  9
$PELEVATION
 40
0.0
  9
$THICKNESS
 40
0.0
  9
$LIMCHECK
 70
     0
  9
$CHAMFERA
 40
10.0
  9
$CHAMFERB
 40
10.0
  9
$CHAMFERC
 40
20.0
  9
$CHAMFERD
 40
0.0
  9
$SKPOLY
 70
     0
  9
$TDCREATE
 40
2456904.815983067
  9
$TDUCREATE
 40
2456904.440983067
  9
$TDUPDATE
 40
2456904.815983079
  9
$TDUUPDATE
 40
2456904.440983079
  9
$TDINDWG
 40
0.0000000116
  9
$TDUSRTIMER
 40
0.0000000116
  9
$USRTIMER
 70
     1
  9
$ANGBASE
 50
0.0
  9
$ANGDIR
 70
     0
  9
$PDMODE
 70
     0
  9
$PDSIZE
 40
0.0
  9
$PLINEWID
 40
0.0
  9
$SPLFRAME
 70
     0
  9
$SPLINETYPE
 70
     6
  9
$SPLINESEGS
 70
     8
  9
$HANDSEED
  5
365
  9
$SURFTAB1
 70
     6
  9
$SURFTAB2
 70
     6
  9
$SURFTYPE
 70
     6
  9
$SURFU
 70
     6
  9
$SURFV
 70
     6
  9
$UCSBASE
  2

  9
$UCSNAME
  2

  9
$UCSORG
 10
0.0
 20
0.0
 30
0.0
  9
$UCSXDIR
 10
1.0
 20
0.0
 30
0.0
  9
$UCSYDIR
 10
0.0
 20
1.0
 30
0.0
  9
$UCSORTHOREF
  2

  9
$UCSORTHOVIEW
 70
     0
  9
$UCSORGTOP
 10
0.0
 20
0.0
 30
0.0
  9
$UCSORGBOTTOM
 10
0.0
 20
0.0
 30
0.0
  9
$UCSORGLEFT
 10
0.0
 20
0.0
 30
0.0
  9
$UCSORGRIGHT
 10
0.0
 20
0.0
 30
0.0
  9
$UCSORGFRONT
 10
0.0
 20
0.0
 30
0.0
  9
$UCSORGBACK
 10
0.0
 20
0.0
 30
0.0
  9
$PUCSBASE
  2

  9
$PUCSNAME
  2

  9
$PUCSORG
 10
0.0
 20
0.0
 30
0.0
  9
$PUCSXDIR
 10
1.0
 20
0.0
 30
0.0
  9
$PUCSYDIR
 10
0.0
 20
1.0
 30
0.0
  9
$PUCSORTHOREF
  2

  9
$PUCSORTHOVIEW
 70
     0
  9
$PUCSORGTOP
 10
0.0
 20
0.0
 30
0.0
  9
$PUCSORGBOTTOM
 10
0.0
 20
0.0
 30
0.0
  9
$PUCSORGLEFT
 10
0.0
 20
0.0
 30
0.0
  9
$PUCSORGRIGHT
 10
0.0
 20
0.0
 30
0.0
  9
$PUCSORGFRONT
 10
0.0
 20
0.0
 30
0.0
  9
$PUCSORGBACK
 10
0.0
 20
0.0
 30
0.0
  9
$USERI1
 70
     0
  9
$USERI2
 70
     0
  9
$USERI3
 70
     0
  9
$USERI4
 70
     0
  9
$USERI5
 70
     0
  9
$USERR1
 40
0.0
  9
$USERR2
 40
0.0
  9
$USERR3
 40
0.0
  9
$USERR4
 40
0.0
  9
$USERR5
 40
0.0
  9
$WORLDVIEW
 70
     1
  9
$SHADEDGE
 70
     3
  9
$SHADEDIF
 70
    70
  9
$TILEMODE
 70
     1
  9
$MAXACTVP
 70
    64
  9
$PINSBASE
 10
0.0
 20
0.0
 30
0.0
  9
$PLIMCHECK
 70
     0
  9
$PEXTMIN
 10
1.000000000000000E+20
 20
1.000000000000000E+20
 30
1.000000000000000E+20
  9
$PEXTMAX
 10
-1.000000000000000E+20
 20
-1.000000000000000E+20
 30
-1.000000000000000E+20
  9
$PLIMMIN
 10
0.0
 20
0.0
  9
$PLIMMAX
 10
420.0
 20
297.0
  9
$UNITMODE
 70
     0
  9
$VISRETAIN
 70
     1
  9
$PLINEGEN
 70
     0
  9
$PSLTSCALE
 70
     1
  9
$TREEDEPTH
 70
  3020
  9
$CMLSTYLE
  2
Standard
  9
$CMLJUST
 70
     0
  9
$CMLSCALE
 40
20.0
  9
$PROXYGRAPHICS
 70
     1
  9
$MEASUREMENT
 70
     1
  9
$CELWEIGHT
370
    -1
  9
$ENDCAPS
280
     0
  9
$JOINSTYLE
280
     0
  9
$LWDISPLAY
290
     0
  9
$INSUNITS
 70
     4
  9
$HYPERLINKBASE
  1

  9
$STYLESHEET
  1

  9
$XEDIT
290
     1
  9
$CEPSNTYPE
380
     0
  9
$PSTYLEMODE
290
     1
  9
$FINGERPRINTGUID
  2
{4CE9820A-7F46-4A1A-A908-213670E44B71}
  9
$VERSIONGUID
  2
{FAEB1C32-E019-11D5-929B-00C0DF256EC4}
  9
$EXTNAMES
290
     1
  9
$PSVPSCALE
 40
0.0
  9
$OLESTARTUP
290
     0
  0
ENDSEC
  0
SECTION
  2
CLASSES
  0
CLASS
  1
ACDBDICTIONARYWDFLT
  2
AcDbDictionaryWithDefault
  3
ObjectDBX Classes
 90
        0
280
     0
281
     0
  0
CLASS
  1
VISUALSTYLE
  2
AcDbVisualStyle
  3
ObjectDBX Classes
 90
     4095
280
     0
281
     0
  0
CLASS
  1
DICTIONARYVAR
  2
AcDbDictionaryVar
  3
ObjectDBX Classes
 90
        0
280
     0
281
     0
  0
CLASS
  1
ACDBPLACEHOLDER
  2
AcDbPlaceHolder
  3
ObjectDBX Classes
 90
        0
280
     0
281
     0
  0
CLASS
  1
LAYOUT
  2
AcDbLayout
  3
ObjectDBX Classes
 90
        0
280
     0
281
     0
  0
ENDSEC
  0
SECTION
  2
TABLES
  0
TABLE
  2
VPORT
  5
8
330
0
100
AcDbSymbolTable
 70
     1
  0
VPORT
  5
29
330
8
100
AcDbSymbolTableRecord
100
AcDbViewportTableRecord
  2
*Active
 70
     0
 10
0.0
 20
0.0
 11
1.0
 21
1.0
 12
0.0
 22
0.0
 13
0.0
 23
0.0
 14
10.0
 24
10.0
 15
10.0
 25
10.0
 16
0.0
 26
0.0
 36
1.0
 17
0.0
 27
0.0
 37
0.0
 40
3267.0
 41
1.414141414141414
 42
50.0
 43
0.0
 44
0.0
 50
0.0
 51
0.0
 71
     0
 72
 10000
 73
     1
 74
     3
 75
     0
 76
     0
 77
     0
 78
     0
281
     0
 65
     1
110
0.0
120
0.0
130
0.0
111
1.0
121
0.0
131
0.0
112
0.0
122
1.0
132
0.0
 79
     0
146
0.0
  0
ENDTAB
  0
TABLE
  2
LTYPE
  5
5
330
0
100
AcDbSymbolTable
 70
     6
  0
LTYPE
  5
14
330
5
100
AcDbSymbolTableRecord
100
AcDbLinetypeTableRecord
  2
ByBlock
 70
     0
  3

 72
    65
 73
     0
 40
0.0
  0
LTYPE
  5
15
330
5
100
AcDbSymbolTableRecord
100
AcDbLinetypeTableRecord
  2
ByLayer
 70
     0
  3

 72
    65
 73
     0
 40
0.0
  0
LTYPE
  5
16
330
5
100
AcDbSymbolTableRecord
100
AcDbLinetypeTableRecord
  2
Continuous
 70
     0
  3
Solid line
 72
    65
 73
     0
 40
0.0
  0
LTYPE
  5
3C
330
5
100
AcDbSymbolTableRecord
100
AcDbLinetypeTableRecord
  2
JWW_CENTER1
 70
     0
  3
-----  --  ----------  --  -----
 72
    65
 73
     4
 40
6.773333333333333
 49
4.233333333333333
 74
     0
 49
-0.8466666666666667
 74
     0
 49
0.8466666666666667
 74
     0
 49
-0.8466666666666667
 74
     0
  0
LTYPE
  5
3D
330
5
100
AcDbSymbolTableRecord
100
AcDbLinetypeTableRecord
  2
JWW_DASHED3
 70
     0
  3
---  ------  ------  ------  ---
 72
    65
 73
     2
 40
3.386666666666667
 49
2.54
 74
     0
 49
-0.8466666666666667
 74
     0
  0
LTYPE
  5
3E
330
5
100
AcDbSymbolTableRecord
100
AcDbLinetypeTableRecord
  2
JWW_CENTER2
 70
     0
  3
-------------  --  -------------
 72
    65
 73
     4
 40
13.54666666666667
 49
11.00666666666667
 74
     0
 49
-0.8466666666666667
 74
     0
 49
0.8466666666666667
 74
     0
 49
-0.8466666666666667
 74
     0
  0
LTYPE
  5
3F
330
5
100
AcDbSymbolTableRecord
100
AcDbLinetypeTableRecord
  2
JWW_PHANTOM1
 70
     0
  3
----  -  -  --------  -  -  ----
 72
    65
 73
     6
 40
6.773333333333333
 49
3.386666666666667
 74
     0
 49
-0.8466666666666667
 74
     0
 49
0.4233333333333333
 74
     0
 49
-0.8466666666666667
 74
     0
 49
0.4233333333333333
 74
     0
 49
-0.8466666666666667
 74
     0
  0
LTYPE
  5
40
330
5
100
AcDbSymbolTableRecord
100
AcDbLinetypeTableRecord
  2
JWW_DASHED2
 70
     0
  3
--    ----    ----    ----    --
 72
    65
 73
     2
 40
3.386666666666667
 49
1.693333333333333
 74
     0
 49
-1.693333333333333
 74
     0
  0
ENDTAB
  0
TABLE
  2
LAYER
  5
2
330
0
100
AcDbSymbolTable
 70
    17
  0
LAYER
  5
10
330
2
100
AcDbSymbolTableRecord
100
AcDbLayerTableRecord
  2
0
 70
     0
 62
     7
  6
Continuous
370
    -3
390
F
  0
LAYER
  5
41
330
2
100
AcDbSymbolTableRecord
100
AcDbLayerTableRecord
  2
C-2
 70
     0
 62
     7
  6
Continuous
370
    -3
390
F
  0
LAYER
  5
42
330
2
100
AcDbSymbolTableRecord
100
AcDbLayerTableRecord
  2
C-A
 70
     0
 62
     7
  6
Continuous
370
    -3
390
F
  0
LAYER
  5
43
330
2
100
AcDbSymbolTableRecord
100
AcDbLayerTableRecord
  2
C-5
 70
     0
 62
     7
  6
Continuous
370
    -3
390
F
  0
LAYER
  5
44
330
2
100
AcDbSymbolTableRecord
100
AcDbLayerTableRecord
  2
C-1
 70
     0
 62
     7
  6
Continuous
370
    -3
390
F
  0
LAYER
  5
45
330
2
100
AcDbSymbolTableRecord
100
AcDbLayerTableRecord
  2
C-4
 70
     0
 62
     7
  6
Continuous
370
    -3
390
F
  0
LAYER
  5
46
330
2
100
AcDbSymbolTableRecord
100
AcDbLayerTableRecord
  2
C-0
 70
     0
 62
     7
  6
Continuous
370
    -3
390
F
  0
LAYER
  5
47
330
2
100
AcDbSymbolTableRecord
100
AcDbLayerTableRecord
  2
D-4
 70
     0
 62
     7
  6
Continuous
370
    -3
390
F
  0
LAYER
  5
48
330
2
100
AcDbSymbolTableRecord
100
AcDbLayerTableRecord
  2
D-6
 70
     0
 62
     7
  6
Continuous
370
    -3
390
F
  0
LAYER
  5
49
330
2
100
AcDbSymbolTableRecord
100
AcDbLayerTableRecord
  2
D-5
 70
     0
 62
     7
  6
Continuous
370
    -3
390
F
  0
LAYER
  5
4A
330
2
100
AcDbSymbolTableRecord
100
AcDbLayerTableRecord
  2
D-0
 70
     0
 62
     7
  6
Continuous
370
    -3
390
F
  0
LAYER
  5
4B
330
2
100
AcDbSymbolTableRecord
100
AcDbLayerTableRecord
  2
D-9
 70
     0
 62
     7
  6
Continuous
370
    -3
390
F
  0
LAYER
  5
4C
330
2
100
AcDbSymbolTableRecord
100
AcDbLayerTableRecord
  2
D-1
 70
     0
 62
     7
  6
Continuous
370
    -3
390
F
  0
LAYER
  5
4D
330
2
100
AcDbSymbolTableRecord
100
AcDbLayerTableRecord
  2
D-3
 70
     0
 62
     7
  6
Continuous
370
    -3
390
F
  0
LAYER
  5
4E
330
2
100
AcDbSymbolTableRecord
100
AcDbLayerTableRecord
  2
D-A
 70
     0
 62
     7
  6
Continuous
370
    -3
390
F
  0
LAYER
  5
4F
330
2
100
AcDbSymbolTableRecord
100
AcDbLayerTableRecord
  2
D-2
 70
     0
 62
     7
  6
Continuous
370
    -3
390
F
  0
LAYER
  5
50
330
2
100
AcDbSymbolTableRecord
100
AcDbLayerTableRecord
  2
F-5
 70
     0
 62
     7
  6
Continuous
370
    -3
390
F
  0
ENDTAB
  0
TABLE
  2
STYLE
  5
3
330
0
100
AcDbSymbolTable
 70
     2
  0
STYLE
  5
11
330
3
100
AcDbSymbolTableRecord
100
AcDbTextStyleTableRecord
  2
Standard
 70
     0
 40
0.0
 41
1.0
 50
0.0
 71
     0
 42
2.5
  3
txt
  4

1001
ACAD
1000

1071
        0
  0
STYLE
  5
3B
330
3
100
AcDbSymbolTableRecord
100
AcDbTextStyleTableRecord
  2
ＭＳ ゴシック
 70
     0
 40
1.0
 41
1.0
 50
0.0
 71
     0
 42
10.0
  3

  4

1001
ACAD
1000
MS Gothic
1071
    32817
  0
ENDTAB
  0
TABLE
  2
VIEW
  5
6
330
0
100
AcDbSymbolTable
 70
     0
  0
ENDTAB
  0
TABLE
  2
UCS
  5
7
330
0
100
AcDbSymbolTable
 70
     0
  0
ENDTAB
  0
TABLE
  2
APPID
  5
9
330
0
100
AcDbSymbolTable
 70
     1
  0
APPID
  5
12
330
9
100
AcDbSymbolTableRecord
100
AcDbRegAppTableRecord
  2
ACAD
 70
     0
  0
ENDTAB
  0
TABLE
  2
DIMSTYLE
  5
A
330
0
100
AcDbSymbolTable
 70
     1
100
AcDbDimStyleTable
  0
DIMSTYLE
105
27
330
A
100
AcDbSymbolTableRecord
100
AcDbDimStyleTableRecord
  2
ISO-25
 70
     0
 41
2.5
 42
0.625
 43
3.75
 44
1.25
 73
     0
 74
     0
 77
     1
 78
     8
140
2.5
141
2.5
143
0.03937007874016
147
0.625
171
     3
172
     1
271
     2
272
     2
274
     3
278
    44
283
     0
284
     8
340
11
  0
ENDTAB
  0
TABLE
  2
BLOCK_RECORD
  5
1
330
0
100
AcDbSymbolTable
 70
     1
  0
BLOCK_RECORD
  5
1F
330
1
100
AcDbSymbolTableRecord
100
AcDbBlockTableRecord
  2
*Model_Space
340
22
  0
BLOCK_RECORD
  5
1B
330
1
100
AcDbSymbolTableRecord
100
AcDbBlockTableRecord
  2
*Paper_Space
340
1E
  0
BLOCK_RECORD
  5
23
330
1
100
AcDbSymbolTableRecord
100
AcDbBlockTableRecord
  2
*Paper_Space0
340
26
  0
ENDTAB
  0
ENDSEC
  0
SECTION
  2
BLOCKS
  0
BLOCK
  5
20
330
1F
100
AcDbEntity
  8
0
100
AcDbBlockBegin
  2
*Model_Space
 70
     0
 10
0.0
 20
0.0
 30
0.0
  3
*Model_Space
  1

  0
ENDBLK
  5
21
330
1F
100
AcDbEntity
  8
0
100
AcDbBlockEnd
  0
BLOCK
  5
1C
330
1B
100
AcDbEntity
 67
     1
  8
0
100
AcDbBlockBegin
  2
*Paper_Space
 70
     0
 10
0.0
 20
0.0
 30
0.0
  3
*Paper_Space
  1

  0
ENDBLK
  5
1D
330
1B
100
AcDbEntity
 67
     1
  8
0
100
AcDbBlockEnd
  0
BLOCK
  5
24
330
23
100
AcDbEntity
  8
0
100
AcDbBlockBegin
  2
*Paper_Space0
 70
     0
 10
0.0
 20
0.0
 30
0.0
  3
*Paper_Space0
  1

  0
ENDBLK
  5
25
330
23
100
AcDbEntity
  8
0
100
AcDbBlockEnd
  0
ENDSEC
  0
SECTION
  2
ENTITIES
  0
LINE
  5
51
330
1F
100
AcDbEntity
  8
C-2
  6
Continuous
 62
     3
370
     9
100
AcDbLine
 10
-1252.790420119827
 20
479.3240438925255
 30
0.0
 11
-1252.790420119827
 21
779.3233015730575
 31
0.0
  0
LINE
  5
52
330
1F
100
AcDbEntity
  8
C-2
  6
Continuous
 62
     3
370
     9
100
AcDbLine
 10
-1252.790420119827
 20
779.3233015730575
 30
0.0
 11
-653.2906197212835
 21
779.3233015730575
 31
0.0
  0
LINE
  5
53
330
1F
100
AcDbEntity
  8
C-2
  6
Continuous
 62
     3
370
     9
100
AcDbLine
 10
-653.2906197212835
 20
779.3233015730575
 30
0.0
 11
-653.2906197212835
 21
479.3240438925255
 31
0.0
  0
LINE
  5
54
330
1F
100
AcDbEntity
  8
C-2
  6
Continuous
 62
     3
370
     9
100
AcDbLine
 10
-653.2906197212835
 20
479.3240438925255
 30
0.0
 11
-1252.790420119827
 21
479.3240438925255
 31
0.0
  0
LINE
  5
55
330
1F
100
AcDbEntity
  8
C-2
  6
Continuous
 62
     3
370
     9
100
AcDbLine
 10
-1247.79052734375
 20
484.3243078283362
 30
0.0
 11
-1247.79052734375
 21
774.3230376372467
 31
0.0
  0
LINE
  5
56
330
1F
100
AcDbEntity
  8
C-2
  6
Continuous
 62
     3
370
     9
100
AcDbLine
 10
-1247.79052734375
 20
774.3230376372467
 30
0.0
 11
-658.290265057538
 21
774.3230376372467
 31
0.0
  0
LINE
  5
57
330
1F
100
AcDbEntity
  8
C-2
  6
Continuous
 62
     3
370
     9
100
AcDbLine
 10
-658.290265057538
 20
774.3230376372467
 30
0.0
 11
-658.290265057538
 21
484.3243078283362
 31
0.0
  0
LINE
  5
58
330
1F
100
AcDbEntity
  8
C-2
  6
Continuous
 62
     3
370
     9
100
AcDbLine
 10
-658.290265057538
 20
484.3243078283362
 30
0.0
 11
-1247.79052734375
 21
484.3243078283362
 31
0.0
  0
LINE
  5
59
330
1F
100
AcDbEntity
  8
C-2
  6
Continuous
 62
     3
370
     9
100
AcDbLine
 10
-658.290265057538
 20
484.3243078283362
 30
0.0
 11
-653.2906197212835
 21
479.3240438925255
 31
0.0
  0
LINE
  5
5A
330
1F
100
AcDbEntity
  8
C-2
  6
Continuous
 62
     3
370
     9
100
AcDbLine
 10
-653.2906197212835
 20
779.3233015730575
 30
0.0
 11
-658.290265057538
 21
774.3230376372467
 31
0.0
  0
LINE
  5
5B
330
1F
100
AcDbEntity
  8
C-2
  6
Continuous
 62
     3
370
     9
100
AcDbLine
 10
-1252.790420119827
 20
779.3233015730575
 30
0.0
 11
-1247.79052734375
 21
774.3230376372467
 31
0.0
  0
LINE
  5
5C
330
1F
100
AcDbEntity
  8
C-2
  6
Continuous
 62
     3
370
     9
100
AcDbLine
 10
-1252.790420119827
 20
479.3240438925255
 30
0.0
 11
-1247.79052734375
 21
484.3243078283362
 31
0.0
  0
LINE
  5
5D
330
1F
100
AcDbEntity
  8
C-A
  6
Continuous
 62
     3
370
     9
100
AcDbLine
 10
-1151.790309596706
 20
583.3238673854521
 30
0.0
 11
-1182.790436615815
 21
583.3238673854521
 31
0.0
  0
LINE
  5
5E
330
1F
100
AcDbEntity
  8
C-A
  6
Continuous
 62
     3
370
     9
100
AcDbLine
 10
-1149.790377230257
 20
673.3237931535052
 30
0.0
 11
-1149.790377230257
 21
585.3240471917231
 31
0.0
  0
LINE
  5
5F
330
1F
100
AcDbEntity
  8
C-A
  6
Continuous
 62
     3
370
     9
100
AcDbLine
 10
-1184.790430842219
 20
673.3237931535052
 30
0.0
 11
-1184.790430842219
 21
585.3240471917231
 31
0.0
  0
LINE
  5
60
330
1F
100
AcDbEntity
  8
C-A
  6
Continuous
 62
     3
370
     9
100
AcDbLine
 10
-1182.790436615815
 20
675.3240966796875
 30
0.0
 11
-1151.790309596706
 21
675.3240966796875
 31
0.0
  0
LINE
  5
61
330
1F
100
AcDbEntity
  8
C-A
  6
Continuous
 62
     3
370
     9
100
AcDbLine
 10
-1173.390692633551
 20
659.7237581820102
 30
0.0
 11
-1173.390692633551
 21
598.9230924039273
 31
0.0
  0
LINE
  5
62
330
1F
100
AcDbEntity
  8
C-A
  6
Continuous
 62
     3
370
     9
100
AcDbLine
 10
-1163.390535921664
 20
661.9239930848818
 30
0.0
 11
-1171.190272150813
 21
661.9239930848818
 31
0.0
  0
LINE
  5
63
330
1F
100
AcDbEntity
  8
C-A
  6
Continuous
 62
     3
370
     9
100
AcDbLine
 10
-1163.390535921664
 20
596.723352380701
 30
0.0
 11
-1171.190272150813
 21
596.723352380701
 31
0.0
  0
LINE
  5
64
330
1F
100
AcDbEntity
  8
C-A
  6
Continuous
 62
     3
370
     9
100
AcDbLine
 10
-1161.190362878748
 20
598.9230924039273
 30
0.0
 11
-1161.190362878748
 21
659.7237581820102
 31
0.0
  0
LINE
  5
65
330
1F
100
AcDbEntity
  8
C-5
  6
Continuous
 62
     7
370
     9
100
AcDbLine
 10
-940.5405405405405
 20
339.3243243243245
 30
0.0
 11
-940.5405405405405
 21
404.3239201726141
 31
0.0
  0
LINE
  5
66
330
1F
100
AcDbEntity
  8
C-5
  6
Continuous
 62
     7
370
     9
100
AcDbLine
 10
-940.5405405405405
 20
404.3239201726141
 30
0.0
 11
-365.5401281408359
 21
404.3239201726141
 31
0.0
  0
LINE
  5
67
330
1F
100
AcDbEntity
  8
C-5
  6
Continuous
 62
     7
370
     9
100
AcDbLine
 10
-365.5401281408359
 20
404.3239201726141
 30
0.0
 11
-365.5401281408359
 21
339.3243243243245
 31
0.0
  0
LINE
  5
68
330
1F
100
AcDbEntity
  8
C-5
  6
Continuous
 62
     7
370
     9
100
AcDbLine
 10
-365.5401281408359
 20
339.3243243243245
 30
0.0
 11
-940.5405405405405
 21
339.3243243243245
 31
0.0
  0
LINE
  5
69
330
1F
100
AcDbEntity
  8
C-A
  6
JWW_CENTER1
 62
     3
370
     9
100
AcDbLine
 10
-1199.790232890361
 20
629.3237964527029
 30
0.0
 11
-1134.790451462204
 21
629.3237964527029
 31
0.0
  0
LINE
  5
6A
330
1F
100
AcDbEntity
  8
C-A
  6
JWW_CENTER1
 62
     3
370
     9
100
AcDbLine
 10
-1167.290434966216
 20
568.3240653373102
 30
0.0
 11
-1167.290434966216
 21
690.3238987278294
 31
0.0
  0
LINE
  5
6B
330
1F
100
AcDbEntity
  8
C-2
  6
Continuous
 62
     3
370
     9
100
AcDbLine
 10
-652.790543839738
 20
479.3240438925255
 30
0.0
 11
-652.790543839738
 21
779.3233015730575
 31
0.0
  0
LINE
  5
6C
330
1F
100
AcDbEntity
  8
C-2
  6
Continuous
 62
     3
370
     9
100
AcDbLine
 10
-652.790543839738
 20
779.3233015730575
 30
0.0
 11
-53.29024856154973
 21
779.3233015730575
 31
0.0
  0
LINE
  5
6D
330
1F
100
AcDbEntity
  8
C-2
  6
Continuous
 62
     3
370
     9
100
AcDbLine
 10
-53.29024856154973
 20
779.3233015730575
 30
0.0
 11
-53.29024856154973
 21
479.3240438925255
 31
0.0
  0
LINE
  5
6E
330
1F
100
AcDbEntity
  8
C-2
  6
Continuous
 62
     3
370
     9
100
AcDbLine
 10
-53.29024856154973
 20
479.3240438925255
 30
0.0
 11
-652.790543839738
 21
479.3240438925255
 31
0.0
  0
LINE
  5
6F
330
1F
100
AcDbEntity
  8
C-2
  6
Continuous
 62
     3
370
     9
100
AcDbLine
 10
-647.7902799039273
 20
484.3243078283362
 30
0.0
 11
-647.7902799039273
 21
774.3230376372467
 31
0.0
  0
LINE
  5
70
330
1F
100
AcDbEntity
  8
C-2
  6
Continuous
 62
     3
370
     9
100
AcDbLine
 10
-647.7902799039273
 20
774.3230376372467
 30
0.0
 11
-58.2905124973604
 21
774.3230376372467
 31
0.0
  0
LINE
  5
71
330
1F
100
AcDbEntity
  8
C-2
  6
Continuous
 62
     3
370
     9
100
AcDbLine
 10
-58.2905124973604
 20
774.3230376372467
 30
0.0
 11
-58.2905124973604
 21
484.3243078283362
 31
0.0
  0
LINE
  5
72
330
1F
100
AcDbEntity
  8
C-2
  6
Continuous
 62
     3
370
     9
100
AcDbLine
 10
-58.2905124973604
 20
484.3243078283362
 30
0.0
 11
-647.7902799039273
 21
484.3243078283362
 31
0.0
  0
LINE
  5
73
330
1F
100
AcDbEntity
  8
C-2
  6
Continuous
 62
     3
370
     9
100
AcDbLine
 10
-58.2905124973604
 20
484.3243078283362
 30
0.0
 11
-53.29024856154973
 21
479.3240438925255
 31
0.0
  0
LINE
  5
74
330
1F
100
AcDbEntity
  8
C-2
  6
Continuous
 62
     3
370
     9
100
AcDbLine
 10
-53.29024856154973
 20
779.3233015730575
 30
0.0
 11
-58.2905124973604
 21
774.3230376372467
 31
0.0
  0
LINE
  5
75
330
1F
100
AcDbEntity
  8
C-2
  6
Continuous
 62
     3
370
     9
100
AcDbLine
 10
-652.790543839738
 20
779.3233015730575
 30
0.0
 11
-647.7902799039273
 21
774.3230376372467
 31
0.0
  0
LINE
  5
76
330
1F
100
AcDbEntity
  8
C-2
  6
Continuous
 62
     3
370
     9
100
AcDbLine
 10
-652.790543839738
 20
479.3240438925255
 30
0.0
 11
-647.7902799039273
 21
484.3243078283362
 31
0.0
  0
LINE
  5
77
330
1F
100
AcDbEntity
  8
C-2
  6
Continuous
 62
     3
370
     9
100
AcDbLine
 10
-52.79054383973801
 20
479.3240438925255
 30
0.0
 11
-52.79054383973801
 21
779.3233015730575
 31
0.0
  0
LINE
  5
78
330
1F
100
AcDbEntity
  8
C-2
  6
Continuous
 62
     3
370
     9
100
AcDbLine
 10
-47.79052734375
 20
484.3243078283362
 30
0.0
 11
-47.79052734375
 21
774.3230376372467
 31
0.0
  0
LINE
  5
79
330
1F
100
AcDbEntity
  8
C-2
  6
Continuous
 62
     3
370
     9
100
AcDbLine
 10
-52.79054383973801
 20
779.3233015730575
 30
0.0
 11
-47.79052734375
 21
774.3230376372467
 31
0.0
  0
LINE
  5
7A
330
1F
100
AcDbEntity
  8
C-2
  6
Continuous
 62
     3
370
     9
100
AcDbLine
 10
-52.79054383973801
 20
479.3240438925255
 30
0.0
 11
-47.79052734375
 21
484.3243078283362
 31
0.0
  0
LINE
  5
7B
330
1F
100
AcDbEntity
  8
C-2
  6
Continuous
 62
     3
370
     9
100
AcDbLine
 10
-1253.290372281461
 20
779.3233015730575
 30
0.0
 11
-1253.290372281461
 21
479.3240438925255
 31
0.0
  0
LINE
  5
7C
330
1F
100
AcDbEntity
  8
C-2
  6
Continuous
 62
     3
370
     9
100
AcDbLine
 10
-1258.290512497361
 20
774.3230376372467
 30
0.0
 11
-1258.290512497361
 21
484.3243078283362
 31
0.0
  0
LINE
  5
7D
330
1F
100
AcDbEntity
  8
C-2
  6
Continuous
 62
     3
370
     9
100
AcDbLine
 10
-1258.290512497361
 20
484.3243078283362
 30
0.0
 11
-1253.290372281461
 21
479.3240438925255
 31
0.0
  0
LINE
  5
7E
330
1F
100
AcDbEntity
  8
C-2
  6
Continuous
 62
     3
370
     9
100
AcDbLine
 10
-1253.290372281461
 20
779.3233015730575
 30
0.0
 11
-1258.290512497361
 21
774.3230376372467
 31
0.0
  0
LINE
  5
7F
330
1F
100
AcDbEntity
  8
C-2
  6
Continuous
 62
     3
370
     9
100
AcDbLine
 10
-52.79054383973801
 20
779.3233015730575
 30
0.0
 11
247.2097036000847
 21
779.3233015730575
 31
0.0
  0
LINE
  5
80
330
1F
100
AcDbEntity
  8
C-2
  6
Continuous
 62
     3
370
     9
100
AcDbLine
 10
-47.79052734375
 20
774.3230376372467
 30
0.0
 11
247.2097036000847
 21
774.3230376372467
 31
0.0
  0
LINE
  5
81
330
1F
100
AcDbEntity
  8
C-2
  6
Continuous
 62
     3
370
     9
100
AcDbLine
 10
247.2097036000847
 20
484.3243078283362
 30
0.0
 11
-47.79052734375
 21
484.3243078283362
 31
0.0
  0
LINE
  5
82
330
1F
100
AcDbEntity
  8
C-2
  6
Continuous
 62
     3
370
     9
100
AcDbLine
 10
247.2097036000847
 20
479.3240438925255
 30
0.0
 11
-52.79054383973801
 21
479.3240438925255
 31
0.0
  0
LINE
  5
83
330
1F
100
AcDbEntity
  8
C-2
  6
Continuous
 62
     3
370
     9
100
AcDbLine
 10
-1553.290434141417
 20
779.3233015730575
 30
0.0
 11
-1253.290372281461
 21
779.3233015730575
 31
0.0
  0
LINE
  5
84
330
1F
100
AcDbEntity
  8
C-2
  6
Continuous
 62
     3
370
     9
100
AcDbLine
 10
-1253.290372281461
 20
479.3240438925255
 30
0.0
 11
-1553.290434141417
 21
479.3240438925255
 31
0.0
  0
LINE
  5
85
330
1F
100
AcDbEntity
  8
C-2
  6
Continuous
 62
     3
370
     9
100
AcDbLine
 10
-1553.290434141417
 20
774.3230376372467
 30
0.0
 11
-1258.290512497361
 21
774.3230376372467
 31
0.0
  0
LINE
  5
86
330
1F
100
AcDbEntity
  8
C-2
  6
Continuous
 62
     3
370
     9
100
AcDbLine
 10
-1258.290512497361
 20
484.3243078283362
 30
0.0
 11
-1553.290434141417
 21
484.3243078283362
 31
0.0
  0
LINE
  5
87
330
1F
100
AcDbEntity
  8
C-1
  6
JWW_DASHED3
 62
     2
370
     9
100
AcDbLine
 10
-1553.290434141417
 20
754.322971653294
 30
0.0
 11
247.2097036000847
 21
754.322971653294
 31
0.0
  0
LINE
  5
88
330
1F
100
AcDbEntity
  8
C-1
  6
Continuous
 62
     2
370
     9
100
AcDbLine
 10
-1553.290434141417
 20
780.323205896326
 30
0.0
 11
247.2097036000847
 21
780.323205896326
 31
0.0
  0
LINE
  5
89
330
1F
100
AcDbEntity
  8
C-1
  6
Continuous
 62
     2
370
     9
100
AcDbLine
 10
-1553.290434141417
 20
787.3232784786742
 30
0.0
 11
247.2097036000847
 21
787.3232784786742
 31
0.0
  0
LINE
  5
8A
330
1F
100
AcDbEntity
  8
C-1
  6
JWW_DASHED3
 62
     2
370
     9
100
AcDbLine
 10
-1553.290434141417
 20
504.3238789326438
 30
0.0
 11
247.2097036000847
 21
504.3238789326438
 31
0.0
  0
LINE
  5
8B
330
1F
100
AcDbEntity
  8
C-1
  6
Continuous
 62
     2
370
     9
100
AcDbLine
 10
-1553.290434141417
 20
478.3241395692568
 30
0.0
 11
247.2097036000847
 21
478.3241395692568
 31
0.0
  0
LINE
  5
8C
330
1F
100
AcDbEntity
  8
C-1
  6
Continuous
 62
     2
370
     9
100
AcDbLine
 10
-1553.290434141417
 20
471.3240669869089
 30
0.0
 11
247.2097036000847
 21
471.3240669869089
 31
0.0
  0
LINE
  5
8D
330
1F
100
AcDbEntity
  8
C-4
  6
Continuous
 62
     7
370
     9
100
AcDbLine
 10
-1553.290434141417
 20
887.3231135187925
 30
0.0
 11
247.2097036000847
 21
887.3231135187925
 31
0.0
  0
LINE
  5
8E
330
1F
100
AcDbEntity
  8
C-4
  6
Continuous
 62
     7
370
     9
100
AcDbLine
 10
-1253.290372281461
 20
807.3233444626269
 30
0.0
 11
-1253.290372281461
 21
890.3233213682436
 31
0.0
  0
LINE
  5
8F
330
1F
100
AcDbEntity
  8
C-4
  6
Continuous
 62
     7
370
     9
100
AcDbLine
 10
-1252.790420119827
 20
807.3233444626269
 30
0.0
 11
-1252.790420119827
 21
970.3235853040542
 31
0.0
  0
LINE
  5
90
330
1F
100
AcDbEntity
  8
C-4
  6
Continuous
 62
     7
370
     9
100
AcDbLine
 10
-653.2906197212835
 20
807.3233444626269
 30
0.0
 11
-653.2906197212835
 21
890.3233213682436
 31
0.0
  0
LINE
  5
91
330
1F
100
AcDbEntity
  8
C-4
  6
Continuous
 62
     7
370
     9
100
AcDbLine
 10
-652.790543839738
 20
807.3233444626269
 30
0.0
 11
-652.790543839738
 21
970.3235853040542
 31
0.0
  0
LINE
  5
92
330
1F
100
AcDbEntity
  8
C-4
  6
Continuous
 62
     7
370
     9
100
AcDbLine
 10
-53.29024856154973
 20
807.3233444626269
 30
0.0
 11
-53.29024856154973
 21
890.3233213682436
 31
0.0
  0
LINE
  5
93
330
1F
100
AcDbEntity
  8
C-4
  6
Continuous
 62
     7
370
     9
100
AcDbLine
 10
-52.79054383973801
 20
807.3233444626269
 30
0.0
 11
-52.79054383973801
 21
970.3235853040542
 31
0.0
  0
LINE
  5
94
330
1F
100
AcDbEntity
  8
C-4
  6
Continuous
 62
     7
370
     9
100
AcDbLine
 10
-1553.290434141417
 20
967.3231300147804
 30
0.0
 11
247.2097036000847
 21
967.3231300147804
 31
0.0
  0
LINE
  5
95
330
1F
100
AcDbEntity
  8
C-2
  6
Continuous
 62
     3
370
     9
100
AcDbLine
 10
-1573.290438265414
 20
614.3234995249156
 30
0.0
 11
-1553.290434141417
 21
614.3234995249156
 31
0.0
  0
LINE
  5
96
330
1F
100
AcDbEntity
  8
C-2
  6
Continuous
 62
     3
370
     9
100
AcDbLine
 10
-1573.290438265414
 20
614.3234995249156
 30
0.0
 11
-1533.290491877376
 21
644.3240933804898
 31
0.0
  0
LINE
  5
97
330
1F
100
AcDbEntity
  8
C-2
  6
Continuous
 62
     3
370
     9
100
AcDbLine
 10
-1553.290434141417
 20
644.3240933804898
 30
0.0
 11
-1533.290491877376
 21
644.3240933804898
 31
0.0
  0
LINE
  5
98
330
1F
100
AcDbEntity
  8
C-2
  6
Continuous
 62
     3
370
     9
100
AcDbLine
 10
227.2096376161318
 20
614.3234995249156
 30
0.0
 11
267.2097695840372
 21
644.3240933804898
 31
0.0
  0
LINE
  5
99
330
1F
100
AcDbEntity
  8
C-2
  6
Continuous
 62
     3
370
     9
100
AcDbLine
 10
227.2096376161318
 20
614.3234995249156
 30
0.0
 11
247.2097036000847
 21
614.3234995249156
 31
0.0
  0
LINE
  5
9A
330
1F
100
AcDbEntity
  8
C-2
  6
Continuous
 62
     3
370
     9
100
AcDbLine
 10
247.2097036000847
 20
644.3240933804898
 30
0.0
 11
267.2097695840372
 21
644.3240933804898
 31
0.0
  0
LINE
  5
9B
330
1F
100
AcDbEntity
  8
C-2
  6
Continuous
 62
     3
370
     9
100
AcDbLine
 10
-1553.290434141417
 20
614.3234995249156
 30
0.0
 11
-1553.290434141417
 21
456.3237700591216
 31
0.0
  0
LINE
  5
9C
330
1F
100
AcDbEntity
  8
C-2
  6
Continuous
 62
     3
370
     9
100
AcDbLine
 10
-1553.290434141417
 20
802.3230805268158
 30
0.0
 11
-1553.290434141417
 21
644.3240933804898
 31
0.0
  0
LINE
  5
9D
330
1F
100
AcDbEntity
  8
C-2
  6
Continuous
 62
     3
370
     9
100
AcDbLine
 10
247.2097036000847
 20
802.3230805268158
 30
0.0
 11
247.2097036000847
 21
644.3240933804898
 31
0.0
  0
LINE
  5
9E
330
1F
100
AcDbEntity
  8
C-2
  6
Continuous
 62
     3
370
     9
100
AcDbLine
 10
247.2097036000847
 20
614.3234995249156
 30
0.0
 11
247.2097036000847
 21
456.3237700591216
 31
0.0
  0
LINE
  5
9F
330
1F
100
AcDbEntity
  8
C-4
  6
Continuous
 62
     7
370
     9
100
AcDbLine
 10
1285.105937236065
 20
249.6070985536318
 30
0.0
 11
758.6297112542229
 21
249.6070985536318
 31
0.0
  0
LINE
  5
A0
330
1F
100
AcDbEntity
  8
C-4
  6
Continuous
 62
     7
370
     9
100
AcDbLine
 10
410.6159931904563
 20
845.033420872044
 30
0.0
 11
740.512662320524
 21
845.033420872044
 31
0.0
  0
LINE
  5
A1
330
1F
100
AcDbEntity
  8
C-4
  6
Continuous
 62
     7
370
     9
100
AcDbLine
 10
469.4408519847974
 20
414.1397342166385
 30
0.0
 11
812.6106880806589
 21
414.1397342166385
 31
0.0
  0
LINE
  5
A2
330
1F
100
AcDbEntity
  8
C-4
  6
Continuous
 62
     7
370
     9
100
AcDbLine
 10
470.7384264146958
 20
576.7738878404773
 30
0.0
 11
805.0692171663854
 21
576.7738878404773
 31
0.0
  0
LINE
  5
A3
330
1F
100
AcDbEntity
  8
C-0
  6
Continuous
 62
     3
370
     9
100
AcDbLine
 10
1235.822852882179
 20
1181.482049065667
 30
0.0
 11
795.8228858741558
 21
1181.482049065667
 31
0.0
  0
LINE
  5
A4
330
1F
100
AcDbEntity
  8
C-0
  6
Continuous
 62
     3
370
     9
100
AcDbLine
 10
1245.822885874156
 20
1016.481999577703
 30
0.0
 11
1245.822885874156
 21
1171.482016073691
 31
0.0
  0
LINE
  5
A5
330
1F
100
AcDbEntity
  8
C-0
  6
Continuous
 62
     3
370
     9
100
AcDbLine
 10
785.8228528821792
 20
1016.481999577703
 30
0.0
 11
785.8228528821792
 21
1171.482016073691
 31
0.0
  0
LINE
  5
A6
330
1F
100
AcDbEntity
  8
C-0
  6
Continuous
 62
     3
370
     9
100
AcDbLine
 10
795.8228858741558
 20
1006.481966585727
 30
0.0
 11
1235.822852882179
 21
1006.481966585727
 31
0.0
  0
LINE
  5
A7
330
1F
100
AcDbEntity
  8
C-0
  6
Continuous
 62
     3
370
     9
100
AcDbLine
 10
852.8231234163854
 20
1074.482141443201
 30
0.0
 11
852.8231234163854
 21
1113.481874208193
 31
0.0
  0
LINE
  5
A8
330
1F
100
AcDbEntity
  8
C-0
  6
Continuous
 62
     3
370
     9
100
AcDbLine
 10
1167.822678024705
 20
1124.48205896326
 30
0.0
 11
863.8228132918078
 21
1124.48205896326
 31
0.0
  0
LINE
  5
A9
330
1F
100
AcDbEntity
  8
C-0
  6
Continuous
 62
     3
370
     9
100
AcDbLine
 10
1178.822862779772
 20
1074.482141443201
 30
0.0
 11
1178.822862779772
 21
1113.481874208193
 31
0.0
  0
LINE
  5
AA
330
1F
100
AcDbEntity
  8
C-0
  6
Continuous
 62
     3
370
     9
100
AcDbLine
 10
1167.822678024705
 20
1063.482204127956
 30
0.0
 11
863.8228132918078
 21
1063.482204127956
 31
0.0
  0
LINE
  5
AB
330
1F
100
AcDbEntity
  8
C-4
  6
Continuous
 62
     7
370
     9
100
AcDbLine
 10
785.8228528821792
 20
917.9734843486065
 30
0.0
 11
1245.822885874156
 21
917.9734843486065
 31
0.0
  0
LINE
  5
AC
330
1F
100
AcDbEntity
  8
C-4
  6
Continuous
 62
     7
370
     9
100
AcDbLine
 10
785.8228528821792
 20
991.4821645375846
 30
0.0
 11
785.8228528821792
 21
914.9735239389781
 31
0.0
  0
LINE
  5
AD
330
1F
100
AcDbEntity
  8
C-4
  6
Continuous
 62
     7
370
     9
100
AcDbLine
 10
1245.822885874156
 20
991.4821645375846
 30
0.0
 11
1245.822885874156
 21
914.9735239389781
 31
0.0
  0
LINE
  5
AE
330
1F
100
AcDbEntity
  8
C-4
  6
Continuous
 62
     7
370
     9
100
AcDbLine
 10
1424.522688582137
 20
1006.481966585727
 30
0.0
 11
1424.522688582137
 21
1181.482049065667
 31
0.0
  0
LINE
  5
AF
330
1F
100
AcDbEntity
  8
C-4
  6
Continuous
 62
     7
370
     9
100
AcDbLine
 10
1260.82293536212
 20
1006.481966585727
 30
0.0
 11
1427.52314387141
 21
1006.481966585727
 31
0.0
  0
LINE
  5
B0
330
1F
100
AcDbEntity
  8
C-4
  6
Continuous
 62
     7
370
     9
100
AcDbLine
 10
1260.82293536212
 20
1181.482049065667
 30
0.0
 11
1427.52314387141
 21
1181.482049065667
 31
0.0
  0
LINE
  5
B1
330
1F
100
AcDbEntity
  8
C-4
  6
Continuous
 62
     7
370
     9
100
AcDbLine
 10
1424.522688582137
 20
426.4833934887037
 30
0.0
 11
1424.522688582137
 21
826.4831048089106
 31
0.0
  0
LINE
  5
B2
330
1F
100
AcDbEntity
  8
C-4
  6
Continuous
 62
     7
370
     9
100
AcDbLine
 10
1115.822951858108
 20
426.4833934887037
 30
0.0
 11
1427.52314387141
 21
426.4833934887037
 31
0.0
  0
LINE
  5
B3
330
1F
100
AcDbEntity
  8
C-4
  6
Continuous
 62
     7
370
     9
100
AcDbLine
 10
1270.823215793919
 20
676.4831048089106
 30
0.0
 11
1427.52314387141
 21
676.4831048089106
 31
0.0
  0
LINE
  5
B4
330
1F
100
AcDbEntity
  8
C-4
  6
Continuous
 62
     7
370
     9
100
AcDbLine
 10
1200.323156408361
 20
826.4831048089106
 30
0.0
 11
1427.52314387141
 21
826.4831048089106
 31
0.0
  0
LINE
  5
B5
330
1F
100
AcDbEntity
  8
C-0
  6
JWW_CENTER1
 62
     3
370
     9
100
AcDbLine
 10
1015.822869378167
 20
974.977928367821
 30
0.0
 11
1015.822869378167
 21
1218.154857738598
 31
0.0
  0
LINE
  5
B6
330
1F
100
AcDbEntity
  8
C-0
  6
JWW_CENTER1
 62
     3
370
     9
100
AcDbLine
 10
750.9853053737334
 20
1093.981636665963
 30
0.0
 11
1282.233408335093
 21
1093.981636665963
 31
0.0
  0
LINE
  5
B7
330
1F
100
AcDbEntity
  8
C-0
  6
JWW_CENTER2
 62
     3
370
     9
100
AcDbLine
 10
1015.822869378167
 20
883.8290157833617
 30
0.0
 11
1015.822869378167
 21
355.9009366422086
 31
0.0
  0
LINE
  5
B8
330
1F
100
AcDbEntity
  8
C-0
  6
Continuous
 62
     3
370
     9
100
AcDbLine
 10
855.8230838260135
 20
478.9831955368456
 30
0.0
 11
1175.822902370144
 21
478.9831955368456
 31
0.0
  0
LINE
  5
B9
330
1F
100
AcDbEntity
  8
C-0
  6
Continuous
 62
     3
370
     9
100
AcDbLine
 10
855.8230838260135
 20
466.4830305769638
 30
0.0
 11
1175.822902370144
 21
466.4830305769638
 31
0.0
  0
LINE
  5
BA
330
1F
100
AcDbEntity
  8
C-0
  6
Continuous
 62
     3
370
     9
100
AcDbLine
 10
940.8231168179901
 20
485.983391839105
 30
0.0
 11
955.8229188661318
 21
480.482928301837
 31
0.0
  0
LINE
  5
BB
330
1F
100
AcDbEntity
  8
C-0
  6
Continuous
 62
     3
370
     9
100
AcDbLine
 10
1090.822869378167
 20
485.983391839105
 30
0.0
 11
1075.822819890202
 21
480.482928301837
 31
0.0
  0
LINE
  5
BC
330
1F
100
AcDbEntity
  8
C-0
  6
Continuous
 62
     3
370
     9
100
AcDbLine
 10
955.8229188661318
 20
480.482928301837
 30
0.0
 11
955.8229188661318
 21
478.9831955368456
 31
0.0
  0
LINE
  5
BD
330
1F
100
AcDbEntity
  8
C-0
  6
Continuous
 62
     3
370
     9
100
AcDbLine
 10
1075.822819890202
 20
480.482928301837
 30
0.0
 11
1075.822819890202
 21
478.9831955368456
 31
0.0
  0
LINE
  5
BE
330
1F
100
AcDbEntity
  8
C-0
  6
Continuous
 62
     3
370
     9
100
AcDbLine
 10
935.8228528821792
 20
431.4831625448693
 30
0.0
 11
935.8228528821792
 21
466.4830305769638
 31
0.0
  0
LINE
  5
BF
330
1F
100
AcDbEntity
  8
C-0
  6
Continuous
 62
     3
370
     9
100
AcDbLine
 10
1090.822869378167
 20
426.4833934887037
 30
0.0
 11
940.8231168179901
 21
426.4833934887037
 31
0.0
  0
LINE
  5
C0
330
1F
100
AcDbEntity
  8
C-0
  6
Continuous
 62
     3
370
     9
100
AcDbLine
 10
1095.822885874156
 20
431.4831625448693
 30
0.0
 11
1095.822885874156
 21
466.4830305769638
 31
0.0
  0
LINE
  5
C1
330
1F
100
AcDbEntity
  8
C-0
  6
Continuous
 62
     3
370
     9
100
AcDbLine
 10
855.8230838260135
 20
478.9831955368456
 30
0.0
 11
855.8230838260135
 21
456.4829975849875
 31
0.0
  0
LINE
  5
C2
330
1F
100
AcDbEntity
  8
C-0
  6
Continuous
 62
     3
370
     9
100
AcDbLine
 10
1175.822902370144
 20
478.9831955368456
 30
0.0
 11
1175.822902370144
 21
456.4829975849875
 31
0.0
  0
LINE
  5
C3
330
1F
100
AcDbEntity
  8
C-0
  6
Continuous
 62
     3
370
     9
100
AcDbLine
 10
855.8230838260135
 20
456.4829975849875
 30
0.0
 11
934.5727868982266
 21
456.4829975849875
 31
0.0
  0
LINE
  5
C4
330
1F
100
AcDbEntity
  8
C-0
  6
Continuous
 62
     3
370
     9
100
AcDbLine
 10
1097.072951858108
 20
456.4829975849875
 30
0.0
 11
1175.822902370144
 21
456.4829975849875
 31
0.0
  0
LINE
  5
C5
330
1F
100
AcDbEntity
  8
C-0
  6
Continuous
 62
     3
370
     9
100
AcDbLine
 10
1097.072951858108
 20
466.4830305769638
 30
0.0
 11
1097.072951858108
 21
456.4829975849875
 31
0.0
  0
LINE
  5
C6
330
1F
100
AcDbEntity
  8
C-0
  6
Continuous
 62
     3
370
     9
100
AcDbLine
 10
934.5727868982266
 20
466.4830305769638
 30
0.0
 11
934.5727868982266
 21
456.4829975849875
 31
0.0
  0
LINE
  5
C7
330
1F
100
AcDbEntity
  8
C-0
  6
Continuous
 62
     3
370
     9
100
AcDbLine
 10
1178.822862779772
 20
626.4831872888516
 30
0.0
 11
852.8231234163854
 21
626.4831872888516
 31
0.0
  0
LINE
  5
C8
330
1F
100
AcDbEntity
  8
C-0
  6
Continuous
 62
     3
370
     9
100
AcDbLine
 10
1196.774374472129
 20
657.8699390308279
 30
0.0
 11
1191.322780299831
 21
638.9833522487334
 31
0.0
  0
LINE
  5
C9
330
1F
100
AcDbEntity
  8
C-0
  6
Continuous
 62
     3
370
     9
100
AcDbLine
 10
834.8718591638516
 20
657.8699390308279
 30
0.0
 11
840.323205896326
 21
638.9833522487334
 31
0.0
  0
LINE
  5
CA
330
1F
100
AcDbEntity
  8
C-0
  6
Continuous
 62
     3
370
     9
100
AcDbLine
 10
785.8233477618245
 20
661.483055320946
 30
0.0
 11
1245.822885874156
 21
661.483055320946
 31
0.0
  0
LINE
  5
CB
330
1F
100
AcDbEntity
  8
C-0
  6
JWW_PHANTOM1
 62
     3
370
     9
100
AcDbLine
 10
856.3229122677365
 20
826.4831048089106
 30
0.0
 11
1175.322826488598
 21
826.4831048089106
 31
0.0
  0
LINE
  5
CC
330
1F
100
AcDbEntity
  8
C-0
  6
JWW_PHANTOM1
 62
     3
370
     9
100
AcDbLine
 10
856.3229122677365
 20
803.9829068570526
 30
0.0
 11
1175.322826488598
 21
803.9829068570526
 31
0.0
  0
LINE
  5
CD
330
1F
100
AcDbEntity
  8
C-0
  6
JWW_PHANTOM1
 62
     3
370
     9
100
AcDbLine
 10
856.3229122677365
 20
826.4831048089106
 30
0.0
 11
856.3229122677365
 21
803.9829068570526
 31
0.0
  0
LINE
  5
CE
330
1F
100
AcDbEntity
  8
C-0
  6
JWW_PHANTOM1
 62
     3
370
     9
100
AcDbLine
 10
1175.322826488598
 20
826.4831048089106
 30
0.0
 11
1175.322826488598
 21
803.9829068570526
 31
0.0
  0
LINE
  5
CF
330
1F
100
AcDbEntity
  8
C-0
  6
JWW_PHANTOM1
 62
     3
370
     9
100
AcDbLine
 10
1169.323153109164
 20
803.9829068570526
 30
0.0
 11
1169.323153109164
 21
791.4834842166385
 31
0.0
  0
LINE
  5
D0
330
1F
100
AcDbEntity
  8
C-0
  6
JWW_PHANTOM1
 62
     3
370
     9
100
AcDbLine
 10
862.3228330869932
 20
803.9829068570526
 30
0.0
 11
862.3228330869932
 21
791.4834842166385
 31
0.0
  0
LINE
  5
D1
330
1F
100
AcDbEntity
  8
C-0
  6
JWW_PHANTOM1
 62
     3
370
     9
100
AcDbLine
 10
950.8226549303214
 20
791.4834842166385
 30
0.0
 11
862.3228330869932
 21
791.4834842166385
 31
0.0
  0
LINE
  5
D2
330
1F
100
AcDbEntity
  8
C-0
  6
JWW_PHANTOM1
 62
     3
370
     9
100
AcDbLine
 10
1080.822836386191
 20
791.4834842166385
 30
0.0
 11
1169.323153109164
 21
791.4834842166385
 31
0.0
  0
LINE
  5
D3
330
1F
100
AcDbEntity
  8
C-0
  6
Continuous
 62
     3
370
     9
100
AcDbLine
 10
785.8233477618245
 20
671.9829167546453
 30
0.0
 11
785.8233477618245
 21
661.483055320946
 31
0.0
  0
LINE
  5
D4
330
1F
100
AcDbEntity
  8
C-0
  6
Continuous
 62
     3
370
     9
100
AcDbLine
 10
1241.323192699535
 20
676.4831048089106
 30
0.0
 11
790.3232883762672
 21
676.4831048089106
 31
0.0
  0
LINE
  5
D5
330
1F
100
AcDbEntity
  8
C-0
  6
Continuous
 62
     3
370
     9
100
AcDbLine
 10
1245.822885874156
 20
671.9829167546453
 30
0.0
 11
1245.822885874156
 21
661.483055320946
 31
0.0
  0
LINE
  5
D6
330
1F
100
AcDbEntity
  8
C-0
  6
Continuous
 62
     3
370
     9
100
AcDbLine
 10
940.8231168179901
 20
551.9831394504856
 30
0.0
 11
940.8231168179901
 21
485.983391839105
 31
0.0
  0
LINE
  5
D7
330
1F
100
AcDbEntity
  8
C-0
  6
JWW_PHANTOM1
 62
     3
370
     9
100
AcDbLine
 10
940.8231168179901
 20
704.4833951383026
 30
0.0
 11
940.8231168179901
 21
676.4831048089106
 31
0.0
  0
LINE
  5
D8
330
1F
100
AcDbEntity
  8
C-0
  6
Continuous
 62
     3
370
     9
100
AcDbLine
 10
965.8227044182854
 20
588.9833110087627
 30
0.0
 11
965.8227044182854
 21
626.4831872888516
 31
0.0
  0
LINE
  5
D9
330
1F
100
AcDbEntity
  8
C-0
  6
JWW_PHANTOM1
 62
     3
370
     9
100
AcDbLine
 10
965.8231992979307
 20
741.4828243771117
 30
0.0
 11
965.8231992979307
 21
776.482939849029
 31
0.0
  0
LINE
  5
DA
330
1F
100
AcDbEntity
  8
C-0
  6
JWW_PHANTOM1
 62
     3
370
     9
100
AcDbLine
 10
1065.823281777872
 20
741.4828243771117
 30
0.0
 11
1065.823281777872
 21
776.482939849029
 31
0.0
  0
LINE
  5
DB
330
1F
100
AcDbEntity
  8
C-0
  6
Continuous
 62
     3
370
     9
100
AcDbLine
 10
1090.822869378167
 20
551.9024740683068
 30
0.0
 11
1090.822869378167
 21
485.983391839105
 31
0.0
  0
LINE
  5
DC
330
1F
100
AcDbEntity
  8
C-0
  6
Continuous
 62
     3
370
     9
100
AcDbLine
 10
1065.822786898227
 20
588.9833110087627
 30
0.0
 11
1065.822786898227
 21
626.4831872888516
 31
0.0
  0
LINE
  5
DD
330
1F
100
AcDbEntity
  8
C-0
  6
JWW_PHANTOM1
 62
     3
370
     9
100
AcDbLine
 10
1090.822869378167
 20
704.4019874366554
 30
0.0
 11
1090.822869378167
 21
676.4831048089106
 31
0.0
  0
LINE
  5
DE
330
1F
100
AcDbEntity
  8
C-0
  6
JWW_PHANTOM1
 62
     3
370
     9
100
AcDbLine
 10
962.8229914484797
 20
818.9832037848396
 30
0.0
 11
1068.822747307855
 21
818.9832037848396
 31
0.0
  0
LINE
  5
DF
330
1F
100
AcDbEntity
  8
C-0
  6
JWW_PHANTOM1
 62
     3
370
     9
100
AcDbLine
 10
962.8229914484797
 20
818.9832037848396
 30
0.0
 11
962.8229914484797
 21
803.9829068570526
 31
0.0
  0
LINE
  5
E0
330
1F
100
AcDbEntity
  8
C-0
  6
JWW_PHANTOM1
 62
     3
370
     9
100
AcDbLine
 10
1068.822747307855
 20
818.9832037848396
 30
0.0
 11
1068.822747307855
 21
803.9829068570526
 31
0.0
  0
LINE
  5
E1
330
1F
100
AcDbEntity
  8
C-4
  6
Continuous
 62
     7
370
     9
100
AcDbLine
 10
740.512662320524
 20
845.033420872044
 30
0.0
 11
835.896260029561
 21
676.4831048089106
 31
0.0
  0
LINE
  5
E2
330
1F
100
AcDbEntity
  8
C-4
  6
Continuous
 62
     7
370
     9
100
AcDbLine
 10
835.896260029561
 20
676.4831048089106
 30
0.0
 11
820.8487020956505
 21
696.447539458404
 31
0.0
  0
LINE
  5
E3
330
1F
100
AcDbEntity
  8
C-4
  6
Continuous
 62
     7
370
     9
100
AcDbLine
 10
835.896260029561
 20
676.4831048089106
 30
0.0
 11
826.5284357844172
 21
699.6620301942568
 31
0.0
  0
LINE
  5
E4
330
1F
100
AcDbEntity
  8
C-4
  6
Continuous
 62
     7
370
     9
100
AcDbLine
 10
805.0692171663854
 20
576.7738878404773
 30
0.0
 11
889.4803433804901
 21
626.4831872888516
 31
0.0
  0
LINE
  5
E5
330
1F
100
AcDbEntity
  8
C-4
  6
Continuous
 62
     7
370
     9
100
AcDbLine
 10
889.4803433804901
 20
626.4831872888516
 30
0.0
 11
869.7781949429901
 21
611.0939149598818
 31
0.0
  0
LINE
  5
E6
330
1F
100
AcDbEntity
  8
C-4
  6
Continuous
 62
     7
370
     9
100
AcDbLine
 10
889.4803433804901
 20
626.4831872888516
 30
0.0
 11
866.4662129170188
 21
616.7177272487334
 31
0.0
  0
LINE
  5
E7
330
1F
100
AcDbEntity
  8
C-4
  6
Continuous
 62
     7
370
     9
100
AcDbLine
 10
805.0692171663854
 20
576.7738878404773
 30
0.0
 11
940.8231168179901
 21
538.5081853093328
 31
0.0
  0
LINE
  5
E8
330
1F
100
AcDbEntity
  8
C-4
  6
Continuous
 62
     7
370
     9
100
AcDbLine
 10
940.8231168179901
 20
538.5081853093328
 30
0.0
 11
916.0813615128802
 21
542.0919799804688
 31
0.0
  0
LINE
  5
E9
330
1F
100
AcDbEntity
  8
C-4
  6
Continuous
 62
     7
370
     9
100
AcDbLine
 10
940.8231168179901
 20
538.5081853093328
 30
0.0
 11
917.8517934438344
 21
548.3737347577071
 31
0.0
  0
LINE
  5
EA
330
1F
100
AcDbEntity
  8
C-4
  6
Continuous
 62
     7
370
     9
100
AcDbLine
 10
812.6106880806589
 20
414.1397342166385
 30
0.0
 11
858.5533348289698
 21
474.8722303235854
 31
0.0
  0
LINE
  5
EB
330
1F
100
AcDbEntity
  8
C-4
  6
Continuous
 62
     7
370
     9
100
AcDbLine
 10
858.5533348289698
 20
474.8722303235854
 30
0.0
 11
846.2021286423146
 21
453.1367451435813
 31
0.0
  0
LINE
  5
EC
330
1F
100
AcDbEntity
  8
C-4
  6
Continuous
 62
     7
370
     9
100
AcDbLine
 10
858.5533348289698
 20
474.8722303235854
 30
0.0
 11
840.9977268528297
 21
457.0737601615289
 31
0.0
  0
ARC
  5
ED
330
1F
100
AcDbEntity
  8
C-A
  6
Continuous
 62
     3
370
     9
100
AcDbCircle
 10
-1182.790436615815
 20
585.3240471917231
 30
0.0
 40
1.999999904954756
100
AcDbArc
 50
180.0
 51
270.0
  0
ARC
  5
EE
330
1F
100
AcDbEntity
  8
C-A
  6
Continuous
 62
     3
370
     9
100
AcDbCircle
 10
-1151.790309596706
 20
585.3240471917231
 30
0.0
 40
1.999999904954756
100
AcDbArc
 50
270.0
 51
0.0
  0
ARC
  5
EF
330
1F
100
AcDbEntity
  8
C-A
  6
Continuous
 62
     3
370
     9
100
AcDbCircle
 10
-1151.790309596706
 20
673.3237931535052
 30
0.0
 40
1.999999904954756
100
AcDbArc
 50
0.0
 51
90.0
  0
ARC
  5
F0
330
1F
100
AcDbEntity
  8
C-A
  6
Continuous
 62
     3
370
     9
100
AcDbCircle
 10
-1182.790436615815
 20
673.3237931535052
 30
0.0
 40
1.999999904954756
100
AcDbArc
 50
90.0
 51
180.0
  0
ARC
  5
F1
330
1F
100
AcDbEntity
  8
C-A
  6
Continuous
 62
     3
370
     9
100
AcDbCircle
 10
-1171.190272150813
 20
598.9230924039273
 30
0.0
 40
2.200000994914287
100
AcDbArc
 50
180.0
 51
270.0
  0
ARC
  5
F2
330
1F
100
AcDbEntity
  8
C-A
  6
Continuous
 62
     3
370
     9
100
AcDbCircle
 10
-1171.190272150813
 20
659.7237581820102
 30
0.0
 40
2.200000994914287
100
AcDbArc
 50
90.0
 51
180.0
  0
ARC
  5
F3
330
1F
100
AcDbEntity
  8
C-A
  6
Continuous
 62
     3
370
     9
100
AcDbCircle
 10
-1163.390535921664
 20
659.7237581820102
 30
0.0
 40
2.200000994914287
100
AcDbArc
 50
0.0
 51
90.0
  0
ARC
  5
F4
330
1F
100
AcDbEntity
  8
C-A
  6
Continuous
 62
     3
370
     9
100
AcDbCircle
 10
-1163.390535921664
 20
598.9230924039273
 30
0.0
 40
2.200000994914287
100
AcDbArc
 50
270.0
 51
0.0
  0
ARC
  5
F5
330
1F
100
AcDbEntity
  8
C-A
  6
Continuous
 62
     3
370
     9
100
AcDbCircle
 10
-1167.290434966216
 20
629.3237964527029
 30
0.0
 40
12.49999967781273
100
AcDbArc
 50
299.2091369628906
 51
60.79086303710935
  0
ARC
  5
F6
330
1F
100
AcDbEntity
  8
C-A
  6
Continuous
 62
     3
370
     9
100
AcDbCircle
 10
-1167.290434966216
 20
629.3237964527029
 30
0.0
 40
12.49999967781273
100
AcDbArc
 50
119.2092742919922
 51
240.7907257080078
  0
ARC
  5
F7
330
1F
100
AcDbEntity
  8
C-0
  6
Continuous
 62
     3
370
     9
100
AcDbCircle
 10
795.8228858741558
 20
1171.482016073691
 30
0.0
 40
9.9999991623131
100
AcDbArc
 50
90.0
 51
180.0
  0
ARC
  5
F8
330
1F
100
AcDbEntity
  8
C-0
  6
Continuous
 62
     3
370
     9
100
AcDbCircle
 10
1235.822852882179
 20
1171.482016073691
 30
0.0
 40
9.9999991623131
100
AcDbArc
 50
0.0
 51
90.0
  0
ARC
  5
F9
330
1F
100
AcDbEntity
  8
C-0
  6
Continuous
 62
     3
370
     9
100
AcDbCircle
 10
1235.822852882179
 20
1016.481999577703
 30
0.0
 40
9.9999991623131
100
AcDbArc
 50
270.0
 51
0.0
  0
ARC
  5
FA
330
1F
100
AcDbEntity
  8
C-0
  6
Continuous
 62
     3
370
     9
100
AcDbCircle
 10
795.8228858741558
 20
1016.481999577703
 30
0.0
 40
9.9999991623131
100
AcDbArc
 50
180.0
 51
270.0
  0
ARC
  5
FB
330
1F
100
AcDbEntity
  8
C-0
  6
Continuous
 62
     3
370
     9
100
AcDbCircle
 10
863.8228132918078
 20
1113.481874208193
 30
0.0
 40
10.99999917520059
100
AcDbArc
 50
90.0
 51
180.0
  0
ARC
  5
FC
330
1F
100
AcDbEntity
  8
C-0
  6
Continuous
 62
     3
370
     9
100
AcDbCircle
 10
863.8228132918078
 20
1074.482141443201
 30
0.0
 40
10.99999917520059
100
AcDbArc
 50
180.0
 51
270.0
  0
ARC
  5
FD
330
1F
100
AcDbEntity
  8
C-0
  6
Continuous
 62
     3
370
     9
100
AcDbCircle
 10
1167.822678024705
 20
1113.481874208193
 30
0.0
 40
10.99999917520059
100
AcDbArc
 50
0.0
 51
90.0
  0
ARC
  5
FE
330
1F
100
AcDbEntity
  8
C-0
  6
Continuous
 62
     3
370
     9
100
AcDbCircle
 10
1167.822678024705
 20
1074.482141443201
 30
0.0
 40
10.99999917520059
100
AcDbArc
 50
270.0
 51
0.0
  0
ARC
  5
FF
330
1F
100
AcDbEntity
  8
C-0
  6
Continuous
 62
     3
370
     9
100
AcDbCircle
 10
940.8231168179901
 20
431.4831625448693
 30
0.0
 40
4.99999958115655
100
AcDbArc
 50
180.0
 51
270.0
  0
ARC
  5
100
330
1F
100
AcDbEntity
  8
C-0
  6
Continuous
 62
     3
370
     9
100
AcDbCircle
 10
1090.822869378167
 20
431.4831625448693
 30
0.0
 40
4.99999958115655
100
AcDbArc
 50
270.0
 51
0.0
  0
ARC
  5
101
330
1F
100
AcDbEntity
  8
C-0
  6
Continuous
 62
     3
370
     9
100
AcDbCircle
 10
852.8231234163854
 20
638.9833522487334
 30
0.0
 40
12.49999967781273
100
AcDbArc
 50
180.0
 51
270.0
  0
ARC
  5
102
330
1F
100
AcDbEntity
  8
C-0
  6
Continuous
 62
     3
370
     9
100
AcDbCircle
 10
1178.822862779772
 20
638.9833522487334
 30
0.0
 40
12.49999967781273
100
AcDbArc
 50
270.0
 51
0.0
  0
ARC
  5
103
330
1F
100
AcDbEntity
  8
C-0
  6
Continuous
 62
     3
370
     9
100
AcDbCircle
 10
1201.577676309122
 20
656.4835337046031
 30
0.0
 40
4.99999958115655
100
AcDbArc
 50
90.0
 51
163.8988037109375
  0
ARC
  5
104
330
1F
100
AcDbEntity
  8
C-0
  6
Continuous
 62
     3
370
     9
100
AcDbCircle
 10
830.0675675675677
 20
656.4835337046031
 30
0.0
 40
4.99999958115655
100
AcDbArc
 50
16.1011962890625
 51
90.0
  0
ARC
  5
105
330
1F
100
AcDbEntity
  8
C-0
  6
JWW_PHANTOM1
 62
     3
370
     9
100
AcDbCircle
 10
950.8226549303214
 20
776.482939849029
 30
0.0
 40
14.99999826018875
100
AcDbArc
 50
0.0
 51
90.0
  0
ARC
  5
106
330
1F
100
AcDbEntity
  8
C-0
  6
JWW_PHANTOM1
 62
     3
370
     9
100
AcDbCircle
 10
1080.822836386191
 20
776.482939849029
 30
0.0
 40
14.99999826018875
100
AcDbArc
 50
90.0
 51
180.0
  0
ARC
  5
107
330
1F
100
AcDbEntity
  8
C-0
  6
Continuous
 62
     3
370
     9
100
AcDbCircle
 10
790.3232883762672
 20
671.9829167546453
 30
0.0
 40
4.499999091431902
100
AcDbArc
 50
90.0
 51
180.0
  0
ARC
  5
108
330
1F
100
AcDbEntity
  8
C-0
  6
Continuous
 62
     3
370
     9
100
AcDbCircle
 10
1241.323192699535
 20
671.9829167546453
 30
0.0
 40
4.499999091431902
100
AcDbArc
 50
0.0
 51
90.0
  0
ARC
  5
109
330
1F
100
AcDbEntity
  8
C-0
  6
Continuous
 62
     3
370
     9
100
AcDbCircle
 10
950.8226549303214
 20
588.9833110087627
 30
0.0
 40
14.99999826018875
100
AcDbArc
 50
292.0240478515625
 51
0.0000000000000254
  0
ARC
  5
10A
330
1F
100
AcDbEntity
  8
C-0
  6
Continuous
 62
     3
370
     9
100
AcDbCircle
 10
965.8231992979307
 20
551.9024740683068
 30
0.0
 40
24.99999935562546
100
AcDbArc
 50
112.0243377685547
 51
180.0
  0
ARC
  5
10B
330
1F
100
AcDbEntity
  8
C-0
  6
Continuous
 62
     3
370
     9
100
AcDbCircle
 10
1065.822786898227
 20
551.9024740683068
 30
0.0
 40
24.99999935562546
100
AcDbArc
 50
0.0
 51
67.97566223144531
  0
ARC
  5
10C
330
1F
100
AcDbEntity
  8
C-0
  6
Continuous
 62
     3
370
     9
100
AcDbCircle
 10
1080.822836386191
 20
588.9833110087627
 30
0.0
 40
14.99999826018875
100
AcDbArc
 50
180.0
 51
247.9759521484375
  0
ARC
  5
10D
330
1F
100
AcDbEntity
  8
C-0
  6
Continuous
 62
     3
370
     9
100
AcDbCircle
 10
1015.822869378167
 20
1093.981636665963
 30
0.0
 40
64.99999020550702
100
AcDbArc
 50
207.9842987060547
 51
332.0157012939453
  0
ARC
  5
10E
330
1F
100
AcDbEntity
  8
C-0
  6
Continuous
 62
     3
370
     9
100
AcDbCircle
 10
1015.822869378167
 20
1093.981636665963
 30
0.0
 40
64.99999020550702
100
AcDbArc
 50
27.98429870605469
 51
152.0157012939453
  0
ARC
  5
10F
330
1F
100
AcDbEntity
  8
C-0
  6
JWW_PHANTOM1
 62
     3
370
     9
100
AcDbCircle
 10
1080.822836386191
 20
741.4828243771117
 30
0.0
 40
14.99999826018875
100
AcDbArc
 50
180.0
 51
247.9759521484375
  0
ARC
  5
110
330
1F
100
AcDbEntity
  8
C-0
  6
JWW_PHANTOM1
 62
     3
370
     9
100
AcDbCircle
 10
1065.823281777872
 20
704.4019874366554
 30
0.0
 40
24.99999935562546
100
AcDbArc
 50
0.0
 51
67.97628784179688
  0
ARC
  5
111
330
1F
100
AcDbEntity
  8
C-0
  6
JWW_PHANTOM1
 62
     3
370
     9
100
AcDbCircle
 10
950.8226549303214
 20
741.4828243771117
 30
0.0
 40
14.99999826018875
100
AcDbArc
 50
292.0240478515625
 51
0.0000000000000254
  0
ARC
  5
112
330
1F
100
AcDbEntity
  8
C-0
  6
JWW_PHANTOM1
 62
     3
370
     9
100
AcDbCircle
 10
965.8227044182854
 20
704.4019874366554
 30
0.0
 40
24.99999935562546
100
AcDbArc
 50
112.0237121582031
 51
180.0
  0
TEXT
  5
113
330
1F
100
AcDbEntity
  8
C-5
  6
Continuous
 62
     2
370
     9
100
AcDbText
 10
-920.5403343406883
 20
357.4639944045609
 30
0.0
 40
30.48
  1
平面詳細図　Ｓ＝１：１０
 41
1.114583333333333
  7
ＭＳ ゴシック
100
AcDbText
  0
TEXT
  5
114
330
1F
100
AcDbEntity
  8
C-4
  6
Continuous
 62
     2
370
     9
100
AcDbText
 10
-1328.870233071817
 20
897.9628825749578
 30
0.0
 40
30.48
  1
0.5
 41
1.083333333333333
  7
ＭＳ ゴシック
100
AcDbText
  0
TEXT
  5
115
330
1F
100
AcDbEntity
  8
C-4
  6
Continuous
 62
     2
370
     9
100
AcDbText
 10
-1008.040396200644
 20
897.9628825749578
 30
0.0
 40
30.48
  1
599.5
 41
1.1
  7
ＭＳ ゴシック
100
AcDbText
  0
TEXT
  5
116
330
1F
100
AcDbEntity
  8
C-4
  6
Continuous
 62
     2
370
     9
100
AcDbText
 10
-728.870387721706
 20
897.9628825749578
 30
0.0
 40
30.48
  1
0.5
 41
1.083333333333333
  7
ＭＳ ゴシック
100
AcDbText
  0
TEXT
  5
117
330
1F
100
AcDbEntity
  8
C-4
  6
Continuous
 62
     2
370
     9
100
AcDbText
 10
-408.0403962006438
 20
897.9628825749578
 30
0.0
 40
30.48
  1
599.5
 41
1.1
  7
ＭＳ ゴシック
100
AcDbText
  0
TEXT
  5
118
330
1F
100
AcDbEntity
  8
C-4
  6
Continuous
 62
     2
370
     9
100
AcDbText
 10
-128.8706351615285
 20
897.9628825749578
 30
0.0
 40
30.48
  1
0.5
 41
1.083333333333333
  7
ＭＳ ゴシック
100
AcDbText
  0
TEXT
  5
119
330
1F
100
AcDbEntity
  8
C-4
  6
Continuous
 62
     2
370
     9
100
AcDbText
 10
-985.2904201198269
 20
977.9633939505915
 30
0.0
 40
30.48
  1
600
 41
1.083333333333333
  7
ＭＳ ゴシック
100
AcDbText
  0
TEXT
  5
11A
330
1F
100
AcDbEntity
  8
C-4
  6
Continuous
 62
     2
370
     9
100
AcDbText
 10
-385.2905438397381
 20
977.9633939505915
 30
0.0
 40
30.48
  1
600
 41
1.083333333333333
  7
ＭＳ ゴシック
100
AcDbText
  0
TEXT
  5
11B
330
1F
100
AcDbEntity
  8
C-4
  6
Continuous
 62
     2
370
     9
100
AcDbText
 10
777.8850493559969
 20
271.217112146326
 30
0.0
 40
30.48
  1
把手詳細図　Ｓ＝１：２
 41
1.113636363636364
  7
ＭＳ ゴシック
100
AcDbText
  0
TEXT
  5
11C
330
1F
100
AcDbEntity
  8
C-4
  6
Continuous
 62
     7
370
     9
100
AcDbText
 10
415.4367890229098
 20
859.0308604307436
 30
0.0
 40
22.86
  1
把手カバー　ｔ＝0.5
 41
1.157894736842105
  7
ＭＳ ゴシック
100
AcDbText
  0
TEXT
  5
11D
330
1F
100
AcDbEntity
  8
C-4
  6
Continuous
 62
     7
370
     9
100
AcDbText
 10
449.1843971046242
 20
815.3396686285896
 30
0.0
 40
22.86
  1
（SUS304　ＨＬ）
 41
1.145833333333333
  7
ＭＳ ゴシック
100
AcDbText
  0
TEXT
  5
11E
330
1F
100
AcDbEntity
  8
C-4
  6
Continuous
 62
     7
370
     9
100
AcDbText
 10
486.3147797455659
 20
428.6441779719175
 30
0.0
 40
22.86
  1
ストッパープレート
 41
1.148148148148148
  7
ＭＳ ゴシック
100
AcDbText
  0
TEXT
  5
11F
330
1F
100
AcDbEntity
  8
C-4
  6
Continuous
 62
     7
370
     9
100
AcDbText
 10
562.1810253246412
 20
587.5499083482898
 30
0.0
 40
22.86
  1
把手本体
 41
1.125
  7
ＭＳ ゴシック
100
AcDbText
  0
TEXT
  5
120
330
1F
100
AcDbEntity
  8
C-4
  6
Continuous
 62
     7
370
     9
100
AcDbText
 10
462.7866507865289
 20
542.3294147223396
 30
0.0
 40
22.86
  1
（強化ナイロン樹脂）
 41
1.15
  7
ＭＳ ゴシック
100
AcDbText
  0
TEXT
  5
121
330
1F
100
AcDbEntity
  8
C-4
  6
Continuous
 62
     2
370
     9
100
AcDbText
 10
994.5729930980787
 20
933.6132699007602
 30
0.0
 40
30.48
  1
92
 41
1.0625
  7
ＭＳ ゴシック
100
AcDbText
  0
TEXT
  5
122
330
1F
100
AcDbEntity
  8
C-4
  6
Continuous
 62
     2
370
     9
100
AcDbText
 10
1408.882656519027
 20
1072.732007579165
 30
0.0
 40
30.48
  1
35
 50
90.00000250447816
 41
1.062500000000001
  7
ＭＳ ゴシック
100
AcDbText
  0
TEXT
  5
123
330
1F
100
AcDbEntity
  8
C-4
  6
Continuous
 62
     2
370
     9
100
AcDbText
 10
1408.882656519027
 20
530.2329396024965
 30
0.0
 40
30.48
  1
50
 50
90.00000250447816
 41
1.062499999999999
  7
ＭＳ ゴシック
100
AcDbText
  0
TEXT
  5
124
330
1F
100
AcDbEntity
  8
C-4
  6
Continuous
 62
     2
370
     9
100
AcDbText
 10
1408.882656519027
 20
730.2332282822896
 30
0.0
 40
30.48
  1
30
 50
90.00000250447816
 41
1.062500000000001
  7
ＭＳ ゴシック
100
AcDbText
  0
TEXT
  5
125
330
1F
100
AcDbEntity
  8
C-4
  6
Continuous
 62
     7
370
     9
100
AcDbText
 10
470.9066689980997
 20
381.7582906197214
 30
0.0
 40
22.86
  1
（SUS304　ｔ＝2.5）
 41
1.149122807017544
  7
ＭＳ ゴシック
100
AcDbText
  0
LWPOLYLINE
  5
126
330
1F
100
AcDbEntity
  8
C-4
  6
Continuous
 62
     7
370
     9
100
AcDbPolyline
 90
        4
 70
     1
 43
1.0
 10
-1252.790372281461
 20
887.3231135187925
 42
0.4142135623731
 10
-1253.290372281461
 20
887.8231135187924
 42
0.4142135623731
 10
-1253.790372281461
 20
887.3231135187925
 42
0.4142135623731
 10
-1253.290372281461
 20
886.8231135187925
 42
0.4142135623731
  0
LWPOLYLINE
  5
127
330
1F
100
AcDbEntity
  8
C-4
  6
Continuous
 62
     7
370
     9
100
AcDbPolyline
 90
        4
 70
     1
 43
1.0
 10
-1252.290420119827
 20
887.3231135187925
 42
0.4142135623731
 10
-1252.790420119827
 20
887.8231135187924
 42
0.4142135623731
 10
-1253.290420119827
 20
887.3231135187925
 42
0.4142135623731
 10
-1252.790420119827
 20
886.8231135187925
 42
0.4142135623731
  0
LWPOLYLINE
  5
128
330
1F
100
AcDbEntity
  8
C-4
  6
Continuous
 62
     7
370
     9
100
AcDbPolyline
 90
        4
 70
     1
 43
1.0
 10
-652.7906197212836
 20
887.3231135187925
 42
0.4142135623731
 10
-653.2906197212835
 20
887.8231135187924
 42
0.4142135623731
 10
-653.7906197212835
 20
887.3231135187925
 42
0.4142135623731
 10
-653.2906197212835
 20
886.8231135187925
 42
0.4142135623731
  0
LWPOLYLINE
  5
129
330
1F
100
AcDbEntity
  8
C-4
  6
Continuous
 62
     7
370
     9
100
AcDbPolyline
 90
        4
 70
     1
 43
1.0
 10
-652.290543839738
 20
887.3231135187925
 42
0.4142135623731
 10
-652.790543839738
 20
887.8231135187924
 42
0.4142135623731
 10
-653.290543839738
 20
887.3231135187925
 42
0.4142135623731
 10
-652.790543839738
 20
886.8231135187925
 42
0.4142135623731
  0
LWPOLYLINE
  5
12A
330
1F
100
AcDbEntity
  8
C-4
  6
Continuous
 62
     7
370
     9
100
AcDbPolyline
 90
        4
 70
     1
 43
1.0
 10
-52.79024856154973
 20
887.3231135187925
 42
0.4142135623731
 10
-53.29024856154973
 20
887.8231135187924
 42
0.4142135623731
 10
-53.79024856154973
 20
887.3231135187925
 42
0.4142135623731
 10
-53.29024856154973
 20
886.8231135187925
 42
0.4142135623731
  0
LWPOLYLINE
  5
12B
330
1F
100
AcDbEntity
  8
C-4
  6
Continuous
 62
     7
370
     9
100
AcDbPolyline
 90
        4
 70
     1
 43
1.0
 10
-52.29054383973801
 20
887.3231135187925
 42
0.4142135623731
 10
-52.79054383973801
 20
887.8231135187924
 42
0.4142135623731
 10
-53.29054383973801
 20
887.3231135187925
 42
0.4142135623731
 10
-52.79054383973801
 20
886.8231135187925
 42
0.4142135623731
  0
LWPOLYLINE
  5
12C
330
1F
100
AcDbEntity
  8
C-4
  6
Continuous
 62
     7
370
     9
100
AcDbPolyline
 90
        4
 70
     1
 43
1.0
 10
-1252.290420119827
 20
967.3231300147804
 42
0.4142135623731
 10
-1252.790420119827
 20
967.8231300147804
 42
0.4142135623731
 10
-1253.290420119827
 20
967.3231300147804
 42
0.4142135623731
 10
-1252.790420119827
 20
966.8231300147805
 42
0.4142135623731
  0
LWPOLYLINE
  5
12D
330
1F
100
AcDbEntity
  8
C-4
  6
Continuous
 62
     7
370
     9
100
AcDbPolyline
 90
        4
 70
     1
 43
1.0
 10
-652.290543839738
 20
967.3231300147804
 42
0.4142135623731
 10
-652.790543839738
 20
967.8231300147804
 42
0.4142135623731
 10
-653.290543839738
 20
967.3231300147804
 42
0.4142135623731
 10
-652.790543839738
 20
966.8231300147805
 42
0.4142135623731
  0
LWPOLYLINE
  5
12E
330
1F
100
AcDbEntity
  8
C-4
  6
Continuous
 62
     7
370
     9
100
AcDbPolyline
 90
        4
 70
     1
 43
1.0
 10
-52.29054383973801
 20
967.3231300147804
 42
0.4142135623731
 10
-52.79054383973801
 20
967.8231300147804
 42
0.4142135623731
 10
-53.29054383973801
 20
967.3231300147804
 42
0.4142135623731
 10
-52.79054383973801
 20
966.8231300147805
 42
0.4142135623731
  0
LWPOLYLINE
  5
12F
330
1F
100
AcDbEntity
  8
C-4
  6
Continuous
 62
     7
370
     9
100
AcDbPolyline
 90
        4
 70
     1
 43
1.0
 10
786.3228528821792
 20
917.9734843486065
 42
0.4142135623731
 10
785.8228528821792
 20
918.4734843486065
 42
0.4142135623731
 10
785.3228528821792
 20
917.9734843486065
 42
0.4142135623731
 10
785.8228528821792
 20
917.4734843486066
 42
0.4142135623731
  0
LWPOLYLINE
  5
130
330
1F
100
AcDbEntity
  8
C-4
  6
Continuous
 62
     7
370
     9
100
AcDbPolyline
 90
        4
 70
     1
 43
1.0
 10
1246.322885874156
 20
917.9734843486065
 42
0.4142135623731
 10
1245.822885874156
 20
918.4734843486065
 42
0.4142135623731
 10
1245.322885874156
 20
917.9734843486065
 42
0.4142135623731
 10
1245.822885874156
 20
917.4734843486066
 42
0.4142135623731
  0
LWPOLYLINE
  5
131
330
1F
100
AcDbEntity
  8
C-4
  6
Continuous
 62
     7
370
     9
100
AcDbPolyline
 90
        4
 70
     1
 43
1.0
 10
1425.022688582137
 20
1006.481966585727
 42
0.4142135623731
 10
1424.522688582137
 20
1006.981966585727
 42
0.4142135623731
 10
1424.022688582137
 20
1006.481966585727
 42
0.4142135623731
 10
1424.522688582137
 20
1005.981966585727
 42
0.4142135623731
  0
LWPOLYLINE
  5
132
330
1F
100
AcDbEntity
  8
C-4
  6
Continuous
 62
     7
370
     9
100
AcDbPolyline
 90
        4
 70
     1
 43
1.0
 10
1425.022688582137
 20
1181.482049065667
 42
0.4142135623731
 10
1424.522688582137
 20
1181.982049065667
 42
0.4142135623731
 10
1424.022688582137
 20
1181.482049065667
 42
0.4142135623731
 10
1424.522688582137
 20
1180.982049065667
 42
0.4142135623731
  0
LWPOLYLINE
  5
133
330
1F
100
AcDbEntity
  8
C-4
  6
Continuous
 62
     7
370
     9
100
AcDbPolyline
 90
        4
 70
     1
 43
1.0
 10
1425.022688582137
 20
426.4833934887037
 42
0.4142135623731
 10
1424.522688582137
 20
426.9833934887037
 42
0.4142135623731
 10
1424.022688582137
 20
426.4833934887037
 42
0.4142135623731
 10
1424.522688582137
 20
425.9833934887037
 42
0.4142135623731
  0
LWPOLYLINE
  5
134
330
1F
100
AcDbEntity
  8
C-4
  6
Continuous
 62
     7
370
     9
100
AcDbPolyline
 90
        4
 70
     1
 43
1.0
 10
1425.022688582137
 20
676.4831048089106
 42
0.4142135623731
 10
1424.522688582137
 20
676.9831048089106
 42
0.4142135623731
 10
1424.022688582137
 20
676.4831048089106
 42
0.4142135623731
 10
1424.522688582137
 20
675.9831048089108
 42
0.4142135623731
  0
LWPOLYLINE
  5
135
330
1F
100
AcDbEntity
  8
C-4
  6
Continuous
 62
     7
370
     9
100
AcDbPolyline
 90
        4
 70
     1
 43
1.0
 10
1425.022688582137
 20
826.4831048089106
 42
0.4142135623731
 10
1424.522688582137
 20
826.9831048089106
 42
0.4142135623731
 10
1424.022688582137
 20
826.4831048089106
 42
0.4142135623731
 10
1424.522688582137
 20
825.9831048089108
 42
0.4142135623731
  0
LINE
  5
136
330
1F
100
AcDbEntity
  8
D-4
  6
Continuous
 62
     7
370
     9
100
AcDbLine
 10
-1369.952193572303
 20
-155.7940071547728
 30
0.0
 11
-797.2844136498181
 21
-155.7940071547728
 31
0.0
  0
LINE
  5
137
330
1F
100
AcDbEntity
  8
D-4
  6
Continuous
 62
     7
370
     9
100
AcDbLine
 10
-797.2844136498181
 20
-261.2575059855681
 30
0.0
 11
-797.2844136498181
 21
-152.7934425795775
 31
0.0
  0
LINE
  5
138
330
1F
100
AcDbEntity
  8
D-4
  6
Continuous
 62
     7
370
     9
100
AcDbLine
 10
-797.2844136498181
 20
-155.7940071547728
 30
0.0
 11
-672.2845757744519
 21
-155.7940071547728
 31
0.0
  0
LINE
  5
139
330
1F
100
AcDbEntity
  8
D-4
  6
Continuous
 62
     7
370
     9
100
AcDbLine
 10
-672.2845757744519
 20
-261.2575059855681
 30
0.0
 11
-672.2845757744519
 21
-44.04201206810285
 31
0.0
  0
LINE
  5
13A
330
1F
100
AcDbEntity
  8
D-4
  6
Continuous
 62
     7
370
     9
100
AcDbLine
 10
-667.2843051693646
 20
-261.2575059855681
 30
0.0
 11
-667.2843051693646
 21
-44.04201206810285
 31
0.0
  0
LINE
  5
13B
330
1F
100
AcDbEntity
  8
D-4
  6
Continuous
 62
     7
370
     9
100
AcDbLine
 10
-642.2854269287793
 20
-261.2575059855681
 30
0.0
 11
-642.2854269287793
 21
66.65464702003192
 31
0.0
  0
LINE
  5
13C
330
1F
100
AcDbEntity
  8
D-4
  6
Continuous
 62
     7
370
     9
100
AcDbLine
 10
-797.2844136498181
 20
-836.7960136855345
 30
0.0
 11
-397.2835458061903
 21
-836.7960136855345
 31
0.0
  0
LINE
  5
13D
330
1F
100
AcDbEntity
  8
D-4
  6
Continuous
 62
     7
370
     9
100
AcDbLine
 10
-397.2835458061903
 20
-596.5868156874876
 30
0.0
 11
-397.2835458061903
 21
-839.7955864394407
 31
0.0
  0
LINE
  5
13E
330
1F
100
AcDbEntity
  8
D-4
  6
Continuous
 62
     7
370
     9
100
AcDbLine
 10
-797.2844136498181
 20
-682.3316353286009
 30
0.0
 11
-647.285202815315
 21
-682.3316353286009
 31
0.0
  0
LINE
  5
13F
330
1F
100
AcDbEntity
  8
D-4
  6
Continuous
 62
     7
370
     9
100
AcDbLine
 10
-125.5992043755262
 20
-526.7128342116575
 30
0.0
 11
-125.5992043755262
 21
-276.7131584609251
 31
0.0
  0
LINE
  5
140
330
1F
100
AcDbEntity
  8
D-4
  6
Continuous
 62
     7
370
     9
100
AcDbLine
 10
-221.2543786308973
 20
-276.7131584609251
 30
0.0
 11
-122.5996316216199
 21
-276.7131584609251
 31
0.0
  0
LINE
  5
141
330
1F
100
AcDbEntity
  8
D-6
  6
Continuous
 62
     6
370
     9
100
AcDbLine
 10
-647.285202815315
 20
-526.7128342116575
 30
0.0
 11
-647.285202815315
 21
-776.71250996239
 31
0.0
  0
LINE
  5
142
330
1F
100
AcDbEntity
  8
D-6
  6
JWW_DASHED3
 62
     6
370
     9
100
AcDbLine
 10
-553.783313109657
 20
-654.2128151381712
 30
0.0
 11
-553.783313109657
 21
-526.7128342116575
 31
0.0
  0
LINE
  5
143
330
1F
100
AcDbEntity
  8
D-6
  6
JWW_DASHED3
 62
     6
370
     9
100
AcDbLine
 10
-508.7828553459852
 20
-526.7128342116575
 30
0.0
 11
-508.7828553459852
 21
-654.2128151381712
 31
0.0
  0
LINE
  5
144
330
1F
100
AcDbEntity
  8
D-6
  6
Continuous
 62
     6
370
     9
100
AcDbLine
 10
-397.2845376274793
 20
-426.7133587325316
 30
0.0
 11
-232.2835458061903
 21
-426.7133587325316
 31
0.0
  0
LINE
  5
145
330
1F
100
AcDbEntity
  8
D-6
  6
Continuous
 62
     6
370
     9
100
AcDbLine
 10
-397.2845376274793
 20
-426.7133587325316
 30
0.0
 11
-397.2845376274793
 21
-526.7128342116575
 31
0.0
  0
LINE
  5
146
330
1F
100
AcDbEntity
  8
D-4
  6
Continuous
 62
     7
370
     9
100
AcDbLine
 10
-341.505652739784
 20
-526.7128342116575
 30
0.0
 11
-122.5996316216199
 21
-526.7128342116575
 31
0.0
  0
LINE
  5
147
330
1F
100
AcDbEntity
  8
D-6
  6
Continuous
 62
     6
370
     9
100
AcDbLine
 10
-647.285202815315
 20
-526.7128342116575
 30
0.0
 11
-397.2845376274793
 21
-526.7128342116575
 31
0.0
  0
LINE
  5
148
330
1F
100
AcDbEntity
  8
D-6
  6
Continuous
 62
     6
370
     9
100
AcDbLine
 10
-553.783313109657
 20
-329.2130297148924
 30
0.0
 11
-508.7828553459852
 21
-329.2130297148924
 31
0.0
  0
LINE
  5
149
330
1F
100
AcDbEntity
  8
D-6
  6
JWW_CENTER2
 62
     6
370
     9
100
AcDbLine
 10
-531.2830842278211
 20
-325.1338356459837
 30
0.0
 11
-531.2830842278211
 21
-654.2128151381712
 31
0.0
  0
LINE
  5
14A
330
1F
100
AcDbEntity
  8
D-4
  6
Continuous
 62
     7
370
     9
100
AcDbLine
 10
-642.2854269287793
 20
-414.6804016555052
 30
0.0
 11
-642.2854269287793
 21
-486.0229462111693
 31
0.0
  0
LINE
  5
14B
330
1F
100
AcDbEntity
  8
D-6
  6
Continuous
 62
     6
370
     9
100
AcDbLine
 10
-553.783313109657
 20
-361.712805601428
 30
0.0
 11
-553.783313109657
 21
-329.2130297148924
 31
0.0
  0
LINE
  5
14C
330
1F
100
AcDbEntity
  8
D-6
  6
Continuous
 62
     6
370
     9
100
AcDbLine
 10
-508.7828553459852
 20
-361.712805601428
 30
0.0
 11
-508.7828553459852
 21
-329.2130297148924
 31
0.0
  0
LINE
  5
14D
330
1F
100
AcDbEntity
  8
D-6
  6
Continuous
 62
     6
370
     9
100
AcDbLine
 10
-553.783313109657
 20
-526.7128342116575
 30
0.0
 11
-553.783313109657
 21
-411.7125481093626
 31
0.0
  0
LINE
  5
14E
330
1F
100
AcDbEntity
  8
D-6
  6
Continuous
 62
     6
370
     9
100
AcDbLine
 10
-508.7828553459852
 20
-526.7128342116575
 30
0.0
 11
-508.7828553459852
 21
-411.7125481093626
 31
0.0
  0
LINE
  5
14F
330
1F
100
AcDbEntity
  8
D-4
  6
Continuous
 62
     7
370
     9
100
AcDbLine
 10
-942.7669251702039
 20
-401.7129963362913
 30
0.0
 11
-942.7669251702039
 21
-276.7131584609251
 31
0.0
  0
LINE
  5
150
330
1F
100
AcDbEntity
  8
D-4
  6
Continuous
 62
     7
370
     9
100
AcDbLine
 10
-670.4295406482427
 20
-276.7131584609251
 30
0.0
 11
-945.7674897453992
 21
-276.7131584609251
 31
0.0
  0
LINE
  5
151
330
1F
100
AcDbEntity
  8
D-4
  6
Continuous
 62
     7
370
     9
100
AcDbLine
 10
-1369.952193572303
 20
63.6540824448366
 30
0.0
 11
-642.2854269287793
 21
63.6540824448366
 31
0.0
  0
LINE
  5
152
330
1F
100
AcDbEntity
  8
D-4
  6
Continuous
 62
     7
370
     9
100
AcDbLine
 10
-1369.952193572303
 20
-47.0415848220091
 30
0.0
 11
-606.1989510796277
 21
-47.0415848220091
 31
0.0
  0
LINE
  5
153
330
1F
100
AcDbEntity
  8
D-4
  6
Continuous
 62
     7
370
     9
100
AcDbLine
 10
-642.2854269287793
 20
-483.0224007094603
 30
0.0
 11
-497.2849953911512
 21
-483.0224007094603
 31
0.0
  0
LINE
  5
154
330
1F
100
AcDbEntity
  8
D-5
  6
Continuous
 62
     2
370
     9
100
AcDbLine
 10
-1139.279738738319
 20
-972.6553123915892
 30
0.0
 11
-1139.279738738319
 21
-907.6557320082884
 31
0.0
  0
LINE
  5
155
330
1F
100
AcDbEntity
  8
D-5
  6
Continuous
 62
     2
370
     9
100
AcDbLine
 10
-1139.279738738319
 20
-907.6557320082884
 30
0.0
 11
-564.2793191216199
 21
-907.6557320082884
 31
0.0
  0
LINE
  5
156
330
1F
100
AcDbEntity
  8
D-5
  6
Continuous
 62
     2
370
     9
100
AcDbLine
 10
-564.2793191216199
 20
-907.6557320082884
 30
0.0
 11
-564.2793191216199
 21
-972.6553123915892
 31
0.0
  0
LINE
  5
157
330
1F
100
AcDbEntity
  8
D-5
  6
Continuous
 62
     2
370
     9
100
AcDbLine
 10
-564.2793191216199
 20
-972.6553123915892
 30
0.0
 11
-1139.279738738319
 21
-972.6553123915892
 31
0.0
  0
LINE
  5
158
330
1F
100
AcDbEntity
  8
D-4
  6
Continuous
 62
     7
370
     9
100
AcDbLine
 10
-797.2844136498181
 20
-801.7128532851439
 30
0.0
 11
-797.2844136498181
 21
-839.7955864394407
 31
0.0
  0
LINE
  5
159
330
1F
100
AcDbEntity
  8
D-5
  6
Continuous
 62
     7
370
     9
100
AcDbLine
 10
-457.9398263237684
 20
-168.664299818347
 30
0.0
 11
-198.5569680474012
 21
-168.664299818347
 31
0.0
  0
LINE
  5
15A
330
1F
100
AcDbEntity
  8
D-5
  6
Continuous
 62
     7
370
     9
100
AcDbLine
 10
-649.2274416229932
 20
-276.7131584609251
 30
0.0
 11
-635.4167450211255
 21
-255.8747333014708
 31
0.0
  0
LINE
  5
15B
330
1F
100
AcDbEntity
  8
D-5
  6
Continuous
 62
     7
370
     9
100
AcDbLine
 10
-649.2274416229932
 20
-276.7131584609251
 30
0.0
 11
-630.4937661431043
 21
-260.1590507949095
 31
0.0
  0
LINE
  5
15C
330
1F
100
AcDbEntity
  8
D-5
  6
Continuous
 62
     7
370
     9
100
AcDbLine
 10
-507.4351800224989
 20
-113.8020294631224
 30
0.0
 11
-649.2274416229932
 21
-276.7131584609251
 31
0.0
  0
LINE
  5
15D
330
1F
100
AcDbEntity
  8
D-5
  6
Continuous
 62
     7
370
     9
100
AcDbLine
 10
-457.9398263237684
 20
-168.664299818347
 30
0.0
 11
-672.7681532866566
 21
-415.4899948561888
 31
0.0
  0
LINE
  5
15E
330
1F
100
AcDbEntity
  8
D-5
  6
Continuous
 62
     7
370
     9
100
AcDbLine
 10
-507.4351800224989
 20
-113.8020294631224
 30
0.0
 11
-56.64481289603401
 21
-113.8020294631224
 31
0.0
  0
LINE
  5
15F
330
1F
100
AcDbEntity
  8
D-6
  6
Continuous
 62
     6
370
     9
100
AcDbLine
 10
-397.2845376274793
 20
-474.0529221022825
 30
0.0
 11
-349.944487883827
 21
-426.712862821887
 31
0.0
  0
LINE
  5
160
330
1F
100
AcDbEntity
  8
D-6
  6
Continuous
 62
     6
370
     9
100
AcDbLine
 10
-647.2842133782117
 20
-724.0506142104368
 30
0.0
 11
-449.9449456474989
 21
-526.7128342116575
 31
0.0
  0
LINE
  5
161
330
1F
100
AcDbEntity
  8
D-6
  6
Continuous
 62
     6
370
     9
100
AcDbLine
 10
-647.2842133782117
 20
-738.1912773574095
 30
0.0
 11
-435.8042634270399
 21
-526.7128342116575
 31
0.0
  0
LINE
  5
162
330
1F
100
AcDbEntity
  8
D-6
  6
Continuous
 62
     6
370
     9
100
AcDbLine
 10
-397.2845376274793
 20
-488.1936043227415
 30
0.0
 11
-335.8037865898817
 21
-426.712862821887
 31
0.0
  0
LINE
  5
163
330
1F
100
AcDbEntity
  8
D-6
  6
Continuous
 62
     6
370
     9
100
AcDbLine
 10
-647.2842133782117
 20
-752.3319786513548
 30
0.0
 11
-421.6635812065809
 21
-526.7128342116575
 31
0.0
  0
LINE
  5
164
330
1F
100
AcDbEntity
  8
D-6
  6
Continuous
 62
     6
370
     9
100
AcDbLine
 10
-397.2845376274793
 20
-502.3342865432005
 30
0.0
 11
-321.663123442909
 21
-426.712862821887
 31
0.0
  0
LINE
  5
165
330
1F
100
AcDbEntity
  8
D-6
  6
Continuous
 62
     6
370
     9
100
AcDbLine
 10
-308.1120599053114
 20
-776.71250996239
 30
0.0
 11
-232.2835458061903
 21
-700.8844917739134
 31
0.0
  0
LINE
  5
166
330
1F
100
AcDbEntity
  8
D-6
  6
Continuous
 62
     6
370
     9
100
AcDbLine
 10
-322.252723052284
 20
-776.71250996239
 30
0.0
 11
-232.2835458061903
 21
-686.7437904799681
 31
0.0
  0
LINE
  5
167
330
1F
100
AcDbEntity
  8
D-6
  6
Continuous
 62
     6
370
     9
100
AcDbLine
 10
-293.971358611366
 20
-776.71250996239
 30
0.0
 11
-232.2835458061903
 21
-715.025154920886
 31
0.0
  0
LINE
  5
168
330
1F
100
AcDbEntity
  8
D-0
  6
Continuous
 62
     7
370
     9
100
AcDbLine
 10
-370.4390443108289
 20
-297.662569853137
 30
0.0
 11
-370.4390443108289
 21
-296.1622899497252
 31
0.0
  0
LINE
  5
169
330
1F
100
AcDbEntity
  8
D-0
  6
Continuous
 62
     7
370
     9
100
AcDbLine
 10
-370.4390443108289
 20
-296.1622899497252
 30
0.0
 11
-368.9392770073621
 21
-296.1622899497252
 31
0.0
  0
LINE
  5
16A
330
1F
100
AcDbEntity
  8
D-0
  6
Continuous
 62
     7
370
     9
100
AcDbLine
 10
-368.9392770073621
 20
-296.1622899497252
 30
0.0
 11
-368.9392770073621
 21
-297.662569853137
 31
0.0
  0
LINE
  5
16B
330
1F
100
AcDbEntity
  8
D-0
  6
Continuous
 62
     7
370
     9
100
AcDbLine
 10
-368.9392770073621
 20
-297.662569853137
 30
0.0
 11
-370.4390443108289
 21
-297.662569853137
 31
0.0
  0
LINE
  5
16C
330
1F
100
AcDbEntity
  8
D-0
  6
Continuous
 62
     7
370
     9
100
AcDbLine
 10
-319.6832192681043
 20
-300.3698104346495
 30
0.0
 11
-319.6832192681043
 21
-298.8695305312376
 31
0.0
  0
LINE
  5
16D
330
1F
100
AcDbEntity
  8
D-0
  6
Continuous
 62
     7
370
     9
100
AcDbLine
 10
-319.6832192681043
 20
-298.8695305312376
 30
0.0
 11
-318.1829369805067
 21
-298.8695305312376
 31
0.0
  0
LINE
  5
16E
330
1F
100
AcDbEntity
  8
D-0
  6
Continuous
 62
     7
370
     9
100
AcDbLine
 10
-318.1829369805067
 20
-298.8695305312376
 30
0.0
 11
-318.1829369805067
 21
-300.3698104346495
 31
0.0
  0
LINE
  5
16F
330
1F
100
AcDbEntity
  8
D-0
  6
Continuous
 62
     7
370
     9
100
AcDbLine
 10
-318.1829369805067
 20
-300.3698104346495
 30
0.0
 11
-319.6832192681043
 21
-300.3698104346495
 31
0.0
  0
LINE
  5
170
330
1F
100
AcDbEntity
  8
D-0
  6
Continuous
 62
     7
370
     9
100
AcDbLine
 10
-254.7153771660535
 20
-298.3393805945616
 30
0.0
 11
-254.7153771660535
 21
-296.8391006911497
 31
0.0
  0
LINE
  5
171
330
1F
100
AcDbEntity
  8
D-0
  6
Continuous
 62
     7
370
     9
100
AcDbLine
 10
-254.7153771660535
 20
-296.8391006911497
 30
0.0
 11
-253.2155907891004
 21
-296.8391006911497
 31
0.0
  0
LINE
  5
172
330
1F
100
AcDbEntity
  8
D-0
  6
Continuous
 62
     7
370
     9
100
AcDbLine
 10
-253.2155907891004
 20
-296.8391006911497
 30
0.0
 11
-253.2155907891004
 21
-298.3393805945616
 31
0.0
  0
LINE
  5
173
330
1F
100
AcDbEntity
  8
D-0
  6
Continuous
 62
     7
370
     9
100
AcDbLine
 10
-253.2155907891004
 20
-298.3393805945616
 30
0.0
 11
-254.7153771660535
 21
-298.3393805945616
 31
0.0
  0
LINE
  5
174
330
1F
100
AcDbEntity
  8
D-0
  6
Continuous
 62
     7
370
     9
100
AcDbLine
 10
-279.0785897515028
 20
-330.8233040297728
 30
0.0
 11
-279.0785897515028
 21
-329.3230217421751
 31
0.0
  0
LINE
  5
175
330
1F
100
AcDbEntity
  8
D-0
  6
Continuous
 62
     7
370
     9
100
AcDbLine
 10
-279.0785897515028
 20
-329.3230217421751
 30
0.0
 11
-277.5783074639051
 21
-329.3230217421751
 31
0.0
  0
LINE
  5
176
330
1F
100
AcDbEntity
  8
D-0
  6
Continuous
 62
     7
370
     9
100
AcDbLine
 10
-277.5783074639051
 20
-329.3230217421751
 30
0.0
 11
-277.5783074639051
 21
-330.8233040297728
 31
0.0
  0
LINE
  5
177
330
1F
100
AcDbEntity
  8
D-0
  6
Continuous
 62
     7
370
     9
100
AcDbLine
 10
-277.5783074639051
 20
-330.8233040297728
 30
0.0
 11
-279.0785897515028
 21
-330.8233040297728
 31
0.0
  0
LINE
  5
178
330
1F
100
AcDbEntity
  8
D-0
  6
Continuous
 62
     7
370
     9
100
AcDbLine
 10
-329.6436227104871
 20
-334.7543543303709
 30
0.0
 11
-329.6436227104871
 21
-333.2540720427733
 31
0.0
  0
LINE
  5
179
330
1F
100
AcDbEntity
  8
D-0
  6
Continuous
 62
     7
370
     9
100
AcDbLine
 10
-329.6436227104871
 20
-333.2540720427733
 30
0.0
 11
-328.1438744805067
 21
-333.2540720427733
 31
0.0
  0
LINE
  5
17A
330
1F
100
AcDbEntity
  8
D-0
  6
Continuous
 62
     7
370
     9
100
AcDbLine
 10
-328.1438744805067
 20
-333.2540720427733
 30
0.0
 11
-328.1438744805067
 21
-334.7543543303709
 31
0.0
  0
LINE
  5
17B
330
1F
100
AcDbEntity
  8
D-0
  6
Continuous
 62
     7
370
     9
100
AcDbLine
 10
-328.1438744805067
 20
-334.7543543303709
 30
0.0
 11
-329.6436227104871
 21
-334.7543543303709
 31
0.0
  0
LINE
  5
17C
330
1F
100
AcDbEntity
  8
D-0
  6
Continuous
 62
     7
370
     9
100
AcDbLine
 10
-346.7531502983778
 20
-368.7212151015501
 30
0.0
 11
-346.7531502983778
 21
-367.2209328139525
 31
0.0
  0
LINE
  5
17D
330
1F
100
AcDbEntity
  8
D-0
  6
Continuous
 62
     7
370
     9
100
AcDbLine
 10
-346.7531502983778
 20
-367.2209328139525
 30
0.0
 11
-345.2529061577528
 21
-367.2209328139525
 31
0.0
  0
LINE
  5
17E
330
1F
100
AcDbEntity
  8
D-0
  6
Continuous
 62
     7
370
     9
100
AcDbLine
 10
-345.2529061577528
 20
-367.2209328139525
 30
0.0
 11
-345.2529061577528
 21
-368.7212151015501
 31
0.0
  0
LINE
  5
17F
330
1F
100
AcDbEntity
  8
D-0
  6
Continuous
 62
     7
370
     9
100
AcDbLine
 10
-345.2529061577528
 20
-368.7212151015501
 30
0.0
 11
-346.7531502983778
 21
-368.7212151015501
 31
0.0
  0
LINE
  5
180
330
1F
100
AcDbEntity
  8
D-0
  6
Continuous
 62
     7
370
     9
100
AcDbLine
 10
-378.1094086907117
 20
-354.1494768584471
 30
0.0
 11
-378.1094086907117
 21
-352.649199339221
 31
0.0
  0
LINE
  5
181
330
1F
100
AcDbEntity
  8
D-0
  6
Continuous
 62
     7
370
     9
100
AcDbLine
 10
-378.1094086907117
 20
-352.649199339221
 30
0.0
 11
-376.6096223137586
 21
-352.649199339221
 31
0.0
  0
LINE
  5
182
330
1F
100
AcDbEntity
  8
D-0
  6
Continuous
 62
     7
370
     9
100
AcDbLine
 10
-376.6096223137586
 20
-352.649199339221
 30
0.0
 11
-376.6096223137586
 21
-354.1494768584471
 31
0.0
  0
LINE
  5
183
330
1F
100
AcDbEntity
  8
D-0
  6
Continuous
 62
     7
370
     9
100
AcDbLine
 10
-376.6096223137586
 20
-354.1494768584471
 30
0.0
 11
-378.1094086907117
 21
-354.1494768584471
 31
0.0
  0
LINE
  5
184
330
1F
100
AcDbEntity
  8
D-0
  6
Continuous
 62
     7
370
     9
100
AcDbLine
 10
-388.8338197014539
 20
-395.369507643054
 30
0.0
 11
-388.8338197014539
 21
-393.8692253554564
 31
0.0
  0
LINE
  5
185
330
1F
100
AcDbEntity
  8
D-0
  6
Continuous
 62
     7
370
     9
100
AcDbLine
 10
-388.8338197014539
 20
-393.8692253554564
 30
0.0
 11
-387.3335374138563
 21
-393.8692253554564
 31
0.0
  0
LINE
  5
186
330
1F
100
AcDbEntity
  8
D-0
  6
Continuous
 62
     7
370
     9
100
AcDbLine
 10
-387.3335374138563
 20
-393.8692253554564
 30
0.0
 11
-387.3335374138563
 21
-395.369507643054
 31
0.0
  0
LINE
  5
187
330
1F
100
AcDbEntity
  8
D-0
  6
Continuous
 62
     7
370
     9
100
AcDbLine
 10
-387.3335374138563
 20
-395.369507643054
 30
0.0
 11
-388.8338197014539
 21
-395.369507643054
 31
0.0
  0
LINE
  5
188
330
1F
100
AcDbEntity
  8
D-0
  6
Continuous
 62
     7
370
     9
100
AcDbLine
 10
-351.4903558037489
 20
-403.9118832076292
 30
0.0
 11
-351.4903558037489
 21
-402.4116009200316
 31
0.0
  0
LINE
  5
189
330
1F
100
AcDbEntity
  8
D-0
  6
Continuous
 62
     7
370
     9
100
AcDbLine
 10
-351.4903558037489
 20
-402.4116009200316
 30
0.0
 11
-349.9900735161512
 21
-402.4116009200316
 31
0.0
  0
LINE
  5
18A
330
1F
100
AcDbEntity
  8
D-0
  6
Continuous
 62
     7
370
     9
100
AcDbLine
 10
-349.9900735161512
 20
-402.4116009200316
 30
0.0
 11
-349.9900735161512
 21
-403.9118832076292
 31
0.0
  0
LINE
  5
18B
330
1F
100
AcDbEntity
  8
D-0
  6
Continuous
 62
     7
370
     9
100
AcDbLine
 10
-349.9900735161512
 20
-403.9118832076292
 30
0.0
 11
-351.4903558037489
 21
-403.9118832076292
 31
0.0
  0
LINE
  5
18C
330
1F
100
AcDbEntity
  8
D-0
  6
Continuous
 62
     7
370
     9
100
AcDbLine
 10
-299.2852700493543
 20
-408.6366718734007
 30
0.0
 11
-299.2852700493543
 21
-407.1363991225462
 31
0.0
  0
LINE
  5
18D
330
1F
100
AcDbEntity
  8
D-0
  6
Continuous
 62
     7
370
     9
100
AcDbLine
 10
-299.2852700493543
 20
-407.1363991225462
 30
0.0
 11
-297.7854836724012
 21
-407.1363991225462
 31
0.0
  0
LINE
  5
18E
330
1F
100
AcDbEntity
  8
D-0
  6
Continuous
 62
     7
370
     9
100
AcDbLine
 10
-297.7854836724012
 20
-407.1363991225462
 30
0.0
 11
-297.7854836724012
 21
-408.6366718734007
 31
0.0
  0
LINE
  5
18F
330
1F
100
AcDbEntity
  8
D-0
  6
Continuous
 62
     7
370
     9
100
AcDbLine
 10
-297.7854836724012
 20
-408.6366718734007
 30
0.0
 11
-299.2852700493543
 21
-408.6366718734007
 31
0.0
  0
LINE
  5
190
330
1F
100
AcDbEntity
  8
D-0
  6
Continuous
 62
     7
370
     9
100
AcDbLine
 10
-244.5642007134168
 20
-401.8814533675413
 30
0.0
 11
-244.5642007134168
 21
-400.3811710799437
 31
0.0
  0
LINE
  5
191
330
1F
100
AcDbEntity
  8
D-0
  6
Continuous
 62
     7
370
     9
100
AcDbLine
 10
-244.5642007134168
 20
-400.3811710799437
 30
0.0
 11
-243.0644524834364
 21
-400.3811710799437
 31
0.0
  0
LINE
  5
192
330
1F
100
AcDbEntity
  8
D-0
  6
Continuous
 62
     7
370
     9
100
AcDbLine
 10
-243.0644524834364
 20
-400.3811710799437
 30
0.0
 11
-243.0644524834364
 21
-401.8814533675413
 31
0.0
  0
LINE
  5
193
330
1F
100
AcDbEntity
  8
D-0
  6
Continuous
 62
     7
370
     9
100
AcDbLine
 10
-243.0644524834364
 20
-401.8814533675413
 30
0.0
 11
-244.5642007134168
 21
-401.8814533675413
 31
0.0
  0
LINE
  5
194
330
1F
100
AcDbEntity
  8
D-0
  6
Continuous
 62
     7
370
     9
100
AcDbLine
 10
-256.7458260796278
 20
-361.9536083663206
 30
0.0
 11
-256.7458260796278
 21
-360.453326078723
 31
0.0
  0
LINE
  5
195
330
1F
100
AcDbEntity
  8
D-0
  6
Continuous
 62
     7
370
     9
100
AcDbLine
 10
-256.7458260796278
 20
-360.453326078723
 30
0.0
 11
-255.2455437920301
 21
-360.453326078723
 31
0.0
  0
LINE
  5
196
330
1F
100
AcDbEntity
  8
D-0
  6
Continuous
 62
     7
370
     9
100
AcDbLine
 10
-255.2455437920301
 20
-360.453326078723
 30
0.0
 11
-255.2455437920301
 21
-361.9536083663206
 31
0.0
  0
LINE
  5
197
330
1F
100
AcDbEntity
  8
D-0
  6
Continuous
 62
     7
370
     9
100
AcDbLine
 10
-255.2455437920301
 20
-361.9536083663206
 30
0.0
 11
-256.7458260796278
 21
-361.9536083663206
 31
0.0
  0
LINE
  5
198
330
1F
100
AcDbEntity
  8
D-0
  6
Continuous
 62
     7
370
     9
100
AcDbLine
 10
-297.7745736382215
 20
-371.0712212050657
 30
0.0
 11
-297.7745736382215
 21
-369.5709389174681
 31
0.0
  0
LINE
  5
199
330
1F
100
AcDbEntity
  8
D-0
  6
Continuous
 62
     7
370
     9
100
AcDbLine
 10
-297.7745736382215
 20
-369.5709389174681
 30
0.0
 11
-296.274825408241
 21
-369.5709389174681
 31
0.0
  0
LINE
  5
19A
330
1F
100
AcDbEntity
  8
D-0
  6
Continuous
 62
     7
370
     9
100
AcDbLine
 10
-296.274825408241
 20
-369.5709389174681
 30
0.0
 11
-296.274825408241
 21
-371.0712212050657
 31
0.0
  0
LINE
  5
19B
330
1F
100
AcDbEntity
  8
D-0
  6
Continuous
 62
     7
370
     9
100
AcDbLine
 10
-296.274825408241
 20
-371.0712212050657
 30
0.0
 11
-297.7745736382215
 21
-371.0712212050657
 31
0.0
  0
LINE
  5
19C
330
1F
100
AcDbEntity
  8
D-0
  6
Continuous
 62
     7
370
     9
100
AcDbLine
 10
-237.2897637627332
 20
-331.5828579390745
 30
0.0
 11
-237.2897637627332
 21
-330.0825756514769
 31
0.0
  0
LINE
  5
19D
330
1F
100
AcDbEntity
  8
D-0
  6
Continuous
 62
     7
370
     9
100
AcDbLine
 10
-237.2897637627332
 20
-330.0825756514769
 30
0.0
 11
-235.7894814751356
 21
-330.0825756514769
 31
0.0
  0
LINE
  5
19E
330
1F
100
AcDbEntity
  8
D-0
  6
Continuous
 62
     7
370
     9
100
AcDbLine
 10
-235.7894814751356
 20
-330.0825756514769
 30
0.0
 11
-235.7894814751356
 21
-331.5828579390745
 31
0.0
  0
LINE
  5
19F
330
1F
100
AcDbEntity
  8
D-0
  6
Continuous
 62
     7
370
     9
100
AcDbLine
 10
-235.7894814751356
 20
-331.5828579390745
 30
0.0
 11
-237.2897637627332
 21
-331.5828579390745
 31
0.0
  0
LINE
  5
1A0
330
1F
100
AcDbEntity
  8
D-0
  6
Continuous
 62
     7
370
     9
100
AcDbLine
 10
-391.2903512261121
 20
-320.6899755919676
 30
0.0
 11
-391.2903512261121
 21
-319.1896980727415
 31
0.0
  0
LINE
  5
1A1
330
1F
100
AcDbEntity
  8
D-0
  6
Continuous
 62
     7
370
     9
100
AcDbLine
 10
-391.2903512261121
 20
-319.1896980727415
 30
0.0
 11
-389.7900880120008
 21
-319.1896980727415
 31
0.0
  0
LINE
  5
1A2
330
1F
100
AcDbEntity
  8
D-0
  6
Continuous
 62
     7
370
     9
100
AcDbLine
 10
-389.7900880120008
 20
-319.1896980727415
 30
0.0
 11
-389.7900880120008
 21
-320.6899755919676
 31
0.0
  0
LINE
  5
1A3
330
1F
100
AcDbEntity
  8
D-0
  6
Continuous
 62
     7
370
     9
100
AcDbLine
 10
-389.7900880120008
 20
-320.6899755919676
 30
0.0
 11
-391.2903512261121
 21
-320.6899755919676
 31
0.0
  0
LINE
  5
1A4
330
1F
100
AcDbEntity
  8
D-0
  6
Continuous
 62
     7
370
     9
100
AcDbLine
 10
-474.6400941155164
 20
-443.9403122390013
 30
0.0
 11
-474.6400941155164
 21
-442.4400299514036
 31
0.0
  0
LINE
  5
1A5
330
1F
100
AcDbEntity
  8
D-0
  6
Continuous
 62
     7
370
     9
100
AcDbLine
 10
-474.6400941155164
 20
-442.4400299514036
 30
0.0
 11
-473.1398118279188
 21
-442.4400299514036
 31
0.0
  0
LINE
  5
1A6
330
1F
100
AcDbEntity
  8
D-0
  6
Continuous
 62
     7
370
     9
100
AcDbLine
 10
-473.1398118279188
 20
-442.4400299514036
 30
0.0
 11
-473.1398118279188
 21
-443.9403122390013
 31
0.0
  0
LINE
  5
1A7
330
1F
100
AcDbEntity
  8
D-0
  6
Continuous
 62
     7
370
     9
100
AcDbLine
 10
-473.1398118279188
 20
-443.9403122390013
 30
0.0
 11
-474.6400941155164
 21
-443.9403122390013
 31
0.0
  0
LINE
  5
1A8
330
1F
100
AcDbEntity
  8
D-0
  6
Continuous
 62
     7
370
     9
100
AcDbLine
 10
-425.2755463860242
 20
-451.8385857070189
 30
0.0
 11
-425.2755463860242
 21
-450.3383034194212
 31
0.0
  0
LINE
  5
1A9
330
1F
100
AcDbEntity
  8
D-0
  6
Continuous
 62
     7
370
     9
100
AcDbLine
 10
-425.2755463860242
 20
-450.3383034194212
 30
0.0
 11
-423.7752831719129
 21
-450.3383034194212
 31
0.0
  0
LINE
  5
1AA
330
1F
100
AcDbEntity
  8
D-0
  6
Continuous
 62
     7
370
     9
100
AcDbLine
 10
-423.7752831719129
 20
-450.3383034194212
 30
0.0
 11
-423.7752831719129
 21
-451.8385857070189
 31
0.0
  0
LINE
  5
1AB
330
1F
100
AcDbEntity
  8
D-0
  6
Continuous
 62
     7
370
     9
100
AcDbLine
 10
-423.7752831719129
 20
-451.8385857070189
 30
0.0
 11
-425.2755463860242
 21
-451.8385857070189
 31
0.0
  0
LINE
  5
1AC
330
1F
100
AcDbEntity
  8
D-0
  6
Continuous
 62
     7
370
     9
100
AcDbLine
 10
-442.1566689751356
 20
-472.4193542922239
 30
0.0
 11
-442.1566689751356
 21
-470.9190910781126
 31
0.0
  0
LINE
  5
1AD
330
1F
100
AcDbEntity
  8
D-0
  6
Continuous
 62
     7
370
     9
100
AcDbLine
 10
-442.1566689751356
 20
-470.9190910781126
 30
0.0
 11
-440.6568825981824
 21
-470.9190910781126
 31
0.0
  0
LINE
  5
1AE
330
1F
100
AcDbEntity
  8
D-0
  6
Continuous
 62
     7
370
     9
100
AcDbLine
 10
-440.6568825981824
 20
-470.9190910781126
 30
0.0
 11
-440.6568825981824
 21
-472.4193542922239
 31
0.0
  0
LINE
  5
1AF
330
1F
100
AcDbEntity
  8
D-0
  6
Continuous
 62
     7
370
     9
100
AcDbLine
 10
-440.6568825981824
 20
-472.4193542922239
 30
0.0
 11
-442.1566689751356
 21
-472.4193542922239
 31
0.0
  0
LINE
  5
1B0
330
1F
100
AcDbEntity
  8
D-0
  6
Continuous
 62
     7
370
     9
100
AcDbLine
 10
-490.4366410515516
 20
-507.1274536574583
 30
0.0
 11
-490.4366410515516
 21
-505.6271713698607
 31
0.0
  0
LINE
  5
1B1
330
1F
100
AcDbEntity
  8
D-0
  6
Continuous
 62
     7
370
     9
100
AcDbLine
 10
-490.4366410515516
 20
-505.6271713698607
 30
0.0
 11
-488.9368546745985
 21
-505.6271713698607
 31
0.0
  0
LINE
  5
1B2
330
1F
100
AcDbEntity
  8
D-0
  6
Continuous
 62
     7
370
     9
100
AcDbLine
 10
-488.9368546745985
 20
-505.6271713698607
 30
0.0
 11
-488.9368546745985
 21
-507.1274536574583
 31
0.0
  0
LINE
  5
1B3
330
1F
100
AcDbEntity
  8
D-0
  6
Continuous
 62
     7
370
     9
100
AcDbLine
 10
-488.9368546745985
 20
-507.1274536574583
 30
0.0
 11
-490.4366410515516
 21
-507.1274536574583
 31
0.0
  0
LINE
  5
1B4
330
1F
100
AcDbEntity
  8
D-0
  6
Continuous
 62
     7
370
     9
100
AcDbLine
 10
-419.3517220757215
 20
-505.1525085890989
 30
0.0
 11
-419.3517220757215
 21
-503.6522263015013
 31
0.0
  0
LINE
  5
1B5
330
1F
100
AcDbEntity
  8
D-0
  6
Continuous
 62
     7
370
     9
100
AcDbLine
 10
-419.3517220757215
 20
-503.6522263015013
 30
0.0
 11
-417.8514588616102
 21
-503.6522263015013
 31
0.0
  0
LINE
  5
1B6
330
1F
100
AcDbEntity
  8
D-0
  6
Continuous
 62
     7
370
     9
100
AcDbLine
 10
-417.8514588616102
 20
-503.6522263015013
 30
0.0
 11
-417.8514588616102
 21
-505.1525085890989
 31
0.0
  0
LINE
  5
1B7
330
1F
100
AcDbEntity
  8
D-0
  6
Continuous
 62
     7
370
     9
100
AcDbLine
 10
-417.8514588616102
 20
-505.1525085890989
 30
0.0
 11
-419.3517220757215
 21
-505.1525085890989
 31
0.0
  0
LINE
  5
1B8
330
1F
100
AcDbEntity
  8
D-0
  6
Continuous
 62
     7
370
     9
100
AcDbLine
 10
-476.6145432732313
 20
-473.559433790515
 30
0.0
 11
-476.6145432732313
 21
-472.0591515029173
 31
0.0
  0
LINE
  5
1B9
330
1F
100
AcDbEntity
  8
D-0
  6
Continuous
 62
     7
370
     9
100
AcDbLine
 10
-476.6145432732313
 20
-472.0591515029173
 30
0.0
 11
-475.1147568962782
 21
-472.0591515029173
 31
0.0
  0
LINE
  5
1BA
330
1F
100
AcDbEntity
  8
D-0
  6
Continuous
 62
     7
370
     9
100
AcDbLine
 10
-475.1147568962782
 20
-472.0591515029173
 30
0.0
 11
-475.1147568962782
 21
-473.559433790515
 31
0.0
  0
LINE
  5
1BB
330
1F
100
AcDbEntity
  8
D-0
  6
Continuous
 62
     7
370
     9
100
AcDbLine
 10
-475.1147568962782
 20
-473.559433790515
 30
0.0
 11
-476.6145432732313
 21
-473.559433790515
 31
0.0
  0
LINE
  5
1BC
330
1F
100
AcDbEntity
  8
D-0
  6
Continuous
 62
     7
370
     9
100
AcDbLine
 10
-444.7474778435438
 20
-429.6807163680296
 30
0.0
 11
-444.7474778435438
 21
-428.1804436171751
 31
0.0
  0
LINE
  5
1BD
330
1F
100
AcDbEntity
  8
D-0
  6
Continuous
 62
     7
370
     9
100
AcDbLine
 10
-444.7474778435438
 20
-428.1804436171751
 30
0.0
 11
-443.2471955559461
 21
-428.1804436171751
 31
0.0
  0
LINE
  5
1BE
330
1F
100
AcDbEntity
  8
D-0
  6
Continuous
 62
     7
370
     9
100
AcDbLine
 10
-443.2471955559461
 20
-428.1804436171751
 30
0.0
 11
-443.2471955559461
 21
-429.6807163680296
 31
0.0
  0
LINE
  5
1BF
330
1F
100
AcDbEntity
  8
D-0
  6
Continuous
 62
     7
370
     9
100
AcDbLine
 10
-443.2471955559461
 20
-429.6807163680296
 30
0.0
 11
-444.7474778435438
 21
-429.6807163680296
 31
0.0
  0
LINE
  5
1C0
330
1F
100
AcDbEntity
  8
D-0
  6
Continuous
 62
     7
370
     9
100
AcDbLine
 10
-454.0310776970594
 20
-501.1203735793333
 30
0.0
 11
-454.0310776970594
 21
-499.620110365222
 31
0.0
  0
LINE
  5
1C1
330
1F
100
AcDbEntity
  8
D-0
  6
Continuous
 62
     7
370
     9
100
AcDbLine
 10
-454.0310776970594
 20
-499.620110365222
 30
0.0
 11
-452.5307954094617
 21
-499.620110365222
 31
0.0
  0
LINE
  5
1C2
330
1F
100
AcDbEntity
  8
D-0
  6
Continuous
 62
     7
370
     9
100
AcDbLine
 10
-452.5307954094617
 20
-499.620110365222
 30
0.0
 11
-452.5307954094617
 21
-501.1203735793333
 31
0.0
  0
LINE
  5
1C3
330
1F
100
AcDbEntity
  8
D-0
  6
Continuous
 62
     7
370
     9
100
AcDbLine
 10
-452.5307954094617
 20
-501.1203735793333
 30
0.0
 11
-454.0310776970594
 21
-501.1203735793333
 31
0.0
  0
LINE
  5
1C4
330
1F
100
AcDbEntity
  8
D-0
  6
Continuous
 62
     7
370
     9
100
AcDbLine
 10
-617.1567357323377
 20
-291.2442666018705
 30
0.0
 11
-617.1567357323377
 21
-289.7439866984587
 31
0.0
  0
LINE
  5
1C5
330
1F
100
AcDbEntity
  8
D-0
  6
Continuous
 62
     7
370
     9
100
AcDbLine
 10
-617.1567357323377
 20
-289.7439866984587
 30
0.0
 11
-615.6564582131116
 21
-289.7439866984587
 31
0.0
  0
LINE
  5
1C6
330
1F
100
AcDbEntity
  8
D-0
  6
Continuous
 62
     7
370
     9
100
AcDbLine
 10
-615.6564582131116
 20
-289.7439866984587
 30
0.0
 11
-615.6564582131116
 21
-291.2442666018705
 31
0.0
  0
LINE
  5
1C7
330
1F
100
AcDbEntity
  8
D-0
  6
Continuous
 62
     7
370
     9
100
AcDbLine
 10
-615.6564582131116
 20
-291.2442666018705
 30
0.0
 11
-617.1567357323377
 21
-291.2442666018705
 31
0.0
  0
LINE
  5
1C8
330
1F
100
AcDbEntity
  8
D-0
  6
Continuous
 62
     7
370
     9
100
AcDbLine
 10
-595.9120286247937
 20
-307.042784067462
 30
0.0
 11
-595.9120286247937
 21
-305.5425041640501
 31
0.0
  0
LINE
  5
1C9
330
1F
100
AcDbEntity
  8
D-0
  6
Continuous
 62
     7
370
     9
100
AcDbLine
 10
-595.9120286247937
 20
-305.5425041640501
 30
0.0
 11
-594.4117463371961
 21
-305.5425041640501
 31
0.0
  0
LINE
  5
1CA
330
1F
100
AcDbEntity
  8
D-0
  6
Continuous
 62
     7
370
     9
100
AcDbLine
 10
-594.4117463371961
 20
-305.5425041640501
 30
0.0
 11
-594.4117463371961
 21
-307.042784067462
 31
0.0
  0
LINE
  5
1CB
330
1F
100
AcDbEntity
  8
D-0
  6
Continuous
 62
     7
370
     9
100
AcDbLine
 10
-594.4117463371961
 20
-307.042784067462
 30
0.0
 11
-595.9120286247937
 21
-307.042784067462
 31
0.0
  0
LINE
  5
1CC
330
1F
100
AcDbEntity
  8
D-0
  6
Continuous
 62
     7
370
     9
100
AcDbLine
 10
-572.0457947991101
 20
-348.1230896437864
 30
0.0
 11
-572.0457947991101
 21
-346.6228121245604
 31
0.0
  0
LINE
  5
1CD
330
1F
100
AcDbEntity
  8
D-0
  6
Continuous
 62
     7
370
     9
100
AcDbLine
 10
-572.0457947991101
 20
-346.6228121245604
 30
0.0
 11
-570.546008422157
 21
-346.6228121245604
 31
0.0
  0
LINE
  5
1CE
330
1F
100
AcDbEntity
  8
D-0
  6
Continuous
 62
     7
370
     9
100
AcDbLine
 10
-570.546008422157
 20
-346.6228121245604
 30
0.0
 11
-570.546008422157
 21
-348.1230896437864
 31
0.0
  0
LINE
  5
1CF
330
1F
100
AcDbEntity
  8
D-0
  6
Continuous
 62
     7
370
     9
100
AcDbLine
 10
-570.546008422157
 20
-348.1230896437864
 30
0.0
 11
-572.0457947991101
 21
-348.1230896437864
 31
0.0
  0
LINE
  5
1D0
330
1F
100
AcDbEntity
  8
D-0
  6
Continuous
 62
     7
370
     9
100
AcDbLine
 10
-526.2813199303357
 20
-295.166893574069
 30
0.0
 11
-526.2813199303357
 21
-293.6666136706572
 31
0.0
  0
LINE
  5
1D1
330
1F
100
AcDbEntity
  8
D-0
  6
Continuous
 62
     7
370
     9
100
AcDbLine
 10
-526.2813199303357
 20
-293.6666136706572
 30
0.0
 11
-524.7815430901258
 21
-293.6666136706572
 31
0.0
  0
LINE
  5
1D2
330
1F
100
AcDbEntity
  8
D-0
  6
Continuous
 62
     7
370
     9
100
AcDbLine
 10
-524.7815430901258
 20
-293.6666136706572
 30
0.0
 11
-524.7815430901258
 21
-295.166893574069
 31
0.0
  0
LINE
  5
1D3
330
1F
100
AcDbEntity
  8
D-0
  6
Continuous
 62
     7
370
     9
100
AcDbLine
 10
-524.7815430901258
 20
-295.166893574069
 30
0.0
 11
-526.2813199303357
 21
-295.166893574069
 31
0.0
  0
LINE
  5
1D4
330
1F
100
AcDbEntity
  8
D-0
  6
Continuous
 62
     7
370
     9
100
AcDbLine
 10
-478.7232507012098
 20
-289.7687607730131
 30
0.0
 11
-478.7232507012098
 21
-288.2684808696013
 31
0.0
  0
LINE
  5
1D5
330
1F
100
AcDbEntity
  8
D-0
  6
Continuous
 62
     7
370
     9
100
AcDbLine
 10
-478.7232507012098
 20
-288.2684808696013
 30
0.0
 11
-477.2234643242567
 21
-288.2684808696013
 31
0.0
  0
LINE
  5
1D6
330
1F
100
AcDbEntity
  8
D-0
  6
Continuous
 62
     7
370
     9
100
AcDbLine
 10
-477.2234643242567
 20
-288.2684808696013
 30
0.0
 11
-477.2234643242567
 21
-289.7687607730131
 31
0.0
  0
LINE
  5
1D7
330
1F
100
AcDbEntity
  8
D-0
  6
Continuous
 62
     7
370
     9
100
AcDbLine
 10
-477.2234643242567
 20
-289.7687607730131
 30
0.0
 11
-478.7232507012098
 21
-289.7687607730131
 31
0.0
  0
LINE
  5
1D8
330
1F
100
AcDbEntity
  8
D-0
  6
Continuous
 62
     7
370
     9
100
AcDbLine
 10
-498.336879088661
 20
-311.3434523070555
 30
0.0
 11
-498.336879088661
 21
-309.8431747878294
 31
0.0
  0
LINE
  5
1D9
330
1F
100
AcDbEntity
  8
D-0
  6
Continuous
 62
     7
370
     9
100
AcDbLine
 10
-498.336879088661
 20
-309.8431747878294
 30
0.0
 11
-496.8365968010633
 21
-309.8431747878294
 31
0.0
  0
LINE
  5
1DA
330
1F
100
AcDbEntity
  8
D-0
  6
Continuous
 62
     7
370
     9
100
AcDbLine
 10
-496.8365968010633
 20
-309.8431747878294
 30
0.0
 11
-496.8365968010633
 21
-311.3434523070555
 31
0.0
  0
LINE
  5
1DB
330
1F
100
AcDbEntity
  8
D-0
  6
Continuous
 62
     7
370
     9
100
AcDbLine
 10
-496.8365968010633
 20
-311.3434523070555
 30
0.0
 11
-498.336879088661
 21
-311.3434523070555
 31
0.0
  0
LINE
  5
1DC
330
1F
100
AcDbEntity
  8
D-0
  6
Continuous
 62
     7
370
     9
100
AcDbLine
 10
-473.9791405937879
 20
-347.4695700133543
 30
0.0
 11
-473.9791405937879
 21
-345.9692877257567
 31
0.0
  0
LINE
  5
1DD
330
1F
100
AcDbEntity
  8
D-0
  6
Continuous
 62
     7
370
     9
100
AcDbLine
 10
-473.9791405937879
 20
-345.9692877257567
 30
0.0
 11
-472.4788583061903
 21
-345.9692877257567
 31
0.0
  0
LINE
  5
1DE
330
1F
100
AcDbEntity
  8
D-0
  6
Continuous
 62
     7
370
     9
100
AcDbLine
 10
-472.4788583061903
 20
-345.9692877257567
 30
0.0
 11
-472.4788583061903
 21
-347.4695700133543
 31
0.0
  0
LINE
  5
1DF
330
1F
100
AcDbEntity
  8
D-0
  6
Continuous
 62
     7
370
     9
100
AcDbLine
 10
-472.4788583061903
 20
-347.4695700133543
 30
0.0
 11
-473.9791405937879
 21
-347.4695700133543
 31
0.0
  0
LINE
  5
1E0
330
1F
100
AcDbEntity
  8
D-0
  6
Continuous
 62
     7
370
     9
100
AcDbLine
 10
-470.0560296318739
 20
-386.0423057997923
 30
0.0
 11
-470.0560296318739
 21
-384.5420235121946
 31
0.0
  0
LINE
  5
1E1
330
1F
100
AcDbEntity
  8
D-0
  6
Continuous
 62
     7
370
     9
100
AcDbLine
 10
-470.0560296318739
 20
-384.5420235121946
 30
0.0
 11
-468.5562432549207
 21
-384.5420235121946
 31
0.0
  0
LINE
  5
1E2
330
1F
100
AcDbEntity
  8
D-0
  6
Continuous
 62
     7
370
     9
100
AcDbLine
 10
-468.5562432549207
 20
-384.5420235121946
 30
0.0
 11
-468.5562432549207
 21
-386.0423057997923
 31
0.0
  0
LINE
  5
1E3
330
1F
100
AcDbEntity
  8
D-0
  6
Continuous
 62
     7
370
     9
100
AcDbLine
 10
-468.5562432549207
 20
-386.0423057997923
 30
0.0
 11
-470.0560296318739
 21
-386.0423057997923
 31
0.0
  0
LINE
  5
1E4
330
1F
100
AcDbEntity
  8
D-0
  6
Continuous
 62
     7
370
     9
100
AcDbLine
 10
-545.7250035546033
 20
-309.6682733023863
 30
0.0
 11
-545.7250035546033
 21
-308.1679933989744
 31
0.0
  0
LINE
  5
1E5
330
1F
100
AcDbEntity
  8
D-0
  6
Continuous
 62
     7
370
     9
100
AcDbLine
 10
-545.7250035546033
 20
-308.1679933989744
 30
0.0
 11
-544.2247212670056
 21
-308.1679933989744
 31
0.0
  0
LINE
  5
1E6
330
1F
100
AcDbEntity
  8
D-0
  6
Continuous
 62
     7
370
     9
100
AcDbLine
 10
-544.2247212670056
 20
-308.1679933989744
 30
0.0
 11
-544.2247212670056
 21
-309.6682733023863
 31
0.0
  0
LINE
  5
1E7
330
1F
100
AcDbEntity
  8
D-0
  6
Continuous
 62
     7
370
     9
100
AcDbLine
 10
-544.2247212670056
 20
-309.6682733023863
 30
0.0
 11
-545.7250035546033
 21
-309.6682733023863
 31
0.0
  0
LINE
  5
1E8
330
1F
100
AcDbEntity
  8
D-0
  6
Continuous
 62
     7
370
     9
100
AcDbLine
 10
-624.0070880196301
 20
-437.1072929824095
 30
0.0
 11
-624.0070880196301
 21
-435.607020231555
 31
0.0
  0
LINE
  5
1E9
330
1F
100
AcDbEntity
  8
D-0
  6
Continuous
 62
     7
370
     9
100
AcDbLine
 10
-624.0070880196301
 20
-435.607020231555
 30
0.0
 11
-622.5068105004041
 21
-435.607020231555
 31
0.0
  0
LINE
  5
1EA
330
1F
100
AcDbEntity
  8
D-0
  6
Continuous
 62
     7
370
     9
100
AcDbLine
 10
-622.5068105004041
 20
-435.607020231555
 30
0.0
 11
-622.5068105004041
 21
-437.1072929824095
 31
0.0
  0
LINE
  5
1EB
330
1F
100
AcDbEntity
  8
D-0
  6
Continuous
 62
     7
370
     9
100
AcDbLine
 10
-622.5068105004041
 20
-437.1072929824095
 30
0.0
 11
-624.0070880196301
 21
-437.1072929824095
 31
0.0
  0
LINE
  5
1EC
330
1F
100
AcDbEntity
  8
D-0
  6
Continuous
 62
     7
370
     9
100
AcDbLine
 10
-774.7782338402478
 20
-426.1688393080931
 30
0.0
 11
-774.7782338402478
 21
-424.6685570204954
 31
0.0
  0
LINE
  5
1ED
330
1F
100
AcDbEntity
  8
D-0
  6
Continuous
 62
     7
370
     9
100
AcDbLine
 10
-774.7782338402478
 20
-424.6685570204954
 30
0.0
 11
-773.2779610893933
 21
-424.6685570204954
 31
0.0
  0
LINE
  5
1EE
330
1F
100
AcDbEntity
  8
D-0
  6
Continuous
 62
     7
370
     9
100
AcDbLine
 10
-773.2779610893933
 20
-424.6685570204954
 30
0.0
 11
-773.2779610893933
 21
-426.1688393080931
 31
0.0
  0
LINE
  5
1EF
330
1F
100
AcDbEntity
  8
D-0
  6
Continuous
 62
     7
370
     9
100
AcDbLine
 10
-773.2779610893933
 20
-426.1688393080931
 30
0.0
 11
-774.7782338402478
 21
-426.1688393080931
 31
0.0
  0
LINE
  5
1F0
330
1F
100
AcDbEntity
  8
D-0
  6
Continuous
 62
     7
370
     9
100
AcDbLine
 10
-715.5399907372205
 20
-530.8222549880247
 30
0.0
 11
-715.5399907372205
 21
-529.3219727004271
 31
0.0
  0
LINE
  5
1F1
330
1F
100
AcDbEntity
  8
D-0
  6
Continuous
 62
     7
370
     9
100
AcDbLine
 10
-715.5399907372205
 20
-529.3219727004271
 30
0.0
 11
-714.0402091286389
 21
-529.3219727004271
 31
0.0
  0
LINE
  5
1F2
330
1F
100
AcDbEntity
  8
D-0
  6
Continuous
 62
     7
370
     9
100
AcDbLine
 10
-714.0402091286389
 20
-529.3219727004271
 30
0.0
 11
-714.0402091286389
 21
-530.8222549880247
 31
0.0
  0
LINE
  5
1F3
330
1F
100
AcDbEntity
  8
D-0
  6
Continuous
 62
     7
370
     9
100
AcDbLine
 10
-714.0402091286389
 20
-530.8222549880247
 30
0.0
 11
-715.5399907372205
 21
-530.8222549880247
 31
0.0
  0
LINE
  5
1F4
330
1F
100
AcDbEntity
  8
D-0
  6
Continuous
 62
     7
370
     9
100
AcDbLine
 10
-729.3625796578137
 20
-590.0600021804075
 30
0.0
 11
-729.3625796578137
 21
-588.5597198928099
 31
0.0
  0
LINE
  5
1F5
330
1F
100
AcDbEntity
  8
D-0
  6
Continuous
 62
     7
370
     9
100
AcDbLine
 10
-729.3625796578137
 20
-588.5597198928099
 30
0.0
 11
-727.8622973702161
 21
-588.5597198928099
 31
0.0
  0
LINE
  5
1F6
330
1F
100
AcDbEntity
  8
D-0
  6
Continuous
 62
     7
370
     9
100
AcDbLine
 10
-727.8622973702161
 20
-588.5597198928099
 30
0.0
 11
-727.8622973702161
 21
-590.0600021804075
 31
0.0
  0
LINE
  5
1F7
330
1F
100
AcDbEntity
  8
D-0
  6
Continuous
 62
     7
370
     9
100
AcDbLine
 10
-727.8622973702161
 20
-590.0600021804075
 30
0.0
 11
-729.3625796578137
 21
-590.0600021804075
 31
0.0
  0
LINE
  5
1F8
330
1F
100
AcDbEntity
  8
D-0
  6
Continuous
 62
     7
370
     9
100
AcDbLine
 10
-759.968673064491
 20
-600.9201973403196
 30
0.0
 11
-759.968673064491
 21
-599.419915052722
 31
0.0
  0
LINE
  5
1F9
330
1F
100
AcDbEntity
  8
D-0
  6
Continuous
 62
     7
370
     9
100
AcDbLine
 10
-759.968673064491
 20
-599.419915052722
 30
0.0
 11
-758.4684003136365
 21
-599.419915052722
 31
0.0
  0
LINE
  5
1FA
330
1F
100
AcDbEntity
  8
D-0
  6
Continuous
 62
     7
370
     9
100
AcDbLine
 10
-758.4684003136365
 20
-599.419915052722
 30
0.0
 11
-758.4684003136365
 21
-600.9201973403196
 31
0.0
  0
LINE
  5
1FB
330
1F
100
AcDbEntity
  8
D-0
  6
Continuous
 62
     7
370
     9
100
AcDbLine
 10
-758.4684003136365
 20
-600.9201973403196
 30
0.0
 11
-759.968673064491
 21
-600.9201973403196
 31
0.0
  0
LINE
  5
1FC
330
1F
100
AcDbEntity
  8
D-0
  6
Continuous
 62
     7
370
     9
100
AcDbLine
 10
-782.8221715233533
 20
-534.7716301406126
 30
0.0
 11
-782.8221715233533
 21
-533.271347853015
 31
0.0
  0
LINE
  5
1FD
330
1F
100
AcDbEntity
  8
D-0
  6
Continuous
 62
     7
370
     9
100
AcDbLine
 10
-782.8221715233533
 20
-533.271347853015
 30
0.0
 11
-781.3223851464002
 21
-533.271347853015
 31
0.0
  0
LINE
  5
1FE
330
1F
100
AcDbEntity
  8
D-0
  6
Continuous
 62
     7
370
     9
100
AcDbLine
 10
-781.3223851464002
 20
-533.271347853015
 30
0.0
 11
-781.3223851464002
 21
-534.7716301406126
 31
0.0
  0
LINE
  5
1FF
330
1F
100
AcDbEntity
  8
D-0
  6
Continuous
 62
     7
370
     9
100
AcDbLine
 10
-781.3223851464002
 20
-534.7716301406126
 30
0.0
 11
-782.8221715233533
 21
-534.7716301406126
 31
0.0
  0
LINE
  5
200
330
1F
100
AcDbEntity
  8
D-0
  6
Continuous
 62
     7
370
     9
100
AcDbLine
 10
-757.0067609093396
 20
-513.051277967761
 30
0.0
 11
-757.0067609093396
 21
-511.5509956801634
 31
0.0
  0
LINE
  5
201
330
1F
100
AcDbEntity
  8
D-0
  6
Continuous
 62
     7
370
     9
100
AcDbLine
 10
-757.0067609093396
 20
-511.5509956801634
 30
0.0
 11
-755.5064881584851
 21
-511.5509956801634
 31
0.0
  0
LINE
  5
202
330
1F
100
AcDbEntity
  8
D-0
  6
Continuous
 62
     7
370
     9
100
AcDbLine
 10
-755.5064881584851
 20
-511.5509956801634
 30
0.0
 11
-755.5064881584851
 21
-513.051277967761
 31
0.0
  0
LINE
  5
203
330
1F
100
AcDbEntity
  8
D-0
  6
Continuous
 62
     7
370
     9
100
AcDbLine
 10
-755.5064881584851
 20
-513.051277967761
 30
0.0
 11
-757.0067609093396
 21
-513.051277967761
 31
0.0
  0
LINE
  5
204
330
1F
100
AcDbEntity
  8
D-0
  6
Continuous
 62
     7
370
     9
100
AcDbLine
 10
-693.8196314118115
 20
-565.5442017043333
 30
0.0
 11
-693.8196314118115
 21
-564.0439194167357
 31
0.0
  0
LINE
  5
205
330
1F
100
AcDbEntity
  8
D-0
  6
Continuous
 62
     7
370
     9
100
AcDbLine
 10
-693.8196314118115
 20
-564.0439194167357
 30
0.0
 11
-692.3198474190442
 21
-564.0439194167357
 31
0.0
  0
LINE
  5
206
330
1F
100
AcDbEntity
  8
D-0
  6
Continuous
 62
     7
370
     9
100
AcDbLine
 10
-692.3198474190442
 20
-564.0439194167357
 30
0.0
 11
-692.3198474190442
 21
-565.5442017043333
 31
0.0
  0
LINE
  5
207
330
1F
100
AcDbEntity
  8
D-0
  6
Continuous
 62
     7
370
     9
100
AcDbLine
 10
-692.3198474190442
 20
-565.5442017043333
 30
0.0
 11
-693.8196314118115
 21
-565.5442017043333
 31
0.0
  0
LINE
  5
208
330
1F
100
AcDbEntity
  8
D-0
  6
Continuous
 62
     7
370
     9
100
AcDbLine
 10
-770.8288586876599
 20
-703.4232490981321
 30
0.0
 11
-770.8288586876599
 21
-701.9229668105345
 31
0.0
  0
LINE
  5
209
330
1F
100
AcDbEntity
  8
D-0
  6
Continuous
 62
     7
370
     9
100
AcDbLine
 10
-770.8288586876599
 20
-701.9229668105345
 30
0.0
 11
-769.3290723107068
 21
-701.9229668105345
 31
0.0
  0
LINE
  5
20A
330
1F
100
AcDbEntity
  8
D-0
  6
Continuous
 62
     7
370
     9
100
AcDbLine
 10
-769.3290723107068
 20
-701.9229668105345
 30
0.0
 11
-769.3290723107068
 21
-703.4232490981321
 31
0.0
  0
LINE
  5
20B
330
1F
100
AcDbEntity
  8
D-0
  6
Continuous
 62
     7
370
     9
100
AcDbLine
 10
-769.3290723107068
 20
-703.4232490981321
 30
0.0
 11
-770.8288586876599
 21
-703.4232490981321
 31
0.0
  0
LINE
  5
20C
330
1F
100
AcDbEntity
  8
D-0
  6
Continuous
 62
     7
370
     9
100
AcDbLine
 10
-700.438598468086
 20
-707.1352928603392
 30
0.0
 11
-700.438598468086
 21
-705.6350105727415
 31
0.0
  0
LINE
  5
20D
330
1F
100
AcDbEntity
  8
D-0
  6
Continuous
 62
     7
370
     9
100
AcDbLine
 10
-700.438598468086
 20
-705.6350105727415
 30
0.0
 11
-698.9388144753186
 21
-705.6350105727415
 31
0.0
  0
LINE
  5
20E
330
1F
100
AcDbEntity
  8
D-0
  6
Continuous
 62
     7
370
     9
100
AcDbLine
 10
-698.9388144753186
 20
-705.6350105727415
 30
0.0
 11
-698.9388144753186
 21
-707.1352928603392
 31
0.0
  0
LINE
  5
20F
330
1F
100
AcDbEntity
  8
D-0
  6
Continuous
 62
     7
370
     9
100
AcDbLine
 10
-698.9388144753186
 20
-707.1352928603392
 30
0.0
 11
-700.438598468086
 21
-707.1352928603392
 31
0.0
  0
LINE
  5
210
330
1F
100
AcDbEntity
  8
D-0
  6
Continuous
 62
     7
370
     9
100
AcDbLine
 10
-676.048156692764
 20
-733.0418938124876
 30
0.0
 11
-676.048156692764
 21
-731.54161152489
 31
0.0
  0
LINE
  5
211
330
1F
100
AcDbEntity
  8
D-0
  6
Continuous
 62
     7
370
     9
100
AcDbLine
 10
-676.048156692764
 20
-731.54161152489
 30
0.0
 11
-674.548372550985
 21
-731.54161152489
 31
0.0
  0
LINE
  5
212
330
1F
100
AcDbEntity
  8
D-0
  6
Continuous
 62
     7
370
     9
100
AcDbLine
 10
-674.548372550985
 20
-731.54161152489
 30
0.0
 11
-674.548372550985
 21
-733.0418938124876
 31
0.0
  0
LINE
  5
213
330
1F
100
AcDbEntity
  8
D-0
  6
Continuous
 62
     7
370
     9
100
AcDbLine
 10
-674.548372550985
 20
-733.0418938124876
 30
0.0
 11
-676.048156692764
 21
-733.0418938124876
 31
0.0
  0
LINE
  5
214
330
1F
100
AcDbEntity
  8
D-0
  6
Continuous
 62
     7
370
     9
100
AcDbLine
 10
-669.7695762655942
 20
-771.2539070571165
 30
0.0
 11
-669.7695762655942
 21
-769.7536247695189
 31
0.0
  0
LINE
  5
215
330
1F
100
AcDbEntity
  8
D-0
  6
Continuous
 62
     7
370
     9
100
AcDbLine
 10
-669.7695762655942
 20
-769.7536247695189
 30
0.0
 11
-668.2692969582288
 21
-769.7536247695189
 31
0.0
  0
LINE
  5
216
330
1F
100
AcDbEntity
  8
D-0
  6
Continuous
 62
     7
370
     9
100
AcDbLine
 10
-668.2692969582288
 20
-769.7536247695189
 30
0.0
 11
-668.2692969582288
 21
-771.2539070571165
 31
0.0
  0
LINE
  5
217
330
1F
100
AcDbEntity
  8
D-0
  6
Continuous
 62
     7
370
     9
100
AcDbLine
 10
-668.2692969582288
 20
-771.2539070571165
 30
0.0
 11
-669.7695762655942
 21
-771.2539070571165
 31
0.0
  0
LINE
  5
218
330
1F
100
AcDbEntity
  8
D-0
  6
Continuous
 62
     7
370
     9
100
AcDbLine
 10
-743.9982331536023
 20
-776.71250996239
 30
0.0
 11
-743.9982331536023
 21
-775.2122276747923
 31
0.0
  0
LINE
  5
219
330
1F
100
AcDbEntity
  8
D-0
  6
Continuous
 62
     7
370
     9
100
AcDbLine
 10
-743.9982331536023
 20
-775.2122276747923
 30
0.0
 11
-742.4979508660047
 21
-775.2122276747923
 31
0.0
  0
LINE
  5
21A
330
1F
100
AcDbEntity
  8
D-0
  6
Continuous
 62
     7
370
     9
100
AcDbLine
 10
-742.4979508660047
 20
-775.2122276747923
 30
0.0
 11
-742.4979508660047
 21
-776.71250996239
 31
0.0
  0
LINE
  5
21B
330
1F
100
AcDbEntity
  8
D-0
  6
Continuous
 62
     7
370
     9
100
AcDbLine
 10
-742.4979508660047
 20
-776.71250996239
 30
0.0
 11
-743.9982331536023
 21
-776.71250996239
 31
0.0
  0
LINE
  5
21C
330
1F
100
AcDbEntity
  8
D-0
  6
Continuous
 62
     7
370
     9
100
AcDbLine
 10
-778.7271226189343
 20
-767.4160164321165
 30
0.0
 11
-778.7271226189343
 21
-765.9157341445189
 31
0.0
  0
LINE
  5
21D
330
1F
100
AcDbEntity
  8
D-0
  6
Continuous
 62
     7
370
     9
100
AcDbLine
 10
-778.7271226189343
 20
-765.9157341445189
 30
0.0
 11
-777.2268403313367
 21
-765.9157341445189
 31
0.0
  0
LINE
  5
21E
330
1F
100
AcDbEntity
  8
D-0
  6
Continuous
 62
     7
370
     9
100
AcDbLine
 10
-777.2268403313367
 20
-765.9157341445189
 30
0.0
 11
-777.2268403313367
 21
-767.4160164321165
 31
0.0
  0
LINE
  5
21F
330
1F
100
AcDbEntity
  8
D-0
  6
Continuous
 62
     7
370
     9
100
AcDbLine
 10
-777.2268403313367
 20
-767.4160164321165
 30
0.0
 11
-778.7271226189343
 21
-767.4160164321165
 31
0.0
  0
LINE
  5
220
330
1F
100
AcDbEntity
  8
D-0
  6
Continuous
 62
     7
370
     9
100
AcDbLine
 10
-780.9383977196424
 20
-727.1180504286986
 30
0.0
 11
-780.9383977196424
 21
-725.6177681411009
 31
0.0
  0
LINE
  5
221
330
1F
100
AcDbEntity
  8
D-0
  6
Continuous
 62
     7
370
     9
100
AcDbLine
 10
-780.9383977196424
 20
-725.6177681411009
 30
0.0
 11
-779.4386208794324
 21
-725.6177681411009
 31
0.0
  0
LINE
  5
222
330
1F
100
AcDbEntity
  8
D-0
  6
Continuous
 62
     7
370
     9
100
AcDbLine
 10
-779.4386208794324
 20
-725.6177681411009
 30
0.0
 11
-779.4386208794324
 21
-727.1180504286986
 31
0.0
  0
LINE
  5
223
330
1F
100
AcDbEntity
  8
D-0
  6
Continuous
 62
     7
370
     9
100
AcDbLine
 10
-779.4386208794324
 20
-727.1180504286986
 30
0.0
 11
-780.9383977196424
 21
-727.1180504286986
 31
0.0
  0
LINE
  5
224
330
1F
100
AcDbEntity
  8
D-0
  6
Continuous
 62
     7
370
     9
100
AcDbLine
 10
-723.438755347511
 20
-746.8639915908079
 30
0.0
 11
-723.438755347511
 21
-745.3637093032103
 31
0.0
  0
LINE
  5
225
330
1F
100
AcDbEntity
  8
D-0
  6
Continuous
 62
     7
370
     9
100
AcDbLine
 10
-723.438755347511
 20
-745.3637093032103
 30
0.0
 11
-721.9384730599133
 21
-745.3637093032103
 31
0.0
  0
LINE
  5
226
330
1F
100
AcDbEntity
  8
D-0
  6
Continuous
 62
     7
370
     9
100
AcDbLine
 10
-721.9384730599133
 20
-745.3637093032103
 30
0.0
 11
-721.9384730599133
 21
-746.8639915908079
 31
0.0
  0
LINE
  5
227
330
1F
100
AcDbEntity
  8
D-0
  6
Continuous
 62
     7
370
     9
100
AcDbLine
 10
-721.9384730599133
 20
-746.8639915908079
 30
0.0
 11
-723.438755347511
 21
-746.8639915908079
 31
0.0
  0
LINE
  5
228
330
1F
100
AcDbEntity
  8
D-0
  6
Continuous
 62
     7
370
     9
100
AcDbLine
 10
-735.2864039681165
 20
-713.2959526503782
 30
0.0
 11
-735.2864039681165
 21
-711.7956703627806
 31
0.0
  0
LINE
  5
229
330
1F
100
AcDbEntity
  8
D-0
  6
Continuous
 62
     7
370
     9
100
AcDbLine
 10
-735.2864039681165
 20
-711.7956703627806
 30
0.0
 11
-733.7861216805188
 21
-711.7956703627806
 31
0.0
  0
LINE
  5
22A
330
1F
100
AcDbEntity
  8
D-0
  6
Continuous
 62
     7
370
     9
100
AcDbLine
 10
-733.7861216805188
 20
-711.7956703627806
 30
0.0
 11
-733.7861216805188
 21
-713.2959526503782
 31
0.0
  0
LINE
  5
22B
330
1F
100
AcDbEntity
  8
D-0
  6
Continuous
 62
     7
370
     9
100
AcDbLine
 10
-733.7861216805188
 20
-713.2959526503782
 30
0.0
 11
-735.2864039681165
 21
-713.2959526503782
 31
0.0
  0
LINE
  5
22C
330
1F
100
AcDbEntity
  8
D-0
  6
Continuous
 62
     7
370
     9
100
AcDbLine
 10
-679.9975384018628
 20
-599.1122215712767
 30
0.0
 11
-679.9975384018628
 21
-597.611939283679
 31
0.0
  0
LINE
  5
22D
330
1F
100
AcDbEntity
  8
D-0
  6
Continuous
 62
     7
370
     9
100
AcDbLine
 10
-679.9975384018628
 20
-597.611939283679
 30
0.0
 11
-678.4977544090955
 21
-597.611939283679
 31
0.0
  0
LINE
  5
22E
330
1F
100
AcDbEntity
  8
D-0
  6
Continuous
 62
     7
370
     9
100
AcDbLine
 10
-678.4977544090955
 20
-597.611939283679
 30
0.0
 11
-678.4977544090955
 21
-599.1122215712767
 31
0.0
  0
LINE
  5
22F
330
1F
100
AcDbEntity
  8
D-0
  6
Continuous
 62
     7
370
     9
100
AcDbLine
 10
-678.4977544090955
 20
-599.1122215712767
 30
0.0
 11
-679.9975384018628
 21
-599.1122215712767
 31
0.0
  0
LINE
  5
230
330
1F
100
AcDbEntity
  8
D-0
  6
Continuous
 62
     7
370
     9
100
AcDbLine
 10
-668.1503842017858
 20
-499.2286842787962
 30
0.0
 11
-668.1503842017858
 21
-497.7284019911986
 31
0.0
  0
LINE
  5
231
330
1F
100
AcDbEntity
  8
D-0
  6
Continuous
 62
     7
370
     9
100
AcDbLine
 10
-668.1503842017858
 20
-497.7284019911986
 30
0.0
 11
-666.6501045963971
 21
-497.7284019911986
 31
0.0
  0
LINE
  5
232
330
1F
100
AcDbEntity
  8
D-0
  6
Continuous
 62
     7
370
     9
100
AcDbLine
 10
-666.6501045963971
 20
-497.7284019911986
 30
0.0
 11
-666.6501045963971
 21
-499.2286842787962
 31
0.0
  0
LINE
  5
233
330
1F
100
AcDbEntity
  8
D-0
  6
Continuous
 62
     7
370
     9
100
AcDbLine
 10
-666.6501045963971
 20
-499.2286842787962
 30
0.0
 11
-668.1503842017858
 21
-499.2286842787962
 31
0.0
  0
LINE
  5
234
330
1F
100
AcDbEntity
  8
D-0
  6
Continuous
 62
     7
370
     9
100
AcDbLine
 10
-572.0393479607312
 20
-510.4530304396849
 30
0.0
 11
-572.0393479607312
 21
-508.9527481520872
 31
0.0
  0
LINE
  5
235
330
1F
100
AcDbEntity
  8
D-0
  6
Continuous
 62
     7
370
     9
100
AcDbLine
 10
-572.0393479607312
 20
-508.9527481520872
 30
0.0
 11
-570.5395711205213
 21
-508.9527481520872
 31
0.0
  0
LINE
  5
236
330
1F
100
AcDbEntity
  8
D-0
  6
Continuous
 62
     7
370
     9
100
AcDbLine
 10
-570.5395711205213
 20
-508.9527481520872
 30
0.0
 11
-570.5395711205213
 21
-510.4530304396849
 31
0.0
  0
LINE
  5
237
330
1F
100
AcDbEntity
  8
D-0
  6
Continuous
 62
     7
370
     9
100
AcDbLine
 10
-570.5395711205213
 20
-510.4530304396849
 30
0.0
 11
-572.0393479607312
 21
-510.4530304396849
 31
0.0
  0
LINE
  5
238
330
1F
100
AcDbEntity
  8
D-0
  6
Continuous
 62
     7
370
     9
100
AcDbLine
 10
-624.5739043495862
 20
-501.8279045546751
 30
0.0
 11
-624.5739043495862
 21
-500.3276222670775
 31
0.0
  0
LINE
  5
239
330
1F
100
AcDbEntity
  8
D-0
  6
Continuous
 62
     7
370
     9
100
AcDbLine
 10
-624.5739043495862
 20
-500.3276222670775
 30
0.0
 11
-623.0741227410047
 21
-500.3276222670775
 31
0.0
  0
LINE
  5
23A
330
1F
100
AcDbEntity
  8
D-0
  6
Continuous
 62
     7
370
     9
100
AcDbLine
 10
-623.0741227410047
 20
-500.3276222670775
 30
0.0
 11
-623.0741227410047
 21
-501.8279045546751
 31
0.0
  0
LINE
  5
23B
330
1F
100
AcDbEntity
  8
D-0
  6
Continuous
 62
     7
370
     9
100
AcDbLine
 10
-623.0741227410047
 20
-501.8279045546751
 30
0.0
 11
-624.5739043495862
 21
-501.8279045546751
 31
0.0
  0
LINE
  5
23C
330
1F
100
AcDbEntity
  8
D-0
  6
Continuous
 62
     7
370
     9
100
AcDbLine
 10
-760.9556496880261
 20
-562.4158066237669
 30
0.0
 11
-760.9556496880261
 21
-560.9155434096556
 31
0.0
  0
LINE
  5
23D
330
1F
100
AcDbEntity
  8
D-0
  6
Continuous
 62
     7
370
     9
100
AcDbLine
 10
-760.9556496880261
 20
-560.9155434096556
 30
0.0
 11
-759.455863311073
 21
-560.9155434096556
 31
0.0
  0
LINE
  5
23E
330
1F
100
AcDbEntity
  8
D-0
  6
Continuous
 62
     7
370
     9
100
AcDbLine
 10
-759.455863311073
 20
-560.9155434096556
 30
0.0
 11
-759.455863311073
 21
-562.4158066237669
 31
0.0
  0
LINE
  5
23F
330
1F
100
AcDbEntity
  8
D-0
  6
Continuous
 62
     7
370
     9
100
AcDbLine
 10
-759.455863311073
 20
-562.4158066237669
 30
0.0
 11
-760.9556496880261
 21
-562.4158066237669
 31
0.0
  0
LINE
  5
240
330
1F
100
AcDbEntity
  8
D-0
  6
Continuous
 62
     7
370
     9
100
AcDbLine
 10
-729.8352540276258
 20
-420.6448524916868
 30
0.0
 11
-729.8352540276258
 21
-419.1445797408323
 31
0.0
  0
LINE
  5
241
330
1F
100
AcDbEntity
  8
D-0
  6
Continuous
 62
     7
370
     9
100
AcDbLine
 10
-729.8352540276258
 20
-419.1445797408323
 30
0.0
 11
-728.3349765083997
 21
-419.1445797408323
 31
0.0
  0
LINE
  5
242
330
1F
100
AcDbEntity
  8
D-0
  6
Continuous
 62
     7
370
     9
100
AcDbLine
 10
-728.3349765083997
 20
-419.1445797408323
 30
0.0
 11
-728.3349765083997
 21
-420.6448524916868
 31
0.0
  0
LINE
  5
243
330
1F
100
AcDbEntity
  8
D-0
  6
Continuous
 62
     7
370
     9
100
AcDbLine
 10
-728.3349765083997
 20
-420.6448524916868
 30
0.0
 11
-729.8352540276258
 21
-420.6448524916868
 31
0.0
  0
LINE
  5
244
330
1F
100
AcDbEntity
  8
D-0
  6
Continuous
 62
     7
370
     9
100
AcDbLine
 10
-674.0742089591233
 20
-531.9762009108763
 30
0.0
 11
-674.0742089591233
 21
-530.4759186232786
 31
0.0
  0
LINE
  5
245
330
1F
100
AcDbEntity
  8
D-0
  6
Continuous
 62
     7
370
     9
100
AcDbLine
 10
-674.0742089591233
 20
-530.4759186232786
 30
0.0
 11
-672.5739295399992
 21
-530.4759186232786
 31
0.0
  0
LINE
  5
246
330
1F
100
AcDbEntity
  8
D-0
  6
Continuous
 62
     7
370
     9
100
AcDbLine
 10
-672.5739295399992
 20
-530.4759186232786
 30
0.0
 11
-672.5739295399992
 21
-531.9762009108763
 31
0.0
  0
LINE
  5
247
330
1F
100
AcDbEntity
  8
D-0
  6
Continuous
 62
     7
370
     9
100
AcDbLine
 10
-672.5739295399992
 20
-531.9762009108763
 30
0.0
 11
-674.0742089591233
 21
-531.9762009108763
 31
0.0
  0
LINE
  5
248
330
1F
100
AcDbEntity
  8
D-0
  6
Continuous
 62
     7
370
     9
100
AcDbLine
 10
-733.3114636681287
 20
-554.5175522292357
 30
0.0
 11
-733.3114636681287
 21
-553.017269941638
 31
0.0
  0
LINE
  5
249
330
1F
100
AcDbEntity
  8
D-0
  6
Continuous
 62
     7
370
     9
100
AcDbLine
 10
-733.3114636681287
 20
-553.017269941638
 30
0.0
 11
-731.8116820595471
 21
-553.017269941638
 31
0.0
  0
LINE
  5
24A
330
1F
100
AcDbEntity
  8
D-0
  6
Continuous
 62
     7
370
     9
100
AcDbLine
 10
-731.8116820595471
 20
-553.017269941638
 30
0.0
 11
-731.8116820595471
 21
-554.5175522292357
 31
0.0
  0
LINE
  5
24B
330
1F
100
AcDbEntity
  8
D-0
  6
Continuous
 62
     7
370
     9
100
AcDbLine
 10
-731.8116820595471
 20
-554.5175522292357
 30
0.0
 11
-733.3114636681287
 21
-554.5175522292357
 31
0.0
  0
LINE
  5
24C
330
1F
100
AcDbEntity
  8
D-0
  6
Continuous
 62
     7
370
     9
100
AcDbLine
 10
-721.4638150475232
 20
-627.5773781264525
 30
0.0
 11
-721.4638150475232
 21
-626.0770958388548
 31
0.0
  0
LINE
  5
24D
330
1F
100
AcDbEntity
  8
D-0
  6
Continuous
 62
     7
370
     9
100
AcDbLine
 10
-721.4638150475232
 20
-626.0770958388548
 30
0.0
 11
-719.9640334389417
 21
-626.0770958388548
 31
0.0
  0
LINE
  5
24E
330
1F
100
AcDbEntity
  8
D-0
  6
Continuous
 62
     7
370
     9
100
AcDbLine
 10
-719.9640334389417
 20
-626.0770958388548
 30
0.0
 11
-719.9640334389417
 21
-627.5773781264525
 31
0.0
  0
LINE
  5
24F
330
1F
100
AcDbEntity
  8
D-0
  6
Continuous
 62
     7
370
     9
100
AcDbLine
 10
-719.9640334389417
 20
-627.5773781264525
 30
0.0
 11
-721.4638150475232
 21
-627.5773781264525
 31
0.0
  0
LINE
  5
250
330
1F
100
AcDbEntity
  8
D-0
  6
Continuous
 62
     7
370
     9
100
AcDbLine
 10
-769.8413861534802
 20
-626.5899055922728
 30
0.0
 11
-769.8413861534802
 21
-625.0896233046751
 31
0.0
  0
LINE
  5
251
330
1F
100
AcDbEntity
  8
D-0
  6
Continuous
 62
     7
370
     9
100
AcDbLine
 10
-769.8413861534802
 20
-625.0896233046751
 30
0.0
 11
-768.3411038658826
 21
-625.0896233046751
 31
0.0
  0
LINE
  5
252
330
1F
100
AcDbEntity
  8
D-0
  6
Continuous
 62
     7
370
     9
100
AcDbLine
 10
-768.3411038658826
 20
-625.0896233046751
 30
0.0
 11
-768.3411038658826
 21
-626.5899055922728
 31
0.0
  0
LINE
  5
253
330
1F
100
AcDbEntity
  8
D-0
  6
Continuous
 62
     7
370
     9
100
AcDbLine
 10
-768.3411038658826
 20
-626.5899055922728
 30
0.0
 11
-769.8413861534802
 21
-626.5899055922728
 31
0.0
  0
LINE
  5
254
330
1F
100
AcDbEntity
  8
D-0
  6
Continuous
 62
     7
370
     9
100
AcDbLine
 10
-756.8883431694715
 20
-745.695664259265
 30
0.0
 11
-756.8883431694715
 21
-744.1953819716673
 31
0.0
  0
LINE
  5
255
330
1F
100
AcDbEntity
  8
D-0
  6
Continuous
 62
     7
370
     9
100
AcDbLine
 10
-756.8883431694715
 20
-744.1953819716673
 30
0.0
 11
-755.3885663292615
 21
-744.1953819716673
 31
0.0
  0
LINE
  5
256
330
1F
100
AcDbEntity
  8
D-0
  6
Continuous
 62
     7
370
     9
100
AcDbLine
 10
-755.3885663292615
 20
-744.1953819716673
 30
0.0
 11
-755.3885663292615
 21
-745.695664259265
 31
0.0
  0
LINE
  5
257
330
1F
100
AcDbEntity
  8
D-0
  6
Continuous
 62
     7
370
     9
100
AcDbLine
 10
-755.3885663292615
 20
-745.695664259265
 30
0.0
 11
-756.8883431694715
 21
-745.695664259265
 31
0.0
  0
LINE
  5
258
330
1F
100
AcDbEntity
  8
D-0
  6
Continuous
 62
     7
370
     9
100
AcDbLine
 10
-706.3624227783887
 20
-775.2033012831907
 30
0.0
 11
-706.3624227783887
 21
-773.7030189955931
 31
0.0
  0
LINE
  5
259
330
1F
100
AcDbEntity
  8
D-0
  6
Continuous
 62
     7
370
     9
100
AcDbLine
 10
-706.3624227783887
 20
-773.7030189955931
 30
0.0
 11
-704.8626387856214
 21
-773.7030189955931
 31
0.0
  0
LINE
  5
25A
330
1F
100
AcDbEntity
  8
D-0
  6
Continuous
 62
     7
370
     9
100
AcDbLine
 10
-704.8626387856214
 20
-773.7030189955931
 30
0.0
 11
-704.8626387856214
 21
-775.2033012831907
 31
0.0
  0
LINE
  5
25B
330
1F
100
AcDbEntity
  8
D-0
  6
Continuous
 62
     7
370
     9
100
AcDbLine
 10
-704.8626387856214
 20
-775.2033012831907
 30
0.0
 11
-706.3624227783887
 21
-775.2033012831907
 31
0.0
  0
LINE
  5
25C
330
1F
100
AcDbEntity
  8
D-0
  6
Continuous
 62
     7
370
     9
100
AcDbLine
 10
-670.1248273990361
 20
-699.4738548720579
 30
0.0
 11
-670.1248273990361
 21
-697.9736107314329
 31
0.0
  0
LINE
  5
25D
330
1F
100
AcDbEntity
  8
D-0
  6
Continuous
 62
     7
370
     9
100
AcDbLine
 10
-670.1248273990361
 20
-697.9736107314329
 30
0.0
 11
-668.6245477936475
 21
-697.9736107314329
 31
0.0
  0
LINE
  5
25E
330
1F
100
AcDbEntity
  8
D-0
  6
Continuous
 62
     7
370
     9
100
AcDbLine
 10
-668.6245477936475
 20
-697.9736107314329
 30
0.0
 11
-668.6245477936475
 21
-699.4738548720579
 31
0.0
  0
LINE
  5
25F
330
1F
100
AcDbEntity
  8
D-0
  6
Continuous
 62
     7
370
     9
100
AcDbLine
 10
-668.6245477936475
 20
-699.4738548720579
 30
0.0
 11
-670.1248273990361
 21
-699.4738548720579
 31
0.0
  0
LINE
  5
260
330
1F
100
AcDbEntity
  8
D-0
  6
Continuous
 62
     7
370
     9
100
AcDbLine
 10
-787.1575272820203
 20
-581.4105957473021
 30
0.0
 11
-787.1575272820203
 21
-579.9103134597044
 31
0.0
  0
LINE
  5
261
330
1F
100
AcDbEntity
  8
D-0
  6
Continuous
 62
     7
370
     9
100
AcDbLine
 10
-787.1575272820203
 20
-579.9103134597044
 30
0.0
 11
-785.6572449944226
 21
-579.9103134597044
 31
0.0
  0
LINE
  5
262
330
1F
100
AcDbEntity
  8
D-0
  6
Continuous
 62
     7
370
     9
100
AcDbLine
 10
-785.6572449944226
 20
-579.9103134597044
 30
0.0
 11
-785.6572449944226
 21
-581.4105957473021
 31
0.0
  0
LINE
  5
263
330
1F
100
AcDbEntity
  8
D-0
  6
Continuous
 62
     7
370
     9
100
AcDbLine
 10
-785.6572449944226
 20
-581.4105957473021
 30
0.0
 11
-787.1575272820203
 21
-581.4105957473021
 31
0.0
  0
LINE
  5
264
330
1F
100
AcDbEntity
  8
D-0
  6
Continuous
 62
     7
370
     9
100
AcDbLine
 10
-670.2358124397008
 20
-625.1446312392454
 30
0.0
 11
-670.2358124397008
 21
-623.6443489516478
 31
0.0
  0
LINE
  5
265
330
1F
100
AcDbEntity
  8
D-0
  6
Continuous
 62
     7
370
     9
100
AcDbLine
 10
-670.2358124397008
 20
-623.6443489516478
 30
0.0
 11
-668.7355328343122
 21
-623.6443489516478
 31
0.0
  0
LINE
  5
266
330
1F
100
AcDbEntity
  8
D-0
  6
Continuous
 62
     7
370
     9
100
AcDbLine
 10
-668.7355328343122
 20
-623.6443489516478
 30
0.0
 11
-668.7355328343122
 21
-625.1446312392454
 31
0.0
  0
LINE
  5
267
330
1F
100
AcDbEntity
  8
D-0
  6
Continuous
 62
     7
370
     9
100
AcDbLine
 10
-668.7355328343122
 20
-625.1446312392454
 30
0.0
 11
-670.2358124397008
 21
-625.1446312392454
 31
0.0
  0
LINE
  5
268
330
1F
100
AcDbEntity
  8
D-0
  6
Continuous
 62
     7
370
     9
100
AcDbLine
 10
-694.9661458275525
 20
-748.4906166518431
 30
0.0
 11
-694.9661458275525
 21
-746.9903343642454
 31
0.0
  0
LINE
  5
269
330
1F
100
AcDbEntity
  8
D-0
  6
Continuous
 62
     7
370
     9
100
AcDbLine
 10
-694.9661458275525
 20
-746.9903343642454
 30
0.0
 11
-693.4658659241406
 21
-746.9903343642454
 31
0.0
  0
LINE
  5
26A
330
1F
100
AcDbEntity
  8
D-0
  6
Continuous
 62
     7
370
     9
100
AcDbLine
 10
-693.4658659241406
 20
-746.9903343642454
 30
0.0
 11
-693.4658659241406
 21
-748.4906166518431
 31
0.0
  0
LINE
  5
26B
330
1F
100
AcDbEntity
  8
D-0
  6
Continuous
 62
     7
370
     9
100
AcDbLine
 10
-693.4658659241406
 20
-748.4906166518431
 30
0.0
 11
-694.9661458275525
 21
-748.4906166518431
 31
0.0
  0
LINE
  5
26C
330
1F
100
AcDbEntity
  8
D-0
  6
Continuous
 62
     7
370
     9
100
AcDbLine
 10
-663.1223673365323
 20
-436.0286682570677
 30
0.0
 11
-663.1223673365323
 21
-434.52838596947
 31
0.0
  0
LINE
  5
26D
330
1F
100
AcDbEntity
  8
D-0
  6
Continuous
 62
     7
370
     9
100
AcDbLine
 10
-663.1223673365323
 20
-434.52838596947
 30
0.0
 11
-661.6220880291669
 21
-434.52838596947
 31
0.0
  0
LINE
  5
26E
330
1F
100
AcDbEntity
  8
D-0
  6
Continuous
 62
     7
370
     9
100
AcDbLine
 10
-661.6220880291669
 20
-434.52838596947
 30
0.0
 11
-661.6220880291669
 21
-436.0286682570677
 31
0.0
  0
LINE
  5
26F
330
1F
100
AcDbEntity
  8
D-0
  6
Continuous
 62
     7
370
     9
100
AcDbLine
 10
-661.6220880291669
 20
-436.0286682570677
 30
0.0
 11
-663.1223673365323
 21
-436.0286682570677
 31
0.0
  0
LINE
  5
270
330
1F
100
AcDbEntity
  8
D-4
  6
Continuous
 62
     7
370
     9
100
AcDbLine
 10
-497.2849953911512
 20
-423.5393875563841
 30
0.0
 11
-497.2849953911512
 21
-486.0229462111693
 31
0.0
  0
LINE
  5
271
330
1F
100
AcDbEntity
  8
D-5
  6
Continuous
 62
     7
370
     9
100
AcDbLine
 10
-507.2855485222547
 20
-361.7133491957884
 30
0.0
 11
-493.4738648674696
 21
-340.8739345992308
 31
0.0
  0
LINE
  5
272
330
1F
100
AcDbEntity
  8
D-5
  6
Continuous
 62
     7
370
     9
100
AcDbLine
 10
-507.2855485222547
 20
-361.7133491957884
 30
0.0
 11
-488.5508836052625
 21
-345.1592462981444
 31
0.0
  0
LINE
  5
273
330
1F
100
AcDbEntity
  8
D-5
  6
Continuous
 62
     7
370
     9
100
AcDbLine
 10
-507.2855485222547
 20
-361.7133491957884
 30
0.0
 11
-385.5389512322157
 21
-221.832606169055
 31
0.0
  0
LINE
  5
274
330
1F
100
AcDbEntity
  8
D-5
  6
Continuous
 62
     7
370
     9
100
AcDbLine
 10
-385.5389512322157
 20
-221.832606169055
 30
0.0
 11
1.16452090523552
 21
-221.832606169055
 31
0.0
  0
LINE
  5
275
330
1F
100
AcDbEntity
  8
D-4
  6
Continuous
 62
     7
370
     9
100
AcDbLine
 10
-485.4581559441297
 20
-411.7135399306517
 30
0.0
 11
-395.7111085198133
 21
-411.7135399306517
 31
0.0
  0
LINE
  5
276
330
1F
100
AcDbEntity
  8
D-4
  6
Continuous
 62
     7
370
     9
100
AcDbLine
 10
-485.4581559441297
 20
-361.7133015120726
 30
0.0
 11
-395.7111085198133
 21
-361.7133015120726
 31
0.0
  0
LINE
  5
277
330
1F
100
AcDbEntity
  8
D-4
  6
Continuous
 62
     7
370
     9
100
AcDbLine
 10
-398.7116540215223
 20
-361.7133015120726
 30
0.0
 11
-398.7116540215223
 21
-276.7131584609251
 31
0.0
  0
LINE
  5
278
330
1F
100
AcDbEntity
  8
D-4
  6
Continuous
 62
     7
370
     9
100
AcDbLine
 10
-398.7116540215223
 20
-411.7135399306517
 30
0.0
 11
-398.7116540215223
 21
-361.7133015120726
 31
0.0
  0
LINE
  5
279
330
1F
100
AcDbEntity
  8
D-4
  6
Continuous
 62
     7
370
     9
100
AcDbLine
 10
-642.2854269287793
 20
-483.0224007094603
 30
0.0
 11
-797.2844136498181
 21
-483.0224007094603
 31
0.0
  0
LINE
  5
27A
330
1F
100
AcDbEntity
  8
D-9
  6
Continuous
 62
     4
370
     9
100
AcDbLine
 10
-782.2850526116101
 20
-354.2138260329466
 30
0.0
 11
-667.2852957985608
 21
-354.2138260329466
 31
0.0
  0
LINE
  5
27B
330
1F
100
AcDbEntity
  8
D-1
  6
Continuous
 62
     2
370
     9
100
AcDbLine
 10
-642.2854603073804
 20
-279.7131585801344
 30
0.0
 11
-642.2854603073804
 21
-304.2130416358214
 31
0.0
  0
LINE
  5
27C
330
1F
100
AcDbEntity
  8
D-1
  6
Continuous
 62
     2
370
     9
100
AcDbLine
 10
-642.2854603073804
 20
-398.7127846205931
 30
0.0
 11
-642.2854603073804
 21
-374.2129009688597
 31
0.0
  0
LINE
  5
27D
330
1F
100
AcDbEntity
  8
D-1
  6
Continuous
 62
     2
370
     9
100
AcDbLine
 10
-664.2852116368024
 20
-276.713569249705
 30
0.0
 11
-645.284925772926
 21
-276.713569249705
 31
0.0
  0
LINE
  5
27E
330
1F
100
AcDbEntity
  8
D-1
  6
Continuous
 62
     2
370
     9
100
AcDbLine
 10
-792.2850907585828
 20
-371.7130821669798
 30
0.0
 11
-792.2850907585828
 21
-364.2131775344114
 31
0.0
  0
LINE
  5
27F
330
1F
100
AcDbEntity
  8
D-1
  6
Continuous
 62
     2
370
     9
100
AcDbLine
 10
-797.2854817650525
 20
-371.7130821669798
 30
0.0
 11
-797.2854817650525
 21
-364.2131775344114
 31
0.0
  0
LINE
  5
280
330
1F
100
AcDbEntity
  8
D-1
  6
Continuous
 62
     2
370
     9
100
AcDbLine
 10
-662.2855264685361
 20
-396.7131012404661
 30
0.0
 11
-647.2852290413587
 21
-396.7131012404661
 31
0.0
  0
LINE
  5
281
330
1F
100
AcDbEntity
  8
D-1
  6
Continuous
 62
     2
370
     9
100
AcDbLine
 10
-662.2852791092603
 20
-401.7133587325316
 30
0.0
 11
-645.284925772926
 21
-401.7133587325316
 31
0.0
  0
LINE
  5
282
330
1F
100
AcDbEntity
  8
D-1
  6
Continuous
 62
     2
370
     9
100
AcDbLine
 10
-667.2852957985608
 20
-366.7128151381712
 30
0.0
 11
-667.2852957985608
 21
-279.7131585801344
 31
0.0
  0
LINE
  5
283
330
1F
100
AcDbEntity
  8
D-1
  6
Continuous
 62
     2
370
     9
100
AcDbLine
 10
-667.2852957985608
 20
-366.7128151381712
 30
0.0
 11
-717.2849667809216
 21
-366.7128151381712
 31
0.0
  0
LINE
  5
284
330
1F
100
AcDbEntity
  8
D-1
  6
Continuous
 62
     2
370
     9
100
AcDbLine
 10
-792.2850907585828
 20
-376.7133396590452
 30
0.0
 11
-667.2852957985608
 21
-376.7133396590452
 31
0.0
  0
LINE
  5
285
330
1F
100
AcDbEntity
  8
D-1
  6
Continuous
 62
     2
370
     9
100
AcDbLine
 10
-667.2852957985608
 20
-396.7133491957884
 30
0.0
 11
-667.2852957985608
 21
-376.7133396590452
 31
0.0
  0
LINE
  5
286
330
1F
100
AcDbEntity
  8
D-1
  6
Continuous
 62
     2
370
     9
100
AcDbLine
 10
-662.2855264685361
 20
-376.713091703723
 30
0.0
 11
-662.2855264685361
 21
-396.7131012404661
 31
0.0
  0
LINE
  5
287
330
1F
100
AcDbEntity
  8
D-1
  6
Continuous
 62
     2
370
     9
100
AcDbLine
 10
-667.2855431578366
 20
-371.7130821669798
 30
0.0
 11
-792.2850907585828
 21
-371.7130821669798
 31
0.0
  0
LINE
  5
288
330
1F
100
AcDbEntity
  8
D-1
  6
Continuous
 62
     2
370
     9
100
AcDbLine
 10
-662.2855264685361
 20
-366.7130630934935
 30
0.0
 11
-662.2855264685361
 21
-281.7128434503775
 31
0.0
  0
LINE
  5
289
330
1F
100
AcDbEntity
  8
D-9
  6
Continuous
 62
     4
370
     9
100
AcDbLine
 10
-667.2852957985608
 20
-359.8042362654905
 30
0.0
 11
-674.1938775024621
 21
-366.7128151381712
 31
0.0
  0
LINE
  5
28A
330
1F
100
AcDbEntity
  8
D-9
  6
Continuous
 62
     4
370
     9
100
AcDbLine
 10
-668.7652332327573
 20
-354.2138260329466
 30
0.0
 11
-681.2644083044736
 21
-366.7128151381712
 31
0.0
  0
LINE
  5
28B
330
1F
100
AcDbEntity
  8
D-9
  6
Continuous
 62
     4
370
     9
100
AcDbLine
 10
-675.8365685484616
 20
-354.2138260329466
 30
0.0
 11
-688.3357442162244
 21
-366.7128151381712
 31
0.0
  0
LINE
  5
28C
330
1F
100
AcDbEntity
  8
D-9
  6
Continuous
 62
     4
370
     9
100
AcDbLine
 10
-682.9074085495679
 20
-354.2138260329466
 30
0.0
 11
-695.4065836212842
 21
-366.7128151381712
 31
0.0
  0
LINE
  5
28D
330
1F
100
AcDbEntity
  8
D-9
  6
Continuous
 62
     4
370
     9
100
AcDbLine
 10
-689.9787438652722
 20
-354.2138260329466
 30
0.0
 11
-702.4779189369885
 21
-366.7128151381712
 31
0.0
  0
LINE
  5
28E
330
1F
100
AcDbEntity
  8
D-9
  6
Continuous
 62
     4
370
     9
100
AcDbLine
 10
-697.0495856545178
 20
-354.2138260329466
 30
0.0
 11
-709.5489443085401
 21
-366.7128151381712
 31
0.0
  0
LINE
  5
28F
330
1F
100
AcDbEntity
  8
D-9
  6
Continuous
 62
     4
370
     9
100
AcDbLine
 10
-704.1209209702222
 20
-354.2138260329466
 30
0.0
 11
-716.6202796242444
 21
-366.7128151381712
 31
0.0
  0
LINE
  5
290
330
1F
100
AcDbEntity
  8
D-9
  6
Continuous
 62
     4
370
     9
100
AcDbLine
 10
-739.4766057274549
 20
-354.2138260329466
 30
0.0
 11
-744.4756949684827
 21
-359.2129105056028
 31
0.0
  0
LINE
  5
291
330
1F
100
AcDbEntity
  8
D-9
  6
Continuous
 62
     4
370
     9
100
AcDbLine
 10
-746.5474475167005
 20
-354.2138260329466
 30
0.0
 11
-751.5465987465589
 21
-359.2129105056028
 31
0.0
  0
LINE
  5
292
330
1F
100
AcDbEntity
  8
D-9
  6
Continuous
 62
     4
370
     9
100
AcDbLine
 10
-781.9031346581189
 20
-354.2138260329466
 30
0.0
 11
-786.9025910637586
 21
-359.2129105056028
 31
0.0
  0
LINE
  5
293
330
1F
100
AcDbEntity
  8
D-9
  6
Continuous
 62
     4
370
     9
100
AcDbLine
 10
-732.4052727959363
 20
-354.2138260329466
 30
0.0
 11
-737.4045384667127
 21
-359.2129105056028
 31
0.0
  0
LINE
  5
294
330
1F
100
AcDbEntity
  8
D-9
  6
Continuous
 62
     4
370
     9
100
AcDbLine
 10
-718.2630933068006
 20
-354.2138260329466
 30
0.0
 11
-723.2622874520032
 21
-359.2129105056028
 31
0.0
  0
LINE
  5
295
330
1F
100
AcDbEntity
  8
D-9
  6
Continuous
 62
     4
370
     9
100
AcDbLine
 10
-725.3344310066907
 20
-354.2138260329466
 30
0.0
 11
-730.333606078407
 21
-359.2129105056028
 31
0.0
  0
LINE
  5
296
330
1F
100
AcDbEntity
  8
D-9
  6
Continuous
 62
     4
370
     9
100
AcDbLine
 10
-753.6187852165906
 20
-354.2138260329466
 30
0.0
 11
-758.6178696892468
 21
-359.2129105056028
 31
0.0
  0
LINE
  5
297
330
1F
100
AcDbEntity
  8
D-9
  6
Continuous
 62
     4
370
     9
100
AcDbLine
 10
-760.6896222374646
 20
-354.2138260329466
 30
0.0
 11
-765.6888020775525
 21
-359.2129105056028
 31
0.0
  0
LINE
  5
298
330
1F
100
AcDbEntity
  8
D-9
  6
Continuous
 62
     4
370
     9
100
AcDbLine
 10
-767.7604592583386
 20
-354.2138260329466
 30
0.0
 11
-772.759667708656
 21
-359.2129105056028
 31
0.0
  0
LINE
  5
299
330
1F
100
AcDbEntity
  8
D-9
  6
Continuous
 62
     4
370
     9
100
AcDbLine
 10
-774.8318017266004
 20
-354.2138260329466
 30
0.0
 11
-779.8310673973767
 21
-359.2129105056028
 31
0.0
  0
LINE
  5
29A
330
1F
100
AcDbEntity
  8
D-1
  6
Continuous
 62
     2
370
     9
100
AcDbLine
 10
-722.2852957985608
 20
-364.2131775344114
 30
0.0
 11
-792.2850907585828
 21
-364.2131775344114
 31
0.0
  0
LINE
  5
29B
330
1F
100
AcDbEntity
  8
D-1
  6
Continuous
 62
     2
370
     9
100
AcDbLine
 10
-722.2852957985608
 20
-366.7130821669798
 30
0.0
 11
-722.2852957985608
 21
-364.2131775344114
 31
0.0
  0
LINE
  5
29C
330
1F
100
AcDbEntity
  8
D-1
  6
Continuous
 62
     2
370
     9
100
AcDbLine
 10
-722.2852957985608
 20
-359.2129105056028
 30
0.0
 11
-792.2850907585828
 21
-359.2129105056028
 31
0.0
  0
LINE
  5
29D
330
1F
100
AcDbEntity
  8
D-1
  6
Continuous
 62
     2
370
     9
100
AcDbLine
 10
-717.2852957985608
 20
-364.2129105056028
 30
0.0
 11
-717.2852957985608
 21
-366.7128151381712
 31
0.0
  0
LINE
  5
29E
330
1F
100
AcDbEntity
  8
D-9
  6
Continuous
 62
     4
370
     9
100
AcDbLine
 10
-711.1922562859265
 20
-354.2138260329466
 30
0.0
 11
-718.2453549645154
 21
-361.2669247115355
 31
0.0
  0
LINE
  5
29F
330
1F
100
AcDbEntity
  8
D-3
  6
Continuous
 62
     3
370
     9
100
AcDbLine
 10
-658.7852431080548
 20
-281.7128434503775
 30
0.0
 11
-658.7852431080548
 21
-394.2128437484007
 31
0.0
  0
LINE
  5
2A0
330
1F
100
AcDbEntity
  8
D-3
  6
Continuous
 62
     3
370
     9
100
AcDbLine
 10
-497.2853577873914
 20
-371.7127674544554
 30
0.0
 11
-497.2853577873914
 21
-411.7127769911986
 31
0.0
  0
LINE
  5
2A1
330
1F
100
AcDbEntity
  8
D-3
  6
Continuous
 62
     3
370
     9
100
AcDbLine
 10
-622.2852719567029
 20
-393.5325115645628
 30
0.0
 11
-622.2852719567029
 21
-411.7127769911986
 31
0.0
  0
LINE
  5
2A2
330
1F
100
AcDbEntity
  8
D-3
  6
Continuous
 62
     3
370
     9
100
AcDbLine
 10
-625.2142155907361
 20
-386.4614170516234
 30
0.0
 11
-647.2852290413587
 21
-364.3904083693724
 31
0.0
  0
LINE
  5
2A3
330
1F
100
AcDbEntity
  8
D-3
  6
JWW_CENTER1
 62
     3
370
     9
100
AcDbLine
 10
-597.3468030235974
 20
-333.2127397979002
 30
0.0
 11
-666.0177851460187
 21
-333.2127397979002
 31
0.0
  0
LINE
  5
2A4
330
1F
100
AcDbEntity
  8
D-3
  6
Continuous
 62
     3
370
     9
100
AcDbLine
 10
-604.6076739571301
 20
-354.3903749907713
 30
0.0
 11
-607.7850497505872
 21
-351.2129991973143
 31
0.0
  0
LINE
  5
2A5
330
1F
100
AcDbEntity
  8
D-3
  6
Continuous
 62
     3
370
     9
100
AcDbLine
 10
-635.7857120773999
 20
-323.2122152770262
 30
0.0
 11
-647.2852290413587
 21
-311.7126959288817
 31
0.0
  0
LINE
  5
2A6
330
1F
100
AcDbEntity
  8
D-A
  6
Continuous
 62
     7
370
     9
100
AcDbLine
 10
-661.0359562180249
 20
-343.2122772658568
 30
0.0
 11
-661.0359562180249
 21
-323.2122152770262
 31
0.0
  0
LINE
  5
2A7
330
1F
100
AcDbEntity
  8
D-A
  6
Continuous
 62
     7
370
     9
100
AcDbLine
 10
-661.0359562180249
 20
-323.2122152770262
 30
0.0
 11
-662.2855264685361
 21
-324.4622772658568
 31
0.0
  0
LINE
  5
2A8
330
1F
100
AcDbEntity
  8
D-A
  6
Continuous
 62
     7
370
     9
100
AcDbLine
 10
-661.0359562180249
 20
-343.2122772658568
 30
0.0
 11
-662.2855264685361
 21
-341.9627064192991
 31
0.0
  0
LINE
  5
2A9
330
1F
100
AcDbEntity
  8
D-A
  6
Continuous
 62
     7
370
     9
100
AcDbLine
 10
-599.2854941628186
 20
-344.7130030120115
 30
0.0
 11
-599.2854941628186
 21
-321.7124813521605
 31
0.0
  0
LINE
  5
2AA
330
1F
100
AcDbEntity
  8
D-A
  6
Continuous
 62
     7
370
     9
100
AcDbLine
 10
-605.7854903481214
 20
-351.2129991973143
 30
0.0
 11
-612.2854865334241
 21
-351.2129991973143
 31
0.0
  0
LINE
  5
2AB
330
1F
100
AcDbEntity
  8
D-A
  6
Continuous
 62
     7
370
     9
100
AcDbLine
 10
-605.7854903481214
 20
-315.2124827826719
 30
0.0
 11
-612.2854865334241
 21
-315.2124827826719
 31
0.0
  0
LINE
  5
2AC
330
1F
100
AcDbEntity
  8
D-A
  6
Continuous
 62
     7
370
     9
100
AcDbLine
 10
-612.2854865334241
 20
-315.2124827826719
 30
0.0
 11
-612.2854865334241
 21
-351.2129991973143
 31
0.0
  0
LINE
  5
2AD
330
1F
100
AcDbEntity
  8
D-A
  6
Continuous
 62
     7
370
     9
100
AcDbLine
 10
-612.2854865334241
 20
-323.2122152770262
 30
0.0
 11
-647.2852290413587
 21
-323.2122152770262
 31
0.0
  0
LINE
  5
2AE
330
1F
100
AcDbEntity
  8
D-A
  6
Continuous
 62
     7
370
     9
100
AcDbLine
 10
-612.2854865334241
 20
-324.4622772658568
 30
0.0
 11
-647.2852290413587
 21
-324.4622772658568
 31
0.0
  0
LINE
  5
2AF
330
1F
100
AcDbEntity
  8
D-A
  6
Continuous
 62
     7
370
     9
100
AcDbLine
 10
-612.2854865334241
 20
-341.9627064192991
 30
0.0
 11
-647.2852290413587
 21
-341.9627064192991
 31
0.0
  0
LINE
  5
2B0
330
1F
100
AcDbEntity
  8
D-A
  6
Continuous
 62
     7
370
     9
100
AcDbLine
 10
-612.2854865334241
 20
-343.2122772658568
 30
0.0
 11
-647.2852290413587
 21
-343.2122772658568
 31
0.0
  0
LINE
  5
2B1
330
1F
100
AcDbEntity
  8
D-A
  6
Continuous
 62
     7
370
     9
100
AcDbLine
 10
-658.7852431080548
 20
-341.9627064192991
 30
0.0
 11
-662.2855264685361
 21
-341.9627064192991
 31
0.0
  0
LINE
  5
2B2
330
1F
100
AcDbEntity
  8
D-A
  6
Continuous
 62
     7
370
     9
100
AcDbLine
 10
-658.7852431080548
 20
-343.2122772658568
 30
0.0
 11
-661.0359562180249
 21
-343.2122772658568
 31
0.0
  0
LINE
  5
2B3
330
1F
100
AcDbEntity
  8
D-A
  6
Continuous
 62
     7
370
     9
100
AcDbLine
 10
-658.7852431080548
 20
-324.4622772658568
 30
0.0
 11
-662.2855264685361
 21
-324.4622772658568
 31
0.0
  0
LINE
  5
2B4
330
1F
100
AcDbEntity
  8
D-A
  6
Continuous
 62
     7
370
     9
100
AcDbLine
 10
-658.7852431080548
 20
-323.2122152770262
 30
0.0
 11
-661.0359562180249
 21
-323.2122152770262
 31
0.0
  0
LINE
  5
2B5
330
1F
100
AcDbEntity
  8
D-3
  6
JWW_DASHED2
 62
     3
370
     9
100
AcDbLine
 10
-622.2852719567029
 20
-400.2127617324095
 30
0.0
 11
-497.2853577873914
 21
-400.2127617324095
 31
0.0
  0
LINE
  5
2B6
330
1F
100
AcDbEntity
  8
D-3
  6
Continuous
 62
     3
370
     9
100
AcDbLine
 10
-507.2852624199598
 20
-361.712862821887
 30
0.0
 11
-586.9299519798963
 21
-361.712862821887
 31
0.0
  0
LINE
  5
2B7
330
1F
100
AcDbEntity
  8
D-3
  6
Continuous
 62
     3
370
     9
100
AcDbLine
 10
-622.2852719567029
 20
-411.7127769911986
 30
0.0
 11
-497.2853577873914
 21
-411.7127769911986
 31
0.0
  0
LINE
  5
2B8
330
1F
100
AcDbEntity
  8
D-1
  6
Continuous
 62
     2
370
     9
100
AcDbLine
 10
-662.2855264685361
 20
-281.7128434503775
 30
0.0
 11
-647.2852290413587
 21
-281.7128434503775
 31
0.0
  0
LINE
  5
2B9
330
1F
100
AcDbEntity
  8
D-1
  6
Continuous
 62
     2
370
     9
100
AcDbLine
 10
-642.2854603073804
 20
-304.2130416358214
 30
0.0
 11
-647.2852290413587
 21
-304.2130416358214
 31
0.0
  0
LINE
  5
2BA
330
1F
100
AcDbEntity
  8
D-1
  6
Continuous
 62
     2
370
     9
100
AcDbLine
 10
-647.2852290413587
 20
-304.2130416358214
 30
0.0
 11
-647.2852290413587
 21
-281.7128434503775
 31
0.0
  0
LINE
  5
2BB
330
1F
100
AcDbEntity
  8
D-3
  6
Continuous
 62
     3
370
     9
100
AcDbLine
 10
-658.7852431080548
 20
-281.7128434503775
 30
0.0
 11
-647.2852290413587
 21
-281.7128434503775
 31
0.0
  0
LINE
  5
2BC
330
1F
100
AcDbEntity
  8
D-1
  6
Continuous
 62
     2
370
     9
100
AcDbLine
 10
-642.2854603073804
 20
-374.2129009688597
 30
0.0
 11
-647.2852290413587
 21
-374.2129009688597
 31
0.0
  0
LINE
  5
2BD
330
1F
100
AcDbEntity
  8
D-1
  6
Continuous
 62
     2
370
     9
100
AcDbLine
 10
-647.2852290413587
 20
-396.7131012404661
 30
0.0
 11
-647.2852290413587
 21
-374.2129009688597
 31
0.0
  0
LINE
  5
2BE
330
1F
100
AcDbEntity
  8
D-3
  6
Continuous
 62
     3
370
     9
100
AcDbLine
 10
-658.7852431080548
 20
-394.2128437484007
 30
0.0
 11
-647.2852290413587
 21
-394.2128437484007
 31
0.0
  0
LINE
  5
2BF
330
1F
100
AcDbEntity
  8
D-3
  6
Continuous
 62
     3
370
     9
100
AcDbLine
 10
-647.2852290413587
 20
-281.7128434503775
 30
0.0
 11
-647.2852290413587
 21
-394.2128437484007
 31
0.0
  0
LINE
  5
2C0
330
1F
100
AcDbEntity
  8
D-6
  6
Continuous
 62
     6
370
     9
100
AcDbLine
 10
-645.284925772926
 20
-276.7131584609251
 30
0.0
 11
-232.2835458061903
 21
-276.7131584609251
 31
0.0
  0
LINE
  5
2C1
330
1F
100
AcDbEntity
  8
D-6
  6
Continuous
 62
     6
370
     9
100
AcDbLine
 10
-797.2844136498181
 20
-371.7130821669798
 30
0.0
 11
-797.2844136498181
 21
-776.71250996239
 31
0.0
  0
LINE
  5
2C2
330
1F
100
AcDbEntity
  8
D-4
  6
Continuous
 62
     7
370
     9
100
AcDbLine
 10
-714.139291121742
 20
-401.7129963362913
 30
0.0
 11
-945.7674897453992
 21
-401.7129963362913
 31
0.0
  0
LINE
  5
2C3
330
1F
100
AcDbEntity
  8
D-5
  6
Continuous
 62
     7
370
     9
100
AcDbLine
 10
-672.7681532866566
 20
-415.4899948561888
 30
0.0
 11
-737.8166449806897
 21
-358.8729923690062
 31
0.0
  0
LINE
  5
2C4
330
1F
100
AcDbEntity
  8
D-5
  6
Continuous
 62
     7
370
     9
100
AcDbLine
 10
-737.8166449806897
 20
-358.8729923690062
 30
0.0
 11
-721.2630332253186
 21
-377.6071613753538
 31
0.0
  0
LINE
  5
2C5
330
1F
100
AcDbEntity
  8
D-5
  6
Continuous
 62
     7
370
     9
100
AcDbLine
 10
-737.8166449806897
 20
-358.8729923690062
 30
0.0
 11
-716.9782222054212
 21
-372.6846855605345
 31
0.0
  0
ARC
  5
2C6
330
1F
100
AcDbEntity
  8
D-9
  6
Continuous
 62
     4
370
     9
100
AcDbCircle
 10
-782.2850526116101
 20
-359.2131012404661
 30
0.0
 40
5.0
100
AcDbArc
 50
90.0
 51
180.0
  0
ARC
  5
2C7
330
1F
100
AcDbEntity
  8
D-1
  6
Continuous
 62
     2
370
     9
100
AcDbCircle
 10
-792.2850907585828
 20
-364.2131775344114
 30
0.0
 40
5.0
100
AcDbArc
 50
90.0
 51
180.0
  0
ARC
  5
2C8
330
1F
100
AcDbEntity
  8
D-1
  6
Continuous
 62
     2
370
     9
100
AcDbCircle
 10
-645.284925772926
 20
-279.7131585801344
 30
0.0
 40
3.00000011920929
100
AcDbArc
 50
0.0
 51
90.0
  0
ARC
  5
2C9
330
1F
100
AcDbEntity
  8
D-1
  6
Continuous
 62
     2
370
     9
100
AcDbCircle
 10
-664.2852116368024
 20
-279.7131585801344
 30
0.0
 40
3.00000011920929
100
AcDbArc
 50
90.0
 51
180.0
  0
ARC
  5
2CA
330
1F
100
AcDbEntity
  8
D-1
  6
Continuous
 62
     2
370
     9
100
AcDbCircle
 10
-645.284925772926
 20
-398.7127846205931
 30
0.0
 40
3.00000011920929
100
AcDbArc
 50
270.0
 51
0.0
  0
ARC
  5
2CB
330
1F
100
AcDbEntity
  8
D-1
  6
Continuous
 62
     2
370
     9
100
AcDbCircle
 10
-792.2850907585828
 20
-371.7130821669798
 30
0.0
 40
5.0
100
AcDbArc
 50
180.0
 51
270.0
  0
ARC
  5
2CC
330
1F
100
AcDbEntity
  8
D-1
  6
Continuous
 62
     2
370
     9
100
AcDbCircle
 10
-662.2852791092603
 20
-396.7133491957884
 30
0.0
 40
5.0
100
AcDbArc
 50
180.0
 51
270.0
  0
ARC
  5
2CD
330
1F
100
AcDbEntity
  8
D-1
  6
Continuous
 62
     2
370
     9
100
AcDbCircle
 10
-667.2855431578366
 20
-376.713091703723
 30
0.0
 40
5.0
100
AcDbArc
 50
0.0
 51
90.0
  0
ARC
  5
2CE
330
1F
100
AcDbEntity
  8
D-1
  6
Continuous
 62
     2
370
     9
100
AcDbCircle
 10
-667.2855431578366
 20
-366.7130630934935
 30
0.0
 40
5.0
100
AcDbArc
 50
270.0
 51
0.0
  0
ARC
  5
2CF
330
1F
100
AcDbEntity
  8
D-1
  6
Continuous
 62
     2
370
     9
100
AcDbCircle
 10
-717.2852957985608
 20
-366.7130821669798
 30
0.0
 40
5.0
100
AcDbArc
 50
180.0
 51
270.0
  0
ARC
  5
2D0
330
1F
100
AcDbEntity
  8
D-1
  6
Continuous
 62
     2
370
     9
100
AcDbCircle
 10
-722.2852957985608
 20
-364.2129105056028
 30
0.0
 40
5.0
100
AcDbArc
 50
0.0
 51
90.0
  0
ARC
  5
2D1
330
1F
100
AcDbEntity
  8
D-3
  6
Continuous
 62
     3
370
     9
100
AcDbCircle
 10
-586.9299519798963
 20
-336.7127769911986
 30
0.0
 40
25.0
100
AcDbArc
 50
225.0
 51
270.0
  0
ARC
  5
2D2
330
1F
100
AcDbEntity
  8
D-3
  6
Continuous
 62
     3
370
     9
100
AcDbCircle
 10
-507.2852624199598
 20
-371.7127674544554
 30
0.0
 40
10.0
100
AcDbArc
 50
0.0
 51
90.0
  0
ARC
  5
2D3
330
1F
100
AcDbEntity
  8
D-3
  6
Continuous
 62
     3
370
     9
100
AcDbCircle
 10
-632.2853029511182
 20
-393.5325115645628
 30
0.0
 40
10.0
100
AcDbArc
 50
0.0
 51
45.000244140625
  0
ARC
  5
2D4
330
1F
100
AcDbEntity
  8
D-A
  6
Continuous
 62
     7
370
     9
100
AcDbCircle
 10
-605.7854903481214
 20
-321.7124813521605
 30
0.0
 40
6.499999761581421
100
AcDbArc
 50
0.0
 51
90.0
  0
ARC
  5
2D5
330
1F
100
AcDbEntity
  8
D-A
  6
Continuous
 62
     7
370
     9
100
AcDbCircle
 10
-605.7854903481214
 20
-344.7130030120115
 30
0.0
 40
6.499999761581421
100
AcDbArc
 50
270.0
 51
0.0
  0
LWPOLYLINE
  5
2D6
330
1F
100
AcDbEntity
  8
D-4
  6
Continuous
 62
     7
370
     9
100
AcDbPolyline
 90
        4
 70
     1
 43
1.0
 10
-641.7854269287794
 20
63.6540824448366
 42
0.4142135623731
 10
-642.2854269287793
 20
64.1540824448366
 42
0.4142135623731
 10
-642.7854269287793
 20
63.6540824448366
 42
0.4142135623731
 10
-642.2854269287793
 20
63.1540824448366
 42
0.4142135623731
  0
LWPOLYLINE
  5
2D7
330
1F
100
AcDbEntity
  8
D-4
  6
Continuous
 62
     7
370
     9
100
AcDbPolyline
 90
        4
 70
     1
 43
1.0
 10
-796.7844136498182
 20
-155.7940071547728
 42
0.4142135623731
 10
-797.2844136498181
 20
-155.2940071547728
 42
0.4142135623731
 10
-797.7844136498181
 20
-155.7940071547728
 42
0.4142135623731
 10
-797.2844136498181
 20
-156.2940071547728
 42
0.4142135623731
  0
LWPOLYLINE
  5
2D8
330
1F
100
AcDbEntity
  8
D-4
  6
Continuous
 62
     7
370
     9
100
AcDbPolyline
 90
        4
 70
     1
 43
1.0
 10
-671.784575774452
 20
-155.7940071547728
 42
0.4142135623731
 10
-672.2845757744519
 20
-155.2940071547728
 42
0.4142135623731
 10
-672.7845757744519
 20
-155.7940071547728
 42
0.4142135623731
 10
-672.2845757744519
 20
-156.2940071547728
 42
0.4142135623731
  0
LWPOLYLINE
  5
2D9
330
1F
100
AcDbEntity
  8
D-4
  6
Continuous
 62
     7
370
     9
100
AcDbPolyline
 90
        4
 70
     1
 43
1.0
 10
-671.784575774452
 20
-47.0415848220091
 42
0.4142135623731
 10
-672.2845757744519
 20
-46.5415848220091
 42
0.4142135623731
 10
-672.7845757744519
 20
-47.0415848220091
 42
0.4142135623731
 10
-672.2845757744519
 20
-47.5415848220091
 42
0.4142135623731
  0
LWPOLYLINE
  5
2DA
330
1F
100
AcDbEntity
  8
D-4
  6
Continuous
 62
     7
370
     9
100
AcDbPolyline
 90
        4
 70
     1
 43
1.0
 10
-666.7843051693648
 20
-47.0415848220091
 42
0.4142135623731
 10
-667.2843051693646
 20
-46.5415848220091
 42
0.4142135623731
 10
-667.7843051693646
 20
-47.0415848220091
 42
0.4142135623731
 10
-667.2843051693646
 20
-47.5415848220091
 42
0.4142135623731
  0
LWPOLYLINE
  5
2DB
330
1F
100
AcDbEntity
  8
D-4
  6
Continuous
 62
     7
370
     9
100
AcDbPolyline
 90
        4
 70
     1
 43
1.0
 10
-641.7854269287794
 20
-47.0415848220091
 42
0.4142135623731
 10
-642.2854269287793
 20
-46.5415848220091
 42
0.4142135623731
 10
-642.7854269287793
 20
-47.0415848220091
 42
0.4142135623731
 10
-642.2854269287793
 20
-47.5415848220091
 42
0.4142135623731
  0
LWPOLYLINE
  5
2DC
330
1F
100
AcDbEntity
  8
D-4
  6
Continuous
 62
     7
370
     9
100
AcDbPolyline
 90
        4
 70
     1
 43
1.0
 10
-942.266925170204
 20
-401.7129963362913
 42
0.4142135623731
 10
-942.7669251702039
 20
-401.2129963362913
 42
0.4142135623731
 10
-943.2669251702039
 20
-401.7129963362913
 42
0.4142135623731
 10
-942.7669251702039
 20
-402.2129963362913
 42
0.4142135623731
  0
LWPOLYLINE
  5
2DD
330
1F
100
AcDbEntity
  8
D-4
  6
Continuous
 62
     7
370
     9
100
AcDbPolyline
 90
        4
 70
     1
 43
1.0
 10
-942.266925170204
 20
-276.7131584609251
 42
0.4142135623731
 10
-942.7669251702039
 20
-276.2131584609251
 42
0.4142135623731
 10
-943.2669251702039
 20
-276.7131584609251
 42
0.4142135623731
 10
-942.7669251702039
 20
-277.2131584609251
 42
0.4142135623731
  0
LWPOLYLINE
  5
2DE
330
1F
100
AcDbEntity
  8
D-4
  6
Continuous
 62
     7
370
     9
100
AcDbPolyline
 90
        4
 70
     1
 43
1.0
 10
-641.7854269287794
 20
-483.0224007094603
 42
0.4142135623731
 10
-642.2854269287793
 20
-482.5224007094603
 42
0.4142135623731
 10
-642.7854269287793
 20
-483.0224007094603
 42
0.4142135623731
 10
-642.2854269287793
 20
-483.5224007094603
 42
0.4142135623731
  0
LWPOLYLINE
  5
2DF
330
1F
100
AcDbEntity
  8
D-4
  6
Continuous
 62
     7
370
     9
100
AcDbPolyline
 90
        4
 70
     1
 43
1.0
 10
-496.7849953911513
 20
-483.0224007094603
 42
0.4142135623731
 10
-497.2849953911512
 20
-482.5224007094603
 42
0.4142135623731
 10
-497.7849953911511
 20
-483.0224007094603
 42
0.4142135623731
 10
-497.2849953911512
 20
-483.5224007094603
 42
0.4142135623731
  0
LWPOLYLINE
  5
2E0
330
1F
100
AcDbEntity
  8
D-4
  6
Continuous
 62
     7
370
     9
100
AcDbPolyline
 90
        4
 70
     1
 43
1.0
 10
-796.7844136498182
 20
-682.3316353286009
 42
0.4142135623731
 10
-797.2844136498181
 20
-681.8316353286009
 42
0.4142135623731
 10
-797.7844136498181
 20
-682.3316353286009
 42
0.4142135623731
 10
-797.2844136498181
 20
-682.8316353286009
 42
0.4142135623731
  0
LWPOLYLINE
  5
2E1
330
1F
100
AcDbEntity
  8
D-4
  6
Continuous
 62
     7
370
     9
100
AcDbPolyline
 90
        4
 70
     1
 43
1.0
 10
-646.7852028153151
 20
-682.3316353286009
 42
0.4142135623731
 10
-647.285202815315
 20
-681.8316353286009
 42
0.4142135623731
 10
-647.785202815315
 20
-682.3316353286009
 42
0.4142135623731
 10
-647.285202815315
 20
-682.8316353286009
 42
0.4142135623731
  0
LWPOLYLINE
  5
2E2
330
1F
100
AcDbEntity
  8
D-4
  6
Continuous
 62
     7
370
     9
100
AcDbPolyline
 90
        4
 70
     1
 43
1.0
 10
-796.7844136498182
 20
-836.7960136855345
 42
0.4142135623731
 10
-797.2844136498181
 20
-836.2960136855345
 42
0.4142135623731
 10
-797.7844136498181
 20
-836.7960136855345
 42
0.4142135623731
 10
-797.2844136498181
 20
-837.2960136855345
 42
0.4142135623731
  0
LWPOLYLINE
  5
2E3
330
1F
100
AcDbEntity
  8
D-4
  6
Continuous
 62
     7
370
     9
100
AcDbPolyline
 90
        4
 70
     1
 43
1.0
 10
-396.7835458061903
 20
-836.7960136855345
 42
0.4142135623731
 10
-397.2835458061903
 20
-836.2960136855345
 42
0.4142135623731
 10
-397.7835458061902
 20
-836.7960136855345
 42
0.4142135623731
 10
-397.2835458061903
 20
-837.2960136855345
 42
0.4142135623731
  0
LWPOLYLINE
  5
2E4
330
1F
100
AcDbEntity
  8
D-4
  6
Continuous
 62
     7
370
     9
100
AcDbPolyline
 90
        4
 70
     1
 43
1.0
 10
-125.0992043755262
 20
-276.7131584609251
 42
0.4142135623731
 10
-125.5992043755262
 20
-276.2131584609251
 42
0.4142135623731
 10
-126.0992043755262
 20
-276.7131584609251
 42
0.4142135623731
 10
-125.5992043755262
 20
-277.2131584609251
 42
0.4142135623731
  0
LWPOLYLINE
  5
2E5
330
1F
100
AcDbEntity
  8
D-4
  6
Continuous
 62
     7
370
     9
100
AcDbPolyline
 90
        4
 70
     1
 43
1.0
 10
-125.0992043755262
 20
-526.7128342116575
 42
0.4142135623731
 10
-125.5992043755262
 20
-526.2128342116575
 42
0.4142135623731
 10
-126.0992043755262
 20
-526.7128342116575
 42
0.4142135623731
 10
-125.5992043755262
 20
-527.2128342116575
 42
0.4142135623731
  0
LWPOLYLINE
  5
2E6
330
1F
100
AcDbEntity
  8
D-4
  6
Continuous
 62
     7
370
     9
100
AcDbPolyline
 90
        4
 70
     1
 43
1.0
 10
-398.2116540215223
 20
-276.7131584609251
 42
0.4142135623731
 10
-398.7116540215223
 20
-276.2131584609251
 42
0.4142135623731
 10
-399.2116540215222
 20
-276.7131584609251
 42
0.4142135623731
 10
-398.7116540215223
 20
-277.2131584609251
 42
0.4142135623731
  0
LWPOLYLINE
  5
2E7
330
1F
100
AcDbEntity
  8
D-4
  6
Continuous
 62
     7
370
     9
100
AcDbPolyline
 90
        4
 70
     1
 43
1.0
 10
-398.2116540215223
 20
-361.7133015120726
 42
0.4142135623731
 10
-398.7116540215223
 20
-361.2133015120726
 42
0.4142135623731
 10
-399.2116540215222
 20
-361.7133015120726
 42
0.4142135623731
 10
-398.7116540215223
 20
-362.2133015120726
 42
0.4142135623731
  0
LWPOLYLINE
  5
2E8
330
1F
100
AcDbEntity
  8
D-4
  6
Continuous
 62
     7
370
     9
100
AcDbPolyline
 90
        4
 70
     1
 43
1.0
 10
-398.2116540215223
 20
-411.7135399306517
 42
0.4142135623731
 10
-398.7116540215223
 20
-411.2135399306517
 42
0.4142135623731
 10
-399.2116540215222
 20
-411.7135399306517
 42
0.4142135623731
 10
-398.7116540215223
 20
-412.2135399306517
 42
0.4142135623731
  0
LWPOLYLINE
  5
2E9
330
1F
100
AcDbEntity
  8
D-4
  6
Continuous
 62
     7
370
     9
100
AcDbPolyline
 90
        4
 70
     1
 43
1.0
 10
-641.7854269287794
 20
-483.0224007094603
 42
0.4142135623731
 10
-642.2854269287793
 20
-482.5224007094603
 42
0.4142135623731
 10
-642.7854269287793
 20
-483.0224007094603
 42
0.4142135623731
 10
-642.2854269287793
 20
-483.5224007094603
 42
0.4142135623731
  0
LWPOLYLINE
  5
2EA
330
1F
100
AcDbEntity
  8
D-4
  6
Continuous
 62
     7
370
     9
100
AcDbPolyline
 90
        4
 70
     1
 43
1.0
 10
-796.7844136498182
 20
-483.0224007094603
 42
0.4142135623731
 10
-797.2844136498181
 20
-482.5224007094603
 42
0.4142135623731
 10
-797.7844136498181
 20
-483.0224007094603
 42
0.4142135623731
 10
-797.2844136498181
 20
-483.5224007094603
 42
0.4142135623731
  0
TEXT
  5
2EB
330
1F
100
AcDbEntity
  8
D-4
  6
Continuous
 62
     2
370
     9
100
AcDbText
 10
-705.2292860291211
 20
-36.40230961448957
 30
0.0
 40
30.48
  1
1
 41
0.9999999999999998
  7
ＭＳ ゴシック
100
AcDbText
  0
TEXT
  5
2EC
330
1F
100
AcDbEntity
  8
D-4
  6
Continuous
 62
     2
370
     9
100
AcDbText
 10
-756.0336602471082
 20
-145.153730589221
 30
0.0
 40
30.48
  1
25
 41
1.0625
  7
ＭＳ ゴシック
100
AcDbText
  0
TEXT
  5
2ED
330
1F
100
AcDbEntity
  8
D-4
  6
Continuous
 62
     2
370
     9
100
AcDbText
 10
-788.5344327233045
 20
-671.6923601210814
 30
0.0
 40
30.48
  1
25～30
 41
1.104166666666667
  7
ＭＳ ゴシック
100
AcDbText
  0
TEXT
  5
2EE
330
1F
100
AcDbEntity
  8
D-4
  6
Continuous
 62
     2
370
     9
100
AcDbText
 10
-665.1527772597616
 20
-826.1557466567654
 30
0.0
 40
30.48
  1
75～80
 50
359.9997855578312
 41
1.104166666666666
  7
ＭＳ ゴシック
100
AcDbText
  0
TEXT
  5
2EF
330
1F
100
AcDbEntity
  8
D-4
  6
Continuous
 62
     2
370
     9
100
AcDbText
 10
-136.2384795830457
 20
-467.9631205604847
 30
0.0
 40
30.48
  1
40～50
 50
90.00000250447816
 41
1.104166666666667
  7
ＭＳ ゴシック
100
AcDbText
  0
TEXT
  5
2F0
330
1F
100
AcDbEntity
  8
D-4
  6
Continuous
 62
     2
370
     9
100
AcDbText
 10
-606.7014220565145
 20
-472.3831064288383
 30
0.0
 40
30.48
  1
29
 50
0.0006685549992706
 41
1.0625
  7
ＭＳ ゴシック
100
AcDbText
  0
TEXT
  5
2F1
330
1F
100
AcDbEntity
  8
D-4
  6
Continuous
 62
     2
370
     9
100
AcDbText
 10
-633.3719456932752
 20
-36.40230961448957
 30
0.0
 40
30.48
  1
5
 41
0.9999999999999998
  7
ＭＳ ゴシック
100
AcDbText
  0
TEXT
  5
2F2
330
1F
100
AcDbEntity
  8
D-5
  6
Continuous
 62
     2
370
     9
100
AcDbText
 10
-1096.778444375725
 20
-954.515617567371
 30
0.0
 40
30.48
  1
断面詳細図　Ｓ＝１：２
 50
0.0000267631904831
 41
1.113636363636363
  7
ＭＳ ゴシック
100
AcDbText
  0
TEXT
  5
2F3
330
1F
100
AcDbEntity
  8
D-5
  6
Continuous
 62
     2
370
     9
100
AcDbText
 10
264.1890466374604
 20
-848.7563020766498
 30
0.0
 40
30.48
  1
定尺：３０００
 50
359.9999506463765
 41
1.107142857142857
  7
ＭＳ ゴシック
100
AcDbText
  0
TEXT
  5
2F4
330
1F
100
AcDbEntity
  8
D-5
  6
Continuous
 62
     2
370
     9
100
AcDbText
 10
204.477127716759
 20
-718.7559587538939
 30
0.0
 40
30.48
  1
ステンレス製受枠　ＳＦ１５Ｂ
 41
1.116071428571428
  7
ＭＳ ゴシック
100
AcDbText
  0
TEXT
  5
2F5
330
1F
100
AcDbEntity
  8
D-5
  6
Continuous
 62
     7
370
     9
100
AcDbText
 10
-448.3079064629285
 20
-160.9125045455199
 30
0.0
 40
22.86
  1
塩ビクッション
 41
1.142857142857143
  7
ＭＳ ゴシック
100
AcDbText
  0
TEXT
  5
2F6
330
1F
100
AcDbEntity
  8
D-5
  6
Continuous
 62
     7
370
     9
100
AcDbText
 10
-507.79587872245
 20
-104.8135570204954
 30
0.0
 40
22.86
  1
ステンレス製受枠ＳＦ１５Ｂ
 41
1.153846153846154
  7
ＭＳ ゴシック
100
AcDbText
  0
TEXT
  5
2F7
330
1F
100
AcDbEntity
  8
D-5
  6
Continuous
 62
     2
370
     9
100
AcDbText
 10
264.189041779259
 20
-783.755500990222
 30
0.0
 40
30.48
  1
材質：冷間圧延ステンレス鋼板（ＳＵＳ３０４－２Ｂ）
 41
1.12
  7
ＭＳ ゴシック
100
AcDbText
  0
TEXT
  5
2F8
330
1F
100
AcDbEntity
  8
D-5
  6
Continuous
 62
     7
370
     9
100
AcDbText
 10
-385.0969994805067
 20
-210.1388648665648
 30
0.0
 40
22.86
  1
溶接用アンカー＠５００
 41
1.151515151515152
  7
ＭＳ ゴシック
100
AcDbText
  0
TEXT
  5
2F9
330
1F
100
AcDbEntity
  8
D-5
  6
Continuous
 62
     7
370
     9
100
AcDbText
 10
-385.0969994805067
 20
-251.3623622573118
 30
0.0
 40
22.86
  1
ｔ＝２．３（ＳＰＨＣ）
 41
1.151515151515152
  7
ＭＳ ゴシック
100
AcDbText
  0
TEXT
  5
2FA
330
1F
100
AcDbEntity
  8
D-4
  6
Continuous
 62
     2
370
     9
100
AcDbText
 10
-409.3519401238172
 20
-407.9628344581898
 30
0.0
 40
30.48
  1
10
 50
90.00000250447819
 41
1.062500000000001
  7
ＭＳ ゴシック
100
AcDbText
  0
TEXT
  5
2FB
330
1F
100
AcDbEntity
  8
D-4
  6
Continuous
 62
     2
370
     9
100
AcDbText
 10
-409.3519401238172
 20
-340.4631444023426
 30
0.0
 40
30.48
  1
17
 50
90.00000250447819
 41
1.062500000000001
  7
ＭＳ ゴシック
100
AcDbText
  0
TEXT
  5
2FC
330
1F
100
AcDbEntity
  8
D-4
  6
Continuous
 62
     2
370
     9
100
AcDbText
 10
-741.0349190972058
 20
-471.382396894763
 30
0.0
 40
30.48
  1
31
 41
1.0625
  7
ＭＳ ゴシック
100
AcDbText
  0
LINE
  5
2FD
330
1F
100
AcDbEntity
  8
D-2
  6
Continuous
 62
     3
370
     9
100
AcDbLine
 10
-692.2846687576978
 20
-281.7129337514143
 30
0.0
 11
-692.2846687576978
 21
-311.7130726302366
 31
0.0
  0
LINE
  5
2FE
330
1F
100
AcDbEntity
  8
D-2
  6
Continuous
 62
     3
370
     9
100
AcDbLine
 10
-677.2848463795392
 20
-281.7129337514143
 30
0.0
 11
-692.2846687576978
 21
-281.7129337514143
 31
0.0
  0
LINE
  5
2FF
330
1F
100
AcDbEntity
  8
D-2
  6
Continuous
 62
     3
370
     9
100
AcDbLine
 10
-677.2848463795392
 20
-349.2131203139525
 30
0.0
 11
-677.2848463795392
 21
-281.7129337514143
 31
0.0
  0
LINE
  5
300
330
1F
100
AcDbEntity
  8
D-2
  6
Continuous
 62
     3
370
     9
100
AcDbLine
 10
-692.2846687576978
 20
-349.2131203139525
 30
0.0
 11
-677.2848463795392
 21
-349.2131203139525
 31
0.0
  0
LINE
  5
301
330
1F
100
AcDbEntity
  8
D-2
  6
Continuous
 62
     3
370
     9
100
AcDbLine
 10
-692.2846687576978
 20
-334.2133015120726
 30
0.0
 11
-692.2846687576978
 21
-349.2131203139525
 31
0.0
  0
LINE
  5
302
330
1F
100
AcDbEntity
  8
D-2
  6
Continuous
 62
     3
370
     9
100
AcDbLine
 10
-697.2849381706922
 20
-334.2133015120726
 30
0.0
 11
-692.2846687576978
 21
-334.2133015120726
 31
0.0
  0
LINE
  5
303
330
1F
100
AcDbEntity
  8
D-2
  6
Continuous
 62
     3
370
     9
100
AcDbLine
 10
-697.2849381706922
 20
-350.7129066909056
 30
0.0
 11
-697.2849381706922
 21
-334.2133015120726
 31
0.0
  0
LINE
  5
304
330
1F
100
AcDbEntity
  8
D-2
  6
Continuous
 62
     3
370
     9
100
AcDbLine
 10
-699.7850740692822
 20
-311.7130726302366
 30
0.0
 11
-767.2847665093152
 21
-311.7130726302366
 31
0.0
  0
LINE
  5
305
330
1F
100
AcDbEntity
  8
D-2
  6
Continuous
 62
     3
370
     9
100
AcDbLine
 10
-675.784815027496
 20
-276.7131584609251
 30
0.0
 11
-693.7847007057874
 21
-276.7131584609251
 31
0.0
  0
LINE
  5
306
330
1F
100
AcDbEntity
  8
D-5
  6
Continuous
 62
     7
370
     9
100
AcDbLine
 10
-486.7647088310926
 20
3.014643815686213
 30
0.0
 11
-68.88239987113167
 21
3.014643815686213
 31
0.0
  0
LINE
  5
307
330
1F
100
AcDbEntity
  8
D-2
  6
Continuous
 62
     3
370
     9
100
AcDbLine
 10
-1369.953185393592
 20
-431.9569080794554
 30
0.0
 11
-1369.953185393592
 21
-208.0144327605467
 31
0.0
  0
LINE
  5
308
330
1F
100
AcDbEntity
  8
D-4
  6
Continuous
 62
     7
370
     9
100
AcDbLine
 10
-1415.791961028358
 20
-354.2128962004881
 30
0.0
 11
-1415.791961028358
 21
-276.7131584609251
 31
0.0
  0
LINE
  5
309
330
1F
100
AcDbEntity
  8
D-4
  6
Continuous
 62
     7
370
     9
100
AcDbLine
 10
-1379.659148528358
 20
-354.2128962004881
 30
0.0
 11
-1418.791991545936
 21
-354.2128962004881
 31
0.0
  0
LINE
  5
30A
330
1F
100
AcDbEntity
  8
D-4
  6
Continuous
 62
     7
370
     9
100
AcDbLine
 10
-1379.659148528358
 20
-276.7131584609251
 30
0.0
 11
-1418.791991545936
 21
-276.7131584609251
 31
0.0
  0
LINE
  5
30B
330
1F
100
AcDbEntity
  8
D-2
  6
Continuous
 62
     3
370
     9
100
AcDbLine
 10
-675.784815027496
 20
-354.2133921111326
 30
0.0
 11
-1369.953185393592
 21
-354.2133921111326
 31
0.0
  0
LINE
  5
30C
330
1F
100
AcDbEntity
  8
D-5
  6
Continuous
 62
     7
370
     9
100
AcDbLine
 10
-486.7647088310926
 20
-50.46725926048566
 30
0.0
 11
-68.88239987113167
 21
-50.46725926048566
 31
0.0
  0
LINE
  5
30D
330
1F
100
AcDbEntity
  8
D-2
  6
Continuous
 62
     3
370
     9
100
AcDbLine
 10
-1369.953185393592
 20
-316.7133444274168
 30
0.0
 11
-697.2849381706922
 21
-316.7133444274168
 31
0.0
  0
LINE
  5
30E
330
1F
100
AcDbEntity
  8
D-5
  6
Continuous
 62
     2
370
     9
100
AcDbLine
 10
327.8347479560168
 20
-326.7128962004881
 30
0.0
 11
102.8346716620715
 21
-326.7128962004881
 31
0.0
  0
LINE
  5
30F
330
1F
100
AcDbEntity
  8
D-5
  6
Continuous
 62
     2
370
     9
100
AcDbLine
 10
327.8347479560168
 20
-276.7131584609251
 30
0.0
 11
327.8347479560168
 21
-326.7128962004881
 31
0.0
  0
LINE
  5
310
330
1F
100
AcDbEntity
  8
D-5
  6
Continuous
 62
     2
370
     9
100
AcDbLine
 10
102.8346716620715
 20
-276.7131584609251
 30
0.0
 11
327.8347479560168
 21
-276.7131584609251
 31
0.0
  0
LINE
  5
311
330
1F
100
AcDbEntity
  8
D-5
  6
Continuous
 62
     2
370
     9
100
AcDbLine
 10
102.8346716620715
 20
-326.7128962004881
 30
0.0
 11
102.8346716620715
 21
-276.7131584609251
 31
0.0
  0
LINE
  5
312
330
1F
100
AcDbEntity
  8
D-5
  6
Continuous
 62
     7
370
     9
100
AcDbLine
 10
-1359.818602874061
 20
-522.8129929030638
 30
0.0
 11
-1206.362525298378
 21
-305.3799909079771
 31
0.0
  0
LINE
  5
313
330
1F
100
AcDbEntity
  8
D-5
  6
Continuous
 62
     7
370
     9
100
AcDbLine
 10
-1359.818602874061
 20
-522.8129929030638
 30
0.0
 11
-984.5607102654187
 21
-522.8129929030638
 31
0.0
  0
LINE
  5
314
330
1F
100
AcDbEntity
  8
D-5
  6
Continuous
 62
     7
370
     9
100
AcDbLine
 10
-1206.362525298378
 20
-305.3799909079771
 30
0.0
 11
-1217.988921477577
 21
-327.5120848143797
 31
0.0
  0
LINE
  5
315
330
1F
100
AcDbEntity
  8
D-5
  6
Continuous
 62
     7
370
     9
100
AcDbLine
 10
-1206.362525298378
 20
-305.3799909079771
 30
0.0
 11
-1223.320685698768
 21
-323.7490004027586
 31
0.0
  0
LINE
  5
316
330
1F
100
AcDbEntity
  8
D-5
  6
Continuous
 62
     7
370
     9
100
AcDbLine
 10
-682.1186400196759
 20
-276.7131584609251
 30
0.0
 11
-668.3901912710874
 21
-255.8202308142882
 31
0.0
  0
LINE
  5
317
330
1F
100
AcDbEntity
  8
D-5
  6
Continuous
 62
     7
370
     9
100
AcDbLine
 10
-682.1186400196759
 20
-276.7131584609251
 30
0.0
 11
-663.4503675244061
 21
-260.0852268660765
 31
0.0
  0
LINE
  5
318
330
1F
100
AcDbEntity
  8
D-5
  6
Continuous
 62
     7
370
     9
100
AcDbLine
 10
-486.7647088310926
 20
-50.46725926048566
 30
0.0
 11
-682.1186400196759
 21
-276.7131584609251
 31
0.0
  0
LINE
  5
319
330
1F
100
AcDbEntity
  8
D-5
  6
Continuous
 62
     7
370
     9
100
AcDbLine
 10
-734.784494712135
 20
-284.2249607766371
 30
0.0
 11
-721.0552991173474
 21
-263.3320337260466
 31
0.0
  0
LINE
  5
31A
330
1F
100
AcDbEntity
  8
D-5
  6
Continuous
 62
     7
370
     9
100
AcDbLine
 10
-734.784494712135
 20
-284.2249607766371
 30
0.0
 11
-716.1157239220349
 21
-267.597028585742
 31
0.0
  0
LINE
  5
31B
330
1F
100
AcDbEntity
  8
D-5
  6
Continuous
 62
     7
370
     9
100
AcDbLine
 10
-486.7647088310926
 20
3.014643815686213
 30
0.0
 11
-734.784494712135
 21
-284.2249607766371
 31
0.0
  0
LINE
  5
31C
330
1F
100
AcDbEntity
  8
D-2
  6
Continuous
 62
     3
370
     9
100
AcDbLine
 10
-702.2849620125501
 20
-306.7128008330565
 30
0.0
 11
-702.2849620125501
 21
-311.7130726302366
 31
0.0
  0
LINE
  5
31D
330
1F
100
AcDbEntity
  8
D-2
  6
Continuous
 62
     4
370
     9
100
AcDbLine
 10
-1369.953185393592
 20
-306.7128008330565
 30
0.0
 11
-699.7845781586377
 21
-306.7128008330565
 31
0.0
  0
LINE
  5
31E
330
1F
100
AcDbEntity
  8
D-2
  6
Continuous
 62
     3
370
     9
100
AcDbLine
 10
-1369.953185393592
 20
-276.7131584609251
 30
0.0
 11
-697.2849381706922
 21
-276.7131584609251
 31
0.0
  0
LINE
  5
31F
330
1F
100
AcDbEntity
  8
D-2
  6
Continuous
 62
     3
370
     9
100
AcDbLine
 10
-697.2849381706922
 20
-276.7131584609251
 30
0.0
 11
-697.2849381706922
 21
-309.2129367316466
 31
0.0
  0
LINE
  5
320
330
1F
100
AcDbEntity
  8
D-2
  6
Continuous
 62
     4
370
     9
100
AcDbLine
 10
-1369.953185393592
 20
-302.9625981772642
 30
0.0
 11
-699.7845781586377
 21
-302.9625981772642
 31
0.0
  0
LINE
  5
321
330
1F
100
AcDbEntity
  8
D-2
  6
Continuous
 62
     4
370
     9
100
AcDbLine
 10
-1369.953185393592
 20
-299.212395521472
 30
0.0
 11
-699.7845781586377
 21
-299.212395521472
 31
0.0
  0
LINE
  5
322
330
1F
100
AcDbEntity
  8
D-2
  6
Continuous
 62
     4
370
     9
100
AcDbLine
 10
-1369.953185393592
 20
-295.4621928656798
 30
0.0
 11
-699.7845781586377
 21
-295.4621928656798
 31
0.0
  0
LINE
  5
323
330
1F
100
AcDbEntity
  8
D-2
  6
Continuous
 62
     4
370
     9
100
AcDbLine
 10
-699.7845781586377
 20
-291.7119890177946
 30
0.0
 11
-699.7845781586377
 21
-306.7128008330565
 31
0.0
  0
LINE
  5
324
330
1F
100
AcDbEntity
  8
D-2
  6
Continuous
 62
     4
370
     9
100
AcDbLine
 10
-1369.953185393592
 20
-291.7119890177946
 30
0.0
 11
-697.2849381706922
 21
-291.7119890177946
 31
0.0
  0
LINE
  5
325
330
1F
100
AcDbEntity
  8
D-A
  6
Continuous
 62
     2
370
     9
100
AcDbLine
 10
-1360.562316252967
 20
-291.7119890177946
 30
0.0
 11
-1345.563689543983
 21
-276.7131584609251
 31
0.0
  0
LINE
  5
326
330
1F
100
AcDbEntity
  8
D-A
  6
Continuous
 62
     2
370
     9
100
AcDbLine
 10
-1332.27793820121
 20
-291.7119890177946
 30
0.0
 11
-1317.27938778617
 21
-276.7131584609251
 31
0.0
  0
LINE
  5
327
330
1F
100
AcDbEntity
  8
D-A
  6
Continuous
 62
     2
370
     9
100
AcDbLine
 10
-1303.993636443397
 20
-291.7119890177946
 30
0.0
 11
-1288.995047881385
 21
-276.7131584609251
 31
0.0
  0
LINE
  5
328
330
1F
100
AcDbEntity
  8
D-A
  6
Continuous
 62
     2
370
     9
100
AcDbLine
 10
-1275.709296538612
 20
-291.7119890177946
 30
0.0
 11
-1260.7107079766
 21
-276.7131584609251
 31
0.0
  0
LINE
  5
329
330
1F
100
AcDbEntity
  8
D-A
  6
Continuous
 62
     2
370
     9
100
AcDbLine
 10
-1247.4249947808
 20
-291.7119890177946
 30
0.0
 11
-1232.426406218788
 21
-276.7131584609251
 31
0.0
  0
LINE
  5
32A
330
1F
100
AcDbEntity
  8
D-A
  6
Continuous
 62
     2
370
     9
100
AcDbLine
 10
-1219.140654876014
 20
-291.7119890177946
 30
0.0
 11
-1204.142066314003
 21
-276.7131584609251
 31
0.0
  0
LINE
  5
32B
330
1F
100
AcDbEntity
  8
D-A
  6
Continuous
 62
     2
370
     9
100
AcDbLine
 10
-1190.856582000038
 20
-291.7119890177946
 30
0.0
 11
-1175.857726409218
 21
-276.7131584609251
 31
0.0
  0
LINE
  5
32C
330
1F
100
AcDbEntity
  8
D-A
  6
Continuous
 62
     2
370
     9
100
AcDbLine
 10
-1162.572242095253
 20
-291.7119890177946
 30
0.0
 11
-1147.573386504432
 21
-276.7131584609251
 31
0.0
  0
LINE
  5
32D
330
1F
100
AcDbEntity
  8
D-A
  6
Continuous
 62
     2
370
     9
100
AcDbLine
 10
-1134.287902190468
 20
-291.7119890177946
 30
0.0
 11
-1119.289313628456
 21
-276.7131584609251
 31
0.0
  0
LINE
  5
32E
330
1F
100
AcDbEntity
  8
D-A
  6
Continuous
 62
     2
370
     9
100
AcDbLine
 10
-1106.003562285682
 20
-291.7119890177946
 30
0.0
 11
-1091.004973723671
 21
-276.7131584609251
 31
0.0
  0
LINE
  5
32F
330
1F
100
AcDbEntity
  8
D-A
  6
Continuous
 62
     2
370
     9
100
AcDbLine
 10
-1077.71926052787
 20
-291.7119890177946
 30
0.0
 11
-1062.72040493705
 21
-276.7131584609251
 31
0.0
  0
LINE
  5
330
330
1F
100
AcDbEntity
  8
D-A
  6
Continuous
 62
     2
370
     9
100
AcDbLine
 10
-1049.434920623085
 20
-291.7119890177946
 30
0.0
 11
-1034.436332061073
 21
-276.7131584609251
 31
0.0
  0
LINE
  5
331
330
1F
100
AcDbEntity
  8
D-A
  6
Continuous
 62
     2
370
     9
100
AcDbLine
 10
-1021.1505807183
 20
-291.7119890177946
 30
0.0
 11
-1006.151992156288
 21
-276.7131584609251
 31
0.0
  0
LINE
  5
332
330
1F
100
AcDbEntity
  8
D-A
  6
Continuous
 62
     2
370
     9
100
AcDbLine
 10
-992.8662408135144
 20
-291.7119890177946
 30
0.0
 11
-977.867671324989
 21
-276.7131584609251
 31
0.0
  0
LINE
  5
333
330
1F
100
AcDbEntity
  8
D-A
  6
Continuous
 62
     2
370
     9
100
AcDbLine
 10
-964.5819199822156
 20
-291.7119890177946
 30
0.0
 11
-949.5830834648816
 21
-276.7131584609251
 31
0.0
  0
LINE
  5
334
330
1F
100
AcDbEntity
  8
D-A
  6
Continuous
 62
     2
370
     9
100
AcDbLine
 10
-936.2975991509168
 20
-291.7119890177946
 30
0.0
 11
-921.299010588905
 21
-276.7131584609251
 31
0.0
  0
LINE
  5
335
330
1F
100
AcDbEntity
  8
D-A
  6
Continuous
 62
     2
370
     9
100
AcDbLine
 10
-908.0132592461316
 20
-291.7119890177946
 30
0.0
 11
-893.0146706841199
 21
-276.7131584609251
 31
0.0
  0
LINE
  5
336
330
1F
100
AcDbEntity
  8
D-A
  6
Continuous
 62
     2
370
     9
100
AcDbLine
 10
-879.729415251991
 20
-291.7119890177946
 30
0.0
 11
-864.7303498528211
 21
-276.7131584609251
 31
0.0
  0
LINE
  5
337
330
1F
100
AcDbEntity
  8
D-A
  6
Continuous
 62
     2
370
     9
100
AcDbLine
 10
-851.4445985100476
 20
-291.7119890177946
 30
0.0
 11
-836.4460099480359
 21
-276.7131584609251
 31
0.0
  0
LINE
  5
338
330
1F
100
AcDbEntity
  8
D-A
  6
Continuous
 62
     2
370
     9
100
AcDbLine
 10
-823.1602681420056
 20
-291.7119890177946
 30
0.0
 11
-808.1616891167371
 21
-276.7131584609251
 31
0.0
  0
LINE
  5
339
330
1F
100
AcDbEntity
  8
D-A
  6
Continuous
 62
     2
370
     9
100
AcDbLine
 10
-794.8759377739636
 20
-291.7119890177946
 30
0.0
 11
-779.8773587486951
 21
-276.7131584609251
 31
0.0
  0
LINE
  5
33A
330
1F
100
AcDbEntity
  8
D-A
  6
Continuous
 62
     2
370
     9
100
AcDbLine
 10
-766.5913594505994
 20
-291.7119890177946
 30
0.0
 11
-751.5927756569592
 21
-276.7131584609251
 31
0.0
  0
LINE
  5
33B
330
1F
100
AcDbEntity
  8
D-A
  6
Continuous
 62
     2
370
     9
100
AcDbLine
 10
-738.3072770378797
 20
-291.7119890177946
 30
0.0
 11
-723.3089411995618
 21
-276.7131584609251
 31
0.0
  0
LINE
  5
33C
330
1F
100
AcDbEntity
  8
D-A
  6
Continuous
 62
     2
370
     9
100
AcDbLine
 10
-710.0229466698377
 20
-291.7119890177946
 30
0.0
 11
-697.2849381706922
 21
-278.9734869921904
 31
0.0
  0
LINE
  5
33D
330
1F
100
AcDbEntity
  8
D-4
  6
Continuous
 62
     7
370
     9
100
AcDbLine
 10
-1281.252852751991
 20
-291.7119890177946
 30
0.0
 11
-1281.252852751991
 21
-245.2503961051207
 31
0.0
  0
LINE
  5
33E
330
1F
100
AcDbEntity
  8
D-2
  6
Continuous
 62
     3
370
     9
100
AcDbLine
 10
-672.2845757744519
 20
-280.213149758647
 30
0.0
 11
-672.2845757744519
 21
-350.7129066909056
 31
0.0
  0
ARC
  5
33F
330
1F
100
AcDbEntity
  8
D-2
  6
Continuous
 62
     3
370
     9
100
AcDbCircle
 10
-697.2849381706922
 20
-311.7130726302366
 30
0.0
 40
5.0
100
AcDbArc
 50
270.0
 51
0.0
  0
ARC
  5
340
330
1F
100
AcDbEntity
  8
D-2
  6
Continuous
 62
     3
370
     9
100
AcDbCircle
 10
-699.7850740692822
 20
-309.2129367316466
 30
0.0
 40
2.5
100
AcDbArc
 50
270.0
 51
0.0
  0
ARC
  5
341
330
1F
100
AcDbEntity
  8
D-2
  6
Continuous
 62
     3
370
     9
100
AcDbCircle
 10
-693.7847007057874
 20
-350.7129066909056
 30
0.0
 40
3.499999940395355
100
AcDbArc
 50
180.0
 51
270.0
  0
ARC
  5
342
330
1F
100
AcDbEntity
  8
D-2
  6
Continuous
 62
     3
370
     9
100
AcDbCircle
 10
-675.784815027496
 20
-350.7129066909056
 30
0.0
 40
3.499999940395355
100
AcDbArc
 50
270.0
 51
0.0
  0
ARC
  5
343
330
1F
100
AcDbEntity
  8
D-2
  6
Continuous
 62
     3
370
     9
100
AcDbCircle
 10
-693.7847007057874
 20
-280.213149758647
 30
0.0
 40
3.499999940395355
100
AcDbArc
 50
90.0
 51
180.0
  0
ARC
  5
344
330
1F
100
AcDbEntity
  8
D-2
  6
Continuous
 62
     3
370
     9
100
AcDbCircle
 10
-767.2847665093152
 20
-311.7130726302366
 30
0.0
 40
5.0
100
AcDbArc
 50
90.0
 51
270.0
  0
ARC
  5
345
330
1F
100
AcDbEntity
  8
D-2
  6
Continuous
 62
     3
370
     9
100
AcDbCircle
 10
-675.784815027496
 20
-280.213149758647
 30
0.0
 40
3.499999940395355
100
AcDbArc
 50
0.0
 51
90.0
  0
LWPOLYLINE
  5
346
330
1F
100
AcDbEntity
  8
D-4
  6
Continuous
 62
     7
370
     9
100
AcDbPolyline
 90
        4
 70
     1
 43
1.0
 10
-1415.291961028358
 20
-354.2128962004881
 42
0.4142135623731
 10
-1415.791961028358
 20
-353.7128962004881
 42
0.4142135623731
 10
-1416.291961028358
 20
-354.2128962004881
 42
0.4142135623731
 10
-1415.791961028358
 20
-354.7128962004881
 42
0.4142135623731
  0
LWPOLYLINE
  5
347
330
1F
100
AcDbEntity
  8
D-4
  6
Continuous
 62
     7
370
     9
100
AcDbPolyline
 90
        4
 70
     1
 43
1.0
 10
-1415.291961028358
 20
-276.7131584609251
 42
0.4142135623731
 10
-1415.791961028358
 20
-276.2131584609251
 42
0.4142135623731
 10
-1416.291961028358
 20
-276.7131584609251
 42
0.4142135623731
 10
-1415.791961028358
 20
-277.2131584609251
 42
0.4142135623731
  0
LWPOLYLINE
  5
348
330
1F
100
AcDbEntity
  8
D-4
  6
Continuous
 62
     7
370
     9
100
AcDbPolyline
 90
        4
 70
     1
 43
1.0
 10
-1280.752852751991
 20
-291.7119890177946
 42
0.4142135623731
 10
-1281.252852751991
 20
-291.2119890177946
 42
0.4142135623731
 10
-1281.752852751991
 20
-291.7119890177946
 42
0.4142135623731
 10
-1281.252852751991
 20
-292.2119890177946
 42
0.4142135623731
  0
LWPOLYLINE
  5
349
330
1F
100
AcDbEntity
  8
D-4
  6
Continuous
 62
     7
370
     9
100
AcDbPolyline
 90
        4
 70
     1
 43
1.0
 10
-1280.752852751991
 20
-276.7131584609251
 42
0.4142135623731
 10
-1281.252852751991
 20
-276.2131584609251
 42
0.4142135623731
 10
-1281.752852751991
 20
-276.7131584609251
 42
0.4142135623731
 10
-1281.252852751991
 20
-277.2131584609251
 42
0.4142135623731
  0
TEXT
  5
34A
330
1F
100
AcDbEntity
  8
D-5
  6
Continuous
 62
     7
370
     9
100
AcDbText
 10
-486.7647088310926
 20
10.85660899512957
 30
0.0
 40
22.86
  1
床仕上材貼り（別途工事）
 41
1.152777777777778
  7
ＭＳ ゴシック
100
AcDbText
  0
TEXT
  5
34B
330
1F
100
AcDbEntity
  8
D-4
  6
Continuous
 62
     2
370
     9
100
AcDbText
 10
-1426.432189910194
 20
-359.2131682442005
 30
0.0
 40
30.48
  1
15.5
 50
90.0000025044782
 41
1.093750000000001
  7
ＭＳ ゴシック
100
AcDbText
  0
TEXT
  5
34C
330
1F
100
AcDbEntity
  8
D-5
  6
Continuous
 62
     7
370
     9
100
AcDbText
 10
-486.7647088310926
 20
-43.17079579002667
 30
0.0
 40
22.86
  1
ステンレス形鋼蓋フレーム
 41
1.152777777777778
  7
ＭＳ ゴシック
100
AcDbText
  0
TEXT
  5
34D
330
1F
100
AcDbEntity
  8
D-5
  6
Continuous
 62
     2
370
     9
100
AcDbText
 10
150.3348242499621
 20
-316.0731203139525
 30
0.0
 40
30.48
  1
仕　様
 41
1.083333333333333
  7
ＭＳ ゴシック
100
AcDbText
  0
TEXT
  5
34E
330
1F
100
AcDbEntity
  8
D-5
  6
Continuous
 62
     2
370
     9
100
AcDbText
 10
264.6367346503527
 20
-450.5453188002806
 30
0.0
 40
30.48
  1
材質：目地部　ＳＵＳ３０４　ｔ＝１．０
 41
1.118421052631579
  7
ＭＳ ゴシック
100
AcDbText
  0
TEXT
  5
34F
330
1F
100
AcDbEntity
  8
D-4
  6
Continuous
 62
     2
370
     9
100
AcDbText
 10
-1291.892890898964
 20
-268.7826856182392
 30
0.0
 40
30.48
  1
3
 50
90.00000250447808
 41
1.000000000000001
  7
ＭＳ ゴシック
100
AcDbText
  0
TEXT
  5
350
330
1F
100
AcDbEntity
  8
D-5
  6
Continuous
 62
     7
370
     9
100
AcDbText
 10
-1332.827941252967
 20
-511.7004398024778
 30
0.0
 40
22.86
  1
ステンレス鋼板ｔ＝３
 41
1.149999999999999
  7
ＭＳ ゴシック
100
AcDbText
  0
TEXT
  5
351
330
1F
100
AcDbEntity
  8
D-5
  6
Continuous
 62
     2
370
     9
100
AcDbText
 10
264.6367346503527
 20
-515.5453760207396
 30
0.0
 40
30.48
  1
　　　プレート部　ＳＵＳ３０４（ｔ＝３）
 41
1.11875
  7
ＭＳ ゴシック
100
AcDbText
  0
TEXT
  5
352
330
1F
100
AcDbEntity
  8
D-4
  6
Continuous
 62
     2
370
     9
100
AcDbText
 10
-953.4071921990125
 20
-405.5787771191445
 30
0.0
 40
30.48
  1
25
 50
90.00000250447819
 41
1.062500000000001
  7
ＭＳ ゴシック
100
AcDbText
  0
TEXT
  5
353
330
1F
100
AcDbEntity
  8
D-4
  6
Continuous
 62
     2
370
     9
100
AcDbText
 10
-1369.952179138314
 20
-145.1539906587848
 30
0.0
 40
30.48
  1
250
 41
1.083333333333333
  7
ＭＳ ゴシック
100
AcDbText
  0
TEXT
  5
354
330
1F
100
AcDbEntity
  8
D-4
  6
Continuous
 62
     2
370
     9
100
AcDbText
 10
-1369.952179138314
 20
-36.40183793232772
 30
0.0
 40
30.48
  1
300
 41
1.083333333333333
  7
ＭＳ ゴシック
100
AcDbText
  0
TEXT
  5
355
330
1F
100
AcDbEntity
  8
D-4
  6
Continuous
 62
     2
370
     9
100
AcDbText
 10
-1369.952179138314
 20
72.35031479412903
 30
0.0
 40
30.48
  1
312
 41
1.083333333333333
  7
ＭＳ ゴシック
100
AcDbText
  0
TEXT
  5
356
330
1F
100
AcDbEntity
  8
D-5
  6
Continuous
 62
     2
370
     9
100
AcDbText
 10
204.9248205878527
 20
-385.5457670272093
 30
0.0
 40
30.48
  1
オールステンレス製樹脂タイル用化粧蓋　ＳＥ　３００×６００×１５
 41
1.12109375
  7
ＭＳ ゴシック
100
AcDbText
  0
TEXT
  5
357
330
1F
100
AcDbEntity
  8
F-5
  6
Continuous
 62
     2
370
     9
100
AcDbText
 10
-676.1448671617723
 20
-1322.967180731486
 30
0.0
 40
30.48
  1
オールステンレス製樹脂タイル用化粧蓋
 41
1.118055555555555
  7
ＭＳ ゴシック
100
AcDbText
  0
TEXT
  5
358
330
1F
100
AcDbEntity
  8
F-5
  6
Continuous
 62
     2
370
     9
100
AcDbText
 10
-676.1448671617723
 20
-1366.774375957939
 30
0.0
 40
30.48
  1
ＳＥ　３００×６００×１５＋ＳＦ１５Ｂ
 41
1.118421052631579
  7
ＭＳ ゴシック
100
AcDbText
  0
TEXT
  5
359
330
1F
100
AcDbEntity
  8
D-5
  6
Continuous
 62
     2
370
     9
100
AcDbText
 10
264.6367240958859
 20
-580.545929151853
 30
0.0
 40
30.48
  1
定尺：５９９．５
 50
0.0001072209932
 41
1.109375
  7
ＭＳ ゴシック
100
AcDbText
  0
ENDSEC
  0
SECTION
  2
OBJECTS
  0
DICTIONARY
  5
C
330
0
100
AcDbDictionary
281
     1
  3
ACAD_GROUP
350
D
  3
ACAD_LAYOUT
350
1A
  3
ACAD_MLEADERSTYLE
350
35B
  3
ACAD_MLINESTYLE
350
17
  3
ACAD_PLOTSETTINGS
350
19
  3
ACAD_PLOTSTYLENAME
350
E
  3
ACAD_TABLESTYLE
350
35A
  3
ACAD_VISUALSTYLE
350
2A
  3
AcDbVariableDictionary
350
35C
  0
DICTIONARY
  5
D
102
{ACAD_REACTORS
330
C
102
}
330
C
100
AcDbDictionary
281
     1
  0
DICTIONARY
  5
1A
102
{ACAD_REACTORS
330
C
102
}
330
C
100
AcDbDictionary
281
     1
  3
Layout1
350
1E
  3
Layout2
350
26
  3
Model
350
22
  0
DICTIONARY
  5
35B
102
{ACAD_REACTORS
330
C
102
}
330
C
100
AcDbDictionary
281
     1
  0
DICTIONARY
  5
17
102
{ACAD_REACTORS
330
C
102
}
330
C
100
AcDbDictionary
281
     1
  3
Standard
350
18
  0
DICTIONARY
  5
19
102
{ACAD_REACTORS
330
C
102
}
330
C
100
AcDbDictionary
281
     1
  0
ACDBDICTIONARYWDFLT
  5
E
102
{ACAD_REACTORS
330
C
102
}
330
C
100
AcDbDictionary
281
     1
  3
Normal
350
F
100
AcDbDictionaryWithDefault
340
F
  0
DICTIONARY
  5
35A
102
{ACAD_REACTORS
330
C
102
}
330
C
100
AcDbDictionary
281
     1
  0
DICTIONARY
  5
2A
102
{ACAD_REACTORS
330
C
102
}
330
C
100
AcDbDictionary
281
     1
  3
2dWireframe
350
2F
  3
3D Hidden
350
31
  3
3dWireframe
350
30
  3
Basic
350
32
  3
Brighten
350
36
  3
ColorChange
350
3A
  3
Conceptual
350
34
  3
Dim
350
35
  3
Facepattern
350
39
  3
Flat
350
2B
  3
FlatWithEdges
350
2C
  3
Gouraud
350
2D
  3
GouraudWithEdges
350
2E
  3
Linepattern
350
38
  3
Realistic
350
33
  3
Thicken
350
37
  0
DICTIONARY
  5
35C
102
{ACAD_REACTORS
330
C
102
}
330
C
100
AcDbDictionary
281
     1
  3
PSOLHEIGHT
350
35E
  3
PSOLWIDTH
350
35D
  0
LAYOUT
  5
1E
102
{ACAD_REACTORS
330
1A
102
}
102
{ACAD_XDICTIONARY
360
35F
102
}
330
1A
100
AcDbPlotSettings
  1

  2
none_device
  4

  6

 40
0.0
 41
0.0
 42
0.0
 43
0.0
 44
0.0
 45
0.0
 46
0.0
 47
0.0
 48
0.0
 49
0.0
140
0.0
141
0.0
142
1.0
143
1.0
 70
   688
 72
     0
 73
     0
 74
     5
  7

 75
    16
147
1.0
148
0.0
149
0.0
100
AcDbLayout
  1
Layout1
 70
     1
 71
     1
 10
0.0
 20
0.0
 11
420.0
 21
297.0
 12
0.0
 22
0.0
 32
0.0
 14
1.000000000000000E+20
 24
1.000000000000000E+20
 34
1.000000000000000E+20
 15
-1.000000000000000E+20
 25
-1.000000000000000E+20
 35
-1.000000000000000E+20
146
0.0
 13
0.0
 23
0.0
 33
0.0
 16
1.0
 26
0.0
 36
0.0
 17
0.0
 27
1.0
 37
0.0
 76
     0
330
1B
  0
LAYOUT
  5
26
102
{ACAD_REACTORS
330
1A
102
}
102
{ACAD_XDICTIONARY
360
363
102
}
330
1A
100
AcDbPlotSettings
  1

  2
none_device
  4

  6

 40
0.0
 41
0.0
 42
0.0
 43
0.0
 44
0.0
 45
0.0
 46
0.0
 47
0.0
 48
0.0
 49
0.0
140
0.0
141
0.0
142
1.0
143
1.0
 70
   688
 72
     0
 73
     0
 74
     5
  7

 75
    16
147
1.0
148
0.0
149
0.0
100
AcDbLayout
  1
Layout2
 70
     1
 71
     2
 10
0.0
 20
0.0
 11
0.0
 21
0.0
 12
0.0
 22
0.0
 32
0.0
 14
0.0
 24
0.0
 34
0.0
 15
0.0
 25
0.0
 35
0.0
146
0.0
 13
0.0
 23
0.0
 33
0.0
 16
1.0
 26
0.0
 36
0.0
 17
0.0
 27
1.0
 37
0.0
 76
     0
330
23
  0
LAYOUT
  5
22
102
{ACAD_REACTORS
330
1A
102
}
102
{ACAD_XDICTIONARY
360
361
102
}
330
1A
100
AcDbPlotSettings
  1

  2
none_device
  4

  6

 40
0.0
 41
0.0
 42
0.0
 43
0.0
 44
0.0
 45
0.0
 46
0.0
 47
0.0
 48
0.0
 49
0.0
140
0.0
141
0.0
142
1.0
143
1.0
 70
  1712
 72
     0
 73
     0
 74
     0
  7

 75
     0
147
1.0
148
0.0
149
0.0
100
AcDbLayout
  1
Model
 70
     1
 71
     0
 10
-2100.0
 20
-1485.0
 11
2100.0
 21
1485.0
 12
0.0
 22
0.0
 32
0.0
 14
-2100.0
 24
-1485.0
 34
0.0
 15
2100.0
 25
1485.0
 35
0.0
146
0.0
 13
0.0
 23
0.0
 33
0.0
 16
1.0
 26
0.0
 36
0.0
 17
0.0
 27
1.0
 37
0.0
 76
     0
330
1F
331
29
  0
MLINESTYLE
  5
18
102
{ACAD_REACTORS
330
17
102
}
330
17
100
AcDbMlineStyle
  2
Standard
 70
     0
  3

 62
   256
 51
90.0
 52
90.0
 71
     2
 49
0.5
 62
   256
  6
BYLAYER
 49
-0.5
 62
   256
  6
BYLAYER
  0
ACDBPLACEHOLDER
  5
F
102
{ACAD_REACTORS
330
E
102
}
330
E
  0
VISUALSTYLE
  5
2F
102
{ACAD_REACTORS
330
2A
102
}
330
2A
100
AcDbVisualStyle
  2
2dWireframe
 70
     4
 71
     0
 72
     2
 73
     0
 90
        0
 40
-0.6
 41
-30.0
 62
     5
 63
     7
 74
     1
 91
        4
 64
     7
 65
   257
 75
     1
175
     1
 42
1.0
 92
        0
 66
   257
 43
1.0
 76
     1
 77
     6
 78
     2
 67
     7
 79
     5
170
     0
171
     0
290
     0
174
     0
 93
        1
 44
0.0
173
     0
291
     0
 45
0.0
1001
ACAD
1000
AcDbSavedByObjectVersion
1070
     0
  0
VISUALSTYLE
  5
31
102
{ACAD_REACTORS
330
2A
102
}
330
2A
100
AcDbVisualStyle
  2
3D Hidden
 70
     6
 71
     1
 72
     2
 73
     2
 90
        0
 40
-0.6
 41
-30.0
 62
     5
 63
     7
 74
     2
 91
        2
 64
     7
 65
   257
 75
     2
175
     1
 42
40.0
 92
        0
 66
   257
 43
1.0
 76
     1
 77
     6
 78
     2
 67
     7
 79
     3
170
     0
171
     0
290
     0
174
     0
 93
        1
 44
0.0
173
     0
291
     0
 45
0.0
1001
ACAD
1000
AcDbSavedByObjectVersion
1070
     0
  0
VISUALSTYLE
  5
30
102
{ACAD_REACTORS
330
2A
102
}
330
2A
100
AcDbVisualStyle
  2
3dWireframe
 70
     5
 71
     0
 72
     2
 73
     0
 90
        0
 40
-0.6
 41
-30.0
 62
     5
 63
     7
 74
     1
 91
        4
 64
     7
 65
   257
 75
     1
175
     1
 42
1.0
 92
        0
 66
   257
 43
1.0
 76
     1
 77
     6
 78
     2
 67
     7
 79
     5
170
     0
171
     0
290
     0
174
     0
 93
        1
 44
0.0
173
     0
291
     0
 45
0.0
1001
ACAD
1000
AcDbSavedByObjectVersion
1070
     0
  0
VISUALSTYLE
  5
32
102
{ACAD_REACTORS
330
2A
102
}
330
2A
100
AcDbVisualStyle
  2
Basic
 70
     7
 71
     1
 72
     0
 73
     1
 90
        0
 40
-0.6
 41
-30.0
 62
     5
 63
     7
 74
     0
 91
        4
 64
     7
 65
   257
 75
     1
175
     1
 42
1.0
 92
        8
 66
     7
 43
1.0
 76
     1
 77
     6
 78
     2
 67
     7
 79
     5
170
     0
171
     0
290
     0
174
     0
 93
        1
 44
0.0
173
     0
291
     1
 45
0.0
1001
ACAD
1000
AcDbSavedByObjectVersion
1070
     0
  0
VISUALSTYLE
  5
36
102
{ACAD_REACTORS
330
2A
102
}
330
2A
100
AcDbVisualStyle
  2
Brighten
 70
    12
 71
     2
 72
     2
 73
     0
 90
        0
 40
-0.6
 41
-30.0
 62
     5
 63
     7
 74
     1
 91
        4
 64
     7
 65
   257
 75
     1
175
     1
 42
1.0
 92
        8
 66
     7
 43
1.0
 76
     1
 77
     6
 78
     2
 67
     7
 79
     5
170
     0
171
     0
290
     0
174
     0
 93
        1
 44
50.0
173
     0
291
     1
 45
0.0
1001
ACAD
1000
AcDbSavedByObjectVersion
1070
     0
  0
VISUALSTYLE
  5
3A
102
{ACAD_REACTORS
330
2A
102
}
330
2A
100
AcDbVisualStyle
  2
ColorChange
 70
    16
 71
     2
 72
     2
 73
     3
 90
        0
 40
-0.6
 41
-30.0
 62
     5
 63
     8
 74
     1
 91
        4
 64
     7
 65
   257
 75
     1
175
     1
 42
1.0
 92
        8
 66
     8
 43
1.0
 76
     1
 77
     6
 78
     2
 67
     7
 79
     5
170
     0
171
     0
290
     0
174
     0
 93
        1
 44
0.0
173
     0
291
     1
 45
0.0
1001
ACAD
1000
AcDbSavedByObjectVersion
1070
     0
  0
VISUALSTYLE
  5
34
102
{ACAD_REACTORS
330
2A
102
}
330
2A
100
AcDbVisualStyle
  2
Conceptual
 70
     9
 71
     3
 72
     2
 73
     0
 90
        0
 40
-0.6
 41
-30.0
 62
     5
 63
     7
 74
     2
 91
        2
 64
     7
 65
   257
 75
     1
175
     1
 42
40.0
 92
        8
 66
     7
 43
1.0
 76
     1
 77
     6
 78
     2
 67
     7
 79
     3
170
     0
171
     0
290
     0
174
     0
 93
        1
 44
0.0
173
     0
291
     0
 45
0.0
1001
ACAD
1000
AcDbSavedByObjectVersion
1070
     0
  0
VISUALSTYLE
  5
35
102
{ACAD_REACTORS
330
2A
102
}
330
2A
100
AcDbVisualStyle
  2
Dim
 70
    11
 71
     2
 72
     2
 73
     0
 90
        0
 40
-0.6
 41
-30.0
 62
     5
 63
     7
 74
     1
 91
        4
 64
     7
 65
   257
 75
     1
175
     1
 42
1.0
 92
        8
 66
     7
 43
1.0
 76
     1
 77
     6
 78
     2
 67
     7
 79
     5
170
     0
171
     0
290
     0
174
     0
 93
        1
 44
-50.0
173
     0
291
     1
 45
0.0
1001
ACAD
1000
AcDbSavedByObjectVersion
1070
     0
  0
VISUALSTYLE
  5
39
102
{ACAD_REACTORS
330
2A
102
}
330
2A
100
AcDbVisualStyle
  2
Facepattern
 70
    15
 71
     2
 72
     2
 73
     0
 90
        0
 40
-0.6
 41
-30.0
 62
     5
 63
     7
 74
     1
 91
        4
 64
     7
 65
   257
 75
     1
175
     1
 42
1.0
 92
        8
 66
     7
 43
1.0
 76
     1
 77
     6
 78
     2
 67
     7
 79
     5
170
     0
171
     0
290
     0
174
     0
 93
        1
 44
0.0
173
     0
291
     1
 45
0.0
1001
ACAD
1000
AcDbSavedByObjectVersion
1070
     0
  0
VISUALSTYLE
  5
2B
102
{ACAD_REACTORS
330
2A
102
}
330
2A
100
AcDbVisualStyle
  2
Flat
 70
     0
 71
     2
 72
     1
 73
     1
 90
        2
 40
-0.6
 41
30.0
 62
     5
 63
     7
 74
     0
 91
        4
 64
     7
 65
   257
 75
     1
175
     1
 42
1.0
 92
        8
 66
     7
 43
1.0
 76
     1
 77
     6
 78
     2
 67
     7
 79
     5
170
     0
171
     0
290
     0
174
     0
 93
       13
 44
0.0
173
     0
291
     1
 45
0.0
1001
ACAD
1000
AcDbSavedByObjectVersion
1070
     0
  0
VISUALSTYLE
  5
2C
102
{ACAD_REACTORS
330
2A
102
}
330
2A
100
AcDbVisualStyle
  2
FlatWithEdges
 70
     1
 71
     2
 72
     1
 73
     1
 90
        2
 40
-0.6
 41
30.0
 62
     5
 63
     7
 74
     1
 91
        4
 64
     7
 65
   257
 75
     1
175
     1
 42
1.0
 92
        0
 66
   257
 43
1.0
 76
     1
 77
     6
 78
     2
 67
     7
 79
     5
170
     0
171
     0
290
     0
174
     0
 93
       13
 44
0.0
173
     0
291
     1
 45
0.0
1001
ACAD
1000
AcDbSavedByObjectVersion
1070
     0
  0
VISUALSTYLE
  5
2D
102
{ACAD_REACTORS
330
2A
102
}
330
2A
100
AcDbVisualStyle
  2
Gouraud
 70
     2
 71
     2
 72
     2
 73
     1
 90
        2
 40
-0.6
 41
30.0
 62
     5
 63
     7
 74
     0
 91
        4
 64
     7
 65
   257
 75
     1
175
     1
 42
1.0
 92
        0
 66
     7
 43
1.0
 76
     1
 77
     6
 78
     2
 67
     7
 79
     5
170
     0
171
     0
290
     0
174
     0
 93
       13
 44
0.0
173
     0
291
     1
 45
0.0
1001
ACAD
1000
AcDbSavedByObjectVersion
1070
     0
  0
VISUALSTYLE
  5
2E
102
{ACAD_REACTORS
330
2A
102
}
330
2A
100
AcDbVisualStyle
  2
GouraudWithEdges
 70
     3
 71
     2
 72
     2
 73
     1
 90
        2
 40
-0.6
 41
30.0
 62
     5
 63
     7
 74
     1
 91
        4
 64
     7
 65
   257
 75
     1
175
     1
 42
1.0
 92
        0
 66
   257
 43
1.0
 76
     1
 77
     6
 78
     2
 67
     7
 79
     5
170
     0
171
     0
290
     0
174
     0
 93
       13
 44
0.0
173
     0
291
     1
 45
0.0
1001
ACAD
1000
AcDbSavedByObjectVersion
1070
     0
  0
VISUALSTYLE
  5
38
102
{ACAD_REACTORS
330
2A
102
}
330
2A
100
AcDbVisualStyle
  2
Linepattern
 70
    14
 71
     2
 72
     2
 73
     0
 90
        0
 40
-0.6
 41
-30.0
 62
     5
 63
     7
 74
     1
 91
        4
 64
     7
 65
   257
 75
     7
175
     7
 42
1.0
 92
        8
 66
     7
 43
1.0
 76
     1
 77
     6
 78
     2
 67
     7
 79
     5
170
     0
171
     0
290
     0
174
     0
 93
        1
 44
0.0
173
     0
291
     1
 45
0.0
1001
ACAD
1000
AcDbSavedByObjectVersion
1070
     0
  0
VISUALSTYLE
  5
33
102
{ACAD_REACTORS
330
2A
102
}
330
2A
100
AcDbVisualStyle
  2
Realistic
 70
     8
 71
     2
 72
     2
 73
     0
 90
        0
 40
-0.6
 41
-30.0
 62
     5
 63
     7
 74
     1
 91
        0
 64
     7
 65
   257
 75
     1
175
     1
 42
1.0
 92
        8
 66
     8
 43
1.0
 76
     1
 77
     6
 78
     2
 67
     7
 79
     5
170
     0
171
     0
290
     0
174
     0
 93
       13
 44
0.0
173
     0
291
     0
 45
0.0
1001
ACAD
1000
AcDbSavedByObjectVersion
1070
     0
  0
VISUALSTYLE
  5
37
102
{ACAD_REACTORS
330
2A
102
}
330
2A
100
AcDbVisualStyle
  2
Thicken
 70
    13
 71
     2
 72
     2
 73
     0
 90
        0
 40
-0.6
 41
-30.0
 62
     5
 63
     7
 74
     1
 91
        4
 64
     7
 65
   257
 75
     1
175
     1
 42
1.0
 92
       12
 66
     7
 43
1.0
 76
     1
 77
     6
 78
     2
 67
     7
 79
     5
170
     0
171
     0
290
     0
174
     0
 93
        1
 44
0.0
173
     0
291
     1
 45
0.0
1001
ACAD
1000
AcDbSavedByObjectVersion
1070
     0
  0
DICTIONARYVAR
  5
35E
102
{ACAD_REACTORS
330
35C
102
}
330
35C
100
DictionaryVariables
280
     0
  1
80.000000
  0
DICTIONARYVAR
  5
35D
102
{ACAD_REACTORS
330
35C
102
}
330
35C
100
DictionaryVariables
280
     0
  1
5.000000
  0
DICTIONARY
  5
35F
330
1E
100
AcDbDictionary
280
     1
281
     1
  3
ACAD_XREC_ROUNDTRIP
360
360
  0
DICTIONARY
  5
363
330
26
100
AcDbDictionary
280
     1
281
     1
  3
ACAD_XREC_ROUNDTRIP
360
364
  0
DICTIONARY
  5
361
330
22
100
AcDbDictionary
280
     1
281
     1
  3
ACAD_XREC_ROUNDTRIP
360
362
  0
XRECORD
  5
360
102
{ACAD_REACTORS
330
35F
102
}
330
35F
100
AcDbXrecord
280
     1
102
SHADEPLOT
 70
     0
102
SHADEPLOTRESLEVEL
 70
     5
102
SHADEPLOTCUSTOMDPI
 70
   300
  0
XRECORD
  5
364
102
{ACAD_REACTORS
330
363
102
}
330
363
100
AcDbXrecord
280
     1
102
SHADEPLOT
 70
     0
102
SHADEPLOTRESLEVEL
 70
     5
102
SHADEPLOTCUSTOMDPI
 70
   300
  0
XRECORD
  5
362
102
{ACAD_REACTORS
330
361
102
}
330
361
100
AcDbXrecord
280
     1
102
SHADEPLOT
 70
     0
102
SHADEPLOTRESLEVEL
 70
     5
102
SHADEPLOTCUSTOMDPI
 70
   300
  0
ENDSEC
  0
EOF
