  0
SECTION
  2
HEADER
  9
$ACADVER
  1
AC1018
  9
$ACADMAINTVER
 70
     0
  9
$DWGCODEPAGE
  3
ANSI_932
  9
$INSBASE
 10
0.0
 20
0.0
 30
0.0
  9
$EXTMIN
 10
-840.0
 20
-594.0
 30
0.0
  9
$EXTMAX
 10
840.0
 20
594.0
 30
0.0
  9
$LIMMIN
 10
-840.0
 20
-594.0
  9
$LIMMAX
 10
840.0
 20
594.0
  9
$ORTHOMODE
 70
     0
  9
$REGENMODE
 70
     1
  9
$FILLMODE
 70
     1
  9
$QTEXTMODE
 70
     0
  9
$MIRRTEXT
 70
     1
  9
$LTSCALE
 40
4.0
  9
$ATTMODE
 70
     1
  9
$TEXTSIZE
 40
2.5
  9
$TRACEWID
 40
1.0
  9
$TEXTSTYLE
  7
Standard
  9
$CLAYER
  8
0
  9
$CELTYPE
  6
ByLayer
  9
$CECOLOR
 62
   256
  9
$CELTSCALE
 40
1.0
  9
$DISPSILH
 70
     0
  9
$DIMSCALE
 40
1.0
  9
$DIMASZ
 40
2.5
  9
$DIMEXO
 40
0.625
  9
$DIMDLI
 40
3.75
  9
$DIMRND
 40
0.0
  9
$DIMDLE
 40
0.0
  9
$DIMEXE
 40
1.25
  9
$DIMTP
 40
0.0
  9
$DIMTM
 40
0.0
  9
$DIMTXT
 40
2.5
  9
$DIMCEN
 40
2.5
  9
$DIMTSZ
 40
0.0
  9
$DIMTOL
 70
     0
  9
$DIMLIM
 70
     0
  9
$DIMTIH
 70
     0
  9
$DIMTOH
 70
     0
  9
$DIMSE1
 70
     0
  9
$DIMSE2
 70
     0
  9
$DIMTAD
 70
     1
  9
$DIMZIN
 70
     8
  9
$DIMBLK
  1

  9
$DIMASO
 70
     1
  9
$DIMSHO
 70
     1
  9
$DIMPOST
  1

  9
$DIMAPOST
  1

  9
$DIMALT
 70
     0
  9
$DIMALTD
 70
     3
  9
$DIMALTF
 40
0.03937007874016
  9
$DIMLFAC
 40
1.0
  9
$DIMTOFL
 70
     1
  9
$DIMTVP
 40
0.0
  9
$DIMTIX
 70
     0
  9
$DIMSOXD
 70
     0
  9
$DIMSAH
 70
     0
  9
$DIMBLK1
  1

  9
$DIMBLK2
  1

  9
$DIMSTYLE
  2
ISO-25
  9
$DIMCLRD
 70
     0
  9
$DIMCLRE
 70
     0
  9
$DIMCLRT
 70
     0
  9
$DIMTFAC
 40
1.0
  9
$DIMGAP
 40
0.625
  9
$DIMJUST
 70
     0
  9
$DIMSD1
 70
     0
  9
$DIMSD2
 70
     0
  9
$DIMTOLJ
 70
     0
  9
$DIMTZIN
 70
     8
  9
$DIMALTZ
 70
     0
  9
$DIMALTTZ
 70
     0
  9
$DIMUPT
 70
     0
  9
$DIMDEC
 70
     2
  9
$DIMTDEC
 70
     2
  9
$DIMALTU
 70
     2
  9
$DIMALTTD
 70
     3
  9
$DIMTXSTY
  7
Standard
  9
$DIMAUNIT
 70
     0
  9
$DIMADEC
 70
     0
  9
$DIMALTRND
 40
0.0
  9
$DIMAZIN
 70
     0
  9
$DIMDSEP
 70
    44
  9
$DIMATFIT
 70
     3
  9
$DIMFRAC
 70
     0
  9
$DIMLDRBLK
  1

  9
$DIMLUNIT
 70
     2
  9
$DIMLWD
 70
    -2
  9
$DIMLWE
 70
    -2
  9
$DIMTMOVE
 70
     0
  9
$LUNITS
 70
     2
  9
$LUPREC
 70
     4
  9
$SKETCHINC
 40
1.0
  9
$FILLETRAD
 40
10.0
  9
$AUNITS
 70
     0
  9
$AUPREC
 70
     0
  9
$MENU
  1
.
  9
$ELEVATION
 40
0.0
  9
$PELEVATION
 40
0.0
  9
$THICKNESS
 40
0.0
  9
$LIMCHECK
 70
     0
  9
$CHAMFERA
 40
10.0
  9
$CHAMFERB
 40
10.0
  9
$CHAMFERC
 40
20.0
  9
$CHAMFERD
 40
0.0
  9
$SKPOLY
 70
     0
  9
$TDCREATE
 40
2457518.437580822
  9
$TDUCREATE
 40
2457518.062580822
  9
$TDUPDATE
 40
2457518.437580833
  9
$TDUUPDATE
 40
2457518.062580833
  9
$TDINDWG
 40
0.0000000116
  9
$TDUSRTIMER
 40
0.0000000116
  9
$USRTIMER
 70
     1
  9
$ANGBASE
 50
0.0
  9
$ANGDIR
 70
     0
  9
$PDMODE
 70
     0
  9
$PDSIZE
 40
0.0
  9
$PLINEWID
 40
0.0
  9
$SPLFRAME
 70
     0
  9
$SPLINETYPE
 70
     6
  9
$SPLINESEGS
 70
     8
  9
$HANDSEED
  5
383
  9
$SURFTAB1
 70
     6
  9
$SURFTAB2
 70
     6
  9
$SURFTYPE
 70
     6
  9
$SURFU
 70
     6
  9
$SURFV
 70
     6
  9
$UCSBASE
  2

  9
$UCSNAME
  2

  9
$UCSORG
 10
0.0
 20
0.0
 30
0.0
  9
$UCSXDIR
 10
1.0
 20
0.0
 30
0.0
  9
$UCSYDIR
 10
0.0
 20
1.0
 30
0.0
  9
$UCSORTHOREF
  2

  9
$UCSORTHOVIEW
 70
     0
  9
$UCSORGTOP
 10
0.0
 20
0.0
 30
0.0
  9
$UCSORGBOTTOM
 10
0.0
 20
0.0
 30
0.0
  9
$UCSORGLEFT
 10
0.0
 20
0.0
 30
0.0
  9
$UCSORGRIGHT
 10
0.0
 20
0.0
 30
0.0
  9
$UCSORGFRONT
 10
0.0
 20
0.0
 30
0.0
  9
$UCSORGBACK
 10
0.0
 20
0.0
 30
0.0
  9
$PUCSBASE
  2

  9
$PUCSNAME
  2

  9
$PUCSORG
 10
0.0
 20
0.0
 30
0.0
  9
$PUCSXDIR
 10
1.0
 20
0.0
 30
0.0
  9
$PUCSYDIR
 10
0.0
 20
1.0
 30
0.0
  9
$PUCSORTHOREF
  2

  9
$PUCSORTHOVIEW
 70
     0
  9
$PUCSORGTOP
 10
0.0
 20
0.0
 30
0.0
  9
$PUCSORGBOTTOM
 10
0.0
 20
0.0
 30
0.0
  9
$PUCSORGLEFT
 10
0.0
 20
0.0
 30
0.0
  9
$PUCSORGRIGHT
 10
0.0
 20
0.0
 30
0.0
  9
$PUCSORGFRONT
 10
0.0
 20
0.0
 30
0.0
  9
$PUCSORGBACK
 10
0.0
 20
0.0
 30
0.0
  9
$USERI1
 70
     0
  9
$USERI2
 70
     0
  9
$USERI3
 70
     0
  9
$USERI4
 70
     0
  9
$USERI5
 70
     0
  9
$USERR1
 40
0.0
  9
$USERR2
 40
0.0
  9
$USERR3
 40
0.0
  9
$USERR4
 40
0.0
  9
$USERR5
 40
0.0
  9
$WORLDVIEW
 70
     1
  9
$SHADEDGE
 70
     3
  9
$SHADEDIF
 70
    70
  9
$TILEMODE
 70
     1
  9
$MAXACTVP
 70
    64
  9
$PINSBASE
 10
0.0
 20
0.0
 30
0.0
  9
$PLIMCHECK
 70
     0
  9
$PEXTMIN
 10
1.000000000000000E+20
 20
1.000000000000000E+20
 30
1.000000000000000E+20
  9
$PEXTMAX
 10
-1.000000000000000E+20
 20
-1.000000000000000E+20
 30
-1.000000000000000E+20
  9
$PLIMMIN
 10
0.0
 20
0.0
  9
$PLIMMAX
 10
420.0
 20
297.0
  9
$UNITMODE
 70
     0
  9
$VISRETAIN
 70
     1
  9
$PLINEGEN
 70
     0
  9
$PSLTSCALE
 70
     1
  9
$TREEDEPTH
 70
  3020
  9
$CMLSTYLE
  2
Standard
  9
$CMLJUST
 70
     0
  9
$CMLSCALE
 40
20.0
  9
$PROXYGRAPHICS
 70
     1
  9
$MEASUREMENT
 70
     1
  9
$CELWEIGHT
370
    -1
  9
$ENDCAPS
280
     0
  9
$JOINSTYLE
280
     0
  9
$LWDISPLAY
290
     0
  9
$INSUNITS
 70
     4
  9
$HYPERLINKBASE
  1

  9
$STYLESHEET
  1

  9
$XEDIT
290
     1
  9
$CEPSNTYPE
380
     0
  9
$PSTYLEMODE
290
     1
  9
$FINGERPRINTGUID
  2
{62AB3916-4719-4F3B-8CE1-94E749D6F7A0}
  9
$VERSIONGUID
  2
{FAEB1C32-E019-11D5-929B-00C0DF256EC4}
  9
$EXTNAMES
290
     1
  9
$PSVPSCALE
 40
0.0
  9
$OLESTARTUP
290
     0
  9
$SORTENTS
280
   127
  9
$INDEXCTL
280
     0
  9
$HIDETEXT
280
     1
  9
$XCLIPFRAME
290
     0
  9
$HALOGAP
280
     0
  9
$OBSCOLOR
 70
   257
  9
$OBSLTYPE
280
     0
  9
$INTERSECTIONDISPLAY
280
     0
  9
$INTERSECTIONCOLOR
 70
   257
  9
$DIMASSOC
280
     2
  9
$PROJECTNAME
  1

  0
ENDSEC
  0
SECTION
  2
CLASSES
  0
CLASS
  1
ACDBDICTIONARYWDFLT
  2
AcDbDictionaryWithDefault
  3
ObjectDBX Classes
 90
        0
 91
        4
280
     0
281
     0
  0
CLASS
  1
VISUALSTYLE
  2
AcDbVisualStyle
  3
ObjectDBX Classes
 90
     4095
 91
        4
280
     0
281
     0
  0
ENDSEC
  0
SECTION
  2
TABLES
  0
TABLE
  2
VPORT
  5
8
330
0
100
AcDbSymbolTable
 70
     1
  0
VPORT
  5
29
330
8
100
AcDbSymbolTableRecord
100
AcDbViewportTableRecord
  2
*Active
 70
     0
 10
0.0
 20
0.0
 11
1.0
 21
1.0
 12
0.0
 22
0.0
 13
0.0
 23
0.0
 14
10.0
 24
10.0
 15
10.0
 25
10.0
 16
0.0
 26
0.0
 36
1.0
 17
0.0
 27
0.0
 37
0.0
 40
1306.8
 41
1.414141414141414
 42
50.0
 43
0.0
 44
0.0
 50
0.0
 51
0.0
 71
     0
 72
 10000
 73
     1
 74
     3
 75
     0
 76
     0
 77
     0
 78
     0
281
     0
 65
     1
110
0.0
120
0.0
130
0.0
111
1.0
121
0.0
131
0.0
112
0.0
122
1.0
132
0.0
 79
     0
146
0.0
  0
ENDTAB
  0
TABLE
  2
LTYPE
  5
5
330
0
100
AcDbSymbolTable
 70
     6
  0
LTYPE
  5
14
330
5
100
AcDbSymbolTableRecord
100
AcDbLinetypeTableRecord
  2
ByBlock
 70
     0
  3

 72
    65
 73
     0
 40
0.0
  0
LTYPE
  5
15
330
5
100
AcDbSymbolTableRecord
100
AcDbLinetypeTableRecord
  2
ByLayer
 70
     0
  3

 72
    65
 73
     0
 40
0.0
  0
LTYPE
  5
16
330
5
100
AcDbSymbolTableRecord
100
AcDbLinetypeTableRecord
  2
Continuous
 70
     0
  3
Solid line
 72
    65
 73
     0
 40
0.0
  0
LTYPE
  5
3C
330
5
100
AcDbSymbolTableRecord
100
AcDbLinetypeTableRecord
  2
JWW_CENTER1
 70
     0
  3
-----  --  ----------  --  -----
 72
    65
 73
     4
 40
6.773333333333333
 49
4.233333333333333
 74
     0
 49
-0.8466666666666667
 74
     0
 49
0.8466666666666667
 74
     0
 49
-0.8466666666666667
 74
     0
  0
LTYPE
  5
3D
330
5
100
AcDbSymbolTableRecord
100
AcDbLinetypeTableRecord
  2
JWW_PHANTOM2
 70
     0
  3
------------  -  -  ------------
 72
    65
 73
     6
 40
13.54666666666667
 49
10.16
 74
     0
 49
-0.8466666666666667
 74
     0
 49
0.4233333333333333
 74
     0
 49
-0.8466666666666667
 74
     0
 49
0.4233333333333333
 74
     0
 49
-0.8466666666666667
 74
     0
  0
LTYPE
  5
3E
330
5
100
AcDbSymbolTableRecord
100
AcDbLinetypeTableRecord
  2
JWW_DASHED3
 70
     0
  3
---  ------  ------  ------  ---
 72
    65
 73
     2
 40
3.386666666666667
 49
2.54
 74
     0
 49
-0.8466666666666667
 74
     0
  0
LTYPE
  5
3F
330
5
100
AcDbSymbolTableRecord
100
AcDbLinetypeTableRecord
  2
JWW_CENTER2
 70
     0
  3
-------------  --  -------------
 72
    65
 73
     4
 40
13.54666666666667
 49
11.00666666666667
 74
     0
 49
-0.8466666666666667
 74
     0
 49
0.8466666666666667
 74
     0
 49
-0.8466666666666667
 74
     0
  0
LTYPE
  5
40
330
5
100
AcDbSymbolTableRecord
100
AcDbLinetypeTableRecord
  2
JWW_DASHED1
 70
     0
  3
-  --  --  --  --  --  --  --  -
 72
    65
 73
     2
 40
1.693333333333333
 49
0.8466666666666667
 74
     0
 49
-0.8466666666666667
 74
     0
  0
ENDTAB
  0
TABLE
  2
LAYER
  5
2
330
0
100
AcDbSymbolTable
 70
     9
  0
LAYER
  5
10
330
2
100
AcDbSymbolTableRecord
100
AcDbLayerTableRecord
  2
0
 70
     0
 62
     7
  6
Continuous
370
    -3
390
F
  0
LAYER
  5
41
330
2
100
AcDbSymbolTableRecord
100
AcDbLayerTableRecord
  2
0-0
 70
     0
 62
     7
  6
Continuous
370
    -3
390
F
  0
LAYER
  5
42
330
2
100
AcDbSymbolTableRecord
100
AcDbLayerTableRecord
  2
0-E
 70
     0
 62
     7
  6
Continuous
370
    -3
390
F
  0
LAYER
  5
43
330
2
100
AcDbSymbolTableRecord
100
AcDbLayerTableRecord
  2
0-5
 70
     0
 62
     7
  6
Continuous
370
    -3
390
F
  0
LAYER
  5
44
330
2
100
AcDbSymbolTableRecord
100
AcDbLayerTableRecord
  2
0-1
 70
     0
 62
     7
  6
Continuous
370
    -3
390
F
  0
LAYER
  5
45
330
2
100
AcDbSymbolTableRecord
100
AcDbLayerTableRecord
  2
0-F
 70
     0
 62
     7
  6
Continuous
370
    -3
390
F
  0
LAYER
  5
46
330
2
100
AcDbSymbolTableRecord
100
AcDbLayerTableRecord
  2
0-6
 70
     0
 62
     7
  6
Continuous
370
    -3
390
F
  0
LAYER
  5
47
330
2
100
AcDbSymbolTableRecord
100
AcDbLayerTableRecord
  2
0-4
 70
     0
 62
     7
  6
Continuous
370
    -3
390
F
  0
LAYER
  5
48
330
2
100
AcDbSymbolTableRecord
100
AcDbLayerTableRecord
  2
F-5
 70
     0
 62
     7
  6
Continuous
370
    -3
390
F
  0
ENDTAB
  0
TABLE
  2
STYLE
  5
3
330
0
100
AcDbSymbolTable
 70
     2
  0
STYLE
  5
11
330
3
100
AcDbSymbolTableRecord
100
AcDbTextStyleTableRecord
  2
Standard
 70
     0
 40
0.0
 41
1.0
 50
0.0
 71
     0
 42
2.5
  3
txt
  4

1001
ACAD
1000

1071
        0
  0
STYLE
  5
3B
330
3
100
AcDbSymbolTableRecord
100
AcDbTextStyleTableRecord
  2
ＭＳ ゴシック
 70
     0
 40
1.0
 41
1.0
 50
0.0
 71
     0
 42
10.0
  3

  4

1001
ACAD
1000
MS Gothic
1071
    32817
  0
ENDTAB
  0
TABLE
  2
VIEW
  5
6
330
0
100
AcDbSymbolTable
 70
     0
  0
ENDTAB
  0
TABLE
  2
UCS
  5
7
330
0
100
AcDbSymbolTable
 70
     0
  0
ENDTAB
  0
TABLE
  2
APPID
  5
9
330
0
100
AcDbSymbolTable
 70
     1
  0
APPID
  5
12
330
9
100
AcDbSymbolTableRecord
100
AcDbRegAppTableRecord
  2
ACAD
 70
     0
  0
ENDTAB
  0
TABLE
  2
DIMSTYLE
  5
A
330
0
100
AcDbSymbolTable
 70
     1
100
AcDbDimStyleTable
  0
DIMSTYLE
105
27
330
A
100
AcDbSymbolTableRecord
100
AcDbDimStyleTableRecord
  2
ISO-25
 70
     0
 41
2.5
 42
0.625
 43
3.75
 44
1.25
 73
     0
 74
     0
 77
     1
 78
     8
140
2.5
141
2.5
143
0.03937007874016
147
0.625
171
     3
172
     1
271
     2
272
     2
274
     3
278
    44
283
     0
284
     8
340
11
  0
ENDTAB
  0
TABLE
  2
BLOCK_RECORD
  5
1
330
0
100
AcDbSymbolTable
 70
     1
  0
BLOCK_RECORD
  5
1F
330
1
100
AcDbSymbolTableRecord
100
AcDbBlockTableRecord
  2
*Model_Space
340
22
  0
BLOCK_RECORD
  5
1B
330
1
100
AcDbSymbolTableRecord
100
AcDbBlockTableRecord
  2
*Paper_Space
340
1E
  0
BLOCK_RECORD
  5
23
330
1
100
AcDbSymbolTableRecord
100
AcDbBlockTableRecord
  2
*Paper_Space0
340
26
  0
ENDTAB
  0
ENDSEC
  0
SECTION
  2
BLOCKS
  0
BLOCK
  5
20
330
1F
100
AcDbEntity
  8
0
100
AcDbBlockBegin
  2
*Model_Space
 70
     0
 10
0.0
 20
0.0
 30
0.0
  3
*Model_Space
  1

  0
ENDBLK
  5
21
330
1F
100
AcDbEntity
  8
0
100
AcDbBlockEnd
  0
BLOCK
  5
1C
330
1B
100
AcDbEntity
 67
     1
  8
0
100
AcDbBlockBegin
  2
*Paper_Space
 70
     0
 10
0.0
 20
0.0
 30
0.0
  3
*Paper_Space
  1

  0
ENDBLK
  5
1D
330
1B
100
AcDbEntity
 67
     1
  8
0
100
AcDbBlockEnd
  0
BLOCK
  5
24
330
23
100
AcDbEntity
  8
0
100
AcDbBlockBegin
  2
*Paper_Space0
 70
     0
 10
0.0
 20
0.0
 30
0.0
  3
*Paper_Space0
  1

  0
ENDBLK
  5
25
330
23
100
AcDbEntity
  8
0
100
AcDbBlockEnd
  0
ENDSEC
  0
SECTION
  2
ENTITIES
  0
LINE
  5
49
330
1F
100
AcDbEntity
  8
0-0
  6
JWW_CENTER1
 62
     3
370
     9
100
AcDbLine
 10
456.654040362384
 20
143.4054120038008
 30
0.0
 11
361.653974378431
 21
143.4054120038008
 31
0.0
  0
TEXT
  5
4A
330
1F
100
AcDbEntity
  8
0-E
  6
Continuous
 62
     7
370
     9
100
AcDbText
 10
181.1277769718374
 20
345.8115893158787
 30
0.0
 40
9.144
  1
受枠：ＴＬ６０Ｐ，ｔ＝３．０
 41
1.154761904761905
  7
ＭＳ ゴシック
100
AcDbText
  0
TEXT
  5
4B
330
1F
100
AcDbEntity
  8
0-E
  6
Continuous
 62
     7
370
     9
100
AcDbText
 10
180.7404709646582
 20
326.0264990498312
 30
0.0
 40
9.144
  1
ＳＵＳ３０４
 41
1.138888888888886
  7
ＭＳ ゴシック
100
AcDbText
  0
LINE
  5
4C
330
1F
100
AcDbEntity
  8
0-E
  6
Continuous
 62
     7
370
     9
100
AcDbLine
 10
180.2006260722453
 20
340.0849345439191
 30
0.0
 11
373.6592596930427
 21
340.0849345439191
 31
0.0
  0
LINE
  5
4D
330
1F
100
AcDbEntity
  8
0-E
  6
Continuous
 62
     7
370
     9
100
AcDbLine
 10
373.6592596930427
 20
340.0849345439191
 30
0.0
 11
407.0555197226035
 21
268.4053790118245
 31
0.0
  0
LINE
  5
4E
330
1F
100
AcDbEntity
  8
0-E
  6
Continuous
 62
     7
370
     9
100
AcDbLine
 10
407.0555197226035
 20
268.4053790118245
 30
0.0
 11
400.611196981894
 21
278.5281421558278
 31
0.0
  0
LINE
  5
4F
330
1F
100
AcDbEntity
  8
0-E
  6
Continuous
 62
     7
370
     9
100
AcDbLine
 10
407.0555197226035
 20
268.4053790118245
 30
0.0
 11
403.4508163864548
 21
279.8511533994935
 31
0.0
  0
TEXT
  5
50
330
1F
100
AcDbEntity
  8
0-5
  6
Continuous
 62
     2
370
     9
100
AcDbText
 10
331.7765807114254
 20
-355.3889834619624
 30
0.0
 40
12.192
  1
仕様
 41
1.0625
  7
ＭＳ ゴシック
100
AcDbText
  0
TEXT
  5
51
330
1F
100
AcDbEntity
  8
0-5
  6
Continuous
 62
     2
370
     9
100
AcDbText
 10
331.7765609162397
 20
-379.3889636667767
 30
0.0
 40
12.192
  1
適用荷重：Ｔ－２
 41
1.109375
  7
ＭＳ ゴシック
100
AcDbText
  0
TEXT
  5
52
330
1F
100
AcDbEntity
  8
0-5
  6
Continuous
 62
     2
370
     9
100
AcDbText
 10
331.7765906090183
 20
-427.3889735643696
 30
0.0
 40
12.192
  1
接触圧子：２００×１６０ｍｍ
 41
1.116071428571428
  7
ＭＳ ゴシック
100
AcDbText
  0
TEXT
  5
53
330
1F
100
AcDbEntity
  8
0-5
  6
Continuous
 62
     2
370
     9
100
AcDbText
 10
331.7766005066113
 20
-403.3889933595553
 30
0.0
 40
12.192
  1
破壊荷重：３５ｋＮ（３，６００ｋｇｆ）以上
 41
1.119047619047619
  7
ＭＳ ゴシック
100
AcDbText
  0
TEXT
  5
54
330
1F
100
AcDbEntity
  8
0-5
  6
Continuous
 62
     2
370
     9
100
AcDbText
 10
331.7767984584694
 20
-451.3890032571483
 30
0.0
 40
12.192
  1
蓋 質 量：１１．０ｋｇ
 41
1.113636363636363
  7
ＭＳ ゴシック
100
AcDbText
  0
LINE
  5
55
330
1F
100
AcDbEntity
  8
0-E
  6
Continuous
 62
     7
370
     9
100
AcDbLine
 10
560.156237628009
 20
205.0245592271962
 30
0.0
 11
436.6540733543602
 21
168.9954405088685
 31
0.0
  0
LINE
  5
56
330
1F
100
AcDbEntity
  8
0-0
  6
Continuous
 62
     3
370
     9
100
AcDbLine
 10
-414.8460388183593
 20
-251.3947226034627
 30
0.0
 11
-413.3710995235958
 21
-252.9946684966214
 31
0.0
  0
LINE
  5
57
330
1F
100
AcDbEntity
  8
0-0
  6
Continuous
 62
     3
370
     9
100
AcDbLine
 10
-410.6085823677681
 20
-251.3947226034627
 30
0.0
 11
-410.6085823677681
 21
-256.5947199641046
 31
0.0
  0
LINE
  5
58
330
1F
100
AcDbEntity
  8
0-0
  6
Continuous
 62
     3
370
     9
100
AcDbLine
 10
-413.3710995235958
 20
-252.9946684966214
 30
0.0
 11
-413.3710995235958
 21
-256.5947199641046
 31
0.0
  0
LINE
  5
59
330
1F
100
AcDbEntity
  8
0-0
  6
Continuous
 62
     3
370
     9
100
AcDbLine
 10
-410.8461245974979
 20
-260.5947331608951
 30
0.0
 11
-409.8460718103357
 21
-261.5946869721282
 31
0.0
  0
LINE
  5
5A
330
1F
100
AcDbEntity
  8
0-0
  6
Continuous
 62
     3
370
     9
100
AcDbLine
 10
-409.8460718103357
 20
-261.5946869721282
 30
0.0
 11
-405.8460586135452
 21
-261.5946869721282
 31
0.0
  0
LINE
  5
5B
330
1F
100
AcDbEntity
  8
0-0
  6
Continuous
 62
     3
370
     9
100
AcDbLine
 10
-410.8461245974979
 20
-260.5947331608951
 30
0.0
 11
-404.846005826383
 21
-260.5947331608951
 31
0.0
  0
LINE
  5
5C
330
1F
100
AcDbEntity
  8
0-0
  6
Continuous
 62
     3
370
     9
100
AcDbLine
 10
-413.3710995235958
 20
-256.5947199641046
 30
0.0
 11
-402.321030900285
 21
-256.5947199641046
 31
0.0
  0
LINE
  5
5D
330
1F
100
AcDbEntity
  8
0-0
  6
Continuous
 62
     3
370
     9
100
AcDbLine
 10
-414.8460388183593
 20
-251.3947226034627
 30
0.0
 11
-400.8460916055215
 21
-251.3947226034627
 31
0.0
  0
LINE
  5
5E
330
1F
100
AcDbEntity
  8
0-0
  6
Continuous
 62
     3
370
     9
100
AcDbLine
 10
-414.8460388183593
 20
-250.5947001689187
 30
0.0
 11
-414.8460388183593
 21
-251.3947226034627
 31
0.0
  0
LINE
  5
5F
330
1F
100
AcDbEntity
  8
0-0
  6
Continuous
 62
     3
370
     9
100
AcDbLine
 10
-417.0218761547192
 20
-250.5947001689187
 30
0.0
 11
-398.6702542691617
 21
-250.5947001689187
 31
0.0
  0
LINE
  5
60
330
1F
100
AcDbEntity
  8
0-0
  6
Continuous
 62
     3
370
     9
100
AcDbLine
 10
-108.3460916055215
 20
-236.5947529560809
 30
0.0
 11
-707.3460388183594
 21
-236.5947529560809
 31
0.0
  0
LINE
  5
61
330
1F
100
AcDbEntity
  8
0-0
  6
Continuous
 62
     3
370
     9
100
AcDbLine
 10
-108.3460916055215
 20
-216.5946869721282
 30
0.0
 11
-707.3460388183594
 21
-216.5946869721282
 31
0.0
  0
LINE
  5
62
330
1F
100
AcDbEntity
  8
0-0
  6
Continuous
 62
     3
370
     9
100
AcDbLine
 10
-707.3460388183594
 20
-236.5947529560809
 30
0.0
 11
-707.3460388183594
 21
-216.5946869721282
 31
0.0
  0
LINE
  5
63
330
1F
100
AcDbEntity
  8
0-0
  6
Continuous
 62
     3
370
     9
100
AcDbLine
 10
-108.3460916055215
 20
-231.5946869721282
 30
0.0
 11
-707.3460388183594
 21
-231.5946869721282
 31
0.0
  0
LINE
  5
64
330
1F
100
AcDbEntity
  8
0-0
  6
Continuous
 62
     3
370
     9
100
AcDbLine
 10
-634.3460949047192
 20
78.4054449957772
 30
0.0
 11
-634.3460949047192
 21
208.4053790118245
 31
0.0
  0
LINE
  5
65
330
1F
100
AcDbEntity
  8
0-0
  6
Continuous
 62
     3
370
     9
100
AcDbLine
 10
-641.346068511138
 20
208.4053790118245
 30
0.0
 11
-634.3460949047192
 21
208.4053790118245
 31
0.0
  0
LINE
  5
66
330
1F
100
AcDbEntity
  8
0-0
  6
Continuous
 62
     3
370
     9
100
AcDbLine
 10
-641.346068511138
 20
78.4054449957772
 30
0.0
 11
-641.346068511138
 21
208.4053790118245
 31
0.0
  0
LINE
  5
67
330
1F
100
AcDbEntity
  8
0-0
  6
Continuous
 62
     3
370
     9
100
AcDbLine
 10
-636.8460784087309
 20
80.90542849978908
 30
0.0
 11
-636.8460784087309
 21
205.9053955078127
 31
0.0
  0
LINE
  5
68
330
1F
100
AcDbEntity
  8
0-0
  6
Continuous
 62
     3
370
     9
100
AcDbLine
 10
-638.8461097511085
 20
205.9053955078127
 30
0.0
 11
-636.8460784087309
 21
205.9053955078127
 31
0.0
  0
LINE
  5
69
330
1F
100
AcDbEntity
  8
0-0
  6
Continuous
 62
     3
370
     9
100
AcDbLine
 10
-638.8461097511085
 20
80.90542849978908
 30
0.0
 11
-638.8461097511085
 21
205.9053955078127
 31
0.0
  0
LINE
  5
6A
330
1F
100
AcDbEntity
  8
0-0
  6
Continuous
 62
     3
370
     9
100
AcDbLine
 10
-634.3460949047192
 20
208.4053790118245
 30
0.0
 11
-636.8460784087309
 21
205.9053955078127
 31
0.0
  0
LINE
  5
6B
330
1F
100
AcDbEntity
  8
0-0
  6
Continuous
 62
     3
370
     9
100
AcDbLine
 10
-641.346068511138
 20
208.4053790118245
 30
0.0
 11
-638.8461097511085
 21
205.9053955078127
 31
0.0
  0
LINE
  5
6C
330
1F
100
AcDbEntity
  8
0-0
  6
Continuous
 62
     3
370
     9
100
AcDbLine
 10
-519.346086656725
 20
78.4054449957772
 30
0.0
 11
-519.346086656725
 21
208.4053790118245
 31
0.0
  0
LINE
  5
6D
330
1F
100
AcDbEntity
  8
0-0
  6
Continuous
 62
     3
370
     9
100
AcDbLine
 10
-526.3460850071262
 20
208.4053790118245
 30
0.0
 11
-519.346086656725
 21
208.4053790118245
 31
0.0
  0
LINE
  5
6E
330
1F
100
AcDbEntity
  8
0-0
  6
Continuous
 62
     3
370
     9
100
AcDbLine
 10
-526.3460850071262
 20
78.4054449957772
 30
0.0
 11
-526.3460850071262
 21
208.4053790118245
 31
0.0
  0
LINE
  5
6F
330
1F
100
AcDbEntity
  8
0-0
  6
Continuous
 62
     3
370
     9
100
AcDbLine
 10
-521.8460701607369
 20
80.90542849978908
 30
0.0
 11
-521.8460701607369
 21
205.9053955078127
 31
0.0
  0
LINE
  5
70
330
1F
100
AcDbEntity
  8
0-0
  6
Continuous
 62
     3
370
     9
100
AcDbLine
 10
-523.8461015031144
 20
205.9053955078127
 30
0.0
 11
-521.8460701607369
 21
205.9053955078127
 31
0.0
  0
LINE
  5
71
330
1F
100
AcDbEntity
  8
0-0
  6
Continuous
 62
     3
370
     9
100
AcDbLine
 10
-523.8461015031144
 20
80.90542849978908
 30
0.0
 11
-523.8461015031144
 21
205.9053955078127
 31
0.0
  0
LINE
  5
72
330
1F
100
AcDbEntity
  8
0-0
  6
Continuous
 62
     3
370
     9
100
AcDbLine
 10
-519.346086656725
 20
208.4053790118245
 30
0.0
 11
-521.8460701607369
 21
205.9053955078127
 31
0.0
  0
LINE
  5
73
330
1F
100
AcDbEntity
  8
0-0
  6
Continuous
 62
     3
370
     9
100
AcDbLine
 10
-526.3460850071262
 20
208.4053790118245
 30
0.0
 11
-523.8461015031144
 21
205.9053955078127
 31
0.0
  0
LINE
  5
74
330
1F
100
AcDbEntity
  8
0-0
  6
Continuous
 62
     3
370
     9
100
AcDbLine
 10
-411.3460520151499
 20
78.4054449957772
 30
0.0
 11
-411.3460520151499
 21
208.4053790118245
 31
0.0
  0
LINE
  5
75
330
1F
100
AcDbEntity
  8
0-0
  6
Continuous
 62
     3
370
     9
100
AcDbLine
 10
-408.8461179991026
 20
80.90542849978908
 30
0.0
 11
-408.8461179991026
 21
205.9053955078127
 31
0.0
  0
LINE
  5
76
330
1F
100
AcDbEntity
  8
0-0
  6
Continuous
 62
     3
370
     9
100
AcDbLine
 10
-411.3460520151499
 20
208.4053790118245
 30
0.0
 11
-408.8461179991026
 21
205.9053955078127
 31
0.0
  0
LINE
  5
77
330
1F
100
AcDbEntity
  8
0-0
  6
Continuous
 62
     3
370
     9
100
AcDbLine
 10
-707.3461377942884
 20
32.40539220861501
 30
0.0
 11
-707.3461377942884
 21
254.4054317989867
 31
0.0
  0
LINE
  5
78
330
1F
100
AcDbEntity
  8
0-0
  6
Continuous
 62
     3
370
     9
100
AcDbLine
 10
-703.3461369694891
 20
32.40539220861501
 30
0.0
 11
-703.3461369694891
 21
254.4054317989867
 31
0.0
  0
LINE
  5
79
330
1F
100
AcDbEntity
  8
0-0
  6
Continuous
 62
     3
370
     9
100
AcDbLine
 10
-695.7568977974556
 20
226.8858675570103
 30
0.0
 11
-695.7568977974556
 21
59.92495645059137
 31
0.0
  0
LINE
  5
7A
330
1F
100
AcDbEntity
  8
0-0
  6
Continuous
 62
     3
370
     9
100
AcDbLine
 10
-701.8461072767103
 20
139.4053988070103
 30
0.0
 11
-701.8461072767103
 21
147.4054252005914
 31
0.0
  0
LINE
  5
7B
330
1F
100
AcDbEntity
  8
0-0
  6
Continuous
 62
     3
370
     9
100
AcDbLine
 10
-697.8460940799197
 20
139.4053988070103
 30
0.0
 11
-697.8460940799197
 21
147.4054252005914
 31
0.0
  0
LINE
  5
7C
330
1F
100
AcDbEntity
  8
0-0
  6
Continuous
 62
     3
370
     9
100
AcDbLine
 10
-703.3461369694891
 20
147.4054252005914
 30
0.0
 11
-697.8460940799197
 21
147.4054252005914
 31
0.0
  0
LINE
  5
7D
330
1F
100
AcDbEntity
  8
0-0
  6
Continuous
 62
     3
370
     9
100
AcDbLine
 10
-700.3359325512035
 20
149.4053823110221
 30
0.0
 11
-699.3359045080236
 21
148.9053559174411
 31
0.0
  0
LINE
  5
7E
330
1F
100
AcDbEntity
  8
0-0
  6
Continuous
 62
     3
370
     9
100
AcDbLine
 10
-699.3359045080236
 20
148.9053559174411
 30
0.0
 11
-696.3282982078758
 21
148.9053559174411
 31
0.0
  0
LINE
  5
7F
330
1F
100
AcDbEntity
  8
0-0
  6
Continuous
 62
     3
370
     9
100
AcDbLine
 10
-696.3282982078758
 20
148.9053559174411
 30
0.0
 11
-699.3359045080236
 21
149.4053823110221
 31
0.0
  0
LINE
  5
80
330
1F
100
AcDbEntity
  8
0-0
  6
Continuous
 62
     3
370
     9
100
AcDbLine
 10
-699.3359045080236
 20
149.4053823110221
 30
0.0
 11
-700.3359325512035
 21
149.4053823110221
 31
0.0
  0
LINE
  5
81
330
1F
100
AcDbEntity
  8
0-0
  6
Continuous
 62
     3
370
     9
100
AcDbLine
 10
-696.3282982078758
 20
137.9054680901606
 30
0.0
 11
-696.3282982078758
 21
148.9053559174411
 31
0.0
  0
LINE
  5
82
330
1F
100
AcDbEntity
  8
0-0
  6
Continuous
 62
     3
370
     9
100
AcDbLine
 10
-700.3359325512035
 20
149.4053823110221
 30
0.0
 11
-700.3359325512035
 21
147.4054252005914
 31
0.0
  0
LINE
  5
83
330
1F
100
AcDbEntity
  8
0-0
  6
Continuous
 62
     3
370
     9
100
AcDbLine
 10
-697.3283138790646
 20
227.5358424831082
 30
0.0
 11
-697.3283138790646
 21
149.0715859902873
 31
0.0
  0
LINE
  5
84
330
1F
100
AcDbEntity
  8
0-0
  6
Continuous
 62
     3
370
     9
100
AcDbLine
 10
-431.559213174356
 20
-276.5946869721282
 30
0.0
 11
-384.1329172495249
 21
-276.5946869721282
 31
0.0
  0
LINE
  5
85
330
1F
100
AcDbEntity
  8
0-0
  6
Continuous
 62
     3
370
     9
100
AcDbLine
 10
-566.5592131743559
 20
-276.5946869721282
 30
0.0
 11
-519.1329172495249
 21
-276.5946869721282
 31
0.0
  0
LINE
  5
86
330
1F
100
AcDbEntity
  8
0-0
  6
Continuous
 62
     3
370
     9
100
AcDbLine
 10
-699.9494191762564
 20
-276.5946869721282
 30
0.0
 11
-652.6329370447107
 21
-276.5946869721282
 31
0.0
  0
LINE
  5
87
330
1F
100
AcDbEntity
  8
0-0
  6
Continuous
 62
     3
370
     9
100
AcDbLine
 10
-701.445588807802
 20
-275.2015017947633
 30
0.0
 11
-704.2032066551415
 21
-236.5947529560809
 31
0.0
  0
LINE
  5
88
330
1F
100
AcDbEntity
  8
0-0
  6
Continuous
 62
     3
370
     9
100
AcDbLine
 10
-649.7374457281988
 20
-266.1384739231418
 30
0.0
 11
-651.1504260913746
 21
-275.3227473078546
 31
0.0
  0
LINE
  5
89
330
1F
100
AcDbEntity
  8
0-0
  6
Continuous
 62
     3
370
     9
100
AcDbLine
 10
-572.4198253734692
 20
-263.5946935705235
 30
0.0
 11
-646.7723743335621
 21
-263.5946935705235
 31
0.0
  0
LINE
  5
8A
330
1F
100
AcDbEntity
  8
0-0
  6
Continuous
 62
     3
370
     9
100
AcDbLine
 10
-569.4547044908678
 20
-266.1384739231418
 30
0.0
 11
-568.0417736156567
 21
-275.3227473078546
 31
0.0
  0
LINE
  5
8B
330
1F
100
AcDbEntity
  8
0-0
  6
Continuous
 62
     3
370
     9
100
AcDbLine
 10
-516.2374259330131
 20
-266.1384739231418
 30
0.0
 11
-517.6503568082242
 21
-275.3227473078546
 31
0.0
  0
LINE
  5
8C
330
1F
100
AcDbEntity
  8
0-0
  6
Continuous
 62
     3
370
     9
100
AcDbLine
 10
-437.4198748614336
 20
-263.5946935705235
 30
0.0
 11
-513.2723050504117
 21
-263.5946935705235
 31
0.0
  0
LINE
  5
8D
330
1F
100
AcDbEntity
  8
0-0
  6
Continuous
 62
     3
370
     9
100
AcDbLine
 10
-434.4547539788323
 20
-266.1384739231418
 30
0.0
 11
-433.0417736156567
 21
-275.3227473078546
 31
0.0
  0
LINE
  5
8E
330
1F
100
AcDbEntity
  8
0-0
  6
Continuous
 62
     3
370
     9
100
AcDbLine
 10
-702.8537688384184
 20
-260.2837507918073
 30
0.0
 11
-706.9964063489759
 21
-236.5947529560809
 31
0.0
  0
LINE
  5
8F
330
1F
100
AcDbEntity
  8
0-0
  6
Continuous
 62
     3
370
     9
100
AcDbLine
 10
-409.8460718103357
 20
-256.5947199641046
 30
0.0
 11
-409.8460718103357
 21
-261.5946869721282
 31
0.0
  0
LINE
  5
90
330
1F
100
AcDbEntity
  8
0-0
  6
Continuous
 62
     3
370
     9
100
AcDbLine
 10
-410.8461245974979
 20
-256.5947199641046
 30
0.0
 11
-410.8461245974979
 21
-260.5947331608951
 31
0.0
  0
LINE
  5
91
330
1F
100
AcDbEntity
  8
0-0
  6
Continuous
 62
     3
370
     9
100
AcDbLine
 10
-684.8460883063238
 20
-251.3947226034627
 30
0.0
 11
-683.3710995235958
 21
-252.9946684966214
 31
0.0
  0
LINE
  5
92
330
1F
100
AcDbEntity
  8
0-0
  6
Continuous
 62
     3
370
     9
100
AcDbLine
 10
-680.6085823677681
 20
-251.3947226034627
 30
0.0
 11
-680.6085823677681
 21
-256.5947199641046
 31
0.0
  0
LINE
  5
93
330
1F
100
AcDbEntity
  8
0-0
  6
Continuous
 62
     3
370
     9
100
AcDbLine
 10
-683.3710995235958
 20
-252.9946684966214
 30
0.0
 11
-683.3710995235958
 21
-256.5947199641046
 31
0.0
  0
LINE
  5
94
330
1F
100
AcDbEntity
  8
0-0
  6
Continuous
 62
     3
370
     9
100
AcDbLine
 10
-680.8461245974978
 20
-260.5947331608951
 30
0.0
 11
-679.8460718103357
 21
-261.5946869721282
 31
0.0
  0
LINE
  5
95
330
1F
100
AcDbEntity
  8
0-0
  6
Continuous
 62
     3
370
     9
100
AcDbLine
 10
-679.8460718103357
 20
-261.5946869721282
 30
0.0
 11
-675.8460586135451
 21
-261.5946869721282
 31
0.0
  0
LINE
  5
96
330
1F
100
AcDbEntity
  8
0-0
  6
Continuous
 62
     3
370
     9
100
AcDbLine
 10
-680.8461245974978
 20
-260.5947331608951
 30
0.0
 11
-674.846005826383
 21
-260.5947331608951
 31
0.0
  0
LINE
  5
97
330
1F
100
AcDbEntity
  8
0-0
  6
Continuous
 62
     3
370
     9
100
AcDbLine
 10
-683.3710995235958
 20
-256.5947199641046
 30
0.0
 11
-672.321030900285
 21
-256.5947199641046
 31
0.0
  0
LINE
  5
98
330
1F
100
AcDbEntity
  8
0-0
  6
Continuous
 62
     3
370
     9
100
AcDbLine
 10
-684.8460883063238
 20
-251.3947226034627
 30
0.0
 11
-670.8460916055216
 21
-251.3947226034627
 31
0.0
  0
LINE
  5
99
330
1F
100
AcDbEntity
  8
0-0
  6
Continuous
 62
     3
370
     9
100
AcDbLine
 10
-684.8460883063238
 20
-250.5947001689187
 30
0.0
 11
-684.8460883063238
 21
-251.3947226034627
 31
0.0
  0
LINE
  5
9A
330
1F
100
AcDbEntity
  8
0-0
  6
Continuous
 62
     3
370
     9
100
AcDbLine
 10
-687.0218761547192
 20
-250.5947001689187
 30
0.0
 11
-668.6702542691618
 21
-250.5947001689187
 31
0.0
  0
LINE
  5
9B
330
1F
100
AcDbEntity
  8
0-0
  6
Continuous
 62
     3
370
     9
100
AcDbLine
 10
-679.8460718103357
 20
-256.5947199641046
 30
0.0
 11
-679.8460718103357
 21
-261.5946869721282
 31
0.0
  0
LINE
  5
9C
330
1F
100
AcDbEntity
  8
0-0
  6
Continuous
 62
     3
370
     9
100
AcDbLine
 10
-680.8461245974978
 20
-256.5947199641046
 30
0.0
 11
-680.8461245974978
 21
-260.5947331608951
 31
0.0
  0
LINE
  5
9D
330
1F
100
AcDbEntity
  8
0-0
  6
Continuous
 62
     3
370
     9
100
AcDbLine
 10
-670.8460916055216
 20
-251.3947226034627
 30
0.0
 11
-672.321030900285
 21
-252.9946684966214
 31
0.0
  0
LINE
  5
9E
330
1F
100
AcDbEntity
  8
0-0
  6
Continuous
 62
     3
370
     9
100
AcDbLine
 10
-675.0835480561127
 20
-251.3947226034627
 30
0.0
 11
-675.0835480561127
 21
-256.5947199641046
 31
0.0
  0
LINE
  5
9F
330
1F
100
AcDbEntity
  8
0-0
  6
Continuous
 62
     3
370
     9
100
AcDbLine
 10
-672.321030900285
 20
-252.9946684966214
 30
0.0
 11
-672.321030900285
 21
-256.5947199641046
 31
0.0
  0
LINE
  5
A0
330
1F
100
AcDbEntity
  8
0-0
  6
Continuous
 62
     3
370
     9
100
AcDbLine
 10
-674.846005826383
 20
-260.5947331608951
 30
0.0
 11
-675.8460586135451
 21
-261.5946869721282
 31
0.0
  0
LINE
  5
A1
330
1F
100
AcDbEntity
  8
0-0
  6
Continuous
 62
     3
370
     9
100
AcDbLine
 10
-670.8460916055216
 20
-250.5947001689187
 30
0.0
 11
-670.8460916055216
 21
-251.3947226034627
 31
0.0
  0
LINE
  5
A2
330
1F
100
AcDbEntity
  8
0-0
  6
Continuous
 62
     3
370
     9
100
AcDbLine
 10
-675.8460586135451
 20
-256.5947199641046
 30
0.0
 11
-675.8460586135451
 21
-261.5946869721282
 31
0.0
  0
LINE
  5
A3
330
1F
100
AcDbEntity
  8
0-0
  6
Continuous
 62
     3
370
     9
100
AcDbLine
 10
-674.846005826383
 20
-256.5947199641046
 30
0.0
 11
-674.846005826383
 21
-260.5947331608951
 31
0.0
  0
LINE
  5
A4
330
1F
100
AcDbEntity
  8
0-0
  6
Continuous
 62
     3
370
     9
100
AcDbLine
 10
-690.3460817079286
 20
-231.5946869721282
 30
0.0
 11
-690.3460817079286
 21
-236.5947529560809
 31
0.0
  0
LINE
  5
A5
330
1F
100
AcDbEntity
  8
0-0
  6
Continuous
 62
     3
370
     9
100
AcDbLine
 10
-665.3460982039168
 20
-231.5946869721282
 30
0.0
 11
-665.3460982039168
 21
-236.5947529560809
 31
0.0
  0
LINE
  5
A6
330
1F
100
AcDbEntity
  8
0-0
  6
Continuous
 62
     3
370
     9
100
AcDbLine
 10
-555.3461311958931
 20
-231.5946869721282
 30
0.0
 11
-555.3461311958931
 21
-236.5947529560809
 31
0.0
  0
LINE
  5
A7
330
1F
100
AcDbEntity
  8
0-0
  6
Continuous
 62
     3
370
     9
100
AcDbLine
 10
-530.3460982039168
 20
-231.5946869721282
 30
0.0
 11
-530.3460982039168
 21
-236.5947529560809
 31
0.0
  0
LINE
  5
A8
330
1F
100
AcDbEntity
  8
0-0
  6
Continuous
 62
     3
370
     9
100
AcDbLine
 10
-420.3461311958931
 20
-231.5946869721282
 30
0.0
 11
-420.3461311958931
 21
-236.5947529560809
 31
0.0
  0
LINE
  5
A9
330
1F
100
AcDbEntity
  8
0-0
  6
Continuous
 62
     3
370
     9
100
AcDbLine
 10
-418.5103256637985
 20
-249.2806957347971
 30
0.0
 11
-420.0960685111381
 21
-236.5947529560809
 31
0.0
  0
LINE
  5
AA
330
1F
100
AcDbEntity
  8
0-0
  6
Continuous
 62
     3
370
     9
100
AcDbLine
 10
-688.5103256637985
 20
-249.2806957347971
 30
0.0
 11
-690.096068511138
 21
-236.5947529560809
 31
0.0
  0
LINE
  5
AB
330
1F
100
AcDbEntity
  8
0-0
  6
Continuous
 62
     3
370
     9
100
AcDbLine
 10
-667.1818047600823
 20
-249.2806957347971
 30
0.0
 11
-665.5961114007073
 21
-236.5947529560809
 31
0.0
  0
LINE
  5
AC
330
1F
100
AcDbEntity
  8
0-0
  6
Continuous
 62
     3
370
     9
100
AcDbLine
 10
-545.7922322041279
 20
-250.5947001689187
 30
0.0
 11
-539.8998982197529
 21
-250.5947001689187
 31
0.0
  0
LINE
  5
AD
330
1F
100
AcDbEntity
  8
0-0
  6
Continuous
 62
     3
370
     9
100
AcDbLine
 10
-547.2776134594067
 20
-249.3035591744086
 30
0.0
 11
-549.0648218103357
 21
-236.5947529560809
 31
0.0
  0
LINE
  5
AE
330
1F
100
AcDbEntity
  8
0-0
  6
Continuous
 62
     3
370
     9
100
AcDbLine
 10
-538.4145664524387
 20
-249.3035591744086
 30
0.0
 11
-536.6273581015097
 21
-236.5947529560809
 31
0.0
  0
LINE
  5
AF
330
1F
100
AcDbEntity
  8
0-0
  6
Continuous
 62
     3
370
     9
100
AcDbLine
 10
-408.8461179991026
 20
205.9053955078127
 30
0.0
 11
-406.8460619127428
 21
205.9053955078127
 31
0.0
  0
LINE
  5
B0
330
1F
100
AcDbEntity
  8
0-0
  6
Continuous
 62
     3
370
     9
100
AcDbLine
 10
-411.3460520151499
 20
208.4053790118245
 30
0.0
 11
-404.346078408731
 21
208.4053790118245
 31
0.0
  0
LINE
  5
B1
330
1F
100
AcDbEntity
  8
0-0
  6
Continuous
 62
     3
370
     9
100
AcDbLine
 10
-692.756912643845
 20
229.8858279666387
 30
0.0
 11
-122.9352425240181
 21
229.8858279666387
 31
0.0
  0
LINE
  5
B2
330
1F
100
AcDbEntity
  8
0-0
  6
Continuous
 62
     3
370
     9
100
AcDbLine
 10
-693.3283006822741
 20
231.5358556798989
 30
0.0
 11
-122.3638544855891
 21
231.5358556798989
 31
0.0
  0
LINE
  5
B3
330
1F
100
AcDbEntity
  8
0-0
  6
Continuous
 62
     3
370
     9
100
AcDbLine
 10
-703.3461369694891
 20
235.4054186021962
 30
0.0
 11
-112.3460553143475
 21
235.4054186021962
 31
0.0
  0
LINE
  5
B4
330
1F
100
AcDbEntity
  8
0-0
  6
Continuous
 62
     3
370
     9
100
AcDbLine
 10
-703.3461369694891
 20
239.4054317989867
 30
0.0
 11
-112.3460553143475
 21
239.4054317989867
 31
0.0
  0
LINE
  5
B5
330
1F
100
AcDbEntity
  8
0-0
  6
Continuous
 62
     3
370
     9
100
AcDbLine
 10
-703.3461369694891
 20
250.4054186021962
 30
0.0
 11
-112.3460553143475
 21
250.4054186021962
 31
0.0
  0
LINE
  5
B6
330
1F
100
AcDbEntity
  8
0-0
  6
Continuous
 62
     3
370
     9
100
AcDbLine
 10
-707.3461377942884
 20
254.4054317989867
 30
0.0
 11
-108.3459926295924
 21
254.4054317989867
 31
0.0
  0
LINE
  5
B7
330
1F
100
AcDbEntity
  8
0-0
  6
Continuous
 62
     3
370
     9
100
AcDbLine
 10
-690.3460817079286
 20
263.4054120038008
 30
0.0
 11
-665.3460734599345
 21
263.4054120038008
 31
0.0
  0
LINE
  5
B8
330
1F
100
AcDbEntity
  8
0-0
  6
Continuous
 62
     3
370
     9
100
AcDbLine
 10
-665.3460734599345
 20
263.4054120038008
 30
0.0
 11
-665.3460734599345
 21
254.4054317989867
 31
0.0
  0
LINE
  5
B9
330
1F
100
AcDbEntity
  8
0-0
  6
Continuous
 62
     3
370
     9
100
AcDbLine
 10
-665.3460734599345
 20
250.4054186021962
 30
0.0
 11
-665.3460734599345
 21
239.4054317989867
 31
0.0
  0
LINE
  5
BA
330
1F
100
AcDbEntity
  8
0-0
  6
Continuous
 62
     3
370
     9
100
AcDbLine
 10
-690.3460817079286
 20
263.4054120038008
 30
0.0
 11
-690.3460817079286
 21
254.4054317989867
 31
0.0
  0
LINE
  5
BB
330
1F
100
AcDbEntity
  8
0-0
  6
Continuous
 62
     3
370
     9
100
AcDbLine
 10
-690.3460817079286
 20
250.4054186021962
 30
0.0
 11
-690.3460817079286
 21
239.4054317989867
 31
0.0
  0
LINE
  5
BC
330
1F
100
AcDbEntity
  8
0-0
  6
Continuous
 62
     3
370
     9
100
AcDbLine
 10
-555.3461064519109
 20
263.4054120038008
 30
0.0
 11
-530.3460487159523
 21
263.4054120038008
 31
0.0
  0
LINE
  5
BD
330
1F
100
AcDbEntity
  8
0-0
  6
Continuous
 62
     3
370
     9
100
AcDbLine
 10
-530.3460487159523
 20
263.4054120038008
 30
0.0
 11
-530.3460487159523
 21
254.4054317989867
 31
0.0
  0
LINE
  5
BE
330
1F
100
AcDbEntity
  8
0-0
  6
Continuous
 62
     3
370
     9
100
AcDbLine
 10
-530.3460487159523
 20
250.4054186021962
 30
0.0
 11
-530.3460487159523
 21
239.4054317989867
 31
0.0
  0
LINE
  5
BF
330
1F
100
AcDbEntity
  8
0-0
  6
Continuous
 62
     3
370
     9
100
AcDbLine
 10
-555.3461064519109
 20
263.4054120038008
 30
0.0
 11
-555.3461064519109
 21
254.4054317989867
 31
0.0
  0
LINE
  5
C0
330
1F
100
AcDbEntity
  8
0-0
  6
Continuous
 62
     3
370
     9
100
AcDbLine
 10
-555.3461064519109
 20
250.4054186021962
 30
0.0
 11
-555.3461064519109
 21
239.4054317989867
 31
0.0
  0
LINE
  5
C1
330
1F
100
AcDbEntity
  8
0-0
  6
Continuous
 62
     3
370
     9
100
AcDbLine
 10
-420.3461311958931
 20
263.4054120038008
 30
0.0
 11
-420.3461311958931
 21
254.4054317989867
 31
0.0
  0
LINE
  5
C2
330
1F
100
AcDbEntity
  8
0-0
  6
Continuous
 62
     3
370
     9
100
AcDbLine
 10
-420.3461311958931
 20
250.4054186021962
 30
0.0
 11
-420.3461311958931
 21
239.4054317989867
 31
0.0
  0
LINE
  5
C3
330
1F
100
AcDbEntity
  8
0-0
  6
Continuous
 62
     3
370
     9
100
AcDbLine
 10
-420.3461311958931
 20
263.4054120038008
 30
0.0
 11
-395.3460982039168
 21
263.4054120038008
 31
0.0
  0
LINE
  5
C4
330
1F
100
AcDbEntity
  8
0-0
  6
Continuous
 62
     3
370
     9
100
AcDbLine
 10
-181.3460850071262
 20
78.4054449957772
 30
0.0
 11
-181.3460850071262
 21
208.4053790118245
 31
0.0
  0
LINE
  5
C5
330
1F
100
AcDbEntity
  8
0-0
  6
Continuous
 62
     3
370
     9
100
AcDbLine
 10
-174.3460619127428
 20
208.4053790118245
 30
0.0
 11
-181.3460850071262
 21
208.4053790118245
 31
0.0
  0
LINE
  5
C6
330
1F
100
AcDbEntity
  8
0-0
  6
Continuous
 62
     3
370
     9
100
AcDbLine
 10
-174.3460619127428
 20
78.4054449957772
 30
0.0
 11
-174.3460619127428
 21
208.4053790118245
 31
0.0
  0
LINE
  5
C7
330
1F
100
AcDbEntity
  8
0-0
  6
Continuous
 62
     3
370
     9
100
AcDbLine
 10
-178.846150991079
 20
80.90542849978908
 30
0.0
 11
-178.846150991079
 21
205.9053955078127
 31
0.0
  0
LINE
  5
C8
330
1F
100
AcDbEntity
  8
0-0
  6
Continuous
 62
     3
370
     9
100
AcDbLine
 10
-176.8460454167546
 20
205.9053955078127
 30
0.0
 11
-178.846150991079
 21
205.9053955078127
 31
0.0
  0
LINE
  5
C9
330
1F
100
AcDbEntity
  8
0-0
  6
Continuous
 62
     3
370
     9
100
AcDbLine
 10
-176.8460454167546
 20
80.90542849978908
 30
0.0
 11
-176.8460454167546
 21
205.9053955078127
 31
0.0
  0
LINE
  5
CA
330
1F
100
AcDbEntity
  8
0-0
  6
Continuous
 62
     3
370
     9
100
AcDbLine
 10
-181.3460850071262
 20
208.4053790118245
 30
0.0
 11
-178.846150991079
 21
205.9053955078127
 31
0.0
  0
LINE
  5
CB
330
1F
100
AcDbEntity
  8
0-0
  6
Continuous
 62
     3
370
     9
100
AcDbLine
 10
-174.3460619127428
 20
208.4053790118245
 30
0.0
 11
-176.8460454167546
 21
205.9053955078127
 31
0.0
  0
LINE
  5
CC
330
1F
100
AcDbEntity
  8
0-0
  6
Continuous
 62
     3
370
     9
100
AcDbLine
 10
-296.346068511138
 20
78.4054449957772
 30
0.0
 11
-296.346068511138
 21
208.4053790118245
 31
0.0
  0
LINE
  5
CD
330
1F
100
AcDbEntity
  8
0-0
  6
Continuous
 62
     3
370
     9
100
AcDbLine
 10
-289.3460949047192
 20
208.4053790118245
 30
0.0
 11
-296.346068511138
 21
208.4053790118245
 31
0.0
  0
LINE
  5
CE
330
1F
100
AcDbEntity
  8
0-0
  6
Continuous
 62
     3
370
     9
100
AcDbLine
 10
-289.3460949047192
 20
78.4054449957772
 30
0.0
 11
-289.3460949047192
 21
208.4053790118245
 31
0.0
  0
LINE
  5
CF
330
1F
100
AcDbEntity
  8
0-0
  6
Continuous
 62
     3
370
     9
100
AcDbLine
 10
-293.8460850071262
 20
80.90542849978908
 30
0.0
 11
-293.8460850071262
 21
205.9053955078127
 31
0.0
  0
LINE
  5
D0
330
1F
100
AcDbEntity
  8
0-0
  6
Continuous
 62
     3
370
     9
100
AcDbLine
 10
-291.8460784087309
 20
205.9053955078127
 30
0.0
 11
-293.8460850071262
 21
205.9053955078127
 31
0.0
  0
LINE
  5
D1
330
1F
100
AcDbEntity
  8
0-0
  6
Continuous
 62
     3
370
     9
100
AcDbLine
 10
-291.8460784087309
 20
80.90542849978908
 30
0.0
 11
-291.8460784087309
 21
205.9053955078127
 31
0.0
  0
LINE
  5
D2
330
1F
100
AcDbEntity
  8
0-0
  6
Continuous
 62
     3
370
     9
100
AcDbLine
 10
-296.346068511138
 20
208.4053790118245
 30
0.0
 11
-293.8460850071262
 21
205.9053955078127
 31
0.0
  0
LINE
  5
D3
330
1F
100
AcDbEntity
  8
0-0
  6
Continuous
 62
     3
370
     9
100
AcDbLine
 10
-289.3460949047192
 20
208.4053790118245
 30
0.0
 11
-291.8460784087309
 21
205.9053955078127
 31
0.0
  0
LINE
  5
D4
330
1F
100
AcDbEntity
  8
0-0
  6
Continuous
 62
     3
370
     9
100
AcDbLine
 10
-404.346078408731
 20
78.4054449957772
 30
0.0
 11
-404.346078408731
 21
208.4053790118245
 31
0.0
  0
LINE
  5
D5
330
1F
100
AcDbEntity
  8
0-0
  6
Continuous
 62
     3
370
     9
100
AcDbLine
 10
-406.8460619127428
 20
80.90542849978908
 30
0.0
 11
-406.8460619127428
 21
205.9053955078127
 31
0.0
  0
LINE
  5
D6
330
1F
100
AcDbEntity
  8
0-0
  6
Continuous
 62
     3
370
     9
100
AcDbLine
 10
-404.346078408731
 20
208.4053790118245
 30
0.0
 11
-406.8460619127428
 21
205.9053955078127
 31
0.0
  0
LINE
  5
D7
330
1F
100
AcDbEntity
  8
0-0
  6
Continuous
 62
     3
370
     9
100
AcDbLine
 10
-108.3459926295924
 20
32.40539220861501
 30
0.0
 11
-108.3459926295924
 21
254.4054317989867
 31
0.0
  0
LINE
  5
D8
330
1F
100
AcDbEntity
  8
0-0
  6
Continuous
 62
     3
370
     9
100
AcDbLine
 10
-112.3460553143475
 20
32.40539220861501
 30
0.0
 11
-112.3460553143475
 21
254.4054317989867
 31
0.0
  0
LINE
  5
D9
330
1F
100
AcDbEntity
  8
0-0
  6
Continuous
 62
     3
370
     9
100
AcDbLine
 10
-119.9352821143897
 20
226.8858675570103
 30
0.0
 11
-119.9352821143897
 21
59.92495645059137
 31
0.0
  0
LINE
  5
DA
330
1F
100
AcDbEntity
  8
0-0
  6
Continuous
 62
     3
370
     9
100
AcDbLine
 10
-113.8460850071262
 20
139.4053988070103
 30
0.0
 11
-113.8460850071262
 21
147.4054252005914
 31
0.0
  0
LINE
  5
DB
330
1F
100
AcDbEntity
  8
0-0
  6
Continuous
 62
     3
370
     9
100
AcDbLine
 10
-117.8460487159522
 20
139.4053988070103
 30
0.0
 11
-117.8460487159522
 21
147.4054252005914
 31
0.0
  0
LINE
  5
DC
330
1F
100
AcDbEntity
  8
0-0
  6
Continuous
 62
     3
370
     9
100
AcDbLine
 10
-112.3460553143475
 20
147.4054252005914
 30
0.0
 11
-117.8460487159522
 21
147.4054252005914
 31
0.0
  0
LINE
  5
DD
330
1F
100
AcDbEntity
  8
0-0
  6
Continuous
 62
     3
370
     9
100
AcDbLine
 10
-115.356259732633
 20
149.4053823110221
 30
0.0
 11
-116.3562630318306
 21
148.9053559174411
 31
0.0
  0
LINE
  5
DE
330
1F
100
AcDbEntity
  8
0-0
  6
Continuous
 62
     3
370
     9
100
AcDbLine
 10
-116.3562630318306
 20
148.9053559174411
 30
0.0
 11
-119.3638940759607
 21
148.9053559174411
 31
0.0
  0
LINE
  5
DF
330
1F
100
AcDbEntity
  8
0-0
  6
Continuous
 62
     3
370
     9
100
AcDbLine
 10
-119.3638940759607
 20
148.9053559174411
 30
0.0
 11
-116.3562630318306
 21
149.4053823110221
 31
0.0
  0
LINE
  5
E0
330
1F
100
AcDbEntity
  8
0-0
  6
Continuous
 62
     3
370
     9
100
AcDbLine
 10
-116.3562630318306
 20
149.4053823110221
 30
0.0
 11
-115.356259732633
 21
149.4053823110221
 31
0.0
  0
LINE
  5
E1
330
1F
100
AcDbEntity
  8
0-0
  6
Continuous
 62
     3
370
     9
100
AcDbLine
 10
-119.3638940759607
 20
137.9054680901606
 30
0.0
 11
-119.3638940759607
 21
148.9053559174411
 31
0.0
  0
LINE
  5
E2
330
1F
100
AcDbEntity
  8
0-0
  6
Continuous
 62
     3
370
     9
100
AcDbLine
 10
-115.356259732633
 20
149.4053823110221
 30
0.0
 11
-115.356259732633
 21
147.4054252005914
 31
0.0
  0
LINE
  5
E3
330
1F
100
AcDbEntity
  8
0-0
  6
Continuous
 62
     3
370
     9
100
AcDbLine
 10
-118.363890776763
 20
227.5358424831082
 30
0.0
 11
-118.363890776763
 21
149.0715859902873
 31
0.0
  0
LINE
  5
E4
330
1F
100
AcDbEntity
  8
0-0
  6
Continuous
 62
     3
370
     9
100
AcDbLine
 10
-125.3460487159522
 20
263.4054120038008
 30
0.0
 11
-150.3461311958931
 21
263.4054120038008
 31
0.0
  0
LINE
  5
E5
330
1F
100
AcDbEntity
  8
0-0
  6
Continuous
 62
     3
370
     9
100
AcDbLine
 10
-150.3461311958931
 20
263.4054120038008
 30
0.0
 11
-150.3461311958931
 21
254.4054317989867
 31
0.0
  0
LINE
  5
E6
330
1F
100
AcDbEntity
  8
0-0
  6
Continuous
 62
     3
370
     9
100
AcDbLine
 10
-150.3461311958931
 20
250.4054186021962
 30
0.0
 11
-150.3461311958931
 21
239.4054317989867
 31
0.0
  0
LINE
  5
E7
330
1F
100
AcDbEntity
  8
0-0
  6
Continuous
 62
     3
370
     9
100
AcDbLine
 10
-125.3460487159522
 20
263.4054120038008
 30
0.0
 11
-125.3460487159522
 21
254.4054317989867
 31
0.0
  0
LINE
  5
E8
330
1F
100
AcDbEntity
  8
0-0
  6
Continuous
 62
     3
370
     9
100
AcDbLine
 10
-125.3460487159522
 20
250.4054186021962
 30
0.0
 11
-125.3460487159522
 21
239.4054317989867
 31
0.0
  0
LINE
  5
E9
330
1F
100
AcDbEntity
  8
0-0
  6
Continuous
 62
     3
370
     9
100
AcDbLine
 10
-260.3460487159523
 20
263.4054120038008
 30
0.0
 11
-285.3461311958931
 21
263.4054120038008
 31
0.0
  0
LINE
  5
EA
330
1F
100
AcDbEntity
  8
0-0
  6
Continuous
 62
     3
370
     9
100
AcDbLine
 10
-285.3461311958931
 20
263.4054120038008
 30
0.0
 11
-285.3461311958931
 21
254.4054317989867
 31
0.0
  0
LINE
  5
EB
330
1F
100
AcDbEntity
  8
0-0
  6
Continuous
 62
     3
370
     9
100
AcDbLine
 10
-285.3461311958931
 20
250.4054186021962
 30
0.0
 11
-285.3461311958931
 21
239.4054317989867
 31
0.0
  0
LINE
  5
EC
330
1F
100
AcDbEntity
  8
0-0
  6
Continuous
 62
     3
370
     9
100
AcDbLine
 10
-260.3460487159523
 20
263.4054120038008
 30
0.0
 11
-260.3460487159523
 21
254.4054317989867
 31
0.0
  0
LINE
  5
ED
330
1F
100
AcDbEntity
  8
0-0
  6
Continuous
 62
     3
370
     9
100
AcDbLine
 10
-260.3460487159523
 20
250.4054186021962
 30
0.0
 11
-260.3460487159523
 21
239.4054317989867
 31
0.0
  0
LINE
  5
EE
330
1F
100
AcDbEntity
  8
0-0
  6
Continuous
 62
     3
370
     9
100
AcDbLine
 10
-395.3460982039168
 20
263.4054120038008
 30
0.0
 11
-395.3460982039168
 21
254.4054317989867
 31
0.0
  0
LINE
  5
EF
330
1F
100
AcDbEntity
  8
0-0
  6
Continuous
 62
     3
370
     9
100
AcDbLine
 10
-395.3460982039168
 20
250.4054186021962
 30
0.0
 11
-395.3460982039168
 21
239.4054317989867
 31
0.0
  0
LINE
  5
F0
330
1F
100
AcDbEntity
  8
0-0
  6
JWW_CENTER1
 62
     3
370
     9
100
AcDbLine
 10
-677.8460652119404
 20
-246.5946869721282
 30
0.0
 11
-677.8460652119404
 21
-265.5947001689187
 31
0.0
  0
LINE
  5
F1
330
1F
100
AcDbEntity
  8
0-0
  6
JWW_CENTER1
 62
     3
370
     9
100
AcDbLine
 10
-407.8460652119404
 20
-246.5946869721282
 30
0.0
 11
-407.8460652119404
 21
-265.5947001689187
 31
0.0
  0
LINE
  5
F2
330
1F
100
AcDbEntity
  8
0-0
  6
Continuous
 62
     3
370
     9
100
AcDbLine
 10
-641.346068511138
 20
78.4054449957772
 30
0.0
 11
-634.3460949047192
 21
78.4054449957772
 31
0.0
  0
LINE
  5
F3
330
1F
100
AcDbEntity
  8
0-0
  6
Continuous
 62
     3
370
     9
100
AcDbLine
 10
-638.8461097511085
 20
80.90542849978908
 30
0.0
 11
-636.8460784087309
 21
80.90542849978908
 31
0.0
  0
LINE
  5
F4
330
1F
100
AcDbEntity
  8
0-0
  6
Continuous
 62
     3
370
     9
100
AcDbLine
 10
-634.3460949047192
 20
78.4054449957772
 30
0.0
 11
-636.8460784087309
 21
80.90542849978908
 31
0.0
  0
LINE
  5
F5
330
1F
100
AcDbEntity
  8
0-0
  6
Continuous
 62
     3
370
     9
100
AcDbLine
 10
-641.346068511138
 20
78.4054449957772
 30
0.0
 11
-638.8461097511085
 21
80.90542849978908
 31
0.0
  0
LINE
  5
F6
330
1F
100
AcDbEntity
  8
0-0
  6
Continuous
 62
     3
370
     9
100
AcDbLine
 10
-526.3460850071262
 20
78.4054449957772
 30
0.0
 11
-519.3461114007073
 21
78.4054449957772
 31
0.0
  0
LINE
  5
F7
330
1F
100
AcDbEntity
  8
0-0
  6
Continuous
 62
     3
370
     9
100
AcDbLine
 10
-523.8461015031144
 20
80.90542849978908
 30
0.0
 11
-521.8460701607369
 21
80.90542849978908
 31
0.0
  0
LINE
  5
F8
330
1F
100
AcDbEntity
  8
0-0
  6
Continuous
 62
     3
370
     9
100
AcDbLine
 10
-519.3461114007073
 20
78.4054449957772
 30
0.0
 11
-521.8460701607369
 21
80.90542849978908
 31
0.0
  0
LINE
  5
F9
330
1F
100
AcDbEntity
  8
0-0
  6
Continuous
 62
     3
370
     9
100
AcDbLine
 10
-526.3460850071262
 20
78.4054449957772
 30
0.0
 11
-523.8461015031144
 21
80.90542849978908
 31
0.0
  0
LINE
  5
FA
330
1F
100
AcDbEntity
  8
0-0
  6
Continuous
 62
     3
370
     9
100
AcDbLine
 10
-411.3460520151499
 20
78.4054449957772
 30
0.0
 11
-408.8461179991026
 21
80.90542849978908
 31
0.0
  0
LINE
  5
FB
330
1F
100
AcDbEntity
  8
0-0
  6
Continuous
 62
     3
370
     9
100
AcDbLine
 10
-703.3461369694891
 20
139.4053988070103
 30
0.0
 11
-697.8460940799197
 21
139.4053988070103
 31
0.0
  0
LINE
  5
FC
330
1F
100
AcDbEntity
  8
0-0
  6
Continuous
 62
     3
370
     9
100
AcDbLine
 10
-700.3359325512035
 20
137.4054416965796
 30
0.0
 11
-699.3359045080236
 21
137.9054680901606
 31
0.0
  0
LINE
  5
FD
330
1F
100
AcDbEntity
  8
0-0
  6
Continuous
 62
     3
370
     9
100
AcDbLine
 10
-699.3359045080236
 20
137.9054680901606
 30
0.0
 11
-696.3282982078758
 21
137.9054680901606
 31
0.0
  0
LINE
  5
FE
330
1F
100
AcDbEntity
  8
0-0
  6
Continuous
 62
     3
370
     9
100
AcDbLine
 10
-696.3282982078758
 20
137.9054680901606
 30
0.0
 11
-699.3359045080236
 21
137.4054416965796
 31
0.0
  0
LINE
  5
FF
330
1F
100
AcDbEntity
  8
0-0
  6
Continuous
 62
     3
370
     9
100
AcDbLine
 10
-699.3359045080236
 20
137.4054416965796
 30
0.0
 11
-700.3359325512035
 21
137.4054416965796
 31
0.0
  0
LINE
  5
100
330
1F
100
AcDbEntity
  8
0-0
  6
Continuous
 62
     3
370
     9
100
AcDbLine
 10
-700.3359325512035
 20
137.4054416965796
 30
0.0
 11
-700.3359325512035
 21
139.4053988070103
 31
0.0
  0
LINE
  5
101
330
1F
100
AcDbEntity
  8
0-0
  6
Continuous
 62
     3
370
     9
100
AcDbLine
 10
-697.3283138790646
 20
59.27498152449346
 30
0.0
 11
-697.3283138790646
 21
137.7392380173144
 31
0.0
  0
LINE
  5
102
330
1F
100
AcDbEntity
  8
0-0
  6
Continuous
 62
     3
370
     9
100
AcDbLine
 10
-408.8461179991026
 20
80.90542849978908
 30
0.0
 11
-406.8460619127428
 21
80.90542849978908
 31
0.0
  0
LINE
  5
103
330
1F
100
AcDbEntity
  8
0-0
  6
Continuous
 62
     3
370
     9
100
AcDbLine
 10
-411.3460520151499
 20
78.4054449957772
 30
0.0
 11
-404.346078408731
 21
78.4054449957772
 31
0.0
  0
LINE
  5
104
330
1F
100
AcDbEntity
  8
0-0
  6
Continuous
 62
     3
370
     9
100
AcDbLine
 10
-692.756912643845
 20
56.92499604096304
 30
0.0
 11
-122.9352425240181
 21
56.92499604096304
 31
0.0
  0
LINE
  5
105
330
1F
100
AcDbEntity
  8
0-0
  6
Continuous
 62
     3
370
     9
100
AcDbLine
 10
-693.3283006822741
 20
55.27496832770282
 30
0.0
 11
-122.3638544855891
 21
55.27496832770282
 31
0.0
  0
LINE
  5
106
330
1F
100
AcDbEntity
  8
0-0
  6
Continuous
 62
     3
370
     9
100
AcDbLine
 10
-703.3461369694891
 20
51.40540540540553
 30
0.0
 11
-112.3460553143475
 21
51.40540540540553
 31
0.0
  0
LINE
  5
107
330
1F
100
AcDbEntity
  8
0-0
  6
Continuous
 62
     3
370
     9
100
AcDbLine
 10
-703.3461369694891
 20
47.40539220861501
 30
0.0
 11
-112.3460553143475
 21
47.40539220861501
 31
0.0
  0
LINE
  5
108
330
1F
100
AcDbEntity
  8
0-0
  6
Continuous
 62
     3
370
     9
100
AcDbLine
 10
-703.3461369694891
 20
36.40540540540553
 30
0.0
 11
-112.3460553143475
 21
36.40540540540553
 31
0.0
  0
LINE
  5
109
330
1F
100
AcDbEntity
  8
0-0
  6
Continuous
 62
     3
370
     9
100
AcDbLine
 10
-707.3461377942884
 20
32.40539220861501
 30
0.0
 11
-108.3459926295924
 21
32.40539220861501
 31
0.0
  0
LINE
  5
10A
330
1F
100
AcDbEntity
  8
0-0
  6
Continuous
 62
     3
370
     9
100
AcDbLine
 10
-690.3460817079286
 20
23.40541200380085
 30
0.0
 11
-665.3460734599345
 21
23.40541200380085
 31
0.0
  0
LINE
  5
10B
330
1F
100
AcDbEntity
  8
0-0
  6
Continuous
 62
     3
370
     9
100
AcDbLine
 10
-665.3460734599345
 20
23.40541200380085
 30
0.0
 11
-665.3460734599345
 21
32.40539220861501
 31
0.0
  0
LINE
  5
10C
330
1F
100
AcDbEntity
  8
0-0
  6
Continuous
 62
     3
370
     9
100
AcDbLine
 10
-665.3460734599345
 20
36.40540540540553
 30
0.0
 11
-665.3460734599345
 21
47.40539220861501
 31
0.0
  0
LINE
  5
10D
330
1F
100
AcDbEntity
  8
0-0
  6
Continuous
 62
     3
370
     9
100
AcDbLine
 10
-690.3460817079286
 20
23.40541200380085
 30
0.0
 11
-690.3460817079286
 21
32.40539220861501
 31
0.0
  0
LINE
  5
10E
330
1F
100
AcDbEntity
  8
0-0
  6
Continuous
 62
     3
370
     9
100
AcDbLine
 10
-690.3460817079286
 20
36.40540540540553
 30
0.0
 11
-690.3460817079286
 21
47.40539220861501
 31
0.0
  0
LINE
  5
10F
330
1F
100
AcDbEntity
  8
0-0
  6
Continuous
 62
     3
370
     9
100
AcDbLine
 10
-555.3461064519109
 20
23.40541200380085
 30
0.0
 11
-530.3460487159523
 21
23.40541200380085
 31
0.0
  0
LINE
  5
110
330
1F
100
AcDbEntity
  8
0-0
  6
Continuous
 62
     3
370
     9
100
AcDbLine
 10
-530.3460487159523
 20
23.40541200380085
 30
0.0
 11
-530.3460487159523
 21
32.40539220861501
 31
0.0
  0
LINE
  5
111
330
1F
100
AcDbEntity
  8
0-0
  6
Continuous
 62
     3
370
     9
100
AcDbLine
 10
-530.3460487159523
 20
36.40540540540553
 30
0.0
 11
-530.3460487159523
 21
47.40539220861501
 31
0.0
  0
LINE
  5
112
330
1F
100
AcDbEntity
  8
0-0
  6
Continuous
 62
     3
370
     9
100
AcDbLine
 10
-555.3461064519109
 20
23.40541200380085
 30
0.0
 11
-555.3461064519109
 21
32.40539220861501
 31
0.0
  0
LINE
  5
113
330
1F
100
AcDbEntity
  8
0-0
  6
Continuous
 62
     3
370
     9
100
AcDbLine
 10
-555.3461064519109
 20
36.40540540540553
 30
0.0
 11
-555.3461064519109
 21
47.40539220861501
 31
0.0
  0
LINE
  5
114
330
1F
100
AcDbEntity
  8
0-0
  6
Continuous
 62
     3
370
     9
100
AcDbLine
 10
-420.3461311958931
 20
23.40541200380085
 30
0.0
 11
-420.3461311958931
 21
32.40539220861501
 31
0.0
  0
LINE
  5
115
330
1F
100
AcDbEntity
  8
0-0
  6
Continuous
 62
     3
370
     9
100
AcDbLine
 10
-420.3461311958931
 20
36.40540540540553
 30
0.0
 11
-420.3461311958931
 21
47.40539220861501
 31
0.0
  0
LINE
  5
116
330
1F
100
AcDbEntity
  8
0-0
  6
Continuous
 62
     3
370
     9
100
AcDbLine
 10
-420.3461311958931
 20
23.40541200380085
 30
0.0
 11
-395.3460982039168
 21
23.40541200380085
 31
0.0
  0
LINE
  5
117
330
1F
100
AcDbEntity
  8
0-0
  6
Continuous
 62
     3
370
     9
100
AcDbLine
 10
-174.3460619127428
 20
78.4054449957772
 30
0.0
 11
-181.3460850071262
 21
78.4054449957772
 31
0.0
  0
LINE
  5
118
330
1F
100
AcDbEntity
  8
0-0
  6
Continuous
 62
     3
370
     9
100
AcDbLine
 10
-176.8460454167546
 20
80.90542849978908
 30
0.0
 11
-178.846150991079
 21
80.90542849978908
 31
0.0
  0
LINE
  5
119
330
1F
100
AcDbEntity
  8
0-0
  6
Continuous
 62
     3
370
     9
100
AcDbLine
 10
-181.3460850071262
 20
78.4054449957772
 30
0.0
 11
-178.846150991079
 21
80.90542849978908
 31
0.0
  0
LINE
  5
11A
330
1F
100
AcDbEntity
  8
0-0
  6
Continuous
 62
     3
370
     9
100
AcDbLine
 10
-174.3460619127428
 20
78.4054449957772
 30
0.0
 11
-176.8460454167546
 21
80.90542849978908
 31
0.0
  0
LINE
  5
11B
330
1F
100
AcDbEntity
  8
0-0
  6
Continuous
 62
     3
370
     9
100
AcDbLine
 10
-289.3460949047192
 20
78.4054449957772
 30
0.0
 11
-296.346068511138
 21
78.4054449957772
 31
0.0
  0
LINE
  5
11C
330
1F
100
AcDbEntity
  8
0-0
  6
Continuous
 62
     3
370
     9
100
AcDbLine
 10
-291.8460784087309
 20
80.90542849978908
 30
0.0
 11
-293.8460850071262
 21
80.90542849978908
 31
0.0
  0
LINE
  5
11D
330
1F
100
AcDbEntity
  8
0-0
  6
Continuous
 62
     3
370
     9
100
AcDbLine
 10
-296.346068511138
 20
78.4054449957772
 30
0.0
 11
-293.8460850071262
 21
80.90542849978908
 31
0.0
  0
LINE
  5
11E
330
1F
100
AcDbEntity
  8
0-0
  6
Continuous
 62
     3
370
     9
100
AcDbLine
 10
-289.3460949047192
 20
78.4054449957772
 30
0.0
 11
-291.8460784087309
 21
80.90542849978908
 31
0.0
  0
LINE
  5
11F
330
1F
100
AcDbEntity
  8
0-0
  6
Continuous
 62
     3
370
     9
100
AcDbLine
 10
-404.346078408731
 20
78.4054449957772
 30
0.0
 11
-406.8460619127428
 21
80.90542849978908
 31
0.0
  0
LINE
  5
120
330
1F
100
AcDbEntity
  8
0-0
  6
Continuous
 62
     3
370
     9
100
AcDbLine
 10
-112.3460553143475
 20
139.4053988070103
 30
0.0
 11
-117.8460487159522
 21
139.4053988070103
 31
0.0
  0
LINE
  5
121
330
1F
100
AcDbEntity
  8
0-0
  6
Continuous
 62
     3
370
     9
100
AcDbLine
 10
-115.356259732633
 20
137.4054416965796
 30
0.0
 11
-116.3562630318306
 21
137.9054680901606
 31
0.0
  0
LINE
  5
122
330
1F
100
AcDbEntity
  8
0-0
  6
Continuous
 62
     3
370
     9
100
AcDbLine
 10
-116.3562630318306
 20
137.9054680901606
 30
0.0
 11
-119.3638940759607
 21
137.9054680901606
 31
0.0
  0
LINE
  5
123
330
1F
100
AcDbEntity
  8
0-0
  6
Continuous
 62
     3
370
     9
100
AcDbLine
 10
-119.3638940759607
 20
137.9054680901606
 30
0.0
 11
-116.3562630318306
 21
137.4054416965796
 31
0.0
  0
LINE
  5
124
330
1F
100
AcDbEntity
  8
0-0
  6
Continuous
 62
     3
370
     9
100
AcDbLine
 10
-116.3562630318306
 20
137.4054416965796
 30
0.0
 11
-115.356259732633
 21
137.4054416965796
 31
0.0
  0
LINE
  5
125
330
1F
100
AcDbEntity
  8
0-0
  6
Continuous
 62
     3
370
     9
100
AcDbLine
 10
-115.356259732633
 20
137.4054416965796
 30
0.0
 11
-115.356259732633
 21
139.4053988070103
 31
0.0
  0
LINE
  5
126
330
1F
100
AcDbEntity
  8
0-0
  6
Continuous
 62
     3
370
     9
100
AcDbLine
 10
-118.363890776763
 20
59.27498152449346
 30
0.0
 11
-118.363890776763
 21
137.7392380173144
 31
0.0
  0
LINE
  5
127
330
1F
100
AcDbEntity
  8
0-0
  6
Continuous
 62
     3
370
     9
100
AcDbLine
 10
-125.3460487159522
 20
23.40541200380085
 30
0.0
 11
-150.3461311958931
 21
23.40541200380085
 31
0.0
  0
LINE
  5
128
330
1F
100
AcDbEntity
  8
0-0
  6
Continuous
 62
     3
370
     9
100
AcDbLine
 10
-150.3461311958931
 20
23.40541200380085
 30
0.0
 11
-150.3461311958931
 21
32.40539220861501
 31
0.0
  0
LINE
  5
129
330
1F
100
AcDbEntity
  8
0-0
  6
Continuous
 62
     3
370
     9
100
AcDbLine
 10
-150.3461311958931
 20
36.40540540540553
 30
0.0
 11
-150.3461311958931
 21
47.40539220861501
 31
0.0
  0
LINE
  5
12A
330
1F
100
AcDbEntity
  8
0-0
  6
Continuous
 62
     3
370
     9
100
AcDbLine
 10
-125.3460487159522
 20
23.40541200380085
 30
0.0
 11
-125.3460487159522
 21
32.40539220861501
 31
0.0
  0
LINE
  5
12B
330
1F
100
AcDbEntity
  8
0-0
  6
Continuous
 62
     3
370
     9
100
AcDbLine
 10
-125.3460487159522
 20
36.40540540540553
 30
0.0
 11
-125.3460487159522
 21
47.40539220861501
 31
0.0
  0
LINE
  5
12C
330
1F
100
AcDbEntity
  8
0-0
  6
Continuous
 62
     3
370
     9
100
AcDbLine
 10
-260.3460487159523
 20
23.40541200380085
 30
0.0
 11
-285.3461311958931
 21
23.40541200380085
 31
0.0
  0
LINE
  5
12D
330
1F
100
AcDbEntity
  8
0-0
  6
Continuous
 62
     3
370
     9
100
AcDbLine
 10
-285.3461311958931
 20
23.40541200380085
 30
0.0
 11
-285.3461311958931
 21
32.40539220861501
 31
0.0
  0
LINE
  5
12E
330
1F
100
AcDbEntity
  8
0-0
  6
Continuous
 62
     3
370
     9
100
AcDbLine
 10
-285.3461311958931
 20
36.40540540540553
 30
0.0
 11
-285.3461311958931
 21
47.40539220861501
 31
0.0
  0
LINE
  5
12F
330
1F
100
AcDbEntity
  8
0-0
  6
Continuous
 62
     3
370
     9
100
AcDbLine
 10
-260.3460487159523
 20
23.40541200380085
 30
0.0
 11
-260.3460487159523
 21
32.40539220861501
 31
0.0
  0
LINE
  5
130
330
1F
100
AcDbEntity
  8
0-0
  6
Continuous
 62
     3
370
     9
100
AcDbLine
 10
-260.3460487159523
 20
36.40540540540553
 30
0.0
 11
-260.3460487159523
 21
47.40539220861501
 31
0.0
  0
LINE
  5
131
330
1F
100
AcDbEntity
  8
0-0
  6
Continuous
 62
     3
370
     9
100
AcDbLine
 10
-395.3460982039168
 20
23.40541200380085
 30
0.0
 11
-395.3460982039168
 21
32.40539220861501
 31
0.0
  0
LINE
  5
132
330
1F
100
AcDbEntity
  8
0-0
  6
Continuous
 62
     3
370
     9
100
AcDbLine
 10
-395.3460982039168
 20
36.40540540540553
 30
0.0
 11
-395.3460982039168
 21
47.40539220861501
 31
0.0
  0
LINE
  5
133
330
1F
100
AcDbEntity
  8
0-0
  6
Continuous
 62
     3
370
     9
100
AcDbLine
 10
-400.8460916055215
 20
-251.3947226034627
 30
0.0
 11
-402.321030900285
 21
-252.9946684966214
 31
0.0
  0
LINE
  5
134
330
1F
100
AcDbEntity
  8
0-0
  6
Continuous
 62
     3
370
     9
100
AcDbLine
 10
-405.0835480561127
 20
-251.3947226034627
 30
0.0
 11
-405.0835480561127
 21
-256.5947199641046
 31
0.0
  0
LINE
  5
135
330
1F
100
AcDbEntity
  8
0-0
  6
Continuous
 62
     3
370
     9
100
AcDbLine
 10
-402.321030900285
 20
-252.9946684966214
 30
0.0
 11
-402.321030900285
 21
-256.5947199641046
 31
0.0
  0
LINE
  5
136
330
1F
100
AcDbEntity
  8
0-0
  6
Continuous
 62
     3
370
     9
100
AcDbLine
 10
-404.846005826383
 20
-260.5947331608951
 30
0.0
 11
-405.8460586135452
 21
-261.5946869721282
 31
0.0
  0
LINE
  5
137
330
1F
100
AcDbEntity
  8
0-0
  6
Continuous
 62
     3
370
     9
100
AcDbLine
 10
-400.8460916055215
 20
-250.5947001689187
 30
0.0
 11
-400.8460916055215
 21
-251.3947226034627
 31
0.0
  0
LINE
  5
138
330
1F
100
AcDbEntity
  8
0-0
  6
Continuous
 62
     3
370
     9
100
AcDbLine
 10
-108.3460916055215
 20
-236.5947529560809
 30
0.0
 11
-108.3460916055215
 21
-216.5946869721282
 31
0.0
  0
LINE
  5
139
330
1F
100
AcDbEntity
  8
0-0
  6
Continuous
 62
     3
370
     9
100
AcDbLine
 10
-249.1329172495249
 20
-276.5946869721282
 30
0.0
 11
-296.5592131743559
 21
-276.5946869721282
 31
0.0
  0
LINE
  5
13A
330
1F
100
AcDbEntity
  8
0-0
  6
Continuous
 62
     3
370
     9
100
AcDbLine
 10
-115.74266175966
 20
-276.5946869721282
 30
0.0
 11
-163.0591933791701
 21
-276.5946869721282
 31
0.0
  0
LINE
  5
13B
330
1F
100
AcDbEntity
  8
0-0
  6
Continuous
 62
     3
370
     9
100
AcDbLine
 10
-114.246541616079
 20
-275.2015017947633
 30
0.0
 11
-111.4888742807749
 21
-236.5947529560809
 31
0.0
  0
LINE
  5
13C
330
1F
100
AcDbEntity
  8
0-0
  6
Continuous
 62
     3
370
     9
100
AcDbLine
 10
-165.954684695682
 20
-266.1384739231418
 30
0.0
 11
-164.5417043325062
 21
-275.3227473078546
 31
0.0
  0
LINE
  5
13D
330
1F
100
AcDbEntity
  8
0-0
  6
Continuous
 62
     3
370
     9
100
AcDbLine
 10
-243.2723050504117
 20
-263.5946935705235
 30
0.0
 11
-168.9197560903187
 21
-263.5946935705235
 31
0.0
  0
LINE
  5
13E
330
1F
100
AcDbEntity
  8
0-0
  6
Continuous
 62
     3
370
     9
100
AcDbLine
 10
-246.237425933013
 20
-266.1384739231418
 30
0.0
 11
-247.6503568082242
 21
-275.3227473078546
 31
0.0
  0
LINE
  5
13F
330
1F
100
AcDbEntity
  8
0-0
  6
Continuous
 62
     3
370
     9
100
AcDbLine
 10
-299.4547044908678
 20
-266.1384739231418
 30
0.0
 11
-298.0417736156567
 21
-275.3227473078546
 31
0.0
  0
LINE
  5
140
330
1F
100
AcDbEntity
  8
0-0
  6
Continuous
 62
     3
370
     9
100
AcDbLine
 10
-378.2722555624472
 20
-263.5946935705235
 30
0.0
 11
-302.4198253734692
 21
-263.5946935705235
 31
0.0
  0
LINE
  5
141
330
1F
100
AcDbEntity
  8
0-0
  6
Continuous
 62
     3
370
     9
100
AcDbLine
 10
-381.2373764450485
 20
-266.1384739231418
 30
0.0
 11
-382.6503568082242
 21
-275.3227473078546
 31
0.0
  0
LINE
  5
142
330
1F
100
AcDbEntity
  8
0-0
  6
Continuous
 62
     3
370
     9
100
AcDbLine
 10
-112.8383120974978
 20
-260.2837507918073
 30
0.0
 11
-108.6957735628695
 21
-236.5947529560809
 31
0.0
  0
LINE
  5
143
330
1F
100
AcDbEntity
  8
0-0
  6
Continuous
 62
     3
370
     9
100
AcDbLine
 10
-405.8460586135452
 20
-256.5947199641046
 30
0.0
 11
-405.8460586135452
 21
-261.5946869721282
 31
0.0
  0
LINE
  5
144
330
1F
100
AcDbEntity
  8
0-0
  6
Continuous
 62
     3
370
     9
100
AcDbLine
 10
-404.846005826383
 20
-256.5947199641046
 30
0.0
 11
-404.846005826383
 21
-260.5947331608951
 31
0.0
  0
LINE
  5
145
330
1F
100
AcDbEntity
  8
0-0
  6
Continuous
 62
     3
370
     9
100
AcDbLine
 10
-130.8459926295924
 20
-251.3947226034627
 30
0.0
 11
-132.321030900285
 21
-252.9946684966214
 31
0.0
  0
LINE
  5
146
330
1F
100
AcDbEntity
  8
0-0
  6
Continuous
 62
     3
370
     9
100
AcDbLine
 10
-135.0835480561127
 20
-251.3947226034627
 30
0.0
 11
-135.0835480561127
 21
-256.5947199641046
 31
0.0
  0
LINE
  5
147
330
1F
100
AcDbEntity
  8
0-0
  6
Continuous
 62
     3
370
     9
100
AcDbLine
 10
-132.321030900285
 20
-252.9946684966214
 30
0.0
 11
-132.321030900285
 21
-256.5947199641046
 31
0.0
  0
LINE
  5
148
330
1F
100
AcDbEntity
  8
0-0
  6
Continuous
 62
     3
370
     9
100
AcDbLine
 10
-134.846005826383
 20
-260.5947331608951
 30
0.0
 11
-135.8460586135451
 21
-261.5946869721282
 31
0.0
  0
LINE
  5
149
330
1F
100
AcDbEntity
  8
0-0
  6
Continuous
 62
     3
370
     9
100
AcDbLine
 10
-135.8460586135451
 20
-261.5946869721282
 30
0.0
 11
-139.8460718103357
 21
-261.5946869721282
 31
0.0
  0
LINE
  5
14A
330
1F
100
AcDbEntity
  8
0-0
  6
Continuous
 62
     3
370
     9
100
AcDbLine
 10
-134.846005826383
 20
-260.5947331608951
 30
0.0
 11
-140.8461245974978
 21
-260.5947331608951
 31
0.0
  0
LINE
  5
14B
330
1F
100
AcDbEntity
  8
0-0
  6
Continuous
 62
     3
370
     9
100
AcDbLine
 10
-132.321030900285
 20
-256.5947199641046
 30
0.0
 11
-143.3710995235958
 21
-256.5947199641046
 31
0.0
  0
LINE
  5
14C
330
1F
100
AcDbEntity
  8
0-0
  6
Continuous
 62
     3
370
     9
100
AcDbLine
 10
-130.8459926295924
 20
-251.3947226034627
 30
0.0
 11
-144.8460388183594
 21
-251.3947226034627
 31
0.0
  0
LINE
  5
14D
330
1F
100
AcDbEntity
  8
0-0
  6
Continuous
 62
     3
370
     9
100
AcDbLine
 10
-130.8459926295924
 20
-250.5947001689187
 30
0.0
 11
-130.8459926295924
 21
-251.3947226034627
 31
0.0
  0
LINE
  5
14E
330
1F
100
AcDbEntity
  8
0-0
  6
Continuous
 62
     3
370
     9
100
AcDbLine
 10
-128.6703037571262
 20
-250.5947001689187
 30
0.0
 11
-147.0218266667546
 21
-250.5947001689187
 31
0.0
  0
LINE
  5
14F
330
1F
100
AcDbEntity
  8
0-0
  6
Continuous
 62
     3
370
     9
100
AcDbLine
 10
-135.8460586135451
 20
-256.5947199641046
 30
0.0
 11
-135.8460586135451
 21
-261.5946869721282
 31
0.0
  0
LINE
  5
150
330
1F
100
AcDbEntity
  8
0-0
  6
Continuous
 62
     3
370
     9
100
AcDbLine
 10
-134.846005826383
 20
-256.5947199641046
 30
0.0
 11
-134.846005826383
 21
-260.5947331608951
 31
0.0
  0
LINE
  5
151
330
1F
100
AcDbEntity
  8
0-0
  6
Continuous
 62
     3
370
     9
100
AcDbLine
 10
-144.8460388183594
 20
-251.3947226034627
 30
0.0
 11
-143.3710995235958
 21
-252.9946684966214
 31
0.0
  0
LINE
  5
152
330
1F
100
AcDbEntity
  8
0-0
  6
Continuous
 62
     3
370
     9
100
AcDbLine
 10
-140.6085823677681
 20
-251.3947226034627
 30
0.0
 11
-140.6085823677681
 21
-256.5947199641046
 31
0.0
  0
LINE
  5
153
330
1F
100
AcDbEntity
  8
0-0
  6
Continuous
 62
     3
370
     9
100
AcDbLine
 10
-143.3710995235958
 20
-252.9946684966214
 30
0.0
 11
-143.3710995235958
 21
-256.5947199641046
 31
0.0
  0
LINE
  5
154
330
1F
100
AcDbEntity
  8
0-0
  6
Continuous
 62
     3
370
     9
100
AcDbLine
 10
-140.8461245974978
 20
-260.5947331608951
 30
0.0
 11
-139.8460718103357
 21
-261.5946869721282
 31
0.0
  0
LINE
  5
155
330
1F
100
AcDbEntity
  8
0-0
  6
Continuous
 62
     3
370
     9
100
AcDbLine
 10
-144.8460388183594
 20
-250.5947001689187
 30
0.0
 11
-144.8460388183594
 21
-251.3947226034627
 31
0.0
  0
LINE
  5
156
330
1F
100
AcDbEntity
  8
0-0
  6
Continuous
 62
     3
370
     9
100
AcDbLine
 10
-139.8460718103357
 20
-256.5947199641046
 30
0.0
 11
-139.8460718103357
 21
-261.5946869721282
 31
0.0
  0
LINE
  5
157
330
1F
100
AcDbEntity
  8
0-0
  6
Continuous
 62
     3
370
     9
100
AcDbLine
 10
-140.8461245974978
 20
-256.5947199641046
 30
0.0
 11
-140.8461245974978
 21
-260.5947331608951
 31
0.0
  0
LINE
  5
158
330
1F
100
AcDbEntity
  8
0-0
  6
Continuous
 62
     3
370
     9
100
AcDbLine
 10
-125.3460982039168
 20
-231.5946869721282
 30
0.0
 11
-125.3460982039168
 21
-236.5947529560809
 31
0.0
  0
LINE
  5
159
330
1F
100
AcDbEntity
  8
0-0
  6
Continuous
 62
     3
370
     9
100
AcDbLine
 10
-150.3460322199641
 20
-231.5946869721282
 30
0.0
 11
-150.3460322199641
 21
-236.5947529560809
 31
0.0
  0
LINE
  5
15A
330
1F
100
AcDbEntity
  8
0-0
  6
Continuous
 62
     3
370
     9
100
AcDbLine
 10
-260.3459992279877
 20
-231.5946869721282
 30
0.0
 11
-260.3459992279877
 21
-236.5947529560809
 31
0.0
  0
LINE
  5
15B
330
1F
100
AcDbEntity
  8
0-0
  6
Continuous
 62
     3
370
     9
100
AcDbLine
 10
-285.3460322199641
 20
-231.5946869721282
 30
0.0
 11
-285.3460322199641
 21
-236.5947529560809
 31
0.0
  0
LINE
  5
15C
330
1F
100
AcDbEntity
  8
0-0
  6
Continuous
 62
     3
370
     9
100
AcDbLine
 10
-395.3459992279877
 20
-231.5946869721282
 30
0.0
 11
-395.3459992279877
 21
-236.5947529560809
 31
0.0
  0
LINE
  5
15D
330
1F
100
AcDbEntity
  8
0-0
  6
Continuous
 62
     3
370
     9
100
AcDbLine
 10
-397.1818047600823
 20
-249.2806957347971
 30
0.0
 11
-395.5960619127428
 21
-236.5947529560809
 31
0.0
  0
LINE
  5
15E
330
1F
100
AcDbEntity
  8
0-0
  6
Continuous
 62
     3
370
     9
100
AcDbLine
 10
-127.1818047600823
 20
-249.2806957347971
 30
0.0
 11
-125.5961114007073
 21
-236.5947529560809
 31
0.0
  0
LINE
  5
15F
330
1F
100
AcDbEntity
  8
0-0
  6
Continuous
 62
     3
370
     9
100
AcDbLine
 10
-148.5103256637985
 20
-249.2806957347971
 30
0.0
 11
-150.0960190231735
 21
-236.5947529560809
 31
0.0
  0
LINE
  5
160
330
1F
100
AcDbEntity
  8
0-0
  6
Continuous
 62
     3
370
     9
100
AcDbLine
 10
-269.8998982197529
 20
-250.5947001689187
 30
0.0
 11
-275.7922322041279
 21
-250.5947001689187
 31
0.0
  0
LINE
  5
161
330
1F
100
AcDbEntity
  8
0-0
  6
Continuous
 62
     3
370
     9
100
AcDbLine
 10
-268.4145169644742
 20
-249.3035591744086
 30
0.0
 11
-266.6273086135451
 21
-236.5947529560809
 31
0.0
  0
LINE
  5
162
330
1F
100
AcDbEntity
  8
0-0
  6
Continuous
 62
     3
370
     9
100
AcDbLine
 10
-277.2775639714421
 20
-249.3035591744086
 30
0.0
 11
-279.0647723223711
 21
-236.5947529560809
 31
0.0
  0
LINE
  5
163
330
1F
100
AcDbEntity
  8
0-0
  6
JWW_CENTER1
 62
     3
370
     9
100
AcDbLine
 10
-137.8460652119404
 20
-246.5946869721282
 30
0.0
 11
-137.8460652119404
 21
-265.5947001689187
 31
0.0
  0
LINE
  5
164
330
1F
100
AcDbEntity
  8
0-0
  6
JWW_CENTER1
 62
     3
370
     9
100
AcDbLine
 10
-727.3461419182855
 20
143.4054120038008
 30
0.0
 11
141.6538424105258
 21
143.4054120038008
 31
0.0
  0
LINE
  5
165
330
1F
100
AcDbEntity
  8
0-1
  6
Continuous
 62
     2
370
     9
100
AcDbLine
 10
-708.346141093486
 20
218.4053130278718
 30
0.0
 11
-708.346141093486
 21
268.4053790118245
 31
0.0
  0
LINE
  5
166
330
1F
100
AcDbEntity
  8
0-1
  6
Continuous
 62
     2
370
     9
100
AcDbLine
 10
-708.346141093486
 20
68.40536251583637
 30
0.0
 11
-708.346141093486
 21
18.40529653188366
 31
0.0
  0
LINE
  5
167
330
1F
100
AcDbEntity
  8
0-1
  6
Continuous
 62
     2
370
     9
100
AcDbLine
 10
-708.346141093486
 20
218.4053130278718
 30
0.0
 11
-707.3461377942884
 21
218.4053130278718
 31
0.0
  0
LINE
  5
168
330
1F
100
AcDbEntity
  8
0-1
  6
Continuous
 62
     2
370
     9
100
AcDbLine
 10
-708.346141093486
 20
68.40536251583637
 30
0.0
 11
-707.3461377942884
 21
68.40536251583637
 31
0.0
  0
LINE
  5
169
330
1F
100
AcDbEntity
  8
0-1
  6
Continuous
 62
     2
370
     9
100
AcDbLine
 10
121.6538754025022
 20
163.4053790118245
 30
0.0
 11
131.6539083944785
 21
163.4053790118245
 31
0.0
  0
LINE
  5
16A
330
1F
100
AcDbEntity
  8
0-1
  6
Continuous
 62
     2
370
     9
100
AcDbLine
 10
131.6539083944785
 20
163.4053790118245
 30
0.0
 11
111.6538424105258
 21
123.4053460198481
 31
0.0
  0
LINE
  5
16B
330
1F
100
AcDbEntity
  8
0-1
  6
Continuous
 62
     2
370
     9
100
AcDbLine
 10
111.6538424105258
 20
123.4053460198481
 30
0.0
 11
121.6538754025022
 21
123.4053460198481
 31
0.0
  0
LINE
  5
16C
330
1F
100
AcDbEntity
  8
0-1
  6
Continuous
 62
     2
370
     9
100
AcDbLine
 10
121.6538754025022
 20
-1.594620988175507
 30
0.0
 11
121.6538754025022
 21
123.4053460198481
 31
0.0
  0
LINE
  5
16D
330
1F
100
AcDbEntity
  8
0-1
  6
Continuous
 62
     2
370
     9
100
AcDbLine
 10
121.6538754025022
 20
163.4053790118245
 30
0.0
 11
121.6538754025022
 21
288.4053460198481
 31
0.0
  0
LINE
  5
16E
330
1F
100
AcDbEntity
  8
0-1
  6
Continuous
 62
     2
370
     9
100
AcDbLine
 10
-708.346141093486
 20
268.4053790118245
 30
0.0
 11
121.6538754025022
 21
268.4053790118245
 31
0.0
  0
LINE
  5
16F
330
1F
100
AcDbEntity
  8
0-1
  6
Continuous
 62
     2
370
     9
100
AcDbLine
 10
-708.346141093486
 20
265.4054186021962
 30
0.0
 11
121.6538754025022
 21
265.4054186021962
 31
0.0
  0
LINE
  5
170
330
1F
100
AcDbEntity
  8
0-1
  6
Continuous
 62
     2
370
     9
100
AcDbLine
 10
-708.346141093486
 20
18.40529653188366
 30
0.0
 11
121.6538754025022
 21
18.40529653188366
 31
0.0
  0
LINE
  5
171
330
1F
100
AcDbEntity
  8
0-1
  6
Continuous
 62
     2
370
     9
100
AcDbLine
 10
-708.346141093486
 20
21.40530642947658
 30
0.0
 11
121.6538754025022
 21
21.40530642947658
 31
0.0
  0
LINE
  5
172
330
1F
100
AcDbEntity
  8
0-0
  6
JWW_PHANTOM2
 62
     3
370
     9
100
AcDbLine
 10
-107.3459893303948
 20
32.40539220861501
 30
0.0
 11
121.6538754025022
 21
32.40539220861501
 31
0.0
  0
LINE
  5
173
330
1F
100
AcDbEntity
  8
0-0
  6
JWW_PHANTOM2
 62
     3
370
     9
100
AcDbLine
 10
-107.3459893303948
 20
32.40539220861501
 30
0.0
 11
-107.3459893303948
 21
254.4054317989867
 31
0.0
  0
LINE
  5
174
330
1F
100
AcDbEntity
  8
0-0
  6
JWW_PHANTOM2
 62
     3
370
     9
100
AcDbLine
 10
-107.3459893303948
 20
254.4054317989867
 30
0.0
 11
121.6538754025022
 21
254.4054317989867
 31
0.0
  0
LINE
  5
175
330
1F
100
AcDbEntity
  8
0-E
  6
Continuous
 62
     7
370
     9
100
AcDbLine
 10
560.156237628009
 20
205.0245592271962
 30
0.0
 11
697.7199121423669
 21
205.0245592271962
 31
0.0
  0
LINE
  5
176
330
1F
100
AcDbEntity
  8
0-E
  6
Continuous
 62
     7
370
     9
100
AcDbLine
 10
381.6539413864548
 20
32.40539220861501
 30
0.0
 11
353.5716000118773
 21
-72.39927879539687
 31
0.0
  0
LINE
  5
177
330
1F
100
AcDbEntity
  8
0-E
  6
Continuous
 62
     7
370
     9
100
AcDbLine
 10
353.5716000118773
 20
-72.39927879539687
 30
0.0
 11
142.8310621106947
 21
-72.39927879539687
 31
0.0
  0
LINE
  5
178
330
1F
100
AcDbEntity
  8
0-1
  6
JWW_DASHED3
 62
     2
370
     9
100
AcDbLine
 10
-707.3461377942884
 20
218.4053130278718
 30
0.0
 11
-108.3459926295924
 21
218.4053130278718
 31
0.0
  0
LINE
  5
179
330
1F
100
AcDbEntity
  8
0-1
  6
Continuous
 62
     2
370
     9
100
AcDbLine
 10
-108.3459926295924
 20
218.4053130278718
 30
0.0
 11
121.6538754025022
 21
218.4053130278718
 31
0.0
  0
LINE
  5
17A
330
1F
100
AcDbEntity
  8
0-1
  6
JWW_DASHED3
 62
     2
370
     9
100
AcDbLine
 10
-707.3461377942884
 20
68.40536251583637
 30
0.0
 11
-108.3459926295924
 21
68.40536251583637
 31
0.0
  0
LINE
  5
17B
330
1F
100
AcDbEntity
  8
0-1
  6
Continuous
 62
     2
370
     9
100
AcDbLine
 10
-108.3459926295924
 20
68.40536251583637
 30
0.0
 11
121.6538754025022
 21
68.40536251583637
 31
0.0
  0
ARC
  5
17C
330
1F
100
AcDbEntity
  8
0-0
  6
Continuous
 62
     3
370
     9
100
AcDbCircle
 10
-693.3283006822741
 20
227.5358424831082
 30
0.0
 40
4.000000051549963
100
AcDbArc
 50
90.0
 51
180.0
  0
ARC
  5
17D
330
1F
100
AcDbEntity
  8
0-0
  6
Continuous
 62
     3
370
     9
100
AcDbCircle
 10
-692.756912643845
 20
226.8858675570103
 30
0.0
 40
3.000000038662472
100
AcDbArc
 50
90.0
 51
180.0
  0
ARC
  5
17E
330
1F
100
AcDbEntity
  8
0-0
  6
Continuous
 62
     3
370
     9
100
AcDbCircle
 10
-431.559213174356
 20
-275.0947067673141
 30
0.0
 40
1.500000019331236
100
AcDbArc
 50
188.7459106445312
 51
270.0
  0
ARC
  5
17F
330
1F
100
AcDbEntity
  8
0-0
  6
Continuous
 62
     3
370
     9
100
AcDbCircle
 10
-519.1329172495249
 20
-275.0947067673141
 30
0.0
 40
1.500000019331236
100
AcDbArc
 50
270.0
 51
351.2540893554688
  0
ARC
  5
180
330
1F
100
AcDbEntity
  8
0-0
  6
Continuous
 62
     3
370
     9
100
AcDbCircle
 10
-566.5592131743559
 20
-275.0947067673141
 30
0.0
 40
1.500000019331236
100
AcDbArc
 50
188.7460174560547
 51
270.0
  0
ARC
  5
181
330
1F
100
AcDbEntity
  8
0-0
  6
Continuous
 62
     3
370
     9
100
AcDbCircle
 10
-652.6329370447107
 20
-275.0947067673141
 30
0.0
 40
1.500000019331236
100
AcDbArc
 50
270.0
 51
351.2539978027344
  0
ARC
  5
182
330
1F
100
AcDbEntity
  8
0-0
  6
Continuous
 62
     3
370
     9
100
AcDbCircle
 10
-699.9494191762564
 20
-275.0947067673141
 30
0.0
 40
1.500000019331236
100
AcDbArc
 50
184.0851135253906
 51
270.0
  0
ARC
  5
183
330
1F
100
AcDbEntity
  8
0-0
  6
Continuous
 62
     3
370
     9
100
AcDbCircle
 10
-646.7723743335621
 20
-266.5947529560809
 30
0.0
 40
3.000000038662472
100
AcDbArc
 50
90.0
 51
171.2537078857422
  0
ARC
  5
184
330
1F
100
AcDbEntity
  8
0-0
  6
Continuous
 62
     3
370
     9
100
AcDbCircle
 10
-572.4198253734692
 20
-266.5947529560809
 30
0.0
 40
3.000000038662472
100
AcDbArc
 50
8.746292114257812
 51
90.0
  0
ARC
  5
185
330
1F
100
AcDbEntity
  8
0-0
  6
Continuous
 62
     3
370
     9
100
AcDbCircle
 10
-513.2723050504117
 20
-266.5947529560809
 30
0.0
 40
3.000000038662472
100
AcDbArc
 50
90.0
 51
171.253662109375
  0
ARC
  5
186
330
1F
100
AcDbEntity
  8
0-0
  6
Continuous
 62
     3
370
     9
100
AcDbCircle
 10
-437.4198748614336
 20
-266.5947529560809
 30
0.0
 40
3.000000038662472
100
AcDbArc
 50
8.746337890625
 51
90.0
  0
ARC
  5
187
330
1F
100
AcDbEntity
  8
0-0
  6
Continuous
 62
     3
370
     9
100
AcDbCircle
 10
-698.9134876148121
 20
-259.5946803737329
 30
0.0
 40
4.000000051549963
100
AcDbArc
 50
189.9193572998047
 51
208.6634521484375
  0
ARC
  5
188
330
1F
100
AcDbEntity
  8
0-0
  6
Continuous
 62
     3
370
     9
100
AcDbCircle
 10
-417.0218761547192
 20
-249.0947199641046
 30
0.0
 40
1.500000019331236
100
AcDbArc
 50
187.1250152587891
 51
270.0
  0
ARC
  5
189
330
1F
100
AcDbEntity
  8
0-0
  6
Continuous
 62
     3
370
     9
100
AcDbCircle
 10
-687.0218761547192
 20
-249.0947199641046
 30
0.0
 40
1.500000019331236
100
AcDbArc
 50
187.1250152587891
 51
270.0
  0
ARC
  5
18A
330
1F
100
AcDbEntity
  8
0-0
  6
Continuous
 62
     3
370
     9
100
AcDbCircle
 10
-668.6702542691618
 20
-249.0947199641046
 30
0.0
 40
1.500000019331236
100
AcDbArc
 50
270.0
 51
352.8749847412109
  0
ARC
  5
18B
330
1F
100
AcDbEntity
  8
0-0
  6
Continuous
 62
     3
370
     9
100
AcDbCircle
 10
-545.7922322041279
 20
-249.0947199641046
 30
0.0
 40
1.500000019331236
100
AcDbArc
 50
188.004867553711
 51
270.0
  0
ARC
  5
18C
330
1F
100
AcDbEntity
  8
0-0
  6
Continuous
 62
     3
370
     9
100
AcDbCircle
 10
-539.8998982197529
 20
-249.0947199641046
 30
0.0
 40
1.500000019331236
100
AcDbArc
 50
270.0
 51
351.9951324462891
  0
ARC
  5
18D
330
1F
100
AcDbEntity
  8
0-0
  6
Continuous
 62
     3
370
     9
100
AcDbCircle
 10
-122.3639039735535
 20
227.5358424831082
 30
0.0
 40
4.000000051549963
100
AcDbArc
 50
0.0
 51
90.0
  0
ARC
  5
18E
330
1F
100
AcDbEntity
  8
0-0
  6
Continuous
 62
     3
370
     9
100
AcDbCircle
 10
-122.9352425240181
 20
226.8858675570103
 30
0.0
 40
3.000000038662472
100
AcDbArc
 50
0.0
 51
90.0
  0
ARC
  5
18F
330
1F
100
AcDbEntity
  8
0-0
  6
Continuous
 62
     3
370
     9
100
AcDbCircle
 10
-693.3283006822741
 20
59.27498152449346
 30
0.0
 40
4.000000051549963
100
AcDbArc
 50
180.0
 51
270.0
  0
ARC
  5
190
330
1F
100
AcDbEntity
  8
0-0
  6
Continuous
 62
     3
370
     9
100
AcDbCircle
 10
-692.756912643845
 20
59.92495645059137
 30
0.0
 40
3.000000038662472
100
AcDbArc
 50
180.0
 51
270.0
  0
ARC
  5
191
330
1F
100
AcDbEntity
  8
0-0
  6
Continuous
 62
     3
370
     9
100
AcDbCircle
 10
-122.3639039735535
 20
59.27498152449346
 30
0.0
 40
4.000000051549963
100
AcDbArc
 50
270.0
 51
0.0
  0
ARC
  5
192
330
1F
100
AcDbEntity
  8
0-0
  6
Continuous
 62
     3
370
     9
100
AcDbCircle
 10
-122.9352425240181
 20
59.92495645059137
 30
0.0
 40
3.000000038662472
100
AcDbArc
 50
270.0
 51
0.0
  0
ARC
  5
193
330
1F
100
AcDbEntity
  8
0-0
  6
Continuous
 62
     3
370
     9
100
AcDbCircle
 10
-384.1329172495249
 20
-275.0947067673141
 30
0.0
 40
1.500000019331236
100
AcDbArc
 50
270.0
 51
351.2540893554688
  0
ARC
  5
194
330
1F
100
AcDbEntity
  8
0-0
  6
Continuous
 62
     3
370
     9
100
AcDbCircle
 10
-296.5592131743559
 20
-275.0947067673141
 30
0.0
 40
1.500000019331236
100
AcDbArc
 50
188.7459106445312
 51
270.0
  0
ARC
  5
195
330
1F
100
AcDbEntity
  8
0-0
  6
Continuous
 62
     3
370
     9
100
AcDbCircle
 10
-249.1329172495249
 20
-275.0947067673141
 30
0.0
 40
1.500000019331236
100
AcDbArc
 50
270.0
 51
351.2539825439453
  0
ARC
  5
196
330
1F
100
AcDbEntity
  8
0-0
  6
Continuous
 62
     3
370
     9
100
AcDbCircle
 10
-163.0591933791701
 20
-275.0947067673141
 30
0.0
 40
1.500000019331236
100
AcDbArc
 50
188.7460021972657
 51
270.0
  0
ARC
  5
197
330
1F
100
AcDbEntity
  8
0-0
  6
Continuous
 62
     3
370
     9
100
AcDbCircle
 10
-115.74266175966
 20
-275.0947067673141
 30
0.0
 40
1.500000019331236
100
AcDbArc
 50
270.0
 51
355.9148864746094
  0
ARC
  5
198
330
1F
100
AcDbEntity
  8
0-0
  6
Continuous
 62
     3
370
     9
100
AcDbCircle
 10
-168.9197560903187
 20
-266.5947529560809
 30
0.0
 40
3.000000038662472
100
AcDbArc
 50
8.746292114257812
 51
90.0
  0
ARC
  5
199
330
1F
100
AcDbEntity
  8
0-0
  6
Continuous
 62
     3
370
     9
100
AcDbCircle
 10
-243.2723050504117
 20
-266.5947529560809
 30
0.0
 40
3.000000038662472
100
AcDbArc
 50
90.0
 51
171.2537078857422
  0
ARC
  5
19A
330
1F
100
AcDbEntity
  8
0-0
  6
Continuous
 62
     3
370
     9
100
AcDbCircle
 10
-302.4198253734692
 20
-266.5947529560809
 30
0.0
 40
3.000000038662472
100
AcDbArc
 50
8.746337890625
 51
90.0
  0
ARC
  5
19B
330
1F
100
AcDbEntity
  8
0-0
  6
Continuous
 62
     3
370
     9
100
AcDbCircle
 10
-378.2722555624472
 20
-266.5947529560809
 30
0.0
 40
3.000000038662472
100
AcDbArc
 50
90.0
 51
171.253662109375
  0
ARC
  5
19C
330
1F
100
AcDbEntity
  8
0-0
  6
Continuous
 62
     3
370
     9
100
AcDbCircle
 10
-116.7786428090687
 20
-259.5946803737329
 30
0.0
 40
4.000000051549963
100
AcDbArc
 50
331.3365478515625
 51
350.0806427001953
  0
ARC
  5
19D
330
1F
100
AcDbEntity
  8
0-0
  6
Continuous
 62
     3
370
     9
100
AcDbCircle
 10
-398.6702542691617
 20
-249.0947199641046
 30
0.0
 40
1.500000019331236
100
AcDbArc
 50
270.0
 51
352.8749847412109
  0
ARC
  5
19E
330
1F
100
AcDbEntity
  8
0-0
  6
Continuous
 62
     3
370
     9
100
AcDbCircle
 10
-128.6703037571262
 20
-249.0947199641046
 30
0.0
 40
1.500000019331236
100
AcDbArc
 50
270.0
 51
352.8749847412109
  0
ARC
  5
19F
330
1F
100
AcDbEntity
  8
0-0
  6
Continuous
 62
     3
370
     9
100
AcDbCircle
 10
-147.0218266667546
 20
-249.0947199641046
 30
0.0
 40
1.500000019331236
100
AcDbArc
 50
187.1250152587891
 51
270.0
  0
ARC
  5
1A0
330
1F
100
AcDbEntity
  8
0-0
  6
Continuous
 62
     3
370
     9
100
AcDbCircle
 10
-269.8998982197529
 20
-249.0947199641046
 30
0.0
 40
1.500000019331236
100
AcDbArc
 50
270.0
 51
351.9951324462891
  0
ARC
  5
1A1
330
1F
100
AcDbEntity
  8
0-0
  6
Continuous
 62
     3
370
     9
100
AcDbCircle
 10
-275.7922322041279
 20
-249.0947199641046
 30
0.0
 40
1.500000019331236
100
AcDbArc
 50
188.004867553711
 51
270.0
  0
TEXT
  5
1A2
330
1F
100
AcDbEntity
  8
0-E
  6
Continuous
 62
     7
370
     9
100
AcDbText
 10
567.5489609177048
 20
190.4615939347552
 30
0.0
 40
9.144
  1
樹脂系塗装
 41
1.133333333333333
  7
ＭＳ ゴシック
100
AcDbText
  0
TEXT
  5
1A3
330
1F
100
AcDbEntity
  8
0-E
  6
Continuous
 62
     7
370
     9
100
AcDbText
 10
568.5303996318096
 20
212.5393131334462
 30
0.0
 40
9.144
  1
蓋本体：ＦＣ２００
 41
1.148148148148148
  7
ＭＳ ゴシック
100
AcDbText
  0
TEXT
  5
1A4
330
1F
100
AcDbEntity
  8
0-E
  6
Continuous
 62
     7
370
     9
100
AcDbText
 10
144.3837931864971
 20
-66.07322579708602
 30
0.0
 40
9.144
  1
排水口グレーチング（Ｐ＝１５）
 41
1.155555555555555
  7
ＭＳ ゴシック
100
AcDbText
  0
TEXT
  5
1A5
330
1F
100
AcDbEntity
  8
0-E
  6
Continuous
 62
     7
370
     9
100
AcDbText
 10
142.8310489139042
 20
-85.34562075063332
 30
0.0
 40
9.144
  1
ＳＵＳ３０４
 41
1.138888888888889
  7
ＭＳ ゴシック
100
AcDbText
  0
LINE
  5
1A6
330
1F
100
AcDbEntity
  8
0-F
  6
Continuous
 62
     7
370
     9
100
AcDbLine
 10
321.6539413864548
 20
23.40526353990731
 30
0.0
 11
320.0876473091744
 21
35.30261560388533
 31
0.0
  0
LINE
  5
1A7
330
1F
100
AcDbEntity
  8
0-F
  6
Continuous
 62
     7
370
     9
100
AcDbLine
 10
321.6539413864548
 20
23.40526353990731
 30
0.0
 11
323.2202354637352
 21
35.30261560388533
 31
0.0
  0
LINE
  5
1A8
330
1F
100
AcDbEntity
  8
0-F
  6
Continuous
 62
     7
370
     9
100
AcDbLine
 10
323.2202354637352
 20
63.30275746938366
 30
0.0
 11
320.0876473091744
 21
39.50805334142751
 31
0.0
  0
LINE
  5
1A9
330
1F
100
AcDbEntity
  8
0-F
  6
Continuous
 62
     7
370
     9
100
AcDbLine
 10
320.0876473091744
 20
63.30275746938366
 30
0.0
 11
323.2202354637352
 21
39.50805334142751
 31
0.0
  0
LINE
  5
1AA
330
1F
100
AcDbEntity
  8
0-F
  6
Continuous
 62
     7
370
     9
100
AcDbLine
 10
321.6539413864548
 20
235.4054186021962
 30
0.0
 11
320.0876473091744
 21
223.5081160261826
 31
0.0
  0
LINE
  5
1AB
330
1F
100
AcDbEntity
  8
0-F
  6
Continuous
 62
     7
370
     9
100
AcDbLine
 10
321.6539413864548
 20
235.4054186021962
 30
0.0
 11
323.2202354637352
 21
223.5081160261826
 31
0.0
  0
LINE
  5
1AC
330
1F
100
AcDbEntity
  8
0-F
  6
Continuous
 62
     7
370
     9
100
AcDbLine
 10
281.6539083944785
 20
-5.324182458825817
 30
0.0
 11
281.6539083944785
 21
292.134858002534
 31
0.0
  0
LINE
  5
1AD
330
1F
100
AcDbEntity
  8
0-F
  6
Continuous
 62
     7
370
     9
100
AcDbLine
 10
281.6539083944785
 20
263.4054120038008
 30
0.0
 11
280.0876143171981
 21
251.5081094277873
 31
0.0
  0
LINE
  5
1AE
330
1F
100
AcDbEntity
  8
0-F
  6
Continuous
 62
     7
370
     9
100
AcDbLine
 10
281.6539083944785
 20
263.4054120038008
 30
0.0
 11
283.220202471759
 21
251.5081094277873
 31
0.0
  0
LINE
  5
1AF
330
1F
100
AcDbEntity
  8
0-F
  6
Continuous
 62
     7
370
     9
100
AcDbLine
 10
281.6539083944785
 20
268.4053790118245
 30
0.0
 11
280.0876143171981
 21
280.302681587838
 31
0.0
  0
LINE
  5
1B0
330
1F
100
AcDbEntity
  8
0-F
  6
Continuous
 62
     7
370
     9
100
AcDbLine
 10
281.6539083944785
 20
268.4053790118245
 30
0.0
 11
283.220202471759
 21
280.302681587838
 31
0.0
  0
LINE
  5
1B1
330
1F
100
AcDbEntity
  8
0-F
  6
Continuous
 62
     7
370
     9
100
AcDbLine
 10
241.6538754025022
 20
18.40529653188366
 30
0.0
 11
241.6538754025022
 21
268.4053790118245
 31
0.0
  0
LINE
  5
1B2
330
1F
100
AcDbEntity
  8
0-F
  6
Continuous
 62
     7
370
     9
100
AcDbLine
 10
241.6538754025022
 20
18.40529653188366
 30
0.0
 11
240.0875813252218
 21
30.30264859586168
 31
0.0
  0
LINE
  5
1B3
330
1F
100
AcDbEntity
  8
0-F
  6
Continuous
 62
     7
370
     9
100
AcDbLine
 10
241.6538754025022
 20
18.40529653188366
 30
0.0
 11
243.2201694797826
 21
30.30264859586168
 31
0.0
  0
LINE
  5
1B4
330
1F
100
AcDbEntity
  8
0-F
  6
Continuous
 62
     7
370
     9
100
AcDbLine
 10
241.6538754025022
 20
268.4053790118245
 30
0.0
 11
240.0875813252218
 21
256.5080764358109
 31
0.0
  0
LINE
  5
1B5
330
1F
100
AcDbEntity
  8
0-F
  6
Continuous
 62
     7
370
     9
100
AcDbLine
 10
241.6538754025022
 20
268.4053790118245
 30
0.0
 11
243.2201694797826
 21
256.5080764358109
 31
0.0
  0
LINE
  5
1B6
330
1F
100
AcDbEntity
  8
0-F
  6
Continuous
 62
     7
370
     9
100
AcDbLine
 10
281.6539083944785
 20
23.40531302787178
 30
0.0
 11
280.0876143171981
 21
35.30261560388533
 31
0.0
  0
LINE
  5
1B7
330
1F
100
AcDbEntity
  8
0-F
  6
Continuous
 62
     7
370
     9
100
AcDbLine
 10
281.6539083944785
 20
23.40531302787178
 30
0.0
 11
283.220202471759
 21
35.30261560388533
 31
0.0
  0
LINE
  5
1B8
330
1F
100
AcDbEntity
  8
0-F
  6
Continuous
 62
     7
370
     9
100
AcDbLine
 10
281.6539083944785
 20
18.40529653188366
 30
0.0
 11
280.0876143171981
 21
6.50799395587012
 31
0.0
  0
LINE
  5
1B9
330
1F
100
AcDbEntity
  8
0-F
  6
Continuous
 62
     7
370
     9
100
AcDbLine
 10
281.6539083944785
 20
18.40529653188366
 30
0.0
 11
283.220202471759
 21
6.50799395587012
 31
0.0
  0
LINE
  5
1BA
330
1F
100
AcDbEntity
  8
0-F
  6
Continuous
 62
     7
370
     9
100
AcDbLine
 10
381.6537434345969
 20
103.4054284997891
 30
0.0
 11
463.6863790976035
 21
103.4054284997891
 31
0.0
  0
LINE
  5
1BB
330
1F
100
AcDbEntity
  8
0-F
  6
Continuous
 62
     7
370
     9
100
AcDbLine
 10
381.6537434345969
 20
103.4054284997891
 30
0.0
 11
393.5510460106102
 21
104.9717225770694
 31
0.0
  0
LINE
  5
1BC
330
1F
100
AcDbEntity
  8
0-F
  6
Continuous
 62
     7
370
     9
100
AcDbLine
 10
381.6537434345969
 20
103.4054284997891
 30
0.0
 11
393.5510460106102
 21
101.8391344225087
 31
0.0
  0
LINE
  5
1BD
330
1F
100
AcDbEntity
  8
0-F
  6
Continuous
 62
     7
370
     9
100
AcDbLine
 10
421.6538754025023
 20
103.4054284997891
 30
0.0
 11
409.7565728264885
 21
104.9717225770694
 31
0.0
  0
LINE
  5
1BE
330
1F
100
AcDbEntity
  8
0-F
  6
Continuous
 62
     7
370
     9
100
AcDbLine
 10
421.6538754025023
 20
103.4054284997891
 30
0.0
 11
409.7565728264885
 21
101.8391344225087
 31
0.0
  0
LINE
  5
1BF
330
1F
100
AcDbEntity
  8
0-F
  6
Continuous
 62
     7
370
     9
100
AcDbLine
 10
436.6540733543602
 20
103.4054284997891
 30
0.0
 11
448.551375930374
 21
104.9717225770694
 31
0.0
  0
LINE
  5
1C0
330
1F
100
AcDbEntity
  8
0-F
  6
Continuous
 62
     7
370
     9
100
AcDbLine
 10
436.6540733543602
 20
103.4054284997891
 30
0.0
 11
448.551375930374
 21
101.8391344225087
 31
0.0
  0
LINE
  5
1C1
330
1F
100
AcDbEntity
  8
0-F
  6
Continuous
 62
     7
370
     9
100
AcDbLine
 10
439.3078159641577
 20
121.445078256968
 30
0.0
 11
452.442614581134
 21
121.445078256968
 31
0.0
  0
LINE
  5
1C2
330
1F
100
AcDbEntity
  8
0-E
  6
Continuous
 62
     7
370
     9
100
AcDbLine
 10
436.6540733543602
 20
168.9954405088685
 30
0.0
 11
447.636640394056
 21
173.8310084987332
 31
0.0
  0
LINE
  5
1C3
330
1F
100
AcDbEntity
  8
0-E
  6
Continuous
 62
     7
370
     9
100
AcDbLine
 10
436.6540733543602
 20
168.9954405088685
 30
0.0
 11
448.5139630291915
 21
170.8237238703549
 31
0.0
  0
LINE
  5
1C4
330
1F
100
AcDbEntity
  8
0-F
  6
Continuous
 62
     7
370
     9
100
AcDbLine
 10
439.3078159641577
 20
121.445078256968
 30
0.0
 11
425.7656324231948
 21
103.4054284997891
 31
0.0
  0
LINE
  5
1C5
330
1F
100
AcDbEntity
  8
0-0
  6
Continuous
 62
     3
370
     9
100
AcDbLine
 10
416.4544718974348
 20
242.4054416965796
 30
0.0
 11
416.4544718974348
 21
256.4055373733109
 31
0.0
  0
LINE
  5
1C6
330
1F
100
AcDbEntity
  8
0-0
  6
Continuous
 62
     3
370
     9
100
AcDbLine
 10
416.4544718974348
 20
242.4054416965796
 30
0.0
 11
418.0545167665223
 21
243.8805294552367
 31
0.0
  0
LINE
  5
1C7
330
1F
100
AcDbEntity
  8
0-0
  6
Continuous
 62
     3
370
     9
100
AcDbLine
 10
416.4544718974348
 20
256.4055373733109
 30
0.0
 11
418.0545167665223
 21
254.9304991026185
 31
0.0
  0
LINE
  5
1C8
330
1F
100
AcDbEntity
  8
0-0
  6
Continuous
 62
     3
370
     9
100
AcDbLine
 10
416.4544718974348
 20
246.6429971230998
 30
0.0
 11
421.6544692580765
 21
246.6429971230998
 31
0.0
  0
LINE
  5
1C9
330
1F
100
AcDbEntity
  8
0-0
  6
Continuous
 62
     3
370
     9
100
AcDbLine
 10
416.4544718974348
 20
252.1679819467907
 30
0.0
 11
421.6544692580765
 21
252.1679819467907
 31
0.0
  0
LINE
  5
1CA
330
1F
100
AcDbEntity
  8
0-0
  6
Continuous
 62
     3
370
     9
100
AcDbLine
 10
415.6545484388198
 20
242.4054416965796
 30
0.0
 11
416.4544718974348
 21
242.4054416965796
 31
0.0
  0
LINE
  5
1CB
330
1F
100
AcDbEntity
  8
0-0
  6
Continuous
 62
     3
370
     9
100
AcDbLine
 10
418.0545167665223
 20
243.8805294552367
 30
0.0
 11
421.6544692580765
 21
243.8805294552367
 31
0.0
  0
LINE
  5
1CC
330
1F
100
AcDbEntity
  8
0-0
  6
Continuous
 62
     3
370
     9
100
AcDbLine
 10
421.6544692580765
 20
243.8805294552367
 30
0.0
 11
421.6544692580765
 21
254.9304991026185
 31
0.0
  0
LINE
  5
1CD
330
1F
100
AcDbEntity
  8
0-0
  6
Continuous
 62
     3
370
     9
100
AcDbLine
 10
425.6544824548669
 20
246.4054548933701
 30
0.0
 11
425.6544824548669
 21
252.4054252005914
 31
0.0
  0
LINE
  5
1CE
330
1F
100
AcDbEntity
  8
0-0
  6
Continuous
 62
     3
370
     9
100
AcDbLine
 10
425.6544824548669
 20
246.4054548933701
 30
0.0
 11
426.6545352420294
 21
247.4054581925677
 31
0.0
  0
LINE
  5
1CF
330
1F
100
AcDbEntity
  8
0-0
  6
Continuous
 62
     3
370
     9
100
AcDbLine
 10
426.6545352420294
 20
251.4054219013938
 30
0.0
 11
425.6544824548669
 21
252.4054252005914
 31
0.0
  0
LINE
  5
1D0
330
1F
100
AcDbEntity
  8
0-0
  6
Continuous
 62
     3
370
     9
100
AcDbLine
 10
418.0545167665223
 20
254.9304991026185
 30
0.0
 11
421.6544692580765
 21
254.9304991026185
 31
0.0
  0
LINE
  5
1D1
330
1F
100
AcDbEntity
  8
0-0
  6
Continuous
 62
     3
370
     9
100
AcDbLine
 10
426.6545352420294
 20
247.4054581925677
 30
0.0
 11
426.6545352420294
 21
251.4054219013938
 31
0.0
  0
LINE
  5
1D2
330
1F
100
AcDbEntity
  8
0-0
  6
Continuous
 62
     3
370
     9
100
AcDbLine
 10
399.6535058923669
 20
148.9054054054055
 30
0.0
 11
413.653552081134
 21
147.9054515941725
 31
0.0
  0
LINE
  5
1D3
330
1F
100
AcDbEntity
  8
0-0
  6
Continuous
 62
     3
370
     9
100
AcDbLine
 10
413.653552081134
 20
138.9053724134293
 30
0.0
 11
413.653552081134
 21
147.9054515941725
 31
0.0
  0
LINE
  5
1D4
330
1F
100
AcDbEntity
  8
0-0
  6
Continuous
 62
     3
370
     9
100
AcDbLine
 10
409.254072034681
 20
146.0054106841218
 30
0.0
 11
404.0540746740394
 21
146.0054106841218
 31
0.0
  0
LINE
  5
1D5
330
1F
100
AcDbEntity
  8
0-0
  6
Continuous
 62
     3
370
     9
100
AcDbLine
 10
404.0540746740394
 20
146.0054106841218
 30
0.0
 11
404.0540746740394
 21
140.8054133234799
 31
0.0
  0
LINE
  5
1D6
330
1F
100
AcDbEntity
  8
0-0
  6
Continuous
 62
     3
370
     9
100
AcDbLine
 10
409.254072034681
 20
146.0054106841218
 30
0.0
 11
409.254072034681
 21
140.8054133234799
 31
0.0
  0
LINE
  5
1D7
330
1F
100
AcDbEntity
  8
0-0
  6
Continuous
 62
     3
370
     9
100
AcDbLine
 10
399.6535058923669
 20
149.4054317989867
 30
0.0
 11
413.653552081134
 21
147.9054515941725
 31
0.0
  0
LINE
  5
1D8
330
1F
100
AcDbEntity
  8
0-0
  6
Continuous
 62
     3
370
     9
100
AcDbLine
 10
423.6539809768265
 20
205.5547732791387
 30
0.0
 11
423.6539809768265
 21
81.25605072846304
 31
0.0
  0
LINE
  5
1D9
330
1F
100
AcDbEntity
  8
0-0
  6
Continuous
 62
     3
370
     9
100
AcDbLine
 10
436.6540733543602
 20
193.4054284997891
 30
0.0
 11
436.6540733543602
 21
93.40539550781273
 31
0.0
  0
LINE
  5
1DA
330
1F
100
AcDbEntity
  8
0-0
  6
Continuous
 62
     3
370
     9
100
AcDbLine
 10
428.6540469607794
 20
208.4054779877536
 30
0.0
 11
436.6540733543602
 21
193.4054284997891
 31
0.0
  0
LINE
  5
1DB
330
1F
100
AcDbEntity
  8
0-0
  6
Continuous
 62
     3
370
     9
100
AcDbLine
 10
423.4348482699011
 20
206.1795093433279
 30
0.0
 11
421.8732060612861
 21
208.1315621040965
 31
0.0
  0
LINE
  5
1DC
330
1F
100
AcDbEntity
  8
0-0
  6
Continuous
 62
     3
370
     9
100
AcDbLine
 10
441.654040362384
 20
230.6923333245356
 30
0.0
 11
441.654040362384
 21
234.0087692673144
 31
0.0
  0
LINE
  5
1DD
330
1F
100
AcDbEntity
  8
0-0
  6
Continuous
 62
     3
370
     9
100
AcDbLine
 10
396.6539413864548
 20
239.4054317989867
 30
0.0
 11
396.6539413864548
 21
263.4054120038008
 31
0.0
  0
LINE
  5
1DE
330
1F
100
AcDbEntity
  8
0-0
  6
Continuous
 62
     3
370
     9
100
AcDbLine
 10
401.6540073704077
 20
235.4054186021962
 30
0.0
 11
401.6540073704077
 21
263.4054120038008
 31
0.0
  0
LINE
  5
1DF
330
1F
100
AcDbEntity
  8
0-0
  6
Continuous
 62
     3
370
     9
100
AcDbLine
 10
396.6539413864548
 20
254.4054317989867
 30
0.0
 11
381.6539413864548
 21
254.4054317989867
 31
0.0
  0
LINE
  5
1E0
330
1F
100
AcDbEntity
  8
0-0
  6
Continuous
 62
     3
370
     9
100
AcDbLine
 10
396.6539413864548
 20
250.4054186021962
 30
0.0
 11
381.6539413864548
 21
250.4054186021962
 31
0.0
  0
LINE
  5
1E1
330
1F
100
AcDbEntity
  8
0-0
  6
Continuous
 62
     3
370
     9
100
AcDbLine
 10
401.6540073704077
 20
239.4054317989867
 30
0.0
 11
381.6539413864548
 21
239.4054317989867
 31
0.0
  0
LINE
  5
1E2
330
1F
100
AcDbEntity
  8
0-0
  6
Continuous
 62
     3
370
     9
100
AcDbLine
 10
401.6540073704077
 20
235.4054186021962
 30
0.0
 11
381.6539413864548
 21
235.4054186021962
 31
0.0
  0
LINE
  5
1E3
330
1F
100
AcDbEntity
  8
0-0
  6
Continuous
 62
     3
370
     9
100
AcDbLine
 10
401.6540073704077
 20
263.4054120038008
 30
0.0
 11
396.6539413864548
 21
263.4054120038008
 31
0.0
  0
LINE
  5
1E4
330
1F
100
AcDbEntity
  8
0-0
  6
Continuous
 62
     3
370
     9
100
AcDbLine
 10
381.6539413864548
 20
32.40539220861501
 30
0.0
 11
381.6539413864548
 21
254.4054317989867
 31
0.0
  0
LINE
  5
1E5
330
1F
100
AcDbEntity
  8
0-0
  6
Continuous
 62
     3
370
     9
100
AcDbLine
 10
417.953165415171
 20
230.1634059596707
 30
0.0
 11
399.6540997479415
 21
231.5358556798989
 31
0.0
  0
LINE
  5
1E6
330
1F
100
AcDbEntity
  8
0-0
  6
Continuous
 62
     3
370
     9
100
AcDbLine
 10
421.6540733543602
 20
226.1746265308279
 30
0.0
 11
421.6540733543602
 21
60.63619747677387
 31
0.0
  0
LINE
  5
1E7
330
1F
100
AcDbEntity
  8
0-0
  6
Continuous
 62
     3
370
     9
100
AcDbLine
 10
432.0457540976035
 20
227.9272427945525
 30
0.0
 11
440.3821006981102
 21
229.2097233952704
 31
0.0
  0
LINE
  5
1E8
330
1F
100
AcDbEntity
  8
0-0
  6
Continuous
 62
     3
370
     9
100
AcDbLine
 10
428.6540469607794
 20
223.9737977723819
 30
0.0
 11
428.6540469607794
 21
62.83702623521981
 31
0.0
  0
LINE
  5
1E9
330
1F
100
AcDbEntity
  8
0-0
  6
Continuous
 62
     3
370
     9
100
AcDbLine
 10
410.6540865511511
 20
147.4054252005914
 30
0.0
 11
410.6540865511511
 21
139.4053988070103
 31
0.0
  0
LINE
  5
1EA
330
1F
100
AcDbEntity
  8
0-0
  6
Continuous
 62
     3
370
     9
100
AcDbLine
 10
399.6540997479415
 20
147.4054252005914
 30
0.0
 11
399.6540997479415
 21
235.4054186021962
 31
0.0
  0
LINE
  5
1EB
330
1F
100
AcDbEntity
  8
0-0
  6
Continuous
 62
     3
370
     9
100
AcDbLine
 10
397.154165731894
 20
147.4054252005914
 30
0.0
 11
397.154165731894
 21
139.4053988070103
 31
0.0
  0
LINE
  5
1EC
330
1F
100
AcDbEntity
  8
0-0
  6
Continuous
 62
     3
370
     9
100
AcDbLine
 10
382.654093149546
 20
147.4054252005914
 30
0.0
 11
382.654093149546
 21
139.4053988070103
 31
0.0
  0
LINE
  5
1ED
330
1F
100
AcDbEntity
  8
0-0
  6
Continuous
 62
     3
370
     9
100
AcDbLine
 10
410.6540865511511
 20
147.4054252005914
 30
0.0
 11
382.654093149546
 21
147.4054252005914
 31
0.0
  0
LINE
  5
1EE
330
1F
100
AcDbEntity
  8
0-0
  6
Continuous
 62
     3
370
     9
100
AcDbLine
 10
421.6544692580765
 20
252.4054252005914
 30
0.0
 11
425.6544824548669
 21
252.4054252005914
 31
0.0
  0
LINE
  5
1EF
330
1F
100
AcDbEntity
  8
0-0
  6
Continuous
 62
     3
370
     9
100
AcDbLine
 10
426.6545352420294
 20
251.4054219013938
 30
0.0
 11
421.6544692580765
 21
251.4054219013938
 31
0.0
  0
LINE
  5
1F0
330
1F
100
AcDbEntity
  8
0-0
  6
Continuous
 62
     3
370
     9
100
AcDbLine
 10
421.6544692580765
 20
247.4054581925677
 30
0.0
 11
426.6545352420294
 21
247.4054581925677
 31
0.0
  0
LINE
  5
1F1
330
1F
100
AcDbEntity
  8
0-0
  6
Continuous
 62
     3
370
     9
100
AcDbLine
 10
421.6544692580765
 20
246.4054548933701
 30
0.0
 11
425.6544824548669
 21
246.4054548933701
 31
0.0
  0
LINE
  5
1F2
330
1F
100
AcDbEntity
  8
0-0
  6
Continuous
 62
     3
370
     9
100
AcDbLine
 10
401.6540073704077
 20
244.9055241765204
 30
0.0
 11
415.6545484388198
 21
244.9055241765204
 31
0.0
  0
LINE
  5
1F3
330
1F
100
AcDbEntity
  8
0-0
  6
Continuous
 62
     3
370
     9
100
AcDbLine
 10
401.6540073704077
 20
253.9055538692992
 30
0.0
 11
415.6545484388198
 21
253.9055538692992
 31
0.0
  0
LINE
  5
1F4
330
1F
100
AcDbEntity
  8
0-0
  6
Continuous
 62
     3
370
     9
100
AcDbLine
 10
401.6540073704077
 20
252.4054252005914
 30
0.0
 11
415.6545484388198
 21
252.4054252005914
 31
0.0
  0
LINE
  5
1F5
330
1F
100
AcDbEntity
  8
0-0
  6
Continuous
 62
     3
370
     9
100
AcDbLine
 10
415.6545484388198
 20
251.4054219013938
 30
0.0
 11
401.6540073704077
 21
251.4054219013938
 31
0.0
  0
LINE
  5
1F6
330
1F
100
AcDbEntity
  8
0-0
  6
Continuous
 62
     3
370
     9
100
AcDbLine
 10
415.6545484388198
 20
247.4054581925677
 30
0.0
 11
401.6540073704077
 21
247.4054581925677
 31
0.0
  0
LINE
  5
1F7
330
1F
100
AcDbEntity
  8
0-0
  6
Continuous
 62
     3
370
     9
100
AcDbLine
 10
401.6540073704077
 20
246.4054548933701
 30
0.0
 11
415.6545484388198
 21
246.4054548933701
 31
0.0
  0
LINE
  5
1F8
330
1F
100
AcDbEntity
  8
0-0
  6
Continuous
 62
     3
370
     9
100
AcDbLine
 10
440.260855185019
 20
235.50493889886
 30
0.0
 11
419.3695109599348
 21
236.9971989812079
 31
0.0
  0
LINE
  5
1F9
330
1F
100
AcDbEntity
  8
0-0
  6
Continuous
 62
     3
370
     9
100
AcDbLine
 10
415.6545484388198
 20
256.4055373733109
 30
0.0
 11
416.4544718974348
 21
256.4055373733109
 31
0.0
  0
LINE
  5
1FA
330
1F
100
AcDbEntity
  8
0-0
  6
Continuous
 62
     3
370
     9
100
AcDbLine
 10
414.3405440046981
 20
259.56969884924
 30
0.0
 11
401.6540073704077
 21
261.155392208615
 31
0.0
  0
LINE
  5
1FB
330
1F
100
AcDbEntity
  8
0-0
  6
Continuous
 62
     3
370
     9
100
AcDbLine
 10
415.6545484388198
 20
258.0811998521962
 30
0.0
 11
415.6545484388198
 21
240.9869681693414
 31
0.0
  0
LINE
  5
1FC
330
1F
100
AcDbEntity
  8
0-0
  6
Continuous
 62
     3
370
     9
100
AcDbLine
 10
416.4544718974348
 20
44.40538231102209
 30
0.0
 11
416.4544718974348
 21
30.40528663429075
 31
0.0
  0
LINE
  5
1FD
330
1F
100
AcDbEntity
  8
0-0
  6
Continuous
 62
     3
370
     9
100
AcDbLine
 10
416.4544718974348
 20
44.40538231102209
 30
0.0
 11
418.0545167665223
 21
42.93029455236501
 31
0.0
  0
LINE
  5
1FE
330
1F
100
AcDbEntity
  8
0-0
  6
Continuous
 62
     3
370
     9
100
AcDbLine
 10
416.4544718974348
 20
30.40528663429075
 30
0.0
 11
418.0545167665223
 21
31.88032490498324
 31
0.0
  0
LINE
  5
1FF
330
1F
100
AcDbEntity
  8
0-0
  6
Continuous
 62
     3
370
     9
100
AcDbLine
 10
416.4544718974348
 20
40.16782688450189
 30
0.0
 11
421.6544692580765
 21
40.16782688450189
 31
0.0
  0
LINE
  5
200
330
1F
100
AcDbEntity
  8
0-0
  6
Continuous
 62
     3
370
     9
100
AcDbLine
 10
416.4544718974348
 20
34.64284206081095
 30
0.0
 11
421.6544692580765
 21
34.64284206081095
 31
0.0
  0
LINE
  5
201
330
1F
100
AcDbEntity
  8
0-0
  6
Continuous
 62
     3
370
     9
100
AcDbLine
 10
415.6545484388198
 20
44.40538231102209
 30
0.0
 11
416.4544718974348
 21
44.40538231102209
 31
0.0
  0
LINE
  5
202
330
1F
100
AcDbEntity
  8
0-0
  6
Continuous
 62
     3
370
     9
100
AcDbLine
 10
418.0545167665223
 20
42.93029455236501
 30
0.0
 11
421.6544692580765
 21
42.93029455236501
 31
0.0
  0
LINE
  5
203
330
1F
100
AcDbEntity
  8
0-0
  6
Continuous
 62
     3
370
     9
100
AcDbLine
 10
421.6544692580765
 20
42.93029455236501
 30
0.0
 11
421.6544692580765
 21
31.88032490498324
 31
0.0
  0
LINE
  5
204
330
1F
100
AcDbEntity
  8
0-0
  6
Continuous
 62
     3
370
     9
100
AcDbLine
 10
425.6544824548669
 20
40.40536911423158
 30
0.0
 11
425.6544824548669
 21
34.40539880701033
 31
0.0
  0
LINE
  5
205
330
1F
100
AcDbEntity
  8
0-0
  6
Continuous
 62
     3
370
     9
100
AcDbLine
 10
425.6544824548669
 20
40.40536911423158
 30
0.0
 11
426.6545352420294
 21
39.40536581503397
 31
0.0
  0
LINE
  5
206
330
1F
100
AcDbEntity
  8
0-0
  6
Continuous
 62
     3
370
     9
100
AcDbLine
 10
426.6545352420294
 20
35.40540210620793
 30
0.0
 11
425.6544824548669
 21
34.40539880701033
 31
0.0
  0
LINE
  5
207
330
1F
100
AcDbEntity
  8
0-0
  6
Continuous
 62
     3
370
     9
100
AcDbLine
 10
418.0545167665223
 20
31.88032490498324
 30
0.0
 11
421.6544692580765
 21
31.88032490498324
 31
0.0
  0
LINE
  5
208
330
1F
100
AcDbEntity
  8
0-0
  6
Continuous
 62
     3
370
     9
100
AcDbLine
 10
426.6545352420294
 20
39.40536581503397
 30
0.0
 11
426.6545352420294
 21
35.40540210620793
 31
0.0
  0
LINE
  5
209
330
1F
100
AcDbEntity
  8
0-0
  6
Continuous
 62
     3
370
     9
100
AcDbLine
 10
399.6535058923669
 20
137.9054186021962
 30
0.0
 11
413.653552081134
 21
138.9053724134293
 31
0.0
  0
LINE
  5
20A
330
1F
100
AcDbEntity
  8
0-0
  6
Continuous
 62
     3
370
     9
100
AcDbLine
 10
409.254072034681
 20
140.8054133234799
 30
0.0
 11
404.0540746740394
 21
140.8054133234799
 31
0.0
  0
LINE
  5
20B
330
1F
100
AcDbEntity
  8
0-0
  6
Continuous
 62
     3
370
     9
100
AcDbLine
 10
399.6535058923669
 20
137.405392208615
 30
0.0
 11
413.653552081134
 21
138.9053724134293
 31
0.0
  0
LINE
  5
20C
330
1F
100
AcDbEntity
  8
0-0
  6
Continuous
 62
     3
370
     9
100
AcDbLine
 10
428.6540469607794
 20
78.40534601984814
 30
0.0
 11
436.6540733543602
 21
93.40539550781273
 31
0.0
  0
LINE
  5
20D
330
1F
100
AcDbEntity
  8
0-0
  6
Continuous
 62
     3
370
     9
100
AcDbLine
 10
423.4348482699011
 20
80.63131466427387
 30
0.0
 11
421.8732060612861
 21
78.67926190350522
 31
0.0
  0
LINE
  5
20E
330
1F
100
AcDbEntity
  8
0-0
  6
Continuous
 62
     3
370
     9
100
AcDbLine
 10
441.654040362384
 20
56.11849068306606
 30
0.0
 11
441.654040362384
 21
52.8020547402873
 31
0.0
  0
LINE
  5
20F
330
1F
100
AcDbEntity
  8
0-0
  6
Continuous
 62
     3
370
     9
100
AcDbLine
 10
396.6539413864548
 20
47.40539220861501
 30
0.0
 11
396.6539413864548
 21
23.40541200380085
 31
0.0
  0
LINE
  5
210
330
1F
100
AcDbEntity
  8
0-0
  6
Continuous
 62
     3
370
     9
100
AcDbLine
 10
401.6540073704077
 20
51.40540540540553
 30
0.0
 11
401.6540073704077
 21
23.40541200380085
 31
0.0
  0
LINE
  5
211
330
1F
100
AcDbEntity
  8
0-0
  6
Continuous
 62
     3
370
     9
100
AcDbLine
 10
396.6539413864548
 20
32.40539220861501
 30
0.0
 11
381.6539413864548
 21
32.40539220861501
 31
0.0
  0
LINE
  5
212
330
1F
100
AcDbEntity
  8
0-0
  6
Continuous
 62
     3
370
     9
100
AcDbLine
 10
396.6539413864548
 20
36.40540540540553
 30
0.0
 11
381.6539413864548
 21
36.40540540540553
 31
0.0
  0
LINE
  5
213
330
1F
100
AcDbEntity
  8
0-0
  6
Continuous
 62
     3
370
     9
100
AcDbLine
 10
401.6540073704077
 20
47.40539220861501
 30
0.0
 11
381.6539413864548
 21
47.40539220861501
 31
0.0
  0
LINE
  5
214
330
1F
100
AcDbEntity
  8
0-0
  6
Continuous
 62
     3
370
     9
100
AcDbLine
 10
401.6540073704077
 20
51.40540540540553
 30
0.0
 11
381.6539413864548
 21
51.40540540540553
 31
0.0
  0
LINE
  5
215
330
1F
100
AcDbEntity
  8
0-0
  6
Continuous
 62
     3
370
     9
100
AcDbLine
 10
401.6540073704077
 20
23.40541200380085
 30
0.0
 11
396.6539413864548
 21
23.40541200380085
 31
0.0
  0
LINE
  5
216
330
1F
100
AcDbEntity
  8
0-0
  6
Continuous
 62
     3
370
     9
100
AcDbLine
 10
417.953165415171
 20
56.64741804793096
 30
0.0
 11
399.6540997479415
 21
55.27496832770282
 31
0.0
  0
LINE
  5
217
330
1F
100
AcDbEntity
  8
0-0
  6
Continuous
 62
     3
370
     9
100
AcDbLine
 10
432.0457540976035
 20
58.88358121304918
 30
0.0
 11
440.3821006981102
 21
57.60110061233127
 31
0.0
  0
LINE
  5
218
330
1F
100
AcDbEntity
  8
0-0
  6
Continuous
 62
     3
370
     9
100
AcDbLine
 10
399.6540997479415
 20
139.4053988070103
 30
0.0
 11
399.6540997479415
 21
51.40540540540553
 31
0.0
  0
LINE
  5
219
330
1F
100
AcDbEntity
  8
0-0
  6
Continuous
 62
     3
370
     9
100
AcDbLine
 10
410.6540865511511
 20
139.4053988070103
 30
0.0
 11
382.654093149546
 21
139.4053988070103
 31
0.0
  0
LINE
  5
21A
330
1F
100
AcDbEntity
  8
0-0
  6
Continuous
 62
     3
370
     9
100
AcDbLine
 10
421.6544692580765
 20
34.40539880701033
 30
0.0
 11
425.6544824548669
 21
34.40539880701033
 31
0.0
  0
LINE
  5
21B
330
1F
100
AcDbEntity
  8
0-0
  6
Continuous
 62
     3
370
     9
100
AcDbLine
 10
426.6545352420294
 20
35.40540210620793
 30
0.0
 11
421.6544692580765
 21
35.40540210620793
 31
0.0
  0
LINE
  5
21C
330
1F
100
AcDbEntity
  8
0-0
  6
Continuous
 62
     3
370
     9
100
AcDbLine
 10
421.6544692580765
 20
39.40536581503397
 30
0.0
 11
426.6545352420294
 21
39.40536581503397
 31
0.0
  0
LINE
  5
21D
330
1F
100
AcDbEntity
  8
0-0
  6
Continuous
 62
     3
370
     9
100
AcDbLine
 10
421.6544692580765
 20
40.40536911423158
 30
0.0
 11
425.6544824548669
 21
40.40536911423158
 31
0.0
  0
LINE
  5
21E
330
1F
100
AcDbEntity
  8
0-0
  6
Continuous
 62
     3
370
     9
100
AcDbLine
 10
401.6540073704077
 20
41.90529983108127
 30
0.0
 11
415.6545484388198
 21
41.90529983108127
 31
0.0
  0
LINE
  5
21F
330
1F
100
AcDbEntity
  8
0-0
  6
Continuous
 62
     3
370
     9
100
AcDbLine
 10
401.6540073704077
 20
32.90527013830251
 30
0.0
 11
415.6545484388198
 21
32.90527013830251
 31
0.0
  0
LINE
  5
220
330
1F
100
AcDbEntity
  8
0-0
  6
Continuous
 62
     3
370
     9
100
AcDbLine
 10
401.6540073704077
 20
34.40539880701033
 30
0.0
 11
415.6545484388198
 21
34.40539880701033
 31
0.0
  0
LINE
  5
221
330
1F
100
AcDbEntity
  8
0-0
  6
Continuous
 62
     3
370
     9
100
AcDbLine
 10
415.6545484388198
 20
35.40540210620793
 30
0.0
 11
401.6540073704077
 21
35.40540210620793
 31
0.0
  0
LINE
  5
222
330
1F
100
AcDbEntity
  8
0-0
  6
Continuous
 62
     3
370
     9
100
AcDbLine
 10
415.6545484388198
 20
39.40536581503397
 30
0.0
 11
401.6540073704077
 21
39.40536581503397
 31
0.0
  0
LINE
  5
223
330
1F
100
AcDbEntity
  8
0-0
  6
Continuous
 62
     3
370
     9
100
AcDbLine
 10
401.6540073704077
 20
40.40536911423158
 30
0.0
 11
415.6545484388198
 21
40.40536911423158
 31
0.0
  0
LINE
  5
224
330
1F
100
AcDbEntity
  8
0-0
  6
Continuous
 62
     3
370
     9
100
AcDbLine
 10
440.260855185019
 20
51.30588510874168
 30
0.0
 11
419.3695109599348
 21
49.81362502639377
 31
0.0
  0
LINE
  5
225
330
1F
100
AcDbEntity
  8
0-0
  6
Continuous
 62
     3
370
     9
100
AcDbLine
 10
415.6545484388198
 20
30.40528663429075
 30
0.0
 11
416.4544718974348
 21
30.40528663429075
 31
0.0
  0
LINE
  5
226
330
1F
100
AcDbEntity
  8
0-0
  6
Continuous
 62
     3
370
     9
100
AcDbLine
 10
414.3405440046981
 20
27.24112515836168
 30
0.0
 11
401.6540073704077
 21
25.65543179898668
 31
0.0
  0
LINE
  5
227
330
1F
100
AcDbEntity
  8
0-0
  6
Continuous
 62
     3
370
     9
100
AcDbLine
 10
415.6545484388198
 20
28.72962415540553
 30
0.0
 11
415.6545484388198
 21
45.82385583826033
 31
0.0
  0
LINE
  5
228
330
1F
100
AcDbEntity
  8
0-0
  6
JWW_CENTER1
 62
     3
370
     9
100
AcDbLine
 10
392.6539281896644
 20
249.4055142789275
 30
0.0
 11
430.6545484388198
 21
249.4055142789275
 31
0.0
  0
LINE
  5
229
330
1F
100
AcDbEntity
  8
0-0
  6
JWW_CENTER1
 62
     3
370
     9
100
AcDbLine
 10
392.6539281896644
 20
37.40530972867418
 30
0.0
 11
430.6545484388198
 21
37.40530972867418
 31
0.0
  0
LINE
  5
22A
330
1F
100
AcDbEntity
  8
0-F
  6
Continuous
 62
     7
370
     9
100
AcDbLine
 10
321.6539413864548
 20
23.40526353990731
 30
0.0
 11
321.6539413864548
 21
290.567574165963
 31
0.0
  0
LINE
  5
22B
330
1F
100
AcDbEntity
  8
0-F
  6
Continuous
 62
     7
370
     9
100
AcDbLine
 10
321.6539413864548
 20
263.4054120038008
 30
0.0
 11
320.0876473091744
 21
275.3027145798144
 31
0.0
  0
LINE
  5
22C
330
1F
100
AcDbEntity
  8
0-F
  6
Continuous
 62
     7
370
     9
100
AcDbLine
 10
321.6539413864548
 20
263.4054120038008
 30
0.0
 11
323.2202354637352
 21
275.3027145798144
 31
0.0
  0
LINE
  5
22D
330
1F
100
AcDbEntity
  8
0-1
  6
Continuous
 62
     2
370
     9
100
AcDbLine
 10
381.6539413864548
 20
265.4054186021962
 30
0.0
 11
381.6539413864548
 21
268.4053790118245
 31
0.0
  0
LINE
  5
22E
330
1F
100
AcDbEntity
  8
0-1
  6
Continuous
 62
     2
370
     9
100
AcDbLine
 10
381.6539413864548
 20
21.40530642947658
 30
0.0
 11
381.6539413864548
 21
18.40529653188366
 31
0.0
  0
LINE
  5
22F
330
1F
100
AcDbEntity
  8
0-E
  6
Continuous
 62
     7
370
     9
100
AcDbLine
 10
381.6539413864548
 20
32.40539220861501
 30
0.0
 11
380.0876473091744
 21
20.50804014463699
 31
0.0
  0
LINE
  5
230
330
1F
100
AcDbEntity
  8
0-E
  6
Continuous
 62
     7
370
     9
100
AcDbLine
 10
381.6539413864548
 20
32.40539220861501
 30
0.0
 11
377.061755206134
 21
21.31885095544783
 31
0.0
  0
ARC
  5
231
330
1F
100
AcDbEntity
  8
0-0
  6
Continuous
 62
     3
370
     9
100
AcDbCircle
 10
417.6540601575698
 20
226.1746265308279
 30
0.0
 40
4.000000051549963
100
AcDbArc
 50
0.0
 51
85.71116638183594
  0
CIRCLE
  5
232
330
1F
100
AcDbEntity
  8
0-0
  6
Continuous
 62
     3
370
     9
100
AcDbCircle
 10
406.6540733543602
 20
143.4054120038008
 30
0.0
 40
2.000000025774982
  0
ARC
  5
233
330
1F
100
AcDbEntity
  8
0-0
  6
Continuous
 62
     3
370
     9
100
AcDbCircle
 10
422.6539281896644
 20
205.5547732791387
 30
0.0
 40
1.000000012887491
100
AcDbArc
 50
0.0
 51
38.66105651855469
  0
ARC
  5
234
330
1F
100
AcDbEntity
  8
0-0
  6
Continuous
 62
     3
370
     9
100
AcDbCircle
 10
422.6541261415223
 20
208.7562981682856
 30
0.0
 40
1.000000012887491
100
AcDbArc
 50
180.0
 51
218.6610565185547
  0
ARC
  5
235
330
1F
100
AcDbEntity
  8
0-0
  6
Continuous
 62
     3
370
     9
100
AcDbCircle
 10
440.1539611816406
 20
234.0087692673144
 30
0.0
 40
1.500000019331236
100
AcDbArc
 50
0.0
 51
85.91419982910156
  0
ARC
  5
236
330
1F
100
AcDbEntity
  8
0-0
  6
Continuous
 62
     3
370
     9
100
AcDbCircle
 10
440.1539611816406
 20
230.6923333245356
 30
0.0
 40
1.500000019331236
100
AcDbArc
 50
278.7463684082031
 51
0.0
  0
ARC
  5
237
330
1F
100
AcDbEntity
  8
0-0
  6
Continuous
 62
     3
370
     9
100
AcDbCircle
 10
432.6540601575698
 20
223.9737977723819
 30
0.0
 40
4.000000051549963
100
AcDbArc
 50
98.74600219726562
 51
180.0
  0
ARC
  5
238
330
1F
100
AcDbEntity
  8
0-0
  6
Continuous
 62
     3
370
     9
100
AcDbCircle
 10
419.6545616356102
 20
240.9869681693414
 30
0.0
 40
4.000000051549963
100
AcDbArc
 50
180.0
 51
265.9141693115234
  0
ARC
  5
239
330
1F
100
AcDbEntity
  8
0-0
  6
Continuous
 62
     3
370
     9
100
AcDbCircle
 10
414.1544692580765
 20
258.0811998521962
 30
0.0
 40
1.500000019331236
100
AcDbArc
 50
0.0
 51
82.87332153320312
  0
ARC
  5
23A
330
1F
100
AcDbEntity
  8
0-0
  6
Continuous
 62
     3
370
     9
100
AcDbCircle
 10
417.6540601575698
 20
60.63619747677387
 30
0.0
 40
4.000000051549963
100
AcDbArc
 50
274.2888336181641
 51
0.0
  0
ARC
  5
23B
330
1F
100
AcDbEntity
  8
0-0
  6
Continuous
 62
     3
370
     9
100
AcDbCircle
 10
422.6539281896644
 20
81.25605072846304
 30
0.0
 40
1.000000012887491
100
AcDbArc
 50
321.3389434814453
 51
0.0000000000000127
  0
ARC
  5
23C
330
1F
100
AcDbEntity
  8
0-0
  6
Continuous
 62
     3
370
     9
100
AcDbCircle
 10
422.6541261415223
 20
78.05452583931606
 30
0.0
 40
1.000000012887491
100
AcDbArc
 50
141.3389434814453
 51
180.0
  0
ARC
  5
23D
330
1F
100
AcDbEntity
  8
0-0
  6
Continuous
 62
     3
370
     9
100
AcDbCircle
 10
440.1539611816406
 20
52.8020547402873
 30
0.0
 40
1.500000019331236
100
AcDbArc
 50
274.0858001708984
 51
0.0000000000000254
  0
ARC
  5
23E
330
1F
100
AcDbEntity
  8
0-0
  6
Continuous
 62
     3
370
     9
100
AcDbCircle
 10
440.1539611816406
 20
56.11849068306606
 30
0.0
 40
1.500000019331236
100
AcDbArc
 50
0.0
 51
81.25363159179688
  0
ARC
  5
23F
330
1F
100
AcDbEntity
  8
0-0
  6
Continuous
 62
     3
370
     9
100
AcDbCircle
 10
432.6540601575698
 20
62.83702623521981
 30
0.0
 40
4.000000051549963
100
AcDbArc
 50
180.0
 51
261.2539978027344
  0
ARC
  5
240
330
1F
100
AcDbEntity
  8
0-0
  6
Continuous
 62
     3
370
     9
100
AcDbCircle
 10
419.6545616356102
 20
45.82385583826033
 30
0.0
 40
4.000000051549963
100
AcDbArc
 50
94.08583068847656
 51
180.0
  0
ARC
  5
241
330
1F
100
AcDbEntity
  8
0-0
  6
Continuous
 62
     3
370
     9
100
AcDbCircle
 10
414.1544692580765
 20
28.72962415540553
 30
0.0
 40
1.500000019331236
100
AcDbArc
 50
277.1266784667969
 51
0.0000000000000127
  0
TEXT
  5
242
330
1F
100
AcDbEntity
  8
0-F
  6
Continuous
 62
     2
370
     9
100
AcDbText
 10
317.3979351596066
 20
28.90540860599025
 30
0.0
 40
12.192
  1
28
 50
90.00000250447789
 41
1.0625
  7
ＭＳ ゴシック
100
AcDbText
  0
TEXT
  5
243
330
1F
100
AcDbEntity
  8
0-F
  6
Continuous
 62
     2
370
     9
100
AcDbText
 10
277.3979019709292
 20
258.4886968502895
 30
0.0
 40
12.192
  1
2
 50
90.00000250448173
 41
1.000000000000001
  7
ＭＳ ゴシック
100
AcDbText
  0
TEXT
  5
244
330
1F
100
AcDbEntity
  8
0-F
  6
Continuous
 62
     2
370
     9
100
AcDbText
 10
277.3979019709292
 20
20.59903686559807
 30
0.0
 40
12.192
  1
2
 50
90.00000250448173
  7
ＭＳ ゴシック
100
AcDbText
  0
TEXT
  5
245
330
1F
100
AcDbEntity
  8
0-F
  6
Continuous
 62
     2
370
     9
100
AcDbText
 10
390.9539209314296
 20
107.6614350981843
 30
0.0
 40
12.192
  1
40
 41
1.0625
  7
ＭＳ ゴシック
100
AcDbText
  0
TEXT
  5
246
330
1F
100
AcDbEntity
  8
0-F
  6
Continuous
 62
     2
370
     9
100
AcDbText
 10
442.110827471759
 20
125.7294414590373
 30
0.0
 40
12.192
  1
7
  7
ＭＳ ゴシック
100
AcDbText
  0
TEXT
  5
247
330
1F
100
AcDbEntity
  8
0-F
  6
Continuous
 62
     2
370
     9
100
AcDbText
 10
451.2652101258975
 20
107.6614350981843
 30
0.0
 40
12.192
  1
8
  7
ＭＳ ゴシック
100
AcDbText
  0
TEXT
  5
248
330
1F
100
AcDbEntity
  8
0-F
  6
Continuous
 62
     2
370
     9
100
AcDbText
 10
317.397934962905
 20
233.4054003579962
 30
0.0
 40
12.192
  1
4
 50
90.00000250447522
 41
1.000000000000001
  7
ＭＳ ゴシック
100
AcDbText
  0
TEXT
  5
249
330
1F
100
AcDbEntity
  8
0-F
  6
Continuous
 62
     2
370
     9
100
AcDbText
 10
299.5331758690662
 20
236.4054251019786
 30
0.0
 40
12.192
  1
11
 50
90.00000250448097
 41
1.062499999999999
  7
ＭＳ ゴシック
100
AcDbText
  0
TEXT
  5
24A
330
1F
100
AcDbEntity
  8
0-F
  6
Continuous
 62
     2
370
     9
100
AcDbText
 10
317.397934962905
 20
248.4054003579962
 30
0.0
 40
12.192
  1
4
 50
90.00000250447522
 41
1.000000000000001
  7
ＭＳ ゴシック
100
AcDbText
  0
TEXT
  5
24B
330
1F
100
AcDbEntity
  8
0-F
  6
Continuous
 62
     2
370
     9
100
AcDbText
 10
277.3979019709292
 20
-3.328938350829439
 30
0.0
 40
12.192
  1
3
 50
90.00000250448173
  7
ＭＳ ゴシック
100
AcDbText
  0
TEXT
  5
24C
330
1F
100
AcDbEntity
  8
0-F
  6
Continuous
 62
     2
370
     9
100
AcDbText
 10
317.397934962905
 20
277.1080486239379
 30
0.0
 40
12.192
  1
9
 50
90.00000250447522
 41
1.000000000000001
  7
ＭＳ ゴシック
100
AcDbText
  0
TEXT
  5
24D
330
1F
100
AcDbEntity
  8
0-F
  6
Continuous
 62
     2
370
     9
100
AcDbText
 10
277.3979019709292
 20
282.1395889533301
 30
0.0
 40
12.192
  1
3
 50
90.00000250448173
 41
1.000000000000001
  7
ＭＳ ゴシック
100
AcDbText
  0
TEXT
  5
24E
330
1F
100
AcDbEntity
  8
0-F
  6
Continuous
 62
     2
370
     9
100
AcDbText
 10
237.3978693723552
 20
130.405312929259
 30
0.0
 40
12.192
  1
250
 50
90.00000250447873
 41
1.083333333333333
  7
ＭＳ ゴシック
100
AcDbText
  0
TEXT
  5
24F
330
1F
100
AcDbEntity
  8
0-F
  6
Continuous
 62
     2
370
     9
100
AcDbText
 10
277.3979023643313
 20
130.4053624172235
 30
0.0
 40
12.192
  1
240
 50
90.00000250447873
 41
1.083333333333333
  7
ＭＳ ゴシック
100
AcDbText
  0
TEXT
  5
250
330
1F
100
AcDbEntity
  8
0-F
  6
Continuous
 62
     2
370
     9
100
AcDbText
 10
317.3979353563078
 20
130.405411905188
 30
0.0
 40
12.192
  1
184
 50
90.00000250447873
 41
1.083333333333333
  7
ＭＳ ゴシック
100
AcDbText
  0
LWPOLYLINE
  5
251
330
1F
100
AcDbEntity
  8
0-F
  6
Continuous
 62
     7
370
     9
100
AcDbPolyline
 90
        4
 70
     1
 43
0.4
 10
281.8539083944785
 20
265.4054186021962
 42
0.4142135623731
 10
281.6539083944785
 20
265.6054186021962
 42
0.4142135623731
 10
281.4539083944786
 20
265.4054186021962
 42
0.4142135623731
 10
281.6539083944785
 20
265.2054186021962
 42
0.4142135623731
  0
LWPOLYLINE
  5
252
330
1F
100
AcDbEntity
  8
0-F
  6
Continuous
 62
     7
370
     9
100
AcDbPolyline
 90
        4
 70
     1
 43
0.4
 10
281.8539083944785
 20
21.40530642947658
 42
0.4142135623731
 10
281.6539083944785
 20
21.60530642947658
 42
0.4142135623731
 10
281.4539083944786
 20
21.40530642947658
 42
0.4142135623731
 10
281.6539083944785
 20
21.20530642947658
 42
0.4142135623731
  0
LWPOLYLINE
  5
253
330
1F
100
AcDbEntity
  8
0-F
  6
Continuous
 62
     7
370
     9
100
AcDbPolyline
 90
        4
 70
     1
 43
0.4
 10
428.8540469607794
 20
103.4054284997891
 42
0.4142135623731
 10
428.6540469607794
 20
103.6054284997891
 42
0.4142135623731
 10
428.4540469607794
 20
103.4054284997891
 42
0.4142135623731
 10
428.6540469607794
 20
103.2054284997891
 42
0.4142135623731
  0
LWPOLYLINE
  5
254
330
1F
100
AcDbEntity
  8
0-F
  6
Continuous
 62
     7
370
     9
100
AcDbPolyline
 90
        4
 70
     1
 43
0.4
 10
321.8539413864548
 20
239.4054317989867
 42
0.4142135623731
 10
321.6539413864548
 20
239.6054317989867
 42
0.4142135623731
 10
321.4539413864548
 20
239.4054317989867
 42
0.4142135623731
 10
321.6539413864548
 20
239.2054317989867
 42
0.4142135623731
  0
LWPOLYLINE
  5
255
330
1F
100
AcDbEntity
  8
0-F
  6
Continuous
 62
     7
370
     9
100
AcDbPolyline
 90
        4
 70
     1
 43
0.4
 10
321.8539413864548
 20
250.4054186021962
 42
0.4142135623731
 10
321.6539413864548
 20
250.6054186021962
 42
0.4142135623731
 10
321.4539413864548
 20
250.4054186021962
 42
0.4142135623731
 10
321.6539413864548
 20
250.2054186021962
 42
0.4142135623731
  0
LWPOLYLINE
  5
256
330
1F
100
AcDbEntity
  8
0-F
  6
Continuous
 62
     7
370
     9
100
AcDbPolyline
 90
        4
 70
     1
 43
0.4
 10
321.8539413864548
 20
254.4054317989867
 42
0.4142135623731
 10
321.6539413864548
 20
254.6054317989867
 42
0.4142135623731
 10
321.4539413864548
 20
254.4054317989867
 42
0.4142135623731
 10
321.6539413864548
 20
254.2054317989867
 42
0.4142135623731
  0
LINE
  5
257
330
1F
100
AcDbEntity
  8
0-F
  6
Continuous
 62
     7
370
     9
100
AcDbLine
 10
-708.346141093486
 20
272.4053922086149
 30
0.0
 11
-708.346141093486
 21
384.6053961676522
 31
0.0
  0
LINE
  5
258
330
1F
100
AcDbEntity
  8
0-F
  6
Continuous
 62
     7
370
     9
100
AcDbLine
 10
-708.346141093486
 20
343.4053790118245
 30
0.0
 11
-696.4488385174727
 21
344.9716730891049
 31
0.0
  0
LINE
  5
259
330
1F
100
AcDbEntity
  8
0-F
  6
Continuous
 62
     7
370
     9
100
AcDbLine
 10
-708.346141093486
 20
343.4053790118245
 30
0.0
 11
-696.4488385174727
 21
341.8390849345441
 31
0.0
  0
LINE
  5
25A
330
1F
100
AcDbEntity
  8
0-F
  6
Continuous
 62
     7
370
     9
100
AcDbLine
 10
-596.4488550134611
 20
341.8390849345441
 30
0.0
 11
-620.2435591414169
 21
344.9716730891049
 31
0.0
  0
LINE
  5
25B
330
1F
100
AcDbEntity
  8
0-F
  6
Continuous
 62
     7
370
     9
100
AcDbLine
 10
-596.4488550134611
 20
344.9716730891049
 30
0.0
 11
-620.2435591414169
 21
341.8390849345441
 31
0.0
  0
LINE
  5
25C
330
1F
100
AcDbEntity
  8
0-F
  6
Continuous
 62
     7
370
     9
100
AcDbLine
 10
3.551144986539384
 20
341.8390849345441
 30
0.0
 11
-20.2434601654877
 21
344.9716730891049
 31
0.0
  0
LINE
  5
25D
330
1F
100
AcDbEntity
  8
0-F
  6
Continuous
 62
     7
370
     9
100
AcDbLine
 10
3.551144986539384
 20
344.9716730891049
 30
0.0
 11
-20.2434601654877
 21
341.8390849345441
 31
0.0
  0
LINE
  5
25E
330
1F
100
AcDbEntity
  8
0-F
  6
Continuous
 62
     7
370
     9
100
AcDbLine
 10
-708.346141093486
 20
383.4054120038007
 30
0.0
 11
-696.4488385174727
 21
384.9717060810812
 31
0.0
  0
LINE
  5
25F
330
1F
100
AcDbEntity
  8
0-F
  6
Continuous
 62
     7
370
     9
100
AcDbLine
 10
-708.346141093486
 20
383.4054120038007
 30
0.0
 11
-696.4488385174727
 21
381.8391179265203
 31
0.0
  0
LINE
  5
260
330
1F
100
AcDbEntity
  8
0-F
  6
Continuous
 62
     7
370
     9
100
AcDbLine
 10
-708.346141093486
 20
343.4053790118245
 30
0.0
 11
121.6538754025021
 21
343.4053790118245
 31
0.0
  0
LINE
  5
261
330
1F
100
AcDbEntity
  8
0-F
  6
Continuous
 62
     7
370
     9
100
AcDbLine
 10
-708.346141093486
 20
383.4054120038007
 30
0.0
 11
121.6538754025021
 21
383.4054120038007
 31
0.0
  0
TEXT
  5
262
330
1F
100
AcDbEntity
  8
0-F
  6
Continuous
 62
     2
370
     9
100
AcDbText
 10
-670.846184807855
 20
347.6613856102197
 30
0.0
 40
12.192
  1
100
 41
1.083333333333333
  7
ＭＳ ゴシック
100
AcDbText
  0
TEXT
  5
263
330
1F
100
AcDbEntity
  8
0-F
  6
Continuous
 62
     2
370
     9
100
AcDbText
 10
-320.8461311958931
 20
347.6613856102197
 30
0.0
 40
12.192
  1
600
 41
1.083333333333333
  7
ＭＳ ゴシック
100
AcDbText
  0
TEXT
  5
264
330
1F
100
AcDbEntity
  8
0-F
  6
Continuous
 62
     2
370
     9
100
AcDbText
 10
95.65388200089751
 20
347.6613856102197
 30
0.0
 40
12.192
  1
600
 41
1.083333333333333
  7
ＭＳ ゴシック
100
AcDbText
  0
TEXT
  5
265
330
1F
100
AcDbEntity
  8
0-F
  6
Continuous
 62
     2
370
     9
100
AcDbText
 10
-180.3285052325275
 20
387.6614186021961
 30
0.0
 40
12.192
  1
2000
 41
1.09375
  7
ＭＳ ゴシック
100
AcDbText
  0
TEXT
  5
266
330
1F
100
AcDbEntity
  8
0-5
  6
Continuous
 62
     2
370
     9
100
AcDbText
 10
-589.3684746373283
 20
322.2547595016895
 30
0.0
 40
12.192
  1
φ8.5
 41
1.1
  7
ＭＳ ゴシック
100
AcDbText
  0
LINE
  5
267
330
1F
100
AcDbEntity
  8
0-5
  6
Continuous
 62
     7
370
     9
100
AcDbLine
 10
-591.260303335328
 20
317.9988518792233
 30
0.0
 11
-543.4766459393286
 21
317.9988518792233
 31
0.0
  0
LINE
  5
268
330
1F
100
AcDbEntity
  8
0-5
  6
Continuous
 62
     7
370
     9
100
AcDbLine
 10
-606.2211412674669
 20
292.0859204569543
 30
0.0
 11
-591.260303335328
 21
317.9988518792233
 31
0.0
  0
LINE
  5
269
330
1F
100
AcDbEntity
  8
0-5
  6
Continuous
 62
     7
370
     9
100
AcDbLine
 10
-606.2211412674669
 20
292.0859204569543
 30
0.0
 11
-600.1335269773799
 21
300.0194538598668
 31
0.0
  0
LINE
  5
26A
330
1F
100
AcDbEntity
  8
0-5
  6
Continuous
 62
     7
370
     9
100
AcDbLine
 10
-606.2211412674669
 20
292.0859204569543
 30
0.0
 11
-602.3943069438164
 21
301.3247157820671
 31
0.0
  0
ARC
  5
26B
330
1F
100
AcDbEntity
  8
0-1
  6
Continuous
 62
     2
370
     9
100
AcDbCircle
 10
-600.8461309602362
 20
267.4053636941211
 30
0.0
 40
1.999999824868206
100
AcDbArc
 50
90.0
 51
149.9994903964416
  0
ARC
  5
26C
330
1F
100
AcDbEntity
  8
0-1
  6
Continuous
 62
     2
370
     9
100
AcDbCircle
 10
-615.8461512267359
 20
267.4053636941211
 30
0.0
 40
1.999999824868206
100
AcDbArc
 50
30.00050960355836
 51
89.99999999999999
  0
LINE
  5
26D
330
1F
100
AcDbEntity
  8
0-1
  6
JWW_CENTER2
 62
     2
370
     9
100
AcDbLine
 10
-608.346141093486
 20
288.4053127922147
 30
0.0
 11
-614.1222171267946
 21
288.4053127922147
 31
0.0
  0
LINE
  5
26E
330
1F
100
AcDbEntity
  8
0-1
  6
JWW_CENTER2
 62
     2
370
     9
100
AcDbLine
 10
-608.346141093486
 20
288.4053127922147
 30
0.0
 11
-602.5700650601766
 21
288.4053127922147
 31
0.0
  0
LINE
  5
26F
330
1F
100
AcDbEntity
  8
0-1
  6
Continuous
 62
     2
370
     9
100
AcDbLine
 10
-617.0961198843588
 20
269.4053730025715
 30
0.0
 11
-617.0961198843588
 21
298.4053593344669
 31
0.0
  0
LINE
  5
270
330
1F
100
AcDbEntity
  8
0-1
  6
Continuous
 62
     2
370
     9
100
AcDbLine
 10
-608.346141093486
 20
298.4053593344669
 30
0.0
 11
-617.0961198843588
 21
298.4053593344669
 31
0.0
  0
LINE
  5
271
330
1F
100
AcDbEntity
  8
0-1
  6
Continuous
 62
     2
370
     9
100
AcDbLine
 10
-608.346141093486
 20
298.4053593344669
 30
0.0
 11
-599.5961623026133
 21
298.4053593344669
 31
0.0
  0
LINE
  5
272
330
1F
100
AcDbEntity
  8
0-1
  6
Continuous
 62
     2
370
     9
100
AcDbLine
 10
-599.5961623026133
 20
269.4053730025715
 30
0.0
 11
-599.5961623026133
 21
298.4053593344669
 31
0.0
  0
LINE
  5
273
330
1F
100
AcDbEntity
  8
0-1
  6
Continuous
 62
     2
370
     9
100
AcDbLine
 10
-617.0961198843588
 20
269.4053730025715
 30
0.0
 11
-615.8461512267359
 21
269.4053730025715
 31
0.0
  0
LINE
  5
274
330
1F
100
AcDbEntity
  8
0-1
  6
JWW_DASHED1
 62
     2
370
     9
100
AcDbLine
 10
-615.0961105759079
 20
269.2594574445924
 30
0.0
 11
-615.0961105759079
 21
298.4053593344669
 31
0.0
  0
LINE
  5
275
330
1F
100
AcDbEntity
  8
0-1
  6
Continuous
 62
     2
370
     9
100
AcDbLine
 10
-599.5961623026133
 20
269.4053730025715
 30
0.0
 11
-600.8461309602362
 21
269.4053730025715
 31
0.0
  0
LINE
  5
276
330
1F
100
AcDbEntity
  8
0-1
  6
JWW_DASHED1
 62
     2
370
     9
100
AcDbLine
 10
-601.5961716110642
 20
269.2594574445924
 30
0.0
 11
-601.5961716110642
 21
298.4053593344669
 31
0.0
  0
CIRCLE
  5
277
330
1F
100
AcDbEntity
  8
0-1
  6
Continuous
 62
     2
370
     9
100
AcDbCircle
 10
-608.346141093486
 20
288.4053127922147
 30
0.0
 40
4.249999652037749
  0
LINE
  5
278
330
1F
100
AcDbEntity
  8
0-1
  6
JWW_CENTER2
 62
     2
370
     9
100
AcDbLine
 10
-608.346141093486
 20
299.1858217688604
 30
0.0
 11
-608.346141093486
 21
259.4054255540767
 31
0.0
  0
LINE
  5
279
330
1F
100
AcDbEntity
  8
0-F
  6
Continuous
 62
     7
370
     9
100
AcDbLine
 10
-608.346176101365
 20
304.8045019756638
 30
0.0
 11
-608.3461575894744
 21
344.6053631756757
 31
0.0
  0
ARC
  5
27A
330
1F
100
AcDbEntity
  8
0-1
  6
Continuous
 62
     2
370
     9
100
AcDbCircle
 10
-0.8461474562243438
 20
267.4053636941211
 30
0.0
 40
1.999999824868206
100
AcDbArc
 50
90.0
 51
149.9994903964416
  0
ARC
  5
27B
330
1F
100
AcDbEntity
  8
0-1
  6
Continuous
 62
     2
370
     9
100
AcDbCircle
 10
-15.84616772272398
 20
267.4053636941211
 30
0.0
 40
1.999999824868206
100
AcDbArc
 50
30.00050960355836
 51
89.99999999999999
  0
LINE
  5
27C
330
1F
100
AcDbEntity
  8
0-1
  6
JWW_CENTER2
 62
     2
370
     9
100
AcDbLine
 10
-8.34615758947416
 20
288.4053127922147
 30
0.0
 11
-14.12223362278269
 21
288.4053127922147
 31
0.0
  0
LINE
  5
27D
330
1F
100
AcDbEntity
  8
0-1
  6
JWW_CENTER2
 62
     2
370
     9
100
AcDbLine
 10
-8.34615758947416
 20
288.4053127922147
 30
0.0
 11
-2.570081556164723
 21
288.4053127922147
 31
0.0
  0
LINE
  5
27E
330
1F
100
AcDbEntity
  8
0-1
  6
Continuous
 62
     2
370
     9
100
AcDbLine
 10
-17.09613638034693
 20
269.4053730025715
 30
0.0
 11
-17.09613638034693
 21
298.4053593344669
 31
0.0
  0
LINE
  5
27F
330
1F
100
AcDbEntity
  8
0-1
  6
Continuous
 62
     2
370
     9
100
AcDbLine
 10
-8.34615758947416
 20
298.4053593344669
 30
0.0
 11
-17.09613638034693
 21
298.4053593344669
 31
0.0
  0
LINE
  5
280
330
1F
100
AcDbEntity
  8
0-1
  6
Continuous
 62
     2
370
     9
100
AcDbLine
 10
-8.34615758947416
 20
298.4053593344669
 30
0.0
 11
0.403821201398614
 21
298.4053593344669
 31
0.0
  0
LINE
  5
281
330
1F
100
AcDbEntity
  8
0-1
  6
Continuous
 62
     2
370
     9
100
AcDbLine
 10
0.403821201398614
 20
269.4053730025715
 30
0.0
 11
0.403821201398614
 21
298.4053593344669
 31
0.0
  0
LINE
  5
282
330
1F
100
AcDbEntity
  8
0-1
  6
Continuous
 62
     2
370
     9
100
AcDbLine
 10
-17.09613638034693
 20
269.4053730025715
 30
0.0
 11
-15.84616772272398
 21
269.4053730025715
 31
0.0
  0
LINE
  5
283
330
1F
100
AcDbEntity
  8
0-1
  6
JWW_DASHED1
 62
     2
370
     9
100
AcDbLine
 10
-15.09612707189603
 20
269.2594574445924
 30
0.0
 11
-15.09612707189603
 21
298.4053593344669
 31
0.0
  0
LINE
  5
284
330
1F
100
AcDbEntity
  8
0-1
  6
Continuous
 62
     2
370
     9
100
AcDbLine
 10
0.403821201398614
 20
269.4053730025715
 30
0.0
 11
-0.8461474562243438
 21
269.4053730025715
 31
0.0
  0
LINE
  5
285
330
1F
100
AcDbEntity
  8
0-1
  6
JWW_DASHED1
 62
     2
370
     9
100
AcDbLine
 10
-1.596188107052285
 20
269.2594574445924
 30
0.0
 11
-1.596188107052285
 21
298.4053593344669
 31
0.0
  0
CIRCLE
  5
286
330
1F
100
AcDbEntity
  8
0-1
  6
Continuous
 62
     2
370
     9
100
AcDbCircle
 10
-8.34615758947416
 20
288.4053127922147
 30
0.0
 40
4.249999652037749
  0
LINE
  5
287
330
1F
100
AcDbEntity
  8
0-1
  6
JWW_CENTER2
 62
     2
370
     9
100
AcDbLine
 10
-8.34615758947416
 20
299.1858217688604
 30
0.0
 11
-8.34615758947416
 21
259.4054255540767
 31
0.0
  0
LINE
  5
288
330
1F
100
AcDbEntity
  8
0-F
  6
Continuous
 62
     7
370
     9
100
AcDbLine
 10
-8.34615758947416
 20
304.8045019756638
 30
0.0
 11
-8.34615758947416
 21
344.6053631756757
 31
0.0
  0
LINE
  5
289
330
1F
100
AcDbEntity
  8
0-1
  6
JWW_CENTER2
 62
     2
370
     9
100
AcDbLine
 10
-8.34615758947416
 20
-12.37514622515221
 30
0.0
 11
-8.34615758947416
 21
27.40524998963144
 31
0.0
  0
CIRCLE
  5
28A
330
1F
100
AcDbEntity
  8
0-1
  6
Continuous
 62
     2
370
     9
100
AcDbCircle
 10
-8.34615758947416
 20
-1.594637248506501
 30
0.0
 40
4.249999652037749
  0
LINE
  5
28B
330
1F
100
AcDbEntity
  8
0-1
  6
JWW_DASHED1
 62
     2
370
     9
100
AcDbLine
 10
-1.596188107052285
 20
17.55121809911577
 30
0.0
 11
-1.596188107052285
 21
-11.59468379075872
 31
0.0
  0
LINE
  5
28C
330
1F
100
AcDbEntity
  8
0-1
  6
Continuous
 62
     2
370
     9
100
AcDbLine
 10
0.403821201398614
 20
17.40530254113662
 30
0.0
 11
-0.8461474562243438
 21
17.40530254113662
 31
0.0
  0
LINE
  5
28D
330
1F
100
AcDbEntity
  8
0-1
  6
JWW_DASHED1
 62
     2
370
     9
100
AcDbLine
 10
-15.09612707189603
 20
17.55121809911577
 30
0.0
 11
-15.09612707189603
 21
-11.59468379075872
 31
0.0
  0
LINE
  5
28E
330
1F
100
AcDbEntity
  8
0-1
  6
Continuous
 62
     2
370
     9
100
AcDbLine
 10
-17.09613638034693
 20
17.40530254113662
 30
0.0
 11
-15.84616772272398
 21
17.40530254113662
 31
0.0
  0
LINE
  5
28F
330
1F
100
AcDbEntity
  8
0-1
  6
Continuous
 62
     2
370
     9
100
AcDbLine
 10
0.403821201398614
 20
17.40530254113662
 30
0.0
 11
0.403821201398614
 21
-11.59468379075872
 31
0.0
  0
LINE
  5
290
330
1F
100
AcDbEntity
  8
0-1
  6
Continuous
 62
     2
370
     9
100
AcDbLine
 10
-8.34615758947416
 20
-11.59468379075872
 30
0.0
 11
0.403821201398614
 21
-11.59468379075872
 31
0.0
  0
LINE
  5
291
330
1F
100
AcDbEntity
  8
0-1
  6
Continuous
 62
     2
370
     9
100
AcDbLine
 10
-8.34615758947416
 20
-11.59468379075872
 30
0.0
 11
-17.09613638034693
 21
-11.59468379075872
 31
0.0
  0
LINE
  5
292
330
1F
100
AcDbEntity
  8
0-1
  6
Continuous
 62
     2
370
     9
100
AcDbLine
 10
-17.09613638034693
 20
17.40530254113662
 30
0.0
 11
-17.09613638034693
 21
-11.59468379075872
 31
0.0
  0
LINE
  5
293
330
1F
100
AcDbEntity
  8
0-1
  6
JWW_CENTER2
 62
     2
370
     9
100
AcDbLine
 10
-8.34615758947416
 20
-1.594637248506501
 30
0.0
 11
-2.570081556164723
 21
-1.594637248506501
 31
0.0
  0
LINE
  5
294
330
1F
100
AcDbEntity
  8
0-1
  6
JWW_CENTER2
 62
     2
370
     9
100
AcDbLine
 10
-8.34615758947416
 20
-1.594637248506501
 30
0.0
 11
-14.12223362278269
 21
-1.594637248506501
 31
0.0
  0
ARC
  5
295
330
1F
100
AcDbEntity
  8
0-1
  6
Continuous
 62
     2
370
     9
100
AcDbCircle
 10
-15.84616772272398
 20
19.40531184958706
 30
0.0
 40
1.999999824868206
100
AcDbArc
 50
270.0
 51
329.9994903964416
  0
ARC
  5
296
330
1F
100
AcDbEntity
  8
0-1
  6
Continuous
 62
     2
370
     9
100
AcDbCircle
 10
-0.8461474562243438
 20
19.40531184958706
 30
0.0
 40
1.999999824868206
100
AcDbArc
 50
210.0005096035584
 51
270.0
  0
LINE
  5
297
330
1F
100
AcDbEntity
  8
0-1
  6
JWW_CENTER2
 62
     2
370
     9
100
AcDbLine
 10
-608.346141093486
 20
-12.37514622515221
 30
0.0
 11
-608.346141093486
 21
27.40524998963144
 31
0.0
  0
CIRCLE
  5
298
330
1F
100
AcDbEntity
  8
0-1
  6
Continuous
 62
     2
370
     9
100
AcDbCircle
 10
-608.346141093486
 20
-1.594637248506501
 30
0.0
 40
4.249999652037749
  0
LINE
  5
299
330
1F
100
AcDbEntity
  8
0-1
  6
JWW_DASHED1
 62
     2
370
     9
100
AcDbLine
 10
-601.5961716110642
 20
17.55121809911577
 30
0.0
 11
-601.5961716110642
 21
-11.59468379075872
 31
0.0
  0
LINE
  5
29A
330
1F
100
AcDbEntity
  8
0-1
  6
Continuous
 62
     2
370
     9
100
AcDbLine
 10
-599.5961623026133
 20
17.40530254113662
 30
0.0
 11
-600.8461309602362
 21
17.40530254113662
 31
0.0
  0
LINE
  5
29B
330
1F
100
AcDbEntity
  8
0-1
  6
JWW_DASHED1
 62
     2
370
     9
100
AcDbLine
 10
-615.0961105759079
 20
17.55121809911577
 30
0.0
 11
-615.0961105759079
 21
-11.59468379075872
 31
0.0
  0
LINE
  5
29C
330
1F
100
AcDbEntity
  8
0-1
  6
Continuous
 62
     2
370
     9
100
AcDbLine
 10
-617.0961198843588
 20
17.40530254113662
 30
0.0
 11
-615.8461512267359
 21
17.40530254113662
 31
0.0
  0
LINE
  5
29D
330
1F
100
AcDbEntity
  8
0-1
  6
Continuous
 62
     2
370
     9
100
AcDbLine
 10
-599.5961623026133
 20
17.40530254113662
 30
0.0
 11
-599.5961623026133
 21
-11.59468379075872
 31
0.0
  0
LINE
  5
29E
330
1F
100
AcDbEntity
  8
0-1
  6
Continuous
 62
     2
370
     9
100
AcDbLine
 10
-608.346141093486
 20
-11.59468379075872
 30
0.0
 11
-599.5961623026133
 21
-11.59468379075872
 31
0.0
  0
LINE
  5
29F
330
1F
100
AcDbEntity
  8
0-1
  6
Continuous
 62
     2
370
     9
100
AcDbLine
 10
-608.346141093486
 20
-11.59468379075872
 30
0.0
 11
-617.0961198843588
 21
-11.59468379075872
 31
0.0
  0
LINE
  5
2A0
330
1F
100
AcDbEntity
  8
0-1
  6
Continuous
 62
     2
370
     9
100
AcDbLine
 10
-617.0961198843588
 20
17.40530254113662
 30
0.0
 11
-617.0961198843588
 21
-11.59468379075872
 31
0.0
  0
LINE
  5
2A1
330
1F
100
AcDbEntity
  8
0-1
  6
JWW_CENTER2
 62
     2
370
     9
100
AcDbLine
 10
-608.346141093486
 20
-1.594637248506501
 30
0.0
 11
-602.5700650601766
 21
-1.594637248506501
 31
0.0
  0
LINE
  5
2A2
330
1F
100
AcDbEntity
  8
0-1
  6
JWW_CENTER2
 62
     2
370
     9
100
AcDbLine
 10
-608.346141093486
 20
-1.594637248506501
 30
0.0
 11
-614.1222171267946
 21
-1.594637248506501
 31
0.0
  0
ARC
  5
2A3
330
1F
100
AcDbEntity
  8
0-1
  6
Continuous
 62
     2
370
     9
100
AcDbCircle
 10
-615.8461512267359
 20
19.40531184958706
 30
0.0
 40
1.999999824868206
100
AcDbArc
 50
270.0
 51
329.9994903964416
  0
ARC
  5
2A4
330
1F
100
AcDbEntity
  8
0-1
  6
Continuous
 62
     2
370
     9
100
AcDbCircle
 10
-600.8461309602362
 20
19.40531184958706
 30
0.0
 40
1.999999824868206
100
AcDbArc
 50
210.0005096035584
 51
270.0
  0
LINE
  5
2A5
330
1F
100
AcDbEntity
  8
0-F
  6
Continuous
 62
     7
370
     9
100
AcDbLine
 10
-703.3461245974977
 20
-41.39492055532048
 30
0.0
 11
-112.3461048023121
 21
-41.39492055532048
 31
0.0
  0
LINE
  5
2A6
330
1F
100
AcDbEntity
  8
0-F
  6
Continuous
 62
     7
370
     9
100
AcDbLine
 10
-703.3461245974977
 20
-41.39492055532048
 30
0.0
 11
-691.4488220214844
 21
-39.82862647804029
 31
0.0
  0
LINE
  5
2A7
330
1F
100
AcDbEntity
  8
0-F
  6
Continuous
 62
     7
370
     9
100
AcDbLine
 10
-703.3461245974977
 20
-41.39492055532048
 30
0.0
 11
-691.4488220214844
 21
-42.96121463260113
 31
0.0
  0
LINE
  5
2A8
330
1F
100
AcDbEntity
  8
0-F
  6
Continuous
 62
     7
370
     9
100
AcDbLine
 10
-112.3461048023121
 20
-41.39492055532048
 30
0.0
 11
-124.2434073783256
 21
-39.82862647804029
 31
0.0
  0
LINE
  5
2A9
330
1F
100
AcDbEntity
  8
0-F
  6
Continuous
 62
     7
370
     9
100
AcDbLine
 10
-112.3461048023121
 20
-41.39492055532048
 30
0.0
 11
-124.2434073783256
 21
-42.96121463260113
 31
0.0
  0
LINE
  5
2AA
330
1F
100
AcDbEntity
  8
0-F
  6
Continuous
 62
     7
370
     9
100
AcDbLine
 10
-707.3461377942886
 20
-81.39490405933236
 30
0.0
 11
-695.4488352182752
 21
-79.82860998205194
 31
0.0
  0
LINE
  5
2AB
330
1F
100
AcDbEntity
  8
0-F
  6
Continuous
 62
     7
370
     9
100
AcDbLine
 10
-707.3461377942886
 20
-81.39490405933236
 30
0.0
 11
-695.4488352182752
 21
-82.96119813661278
 31
0.0
  0
LINE
  5
2AC
330
1F
100
AcDbEntity
  8
0-F
  6
Continuous
 62
     7
370
     9
100
AcDbLine
 10
-108.3460916055215
 20
-81.39490405933236
 30
0.0
 11
-120.2433941815352
 21
-79.82860998205194
 31
0.0
  0
LINE
  5
2AD
330
1F
100
AcDbEntity
  8
0-F
  6
Continuous
 62
     7
370
     9
100
AcDbLine
 10
-108.3460916055215
 20
-81.39490405933236
 30
0.0
 11
-120.2433941815352
 21
-82.96119813661278
 31
0.0
  0
LINE
  5
2AE
330
1F
100
AcDbEntity
  8
0-F
  6
Continuous
 62
     7
370
     9
100
AcDbLine
 10
-107.3461377942886
 20
-81.39490405933236
 30
0.0
 11
-95.44883521827501
 21
-79.82860998205194
 31
0.0
  0
LINE
  5
2AF
330
1F
100
AcDbEntity
  8
0-F
  6
Continuous
 62
     7
370
     9
100
AcDbLine
 10
-107.3461377942886
 20
-81.39490405933236
 30
0.0
 11
-95.44883521827501
 21
-82.96119813661278
 31
0.0
  0
LINE
  5
2B0
330
1F
100
AcDbEntity
  8
0-F
  6
Continuous
 62
     7
370
     9
100
AcDbLine
 10
-707.3461377942886
 20
14.40538231102198
 30
0.0
 11
-707.3461377942886
 21
-82.59488822318383
 31
0.0
  0
LINE
  5
2B1
330
1F
100
AcDbEntity
  8
0-F
  6
Continuous
 62
     7
370
     9
100
AcDbLine
 10
-703.3461245974977
 20
14.40538231102198
 30
0.0
 11
-703.3461245974977
 21
-42.59490471917195
 31
0.0
  0
LINE
  5
2B2
330
1F
100
AcDbEntity
  8
0-F
  6
Continuous
 62
     7
370
     9
100
AcDbLine
 10
-112.3461048023121
 20
14.40538231102198
 30
0.0
 11
-112.3461048023121
 21
-42.59490471917195
 31
0.0
  0
LINE
  5
2B3
330
1F
100
AcDbEntity
  8
0-F
  6
Continuous
 62
     7
370
     9
100
AcDbLine
 10
-108.3460916055215
 20
14.40538231102198
 30
0.0
 11
-108.3460916055215
 21
-82.59488822318383
 31
0.0
  0
LINE
  5
2B4
330
1F
100
AcDbEntity
  8
0-F
  6
Continuous
 62
     7
370
     9
100
AcDbLine
 10
-107.3461377942886
 20
14.40538231102198
 30
0.0
 11
-107.3461377942886
 21
-82.59488822318383
 31
0.0
  0
LINE
  5
2B5
330
1F
100
AcDbEntity
  8
0-F
  6
Continuous
 62
     7
370
     9
100
AcDbLine
 10
-707.3461377942886
 20
-81.39490405933236
 30
0.0
 11
121.6538754025021
 21
-81.39490405933236
 31
0.0
  0
TEXT
  5
2B6
330
1F
100
AcDbEntity
  8
0-F
  6
Continuous
 62
     2
370
     9
100
AcDbText
 10
-420.8461641878694
 20
-37.13891395692528
 30
0.0
 40
12.192
  1
591
 41
1.083333333333333
  7
ＭＳ ゴシック
100
AcDbText
  0
TEXT
  5
2B7
330
1F
100
AcDbEntity
  8
0-F
  6
Continuous
 62
     2
370
     9
100
AcDbText
 10
-420.8461641878694
 20
-77.13889746093716
 30
0.0
 40
12.192
  1
599
 41
1.083333333333333
  7
ＭＳ ゴシック
100
AcDbText
  0
TEXT
  5
2B8
330
1F
100
AcDbEntity
  8
0-F
  6
Continuous
 62
     2
370
     9
100
AcDbText
 10
-89.91728004249353
 20
-77.13889746093716
 30
0.0
 40
12.192
  1
1
  7
ＭＳ ゴシック
100
AcDbText
  0
TEXT
  5
2B9
330
1F
100
AcDbEntity
  8
0-F
  6
Continuous
 62
     2
370
     9
100
AcDbText
 10
90.68093542150564
 20
-77.13889746093716
 30
0.0
 40
12.192
  1
599
 41
1.083333333333333
  7
ＭＳ ゴシック
100
AcDbText
  0
LINE
  5
2BA
330
1F
100
AcDbEntity
  8
0-1
  6
Continuous
 62
     2
370
     9
100
AcDbLine
 10
444.6539413864548
 20
265.4054186021962
 30
0.0
 11
381.6539413864548
 21
265.4054186021962
 31
0.0
  0
LINE
  5
2BB
330
1F
100
AcDbEntity
  8
0-1
  6
Continuous
 62
     2
370
     9
100
AcDbLine
 10
447.6539017960831
 20
218.4053130278718
 30
0.0
 11
444.6539413864548
 21
218.4053130278718
 31
0.0
  0
LINE
  5
2BC
330
1F
100
AcDbEntity
  8
0-1
  6
Continuous
 62
     2
370
     9
100
AcDbLine
 10
444.6539413864548
 20
21.40530642947658
 30
0.0
 11
381.6539413864548
 21
21.40530642947658
 31
0.0
  0
LINE
  5
2BD
330
1F
100
AcDbEntity
  8
0-1
  6
Continuous
 62
     2
370
     9
100
AcDbLine
 10
447.6539017960831
 20
68.40536251583637
 30
0.0
 11
444.6539413864548
 21
68.40536251583637
 31
0.0
  0
LINE
  5
2BE
330
1F
100
AcDbEntity
  8
0-1
  6
Continuous
 62
     2
370
     9
100
AcDbLine
 10
444.6539413864548
 20
21.40530642947658
 30
0.0
 11
444.6539413864548
 21
68.40536251583637
 31
0.0
  0
LINE
  5
2BF
330
1F
100
AcDbEntity
  8
0-1
  6
Continuous
 62
     2
370
     9
100
AcDbLine
 10
444.6539413864548
 20
265.4054186021962
 30
0.0
 11
444.6539413864548
 21
218.4053130278718
 31
0.0
  0
LINE
  5
2C0
330
1F
100
AcDbEntity
  8
0-1
  6
Continuous
 62
     2
370
     9
100
AcDbLine
 10
444.6539413864548
 20
18.40529653188366
 30
0.0
 11
381.6539413864548
 21
18.40529653188366
 31
0.0
  0
LINE
  5
2C1
330
1F
100
AcDbEntity
  8
0-1
  6
Continuous
 62
     2
370
     9
100
AcDbLine
 10
444.6539413864548
 20
268.4053790118245
 30
0.0
 11
381.6539413864548
 21
268.4053790118245
 31
0.0
  0
ARC
  5
2C2
330
1F
100
AcDbEntity
  8
0-1
  6
Continuous
 62
     2
370
     9
100
AcDbCircle
 10
444.6539413864548
 20
265.4054186021962
 30
0.0
 40
3.000000038662472
100
AcDbArc
 50
0.0
 51
90.0
  0
ARC
  5
2C3
330
1F
100
AcDbEntity
  8
0-1
  6
Continuous
 62
     2
370
     9
100
AcDbCircle
 10
444.6539413864548
 20
21.40530642947658
 30
0.0
 40
3.000000038662472
100
AcDbArc
 50
270.0
 51
0.0
  0
LINE
  5
2C4
330
1F
100
AcDbEntity
  8
0-1
  6
Continuous
 62
     2
370
     9
100
AcDbLine
 10
447.6539017960831
 20
265.4208384801939
 30
0.0
 11
447.6539017960831
 21
218.4053130278718
 31
0.0
  0
LINE
  5
2C5
330
1F
100
AcDbEntity
  8
0-1
  6
Continuous
 62
     2
370
     9
100
AcDbLine
 10
447.6539017960831
 20
21.3898865514789
 30
0.0
 11
447.6539017960831
 21
68.40536251583637
 31
0.0
  0
LINE
  5
2C6
330
1F
100
AcDbEntity
  8
0-F
  6
Continuous
 62
     7
370
     9
100
AcDbLine
 10
536.2202948492927
 20
80.30276406777887
 30
0.0
 11
533.0877066947319
 21
56.50805993982283
 31
0.0
  0
LINE
  5
2C7
330
1F
100
AcDbEntity
  8
0-F
  6
Continuous
 62
     7
370
     9
100
AcDbLine
 10
533.0877066947319
 20
80.30276406777887
 30
0.0
 11
536.2202948492927
 21
56.50805993982283
 31
0.0
  0
LINE
  5
2C8
330
1F
100
AcDbEntity
  8
0-F
  6
Continuous
 62
     7
370
     9
100
AcDbLine
 10
536.2202948492927
 20
230.3027145798143
 30
0.0
 11
533.0877066947319
 21
206.5080599398228
 31
0.0
  0
LINE
  5
2C9
330
1F
100
AcDbEntity
  8
0-F
  6
Continuous
 62
     7
370
     9
100
AcDbLine
 10
533.0877066947319
 20
230.3027145798143
 30
0.0
 11
536.2202948492927
 21
206.5080599398228
 31
0.0
  0
LINE
  5
2CA
330
1F
100
AcDbEntity
  8
0-F
  6
Continuous
 62
     7
370
     9
100
AcDbLine
 10
534.6540007720123
 20
268.4053790118245
 30
0.0
 11
533.0877066947319
 21
256.5080764358109
 31
0.0
  0
LINE
  5
2CB
330
1F
100
AcDbEntity
  8
0-F
  6
Continuous
 62
     7
370
     9
100
AcDbLine
 10
534.6540997479415
 20
268.4053790118245
 30
0.0
 11
536.2202948492927
 21
256.5080764358109
 31
0.0
  0
LINE
  5
2CC
330
1F
100
AcDbEntity
  8
0-F
  6
Continuous
 62
     7
370
     9
100
AcDbLine
 10
534.6540007720123
 20
18.40529653188366
 30
0.0
 11
533.0877066947319
 21
30.30264859586157
 31
0.0
  0
LINE
  5
2CD
330
1F
100
AcDbEntity
  8
0-F
  6
Continuous
 62
     7
370
     9
100
AcDbLine
 10
534.6540007720123
 20
18.40529653188366
 30
0.0
 11
536.2202948492927
 21
30.30264859586157
 31
0.0
  0
TEXT
  5
2CE
330
1F
100
AcDbEntity
  8
0-F
  6
Continuous
 62
     2
370
     9
100
AcDbText
 10
530.3979947418651
 20
130.405411905188
 30
0.0
 40
12.192
  1
150
 50
90.00000250447873
 41
1.08333333333333
  7
ＭＳ ゴシック
100
AcDbText
  0
TEXT
  5
2CF
330
1F
100
AcDbEntity
  8
0-F
  6
Continuous
 62
     2
370
     9
100
AcDbText
 10
530.3979945451637
 20
234.9053954091997
 30
0.0
 40
12.192
  1
50
 50
90.00000250447789
 41
1.062500000000001
  7
ＭＳ ゴシック
100
AcDbText
  0
TEXT
  5
2D0
330
1F
100
AcDbEntity
  8
0-F
  6
Continuous
 62
     2
370
     9
100
AcDbText
 10
530.3979945451637
 20
34.90537891321161
 30
0.0
 40
12.192
  1
50
 50
90.00000250447789
 41
1.062500000000001
  7
ＭＳ ゴシック
100
AcDbText
  0
LINE
  5
2D1
330
1F
100
AcDbEntity
  8
0-1
  6
JWW_CENTER2
 62
     2
370
     9
100
AcDbLine
 10
452.1536498787777
 20
288.4052795645817
 30
0.0
 11
446.1536715003053
 21
288.4052795645817
 31
0.0
  0
LINE
  5
2D2
330
1F
100
AcDbEntity
  8
0-1
  6
Continuous
 62
     2
370
     9
100
AcDbLine
 10
448.1536312618769
 20
256.1555288896599
 30
0.0
 11
448.1536312618769
 21
242.6554843504915
 31
0.0
  0
LINE
  5
2D3
330
1F
100
AcDbEntity
  8
0-1
  6
Continuous
 62
     2
370
     9
100
AcDbLine
 10
447.6539017960831
 20
259.4053787761674
 30
0.0
 11
447.6539017960831
 21
239.4053127922149
 31
0.0
  0
LINE
  5
2D4
330
1F
100
AcDbEntity
  8
0-1
  6
Continuous
 62
     2
370
     9
100
AcDbLine
 10
452.6536275502795
 20
246.655274851442
 30
0.0
 11
452.6536275502795
 21
252.1552929970291
 31
0.0
  0
LINE
  5
2D5
330
1F
100
AcDbEntity
  8
0-1
  6
Continuous
 62
     2
370
     9
100
AcDbLine
 10
452.6536275502795
 20
246.655274851442
 30
0.0
 11
452.1538980844857
 21
246.655274851442
 31
0.0
  0
LINE
  5
2D6
330
1F
100
AcDbEntity
  8
0-1
  6
Continuous
 62
     2
370
     9
100
AcDbLine
 10
452.6536275502795
 20
246.655274851442
 30
0.0
 11
454.1535087791649
 21
248.4053672289757
 31
0.0
  0
LINE
  5
2D7
330
1F
100
AcDbEntity
  8
0-1
  6
Continuous
 62
     2
370
     9
100
AcDbLine
 10
454.1535087791649
 20
248.4053672289757
 30
0.0
 11
454.1535087791649
 21
250.4051511315307
 31
0.0
  0
LINE
  5
2D8
330
1F
100
AcDbEntity
  8
0-1
  6
Continuous
 62
     2
370
     9
100
AcDbLine
 10
454.1535087791649
 20
250.4051511315307
 30
0.0
 11
452.6536275502795
 21
252.1552929970291
 31
0.0
  0
LINE
  5
2D9
330
1F
100
AcDbEntity
  8
0-1
  6
Continuous
 62
     2
370
     9
100
AcDbLine
 10
452.6536275502795
 20
252.1552929970291
 30
0.0
 11
452.1538980844857
 21
252.1552929970291
 31
0.0
  0
LINE
  5
2DA
330
1F
100
AcDbEntity
  8
0-1
  6
Continuous
 62
     2
370
     9
100
AcDbLine
 10
447.9534648173562
 20
245.4052088674895
 30
0.0
 11
447.9534648173562
 21
249.4053457841911
 31
0.0
  0
LINE
  5
2DB
330
1F
100
AcDbEntity
  8
0-1
  6
Continuous
 62
     2
370
     9
100
AcDbLine
 10
447.9534648173562
 20
253.405086797177
 30
0.0
 11
447.9534648173562
 21
249.4053457841911
 31
0.0
  0
LINE
  5
2DC
330
1F
100
AcDbEntity
  8
0-1
  6
Continuous
 62
     2
370
     9
100
AcDbLine
 10
448.1536312618769
 20
253.405086797177
 30
0.0
 11
447.9534648173562
 21
253.405086797177
 31
0.0
  0
LINE
  5
2DD
330
1F
100
AcDbEntity
  8
0-1
  6
Continuous
 62
     2
370
     9
100
AcDbLine
 10
448.1536312618769
 20
245.4052088674895
 30
0.0
 11
447.9534648173562
 21
245.4052088674895
 31
0.0
  0
LINE
  5
2DE
330
1F
100
AcDbEntity
  8
0-1
  6
Continuous
 62
     2
370
     9
100
AcDbLine
 10
447.6539017960831
 20
239.4053127922149
 30
0.0
 11
452.1538980844857
 21
239.4053127922149
 31
0.0
  0
LINE
  5
2DF
330
1F
100
AcDbEntity
  8
0-1
  6
Continuous
 62
     2
370
     9
100
AcDbLine
 10
450.1539347880594
 20
240.6553540321853
 30
0.0
 11
450.1539347880594
 21
239.4053127922149
 31
0.0
  0
LINE
  5
2E0
330
1F
100
AcDbEntity
  8
0-1
  6
Continuous
 62
     2
370
     9
100
AcDbLine
 10
448.1536312618769
 20
242.6554843504915
 30
0.0
 11
448.1536312618769
 21
239.4053127922149
 31
0.0
  0
LINE
  5
2E1
330
1F
100
AcDbEntity
  8
0-1
  6
Continuous
 62
     2
370
     9
100
AcDbLine
 10
450.1539347880594
 20
258.155337536197
 30
0.0
 11
450.1539347880594
 21
259.4053787761674
 31
0.0
  0
LINE
  5
2E2
330
1F
100
AcDbEntity
  8
0-1
  6
Continuous
 62
     2
370
     9
100
AcDbLine
 10
448.1536312618769
 20
256.1555288896599
 30
0.0
 11
448.1536312618769
 21
259.4053787761674
 31
0.0
  0
LINE
  5
2E3
330
1F
100
AcDbEntity
  8
0-1
  6
JWW_CENTER2
 62
     2
370
     9
100
AcDbLine
 10
455.7017026334192
 20
249.4053457841911
 30
0.0
 11
446.6173268910998
 21
249.4053457841911
 31
0.0
  0
LINE
  5
2E4
330
1F
100
AcDbEntity
  8
0-1
  6
JWW_DASHED1
 62
     2
370
     9
100
AcDbLine
 10
450.1536405703273
 20
292.6553117317586
 30
0.0
 11
448.1536312618769
 21
292.6553117317586
 31
0.0
  0
LINE
  5
2E5
330
1F
100
AcDbEntity
  8
0-1
  6
JWW_DASHED1
 62
     2
370
     9
100
AcDbLine
 10
450.1536405703273
 20
284.1553464911618
 30
0.0
 11
448.1536312618769
 21
284.1553464911618
 31
0.0
  0
LINE
  5
2E6
330
1F
100
AcDbEntity
  8
0-1
  6
Continuous
 62
     2
370
     9
100
AcDbLine
 10
450.1536405703273
 20
265.4053211580373
 30
0.0
 11
448.1536312618769
 21
265.4053211580373
 31
0.0
  0
LINE
  5
2E7
330
1F
100
AcDbEntity
  8
0-1
  6
JWW_DASHED1
 62
     2
370
     9
100
AcDbLine
 10
450.1536405703273
 20
298.4003218720778
 30
0.0
 11
450.1536405703273
 21
269.4103440096939
 31
0.0
  0
LINE
  5
2E8
330
1F
100
AcDbEntity
  8
0-1
  6
Continuous
 62
     2
370
     9
100
AcDbLine
 10
450.9536244749561
 20
298.4053261068335
 30
0.0
 11
448.1536312618769
 21
298.4053261068335
 31
0.0
  0
LINE
  5
2E9
330
1F
100
AcDbEntity
  8
0-1
  6
Continuous
 62
     2
370
     9
100
AcDbLine
 10
450.9536244749561
 20
269.4053397749382
 30
0.0
 11
448.1536312618769
 21
269.4053397749382
 31
0.0
  0
LINE
  5
2EA
330
1F
100
AcDbEntity
  8
0-1
  6
Continuous
 62
     2
370
     9
100
AcDbLine
 10
453.9536384376315
 20
272.4053537376136
 30
0.0
 11
453.9536384376315
 21
295.4053616910365
 31
0.0
  0
ARC
  5
2EB
330
1F
100
AcDbEntity
  8
0-1
  6
Continuous
 62
     2
370
     9
100
AcDbCircle
 10
450.9536244749561
 20
295.4053616910365
 30
0.0
 40
3.000000414701042
100
AcDbArc
 50
0.0
 51
90.0
  0
ARC
  5
2EC
330
1F
100
AcDbEntity
  8
0-1
  6
Continuous
 62
     2
370
     9
100
AcDbCircle
 10
450.9536244749561
 20
272.4053537376136
 30
0.0
 40
3.000000414701042
100
AcDbArc
 50
270.0
 51
0.0
  0
LINE
  5
2ED
330
1F
100
AcDbEntity
  8
0-1
  6
Continuous
 62
     2
370
     9
100
AcDbLine
 10
448.1536312618769
 20
298.4053261068335
 30
0.0
 11
448.1536312618769
 21
239.4052992419389
 31
0.0
  0
LINE
  5
2EE
330
1F
100
AcDbEntity
  8
0-1
  6
Continuous
 62
     2
370
     9
100
AcDbLine
 10
450.1536405703273
 20
269.4103440096939
 30
0.0
 11
450.1536405703273
 21
239.4052992419389
 31
0.0
  0
LINE
  5
2EF
330
1F
100
AcDbEntity
  8
0-1
  6
Continuous
 62
     2
370
     9
100
AcDbLine
 10
448.1536312618769
 20
239.4052992419389
 30
0.0
 11
450.1536405703273
 21
239.4052992419389
 31
0.0
  0
LINE
  5
2F0
330
1F
100
AcDbEntity
  8
0-1
  6
JWW_DASHED1
 62
     2
370
     9
100
AcDbLine
 10
449.9536198207306
 20
247.1553229254647
 30
0.0
 11
448.1536312618769
 21
245.4054262610476
 31
0.0
  0
LINE
  5
2F1
330
1F
100
AcDbEntity
  8
0-1
  6
JWW_DASHED1
 62
     2
370
     9
100
AcDbLine
 10
452.1536498787777
 20
247.1553229254647
 30
0.0
 11
450.1536405703273
 21
247.1553229254647
 31
0.0
  0
LINE
  5
2F2
330
1F
100
AcDbEntity
  8
0-1
  6
JWW_DASHED1
 62
     2
370
     9
100
AcDbLine
 10
449.9536198207306
 20
251.6553190960391
 30
0.0
 11
449.9536198207306
 21
247.1553229254647
 31
0.0
  0
LINE
  5
2F3
330
1F
100
AcDbEntity
  8
0-1
  6
JWW_DASHED1
 62
     2
370
     9
100
AcDbLine
 10
449.9536198207306
 20
247.1553229254647
 30
0.0
 11
450.1536901172062
 21
247.1553229254647
 31
0.0
  0
LINE
  5
2F4
330
1F
100
AcDbEntity
  8
0-1
  6
JWW_DASHED1
 62
     2
370
     9
100
AcDbLine
 10
449.9536198207306
 20
251.6553190960391
 30
0.0
 11
450.1536901172062
 21
251.6553190960391
 31
0.0
  0
LINE
  5
2F5
330
1F
100
AcDbEntity
  8
0-1
  6
JWW_DASHED1
 62
     2
370
     9
100
AcDbLine
 10
449.9536198207306
 20
251.6553190960391
 30
0.0
 11
448.1536312618769
 21
253.4052653073346
 31
0.0
  0
LINE
  5
2F6
330
1F
100
AcDbEntity
  8
0-1
  6
JWW_DASHED1
 62
     2
370
     9
100
AcDbLine
 10
452.1536498787777
 20
251.6553190960391
 30
0.0
 11
450.1536405703273
 21
251.6553190960391
 31
0.0
  0
LINE
  5
2F7
330
1F
100
AcDbEntity
  8
0-1
  6
Continuous
 62
     2
370
     9
100
AcDbLine
 10
452.1538980844857
 20
259.4053787761674
 30
0.0
 11
452.1538980844857
 21
239.4053127922149
 31
0.0
  0
LINE
  5
2F8
330
1F
100
AcDbEntity
  8
0-1
  6
Continuous
 62
     2
370
     9
100
AcDbLine
 10
447.6539017960831
 20
259.4053787761674
 30
0.0
 11
448.1536312618769
 21
259.4053787761674
 31
0.0
  0
LINE
  5
2F9
330
1F
100
AcDbEntity
  8
0-1
  6
Continuous
 62
     2
370
     9
100
AcDbLine
 10
450.1536405703273
 20
259.4053787761674
 30
0.0
 11
452.1538980844857
 21
259.4053787761674
 31
0.0
  0
LINE
  5
2FA
330
1F
100
AcDbEntity
  8
0-1
  6
Continuous
 62
     2
370
     9
100
AcDbLine
 10
448.1536312618769
 20
30.65514665404828
 30
0.0
 11
448.1536312618769
 21
44.15519119321618
 31
0.0
  0
LINE
  5
2FB
330
1F
100
AcDbEntity
  8
0-1
  6
Continuous
 62
     2
370
     9
100
AcDbLine
 10
447.6539017960831
 20
27.40529676754034
 30
0.0
 11
447.6539017960831
 21
47.40536275149327
 31
0.0
  0
LINE
  5
2FC
330
1F
100
AcDbEntity
  8
0-1
  6
Continuous
 62
     2
370
     9
100
AcDbLine
 10
452.6536275502795
 20
40.1554006922662
 30
0.0
 11
452.6536275502795
 21
34.65538254667911
 31
0.0
  0
LINE
  5
2FD
330
1F
100
AcDbEntity
  8
0-1
  6
Continuous
 62
     2
370
     9
100
AcDbLine
 10
452.6536275502795
 20
40.1554006922662
 30
0.0
 11
452.1538980844857
 21
40.1554006922662
 31
0.0
  0
LINE
  5
2FE
330
1F
100
AcDbEntity
  8
0-1
  6
Continuous
 62
     2
370
     9
100
AcDbLine
 10
452.6536275502795
 20
40.1554006922662
 30
0.0
 11
454.1535087791649
 21
38.405308314732
 31
0.0
  0
LINE
  5
2FF
330
1F
100
AcDbEntity
  8
0-1
  6
Continuous
 62
     2
370
     9
100
AcDbLine
 10
454.1535087791649
 20
38.405308314732
 30
0.0
 11
454.1535087791649
 21
36.40552441217744
 31
0.0
  0
LINE
  5
300
330
1F
100
AcDbEntity
  8
0-1
  6
Continuous
 62
     2
370
     9
100
AcDbLine
 10
454.1535087791649
 20
36.40552441217744
 30
0.0
 11
452.6536275502795
 21
34.65538254667911
 31
0.0
  0
LINE
  5
301
330
1F
100
AcDbEntity
  8
0-1
  6
Continuous
 62
     2
370
     9
100
AcDbLine
 10
452.6536275502795
 20
34.65538254667911
 30
0.0
 11
452.1538980844857
 21
34.65538254667911
 31
0.0
  0
LINE
  5
302
330
1F
100
AcDbEntity
  8
0-1
  6
Continuous
 62
     2
370
     9
100
AcDbLine
 10
447.9534648173562
 20
41.40546667621868
 30
0.0
 11
447.9534648173562
 21
37.40532975951703
 31
0.0
  0
LINE
  5
303
330
1F
100
AcDbEntity
  8
0-1
  6
Continuous
 62
     2
370
     9
100
AcDbLine
 10
447.9534648173562
 20
33.40558874653118
 30
0.0
 11
447.9534648173562
 21
37.40532975951703
 31
0.0
  0
LINE
  5
304
330
1F
100
AcDbEntity
  8
0-1
  6
Continuous
 62
     2
370
     9
100
AcDbLine
 10
448.1536312618769
 20
33.40558874653118
 30
0.0
 11
447.9534648173562
 21
33.40558874653118
 31
0.0
  0
LINE
  5
305
330
1F
100
AcDbEntity
  8
0-1
  6
Continuous
 62
     2
370
     9
100
AcDbLine
 10
448.1536312618769
 20
41.40546667621868
 30
0.0
 11
447.9534648173562
 21
41.40546667621868
 31
0.0
  0
LINE
  5
306
330
1F
100
AcDbEntity
  8
0-1
  6
Continuous
 62
     2
370
     9
100
AcDbLine
 10
447.6539017960831
 20
47.40536275149327
 30
0.0
 11
452.1538980844857
 21
47.40536275149327
 31
0.0
  0
LINE
  5
307
330
1F
100
AcDbEntity
  8
0-1
  6
Continuous
 62
     2
370
     9
100
AcDbLine
 10
450.1539347880594
 20
46.15532151152286
 30
0.0
 11
450.1539347880594
 21
47.40536275149327
 31
0.0
  0
LINE
  5
308
330
1F
100
AcDbEntity
  8
0-1
  6
Continuous
 62
     2
370
     9
100
AcDbLine
 10
448.1536312618769
 20
44.15519119321618
 30
0.0
 11
448.1536312618769
 21
47.40536275149327
 31
0.0
  0
LINE
  5
309
330
1F
100
AcDbEntity
  8
0-1
  6
Continuous
 62
     2
370
     9
100
AcDbLine
 10
450.1539347880594
 20
28.65533800751075
 30
0.0
 11
450.1539347880594
 21
27.40529676754034
 31
0.0
  0
LINE
  5
30A
330
1F
100
AcDbEntity
  8
0-1
  6
Continuous
 62
     2
370
     9
100
AcDbLine
 10
448.1536312618769
 20
30.65514665404828
 30
0.0
 11
448.1536312618769
 21
27.40529676754034
 31
0.0
  0
LINE
  5
30B
330
1F
100
AcDbEntity
  8
0-1
  6
JWW_DASHED1
 62
     2
370
     9
100
AcDbLine
 10
450.1536405703273
 20
-5.844636188050458
 30
0.0
 11
448.1536312618769
 21
-5.844636188050458
 31
0.0
  0
LINE
  5
30C
330
1F
100
AcDbEntity
  8
0-1
  6
JWW_DASHED1
 62
     2
370
     9
100
AcDbLine
 10
450.1536405703273
 20
2.655329052545881
 30
0.0
 11
448.1536312618769
 21
2.655329052545881
 31
0.0
  0
LINE
  5
30D
330
1F
100
AcDbEntity
  8
0-1
  6
Continuous
 62
     2
370
     9
100
AcDbLine
 10
450.1536405703273
 20
21.40535438567042
 30
0.0
 11
448.1536312618769
 21
21.40535438567042
 31
0.0
  0
LINE
  5
30E
330
1F
100
AcDbEntity
  8
0-1
  6
JWW_CENTER2
 62
     2
370
     9
100
AcDbLine
 10
452.1536498787777
 20
-1.594604020873589
 30
0.0
 11
446.1536715003053
 21
-1.594604020873589
 31
0.0
  0
LINE
  5
30F
330
1F
100
AcDbEntity
  8
0-1
  6
JWW_DASHED1
 62
     2
370
     9
100
AcDbLine
 10
450.1536405703273
 20
-11.58964632837012
 30
0.0
 11
450.1536405703273
 21
17.40033153401384
 31
0.0
  0
LINE
  5
310
330
1F
100
AcDbEntity
  8
0-1
  6
Continuous
 62
     2
370
     9
100
AcDbLine
 10
450.9536244749561
 20
-11.59465056312581
 30
0.0
 11
448.1536312618769
 21
-11.59465056312581
 31
0.0
  0
LINE
  5
311
330
1F
100
AcDbEntity
  8
0-1
  6
Continuous
 62
     2
370
     9
100
AcDbLine
 10
450.9536244749561
 20
17.40533576876953
 30
0.0
 11
448.1536312618769
 21
17.40533576876953
 31
0.0
  0
LINE
  5
312
330
1F
100
AcDbEntity
  8
0-1
  6
Continuous
 62
     2
370
     9
100
AcDbLine
 10
453.9536384376315
 20
14.40532180609409
 30
0.0
 11
453.9536384376315
 21
-8.594686147328844
 31
0.0
  0
ARC
  5
313
330
1F
100
AcDbEntity
  8
0-1
  6
Continuous
 62
     2
370
     9
100
AcDbCircle
 10
450.9536244749561
 20
-8.594686147328844
 30
0.0
 40
3.000000414701042
100
AcDbArc
 50
270.0
 51
0.0
  0
ARC
  5
314
330
1F
100
AcDbEntity
  8
0-1
  6
Continuous
 62
     2
370
     9
100
AcDbCircle
 10
450.9536244749561
 20
14.40532180609409
 30
0.0
 40
3.000000414701042
100
AcDbArc
 50
0.0
 51
90.0
  0
LINE
  5
315
330
1F
100
AcDbEntity
  8
0-1
  6
Continuous
 62
     2
370
     9
100
AcDbLine
 10
448.1536312618769
 20
-11.59465056312581
 30
0.0
 11
448.1536312618769
 21
47.40537630176925
 31
0.0
  0
LINE
  5
316
330
1F
100
AcDbEntity
  8
0-1
  6
Continuous
 62
     2
370
     9
100
AcDbLine
 10
450.1536405703273
 20
17.40033153401384
 30
0.0
 11
450.1536405703273
 21
47.40537630176925
 31
0.0
  0
LINE
  5
317
330
1F
100
AcDbEntity
  8
0-1
  6
Continuous
 62
     2
370
     9
100
AcDbLine
 10
448.1536312618769
 20
47.40537630176925
 30
0.0
 11
450.1536405703273
 21
47.40537630176925
 31
0.0
  0
LINE
  5
318
330
1F
100
AcDbEntity
  8
0-1
  6
JWW_DASHED1
 62
     2
370
     9
100
AcDbLine
 10
449.9536198207306
 20
39.65535261824346
 30
0.0
 11
448.1536312618769
 21
41.40524928266007
 31
0.0
  0
LINE
  5
319
330
1F
100
AcDbEntity
  8
0-1
  6
JWW_DASHED1
 62
     2
370
     9
100
AcDbLine
 10
452.1536498787777
 20
39.65535261824346
 30
0.0
 11
450.1536405703273
 21
39.65535261824346
 31
0.0
  0
LINE
  5
31A
330
1F
100
AcDbEntity
  8
0-1
  6
JWW_DASHED1
 62
     2
370
     9
100
AcDbLine
 10
449.9536198207306
 20
35.15535644766908
 30
0.0
 11
449.9536198207306
 21
39.65535261824346
 31
0.0
  0
LINE
  5
31B
330
1F
100
AcDbEntity
  8
0-1
  6
JWW_DASHED1
 62
     2
370
     9
100
AcDbLine
 10
449.9536198207306
 20
39.65535261824346
 30
0.0
 11
450.1536901172062
 21
39.65535261824346
 31
0.0
  0
LINE
  5
31C
330
1F
100
AcDbEntity
  8
0-1
  6
JWW_DASHED1
 62
     2
370
     9
100
AcDbLine
 10
449.9536198207306
 20
35.15535644766908
 30
0.0
 11
450.1536901172062
 21
35.15535644766908
 31
0.0
  0
LINE
  5
31D
330
1F
100
AcDbEntity
  8
0-1
  6
JWW_DASHED1
 62
     2
370
     9
100
AcDbLine
 10
449.9536198207306
 20
35.15535644766908
 30
0.0
 11
448.1536312618769
 21
33.40541023637354
 31
0.0
  0
LINE
  5
31E
330
1F
100
AcDbEntity
  8
0-1
  6
JWW_DASHED1
 62
     2
370
     9
100
AcDbLine
 10
452.1536498787777
 20
35.15535644766908
 30
0.0
 11
450.1536405703273
 21
35.15535644766908
 31
0.0
  0
LINE
  5
31F
330
1F
100
AcDbEntity
  8
0-1
  6
Continuous
 62
     2
370
     9
100
AcDbLine
 10
452.1538980844857
 20
27.40529676754034
 30
0.0
 11
452.1538980844857
 21
47.40536275149327
 31
0.0
  0
LINE
  5
320
330
1F
100
AcDbEntity
  8
0-1
  6
Continuous
 62
     2
370
     9
100
AcDbLine
 10
447.6539017960831
 20
27.40529676754034
 30
0.0
 11
448.1536312618769
 21
27.40529676754034
 31
0.0
  0
LINE
  5
321
330
1F
100
AcDbEntity
  8
0-1
  6
Continuous
 62
     2
370
     9
100
AcDbLine
 10
450.1536405703273
 20
27.40529676754034
 30
0.0
 11
452.1538980844857
 21
27.40529676754034
 31
0.0
  0
LINE
  5
322
330
1F
100
AcDbEntity
  8
0-1
  6
JWW_CENTER2
 62
     2
370
     9
100
AcDbLine
 10
455.7017026334192
 20
37.40532975951703
 30
0.0
 11
446.6173268910998
 21
37.40532975951703
 31
0.0
  0
LINE
  5
323
330
1F
100
AcDbEntity
  8
0-6
  6
Continuous
 62
     6
370
     9
100
AcDbLine
 10
444.6537434345964
 20
221.9053130278718
 30
0.0
 11
444.6537434345964
 21
261.9053130278718
 31
0.0
  0
LINE
  5
324
330
1F
100
AcDbEntity
  8
0-6
  6
Continuous
 62
     6
370
     9
100
AcDbLine
 10
444.6537434345964
 20
261.9053130278718
 30
0.0
 11
441.6537434345964
 21
261.9053130278718
 31
0.0
  0
LINE
  5
325
330
1F
100
AcDbEntity
  8
0-6
  6
Continuous
 62
     6
370
     9
100
AcDbLine
 10
441.6537434345964
 20
261.9053130278718
 30
0.0
 11
441.6537434345964
 21
221.9053130278718
 31
0.0
  0
LINE
  5
326
330
1F
100
AcDbEntity
  8
0-6
  6
Continuous
 62
     6
370
     9
100
AcDbLine
 10
443.5671449990882
 20
221.9053130278722
 30
0.0
 11
444.653743434596
 21
222.99191146338
 31
0.0
  0
LINE
  5
327
330
1F
100
AcDbEntity
  8
0-6
  6
Continuous
 62
     6
370
     9
100
AcDbLine
 10
441.6537434345955
 20
225.6487657128727
 30
0.0
 11
444.6537434345955
 21
228.6487657128729
 31
0.0
  0
LINE
  5
328
330
1F
100
AcDbEntity
  8
0-6
  6
Continuous
 62
     6
370
     9
100
AcDbLine
 10
441.6537434345964
 20
231.3056199623599
 30
0.0
 11
444.6537434345946
 21
234.305619962358
 31
0.0
  0
LINE
  5
329
330
1F
100
AcDbEntity
  8
0-6
  6
Continuous
 62
     6
370
     9
100
AcDbLine
 10
441.653743434596
 20
236.9624742118527
 30
0.0
 11
444.6537434345964
 21
239.962474211853
 31
0.0
  0
LINE
  5
32A
330
1F
100
AcDbEntity
  8
0-6
  6
Continuous
 62
     6
370
     9
100
AcDbLine
 10
441.6537434345964
 20
242.6193284613468
 30
0.0
 11
444.6537434345964
 21
245.6193284613468
 31
0.0
  0
LINE
  5
32B
330
1F
100
AcDbEntity
  8
0-6
  6
Continuous
 62
     6
370
     9
100
AcDbLine
 10
441.653743434596
 20
248.2761827108394
 30
0.0
 11
444.653743434596
 21
251.2761827108394
 31
0.0
  0
LINE
  5
32C
330
1F
100
AcDbEntity
  8
0-6
  6
Continuous
 62
     6
370
     9
100
AcDbLine
 10
441.6537434345969
 20
253.9330369603337
 30
0.0
 11
444.6537434345969
 21
256.9330369603339
 31
0.0
  0
LINE
  5
32D
330
1F
100
AcDbEntity
  8
0-6
  6
Continuous
 62
     6
370
     9
100
AcDbLine
 10
441.6537434345964
 20
259.5898912098265
 30
0.0
 11
443.9691652526417
 21
261.9053130278716
 31
0.0
  0
LINE
  5
32E
330
1F
100
AcDbEntity
  8
0-6
  6
Continuous
 62
     6
370
     9
100
AcDbLine
 10
441.6537434345964
 20
221.9053130278718
 30
0.0
 11
444.6537434345964
 21
221.9053130278718
 31
0.0
  0
LINE
  5
32F
330
1F
100
AcDbEntity
  8
0-6
  6
Continuous
 62
     6
370
     9
100
AcDbLine
 10
444.6537434345964
 20
24.90536251583637
 30
0.0
 11
444.6537434345964
 21
64.90536251583637
 31
0.0
  0
LINE
  5
330
330
1F
100
AcDbEntity
  8
0-6
  6
Continuous
 62
     6
370
     9
100
AcDbLine
 10
444.6537434345964
 20
64.90536251583637
 30
0.0
 11
441.6537434345964
 21
64.90536251583637
 31
0.0
  0
LINE
  5
331
330
1F
100
AcDbEntity
  8
0-6
  6
Continuous
 62
     6
370
     9
100
AcDbLine
 10
441.6537434345964
 20
64.90536251583637
 30
0.0
 11
441.6537434345964
 21
24.90536251583637
 31
0.0
  0
LINE
  5
332
330
1F
100
AcDbEntity
  8
0-6
  6
Continuous
 62
     6
370
     9
100
AcDbLine
 10
443.5671449990882
 20
24.90536251583706
 30
0.0
 11
444.653743434596
 21
25.99196095134482
 31
0.0
  0
LINE
  5
333
330
1F
100
AcDbEntity
  8
0-6
  6
Continuous
 62
     6
370
     9
100
AcDbLine
 10
441.6537434345955
 20
28.64881520083748
 30
0.0
 11
444.6537434345955
 21
31.6488152008377
 31
0.0
  0
LINE
  5
334
330
1F
100
AcDbEntity
  8
0-6
  6
Continuous
 62
     6
370
     9
100
AcDbLine
 10
441.6537434345964
 20
34.30566945032467
 30
0.0
 11
444.6537434345946
 21
37.30566945032285
 31
0.0
  0
LINE
  5
335
330
1F
100
AcDbEntity
  8
0-6
  6
Continuous
 62
     6
370
     9
100
AcDbLine
 10
441.653743434596
 20
39.96252369981755
 30
0.0
 11
444.6537434345964
 21
42.96252369981778
 31
0.0
  0
LINE
  5
336
330
1F
100
AcDbEntity
  8
0-6
  6
Continuous
 62
     6
370
     9
100
AcDbLine
 10
441.6537434345964
 20
45.61937794931134
 30
0.0
 11
444.6537434345964
 21
48.61937794931157
 31
0.0
  0
LINE
  5
337
330
1F
100
AcDbEntity
  8
0-6
  6
Continuous
 62
     6
370
     9
100
AcDbLine
 10
441.653743434596
 20
51.276232198804
 30
0.0
 11
444.653743434596
 21
54.27623219880422
 31
0.0
  0
LINE
  5
338
330
1F
100
AcDbEntity
  8
0-6
  6
Continuous
 62
     6
370
     9
100
AcDbLine
 10
441.6537434345969
 20
56.93308644829824
 30
0.0
 11
444.6537434345969
 21
59.9330864482987
 31
0.0
  0
LINE
  5
339
330
1F
100
AcDbEntity
  8
0-6
  6
Continuous
 62
     6
370
     9
100
AcDbLine
 10
441.6537434345964
 20
62.58994069779112
 30
0.0
 11
443.9691652526417
 21
64.90536251583637
 31
0.0
  0
LINE
  5
33A
330
1F
100
AcDbEntity
  8
0-6
  6
Continuous
 62
     6
370
     9
100
AcDbLine
 10
441.6537434345964
 20
24.90536251583637
 30
0.0
 11
444.6537434345964
 21
24.90536251583637
 31
0.0
  0
LINE
  5
33B
330
1F
100
AcDbEntity
  8
0-4
  6
Continuous
 62
     7
370
     9
100
AcDbLine
 10
534.6540007720123
 20
268.4053790118245
 30
0.0
 11
534.6540007720123
 21
298.4053261068335
 31
0.0
  0
LINE
  5
33C
330
1F
100
AcDbEntity
  8
0-4
  6
Continuous
 62
     7
370
     9
100
AcDbLine
 10
534.6540007720123
 20
268.4053790118245
 30
0.0
 11
533.3487388498118
 21
278.3198276255625
 31
0.0
  0
LINE
  5
33D
330
1F
100
AcDbEntity
  8
0-4
  6
Continuous
 62
     7
370
     9
100
AcDbLine
 10
534.6540007720123
 20
268.4053790118245
 30
0.0
 11
535.9592626942128
 21
278.3198276255625
 31
0.0
  0
LINE
  5
33E
330
1F
100
AcDbEntity
  8
0-4
  6
Continuous
 62
     7
370
     9
100
AcDbLine
 10
534.6540007720123
 20
298.4053261068335
 30
0.0
 11
533.3487388498118
 21
288.4908774930954
 31
0.0
  0
LINE
  5
33F
330
1F
100
AcDbEntity
  8
0-4
  6
Continuous
 62
     7
370
     9
100
AcDbLine
 10
534.6540007720123
 20
298.4053261068335
 30
0.0
 11
535.9592626942128
 21
288.4908774930954
 31
0.0
  0
LINE
  5
340
330
1F
100
AcDbEntity
  8
0-4
  6
Continuous
 62
     7
370
     9
100
AcDbLine
 10
535.8540007720123
 20
298.4053261068335
 30
0.0
 11
456.1536312618769
 21
298.4053261068335
 31
0.0
  0
TEXT
  5
341
330
1F
100
AcDbEntity
  8
0-4
  6
Continuous
 62
     2
370
   211
100
AcDbText
 10
528.3980007720123
 20
274.9053525593289
 30
0.0
 40
12.192
  1
30
 50
90.0
 41
1.0625
  7
ＭＳ ゴシック
100
AcDbText
  0
LINE
  5
342
330
1F
100
AcDbEntity
  8
0-F
  6
Continuous
 62
     7
370
     9
100
AcDbLine
 10
534.6540007720123
 20
18.40529653188366
 30
0.0
 11
534.6540007720123
 21
268.4053790118245
 31
0.0
  0
LINE
  5
343
330
1F
100
AcDbEntity
  8
0-4
  6
Continuous
 62
     7
370
     9
100
AcDbLine
 10
534.6540007720123
 20
-11.59465056312581
 30
0.0
 11
534.6540007720123
 21
18.40529653188366
 31
0.0
  0
LINE
  5
344
330
1F
100
AcDbEntity
  8
0-4
  6
Continuous
 62
     7
370
     9
100
AcDbLine
 10
534.6540007720123
 20
-11.59465056312581
 30
0.0
 11
533.3487388498118
 21
-1.680201949387651
 31
0.0
  0
LINE
  5
345
330
1F
100
AcDbEntity
  8
0-4
  6
Continuous
 62
     7
370
     9
100
AcDbLine
 10
534.6540007720123
 20
-11.59465056312581
 30
0.0
 11
535.9592626942128
 21
-1.680201949387651
 31
0.0
  0
LINE
  5
346
330
1F
100
AcDbEntity
  8
0-4
  6
Continuous
 62
     7
370
     9
100
AcDbLine
 10
534.6540007720123
 20
18.40529653188366
 30
0.0
 11
533.3487388498118
 21
8.490847918145505
 31
0.0
  0
LINE
  5
347
330
1F
100
AcDbEntity
  8
0-4
  6
Continuous
 62
     7
370
     9
100
AcDbLine
 10
534.6540007720123
 20
18.40529653188366
 30
0.0
 11
535.9592626942128
 21
8.490847918145505
 31
0.0
  0
TEXT
  5
348
330
1F
100
AcDbEntity
  8
0-4
  6
Continuous
 62
     2
370
   211
100
AcDbText
 10
528.3980007720123
 20
-5.094677015621187
 30
0.0
 40
12.192
  1
30
 50
90.0
 41
1.0625
  7
ＭＳ ゴシック
100
AcDbText
  0
LINE
  5
349
330
1F
100
AcDbEntity
  8
0-E
  6
Continuous
 62
     7
370
     9
100
AcDbLine
 10
471.5108401818341
 20
340.0849345439191
 30
0.0
 11
450.1536405703273
 21
298.4053261068335
 31
0.0
  0
LINE
  5
34A
330
1F
100
AcDbEntity
  8
0-F
  6
Continuous
 62
     7
370
     9
100
AcDbLine
 10
450.1536405703273
 20
298.4053261068335
 30
0.0
 11
456.9731810580806
 21
308.2793627411241
 31
0.0
  0
LINE
  5
34B
330
1F
100
AcDbEntity
  8
0-F
  6
Continuous
 62
     7
370
     9
100
AcDbLine
 10
450.1536405703273
 20
298.4053261068335
 30
0.0
 11
454.185227088486
 21
309.7077833492323
 31
0.0
  0
TEXT
  5
34C
330
1F
100
AcDbEntity
  8
0-E
  6
Continuous
 62
     7
370
     9
100
AcDbText
 10
475.1182827770922
 20
326.9574666385137
 30
0.0
 40
9.144
  1
ＳＥＣＣ
 41
1.124999999999995
  7
ＭＳ ゴシック
100
AcDbText
  0
LINE
  5
34D
330
1F
100
AcDbEntity
  8
0-E
  6
Continuous
 62
     7
370
     9
100
AcDbLine
 10
471.5108401818341
 20
340.0849345439191
 30
0.0
 11
636.7644384559344
 21
340.0849345439191
 31
0.0
  0
TEXT
  5
34E
330
1F
100
AcDbEntity
  8
0-E
  6
Continuous
 62
     7
370
     9
100
AcDbText
 10
475.3102861818636
 20
347.2260543179899
 30
0.0
 40
9.144
  1
回転アンカー：ｔ＝２.０
 41
1.152173913043478
  7
ＭＳ ゴシック
100
AcDbText
  0
TEXT
  5
34F
330
1F
100
AcDbEntity
  8
0-5
  6
Continuous
 62
     7
370
     9
100
AcDbText
 10
475.3102861818636
 20
371.8206043201029
 30
0.0
 40
9.144
  1
境界部・壁際用として使用できます
 41
1.15625
  7
ＭＳ ゴシック
100
AcDbText
  0
TEXT
  5
350
330
1F
100
AcDbEntity
  8
0-5
  6
Continuous
 62
     7
370
     9
100
AcDbText
 10
475.3102861818636
 20
387.0011713146715
 30
0.0
 40
9.144
  1
アンカーを回転・変形させることで
 41
1.15625
  7
ＭＳ ゴシック
100
AcDbText
  0
TEXT
  5
351
330
1F
100
AcDbEntity
  8
0-5
  6
Continuous
 62
     7
370
     9
100
AcDbText
 10
461.3102861818634
 20
387.0011713146715
 30
0.0
 40
9.144
  1
※
  7
ＭＳ ゴシック
100
AcDbText
  0
LINE
  5
352
330
1F
100
AcDbEntity
  8
0-F
  6
Continuous
 62
     7
370
     9
100
AcDbLine
 10
456.1536312618769
 20
268.4053790118245
 30
0.0
 11
535.8539849358635
 21
268.4053790118245
 31
0.0
  0
LINE
  5
353
330
1F
100
AcDbEntity
  8
0-F
  6
Continuous
 62
     7
370
     9
100
AcDbLine
 10
456.1536312618769
 20
218.4054120038007
 30
0.0
 11
535.8539849358635
 21
218.4054120038007
 31
0.0
  0
LINE
  5
354
330
1F
100
AcDbEntity
  8
0-4
  6
Continuous
 62
     7
370
     9
100
AcDbLine
 10
535.8540007720123
 20
-11.59465056312581
 30
0.0
 11
456.1536312618769
 21
-11.59465056312581
 31
0.0
  0
LINE
  5
355
330
1F
100
AcDbEntity
  8
0-F
  6
Continuous
 62
     7
370
     9
100
AcDbLine
 10
456.1536312618769
 20
18.40529653188366
 30
0.0
 11
535.8539849358635
 21
18.40529653188366
 31
0.0
  0
LINE
  5
356
330
1F
100
AcDbEntity
  8
0-F
  6
Continuous
 62
     7
370
     9
100
AcDbLine
 10
456.1536312618769
 20
68.40541200380073
 30
0.0
 11
535.8539849358635
 21
68.40541200380073
 31
0.0
  0
LINE
  5
357
330
1F
100
AcDbEntity
  8
0-4
  6
Continuous
 62
     7
370
     9
100
AcDbLine
 10
454.1535087791649
 20
-82.5949040593324
 30
0.0
 11
454.1535087791649
 21
29.40532975951703
 31
0.0
  0
LINE
  5
358
330
1F
100
AcDbEntity
  8
0-4
  6
Continuous
 62
     7
370
     9
100
AcDbLine
 10
454.1535087791649
 20
-81.39490405933236
 30
0.0
 11
464.0679573929033
 21
-80.08964213713182
 31
0.0
  0
LINE
  5
359
330
1F
100
AcDbEntity
  8
0-4
  6
Continuous
 62
     7
370
     9
100
AcDbLine
 10
454.1535087791649
 20
-81.39490405933236
 30
0.0
 11
464.0679573929033
 21
-82.7001659815329
 31
0.0
  0
LINE
  5
35A
330
1F
100
AcDbEntity
  8
0-4
  6
Continuous
 62
     7
370
     9
100
AcDbLine
 10
447.6539017960831
 20
-81.39490405933236
 30
0.0
 11
437.7394531823452
 21
-80.08964213713182
 31
0.0
  0
LINE
  5
35B
330
1F
100
AcDbEntity
  8
0-4
  6
Continuous
 62
     7
370
     9
100
AcDbLine
 10
447.6539017960831
 20
-81.39490405933236
 30
0.0
 11
437.7394531823452
 21
-82.7001659815329
 31
0.0
  0
LINE
  5
35C
330
1F
100
AcDbEntity
  8
0-4
  6
Continuous
 62
     7
370
     9
100
AcDbLine
 10
447.6539017960831
 20
-81.39490405933236
 30
0.0
 11
454.1535087791649
 21
-81.39490405933236
 31
0.0
  0
TEXT
  5
35D
330
1F
100
AcDbEntity
  8
0-4
  6
Continuous
 62
     2
370
     9
100
AcDbText
 10
403.1539908744194
 20
-37.13886446896069
 30
0.0
 40
12.192
  1
60
 41
1.0625
  7
ＭＳ ゴシック
100
AcDbText
  0
LINE
  5
35E
330
1F
100
AcDbEntity
  8
0-4
  6
Continuous
 62
     7
370
     9
100
AcDbLine
 10
381.6539413864548
 20
-81.39490405933236
 30
0.0
 11
393.5512439624686
 21
-82.96119813661278
 31
0.0
  0
LINE
  5
35F
330
1F
100
AcDbEntity
  8
0-4
  6
Continuous
 62
     7
370
     9
100
AcDbLine
 10
381.6539413864548
 20
-81.39490405933236
 30
0.0
 11
393.5512439624686
 21
-79.82860998205194
 31
0.0
  0
LINE
  5
360
330
1F
100
AcDbEntity
  8
0-4
  6
Continuous
 62
     7
370
     9
100
AcDbLine
 10
441.6539413864548
 20
-41.39487106735612
 30
0.0
 11
429.7566388104415
 21
-42.96116514463654
 31
0.0
  0
LINE
  5
361
330
1F
100
AcDbEntity
  8
0-4
  6
Continuous
 62
     7
370
     9
100
AcDbLine
 10
441.6539413864548
 20
-41.39487106735612
 30
0.0
 11
429.7566388104415
 21
-39.8285769900757
 31
0.0
  0
LINE
  5
362
330
1F
100
AcDbEntity
  8
0-4
  6
Continuous
 62
     7
370
     9
100
AcDbLine
 10
381.6539413864548
 20
-41.39487106735612
 30
0.0
 11
393.5512439624686
 21
-42.96116514463654
 31
0.0
  0
LINE
  5
363
330
1F
100
AcDbEntity
  8
0-4
  6
Continuous
 62
     7
370
     9
100
AcDbLine
 10
381.6539413864548
 20
-41.39487106735612
 30
0.0
 11
393.5512439624686
 21
-39.8285769900757
 31
0.0
  0
LINE
  5
364
330
1F
100
AcDbEntity
  8
0-4
  6
Continuous
 62
     7
370
     9
100
AcDbLine
 10
441.6539413864548
 20
13.40523054793096
 30
0.0
 11
441.6539413864548
 21
-42.59485523120736
 31
0.0
  0
LINE
  5
365
330
1F
100
AcDbEntity
  8
0-4
  6
Continuous
 62
     7
370
     9
100
AcDbLine
 10
381.6539413864548
 20
10.40527013830263
 30
0.0
 11
381.6539413864548
 21
-82.59488822318383
 31
0.0
  0
LINE
  5
366
330
1F
100
AcDbEntity
  8
0-4
  6
Continuous
 62
     7
370
     9
100
AcDbLine
 10
381.6539413864548
 20
-41.39487106735612
 30
0.0
 11
441.6539413864548
 21
-41.39487106735612
 31
0.0
  0
LINE
  5
367
330
1F
100
AcDbEntity
  8
0-4
  6
Continuous
 62
     7
370
     9
100
AcDbLine
 10
447.6539017960831
 20
-15.63063644260217
 30
0.0
 11
447.6539017960831
 21
-82.59488822318383
 31
0.0
  0
LINE
  5
368
330
1F
100
AcDbEntity
  8
0-4
  6
Continuous
 62
     7
370
     9
100
AcDbLine
 10
447.6539017960831
 20
-81.39490405933236
 30
0.0
 11
435.7565992200693
 21
-82.96119813661278
 31
0.0
  0
LINE
  5
369
330
1F
100
AcDbEntity
  8
0-4
  6
Continuous
 62
     7
370
     9
100
AcDbLine
 10
447.6539017960831
 20
-81.39490405933236
 30
0.0
 11
435.7565992200693
 21
-79.82860998205194
 31
0.0
  0
LINE
  5
36A
330
1F
100
AcDbEntity
  8
0-4
  6
Continuous
 62
     7
370
     9
100
AcDbLine
 10
381.6539413864548
 20
-81.39490405933236
 30
0.0
 11
447.6539017960831
 21
-81.39490405933236
 31
0.0
  0
TEXT
  5
36B
330
1F
100
AcDbEntity
  8
0-4
  6
Continuous
 62
     2
370
   211
100
AcDbText
 10
406.153921591269
 20
-77.13889746093716
 30
0.0
 40
12.192
  1
66
 41
1.0625
  7
ＭＳ ゴシック
100
AcDbText
  0
TEXT
  5
36C
330
1F
100
AcDbEntity
  8
0-4
  6
Continuous
 62
     2
370
   211
100
AcDbText
 10
459.5259920874169
 20
-76.73890405933227
 30
0.0
 40
12.192
  1
6.5
 41
1.083333333333324
  7
ＭＳ ゴシック
100
AcDbText
  0
LINE
  5
36D
330
1F
100
AcDbEntity
  8
0-4
  6
Continuous
 62
     7
370
     9
100
AcDbLine
 10
454.1535087791649
 20
-81.39490405933236
 30
0.0
 11
486.6117144400318
 21
-81.39490405933236
 31
0.0
  0
LINE
  5
36E
330
1F
100
AcDbEntity
  8
0-F
  6
Continuous
 62
     7
370
     9
100
AcDbLine
 10
373.6074154416264
 20
18.40529653188366
 30
0.0
 11
240.4538912386507
 21
18.40529653188366
 31
0.0
  0
LINE
  5
36F
330
1F
100
AcDbEntity
  8
0-F
  6
Continuous
 62
     7
370
     9
100
AcDbLine
 10
373.6074154416264
 20
268.4053790118245
 30
0.0
 11
240.4538912386507
 21
268.4053790118245
 31
0.0
  0
LINE
  5
370
330
1F
100
AcDbEntity
  8
0-F
  6
Continuous
 62
     7
370
     9
100
AcDbLine
 10
373.6074154416264
 20
23.40526353990731
 30
0.0
 11
280.4539242306273
 21
23.40526353990731
 31
0.0
  0
LINE
  5
371
330
1F
100
AcDbEntity
  8
0-F
  6
Continuous
 62
     7
370
     9
100
AcDbLine
 10
373.6074154416264
 20
51.40540540540553
 30
0.0
 11
320.4539572226035
 21
51.40540540540553
 31
0.0
  0
LINE
  5
372
330
1F
100
AcDbEntity
  8
0-F
  6
Continuous
 62
     7
370
     9
100
AcDbLine
 10
373.6074154416264
 20
235.4054186021962
 30
0.0
 11
320.4539572226035
 21
235.4054186021962
 31
0.0
  0
LINE
  5
373
330
1F
100
AcDbEntity
  8
0-F
  6
Continuous
 62
     7
370
     9
100
AcDbLine
 10
373.6074154416264
 20
263.4054120038008
 30
0.0
 11
280.4539242306273
 21
263.4054120038008
 31
0.0
  0
LINE
  5
374
330
1F
100
AcDbEntity
  8
0-F
  6
Continuous
 62
     7
370
     9
100
AcDbLine
 10
373.6074154416264
 20
21.40530642947658
 30
0.0
 11
280.4539242306273
 21
21.40530642947658
 31
0.0
  0
LINE
  5
375
330
1F
100
AcDbEntity
  8
0-F
  6
Continuous
 62
     7
370
     9
100
AcDbLine
 10
373.6074154416264
 20
265.4054186021962
 30
0.0
 11
280.4539242306273
 21
265.4054186021962
 31
0.0
  0
LINE
  5
376
330
1F
100
AcDbEntity
  8
0-F
  6
Continuous
 62
     7
370
     9
100
AcDbLine
 10
373.6074154416264
 20
239.4054317989867
 30
0.0
 11
320.4539572226035
 21
239.4054317989867
 31
0.0
  0
LINE
  5
377
330
1F
100
AcDbEntity
  8
0-F
  6
Continuous
 62
     7
370
     9
100
AcDbLine
 10
373.6074154416264
 20
250.4054186021962
 30
0.0
 11
320.4539572226035
 21
250.4054186021962
 31
0.0
  0
LINE
  5
378
330
1F
100
AcDbEntity
  8
0-F
  6
Continuous
 62
     7
370
     9
100
AcDbLine
 10
373.6074154416264
 20
254.4054317989867
 30
0.0
 11
320.4539572226035
 21
254.4054317989867
 31
0.0
  0
LINE
  5
379
330
1F
100
AcDbEntity
  8
0-E
  6
Continuous
 62
     7
370
     9
100
AcDbLine
 10
557.79671752892
 20
98.35001535339359
 30
0.0
 11
443.1537434345964
 21
64.90536251583637
 31
0.0
  0
LINE
  5
37A
330
1F
100
AcDbEntity
  8
0-E
  6
Continuous
 62
     7
370
     9
100
AcDbLine
 10
443.1537434345964
 20
64.90536251583637
 30
0.0
 11
455.0136331094272
 21
66.73364587732283
 31
0.0
  0
LINE
  5
37B
330
1F
100
AcDbEntity
  8
0-E
  6
Continuous
 62
     7
370
     9
100
AcDbLine
 10
443.1537434345964
 20
64.90536251583637
 30
0.0
 11
454.1363104742923
 21
69.74093050570116
 31
0.0
  0
TEXT
  5
37C
330
1F
100
AcDbEntity
  8
0-E
  6
Continuous
 62
     7
370
     9
100
AcDbText
 10
561.5623732123272
 20
83.78705006095254
 30
0.0
 40
9.144
  1
クロロプレンゴム
 41
1.145833333333333
  7
ＭＳ ゴシック
100
AcDbText
  0
LINE
  5
37D
330
1F
100
AcDbEntity
  8
0-E
  6
Continuous
 62
     7
370
     9
100
AcDbLine
 10
557.79671752892
 20
98.35001535339359
 30
0.0
 11
714.4440069294546
 21
98.35001535339359
 31
0.0
  0
TEXT
  5
37E
330
1F
100
AcDbEntity
  8
0-E
  6
Continuous
 62
     7
370
     9
100
AcDbText
 10
562.543811926432
 20
105.8647692596436
 30
0.0
 40
9.144
  1
クッション：ｔ＝３．０
 41
1.151515151515152
  7
ＭＳ ゴシック
100
AcDbText
  0
TEXT
  5
37F
330
1F
100
AcDbEntity
  8
F-5
  6
Continuous
 62
     2
370
     9
100
AcDbText
 10
-309.3628001271063
 20
-528.4488751053836
 30
0.0
 40
12.192
  1
タイル用　充填深さ４０ｍｍ　ステンレス目地　側溝用　カラー舗装用みぞ蓋　
 41
0.7743055555555557
  7
ＭＳ ゴシック
100
AcDbText
  0
TEXT
  5
380
330
1F
100
AcDbEntity
  8
F-5
  6
Continuous
 62
     2
370
     9
100
AcDbText
 10
-309.3628001271063
 20
-548.1112208411942
 30
0.0
 40
12.192
  1
　　　　　　　　　　　　　ＳＥＭ－２－２５６０（Ｐ＝１５）＋ＴＬ６０Ｐ
 41
0.7742857142857144
  7
ＭＳ ゴシック
100
AcDbText
  0
ENDSEC
  0
SECTION
  2
OBJECTS
  0
DICTIONARY
  5
C
330
0
100
AcDbDictionary
281
     1
  3
ACAD_GROUP
350
D
  3
ACAD_LAYOUT
350
1A
  3
ACAD_MLEADERSTYLE
350
382
  3
ACAD_MLINESTYLE
350
17
  3
ACAD_PLOTSETTINGS
350
19
  3
ACAD_PLOTSTYLENAME
350
E
  3
ACAD_TABLESTYLE
350
381
  3
ACAD_VISUALSTYLE
350
2A
  0
DICTIONARY
  5
D
102
{ACAD_REACTORS
330
C
102
}
330
C
100
AcDbDictionary
281
     1
  0
DICTIONARY
  5
1A
102
{ACAD_REACTORS
330
C
102
}
330
C
100
AcDbDictionary
281
     1
  3
Layout1
350
1E
  3
Layout2
350
26
  3
Model
350
22
  0
DICTIONARY
  5
382
102
{ACAD_REACTORS
330
C
102
}
330
C
100
AcDbDictionary
281
     1
  0
DICTIONARY
  5
17
102
{ACAD_REACTORS
330
C
102
}
330
C
100
AcDbDictionary
281
     1
  3
Standard
350
18
  0
DICTIONARY
  5
19
102
{ACAD_REACTORS
330
C
102
}
330
C
100
AcDbDictionary
281
     1
  0
ACDBDICTIONARYWDFLT
  5
E
102
{ACAD_REACTORS
330
C
102
}
330
C
100
AcDbDictionary
281
     1
  3
Normal
350
F
100
AcDbDictionaryWithDefault
340
F
  0
DICTIONARY
  5
381
102
{ACAD_REACTORS
330
C
102
}
330
C
100
AcDbDictionary
281
     1
  0
DICTIONARY
  5
2A
102
{ACAD_REACTORS
330
C
102
}
330
C
100
AcDbDictionary
281
     1
  3
2dWireframe
350
2F
  3
3D Hidden
350
31
  3
3dWireframe
350
30
  3
Basic
350
32
  3
Brighten
350
36
  3
ColorChange
350
3A
  3
Conceptual
350
34
  3
Dim
350
35
  3
Facepattern
350
39
  3
Flat
350
2B
  3
FlatWithEdges
350
2C
  3
Gouraud
350
2D
  3
GouraudWithEdges
350
2E
  3
Linepattern
350
38
  3
Realistic
350
33
  3
Thicken
350
37
  0
LAYOUT
  5
1E
102
{ACAD_REACTORS
330
1A
102
}
330
1A
100
AcDbPlotSettings
  1

  2
none_device
  4

  6

 40
0.0
 41
0.0
 42
0.0
 43
0.0
 44
0.0
 45
0.0
 46
0.0
 47
0.0
 48
0.0
 49
0.0
140
0.0
141
0.0
142
1.0
143
1.0
 70
   688
 72
     0
 73
     0
 74
     5
  7

 75
    16
 76
     0
 77
     5
 78
   300
147
1.0
148
0.0
149
0.0
100
AcDbLayout
  1
Layout1
 70
     1
 71
     1
 10
0.0
 20
0.0
 11
420.0
 21
297.0
 12
0.0
 22
0.0
 32
0.0
 14
1.000000000000000E+20
 24
1.000000000000000E+20
 34
1.000000000000000E+20
 15
-1.000000000000000E+20
 25
-1.000000000000000E+20
 35
-1.000000000000000E+20
146
0.0
 13
0.0
 23
0.0
 33
0.0
 16
1.0
 26
0.0
 36
0.0
 17
0.0
 27
1.0
 37
0.0
 76
     0
330
1B
  0
LAYOUT
  5
26
102
{ACAD_REACTORS
330
1A
102
}
330
1A
100
AcDbPlotSettings
  1

  2
none_device
  4

  6

 40
0.0
 41
0.0
 42
0.0
 43
0.0
 44
0.0
 45
0.0
 46
0.0
 47
0.0
 48
0.0
 49
0.0
140
0.0
141
0.0
142
1.0
143
1.0
 70
   688
 72
     0
 73
     0
 74
     5
  7

 75
    16
 76
     0
 77
     5
 78
   300
147
1.0
148
0.0
149
0.0
100
AcDbLayout
  1
Layout2
 70
     1
 71
     2
 10
0.0
 20
0.0
 11
0.0
 21
0.0
 12
0.0
 22
0.0
 32
0.0
 14
0.0
 24
0.0
 34
0.0
 15
0.0
 25
0.0
 35
0.0
146
0.0
 13
0.0
 23
0.0
 33
0.0
 16
1.0
 26
0.0
 36
0.0
 17
0.0
 27
1.0
 37
0.0
 76
     0
330
23
  0
LAYOUT
  5
22
102
{ACAD_REACTORS
330
1A
102
}
330
1A
100
AcDbPlotSettings
  1

  2
none_device
  4

  6

 40
0.0
 41
0.0
 42
0.0
 43
0.0
 44
0.0
 45
0.0
 46
0.0
 47
0.0
 48
0.0
 49
0.0
140
0.0
141
0.0
142
1.0
143
1.0
 70
  1712
 72
     0
 73
     0
 74
     0
  7

 75
     0
 76
     0
 77
     5
 78
   300
147
1.0
148
0.0
149
0.0
100
AcDbLayout
  1
Model
 70
     1
 71
     0
 10
-840.0
 20
-594.0
 11
840.0
 21
594.0
 12
0.0
 22
0.0
 32
0.0
 14
-840.0
 24
-594.0
 34
0.0
 15
840.0
 25
594.0
 35
0.0
146
0.0
 13
0.0
 23
0.0
 33
0.0
 16
1.0
 26
0.0
 36
0.0
 17
0.0
 27
1.0
 37
0.0
 76
     0
330
1F
331
29
  0
MLINESTYLE
  5
18
102
{ACAD_REACTORS
330
17
102
}
330
17
100
AcDbMlineStyle
  2
Standard
 70
     0
  3

 62
   256
 51
90.0
 52
90.0
 71
     2
 49
0.5
 62
   256
  6
BYLAYER
 49
-0.5
 62
   256
  6
BYLAYER
  0
ACDBPLACEHOLDER
  5
F
102
{ACAD_REACTORS
330
E
102
}
330
E
  0
VISUALSTYLE
  5
2F
102
{ACAD_REACTORS
330
2A
102
}
330
2A
100
AcDbVisualStyle
  2
2dWireframe
 70
     4
 71
     0
 72
     2
 73
     0
 90
        0
 40
-0.6
 41
-30.0
 62
     5
 63
     7
421
 16777215
 74
     1
 91
        4
 64
     7
 65
   257
 75
     1
175
     1
 42
1.0
 92
        0
 66
   257
 43
1.0
 76
     1
 77
     6
 78
     2
 67
     7
 79
     5
170
     0
171
     0
290
     0
174
     0
 93
        1
 44
0.0
173
     0
291
     0
 45
0.0
1001
ACAD
1000
AcDbSavedByObjectVersion
1070
     0
  0
VISUALSTYLE
  5
31
102
{ACAD_REACTORS
330
2A
102
}
330
2A
100
AcDbVisualStyle
  2
3D Hidden
 70
     6
 71
     1
 72
     2
 73
     2
 90
        0
 40
-0.6
 41
-30.0
 62
     5
 63
     7
421
 16777215
 74
     2
 91
        2
 64
     7
 65
   257
 75
     2
175
     1
 42
40.0
 92
        0
 66
   257
 43
1.0
 76
     1
 77
     6
 78
     2
 67
     7
 79
     3
170
     0
171
     0
290
     0
174
     0
 93
        1
 44
0.0
173
     0
291
     0
 45
0.0
1001
ACAD
1000
AcDbSavedByObjectVersion
1070
     0
  0
VISUALSTYLE
  5
30
102
{ACAD_REACTORS
330
2A
102
}
330
2A
100
AcDbVisualStyle
  2
3dWireframe
 70
     5
 71
     0
 72
     2
 73
     0
 90
        0
 40
-0.6
 41
-30.0
 62
     5
 63
     7
421
 16777215
 74
     1
 91
        4
 64
     7
 65
   257
 75
     1
175
     1
 42
1.0
 92
        0
 66
   257
 43
1.0
 76
     1
 77
     6
 78
     2
 67
     7
 79
     5
170
     0
171
     0
290
     0
174
     0
 93
        1
 44
0.0
173
     0
291
     0
 45
0.0
1001
ACAD
1000
AcDbSavedByObjectVersion
1070
     0
  0
VISUALSTYLE
  5
32
102
{ACAD_REACTORS
330
2A
102
}
330
2A
100
AcDbVisualStyle
  2
Basic
 70
     7
 71
     1
 72
     0
 73
     1
 90
        0
 40
-0.6
 41
-30.0
 62
     5
 63
     7
421
 16777215
 74
     0
 91
        4
 64
     7
 65
   257
 75
     1
175
     1
 42
1.0
 92
        8
 66
     7
 43
1.0
 76
     1
 77
     6
 78
     2
 67
     7
 79
     5
170
     0
171
     0
290
     0
174
     0
 93
        1
 44
0.0
173
     0
291
     1
 45
0.0
1001
ACAD
1000
AcDbSavedByObjectVersion
1070
     0
  0
VISUALSTYLE
  5
36
102
{ACAD_REACTORS
330
2A
102
}
330
2A
100
AcDbVisualStyle
  2
Brighten
 70
    12
 71
     2
 72
     2
 73
     0
 90
        0
 40
-0.6
 41
-30.0
 62
     5
 63
     7
421
 16777215
 74
     1
 91
        4
 64
     7
 65
   257
 75
     1
175
     1
 42
1.0
 92
        8
 66
     7
 43
1.0
 76
     1
 77
     6
 78
     2
 67
     7
 79
     5
170
     0
171
     0
290
     0
174
     0
 93
        1
 44
50.0
173
     0
291
     1
 45
0.0
1001
ACAD
1000
AcDbSavedByObjectVersion
1070
     0
  0
VISUALSTYLE
  5
3A
102
{ACAD_REACTORS
330
2A
102
}
330
2A
100
AcDbVisualStyle
  2
ColorChange
 70
    16
 71
     2
 72
     2
 73
     3
 90
        0
 40
-0.6
 41
-30.0
 62
     5
 63
     8
421
  8421504
 74
     1
 91
        4
 64
     7
 65
   257
 75
     1
175
     1
 42
1.0
 92
        8
 66
     8
424
  8421504
 43
1.0
 76
     1
 77
     6
 78
     2
 67
     7
 79
     5
170
     0
171
     0
290
     0
174
     0
 93
        1
 44
0.0
173
     0
291
     1
 45
0.0
1001
ACAD
1000
AcDbSavedByObjectVersion
1070
     0
  0
VISUALSTYLE
  5
34
102
{ACAD_REACTORS
330
2A
102
}
330
2A
100
AcDbVisualStyle
  2
Conceptual
 70
     9
 71
     3
 72
     2
 73
     0
 90
        0
 40
-0.6
 41
-30.0
 62
     5
 63
     7
421
 16777215
 74
     2
 91
        2
 64
     7
 65
   257
 75
     1
175
     1
 42
40.0
 92
        8
 66
     7
 43
1.0
 76
     1
 77
     6
 78
     2
 67
     7
 79
     3
170
     0
171
     0
290
     0
174
     0
 93
        1
 44
0.0
173
     0
291
     0
 45
0.0
1001
ACAD
1000
AcDbSavedByObjectVersion
1070
     0
  0
VISUALSTYLE
  5
35
102
{ACAD_REACTORS
330
2A
102
}
330
2A
100
AcDbVisualStyle
  2
Dim
 70
    11
 71
     2
 72
     2
 73
     0
 90
        0
 40
-0.6
 41
-30.0
 62
     5
 63
     7
421
 16777215
 74
     1
 91
        4
 64
     7
 65
   257
 75
     1
175
     1
 42
1.0
 92
        8
 66
     7
 43
1.0
 76
     1
 77
     6
 78
     2
 67
     7
 79
     5
170
     0
171
     0
290
     0
174
     0
 93
        1
 44
-50.0
173
     0
291
     1
 45
0.0
1001
ACAD
1000
AcDbSavedByObjectVersion
1070
     0
  0
VISUALSTYLE
  5
39
102
{ACAD_REACTORS
330
2A
102
}
330
2A
100
AcDbVisualStyle
  2
Facepattern
 70
    15
 71
     2
 72
     2
 73
     0
 90
        0
 40
-0.6
 41
-30.0
 62
     5
 63
     7
421
 16777215
 74
     1
 91
        4
 64
     7
 65
   257
 75
     1
175
     1
 42
1.0
 92
        8
 66
     7
 43
1.0
 76
     1
 77
     6
 78
     2
 67
     7
 79
     5
170
     0
171
     0
290
     0
174
     0
 93
        1
 44
0.0
173
     0
291
     1
 45
0.0
1001
ACAD
1000
AcDbSavedByObjectVersion
1070
     0
  0
VISUALSTYLE
  5
2B
102
{ACAD_REACTORS
330
2A
102
}
330
2A
100
AcDbVisualStyle
  2
Flat
 70
     0
 71
     2
 72
     1
 73
     1
 90
        2
 40
-0.6
 41
30.0
 62
     5
 63
     7
421
 16777215
 74
     0
 91
        4
 64
     7
 65
   257
 75
     1
175
     1
 42
1.0
 92
        8
 66
     7
 43
1.0
 76
     1
 77
     6
 78
     2
 67
     7
 79
     5
170
     0
171
     0
290
     0
174
     0
 93
       13
 44
0.0
173
     0
291
     1
 45
0.0
1001
ACAD
1000
AcDbSavedByObjectVersion
1070
     0
  0
VISUALSTYLE
  5
2C
102
{ACAD_REACTORS
330
2A
102
}
330
2A
100
AcDbVisualStyle
  2
FlatWithEdges
 70
     1
 71
     2
 72
     1
 73
     1
 90
        2
 40
-0.6
 41
30.0
 62
     5
 63
     7
421
 16777215
 74
     1
 91
        4
 64
     7
 65
   257
 75
     1
175
     1
 42
1.0
 92
        0
 66
   257
 43
1.0
 76
     1
 77
     6
 78
     2
 67
     7
 79
     5
170
     0
171
     0
290
     0
174
     0
 93
       13
 44
0.0
173
     0
291
     1
 45
0.0
1001
ACAD
1000
AcDbSavedByObjectVersion
1070
     0
  0
VISUALSTYLE
  5
2D
102
{ACAD_REACTORS
330
2A
102
}
330
2A
100
AcDbVisualStyle
  2
Gouraud
 70
     2
 71
     2
 72
     2
 73
     1
 90
        2
 40
-0.6
 41
30.0
 62
     5
 63
     7
421
 16777215
 74
     0
 91
        4
 64
     7
 65
   257
 75
     1
175
     1
 42
1.0
 92
        0
 66
     7
 43
1.0
 76
     1
 77
     6
 78
     2
 67
     7
 79
     5
170
     0
171
     0
290
     0
174
     0
 93
       13
 44
0.0
173
     0
291
     1
 45
0.0
1001
ACAD
1000
AcDbSavedByObjectVersion
1070
     0
  0
VISUALSTYLE
  5
2E
102
{ACAD_REACTORS
330
2A
102
}
330
2A
100
AcDbVisualStyle
  2
GouraudWithEdges
 70
     3
 71
     2
 72
     2
 73
     1
 90
        2
 40
-0.6
 41
30.0
 62
     5
 63
     7
421
 16777215
 74
     1
 91
        4
 64
     7
 65
   257
 75
     1
175
     1
 42
1.0
 92
        0
 66
   257
 43
1.0
 76
     1
 77
     6
 78
     2
 67
     7
 79
     5
170
     0
171
     0
290
     0
174
     0
 93
       13
 44
0.0
173
     0
291
     1
 45
0.0
1001
ACAD
1000
AcDbSavedByObjectVersion
1070
     0
  0
VISUALSTYLE
  5
38
102
{ACAD_REACTORS
330
2A
102
}
330
2A
100
AcDbVisualStyle
  2
Linepattern
 70
    14
 71
     2
 72
     2
 73
     0
 90
        0
 40
-0.6
 41
-30.0
 62
     5
 63
     7
421
 16777215
 74
     1
 91
        4
 64
     7
 65
   257
 75
     7
175
     7
 42
1.0
 92
        8
 66
     7
 43
1.0
 76
     1
 77
     6
 78
     2
 67
     7
 79
     5
170
     0
171
     0
290
     0
174
     0
 93
        1
 44
0.0
173
     0
291
     1
 45
0.0
1001
ACAD
1000
AcDbSavedByObjectVersion
1070
     0
  0
VISUALSTYLE
  5
33
102
{ACAD_REACTORS
330
2A
102
}
330
2A
100
AcDbVisualStyle
  2
Realistic
 70
     8
 71
     2
 72
     2
 73
     0
 90
        0
 40
-0.6
 41
-30.0
 62
     5
 63
     7
421
 16777215
 74
     1
 91
        0
 64
     7
 65
   257
 75
     1
175
     1
 42
1.0
 92
        8
 66
     8
424
  7895160
 43
1.0
 76
     1
 77
     6
 78
     2
 67
     7
 79
     5
170
     0
171
     0
290
     0
174
     0
 93
       13
 44
0.0
173
     0
291
     0
 45
0.0
1001
ACAD
1000
AcDbSavedByObjectVersion
1070
     0
  0
VISUALSTYLE
  5
37
102
{ACAD_REACTORS
330
2A
102
}
330
2A
100
AcDbVisualStyle
  2
Thicken
 70
    13
 71
     2
 72
     2
 73
     0
 90
        0
 40
-0.6
 41
-30.0
 62
     5
 63
     7
421
 16777215
 74
     1
 91
        4
 64
     7
 65
   257
 75
     1
175
     1
 42
1.0
 92
       12
 66
     7
 43
1.0
 76
     1
 77
     6
 78
     2
 67
     7
 79
     5
170
     0
171
     0
290
     0
174
     0
 93
        1
 44
0.0
173
     0
291
     1
 45
0.0
1001
ACAD
1000
AcDbSavedByObjectVersion
1070
     0
  0
ENDSEC
  0
EOF
