  0
SECTION
  2
HEADER
  9
$ACADVER
  1
AC1018
  9
$ACADMAINTVER
 70
     0
  9
$DWGCODEPAGE
  3
ANSI_932
  9
$INSBASE
 10
0.0
 20
0.0
 30
0.0
  9
$EXTMIN
 10
-840.0
 20
-594.0
 30
0.0
  9
$EXTMAX
 10
840.0
 20
594.0
 30
0.0
  9
$LIMMIN
 10
-840.0
 20
-594.0
  9
$LIMMAX
 10
840.0
 20
594.0
  9
$ORTHOMODE
 70
     0
  9
$REGENMODE
 70
     1
  9
$FILLMODE
 70
     1
  9
$QTEXTMODE
 70
     0
  9
$MIRRTEXT
 70
     1
  9
$LTSCALE
 40
4.0
  9
$ATTMODE
 70
     1
  9
$TEXTSIZE
 40
2.5
  9
$TRACEWID
 40
1.0
  9
$TEXTSTYLE
  7
Standard
  9
$CLAYER
  8
0
  9
$CELTYPE
  6
ByLayer
  9
$CECOLOR
 62
   256
  9
$CELTSCALE
 40
1.0
  9
$DISPSILH
 70
     0
  9
$DIMSCALE
 40
1.0
  9
$DIMASZ
 40
2.5
  9
$DIMEXO
 40
0.625
  9
$DIMDLI
 40
3.75
  9
$DIMRND
 40
0.0
  9
$DIMDLE
 40
0.0
  9
$DIMEXE
 40
1.25
  9
$DIMTP
 40
0.0
  9
$DIMTM
 40
0.0
  9
$DIMTXT
 40
2.5
  9
$DIMCEN
 40
2.5
  9
$DIMTSZ
 40
0.0
  9
$DIMTOL
 70
     0
  9
$DIMLIM
 70
     0
  9
$DIMTIH
 70
     0
  9
$DIMTOH
 70
     0
  9
$DIMSE1
 70
     0
  9
$DIMSE2
 70
     0
  9
$DIMTAD
 70
     1
  9
$DIMZIN
 70
     8
  9
$DIMBLK
  1

  9
$DIMASO
 70
     1
  9
$DIMSHO
 70
     1
  9
$DIMPOST
  1

  9
$DIMAPOST
  1

  9
$DIMALT
 70
     0
  9
$DIMALTD
 70
     3
  9
$DIMALTF
 40
0.03937007874016
  9
$DIMLFAC
 40
1.0
  9
$DIMTOFL
 70
     1
  9
$DIMTVP
 40
0.0
  9
$DIMTIX
 70
     0
  9
$DIMSOXD
 70
     0
  9
$DIMSAH
 70
     0
  9
$DIMBLK1
  1

  9
$DIMBLK2
  1

  9
$DIMSTYLE
  2
ISO-25
  9
$DIMCLRD
 70
     0
  9
$DIMCLRE
 70
     0
  9
$DIMCLRT
 70
     0
  9
$DIMTFAC
 40
1.0
  9
$DIMGAP
 40
0.625
  9
$DIMJUST
 70
     0
  9
$DIMSD1
 70
     0
  9
$DIMSD2
 70
     0
  9
$DIMTOLJ
 70
     0
  9
$DIMTZIN
 70
     8
  9
$DIMALTZ
 70
     0
  9
$DIMALTTZ
 70
     0
  9
$DIMUPT
 70
     0
  9
$DIMDEC
 70
     2
  9
$DIMTDEC
 70
     2
  9
$DIMALTU
 70
     2
  9
$DIMALTTD
 70
     3
  9
$DIMTXSTY
  7
Standard
  9
$DIMAUNIT
 70
     0
  9
$DIMADEC
 70
     0
  9
$DIMALTRND
 40
0.0
  9
$DIMAZIN
 70
     0
  9
$DIMDSEP
 70
    44
  9
$DIMATFIT
 70
     3
  9
$DIMFRAC
 70
     0
  9
$DIMLDRBLK
  1

  9
$DIMLUNIT
 70
     2
  9
$DIMLWD
 70
    -2
  9
$DIMLWE
 70
    -2
  9
$DIMTMOVE
 70
     0
  9
$LUNITS
 70
     2
  9
$LUPREC
 70
     4
  9
$SKETCHINC
 40
1.0
  9
$FILLETRAD
 40
10.0
  9
$AUNITS
 70
     0
  9
$AUPREC
 70
     0
  9
$MENU
  1
.
  9
$ELEVATION
 40
0.0
  9
$PELEVATION
 40
0.0
  9
$THICKNESS
 40
0.0
  9
$LIMCHECK
 70
     0
  9
$CHAMFERA
 40
10.0
  9
$CHAMFERB
 40
10.0
  9
$CHAMFERC
 40
20.0
  9
$CHAMFERD
 40
0.0
  9
$SKPOLY
 70
     0
  9
$TDCREATE
 40
2457518.43757419
  9
$TDUCREATE
 40
2457518.06257419
  9
$TDUPDATE
 40
2457518.437574201
  9
$TDUUPDATE
 40
2457518.062574201
  9
$TDINDWG
 40
0.0000000116
  9
$TDUSRTIMER
 40
0.0000000116
  9
$USRTIMER
 70
     1
  9
$ANGBASE
 50
0.0
  9
$ANGDIR
 70
     0
  9
$PDMODE
 70
     0
  9
$PDSIZE
 40
0.0
  9
$PLINEWID
 40
0.0
  9
$SPLFRAME
 70
     0
  9
$SPLINETYPE
 70
     6
  9
$SPLINESEGS
 70
     8
  9
$HANDSEED
  5
385
  9
$SURFTAB1
 70
     6
  9
$SURFTAB2
 70
     6
  9
$SURFTYPE
 70
     6
  9
$SURFU
 70
     6
  9
$SURFV
 70
     6
  9
$UCSBASE
  2

  9
$UCSNAME
  2

  9
$UCSORG
 10
0.0
 20
0.0
 30
0.0
  9
$UCSXDIR
 10
1.0
 20
0.0
 30
0.0
  9
$UCSYDIR
 10
0.0
 20
1.0
 30
0.0
  9
$UCSORTHOREF
  2

  9
$UCSORTHOVIEW
 70
     0
  9
$UCSORGTOP
 10
0.0
 20
0.0
 30
0.0
  9
$UCSORGBOTTOM
 10
0.0
 20
0.0
 30
0.0
  9
$UCSORGLEFT
 10
0.0
 20
0.0
 30
0.0
  9
$UCSORGRIGHT
 10
0.0
 20
0.0
 30
0.0
  9
$UCSORGFRONT
 10
0.0
 20
0.0
 30
0.0
  9
$UCSORGBACK
 10
0.0
 20
0.0
 30
0.0
  9
$PUCSBASE
  2

  9
$PUCSNAME
  2

  9
$PUCSORG
 10
0.0
 20
0.0
 30
0.0
  9
$PUCSXDIR
 10
1.0
 20
0.0
 30
0.0
  9
$PUCSYDIR
 10
0.0
 20
1.0
 30
0.0
  9
$PUCSORTHOREF
  2

  9
$PUCSORTHOVIEW
 70
     0
  9
$PUCSORGTOP
 10
0.0
 20
0.0
 30
0.0
  9
$PUCSORGBOTTOM
 10
0.0
 20
0.0
 30
0.0
  9
$PUCSORGLEFT
 10
0.0
 20
0.0
 30
0.0
  9
$PUCSORGRIGHT
 10
0.0
 20
0.0
 30
0.0
  9
$PUCSORGFRONT
 10
0.0
 20
0.0
 30
0.0
  9
$PUCSORGBACK
 10
0.0
 20
0.0
 30
0.0
  9
$USERI1
 70
     0
  9
$USERI2
 70
     0
  9
$USERI3
 70
     0
  9
$USERI4
 70
     0
  9
$USERI5
 70
     0
  9
$USERR1
 40
0.0
  9
$USERR2
 40
0.0
  9
$USERR3
 40
0.0
  9
$USERR4
 40
0.0
  9
$USERR5
 40
0.0
  9
$WORLDVIEW
 70
     1
  9
$SHADEDGE
 70
     3
  9
$SHADEDIF
 70
    70
  9
$TILEMODE
 70
     1
  9
$MAXACTVP
 70
    64
  9
$PINSBASE
 10
0.0
 20
0.0
 30
0.0
  9
$PLIMCHECK
 70
     0
  9
$PEXTMIN
 10
1.000000000000000E+20
 20
1.000000000000000E+20
 30
1.000000000000000E+20
  9
$PEXTMAX
 10
-1.000000000000000E+20
 20
-1.000000000000000E+20
 30
-1.000000000000000E+20
  9
$PLIMMIN
 10
0.0
 20
0.0
  9
$PLIMMAX
 10
420.0
 20
297.0
  9
$UNITMODE
 70
     0
  9
$VISRETAIN
 70
     1
  9
$PLINEGEN
 70
     0
  9
$PSLTSCALE
 70
     1
  9
$TREEDEPTH
 70
  3020
  9
$CMLSTYLE
  2
Standard
  9
$CMLJUST
 70
     0
  9
$CMLSCALE
 40
20.0
  9
$PROXYGRAPHICS
 70
     1
  9
$MEASUREMENT
 70
     1
  9
$CELWEIGHT
370
    -1
  9
$ENDCAPS
280
     0
  9
$JOINSTYLE
280
     0
  9
$LWDISPLAY
290
     0
  9
$INSUNITS
 70
     4
  9
$HYPERLINKBASE
  1

  9
$STYLESHEET
  1

  9
$XEDIT
290
     1
  9
$CEPSNTYPE
380
     0
  9
$PSTYLEMODE
290
     1
  9
$FINGERPRINTGUID
  2
{5DE5EDD6-4A86-4D98-B905-232EE12E8166}
  9
$VERSIONGUID
  2
{FAEB1C32-E019-11D5-929B-00C0DF256EC4}
  9
$EXTNAMES
290
     1
  9
$PSVPSCALE
 40
0.0
  9
$OLESTARTUP
290
     0
  9
$SORTENTS
280
   127
  9
$INDEXCTL
280
     0
  9
$HIDETEXT
280
     1
  9
$XCLIPFRAME
290
     0
  9
$HALOGAP
280
     0
  9
$OBSCOLOR
 70
   257
  9
$OBSLTYPE
280
     0
  9
$INTERSECTIONDISPLAY
280
     0
  9
$INTERSECTIONCOLOR
 70
   257
  9
$DIMASSOC
280
     2
  9
$PROJECTNAME
  1

  0
ENDSEC
  0
SECTION
  2
CLASSES
  0
CLASS
  1
ACDBDICTIONARYWDFLT
  2
AcDbDictionaryWithDefault
  3
ObjectDBX Classes
 90
        0
 91
        4
280
     0
281
     0
  0
CLASS
  1
VISUALSTYLE
  2
AcDbVisualStyle
  3
ObjectDBX Classes
 90
     4095
 91
        4
280
     0
281
     0
  0
ENDSEC
  0
SECTION
  2
TABLES
  0
TABLE
  2
VPORT
  5
8
330
0
100
AcDbSymbolTable
 70
     1
  0
VPORT
  5
29
330
8
100
AcDbSymbolTableRecord
100
AcDbViewportTableRecord
  2
*Active
 70
     0
 10
0.0
 20
0.0
 11
1.0
 21
1.0
 12
0.0
 22
0.0
 13
0.0
 23
0.0
 14
10.0
 24
10.0
 15
10.0
 25
10.0
 16
0.0
 26
0.0
 36
1.0
 17
0.0
 27
0.0
 37
0.0
 40
1306.8
 41
1.414141414141414
 42
50.0
 43
0.0
 44
0.0
 50
0.0
 51
0.0
 71
     0
 72
 10000
 73
     1
 74
     3
 75
     0
 76
     0
 77
     0
 78
     0
281
     0
 65
     1
110
0.0
120
0.0
130
0.0
111
1.0
121
0.0
131
0.0
112
0.0
122
1.0
132
0.0
 79
     0
146
0.0
  0
ENDTAB
  0
TABLE
  2
LTYPE
  5
5
330
0
100
AcDbSymbolTable
 70
     6
  0
LTYPE
  5
14
330
5
100
AcDbSymbolTableRecord
100
AcDbLinetypeTableRecord
  2
ByBlock
 70
     0
  3

 72
    65
 73
     0
 40
0.0
  0
LTYPE
  5
15
330
5
100
AcDbSymbolTableRecord
100
AcDbLinetypeTableRecord
  2
ByLayer
 70
     0
  3

 72
    65
 73
     0
 40
0.0
  0
LTYPE
  5
16
330
5
100
AcDbSymbolTableRecord
100
AcDbLinetypeTableRecord
  2
Continuous
 70
     0
  3
Solid line
 72
    65
 73
     0
 40
0.0
  0
LTYPE
  5
3C
330
5
100
AcDbSymbolTableRecord
100
AcDbLinetypeTableRecord
  2
JWW_CENTER1
 70
     0
  3
-----  --  ----------  --  -----
 72
    65
 73
     4
 40
6.773333333333333
 49
4.233333333333333
 74
     0
 49
-0.8466666666666667
 74
     0
 49
0.8466666666666667
 74
     0
 49
-0.8466666666666667
 74
     0
  0
LTYPE
  5
3D
330
5
100
AcDbSymbolTableRecord
100
AcDbLinetypeTableRecord
  2
JWW_PHANTOM2
 70
     0
  3
------------  -  -  ------------
 72
    65
 73
     6
 40
13.54666666666667
 49
10.16
 74
     0
 49
-0.8466666666666667
 74
     0
 49
0.4233333333333333
 74
     0
 49
-0.8466666666666667
 74
     0
 49
0.4233333333333333
 74
     0
 49
-0.8466666666666667
 74
     0
  0
LTYPE
  5
3E
330
5
100
AcDbSymbolTableRecord
100
AcDbLinetypeTableRecord
  2
JWW_DASHED3
 70
     0
  3
---  ------  ------  ------  ---
 72
    65
 73
     2
 40
3.386666666666667
 49
2.54
 74
     0
 49
-0.8466666666666667
 74
     0
  0
LTYPE
  5
3F
330
5
100
AcDbSymbolTableRecord
100
AcDbLinetypeTableRecord
  2
JWW_CENTER2
 70
     0
  3
-------------  --  -------------
 72
    65
 73
     4
 40
13.54666666666667
 49
11.00666666666667
 74
     0
 49
-0.8466666666666667
 74
     0
 49
0.8466666666666667
 74
     0
 49
-0.8466666666666667
 74
     0
  0
LTYPE
  5
40
330
5
100
AcDbSymbolTableRecord
100
AcDbLinetypeTableRecord
  2
JWW_DASHED1
 70
     0
  3
-  --  --  --  --  --  --  --  -
 72
    65
 73
     2
 40
1.693333333333333
 49
0.8466666666666667
 74
     0
 49
-0.8466666666666667
 74
     0
  0
ENDTAB
  0
TABLE
  2
LAYER
  5
2
330
0
100
AcDbSymbolTable
 70
     9
  0
LAYER
  5
10
330
2
100
AcDbSymbolTableRecord
100
AcDbLayerTableRecord
  2
0
 70
     0
 62
     7
  6
Continuous
370
    -3
390
F
  0
LAYER
  5
41
330
2
100
AcDbSymbolTableRecord
100
AcDbLayerTableRecord
  2
F-5
 70
     0
 62
     7
  6
Continuous
370
    -3
390
F
  0
LAYER
  5
42
330
2
100
AcDbSymbolTableRecord
100
AcDbLayerTableRecord
  2
0-E
 70
     0
 62
     7
  6
Continuous
370
    -3
390
F
  0
LAYER
  5
43
330
2
100
AcDbSymbolTableRecord
100
AcDbLayerTableRecord
  2
0-5
 70
     0
 62
     7
  6
Continuous
370
    -3
390
F
  0
LAYER
  5
44
330
2
100
AcDbSymbolTableRecord
100
AcDbLayerTableRecord
  2
0-0
 70
     0
 62
     7
  6
Continuous
370
    -3
390
F
  0
LAYER
  5
45
330
2
100
AcDbSymbolTableRecord
100
AcDbLayerTableRecord
  2
0-F
 70
     0
 62
     7
  6
Continuous
370
    -3
390
F
  0
LAYER
  5
46
330
2
100
AcDbSymbolTableRecord
100
AcDbLayerTableRecord
  2
0-1
 70
     0
 62
     7
  6
Continuous
370
    -3
390
F
  0
LAYER
  5
47
330
2
100
AcDbSymbolTableRecord
100
AcDbLayerTableRecord
  2
0-6
 70
     0
 62
     7
  6
Continuous
370
    -3
390
F
  0
LAYER
  5
48
330
2
100
AcDbSymbolTableRecord
100
AcDbLayerTableRecord
  2
0-4
 70
     0
 62
     7
  6
Continuous
370
    -3
390
F
  0
ENDTAB
  0
TABLE
  2
STYLE
  5
3
330
0
100
AcDbSymbolTable
 70
     2
  0
STYLE
  5
11
330
3
100
AcDbSymbolTableRecord
100
AcDbTextStyleTableRecord
  2
Standard
 70
     0
 40
0.0
 41
1.0
 50
0.0
 71
     0
 42
2.5
  3
txt
  4

1001
ACAD
1000

1071
        0
  0
STYLE
  5
3B
330
3
100
AcDbSymbolTableRecord
100
AcDbTextStyleTableRecord
  2
ＭＳ ゴシック
 70
     0
 40
1.0
 41
1.0
 50
0.0
 71
     0
 42
10.0
  3

  4

1001
ACAD
1000
MS Gothic
1071
    32817
  0
ENDTAB
  0
TABLE
  2
VIEW
  5
6
330
0
100
AcDbSymbolTable
 70
     0
  0
ENDTAB
  0
TABLE
  2
UCS
  5
7
330
0
100
AcDbSymbolTable
 70
     0
  0
ENDTAB
  0
TABLE
  2
APPID
  5
9
330
0
100
AcDbSymbolTable
 70
     1
  0
APPID
  5
12
330
9
100
AcDbSymbolTableRecord
100
AcDbRegAppTableRecord
  2
ACAD
 70
     0
  0
ENDTAB
  0
TABLE
  2
DIMSTYLE
  5
A
330
0
100
AcDbSymbolTable
 70
     1
100
AcDbDimStyleTable
  0
DIMSTYLE
105
27
330
A
100
AcDbSymbolTableRecord
100
AcDbDimStyleTableRecord
  2
ISO-25
 70
     0
 41
2.5
 42
0.625
 43
3.75
 44
1.25
 73
     0
 74
     0
 77
     1
 78
     8
140
2.5
141
2.5
143
0.03937007874016
147
0.625
171
     3
172
     1
271
     2
272
     2
274
     3
278
    44
283
     0
284
     8
340
11
  0
ENDTAB
  0
TABLE
  2
BLOCK_RECORD
  5
1
330
0
100
AcDbSymbolTable
 70
     1
  0
BLOCK_RECORD
  5
1F
330
1
100
AcDbSymbolTableRecord
100
AcDbBlockTableRecord
  2
*Model_Space
340
22
  0
BLOCK_RECORD
  5
1B
330
1
100
AcDbSymbolTableRecord
100
AcDbBlockTableRecord
  2
*Paper_Space
340
1E
  0
BLOCK_RECORD
  5
23
330
1
100
AcDbSymbolTableRecord
100
AcDbBlockTableRecord
  2
*Paper_Space0
340
26
  0
ENDTAB
  0
ENDSEC
  0
SECTION
  2
BLOCKS
  0
BLOCK
  5
20
330
1F
100
AcDbEntity
  8
0
100
AcDbBlockBegin
  2
*Model_Space
 70
     0
 10
0.0
 20
0.0
 30
0.0
  3
*Model_Space
  1

  0
ENDBLK
  5
21
330
1F
100
AcDbEntity
  8
0
100
AcDbBlockEnd
  0
BLOCK
  5
1C
330
1B
100
AcDbEntity
 67
     1
  8
0
100
AcDbBlockBegin
  2
*Paper_Space
 70
     0
 10
0.0
 20
0.0
 30
0.0
  3
*Paper_Space
  1

  0
ENDBLK
  5
1D
330
1B
100
AcDbEntity
 67
     1
  8
0
100
AcDbBlockEnd
  0
BLOCK
  5
24
330
23
100
AcDbEntity
  8
0
100
AcDbBlockBegin
  2
*Paper_Space0
 70
     0
 10
0.0
 20
0.0
 30
0.0
  3
*Paper_Space0
  1

  0
ENDBLK
  5
25
330
23
100
AcDbEntity
  8
0
100
AcDbBlockEnd
  0
ENDSEC
  0
SECTION
  2
ENTITIES
  0
TEXT
  5
49
330
1F
100
AcDbEntity
  8
F-5
  6
Continuous
 62
     2
370
     9
100
AcDbText
 10
-309.3628001271063
 20
-528.4488751053836
 30
0.0
 40
12.192
  1
タイル用　充填深さ４０ｍｍ　ステンレス目地　側溝用　カラー舗装用みぞ蓋　
 41
0.7743055555555557
  7
ＭＳ ゴシック
100
AcDbText
  0
LINE
  5
4A
330
1F
100
AcDbEntity
  8
0-E
  6
Continuous
 62
     7
370
     9
100
AcDbLine
 10
566.8784203264589
 20
92.99526970419356
 30
0.0
 11
723.5257097269936
 21
92.99526970419356
 31
0.0
  0
TEXT
  5
4B
330
1F
100
AcDbEntity
  8
0-E
  6
Continuous
 62
     7
370
     9
100
AcDbText
 10
570.6440760098661
 20
78.43230441175228
 30
0.0
 40
9.144
  1
クロロプレンゴム
 41
1.145833333333333
  7
ＭＳ ゴシック
100
AcDbText
  0
TEXT
  5
4C
330
1F
100
AcDbEntity
  8
0-E
  6
Continuous
 62
     7
370
     9
100
AcDbText
 10
571.6255147239709
 20
100.5100236104436
 30
0.0
 40
9.144
  1
クッション：ｔ＝３．０
 41
1.151515151515152
  7
ＭＳ ゴシック
100
AcDbText
  0
LINE
  5
4D
330
1F
100
AcDbEntity
  8
0-E
  6
Continuous
 62
     7
370
     9
100
AcDbLine
 10
452.2354462321354
 20
59.55061686663612
 30
0.0
 11
463.2180132718312
 21
64.38618485650113
 31
0.0
  0
LINE
  5
4E
330
1F
100
AcDbEntity
  8
0-E
  6
Continuous
 62
     7
370
     9
100
AcDbLine
 10
452.2354462321354
 20
59.55061686663612
 30
0.0
 11
464.0953359069662
 21
61.3789002281228
 31
0.0
  0
LINE
  5
4F
330
1F
100
AcDbEntity
  8
0-E
  6
Continuous
 62
     7
370
     9
100
AcDbLine
 10
566.8784203264589
 20
92.99526970419356
 30
0.0
 11
452.2354462321354
 21
59.55061686663612
 31
0.0
  0
TEXT
  5
50
330
1F
100
AcDbEntity
  8
0-5
  6
Continuous
 62
     2
370
     9
100
AcDbText
 10
340.8582835089644
 20
-335.7436961191862
 30
0.0
 40
12.192
  1
仕様
 41
1.0625
  7
ＭＳ ゴシック
100
AcDbText
  0
TEXT
  5
51
330
1F
100
AcDbEntity
  8
0-5
  6
Continuous
 62
     2
370
     9
100
AcDbText
 10
340.8582637137787
 20
-359.7436763240004
 30
0.0
 40
12.192
  1
適用荷重：Ｔ－２
 41
1.109375
  7
ＭＳ ゴシック
100
AcDbText
  0
TEXT
  5
52
330
1F
100
AcDbEntity
  8
0-5
  6
Continuous
 62
     2
370
     9
100
AcDbText
 10
340.8583033041502
 20
-383.7437060167791
 30
0.0
 40
12.192
  1
破壊荷重：３５ｋＮ（３，６００ｋｇｆ）以上
 41
1.119047619047619
  7
ＭＳ ゴシック
100
AcDbText
  0
LINE
  5
53
330
1F
100
AcDbEntity
  8
0-E
  6
Continuous
 62
     7
370
     9
100
AcDbLine
 10
447.7356837743654
 20
189.2241414654538
 30
0.0
 11
458.7182508140612
 21
194.0597094553189
 31
0.0
  0
LINE
  5
54
330
1F
100
AcDbEntity
  8
0-E
  6
Continuous
 62
     7
370
     9
100
AcDbLine
 10
447.7356837743654
 20
189.2241414654538
 30
0.0
 11
459.5955734491966
 21
191.0524248269405
 31
0.0
  0
LINE
  5
55
330
1F
100
AcDbEntity
  8
0-E
  6
Continuous
 62
     7
370
     9
100
AcDbLine
 10
569.2379404255479
 20
224.6698465699725
 30
0.0
 11
706.8016149399058
 21
224.6698465699725
 31
0.0
  0
LINE
  5
56
330
1F
100
AcDbEntity
  8
0-E
  6
Continuous
 62
     7
370
     9
100
AcDbLine
 10
390.7357431599229
 20
27.05069604737969
 30
0.0
 11
362.653401785345
 21
-77.75397495663219
 31
0.0
  0
LINE
  5
57
330
1F
100
AcDbEntity
  8
0-E
  6
Continuous
 62
     7
370
     9
100
AcDbLine
 10
390.7357431599229
 20
27.05069604737969
 30
0.0
 11
389.1694490826425
 21
15.15334398340156
 31
0.0
  0
LINE
  5
58
330
1F
100
AcDbEntity
  8
0-E
  6
Continuous
 62
     7
370
     9
100
AcDbLine
 10
390.7357431599229
 20
27.05069604737969
 30
0.0
 11
386.1435569796021
 21
15.96415479421239
 31
0.0
  0
LINE
  5
59
330
1F
100
AcDbEntity
  8
0-E
  6
Continuous
 62
     7
370
     9
100
AcDbLine
 10
362.653401785345
 20
-77.75397495663219
 30
0.0
 11
151.9128638841627
 21
-77.75397495663219
 31
0.0
  0
LINE
  5
5A
330
1F
100
AcDbEntity
  8
0-0
  6
Continuous
 62
     3
370
     9
100
AcDbLine
 10
-99.26438880798248
 20
-241.9494491173164
 30
0.0
 11
-698.2643360208205
 21
-241.9494491173164
 31
0.0
  0
LINE
  5
5B
330
1F
100
AcDbEntity
  8
0-0
  6
Continuous
 62
     3
370
     9
100
AcDbLine
 10
-99.26438880798248
 20
-221.9494326213282
 30
0.0
 11
-698.2643360208205
 21
-221.9494326213282
 31
0.0
  0
LINE
  5
5C
330
1F
100
AcDbEntity
  8
0-0
  6
Continuous
 62
     3
370
     9
100
AcDbLine
 10
-698.2643360208205
 20
-241.9494491173164
 30
0.0
 11
-698.2643360208205
 21
-221.9494326213282
 31
0.0
  0
LINE
  5
5D
330
1F
100
AcDbEntity
  8
0-0
  6
Continuous
 62
     3
370
     9
100
AcDbLine
 10
-99.26438880798248
 20
-236.9494326213282
 30
0.0
 11
-698.2643360208205
 21
-236.9494326213282
 31
0.0
  0
LINE
  5
5E
330
1F
100
AcDbEntity
  8
0-0
  6
Continuous
 62
     3
370
     9
100
AcDbLine
 10
-422.477510376817
 20
-281.9493831333637
 30
0.0
 11
-375.051214451986
 21
-281.9493831333637
 31
0.0
  0
LINE
  5
5F
330
1F
100
AcDbEntity
  8
0-0
  6
Continuous
 62
     3
370
     9
100
AcDbLine
 10
-557.477510376817
 20
-281.9493831333637
 30
0.0
 11
-510.0512391959682
 21
-281.9493831333637
 31
0.0
  0
LINE
  5
60
330
1F
100
AcDbEntity
  8
0-0
  6
Continuous
 62
     3
370
     9
100
AcDbLine
 10
-690.8677163787174
 20
-281.9493831333637
 30
0.0
 11
-643.5512342471718
 21
-281.9493831333637
 31
0.0
  0
LINE
  5
61
330
1F
100
AcDbEntity
  8
0-0
  6
Continuous
 62
     3
370
     9
100
AcDbLine
 10
-692.3638860102631
 20
-280.556296931928
 30
0.0
 11
-695.1215038576025
 21
-241.9494491173164
 31
0.0
  0
LINE
  5
62
330
1F
100
AcDbEntity
  8
0-0
  6
Continuous
 62
     3
370
     9
100
AcDbLine
 10
-425.3730511812934
 20
-271.4932195723418
 30
0.0
 11
-423.9600708181177
 21
-280.6775424450191
 31
0.0
  0
LINE
  5
63
330
1F
100
AcDbEntity
  8
0-0
  6
Continuous
 62
     3
370
     9
100
AcDbLine
 10
-507.1557231354742
 20
-271.4932195723418
 30
0.0
 11
-508.5686540106852
 21
-280.6775424450191
 31
0.0
  0
LINE
  5
64
330
1F
100
AcDbEntity
  8
0-0
  6
Continuous
 62
     3
370
     9
100
AcDbLine
 10
-504.1906022528727
 20
-268.9494392197234
 30
0.0
 11
-428.3381720638947
 21
-268.9494392197234
 31
0.0
  0
LINE
  5
65
330
1F
100
AcDbEntity
  8
0-0
  6
Continuous
 62
     3
370
     9
100
AcDbLine
 10
-560.3730016933289
 20
-271.4932195723418
 30
0.0
 11
-558.9600708181177
 21
-280.6775424450191
 31
0.0
  0
LINE
  5
66
330
1F
100
AcDbEntity
  8
0-0
  6
Continuous
 62
     3
370
     9
100
AcDbLine
 10
-640.6557429306599
 20
-271.4932195723418
 30
0.0
 11
-642.0687232938357
 21
-280.6775424450191
 31
0.0
  0
LINE
  5
67
330
1F
100
AcDbEntity
  8
0-0
  6
Continuous
 62
     3
370
     9
100
AcDbLine
 10
-637.6906715360232
 20
-268.9494392197234
 30
0.0
 11
-563.3381225759302
 21
-268.9494392197234
 31
0.0
  0
LINE
  5
68
330
1F
100
AcDbEntity
  8
0-0
  6
Continuous
 62
     3
370
     9
100
AcDbLine
 10
-697.914703551437
 20
-241.9494491173164
 30
0.0
 11
-693.7720660408795
 21
-265.6384964410072
 31
0.0
  0
LINE
  5
69
330
1F
100
AcDbEntity
  8
0-0
  6
Continuous
 62
     3
370
     9
100
AcDbLine
 10
-405.7643360208203
 20
-256.7494682526626
 30
0.0
 11
-404.2893967260569
 21
-258.3494636337859
 31
0.0
  0
LINE
  5
6A
330
1F
100
AcDbEntity
  8
0-0
  6
Continuous
 62
     3
370
     9
100
AcDbLine
 10
-401.5268795702292
 20
-256.7494682526626
 30
0.0
 11
-401.5268795702292
 21
-261.9494656133047
 31
0.0
  0
LINE
  5
6B
330
1F
100
AcDbEntity
  8
0-0
  6
Continuous
 62
     3
370
     9
100
AcDbLine
 10
-404.2893967260569
 20
-258.3494636337859
 30
0.0
 11
-404.2893967260569
 21
-261.9494656133047
 31
0.0
  0
LINE
  5
6C
330
1F
100
AcDbEntity
  8
0-0
  6
Continuous
 62
     3
370
     9
100
AcDbLine
 10
-401.7644217999589
 20
-265.9494788100951
 30
0.0
 11
-400.7643690127967
 21
-266.9493831333637
 31
0.0
  0
LINE
  5
6D
330
1F
100
AcDbEntity
  8
0-0
  6
Continuous
 62
     3
370
     9
100
AcDbLine
 10
-400.7643690127967
 20
-266.9493831333637
 30
0.0
 11
-396.7643558160062
 21
-266.9493831333637
 31
0.0
  0
LINE
  5
6E
330
1F
100
AcDbEntity
  8
0-0
  6
Continuous
 62
     3
370
     9
100
AcDbLine
 10
-401.7644217999589
 20
-265.9494788100951
 30
0.0
 11
-395.764303028844
 21
-265.9494788100951
 31
0.0
  0
LINE
  5
6F
330
1F
100
AcDbEntity
  8
0-0
  6
Continuous
 62
     3
370
     9
100
AcDbLine
 10
-404.2893967260569
 20
-261.9494656133047
 30
0.0
 11
-393.2393281027461
 21
-261.9494656133047
 31
0.0
  0
LINE
  5
70
330
1F
100
AcDbEntity
  8
0-0
  6
Continuous
 62
     3
370
     9
100
AcDbLine
 10
-405.7643360208203
 20
-256.7494682526626
 30
0.0
 11
-391.7643888079825
 21
-256.7494682526626
 31
0.0
  0
LINE
  5
71
330
1F
100
AcDbEntity
  8
0-0
  6
Continuous
 62
     3
370
     9
100
AcDbLine
 10
-405.7643360208203
 20
-255.9494458181189
 30
0.0
 11
-405.7643360208203
 21
-256.7494682526626
 31
0.0
  0
LINE
  5
72
330
1F
100
AcDbEntity
  8
0-0
  6
Continuous
 62
     3
370
     9
100
AcDbLine
 10
-407.9401733571802
 20
-255.9494458181189
 30
0.0
 11
-389.5885514716227
 21
-255.9494458181189
 31
0.0
  0
LINE
  5
73
330
1F
100
AcDbEntity
  8
0-0
  6
Continuous
 62
     3
370
     9
100
AcDbLine
 10
-400.7643690127967
 20
-261.9494656133047
 30
0.0
 11
-400.7643690127967
 21
-266.9493831333637
 31
0.0
  0
LINE
  5
74
330
1F
100
AcDbEntity
  8
0-0
  6
Continuous
 62
     3
370
     9
100
AcDbLine
 10
-401.7644217999589
 20
-261.9494656133047
 30
0.0
 11
-401.7644217999589
 21
-265.9494788100951
 31
0.0
  0
LINE
  5
75
330
1F
100
AcDbEntity
  8
0-0
  6
Continuous
 62
     3
370
     9
100
AcDbLine
 10
-675.7643855087849
 20
-256.7494682526626
 30
0.0
 11
-674.2893967260569
 21
-258.3494636337859
 31
0.0
  0
LINE
  5
76
330
1F
100
AcDbEntity
  8
0-0
  6
Continuous
 62
     3
370
     9
100
AcDbLine
 10
-671.5268795702292
 20
-256.7494682526626
 30
0.0
 11
-671.5268795702292
 21
-261.9494656133047
 31
0.0
  0
LINE
  5
77
330
1F
100
AcDbEntity
  8
0-0
  6
Continuous
 62
     3
370
     9
100
AcDbLine
 10
-674.2893967260569
 20
-258.3494636337859
 30
0.0
 11
-674.2893967260569
 21
-261.9494656133047
 31
0.0
  0
LINE
  5
78
330
1F
100
AcDbEntity
  8
0-0
  6
Continuous
 62
     3
370
     9
100
AcDbLine
 10
-671.7644217999589
 20
-265.9494788100951
 30
0.0
 11
-670.7643690127968
 21
-266.9493831333637
 31
0.0
  0
LINE
  5
79
330
1F
100
AcDbEntity
  8
0-0
  6
Continuous
 62
     3
370
     9
100
AcDbLine
 10
-670.7643690127968
 20
-266.9493831333637
 30
0.0
 11
-666.7643558160062
 21
-266.9493831333637
 31
0.0
  0
LINE
  5
7A
330
1F
100
AcDbEntity
  8
0-0
  6
Continuous
 62
     3
370
     9
100
AcDbLine
 10
-671.7644217999589
 20
-265.9494788100951
 30
0.0
 11
-665.7643030288441
 21
-265.9494788100951
 31
0.0
  0
LINE
  5
7B
330
1F
100
AcDbEntity
  8
0-0
  6
Continuous
 62
     3
370
     9
100
AcDbLine
 10
-674.2893967260569
 20
-261.9494656133047
 30
0.0
 11
-663.2393281027461
 21
-261.9494656133047
 31
0.0
  0
LINE
  5
7C
330
1F
100
AcDbEntity
  8
0-0
  6
Continuous
 62
     3
370
     9
100
AcDbLine
 10
-675.7643855087849
 20
-256.7494682526626
 30
0.0
 11
-661.7643888079826
 21
-256.7494682526626
 31
0.0
  0
LINE
  5
7D
330
1F
100
AcDbEntity
  8
0-0
  6
Continuous
 62
     3
370
     9
100
AcDbLine
 10
-675.7643855087849
 20
-255.9494458181189
 30
0.0
 11
-675.7643855087849
 21
-256.7494682526626
 31
0.0
  0
LINE
  5
7E
330
1F
100
AcDbEntity
  8
0-0
  6
Continuous
 62
     3
370
     9
100
AcDbLine
 10
-677.9401733571802
 20
-255.9494458181189
 30
0.0
 11
-659.5885514716228
 21
-255.9494458181189
 31
0.0
  0
LINE
  5
7F
330
1F
100
AcDbEntity
  8
0-0
  6
Continuous
 62
     3
370
     9
100
AcDbLine
 10
-670.7643690127968
 20
-261.9494656133047
 30
0.0
 11
-670.7643690127968
 21
-266.9493831333637
 31
0.0
  0
LINE
  5
80
330
1F
100
AcDbEntity
  8
0-0
  6
Continuous
 62
     3
370
     9
100
AcDbLine
 10
-671.7644217999589
 20
-261.9494656133047
 30
0.0
 11
-671.7644217999589
 21
-265.9494788100951
 31
0.0
  0
LINE
  5
81
330
1F
100
AcDbEntity
  8
0-0
  6
Continuous
 62
     3
370
     9
100
AcDbLine
 10
-661.7643888079826
 20
-256.7494682526626
 30
0.0
 11
-663.2393281027461
 21
-258.3494636337859
 31
0.0
  0
LINE
  5
82
330
1F
100
AcDbEntity
  8
0-0
  6
Continuous
 62
     3
370
     9
100
AcDbLine
 10
-666.0018452585738
 20
-256.7494682526626
 30
0.0
 11
-666.0018452585738
 21
-261.9494656133047
 31
0.0
  0
LINE
  5
83
330
1F
100
AcDbEntity
  8
0-0
  6
Continuous
 62
     3
370
     9
100
AcDbLine
 10
-663.2393281027461
 20
-258.3494636337859
 30
0.0
 11
-663.2393281027461
 21
-261.9494656133047
 31
0.0
  0
LINE
  5
84
330
1F
100
AcDbEntity
  8
0-0
  6
Continuous
 62
     3
370
     9
100
AcDbLine
 10
-665.7643030288441
 20
-265.9494788100951
 30
0.0
 11
-666.7643558160062
 21
-266.9493831333637
 31
0.0
  0
LINE
  5
85
330
1F
100
AcDbEntity
  8
0-0
  6
Continuous
 62
     3
370
     9
100
AcDbLine
 10
-661.7643888079826
 20
-255.9494458181189
 30
0.0
 11
-661.7643888079826
 21
-256.7494682526626
 31
0.0
  0
LINE
  5
86
330
1F
100
AcDbEntity
  8
0-0
  6
Continuous
 62
     3
370
     9
100
AcDbLine
 10
-666.7643558160062
 20
-261.9494656133047
 30
0.0
 11
-666.7643558160062
 21
-266.9493831333637
 31
0.0
  0
LINE
  5
87
330
1F
100
AcDbEntity
  8
0-0
  6
Continuous
 62
     3
370
     9
100
AcDbLine
 10
-665.7643030288441
 20
-261.9494656133047
 30
0.0
 11
-665.7643030288441
 21
-265.9494788100951
 31
0.0
  0
LINE
  5
88
330
1F
100
AcDbEntity
  8
0-0
  6
Continuous
 62
     3
370
     9
100
AcDbLine
 10
-681.2643789103897
 20
-236.9494326213282
 30
0.0
 11
-681.2643789103897
 21
-241.9494491173164
 31
0.0
  0
LINE
  5
89
330
1F
100
AcDbEntity
  8
0-0
  6
Continuous
 62
     3
370
     9
100
AcDbLine
 10
-656.2643954063778
 20
-236.9494326213282
 30
0.0
 11
-656.2643954063778
 21
-241.9494491173164
 31
0.0
  0
LINE
  5
8A
330
1F
100
AcDbEntity
  8
0-0
  6
Continuous
 62
     3
370
     9
100
AcDbLine
 10
-546.2644283983542
 20
-236.9494326213282
 30
0.0
 11
-546.2644283983542
 21
-241.9494491173164
 31
0.0
  0
LINE
  5
8B
330
1F
100
AcDbEntity
  8
0-0
  6
Continuous
 62
     3
370
     9
100
AcDbLine
 10
-521.2643954063777
 20
-236.9494326213282
 30
0.0
 11
-521.2643954063777
 21
-241.9494491173164
 31
0.0
  0
LINE
  5
8C
330
1F
100
AcDbEntity
  8
0-0
  6
Continuous
 62
     3
370
     9
100
AcDbLine
 10
-411.2644283983542
 20
-236.9494326213282
 30
0.0
 11
-411.2644283983542
 21
-241.9494491173164
 31
0.0
  0
LINE
  5
8D
330
1F
100
AcDbEntity
  8
0-0
  6
Continuous
 62
     3
370
     9
100
AcDbLine
 10
-409.4286228662596
 20
-254.6354908719618
 30
0.0
 11
-411.0143657135991
 21
-241.9494491173164
 31
0.0
  0
LINE
  5
8E
330
1F
100
AcDbEntity
  8
0-0
  6
Continuous
 62
     3
370
     9
100
AcDbLine
 10
-679.4286228662596
 20
-254.6354908719618
 30
0.0
 11
-681.0143657135991
 21
-241.9494491173164
 31
0.0
  0
LINE
  5
8F
330
1F
100
AcDbEntity
  8
0-0
  6
Continuous
 62
     3
370
     9
100
AcDbLine
 10
-658.1001019625434
 20
-254.6354908719618
 30
0.0
 11
-656.5144086031684
 21
-241.9494491173164
 31
0.0
  0
LINE
  5
90
330
1F
100
AcDbEntity
  8
0-0
  6
Continuous
 62
     3
370
     9
100
AcDbLine
 10
-536.710529406589
 20
-255.9494458181189
 30
0.0
 11
-530.818195422214
 21
-255.9494458181189
 31
0.0
  0
LINE
  5
91
330
1F
100
AcDbEntity
  8
0-0
  6
Continuous
 62
     3
370
     9
100
AcDbLine
 10
-538.1959106618677
 20
-254.6583543115732
 30
0.0
 11
-539.9831190127967
 21
-241.9494491173164
 31
0.0
  0
LINE
  5
92
330
1F
100
AcDbEntity
  8
0-0
  6
Continuous
 62
     3
370
     9
100
AcDbLine
 10
-529.3328636548998
 20
-254.6583543115732
 30
0.0
 11
-527.5456553039706
 21
-241.9494491173164
 31
0.0
  0
LINE
  5
93
330
1F
100
AcDbEntity
  8
0-0
  6
JWW_CENTER1
 62
     3
370
     9
100
AcDbLine
 10
-668.7643624144015
 20
-251.9494821092928
 30
0.0
 11
-668.7643624144015
 21
-270.9493963301543
 31
0.0
  0
LINE
  5
94
330
1F
100
AcDbEntity
  8
0-0
  6
JWW_CENTER1
 62
     3
370
     9
100
AcDbLine
 10
-398.7643624144015
 20
-251.9494821092928
 30
0.0
 11
-398.7643624144015
 21
-270.9493963301543
 31
0.0
  0
LINE
  5
95
330
1F
100
AcDbEntity
  8
0-0
  6
Continuous
 62
     3
370
     9
100
AcDbLine
 10
-99.26438880798248
 20
-241.9494491173164
 30
0.0
 11
-99.26438880798248
 21
-221.9494326213282
 31
0.0
  0
LINE
  5
96
330
1F
100
AcDbEntity
  8
0-0
  6
Continuous
 62
     3
370
     9
100
AcDbLine
 10
-240.0512144519859
 20
-281.9493831333637
 30
0.0
 11
-287.477510376817
 21
-281.9493831333637
 31
0.0
  0
LINE
  5
97
330
1F
100
AcDbEntity
  8
0-0
  6
Continuous
 62
     3
370
     9
100
AcDbLine
 10
-106.660958962121
 20
-281.9493831333637
 30
0.0
 11
-153.9774905816311
 21
-281.9493831333637
 31
0.0
  0
LINE
  5
98
330
1F
100
AcDbEntity
  8
0-0
  6
Continuous
 62
     3
370
     9
100
AcDbLine
 10
-105.16483881854
 20
-280.556296931928
 30
0.0
 11
-102.4071714832359
 21
-241.9494491173164
 31
0.0
  0
LINE
  5
99
330
1F
100
AcDbEntity
  8
0-0
  6
Continuous
 62
     3
370
     9
100
AcDbLine
 10
-372.1556736475096
 20
-271.4932195723418
 30
0.0
 11
-373.5686540106852
 21
-280.6775424450191
 31
0.0
  0
LINE
  5
9A
330
1F
100
AcDbEntity
  8
0-0
  6
Continuous
 62
     3
370
     9
100
AcDbLine
 10
-290.3730016933289
 20
-271.4932195723418
 30
0.0
 11
-288.9600708181177
 21
-280.6775424450191
 31
0.0
  0
LINE
  5
9B
330
1F
100
AcDbEntity
  8
0-0
  6
Continuous
 62
     3
370
     9
100
AcDbLine
 10
-293.3381225759302
 20
-268.9494392197234
 30
0.0
 11
-369.1905527649083
 21
-268.9494392197234
 31
0.0
  0
LINE
  5
9C
330
1F
100
AcDbEntity
  8
0-0
  6
Continuous
 62
     3
370
     9
100
AcDbLine
 10
-237.1556736475096
 20
-271.4932195723418
 30
0.0
 11
-238.5686540106852
 21
-280.6775424450191
 31
0.0
  0
LINE
  5
9D
330
1F
100
AcDbEntity
  8
0-0
  6
Continuous
 62
     3
370
     9
100
AcDbLine
 10
-156.8729324101784
 20
-271.4932195723418
 30
0.0
 11
-155.4599025590382
 21
-280.6775424450191
 31
0.0
  0
LINE
  5
9E
330
1F
100
AcDbEntity
  8
0-0
  6
Continuous
 62
     3
370
     9
100
AcDbLine
 10
-159.8380532927798
 20
-268.9494392197234
 30
0.0
 11
-234.1905527649082
 21
-268.9494392197234
 31
0.0
  0
LINE
  5
9F
330
1F
100
AcDbEntity
  8
0-0
  6
Continuous
 62
     3
370
     9
100
AcDbLine
 10
-99.61397178940145
 20
-241.9494491173164
 30
0.0
 11
-103.7566092999588
 21
-265.6384964410072
 31
0.0
  0
LINE
  5
A0
330
1F
100
AcDbEntity
  8
0-0
  6
Continuous
 62
     3
370
     9
100
AcDbLine
 10
-391.7643888079825
 20
-256.7494682526626
 30
0.0
 11
-393.2393281027461
 21
-258.3494636337859
 31
0.0
  0
LINE
  5
A1
330
1F
100
AcDbEntity
  8
0-0
  6
Continuous
 62
     3
370
     9
100
AcDbLine
 10
-396.0018452585738
 20
-256.7494682526626
 30
0.0
 11
-396.0018452585738
 21
-261.9494656133047
 31
0.0
  0
LINE
  5
A2
330
1F
100
AcDbEntity
  8
0-0
  6
Continuous
 62
     3
370
     9
100
AcDbLine
 10
-393.2393281027461
 20
-258.3494636337859
 30
0.0
 11
-393.2393281027461
 21
-261.9494656133047
 31
0.0
  0
LINE
  5
A3
330
1F
100
AcDbEntity
  8
0-0
  6
Continuous
 62
     3
370
     9
100
AcDbLine
 10
-395.764303028844
 20
-265.9494788100951
 30
0.0
 11
-396.7643558160062
 21
-266.9493831333637
 31
0.0
  0
LINE
  5
A4
330
1F
100
AcDbEntity
  8
0-0
  6
Continuous
 62
     3
370
     9
100
AcDbLine
 10
-391.7643888079825
 20
-255.9494458181189
 30
0.0
 11
-391.7643888079825
 21
-256.7494682526626
 31
0.0
  0
LINE
  5
A5
330
1F
100
AcDbEntity
  8
0-0
  6
Continuous
 62
     3
370
     9
100
AcDbLine
 10
-396.7643558160062
 20
-261.9494656133047
 30
0.0
 11
-396.7643558160062
 21
-266.9493831333637
 31
0.0
  0
LINE
  5
A6
330
1F
100
AcDbEntity
  8
0-0
  6
Continuous
 62
     3
370
     9
100
AcDbLine
 10
-395.764303028844
 20
-261.9494656133047
 30
0.0
 11
-395.764303028844
 21
-265.9494788100951
 31
0.0
  0
LINE
  5
A7
330
1F
100
AcDbEntity
  8
0-0
  6
Continuous
 62
     3
370
     9
100
AcDbLine
 10
-121.7642898320534
 20
-256.7494682526626
 30
0.0
 11
-123.239328102746
 21
-258.3494636337859
 31
0.0
  0
LINE
  5
A8
330
1F
100
AcDbEntity
  8
0-0
  6
Continuous
 62
     3
370
     9
100
AcDbLine
 10
-126.0018452585737
 20
-256.7494682526626
 30
0.0
 11
-126.0018452585737
 21
-261.9494656133047
 31
0.0
  0
LINE
  5
A9
330
1F
100
AcDbEntity
  8
0-0
  6
Continuous
 62
     3
370
     9
100
AcDbLine
 10
-123.239328102746
 20
-258.3494636337859
 30
0.0
 11
-123.239328102746
 21
-261.9494656133047
 31
0.0
  0
LINE
  5
AA
330
1F
100
AcDbEntity
  8
0-0
  6
Continuous
 62
     3
370
     9
100
AcDbLine
 10
-125.7643030288441
 20
-265.9494788100951
 30
0.0
 11
-126.7643558160061
 21
-266.9493831333637
 31
0.0
  0
LINE
  5
AB
330
1F
100
AcDbEntity
  8
0-0
  6
Continuous
 62
     3
370
     9
100
AcDbLine
 10
-126.7643558160061
 20
-266.9493831333637
 30
0.0
 11
-130.7643690127967
 21
-266.9493831333637
 31
0.0
  0
LINE
  5
AC
330
1F
100
AcDbEntity
  8
0-0
  6
Continuous
 62
     3
370
     9
100
AcDbLine
 10
-125.7643030288441
 20
-265.9494788100951
 30
0.0
 11
-131.7644217999588
 21
-265.9494788100951
 31
0.0
  0
LINE
  5
AD
330
1F
100
AcDbEntity
  8
0-0
  6
Continuous
 62
     3
370
     9
100
AcDbLine
 10
-123.239328102746
 20
-261.9494656133047
 30
0.0
 11
-134.2893967260569
 21
-261.9494656133047
 31
0.0
  0
LINE
  5
AE
330
1F
100
AcDbEntity
  8
0-0
  6
Continuous
 62
     3
370
     9
100
AcDbLine
 10
-121.7642898320534
 20
-256.7494682526626
 30
0.0
 11
-135.7642865328558
 21
-256.7494682526626
 31
0.0
  0
LINE
  5
AF
330
1F
100
AcDbEntity
  8
0-0
  6
Continuous
 62
     3
370
     9
100
AcDbLine
 10
-121.7642898320534
 20
-255.9494458181189
 30
0.0
 11
-121.7642898320534
 21
-256.7494682526626
 31
0.0
  0
LINE
  5
B0
330
1F
100
AcDbEntity
  8
0-0
  6
Continuous
 62
     3
370
     9
100
AcDbLine
 10
-119.5885019836582
 20
-255.9494458181189
 30
0.0
 11
-137.9401238692156
 21
-255.9494458181189
 31
0.0
  0
LINE
  5
B1
330
1F
100
AcDbEntity
  8
0-0
  6
Continuous
 62
     3
370
     9
100
AcDbLine
 10
-126.7643558160061
 20
-261.9494656133047
 30
0.0
 11
-126.7643558160061
 21
-266.9493831333637
 31
0.0
  0
LINE
  5
B2
330
1F
100
AcDbEntity
  8
0-0
  6
Continuous
 62
     3
370
     9
100
AcDbLine
 10
-125.7643030288441
 20
-261.9494656133047
 30
0.0
 11
-125.7643030288441
 21
-265.9494788100951
 31
0.0
  0
LINE
  5
B3
330
1F
100
AcDbEntity
  8
0-0
  6
Continuous
 62
     3
370
     9
100
AcDbLine
 10
-135.7642865328558
 20
-256.7494682526626
 30
0.0
 11
-134.2893967260569
 21
-258.3494636337859
 31
0.0
  0
LINE
  5
B4
330
1F
100
AcDbEntity
  8
0-0
  6
Continuous
 62
     3
370
     9
100
AcDbLine
 10
-131.5268795702291
 20
-256.7494682526626
 30
0.0
 11
-131.5268795702291
 21
-261.9494656133047
 31
0.0
  0
LINE
  5
B5
330
1F
100
AcDbEntity
  8
0-0
  6
Continuous
 62
     3
370
     9
100
AcDbLine
 10
-134.2893967260569
 20
-258.3494636337859
 30
0.0
 11
-134.2893967260569
 21
-261.9494656133047
 31
0.0
  0
LINE
  5
B6
330
1F
100
AcDbEntity
  8
0-0
  6
Continuous
 62
     3
370
     9
100
AcDbLine
 10
-131.7644217999588
 20
-265.9494788100951
 30
0.0
 11
-130.7643690127967
 21
-266.9493831333637
 31
0.0
  0
LINE
  5
B7
330
1F
100
AcDbEntity
  8
0-0
  6
Continuous
 62
     3
370
     9
100
AcDbLine
 10
-135.7642865328558
 20
-255.9494458181189
 30
0.0
 11
-135.7642865328558
 21
-256.7494682526626
 31
0.0
  0
LINE
  5
B8
330
1F
100
AcDbEntity
  8
0-0
  6
Continuous
 62
     3
370
     9
100
AcDbLine
 10
-130.7643690127967
 20
-261.9494656133047
 30
0.0
 11
-130.7643690127967
 21
-266.9493831333637
 31
0.0
  0
LINE
  5
B9
330
1F
100
AcDbEntity
  8
0-0
  6
Continuous
 62
     3
370
     9
100
AcDbLine
 10
-131.7644217999588
 20
-261.9494656133047
 30
0.0
 11
-131.7644217999588
 21
-265.9494788100951
 31
0.0
  0
LINE
  5
BA
330
1F
100
AcDbEntity
  8
0-0
  6
Continuous
 62
     3
370
     9
100
AcDbLine
 10
-116.2642964304487
 20
-236.9494326213282
 30
0.0
 11
-116.2642964304487
 21
-241.9494491173164
 31
0.0
  0
LINE
  5
BB
330
1F
100
AcDbEntity
  8
0-0
  6
Continuous
 62
     3
370
     9
100
AcDbLine
 10
-141.2643294224251
 20
-236.9494326213282
 30
0.0
 11
-141.2643294224251
 21
-241.9494491173164
 31
0.0
  0
LINE
  5
BC
330
1F
100
AcDbEntity
  8
0-0
  6
Continuous
 62
     3
370
     9
100
AcDbLine
 10
-251.2642964304487
 20
-236.9494326213282
 30
0.0
 11
-251.2642964304487
 21
-241.9494491173164
 31
0.0
  0
LINE
  5
BD
330
1F
100
AcDbEntity
  8
0-0
  6
Continuous
 62
     3
370
     9
100
AcDbLine
 10
-276.2643294224251
 20
-236.9494326213282
 30
0.0
 11
-276.2643294224251
 21
-241.9494491173164
 31
0.0
  0
LINE
  5
BE
330
1F
100
AcDbEntity
  8
0-0
  6
Continuous
 62
     3
370
     9
100
AcDbLine
 10
-386.2642964304488
 20
-236.9494326213282
 30
0.0
 11
-386.2642964304488
 21
-241.9494491173164
 31
0.0
  0
LINE
  5
BF
330
1F
100
AcDbEntity
  8
0-0
  6
Continuous
 62
     3
370
     9
100
AcDbLine
 10
-388.1001019625434
 20
-254.6354908719618
 30
0.0
 11
-386.5143591152039
 21
-241.9494491173164
 31
0.0
  0
LINE
  5
C0
330
1F
100
AcDbEntity
  8
0-0
  6
Continuous
 62
     3
370
     9
100
AcDbLine
 10
-118.1001019625433
 20
-254.6354908719618
 30
0.0
 11
-116.5143096272393
 21
-241.9494491173164
 31
0.0
  0
LINE
  5
C1
330
1F
100
AcDbEntity
  8
0-0
  6
Continuous
 62
     3
370
     9
100
AcDbLine
 10
-139.4286228662596
 20
-254.6354908719618
 30
0.0
 11
-141.0143162256346
 21
-241.9494491173164
 31
0.0
  0
LINE
  5
C2
330
1F
100
AcDbEntity
  8
0-0
  6
Continuous
 62
     3
370
     9
100
AcDbLine
 10
-260.8181459342495
 20
-255.9494458181189
 30
0.0
 11
-266.7104799186245
 21
-255.9494458181189
 31
0.0
  0
LINE
  5
C3
330
1F
100
AcDbEntity
  8
0-0
  6
Continuous
 62
     3
370
     9
100
AcDbLine
 10
-259.3328141669352
 20
-254.6583543115732
 30
0.0
 11
-257.5456058160061
 21
-241.9494491173164
 31
0.0
  0
LINE
  5
C4
330
1F
100
AcDbEntity
  8
0-0
  6
Continuous
 62
     3
370
     9
100
AcDbLine
 10
-268.1958116859387
 20
-254.6583543115732
 30
0.0
 11
-269.9830200368677
 21
-241.9494491173164
 31
0.0
  0
LINE
  5
C5
330
1F
100
AcDbEntity
  8
0-0
  6
JWW_CENTER1
 62
     3
370
     9
100
AcDbLine
 10
-128.7643624144014
 20
-251.9494821092928
 30
0.0
 11
-128.7643624144014
 21
-270.9493963301543
 31
0.0
  0
LINE
  5
C6
330
1F
100
AcDbEntity
  8
0-E
  6
Continuous
 62
     7
370
     9
100
AcDbLine
 10
569.2379404255479
 20
224.6698465699725
 30
0.0
 11
447.7356837743654
 21
189.2241414654538
 31
0.0
  0
ARC
  5
C7
330
1F
100
AcDbEntity
  8
0-0
  6
Continuous
 62
     3
370
     9
100
AcDbCircle
 10
-422.477510376817
 20
-280.4495019044787
 30
0.0
 40
1.500000019331236
100
AcDbArc
 50
188.7459106445312
 51
270.0
  0
ARC
  5
C8
330
1F
100
AcDbEntity
  8
0-0
  6
Continuous
 62
     3
370
     9
100
AcDbCircle
 10
-510.0512391959682
 20
-280.4495019044787
 30
0.0
 40
1.500000019331236
100
AcDbArc
 50
270.0
 51
351.2540893554688
  0
ARC
  5
C9
330
1F
100
AcDbEntity
  8
0-0
  6
Continuous
 62
     3
370
     9
100
AcDbCircle
 10
-557.477510376817
 20
-280.4495019044787
 30
0.0
 40
1.500000019331236
100
AcDbArc
 50
188.7460174560547
 51
270.0
  0
ARC
  5
CA
330
1F
100
AcDbEntity
  8
0-0
  6
Continuous
 62
     3
370
     9
100
AcDbCircle
 10
-643.5512342471718
 20
-280.4495019044787
 30
0.0
 40
1.500000019331236
100
AcDbArc
 50
270.0
 51
351.2539978027344
  0
ARC
  5
CB
330
1F
100
AcDbEntity
  8
0-0
  6
Continuous
 62
     3
370
     9
100
AcDbCircle
 10
-690.8677163787174
 20
-280.4495019044787
 30
0.0
 40
1.500000019331236
100
AcDbArc
 50
184.0851135253906
 51
270.0
  0
ARC
  5
CC
330
1F
100
AcDbEntity
  8
0-0
  6
Continuous
 62
     3
370
     9
100
AcDbCircle
 10
-428.3381720638947
 20
-271.9494491173164
 30
0.0
 40
3.000000038662472
100
AcDbArc
 50
8.746337890625
 51
90.0
  0
ARC
  5
CD
330
1F
100
AcDbEntity
  8
0-0
  6
Continuous
 62
     3
370
     9
100
AcDbCircle
 10
-504.1906022528727
 20
-271.9494491173164
 30
0.0
 40
3.000000038662472
100
AcDbArc
 50
90.0
 51
171.253662109375
  0
ARC
  5
CE
330
1F
100
AcDbEntity
  8
0-0
  6
Continuous
 62
     3
370
     9
100
AcDbCircle
 10
-563.3381225759302
 20
-271.9494491173164
 30
0.0
 40
3.000000038662472
100
AcDbArc
 50
8.746292114257812
 51
90.0
  0
ARC
  5
CF
330
1F
100
AcDbEntity
  8
0-0
  6
Continuous
 62
     3
370
     9
100
AcDbCircle
 10
-637.6906715360232
 20
-271.9494491173164
 30
0.0
 40
3.000000038662472
100
AcDbArc
 50
90.0
 51
171.2537078857422
  0
ARC
  5
D0
330
1F
100
AcDbEntity
  8
0-0
  6
Continuous
 62
     3
370
     9
100
AcDbCircle
 10
-689.8317848172732
 20
-264.9494755108976
 30
0.0
 40
4.000000051549963
100
AcDbArc
 50
189.9193572998047
 51
208.6634521484375
  0
ARC
  5
D1
330
1F
100
AcDbEntity
  8
0-0
  6
Continuous
 62
     3
370
     9
100
AcDbCircle
 10
-407.9401733571802
 20
-254.4494161253401
 30
0.0
 40
1.500000019331236
100
AcDbArc
 50
187.1250152587891
 51
270.0
  0
ARC
  5
D2
330
1F
100
AcDbEntity
  8
0-0
  6
Continuous
 62
     3
370
     9
100
AcDbCircle
 10
-677.9401733571802
 20
-254.4494161253401
 30
0.0
 40
1.500000019331236
100
AcDbArc
 50
187.1250152587891
 51
270.0
  0
ARC
  5
D3
330
1F
100
AcDbEntity
  8
0-0
  6
Continuous
 62
     3
370
     9
100
AcDbCircle
 10
-659.5885514716228
 20
-254.4494161253401
 30
0.0
 40
1.500000019331236
100
AcDbArc
 50
270.0
 51
352.8749847412109
  0
ARC
  5
D4
330
1F
100
AcDbEntity
  8
0-0
  6
Continuous
 62
     3
370
     9
100
AcDbCircle
 10
-536.710529406589
 20
-254.4494161253401
 30
0.0
 40
1.500000019331236
100
AcDbArc
 50
188.004867553711
 51
270.0
  0
ARC
  5
D5
330
1F
100
AcDbEntity
  8
0-0
  6
Continuous
 62
     3
370
     9
100
AcDbCircle
 10
-530.818195422214
 20
-254.4494161253401
 30
0.0
 40
1.500000019331236
100
AcDbArc
 50
270.0
 51
351.9951324462891
  0
ARC
  5
D6
330
1F
100
AcDbEntity
  8
0-0
  6
Continuous
 62
     3
370
     9
100
AcDbCircle
 10
-375.051214451986
 20
-280.4495019044787
 30
0.0
 40
1.500000019331236
100
AcDbArc
 50
270.0
 51
351.2540893554688
  0
ARC
  5
D7
330
1F
100
AcDbEntity
  8
0-0
  6
Continuous
 62
     3
370
     9
100
AcDbCircle
 10
-287.477510376817
 20
-280.4495019044787
 30
0.0
 40
1.500000019331236
100
AcDbArc
 50
188.7459106445312
 51
270.0
  0
ARC
  5
D8
330
1F
100
AcDbEntity
  8
0-0
  6
Continuous
 62
     3
370
     9
100
AcDbCircle
 10
-240.0512144519859
 20
-280.4495019044787
 30
0.0
 40
1.500000019331236
100
AcDbArc
 50
270.0
 51
351.2539825439453
  0
ARC
  5
D9
330
1F
100
AcDbEntity
  8
0-0
  6
Continuous
 62
     3
370
     9
100
AcDbCircle
 10
-153.9774905816311
 20
-280.4495019044787
 30
0.0
 40
1.500000019331236
100
AcDbArc
 50
188.7460021972657
 51
270.0
  0
ARC
  5
DA
330
1F
100
AcDbEntity
  8
0-0
  6
Continuous
 62
     3
370
     9
100
AcDbCircle
 10
-106.660958962121
 20
-280.4495019044787
 30
0.0
 40
1.500000019331236
100
AcDbArc
 50
270.0
 51
355.9148864746094
  0
ARC
  5
DB
330
1F
100
AcDbEntity
  8
0-0
  6
Continuous
 62
     3
370
     9
100
AcDbCircle
 10
-369.1905527649083
 20
-271.9494491173164
 30
0.0
 40
3.000000038662472
100
AcDbArc
 50
90.0
 51
171.253662109375
  0
ARC
  5
DC
330
1F
100
AcDbEntity
  8
0-0
  6
Continuous
 62
     3
370
     9
100
AcDbCircle
 10
-293.3381225759302
 20
-271.9494491173164
 30
0.0
 40
3.000000038662472
100
AcDbArc
 50
8.746337890625
 51
90.0
  0
ARC
  5
DD
330
1F
100
AcDbEntity
  8
0-0
  6
Continuous
 62
     3
370
     9
100
AcDbCircle
 10
-234.1905527649082
 20
-271.9494491173164
 30
0.0
 40
3.000000038662472
100
AcDbArc
 50
90.0
 51
171.2537078857422
  0
ARC
  5
DE
330
1F
100
AcDbEntity
  8
0-0
  6
Continuous
 62
     3
370
     9
100
AcDbCircle
 10
-159.8380532927798
 20
-271.9494491173164
 30
0.0
 40
3.000000038662472
100
AcDbArc
 50
8.746292114257812
 51
90.0
  0
ARC
  5
DF
330
1F
100
AcDbEntity
  8
0-0
  6
Continuous
 62
     3
370
     9
100
AcDbCircle
 10
-107.6969400115298
 20
-264.9494755108976
 30
0.0
 40
4.000000051549963
100
AcDbArc
 50
331.3365478515625
 51
350.0806427001953
  0
ARC
  5
E0
330
1F
100
AcDbEntity
  8
0-0
  6
Continuous
 62
     3
370
     9
100
AcDbCircle
 10
-389.5885514716227
 20
-254.4494161253401
 30
0.0
 40
1.500000019331236
100
AcDbArc
 50
270.0
 51
352.8749847412109
  0
ARC
  5
E1
330
1F
100
AcDbEntity
  8
0-0
  6
Continuous
 62
     3
370
     9
100
AcDbCircle
 10
-119.5885019836582
 20
-254.4494161253401
 30
0.0
 40
1.500000019331236
100
AcDbArc
 50
270.0
 51
352.8749847412109
  0
ARC
  5
E2
330
1F
100
AcDbEntity
  8
0-0
  6
Continuous
 62
     3
370
     9
100
AcDbCircle
 10
-137.9401238692156
 20
-254.4494161253401
 30
0.0
 40
1.500000019331236
100
AcDbArc
 50
187.1250152587891
 51
270.0
  0
ARC
  5
E3
330
1F
100
AcDbEntity
  8
0-0
  6
Continuous
 62
     3
370
     9
100
AcDbCircle
 10
-260.8181459342495
 20
-254.4494161253401
 30
0.0
 40
1.500000019331236
100
AcDbArc
 50
270.0
 51
351.9951324462891
  0
ARC
  5
E4
330
1F
100
AcDbEntity
  8
0-0
  6
Continuous
 62
     3
370
     9
100
AcDbCircle
 10
-266.7104799186245
 20
-254.4494161253401
 30
0.0
 40
1.500000019331236
100
AcDbArc
 50
188.004867553711
 51
270.0
  0
TEXT
  5
E5
330
1F
100
AcDbEntity
  8
0-E
  6
Continuous
 62
     7
370
     9
100
AcDbText
 10
576.6306637152437
 20
210.1068812775316
 30
0.0
 40
9.144
  1
樹脂系塗装
 41
1.133333333333333
  7
ＭＳ ゴシック
100
AcDbText
  0
TEXT
  5
E6
330
1F
100
AcDbEntity
  8
0-E
  6
Continuous
 62
     7
370
     9
100
AcDbText
 10
577.6121024293485
 20
232.1846004762225
 30
0.0
 40
9.144
  1
蓋本体：ＦＣ２００
 41
1.148148148148148
  7
ＭＳ ゴシック
100
AcDbText
  0
TEXT
  5
E7
330
1F
100
AcDbEntity
  8
0-E
  6
Continuous
 62
     7
370
     9
100
AcDbText
 10
153.465594959965
 20
-73.6200903229751
 30
0.0
 40
9.144
  1
排水口グレーチング（Ｐ＝１５）
 41
1.155555555555555
  7
ＭＳ ゴシック
100
AcDbText
  0
TEXT
  5
E8
330
1F
100
AcDbEntity
  8
0-E
  6
Continuous
 62
     7
370
     9
100
AcDbText
 10
151.9128506873723
 20
-90.70031691186864
 30
0.0
 40
9.144
  1
ＳＵＳ３０４
 41
1.138888888888889
  7
ＭＳ ゴシック
100
AcDbText
  0
LINE
  5
E9
330
1F
100
AcDbEntity
  8
0-F
  6
Continuous
 62
     7
370
     9
100
AcDbLine
 10
-694.2644217999589
 20
-61.94944911731636
 30
0.0
 11
-103.264402004773
 21
-61.94944911731636
 31
0.0
  0
LINE
  5
EA
330
1F
100
AcDbEntity
  8
0-F
  6
Continuous
 62
     7
370
     9
100
AcDbLine
 10
-694.2644217999589
 20
-61.94944911731636
 30
0.0
 11
-682.3671192239455
 21
-60.38315504003594
 31
0.0
  0
LINE
  5
EB
330
1F
100
AcDbEntity
  8
0-F
  6
Continuous
 62
     7
370
     9
100
AcDbLine
 10
-694.2644217999589
 20
-61.94944911731636
 30
0.0
 11
-682.3671192239455
 21
-63.51574319459678
 31
0.0
  0
LINE
  5
EC
330
1F
100
AcDbEntity
  8
0-F
  6
Continuous
 62
     7
370
     9
100
AcDbLine
 10
-103.264402004773
 20
-61.94944911731636
 30
0.0
 11
-115.1617045807865
 21
-60.38315504003594
 31
0.0
  0
LINE
  5
ED
330
1F
100
AcDbEntity
  8
0-F
  6
Continuous
 62
     7
370
     9
100
AcDbLine
 10
-103.264402004773
 20
-61.94944911731636
 30
0.0
 11
-115.1617045807865
 21
-63.51574319459678
 31
0.0
  0
LINE
  5
EE
330
1F
100
AcDbEntity
  8
0-F
  6
Continuous
 62
     7
370
     9
100
AcDbLine
 10
-698.2644349967495
 20
-101.9494326213282
 30
0.0
 11
-686.367132420736
 21
-100.3831385440478
 31
0.0
  0
LINE
  5
EF
330
1F
100
AcDbEntity
  8
0-F
  6
Continuous
 62
     7
370
     9
100
AcDbLine
 10
-698.2644349967495
 20
-101.9494326213282
 30
0.0
 11
-686.367132420736
 21
-103.5157266986087
 31
0.0
  0
LINE
  5
F0
330
1F
100
AcDbEntity
  8
0-F
  6
Continuous
 62
     7
370
     9
100
AcDbLine
 10
-99.26438880798248
 20
-101.9494326213282
 30
0.0
 11
-111.161691383996
 21
-100.3831385440478
 31
0.0
  0
LINE
  5
F1
330
1F
100
AcDbEntity
  8
0-F
  6
Continuous
 62
     7
370
     9
100
AcDbLine
 10
-99.26438880798248
 20
-101.9494326213282
 30
0.0
 11
-111.161691383996
 21
-103.5157266986087
 31
0.0
  0
LINE
  5
F2
330
1F
100
AcDbEntity
  8
0-F
  6
Continuous
 62
     7
370
     9
100
AcDbLine
 10
-98.26443499674936
 20
-101.9494326213282
 30
0.0
 11
-86.36713242073593
 21
-100.3831385440478
 31
0.0
  0
LINE
  5
F3
330
1F
100
AcDbEntity
  8
0-F
  6
Continuous
 62
     7
370
     9
100
AcDbLine
 10
-98.26443499674936
 20
-101.9494326213282
 30
0.0
 11
-86.36713242073593
 21
-103.5157266986087
 31
0.0
  0
LINE
  5
F4
330
1F
100
AcDbEntity
  8
0-F
  6
Continuous
 62
     7
370
     9
100
AcDbLine
 10
386.7356309872033
 20
18.0505178907074
 30
0.0
 11
289.5356270281662
 21
18.0505178907074
 31
0.0
  0
LINE
  5
F5
330
1F
100
AcDbEntity
  8
0-F
  6
Continuous
 62
     7
370
     9
100
AcDbLine
 10
386.7356309872033
 20
46.0506597562055
 30
0.0
 11
329.5356600201425
 21
46.0506597562055
 31
0.0
  0
LINE
  5
F6
330
1F
100
AcDbEntity
  8
0-F
  6
Continuous
 62
     7
370
     9
100
AcDbLine
 10
330.7356441839937
 20
18.0505178907074
 30
0.0
 11
329.1693501067133
 21
29.9478699546853
 31
0.0
  0
LINE
  5
F7
330
1F
100
AcDbEntity
  8
0-F
  6
Continuous
 62
     7
370
     9
100
AcDbLine
 10
330.7356441839937
 20
18.0505178907074
 30
0.0
 11
332.3019382612741
 21
29.9478699546853
 31
0.0
  0
LINE
  5
F8
330
1F
100
AcDbEntity
  8
0-F
  6
Continuous
 62
     7
370
     9
100
AcDbLine
 10
332.3019382612741
 20
57.94801182018364
 30
0.0
 11
329.1693501067133
 21
34.1533076922276
 31
0.0
  0
LINE
  5
F9
330
1F
100
AcDbEntity
  8
0-F
  6
Continuous
 62
     7
370
     9
100
AcDbLine
 10
329.1693501067133
 20
57.94801182018364
 30
0.0
 11
332.3019382612741
 21
34.1533076922276
 31
0.0
  0
LINE
  5
FA
330
1F
100
AcDbEntity
  8
0-F
  6
Continuous
 62
     7
370
     9
100
AcDbLine
 10
386.7356309872033
 20
280.0506399610198
 30
0.0
 11
329.5356600201425
 21
280.0506399610198
 31
0.0
  0
LINE
  5
FB
330
1F
100
AcDbEntity
  8
0-F
  6
Continuous
 62
     7
370
     9
100
AcDbLine
 10
330.7356441839937
 20
280.0506399610198
 30
0.0
 11
329.1693501067133
 21
268.1533868729708
 31
0.0
  0
LINE
  5
FC
330
1F
100
AcDbEntity
  8
0-F
  6
Continuous
 62
     7
370
     9
100
AcDbLine
 10
330.7356441839937
 20
280.0506399610198
 30
0.0
 11
332.3019382612741
 21
268.1533868729708
 31
0.0
  0
LINE
  5
FD
330
1F
100
AcDbEntity
  8
0-F
  6
Continuous
 62
     7
370
     9
100
AcDbLine
 10
386.7356309872033
 20
308.0506333626245
 30
0.0
 11
289.5356270281662
 21
308.0506333626245
 31
0.0
  0
LINE
  5
FE
330
1F
100
AcDbEntity
  8
0-F
  6
Continuous
 62
     7
370
     9
100
AcDbLine
 10
386.7356309872033
 20
13.05055088268364
 30
0.0
 11
249.5355940361897
 21
13.05055088268364
 31
0.0
  0
LINE
  5
FF
330
1F
100
AcDbEntity
  8
0-F
  6
Continuous
 62
     7
370
     9
100
AcDbLine
 10
386.7356309872033
 20
16.05056078027656
 30
0.0
 11
289.5356270281662
 21
16.05056078027656
 31
0.0
  0
LINE
  5
100
330
1F
100
AcDbEntity
  8
0-F
  6
Continuous
 62
     7
370
     9
100
AcDbLine
 10
290.7356111920175
 20
-10.67892810802573
 30
0.0
 11
290.7356111920175
 21
336.7800793613576
 31
0.0
  0
LINE
  5
101
330
1F
100
AcDbEntity
  8
0-F
  6
Continuous
 62
     7
370
     9
100
AcDbLine
 10
290.7356111920175
 20
308.0506333626245
 30
0.0
 11
289.1693171147371
 21
296.1533307866109
 31
0.0
  0
LINE
  5
102
330
1F
100
AcDbEntity
  8
0-F
  6
Continuous
 62
     7
370
     9
100
AcDbLine
 10
290.7356111920175
 20
308.0506333626245
 30
0.0
 11
292.3019052692979
 21
296.1533307866109
 31
0.0
  0
LINE
  5
103
330
1F
100
AcDbEntity
  8
0-F
  6
Continuous
 62
     7
370
     9
100
AcDbLine
 10
386.7356309872033
 20
310.0506399610198
 30
0.0
 11
289.5356270281662
 21
310.0506399610198
 31
0.0
  0
LINE
  5
104
330
1F
100
AcDbEntity
  8
0-F
  6
Continuous
 62
     7
370
     9
100
AcDbLine
 10
386.7356309872033
 20
313.0506003706481
 30
0.0
 11
249.5355940361897
 21
313.0506003706481
 31
0.0
  0
LINE
  5
105
330
1F
100
AcDbEntity
  8
0-F
  6
Continuous
 62
     7
370
     9
100
AcDbLine
 10
290.7356111920175
 20
313.0506003706481
 30
0.0
 11
289.1693171147371
 21
324.9479029466617
 31
0.0
  0
LINE
  5
106
330
1F
100
AcDbEntity
  8
0-F
  6
Continuous
 62
     7
370
     9
100
AcDbLine
 10
290.7356111920175
 20
313.0506003706481
 30
0.0
 11
292.3019052692979
 21
324.9479029466617
 31
0.0
  0
LINE
  5
107
330
1F
100
AcDbEntity
  8
0-F
  6
Continuous
 62
     7
370
     9
100
AcDbLine
 10
250.7355782000411
 20
13.05055088268364
 30
0.0
 11
250.7355782000411
 21
313.0506003706481
 31
0.0
  0
LINE
  5
108
330
1F
100
AcDbEntity
  8
0-F
  6
Continuous
 62
     7
370
     9
100
AcDbLine
 10
250.7355782000411
 20
13.05055088268364
 30
0.0
 11
249.1692841227607
 21
24.94790294666177
 31
0.0
  0
LINE
  5
109
330
1F
100
AcDbEntity
  8
0-F
  6
Continuous
 62
     7
370
     9
100
AcDbLine
 10
250.7355782000411
 20
13.05055088268364
 30
0.0
 11
252.3018722773215
 21
24.94790294666177
 31
0.0
  0
LINE
  5
10A
330
1F
100
AcDbEntity
  8
0-F
  6
Continuous
 62
     7
370
     9
100
AcDbLine
 10
250.7355782000411
 20
313.0506003706481
 30
0.0
 11
249.1692841227607
 21
301.1532977946346
 31
0.0
  0
LINE
  5
10B
330
1F
100
AcDbEntity
  8
0-F
  6
Continuous
 62
     7
370
     9
100
AcDbLine
 10
250.7355782000411
 20
313.0506003706481
 30
0.0
 11
252.3018722773215
 21
301.1532977946346
 31
0.0
  0
LINE
  5
10C
330
1F
100
AcDbEntity
  8
0-F
  6
Continuous
 62
     7
370
     9
100
AcDbLine
 10
290.7356111920175
 20
18.05056737867176
 30
0.0
 11
289.1693171147371
 21
29.9478699546853
 31
0.0
  0
LINE
  5
10D
330
1F
100
AcDbEntity
  8
0-F
  6
Continuous
 62
     7
370
     9
100
AcDbLine
 10
290.7356111920175
 20
18.05056737867176
 30
0.0
 11
292.3019052692979
 21
29.9478699546853
 31
0.0
  0
LINE
  5
10E
330
1F
100
AcDbEntity
  8
0-F
  6
Continuous
 62
     7
370
     9
100
AcDbLine
 10
290.7356111920175
 20
13.05055088268364
 30
0.0
 11
289.1693171147371
 21
1.153248306670093
 31
0.0
  0
LINE
  5
10F
330
1F
100
AcDbEntity
  8
0-F
  6
Continuous
 62
     7
370
     9
100
AcDbLine
 10
290.7356111920175
 20
13.05055088268364
 30
0.0
 11
292.3019052692979
 21
1.153248306670093
 31
0.0
  0
LINE
  5
110
330
1F
100
AcDbEntity
  8
0-F
  6
Continuous
 62
     7
370
     9
100
AcDbLine
 10
390.7354462321358
 20
117.0459946907495
 30
0.0
 11
474.7679895176087
 21
117.0459946907495
 31
0.0
  0
LINE
  5
111
330
1F
100
AcDbEntity
  8
0-F
  6
Continuous
 62
     7
370
     9
100
AcDbLine
 10
390.7354462321358
 20
117.0459946907495
 30
0.0
 11
402.6327488081491
 21
118.6122887680299
 31
0.0
  0
LINE
  5
112
330
1F
100
AcDbEntity
  8
0-F
  6
Continuous
 62
     7
370
     9
100
AcDbLine
 10
390.7354462321358
 20
117.0459946907495
 30
0.0
 11
402.6327488081491
 21
115.479700613469
 31
0.0
  0
LINE
  5
113
330
1F
100
AcDbEntity
  8
0-F
  6
Continuous
 62
     7
370
     9
100
AcDbLine
 10
430.7355782000412
 20
117.0459946907495
 30
0.0
 11
418.8382756240275
 21
118.6122887680299
 31
0.0
  0
LINE
  5
114
330
1F
100
AcDbEntity
  8
0-F
  6
Continuous
 62
     7
370
     9
100
AcDbLine
 10
430.7355782000412
 20
117.0459946907495
 30
0.0
 11
418.8382756240275
 21
115.479700613469
 31
0.0
  0
LINE
  5
115
330
1F
100
AcDbEntity
  8
0-F
  6
Continuous
 62
     7
370
     9
100
AcDbLine
 10
447.7356837743654
 20
117.0459946907495
 30
0.0
 11
459.6329863503792
 21
118.6122887680299
 31
0.0
  0
LINE
  5
116
330
1F
100
AcDbEntity
  8
0-F
  6
Continuous
 62
     7
370
     9
100
AcDbLine
 10
447.7356837743654
 20
117.0459946907495
 30
0.0
 11
459.6329863503792
 21
115.479700613469
 31
0.0
  0
LINE
  5
117
330
1F
100
AcDbEntity
  8
0-F
  6
Continuous
 62
     7
370
     9
100
AcDbLine
 10
-698.2644349967495
 20
9.050636661822182
 30
0.0
 11
-698.2644349967495
 21
-103.1494167851795
 31
0.0
  0
LINE
  5
118
330
1F
100
AcDbEntity
  8
0-F
  6
Continuous
 62
     7
370
     9
100
AcDbLine
 10
-694.2644217999589
 20
9.050636661822182
 30
0.0
 11
-694.2644217999589
 21
-63.14943328116783
 31
0.0
  0
LINE
  5
119
330
1F
100
AcDbEntity
  8
0-F
  6
Continuous
 62
     7
370
     9
100
AcDbLine
 10
-103.264402004773
 20
9.050636661822182
 30
0.0
 11
-103.264402004773
 21
-63.14943328116783
 31
0.0
  0
LINE
  5
11A
330
1F
100
AcDbEntity
  8
0-F
  6
Continuous
 62
     7
370
     9
100
AcDbLine
 10
-99.26438880798248
 20
9.050636661822182
 30
0.0
 11
-99.26438880798248
 21
-103.1494167851795
 31
0.0
  0
LINE
  5
11B
330
1F
100
AcDbEntity
  8
0-F
  6
Continuous
 62
     7
370
     9
100
AcDbLine
 10
-98.26443499674936
 20
9.050636661822182
 30
0.0
 11
-98.26443499674936
 21
-103.1494167851795
 31
0.0
  0
LINE
  5
11C
330
1F
100
AcDbEntity
  8
0-F
  6
Continuous
 62
     7
370
     9
100
AcDbLine
 10
-698.2644349967495
 20
-101.9494326213282
 30
0.0
 11
130.7355782000412
 21
-101.9494326213282
 31
0.0
  0
LINE
  5
11D
330
1F
100
AcDbEntity
  8
0-F
  6
Continuous
 62
     7
370
     9
100
AcDbLine
 10
449.2942577291795
 20
136.2803828875401
 30
0.0
 11
434.8473352207337
 21
117.0459946907495
 31
0.0
  0
LINE
  5
11E
330
1F
100
AcDbEntity
  8
0-F
  6
Continuous
 62
     7
370
     9
100
AcDbLine
 10
330.7356441839937
 20
18.0505178907074
 30
0.0
 11
330.7356441839937
 21
335.2127955247867
 31
0.0
  0
LINE
  5
11F
330
1F
100
AcDbEntity
  8
0-F
  6
Continuous
 62
     7
370
     9
100
AcDbLine
 10
386.7356309872033
 20
284.0506531578103
 30
0.0
 11
329.5356600201425
 21
284.0506531578103
 31
0.0
  0
LINE
  5
120
330
1F
100
AcDbEntity
  8
0-F
  6
Continuous
 62
     7
370
     9
100
AcDbLine
 10
386.7356309872033
 20
295.0506399610198
 30
0.0
 11
329.5356600201425
 21
295.0506399610198
 31
0.0
  0
LINE
  5
121
330
1F
100
AcDbEntity
  8
0-F
  6
Continuous
 62
     7
370
     9
100
AcDbLine
 10
386.7356309872033
 20
299.0506531578103
 30
0.0
 11
329.5356600201425
 21
299.0506531578103
 31
0.0
  0
LINE
  5
122
330
1F
100
AcDbEntity
  8
0-F
  6
Continuous
 62
     7
370
     9
100
AcDbLine
 10
330.7356441839937
 20
308.0506333626245
 30
0.0
 11
329.1693501067133
 21
319.947935938638
 31
0.0
  0
LINE
  5
123
330
1F
100
AcDbEntity
  8
0-F
  6
Continuous
 62
     7
370
     9
100
AcDbLine
 10
330.7356441839937
 20
308.0506333626245
 30
0.0
 11
332.3019382612741
 21
319.947935938638
 31
0.0
  0
LINE
  5
124
330
1F
100
AcDbEntity
  8
0-1
  6
Continuous
 62
     2
370
     9
100
AcDbLine
 10
390.7356441839937
 20
310.0506399610198
 30
0.0
 11
390.7356441839937
 21
313.0506003706481
 31
0.0
  0
LINE
  5
125
330
1F
100
AcDbEntity
  8
0-1
  6
Continuous
 62
     2
370
     9
100
AcDbLine
 10
390.7356441839937
 20
16.05056078027656
 30
0.0
 11
390.7356441839937
 21
13.05055088268364
 31
0.0
  0
LINE
  5
126
330
1F
100
AcDbEntity
  8
0-1
  6
Continuous
 62
     2
370
     9
100
AcDbLine
 10
-699.2644382959471
 20
263.05058387466
 30
0.0
 11
-699.2644382959471
 21
313.0506003706481
 31
0.0
  0
LINE
  5
127
330
1F
100
AcDbEntity
  8
0-1
  6
Continuous
 62
     2
370
     9
100
AcDbLine
 10
-699.2644382959471
 20
63.05061686663635
 30
0.0
 11
-699.2644382959471
 21
13.05055088268364
 31
0.0
  0
LINE
  5
128
330
1F
100
AcDbEntity
  8
0-1
  6
Continuous
 62
     2
370
     9
100
AcDbLine
 10
-699.2644382959471
 20
263.05058387466
 30
0.0
 11
-698.2644349967495
 21
263.05058387466
 31
0.0
  0
LINE
  5
129
330
1F
100
AcDbEntity
  8
0-1
  6
Continuous
 62
     2
370
     9
100
AcDbLine
 10
-699.2644382959471
 20
63.05061686663635
 30
0.0
 11
-698.2644349967495
 21
63.05061686663635
 31
0.0
  0
LINE
  5
12A
330
1F
100
AcDbEntity
  8
0-1
  6
Continuous
 62
     2
370
     9
100
AcDbLine
 10
130.7355782000412
 20
183.0506663546009
 30
0.0
 11
140.7356111920175
 21
183.0506663546009
 31
0.0
  0
LINE
  5
12B
330
1F
100
AcDbEntity
  8
0-1
  6
Continuous
 62
     2
370
     9
100
AcDbLine
 10
140.7356111920175
 20
183.0506663546009
 30
0.0
 11
120.7355452080648
 21
143.0506333626245
 31
0.0
  0
LINE
  5
12C
330
1F
100
AcDbEntity
  8
0-1
  6
Continuous
 62
     2
370
     9
100
AcDbLine
 10
120.7355452080648
 20
143.0506333626245
 30
0.0
 11
130.7355782000412
 21
143.0506333626245
 31
0.0
  0
LINE
  5
12D
330
1F
100
AcDbEntity
  8
0-1
  6
Continuous
 62
     2
370
     9
100
AcDbLine
 10
130.7355782000412
 20
-6.949366637375533
 30
0.0
 11
130.7355782000412
 21
143.0506333626245
 31
0.0
  0
LINE
  5
12E
330
1F
100
AcDbEntity
  8
0-1
  6
Continuous
 62
     2
370
     9
100
AcDbLine
 10
130.7355782000412
 20
183.0506663546009
 30
0.0
 11
130.7355782000412
 21
333.0505673786718
 31
0.0
  0
LINE
  5
12F
330
1F
100
AcDbEntity
  8
0-1
  6
Continuous
 62
     2
370
     9
100
AcDbLine
 10
-699.2644382959471
 20
313.0506003706481
 30
0.0
 11
130.7355782000412
 21
313.0506003706481
 31
0.0
  0
LINE
  5
130
330
1F
100
AcDbEntity
  8
0-1
  6
Continuous
 62
     2
370
     9
100
AcDbLine
 10
-699.2644382959471
 20
310.0506399610198
 30
0.0
 11
130.7355782000412
 21
310.0506399610198
 31
0.0
  0
LINE
  5
131
330
1F
100
AcDbEntity
  8
0-1
  6
Continuous
 62
     2
370
     9
100
AcDbLine
 10
-699.2644382959471
 20
13.05055088268364
 30
0.0
 11
130.7355782000412
 21
13.05055088268364
 31
0.0
  0
LINE
  5
132
330
1F
100
AcDbEntity
  8
0-1
  6
Continuous
 62
     2
370
     9
100
AcDbLine
 10
-699.2644382959471
 20
16.05056078027656
 30
0.0
 11
130.7355782000412
 21
16.05056078027656
 31
0.0
  0
LINE
  5
133
330
1F
100
AcDbEntity
  8
0-F
  6
Continuous
 62
     7
370
     9
100
AcDbLine
 10
449.2942577291795
 20
136.2803828875401
 30
0.0
 11
464.1938961371187
 21
136.2803828875401
 31
0.0
  0
LINE
  5
134
330
1F
100
AcDbEntity
  8
0-0
  6
Continuous
 62
     3
370
     9
100
AcDbLine
 10
408.7352086899058
 20
168.550692748182
 30
0.0
 11
422.7352548786729
 21
167.5507389369488
 31
0.0
  0
LINE
  5
135
330
1F
100
AcDbEntity
  8
0-0
  6
Continuous
 62
     3
370
     9
100
AcDbLine
 10
422.7352548786729
 20
158.5506597562057
 30
0.0
 11
422.7352548786729
 21
167.5507389369488
 31
0.0
  0
LINE
  5
136
330
1F
100
AcDbEntity
  8
0-0
  6
Continuous
 62
     3
370
     9
100
AcDbLine
 10
418.33577483222
 20
165.6506980268982
 30
0.0
 11
413.1356784956491
 21
165.6506980268982
 31
0.0
  0
LINE
  5
137
330
1F
100
AcDbEntity
  8
0-0
  6
Continuous
 62
     3
370
     9
100
AcDbLine
 10
413.1356784956491
 20
165.6506980268982
 30
0.0
 11
413.1356784956491
 21
160.4507006662564
 31
0.0
  0
LINE
  5
138
330
1F
100
AcDbEntity
  8
0-0
  6
Continuous
 62
     3
370
     9
100
AcDbLine
 10
418.33577483222
 20
165.6506980268982
 30
0.0
 11
418.33577483222
 21
160.4507006662564
 31
0.0
  0
LINE
  5
139
330
1F
100
AcDbEntity
  8
0-0
  6
Continuous
 62
     3
370
     9
100
AcDbLine
 10
408.7352086899058
 20
169.050719141763
 30
0.0
 11
422.7352548786729
 21
167.5507389369488
 31
0.0
  0
LINE
  5
13A
330
1F
100
AcDbEntity
  8
0-0
  6
Continuous
 62
     3
370
     9
100
AcDbLine
 10
432.7356837743654
 20
250.2000441259269
 30
0.0
 11
432.7356837743654
 21
75.9013545672276
 31
0.0
  0
LINE
  5
13B
330
1F
100
AcDbEntity
  8
0-0
  6
Continuous
 62
     3
370
     9
100
AcDbLine
 10
447.7356837743654
 20
238.0506993465772
 30
0.0
 11
447.7356837743654
 21
88.05069934657718
 31
0.0
  0
LINE
  5
13C
330
1F
100
AcDbEntity
  8
0-0
  6
Continuous
 62
     3
370
     9
100
AcDbLine
 10
437.7357497583183
 20
253.0506993465772
 30
0.0
 11
447.7356837743654
 21
238.0506993465772
 31
0.0
  0
LINE
  5
13D
330
1F
100
AcDbEntity
  8
0-0
  6
Continuous
 62
     3
370
     9
100
AcDbLine
 10
432.51655106744
 20
250.8247307021516
 30
0.0
 11
430.954908858825
 21
252.7768329508846
 31
0.0
  0
LINE
  5
13E
330
1F
100
AcDbEntity
  8
0-0
  6
Continuous
 62
     3
370
     9
100
AcDbLine
 10
450.7357431599229
 20
275.3376041713238
 30
0.0
 11
450.7357431599229
 21
278.653990626138
 31
0.0
  0
LINE
  5
13F
330
1F
100
AcDbEntity
  8
0-0
  6
Continuous
 62
     3
370
     9
100
AcDbLine
 10
405.7357431599229
 20
284.0506531578103
 30
0.0
 11
405.7357431599229
 21
308.0507323385535
 31
0.0
  0
LINE
  5
140
330
1F
100
AcDbEntity
  8
0-0
  6
Continuous
 62
     3
370
     9
100
AcDbLine
 10
410.7357101679466
 20
280.0506399610198
 30
0.0
 11
410.7357101679466
 21
308.0507323385535
 31
0.0
  0
LINE
  5
141
330
1F
100
AcDbEntity
  8
0-0
  6
Continuous
 62
     3
370
     9
100
AcDbLine
 10
405.7357431599229
 20
299.0506531578103
 30
0.0
 11
390.7357431599229
 21
299.0506531578103
 31
0.0
  0
LINE
  5
142
330
1F
100
AcDbEntity
  8
0-0
  6
Continuous
 62
     3
370
     9
100
AcDbLine
 10
405.7357431599229
 20
295.0506399610198
 30
0.0
 11
390.7357431599229
 21
295.0506399610198
 31
0.0
  0
LINE
  5
143
330
1F
100
AcDbEntity
  8
0-0
  6
Continuous
 62
     3
370
     9
100
AcDbLine
 10
410.7357101679466
 20
284.0506531578103
 30
0.0
 11
390.7357431599229
 21
284.0506531578103
 31
0.0
  0
LINE
  5
144
330
1F
100
AcDbEntity
  8
0-0
  6
Continuous
 62
     3
370
     9
100
AcDbLine
 10
410.7357101679466
 20
280.0506399610198
 30
0.0
 11
390.7357431599229
 21
280.0506399610198
 31
0.0
  0
LINE
  5
145
330
1F
100
AcDbEntity
  8
0-0
  6
Continuous
 62
     3
370
     9
100
AcDbLine
 10
410.7357101679466
 20
308.0507323385535
 30
0.0
 11
405.7357431599229
 21
308.0507323385535
 31
0.0
  0
LINE
  5
146
330
1F
100
AcDbEntity
  8
0-0
  6
Continuous
 62
     3
370
     9
100
AcDbLine
 10
390.7357431599229
 20
27.05074553534405
 30
0.0
 11
390.7357431599229
 21
299.0506531578103
 31
0.0
  0
LINE
  5
147
330
1F
100
AcDbEntity
  8
0-0
  6
Continuous
 62
     3
370
     9
100
AcDbLine
 10
427.03486821271
 20
274.8086768064589
 30
0.0
 11
408.7358025454804
 21
276.181126526687
 31
0.0
  0
LINE
  5
148
330
1F
100
AcDbEntity
  8
0-0
  6
Continuous
 62
     3
370
     9
100
AcDbLine
 10
430.7357761518991
 20
270.819897377616
 30
0.0
 11
430.7357761518991
 21
55.28150131553843
 31
0.0
  0
LINE
  5
149
330
1F
100
AcDbEntity
  8
0-0
  6
Continuous
 62
     3
370
     9
100
AcDbLine
 10
441.1274568951425
 20
272.5725136413407
 30
0.0
 11
449.4638034956491
 21
273.8549942420586
 31
0.0
  0
LINE
  5
14A
330
1F
100
AcDbEntity
  8
0-0
  6
Continuous
 62
     3
370
     9
100
AcDbLine
 10
437.7357497583183
 20
268.6190191312056
 30
0.0
 11
437.7357497583183
 21
57.48237956194885
 31
0.0
  0
LINE
  5
14B
330
1F
100
AcDbEntity
  8
0-0
  6
Continuous
 62
     3
370
     9
100
AcDbLine
 10
419.73578934869
 20
167.0507125433678
 30
0.0
 11
419.73578934869
 21
159.0506861497868
 31
0.0
  0
LINE
  5
14C
330
1F
100
AcDbEntity
  8
0-0
  6
Continuous
 62
     3
370
     9
100
AcDbLine
 10
408.7358025454804
 20
167.0507125433678
 30
0.0
 11
408.7358025454804
 21
280.0506399610198
 31
0.0
  0
LINE
  5
14D
330
1F
100
AcDbEntity
  8
0-0
  6
Continuous
 62
     3
370
     9
100
AcDbLine
 10
406.2358685294329
 20
167.0507125433678
 30
0.0
 11
406.2358685294329
 21
159.0506861497868
 31
0.0
  0
LINE
  5
14E
330
1F
100
AcDbEntity
  8
0-0
  6
Continuous
 62
     3
370
     9
100
AcDbLine
 10
391.735795947085
 20
167.0507125433678
 30
0.0
 11
391.735795947085
 21
159.0506861497868
 31
0.0
  0
LINE
  5
14F
330
1F
100
AcDbEntity
  8
0-0
  6
Continuous
 62
     3
370
     9
100
AcDbLine
 10
419.73578934869
 20
167.0507125433678
 30
0.0
 11
391.735795947085
 21
167.0507125433678
 31
0.0
  0
LINE
  5
150
330
1F
100
AcDbEntity
  8
0-0
  6
Continuous
 62
     3
370
     9
100
AcDbLine
 10
-625.2643921071802
 20
73.05074883454176
 30
0.0
 11
-625.2643921071802
 21
253.0506498586127
 31
0.0
  0
LINE
  5
151
330
1F
100
AcDbEntity
  8
0-0
  6
Continuous
 62
     3
370
     9
100
AcDbLine
 10
-632.2643657135991
 20
253.0506498586127
 30
0.0
 11
-625.2643921071802
 21
253.0506498586127
 31
0.0
  0
LINE
  5
152
330
1F
100
AcDbEntity
  8
0-0
  6
Continuous
 62
     3
370
     9
100
AcDbLine
 10
-632.2643657135991
 20
73.05074883454176
 30
0.0
 11
-632.2643657135991
 21
253.0506498586127
 31
0.0
  0
LINE
  5
153
330
1F
100
AcDbEntity
  8
0-0
  6
Continuous
 62
     3
370
     9
100
AcDbLine
 10
-627.764375611192
 20
75.55073233855364
 30
0.0
 11
-627.764375611192
 21
250.5506663546008
 31
0.0
  0
LINE
  5
154
330
1F
100
AcDbEntity
  8
0-0
  6
Continuous
 62
     3
370
     9
100
AcDbLine
 10
-629.7644069535696
 20
250.5506663546008
 30
0.0
 11
-627.764375611192
 21
250.5506663546008
 31
0.0
  0
LINE
  5
155
330
1F
100
AcDbEntity
  8
0-0
  6
Continuous
 62
     3
370
     9
100
AcDbLine
 10
-629.7644069535696
 20
75.55073233855364
 30
0.0
 11
-629.7644069535696
 21
250.5506663546008
 31
0.0
  0
LINE
  5
156
330
1F
100
AcDbEntity
  8
0-0
  6
Continuous
 62
     3
370
     9
100
AcDbLine
 10
-625.2643921071802
 20
253.0506498586127
 30
0.0
 11
-627.764375611192
 21
250.5506663546008
 31
0.0
  0
LINE
  5
157
330
1F
100
AcDbEntity
  8
0-0
  6
Continuous
 62
     3
370
     9
100
AcDbLine
 10
-632.2643657135991
 20
253.0506498586127
 30
0.0
 11
-629.7644069535696
 21
250.5506663546008
 31
0.0
  0
LINE
  5
158
330
1F
100
AcDbEntity
  8
0-0
  6
Continuous
 62
     3
370
     9
100
AcDbLine
 10
-510.2643838591861
 20
73.05074883454176
 30
0.0
 11
-510.2643838591861
 21
253.0506498586127
 31
0.0
  0
LINE
  5
159
330
1F
100
AcDbEntity
  8
0-0
  6
Continuous
 62
     3
370
     9
100
AcDbLine
 10
-517.2643822095873
 20
253.0506498586127
 30
0.0
 11
-510.2643838591861
 21
253.0506498586127
 31
0.0
  0
LINE
  5
15A
330
1F
100
AcDbEntity
  8
0-0
  6
Continuous
 62
     3
370
     9
100
AcDbLine
 10
-517.2643822095873
 20
73.05074883454176
 30
0.0
 11
-517.2643822095873
 21
253.0506498586127
 31
0.0
  0
LINE
  5
15B
330
1F
100
AcDbEntity
  8
0-0
  6
Continuous
 62
     3
370
     9
100
AcDbLine
 10
-512.764367363198
 20
75.55073233855364
 30
0.0
 11
-512.764367363198
 21
250.5506663546008
 31
0.0
  0
LINE
  5
15C
330
1F
100
AcDbEntity
  8
0-0
  6
Continuous
 62
     3
370
     9
100
AcDbLine
 10
-514.7643987055754
 20
250.5506663546008
 30
0.0
 11
-512.764367363198
 21
250.5506663546008
 31
0.0
  0
LINE
  5
15D
330
1F
100
AcDbEntity
  8
0-0
  6
Continuous
 62
     3
370
     9
100
AcDbLine
 10
-514.7643987055754
 20
75.55073233855364
 30
0.0
 11
-514.7643987055754
 21
250.5506663546008
 31
0.0
  0
LINE
  5
15E
330
1F
100
AcDbEntity
  8
0-0
  6
Continuous
 62
     3
370
     9
100
AcDbLine
 10
-510.2643838591861
 20
253.0506498586127
 30
0.0
 11
-512.764367363198
 21
250.5506663546008
 31
0.0
  0
LINE
  5
15F
330
1F
100
AcDbEntity
  8
0-0
  6
Continuous
 62
     3
370
     9
100
AcDbLine
 10
-517.2643822095873
 20
253.0506498586127
 30
0.0
 11
-514.7643987055754
 21
250.5506663546008
 31
0.0
  0
LINE
  5
160
330
1F
100
AcDbEntity
  8
0-0
  6
Continuous
 62
     3
370
     9
100
AcDbLine
 10
-402.264349217611
 20
73.05074883454176
 30
0.0
 11
-402.264349217611
 21
253.0506498586127
 31
0.0
  0
LINE
  5
161
330
1F
100
AcDbEntity
  8
0-0
  6
Continuous
 62
     3
370
     9
100
AcDbLine
 10
-399.7644152015637
 20
75.55073233855364
 30
0.0
 11
-399.7644152015637
 21
250.5506663546008
 31
0.0
  0
LINE
  5
162
330
1F
100
AcDbEntity
  8
0-0
  6
Continuous
 62
     3
370
     9
100
AcDbLine
 10
-402.264349217611
 20
253.0506498586127
 30
0.0
 11
-399.7644152015637
 21
250.5506663546008
 31
0.0
  0
LINE
  5
163
330
1F
100
AcDbEntity
  8
0-0
  6
Continuous
 62
     3
370
     9
100
AcDbLine
 10
-402.264349217611
 20
253.0506498586127
 30
0.0
 11
-395.264375611192
 21
253.0506498586127
 31
0.0
  0
LINE
  5
164
330
1F
100
AcDbEntity
  8
0-0
  6
Continuous
 62
     3
370
     9
100
AcDbLine
 10
-399.7644152015637
 20
250.5506663546008
 30
0.0
 11
-397.7643591152039
 21
250.5506663546008
 31
0.0
  0
LINE
  5
165
330
1F
100
AcDbEntity
  8
0-0
  6
Continuous
 62
     3
370
     9
100
AcDbLine
 10
-698.2644349967495
 20
27.05074553534405
 30
0.0
 11
-698.2644349967495
 21
299.0506531578103
 31
0.0
  0
LINE
  5
166
330
1F
100
AcDbEntity
  8
0-0
  6
Continuous
 62
     3
370
     9
100
AcDbLine
 10
-694.2644341719501
 20
27.05074553534405
 30
0.0
 11
-694.2644341719501
 21
299.0506531578103
 31
0.0
  0
LINE
  5
167
330
1F
100
AcDbEntity
  8
0-0
  6
Continuous
 62
     3
370
     9
100
AcDbLine
 10
-694.2644341719501
 20
280.0506399610198
 30
0.0
 11
-103.2643525168085
 21
280.0506399610198
 31
0.0
  0
LINE
  5
168
330
1F
100
AcDbEntity
  8
0-0
  6
Continuous
 62
     3
370
     9
100
AcDbLine
 10
-694.2644341719501
 20
284.0506531578103
 30
0.0
 11
-103.2643525168085
 21
284.0506531578103
 31
0.0
  0
LINE
  5
169
330
1F
100
AcDbEntity
  8
0-0
  6
Continuous
 62
     3
370
     9
100
AcDbLine
 10
-684.2465978847351
 20
276.181126526687
 30
0.0
 11
-113.2821516880501
 21
276.181126526687
 31
0.0
  0
LINE
  5
16A
330
1F
100
AcDbEntity
  8
0-0
  6
Continuous
 62
     3
370
     9
100
AcDbLine
 10
-683.6752098463061
 20
274.5310988134269
 30
0.0
 11
-113.8535397264792
 21
274.5310988134269
 31
0.0
  0
LINE
  5
16B
330
1F
100
AcDbEntity
  8
0-0
  6
Continuous
 62
     3
370
     9
100
AcDbLine
 10
-686.6751949999167
 20
271.5310889158339
 30
0.0
 11
-686.6751949999167
 21
54.57030977732052
 31
0.0
  0
LINE
  5
16C
330
1F
100
AcDbEntity
  8
0-0
  6
Continuous
 62
     3
370
     9
100
AcDbLine
 10
-692.7644044791714
 20
159.0506861497868
 30
0.0
 11
-692.7644044791714
 21
167.0507125433678
 31
0.0
  0
LINE
  5
16D
330
1F
100
AcDbEntity
  8
0-0
  6
Continuous
 62
     3
370
     9
100
AcDbLine
 10
-688.7643912823808
 20
159.0506861497868
 30
0.0
 11
-688.7643912823808
 21
167.0507125433678
 31
0.0
  0
LINE
  5
16E
330
1F
100
AcDbEntity
  8
0-0
  6
Continuous
 62
     3
370
     9
100
AcDbLine
 10
-694.2644341719501
 20
167.0507125433678
 30
0.0
 11
-688.7643912823808
 21
167.0507125433678
 31
0.0
  0
LINE
  5
16F
330
1F
100
AcDbEntity
  8
0-0
  6
Continuous
 62
     3
370
     9
100
AcDbLine
 10
-691.2542297536646
 20
169.0506696537984
 30
0.0
 11
-690.2542017104847
 21
168.5506432602174
 31
0.0
  0
LINE
  5
170
330
1F
100
AcDbEntity
  8
0-0
  6
Continuous
 62
     3
370
     9
100
AcDbLine
 10
-690.2542017104847
 20
168.5506432602174
 30
0.0
 11
-687.2465954103369
 21
168.5506432602174
 31
0.0
  0
LINE
  5
171
330
1F
100
AcDbEntity
  8
0-0
  6
Continuous
 62
     3
370
     9
100
AcDbLine
 10
-687.2465954103369
 20
168.5506432602174
 30
0.0
 11
-690.2542017104847
 21
169.0506696537984
 31
0.0
  0
LINE
  5
172
330
1F
100
AcDbEntity
  8
0-0
  6
Continuous
 62
     3
370
     9
100
AcDbLine
 10
-690.2542017104847
 20
169.0506696537984
 30
0.0
 11
-691.2542297536646
 21
169.0506696537984
 31
0.0
  0
LINE
  5
173
330
1F
100
AcDbEntity
  8
0-0
  6
Continuous
 62
     3
370
     9
100
AcDbLine
 10
-687.2465954103369
 20
157.550755432937
 30
0.0
 11
-687.2465954103369
 21
168.5506432602174
 31
0.0
  0
LINE
  5
174
330
1F
100
AcDbEntity
  8
0-0
  6
Continuous
 62
     3
370
     9
100
AcDbLine
 10
-691.2542297536646
 20
169.0506696537984
 30
0.0
 11
-691.2542297536646
 21
167.0507125433678
 31
0.0
  0
LINE
  5
175
330
1F
100
AcDbEntity
  8
0-0
  6
Continuous
 62
     3
370
     9
100
AcDbLine
 10
-688.2466110815257
 20
272.1811133298964
 30
0.0
 11
-688.2466110815257
 21
168.7168733330636
 31
0.0
  0
LINE
  5
176
330
1F
100
AcDbEntity
  8
0-0
  6
Continuous
 62
     3
370
     9
100
AcDbLine
 10
425.5362736709025
 20
287.0507125433677
 30
0.0
 11
425.5362736709025
 21
301.0507587321346
 31
0.0
  0
LINE
  5
177
330
1F
100
AcDbEntity
  8
0-0
  6
Continuous
 62
     3
370
     9
100
AcDbLine
 10
425.5362736709025
 20
287.0507125433677
 30
0.0
 11
427.1362195640612
 21
288.5257508140603
 31
0.0
  0
LINE
  5
178
330
1F
100
AcDbEntity
  8
0-0
  6
Continuous
 62
     3
370
     9
100
AcDbLine
 10
425.5362736709025
 20
301.0507587321346
 30
0.0
 11
427.1362195640612
 21
299.5757204614421
 31
0.0
  0
LINE
  5
179
330
1F
100
AcDbEntity
  8
0-0
  6
Continuous
 62
     3
370
     9
100
AcDbLine
 10
425.5362736709025
 20
291.288267969888
 30
0.0
 11
430.7361720556154
 21
291.288267969888
 31
0.0
  0
LINE
  5
17A
330
1F
100
AcDbEntity
  8
0-0
  6
Continuous
 62
     3
370
     9
100
AcDbLine
 10
425.5362736709025
 20
296.8132033056144
 30
0.0
 11
430.7361720556154
 21
296.8132033056144
 31
0.0
  0
LINE
  5
17B
330
1F
100
AcDbEntity
  8
0-0
  6
Continuous
 62
     3
370
     9
100
AcDbLine
 10
424.7363502122879
 20
287.0507125433677
 30
0.0
 11
425.5362736709025
 21
287.0507125433677
 31
0.0
  0
LINE
  5
17C
330
1F
100
AcDbEntity
  8
0-0
  6
Continuous
 62
     3
370
     9
100
AcDbLine
 10
427.1362195640612
 20
288.5257508140603
 30
0.0
 11
430.7361720556154
 21
288.5257508140603
 31
0.0
  0
LINE
  5
17D
330
1F
100
AcDbEntity
  8
0-0
  6
Continuous
 62
     3
370
     9
100
AcDbLine
 10
430.7361720556154
 20
288.5257508140603
 30
0.0
 11
430.7361720556154
 21
299.5757204614421
 31
0.0
  0
LINE
  5
17E
330
1F
100
AcDbEntity
  8
0-0
  6
Continuous
 62
     3
370
     9
100
AcDbLine
 10
434.7361852524058
 20
291.0507257401583
 30
0.0
 11
434.7361852524058
 21
297.050646559415
 31
0.0
  0
LINE
  5
17F
330
1F
100
AcDbEntity
  8
0-0
  6
Continuous
 62
     3
370
     9
100
AcDbLine
 10
434.7361852524058
 20
291.0507257401583
 30
0.0
 11
435.7362380395683
 21
292.0507785273204
 31
0.0
  0
LINE
  5
180
330
1F
100
AcDbEntity
  8
0-0
  6
Continuous
 62
     3
370
     9
100
AcDbLine
 10
435.7362380395683
 20
296.050692748182
 30
0.0
 11
434.7361852524058
 21
297.050646559415
 31
0.0
  0
LINE
  5
181
330
1F
100
AcDbEntity
  8
0-0
  6
Continuous
 62
     3
370
     9
100
AcDbLine
 10
427.1362195640612
 20
299.5757204614421
 30
0.0
 11
430.7361720556154
 21
299.5757204614421
 31
0.0
  0
LINE
  5
182
330
1F
100
AcDbEntity
  8
0-0
  6
Continuous
 62
     3
370
     9
100
AcDbLine
 10
435.7362380395683
 20
292.0507785273204
 30
0.0
 11
435.7362380395683
 21
296.050692748182
 31
0.0
  0
LINE
  5
183
330
1F
100
AcDbEntity
  8
0-0
  6
Continuous
 62
     3
370
     9
100
AcDbLine
 10
430.7361720556154
 20
297.050646559415
 30
0.0
 11
434.7361852524058
 21
297.050646559415
 31
0.0
  0
LINE
  5
184
330
1F
100
AcDbEntity
  8
0-0
  6
Continuous
 62
     3
370
     9
100
AcDbLine
 10
435.7362380395683
 20
296.050692748182
 30
0.0
 11
430.7361720556154
 21
296.050692748182
 31
0.0
  0
LINE
  5
185
330
1F
100
AcDbEntity
  8
0-0
  6
Continuous
 62
     3
370
     9
100
AcDbLine
 10
430.7361720556154
 20
292.0507785273204
 30
0.0
 11
435.7362380395683
 21
292.0507785273204
 31
0.0
  0
LINE
  5
186
330
1F
100
AcDbEntity
  8
0-0
  6
Continuous
 62
     3
370
     9
100
AcDbLine
 10
430.7361720556154
 20
291.0507257401583
 30
0.0
 11
434.7361852524058
 21
291.0507257401583
 31
0.0
  0
LINE
  5
187
330
1F
100
AcDbEntity
  8
0-0
  6
Continuous
 62
     3
370
     9
100
AcDbLine
 10
410.7357101679466
 20
289.550745535344
 30
0.0
 11
424.7363502122879
 21
289.550745535344
 31
0.0
  0
LINE
  5
188
330
1F
100
AcDbEntity
  8
0-0
  6
Continuous
 62
     3
370
     9
100
AcDbLine
 10
410.7357101679466
 20
298.5508247160873
 30
0.0
 11
424.7363502122879
 21
298.5508247160873
 31
0.0
  0
LINE
  5
189
330
1F
100
AcDbEntity
  8
0-0
  6
Continuous
 62
     3
370
     9
100
AcDbLine
 10
410.7357101679466
 20
297.050646559415
 30
0.0
 11
424.7363502122879
 21
297.050646559415
 31
0.0
  0
LINE
  5
18A
330
1F
100
AcDbEntity
  8
0-0
  6
Continuous
 62
     3
370
     9
100
AcDbLine
 10
424.7363502122879
 20
296.050692748182
 30
0.0
 11
410.7357101679466
 21
296.050692748182
 31
0.0
  0
LINE
  5
18B
330
1F
100
AcDbEntity
  8
0-0
  6
Continuous
 62
     3
370
     9
100
AcDbLine
 10
424.7363502122879
 20
292.0507785273204
 30
0.0
 11
410.7357101679466
 21
292.0507785273204
 31
0.0
  0
LINE
  5
18C
330
1F
100
AcDbEntity
  8
0-0
  6
Continuous
 62
     3
370
     9
100
AcDbLine
 10
410.7357101679466
 20
291.0507257401583
 30
0.0
 11
424.7363502122879
 21
291.0507257401583
 31
0.0
  0
LINE
  5
18D
330
1F
100
AcDbEntity
  8
0-0
  6
Continuous
 62
     3
370
     9
100
AcDbLine
 10
424.7363502122879
 20
301.0507587321346
 30
0.0
 11
425.5362736709025
 21
301.0507587321346
 31
0.0
  0
LINE
  5
18E
330
1F
100
AcDbEntity
  8
0-0
  6
Continuous
 62
     3
370
     9
100
AcDbLine
 10
449.3425579825579
 20
280.1502097456481
 30
0.0
 11
428.4513127334025
 21
281.6424698279961
 31
0.0
  0
LINE
  5
18F
330
1F
100
AcDbEntity
  8
0-0
  6
Continuous
 62
     3
370
     9
100
AcDbLine
 10
423.4222468022371
 20
304.2149202080636
 30
0.0
 11
410.7357101679466
 21
305.8006135674386
 31
0.0
  0
LINE
  5
190
330
1F
100
AcDbEntity
  8
0-0
  6
Continuous
 62
     3
370
     9
100
AcDbLine
 10
424.7363502122879
 20
302.7265201869488
 30
0.0
 11
424.7363502122879
 21
285.632189528165
 31
0.0
  0
LINE
  5
191
330
1F
100
AcDbEntity
  8
0-0
  6
Continuous
 62
     3
370
     9
100
AcDbLine
 10
-694.2644341719501
 20
295.0506399610198
 30
0.0
 11
-103.2643525168085
 21
295.0506399610198
 31
0.0
  0
LINE
  5
192
330
1F
100
AcDbEntity
  8
0-0
  6
Continuous
 62
     3
370
     9
100
AcDbLine
 10
-698.2644349967495
 20
299.0506531578103
 30
0.0
 11
-99.26428983205342
 21
299.0506531578103
 31
0.0
  0
LINE
  5
193
330
1F
100
AcDbEntity
  8
0-0
  6
Continuous
 62
     3
370
     9
100
AcDbLine
 10
-681.2643789103897
 20
308.0507323385535
 30
0.0
 11
-656.2643706623955
 21
308.0507323385535
 31
0.0
  0
LINE
  5
194
330
1F
100
AcDbEntity
  8
0-0
  6
Continuous
 62
     3
370
     9
100
AcDbLine
 10
-656.2643706623955
 20
308.0507323385535
 30
0.0
 11
-656.2643706623955
 21
299.0506531578103
 31
0.0
  0
LINE
  5
195
330
1F
100
AcDbEntity
  8
0-0
  6
Continuous
 62
     3
370
     9
100
AcDbLine
 10
-656.2643706623955
 20
295.0506399610198
 30
0.0
 11
-656.2643706623955
 21
284.0506531578103
 31
0.0
  0
LINE
  5
196
330
1F
100
AcDbEntity
  8
0-0
  6
Continuous
 62
     3
370
     9
100
AcDbLine
 10
-681.2643789103897
 20
308.0507323385535
 30
0.0
 11
-681.2643789103897
 21
299.0506531578103
 31
0.0
  0
LINE
  5
197
330
1F
100
AcDbEntity
  8
0-0
  6
Continuous
 62
     3
370
     9
100
AcDbLine
 10
-681.2643789103897
 20
295.0506399610198
 30
0.0
 11
-681.2643789103897
 21
284.0506531578103
 31
0.0
  0
LINE
  5
198
330
1F
100
AcDbEntity
  8
0-0
  6
Continuous
 62
     3
370
     9
100
AcDbLine
 10
-546.2644036543719
 20
308.0507323385535
 30
0.0
 11
-521.2643459184134
 21
308.0507323385535
 31
0.0
  0
LINE
  5
199
330
1F
100
AcDbEntity
  8
0-0
  6
Continuous
 62
     3
370
     9
100
AcDbLine
 10
-521.2643459184134
 20
308.0507323385535
 30
0.0
 11
-521.2643459184134
 21
299.0506531578103
 31
0.0
  0
LINE
  5
19A
330
1F
100
AcDbEntity
  8
0-0
  6
Continuous
 62
     3
370
     9
100
AcDbLine
 10
-521.2643459184134
 20
295.0506399610198
 30
0.0
 11
-521.2643459184134
 21
284.0506531578103
 31
0.0
  0
LINE
  5
19B
330
1F
100
AcDbEntity
  8
0-0
  6
Continuous
 62
     3
370
     9
100
AcDbLine
 10
-546.2644036543719
 20
308.0507323385535
 30
0.0
 11
-546.2644036543719
 21
299.0506531578103
 31
0.0
  0
LINE
  5
19C
330
1F
100
AcDbEntity
  8
0-0
  6
Continuous
 62
     3
370
     9
100
AcDbLine
 10
-546.2644036543719
 20
295.0506399610198
 30
0.0
 11
-546.2644036543719
 21
284.0506531578103
 31
0.0
  0
LINE
  5
19D
330
1F
100
AcDbEntity
  8
0-0
  6
Continuous
 62
     3
370
     9
100
AcDbLine
 10
-411.2644283983542
 20
308.0507323385535
 30
0.0
 11
-411.2644283983542
 21
299.0506531578103
 31
0.0
  0
LINE
  5
19E
330
1F
100
AcDbEntity
  8
0-0
  6
Continuous
 62
     3
370
     9
100
AcDbLine
 10
-411.2644283983542
 20
295.0506399610198
 30
0.0
 11
-411.2644283983542
 21
284.0506531578103
 31
0.0
  0
LINE
  5
19F
330
1F
100
AcDbEntity
  8
0-0
  6
Continuous
 62
     3
370
     9
100
AcDbLine
 10
-411.2644283983542
 20
308.0507323385535
 30
0.0
 11
-386.2643954063778
 21
308.0507323385535
 31
0.0
  0
LINE
  5
1A0
330
1F
100
AcDbEntity
  8
0-0
  6
Continuous
 62
     3
370
     9
100
AcDbLine
 10
-172.2643822095873
 20
73.05074883454176
 30
0.0
 11
-172.2643822095873
 21
253.0506498586127
 31
0.0
  0
LINE
  5
1A1
330
1F
100
AcDbEntity
  8
0-0
  6
Continuous
 62
     3
370
     9
100
AcDbLine
 10
-165.2643591152038
 20
253.0506498586127
 30
0.0
 11
-172.2643822095873
 21
253.0506498586127
 31
0.0
  0
LINE
  5
1A2
330
1F
100
AcDbEntity
  8
0-0
  6
Continuous
 62
     3
370
     9
100
AcDbLine
 10
-165.2643591152038
 20
73.05074883454176
 30
0.0
 11
-165.2643591152038
 21
253.0506498586127
 31
0.0
  0
LINE
  5
1A3
330
1F
100
AcDbEntity
  8
0-0
  6
Continuous
 62
     3
370
     9
100
AcDbLine
 10
-169.76444819354
 20
75.55073233855364
 30
0.0
 11
-169.76444819354
 21
250.5506663546008
 31
0.0
  0
LINE
  5
1A4
330
1F
100
AcDbEntity
  8
0-0
  6
Continuous
 62
     3
370
     9
100
AcDbLine
 10
-167.7643426192156
 20
250.5506663546008
 30
0.0
 11
-169.76444819354
 21
250.5506663546008
 31
0.0
  0
LINE
  5
1A5
330
1F
100
AcDbEntity
  8
0-0
  6
Continuous
 62
     3
370
     9
100
AcDbLine
 10
-167.7643426192156
 20
75.55073233855364
 30
0.0
 11
-167.7643426192156
 21
250.5506663546008
 31
0.0
  0
LINE
  5
1A6
330
1F
100
AcDbEntity
  8
0-0
  6
Continuous
 62
     3
370
     9
100
AcDbLine
 10
-172.2643822095873
 20
253.0506498586127
 30
0.0
 11
-169.76444819354
 21
250.5506663546008
 31
0.0
  0
LINE
  5
1A7
330
1F
100
AcDbEntity
  8
0-0
  6
Continuous
 62
     3
370
     9
100
AcDbLine
 10
-165.2643591152038
 20
253.0506498586127
 30
0.0
 11
-167.7643426192156
 21
250.5506663546008
 31
0.0
  0
LINE
  5
1A8
330
1F
100
AcDbEntity
  8
0-0
  6
Continuous
 62
     3
370
     9
100
AcDbLine
 10
-287.2643657135991
 20
73.05074883454176
 30
0.0
 11
-287.2643657135991
 21
253.0506498586127
 31
0.0
  0
LINE
  5
1A9
330
1F
100
AcDbEntity
  8
0-0
  6
Continuous
 62
     3
370
     9
100
AcDbLine
 10
-280.2643921071802
 20
253.0506498586127
 30
0.0
 11
-287.2643657135991
 21
253.0506498586127
 31
0.0
  0
LINE
  5
1AA
330
1F
100
AcDbEntity
  8
0-0
  6
Continuous
 62
     3
370
     9
100
AcDbLine
 10
-280.2643921071802
 20
73.05074883454176
 30
0.0
 11
-280.2643921071802
 21
253.0506498586127
 31
0.0
  0
LINE
  5
1AB
330
1F
100
AcDbEntity
  8
0-0
  6
Continuous
 62
     3
370
     9
100
AcDbLine
 10
-284.7643822095873
 20
75.55073233855364
 30
0.0
 11
-284.7643822095873
 21
250.5506663546008
 31
0.0
  0
LINE
  5
1AC
330
1F
100
AcDbEntity
  8
0-0
  6
Continuous
 62
     3
370
     9
100
AcDbLine
 10
-282.764375611192
 20
250.5506663546008
 30
0.0
 11
-284.7643822095873
 21
250.5506663546008
 31
0.0
  0
LINE
  5
1AD
330
1F
100
AcDbEntity
  8
0-0
  6
Continuous
 62
     3
370
     9
100
AcDbLine
 10
-282.764375611192
 20
75.55073233855364
 30
0.0
 11
-282.764375611192
 21
250.5506663546008
 31
0.0
  0
LINE
  5
1AE
330
1F
100
AcDbEntity
  8
0-0
  6
Continuous
 62
     3
370
     9
100
AcDbLine
 10
-287.2643657135991
 20
253.0506498586127
 30
0.0
 11
-284.7643822095873
 21
250.5506663546008
 31
0.0
  0
LINE
  5
1AF
330
1F
100
AcDbEntity
  8
0-0
  6
Continuous
 62
     3
370
     9
100
AcDbLine
 10
-280.2643921071802
 20
253.0506498586127
 30
0.0
 11
-282.764375611192
 21
250.5506663546008
 31
0.0
  0
LINE
  5
1B0
330
1F
100
AcDbEntity
  8
0-0
  6
Continuous
 62
     3
370
     9
100
AcDbLine
 10
-395.264375611192
 20
73.05074883454176
 30
0.0
 11
-395.264375611192
 21
253.0506498586127
 31
0.0
  0
LINE
  5
1B1
330
1F
100
AcDbEntity
  8
0-0
  6
Continuous
 62
     3
370
     9
100
AcDbLine
 10
-397.7643591152039
 20
75.55073233855364
 30
0.0
 11
-397.7643591152039
 21
250.5506663546008
 31
0.0
  0
LINE
  5
1B2
330
1F
100
AcDbEntity
  8
0-0
  6
Continuous
 62
     3
370
     9
100
AcDbLine
 10
-395.264375611192
 20
253.0506498586127
 30
0.0
 11
-397.7643591152039
 21
250.5506663546008
 31
0.0
  0
LINE
  5
1B3
330
1F
100
AcDbEntity
  8
0-0
  6
Continuous
 62
     3
370
     9
100
AcDbLine
 10
-99.26428983205342
 20
27.05074553534405
 30
0.0
 11
-99.26428983205342
 21
299.0506531578103
 31
0.0
  0
LINE
  5
1B4
330
1F
100
AcDbEntity
  8
0-0
  6
Continuous
 62
     3
370
     9
100
AcDbLine
 10
-103.2643525168085
 20
27.05074553534405
 30
0.0
 11
-103.2643525168085
 21
299.0506531578103
 31
0.0
  0
LINE
  5
1B5
330
1F
100
AcDbEntity
  8
0-0
  6
Continuous
 62
     3
370
     9
100
AcDbLine
 10
-110.8535793168507
 20
271.5310889158339
 30
0.0
 11
-110.8535793168507
 21
54.57030977732052
 31
0.0
  0
LINE
  5
1B6
330
1F
100
AcDbEntity
  8
0-0
  6
Continuous
 62
     3
370
     9
100
AcDbLine
 10
-104.7643822095873
 20
159.0506861497868
 30
0.0
 11
-104.7643822095873
 21
167.0507125433678
 31
0.0
  0
LINE
  5
1B7
330
1F
100
AcDbEntity
  8
0-0
  6
Continuous
 62
     3
370
     9
100
AcDbLine
 10
-108.7643459184132
 20
159.0506861497868
 30
0.0
 11
-108.7643459184132
 21
167.0507125433678
 31
0.0
  0
LINE
  5
1B8
330
1F
100
AcDbEntity
  8
0-0
  6
Continuous
 62
     3
370
     9
100
AcDbLine
 10
-103.2643525168085
 20
167.0507125433678
 30
0.0
 11
-108.7643459184132
 21
167.0507125433678
 31
0.0
  0
LINE
  5
1B9
330
1F
100
AcDbEntity
  8
0-0
  6
Continuous
 62
     3
370
     9
100
AcDbLine
 10
-106.2745569350941
 20
169.0506696537984
 30
0.0
 11
-107.2745602342917
 21
168.5506432602174
 31
0.0
  0
LINE
  5
1BA
330
1F
100
AcDbEntity
  8
0-0
  6
Continuous
 62
     3
370
     9
100
AcDbLine
 10
-107.2745602342917
 20
168.5506432602174
 30
0.0
 11
-110.2821912784218
 21
168.5506432602174
 31
0.0
  0
LINE
  5
1BB
330
1F
100
AcDbEntity
  8
0-0
  6
Continuous
 62
     3
370
     9
100
AcDbLine
 10
-110.2821912784218
 20
168.5506432602174
 30
0.0
 11
-107.2745602342917
 21
169.0506696537984
 31
0.0
  0
LINE
  5
1BC
330
1F
100
AcDbEntity
  8
0-0
  6
Continuous
 62
     3
370
     9
100
AcDbLine
 10
-107.2745602342917
 20
169.0506696537984
 30
0.0
 11
-106.2745569350941
 21
169.0506696537984
 31
0.0
  0
LINE
  5
1BD
330
1F
100
AcDbEntity
  8
0-0
  6
Continuous
 62
     3
370
     9
100
AcDbLine
 10
-110.2821912784218
 20
157.550755432937
 30
0.0
 11
-110.2821912784218
 21
168.5506432602174
 31
0.0
  0
LINE
  5
1BE
330
1F
100
AcDbEntity
  8
0-0
  6
Continuous
 62
     3
370
     9
100
AcDbLine
 10
-106.2745569350941
 20
169.0506696537984
 30
0.0
 11
-106.2745569350941
 21
167.0507125433678
 31
0.0
  0
LINE
  5
1BF
330
1F
100
AcDbEntity
  8
0-0
  6
Continuous
 62
     3
370
     9
100
AcDbLine
 10
-109.282187979224
 20
272.1811133298964
 30
0.0
 11
-109.282187979224
 21
168.7168733330636
 31
0.0
  0
LINE
  5
1C0
330
1F
100
AcDbEntity
  8
0-0
  6
Continuous
 62
     3
370
     9
100
AcDbLine
 10
-116.2643459184132
 20
308.0507323385535
 30
0.0
 11
-141.2644283983541
 21
308.0507323385535
 31
0.0
  0
LINE
  5
1C1
330
1F
100
AcDbEntity
  8
0-0
  6
Continuous
 62
     3
370
     9
100
AcDbLine
 10
-141.2644283983541
 20
308.0507323385535
 30
0.0
 11
-141.2644283983541
 21
299.0506531578103
 31
0.0
  0
LINE
  5
1C2
330
1F
100
AcDbEntity
  8
0-0
  6
Continuous
 62
     3
370
     9
100
AcDbLine
 10
-141.2644283983541
 20
295.0506399610198
 30
0.0
 11
-141.2644283983541
 21
284.0506531578103
 31
0.0
  0
LINE
  5
1C3
330
1F
100
AcDbEntity
  8
0-0
  6
Continuous
 62
     3
370
     9
100
AcDbLine
 10
-116.2643459184132
 20
308.0507323385535
 30
0.0
 11
-116.2643459184132
 21
299.0506531578103
 31
0.0
  0
LINE
  5
1C4
330
1F
100
AcDbEntity
  8
0-0
  6
Continuous
 62
     3
370
     9
100
AcDbLine
 10
-116.2643459184132
 20
295.0506399610198
 30
0.0
 11
-116.2643459184132
 21
284.0506531578103
 31
0.0
  0
LINE
  5
1C5
330
1F
100
AcDbEntity
  8
0-0
  6
Continuous
 62
     3
370
     9
100
AcDbLine
 10
-251.2643459184133
 20
308.0507323385535
 30
0.0
 11
-276.2644283983542
 21
308.0507323385535
 31
0.0
  0
LINE
  5
1C6
330
1F
100
AcDbEntity
  8
0-0
  6
Continuous
 62
     3
370
     9
100
AcDbLine
 10
-276.2644283983542
 20
308.0507323385535
 30
0.0
 11
-276.2644283983542
 21
299.0506531578103
 31
0.0
  0
LINE
  5
1C7
330
1F
100
AcDbEntity
  8
0-0
  6
Continuous
 62
     3
370
     9
100
AcDbLine
 10
-276.2644283983542
 20
295.0506399610198
 30
0.0
 11
-276.2644283983542
 21
284.0506531578103
 31
0.0
  0
LINE
  5
1C8
330
1F
100
AcDbEntity
  8
0-0
  6
Continuous
 62
     3
370
     9
100
AcDbLine
 10
-251.2643459184133
 20
308.0507323385535
 30
0.0
 11
-251.2643459184133
 21
299.0506531578103
 31
0.0
  0
LINE
  5
1C9
330
1F
100
AcDbEntity
  8
0-0
  6
Continuous
 62
     3
370
     9
100
AcDbLine
 10
-251.2643459184133
 20
295.0506399610198
 30
0.0
 11
-251.2643459184133
 21
284.0506531578103
 31
0.0
  0
LINE
  5
1CA
330
1F
100
AcDbEntity
  8
0-0
  6
Continuous
 62
     3
370
     9
100
AcDbLine
 10
-386.2643954063778
 20
308.0507323385535
 30
0.0
 11
-386.2643954063778
 21
299.0506531578103
 31
0.0
  0
LINE
  5
1CB
330
1F
100
AcDbEntity
  8
0-0
  6
Continuous
 62
     3
370
     9
100
AcDbLine
 10
-386.2643954063778
 20
295.0506399610198
 30
0.0
 11
-386.2643954063778
 21
284.0506531578103
 31
0.0
  0
LINE
  5
1CC
330
1F
100
AcDbEntity
  8
0-0
  6
Continuous
 62
     3
370
     9
100
AcDbLine
 10
-632.2643657135991
 20
73.05074883454176
 30
0.0
 11
-625.2643921071802
 21
73.05074883454176
 31
0.0
  0
LINE
  5
1CD
330
1F
100
AcDbEntity
  8
0-0
  6
Continuous
 62
     3
370
     9
100
AcDbLine
 10
-629.7644069535696
 20
75.55073233855364
 30
0.0
 11
-627.764375611192
 21
75.55073233855364
 31
0.0
  0
LINE
  5
1CE
330
1F
100
AcDbEntity
  8
0-0
  6
Continuous
 62
     3
370
     9
100
AcDbLine
 10
-625.2643921071802
 20
73.05074883454176
 30
0.0
 11
-627.764375611192
 21
75.55073233855364
 31
0.0
  0
LINE
  5
1CF
330
1F
100
AcDbEntity
  8
0-0
  6
Continuous
 62
     3
370
     9
100
AcDbLine
 10
-632.2643657135991
 20
73.05074883454176
 30
0.0
 11
-629.7644069535696
 21
75.55073233855364
 31
0.0
  0
LINE
  5
1D0
330
1F
100
AcDbEntity
  8
0-0
  6
Continuous
 62
     3
370
     9
100
AcDbLine
 10
-517.2643822095873
 20
73.05074883454176
 30
0.0
 11
-510.2643838591861
 21
73.05074883454176
 31
0.0
  0
LINE
  5
1D1
330
1F
100
AcDbEntity
  8
0-0
  6
Continuous
 62
     3
370
     9
100
AcDbLine
 10
-514.7643987055754
 20
75.55073233855364
 30
0.0
 11
-512.764367363198
 21
75.55073233855364
 31
0.0
  0
LINE
  5
1D2
330
1F
100
AcDbEntity
  8
0-0
  6
Continuous
 62
     3
370
     9
100
AcDbLine
 10
-510.2643838591861
 20
73.05074883454176
 30
0.0
 11
-512.764367363198
 21
75.55073233855364
 31
0.0
  0
LINE
  5
1D3
330
1F
100
AcDbEntity
  8
0-0
  6
Continuous
 62
     3
370
     9
100
AcDbLine
 10
-517.2643822095873
 20
73.05074883454176
 30
0.0
 11
-514.7643987055754
 21
75.55073233855364
 31
0.0
  0
LINE
  5
1D4
330
1F
100
AcDbEntity
  8
0-0
  6
Continuous
 62
     3
370
     9
100
AcDbLine
 10
-402.264349217611
 20
73.05074883454176
 30
0.0
 11
-399.7644152015637
 21
75.55073233855364
 31
0.0
  0
LINE
  5
1D5
330
1F
100
AcDbEntity
  8
0-0
  6
Continuous
 62
     3
370
     9
100
AcDbLine
 10
-402.264349217611
 20
73.05074883454176
 30
0.0
 11
-395.264375611192
 21
73.05074883454176
 31
0.0
  0
LINE
  5
1D6
330
1F
100
AcDbEntity
  8
0-0
  6
Continuous
 62
     3
370
     9
100
AcDbLine
 10
-399.7644152015637
 20
75.55073233855364
 30
0.0
 11
-397.7643591152039
 21
75.55073233855364
 31
0.0
  0
LINE
  5
1D7
330
1F
100
AcDbEntity
  8
0-0
  6
Continuous
 62
     3
370
     9
100
AcDbLine
 10
-694.2644341719501
 20
46.05075873213468
 30
0.0
 11
-103.2643525168085
 21
46.05075873213468
 31
0.0
  0
LINE
  5
1D8
330
1F
100
AcDbEntity
  8
0-0
  6
Continuous
 62
     3
370
     9
100
AcDbLine
 10
-694.2644341719501
 20
42.05074553534405
 30
0.0
 11
-103.2643525168085
 21
42.05074553534405
 31
0.0
  0
LINE
  5
1D9
330
1F
100
AcDbEntity
  8
0-0
  6
Continuous
 62
     3
370
     9
100
AcDbLine
 10
-684.2465978847351
 20
49.92027216646738
 30
0.0
 11
-113.2821516880501
 21
49.92027216646738
 31
0.0
  0
LINE
  5
1DA
330
1F
100
AcDbEntity
  8
0-0
  6
Continuous
 62
     3
370
     9
100
AcDbLine
 10
-683.6752098463061
 20
51.5702998797276
 30
0.0
 11
-113.8535397264792
 21
51.5702998797276
 31
0.0
  0
LINE
  5
1DB
330
1F
100
AcDbEntity
  8
0-0
  6
Continuous
 62
     3
370
     9
100
AcDbLine
 10
-694.2644341719501
 20
159.0506861497868
 30
0.0
 11
-688.7643912823808
 21
159.0506861497868
 31
0.0
  0
LINE
  5
1DC
330
1F
100
AcDbEntity
  8
0-0
  6
Continuous
 62
     3
370
     9
100
AcDbLine
 10
-691.2542297536646
 20
157.0507290393559
 30
0.0
 11
-690.2542017104847
 21
157.550755432937
 31
0.0
  0
LINE
  5
1DD
330
1F
100
AcDbEntity
  8
0-0
  6
Continuous
 62
     3
370
     9
100
AcDbLine
 10
-690.2542017104847
 20
157.550755432937
 30
0.0
 11
-687.2465954103369
 21
157.550755432937
 31
0.0
  0
LINE
  5
1DE
330
1F
100
AcDbEntity
  8
0-0
  6
Continuous
 62
     3
370
     9
100
AcDbLine
 10
-687.2465954103369
 20
157.550755432937
 30
0.0
 11
-690.2542017104847
 21
157.0507290393559
 31
0.0
  0
LINE
  5
1DF
330
1F
100
AcDbEntity
  8
0-0
  6
Continuous
 62
     3
370
     9
100
AcDbLine
 10
-690.2542017104847
 20
157.0507290393559
 30
0.0
 11
-691.2542297536646
 21
157.0507290393559
 31
0.0
  0
LINE
  5
1E0
330
1F
100
AcDbEntity
  8
0-0
  6
Continuous
 62
     3
370
     9
100
AcDbLine
 10
-691.2542297536646
 20
157.0507290393559
 30
0.0
 11
-691.2542297536646
 21
159.0506861497868
 31
0.0
  0
LINE
  5
1E1
330
1F
100
AcDbEntity
  8
0-0
  6
Continuous
 62
     3
370
     9
100
AcDbLine
 10
-688.2466110815257
 20
53.92028536325802
 30
0.0
 11
-688.2466110815257
 21
157.3845253600907
 31
0.0
  0
LINE
  5
1E2
330
1F
100
AcDbEntity
  8
0-0
  6
Continuous
 62
     3
370
     9
100
AcDbLine
 10
-694.2644341719501
 20
31.05075873213468
 30
0.0
 11
-103.2643525168085
 21
31.05075873213468
 31
0.0
  0
LINE
  5
1E3
330
1F
100
AcDbEntity
  8
0-0
  6
Continuous
 62
     3
370
     9
100
AcDbLine
 10
-698.2644349967495
 20
27.05074553534405
 30
0.0
 11
-99.26428983205342
 21
27.05074553534405
 31
0.0
  0
LINE
  5
1E4
330
1F
100
AcDbEntity
  8
0-0
  6
Continuous
 62
     3
370
     9
100
AcDbLine
 10
-681.2643789103897
 20
18.05066635460093
 30
0.0
 11
-656.2643706623955
 21
18.05066635460093
 31
0.0
  0
LINE
  5
1E5
330
1F
100
AcDbEntity
  8
0-0
  6
Continuous
 62
     3
370
     9
100
AcDbLine
 10
-656.2643706623955
 20
18.05066635460093
 30
0.0
 11
-656.2643706623955
 21
27.05074553534405
 31
0.0
  0
LINE
  5
1E6
330
1F
100
AcDbEntity
  8
0-0
  6
Continuous
 62
     3
370
     9
100
AcDbLine
 10
-656.2643706623955
 20
31.05075873213468
 30
0.0
 11
-656.2643706623955
 21
42.05074553534405
 31
0.0
  0
LINE
  5
1E7
330
1F
100
AcDbEntity
  8
0-0
  6
Continuous
 62
     3
370
     9
100
AcDbLine
 10
-681.2643789103897
 20
18.05066635460093
 30
0.0
 11
-681.2643789103897
 21
27.05074553534405
 31
0.0
  0
LINE
  5
1E8
330
1F
100
AcDbEntity
  8
0-0
  6
Continuous
 62
     3
370
     9
100
AcDbLine
 10
-681.2643789103897
 20
31.05075873213468
 30
0.0
 11
-681.2643789103897
 21
42.05074553534405
 31
0.0
  0
LINE
  5
1E9
330
1F
100
AcDbEntity
  8
0-0
  6
Continuous
 62
     3
370
     9
100
AcDbLine
 10
-546.2644036543719
 20
18.05066635460093
 30
0.0
 11
-521.2643459184134
 21
18.05066635460093
 31
0.0
  0
LINE
  5
1EA
330
1F
100
AcDbEntity
  8
0-0
  6
Continuous
 62
     3
370
     9
100
AcDbLine
 10
-521.2643459184134
 20
18.05066635460093
 30
0.0
 11
-521.2643459184134
 21
27.05074553534405
 31
0.0
  0
LINE
  5
1EB
330
1F
100
AcDbEntity
  8
0-0
  6
Continuous
 62
     3
370
     9
100
AcDbLine
 10
-521.2643459184134
 20
31.05075873213468
 30
0.0
 11
-521.2643459184134
 21
42.05074553534405
 31
0.0
  0
LINE
  5
1EC
330
1F
100
AcDbEntity
  8
0-0
  6
Continuous
 62
     3
370
     9
100
AcDbLine
 10
-546.2644036543719
 20
18.05066635460093
 30
0.0
 11
-546.2644036543719
 21
27.05074553534405
 31
0.0
  0
LINE
  5
1ED
330
1F
100
AcDbEntity
  8
0-0
  6
Continuous
 62
     3
370
     9
100
AcDbLine
 10
-546.2644036543719
 20
31.05075873213468
 30
0.0
 11
-546.2644036543719
 21
42.05074553534405
 31
0.0
  0
LINE
  5
1EE
330
1F
100
AcDbEntity
  8
0-0
  6
Continuous
 62
     3
370
     9
100
AcDbLine
 10
-411.2644283983542
 20
18.05066635460093
 30
0.0
 11
-411.2644283983542
 21
27.05074553534405
 31
0.0
  0
LINE
  5
1EF
330
1F
100
AcDbEntity
  8
0-0
  6
Continuous
 62
     3
370
     9
100
AcDbLine
 10
-411.2644283983542
 20
31.05075873213468
 30
0.0
 11
-411.2644283983542
 21
42.05074553534405
 31
0.0
  0
LINE
  5
1F0
330
1F
100
AcDbEntity
  8
0-0
  6
Continuous
 62
     3
370
     9
100
AcDbLine
 10
-411.2644283983542
 20
18.05066635460093
 30
0.0
 11
-386.2643954063778
 21
18.05066635460093
 31
0.0
  0
LINE
  5
1F1
330
1F
100
AcDbEntity
  8
0-0
  6
Continuous
 62
     3
370
     9
100
AcDbLine
 10
-165.2643591152038
 20
73.05074883454176
 30
0.0
 11
-172.2643822095873
 21
73.05074883454176
 31
0.0
  0
LINE
  5
1F2
330
1F
100
AcDbEntity
  8
0-0
  6
Continuous
 62
     3
370
     9
100
AcDbLine
 10
-167.7643426192156
 20
75.55073233855364
 30
0.0
 11
-169.76444819354
 21
75.55073233855364
 31
0.0
  0
LINE
  5
1F3
330
1F
100
AcDbEntity
  8
0-0
  6
Continuous
 62
     3
370
     9
100
AcDbLine
 10
-172.2643822095873
 20
73.05074883454176
 30
0.0
 11
-169.76444819354
 21
75.55073233855364
 31
0.0
  0
LINE
  5
1F4
330
1F
100
AcDbEntity
  8
0-0
  6
Continuous
 62
     3
370
     9
100
AcDbLine
 10
-165.2643591152038
 20
73.05074883454176
 30
0.0
 11
-167.7643426192156
 21
75.55073233855364
 31
0.0
  0
LINE
  5
1F5
330
1F
100
AcDbEntity
  8
0-0
  6
Continuous
 62
     3
370
     9
100
AcDbLine
 10
-280.2643921071802
 20
73.05074883454176
 30
0.0
 11
-287.2643657135991
 21
73.05074883454176
 31
0.0
  0
LINE
  5
1F6
330
1F
100
AcDbEntity
  8
0-0
  6
Continuous
 62
     3
370
     9
100
AcDbLine
 10
-282.764375611192
 20
75.55073233855364
 30
0.0
 11
-284.7643822095873
 21
75.55073233855364
 31
0.0
  0
LINE
  5
1F7
330
1F
100
AcDbEntity
  8
0-0
  6
Continuous
 62
     3
370
     9
100
AcDbLine
 10
-287.2643657135991
 20
73.05074883454176
 30
0.0
 11
-284.7643822095873
 21
75.55073233855364
 31
0.0
  0
LINE
  5
1F8
330
1F
100
AcDbEntity
  8
0-0
  6
Continuous
 62
     3
370
     9
100
AcDbLine
 10
-280.2643921071802
 20
73.05074883454176
 30
0.0
 11
-282.764375611192
 21
75.55073233855364
 31
0.0
  0
LINE
  5
1F9
330
1F
100
AcDbEntity
  8
0-0
  6
Continuous
 62
     3
370
     9
100
AcDbLine
 10
-395.264375611192
 20
73.05074883454176
 30
0.0
 11
-397.7643591152039
 21
75.55073233855364
 31
0.0
  0
LINE
  5
1FA
330
1F
100
AcDbEntity
  8
0-0
  6
Continuous
 62
     3
370
     9
100
AcDbLine
 10
-103.2643525168085
 20
159.0506861497868
 30
0.0
 11
-108.7643459184132
 21
159.0506861497868
 31
0.0
  0
LINE
  5
1FB
330
1F
100
AcDbEntity
  8
0-0
  6
Continuous
 62
     3
370
     9
100
AcDbLine
 10
-106.2745569350941
 20
157.0507290393559
 30
0.0
 11
-107.2745602342917
 21
157.550755432937
 31
0.0
  0
LINE
  5
1FC
330
1F
100
AcDbEntity
  8
0-0
  6
Continuous
 62
     3
370
     9
100
AcDbLine
 10
-107.2745602342917
 20
157.550755432937
 30
0.0
 11
-110.2821912784218
 21
157.550755432937
 31
0.0
  0
LINE
  5
1FD
330
1F
100
AcDbEntity
  8
0-0
  6
Continuous
 62
     3
370
     9
100
AcDbLine
 10
-110.2821912784218
 20
157.550755432937
 30
0.0
 11
-107.2745602342917
 21
157.0507290393559
 31
0.0
  0
LINE
  5
1FE
330
1F
100
AcDbEntity
  8
0-0
  6
Continuous
 62
     3
370
     9
100
AcDbLine
 10
-107.2745602342917
 20
157.0507290393559
 30
0.0
 11
-106.2745569350941
 21
157.0507290393559
 31
0.0
  0
LINE
  5
1FF
330
1F
100
AcDbEntity
  8
0-0
  6
Continuous
 62
     3
370
     9
100
AcDbLine
 10
-106.2745569350941
 20
157.0507290393559
 30
0.0
 11
-106.2745569350941
 21
159.0506861497868
 31
0.0
  0
LINE
  5
200
330
1F
100
AcDbEntity
  8
0-0
  6
Continuous
 62
     3
370
     9
100
AcDbLine
 10
-109.282187979224
 20
53.92028536325802
 30
0.0
 11
-109.282187979224
 21
157.3845253600907
 31
0.0
  0
LINE
  5
201
330
1F
100
AcDbEntity
  8
0-0
  6
Continuous
 62
     3
370
     9
100
AcDbLine
 10
-116.2643459184132
 20
18.05066635460093
 30
0.0
 11
-141.2644283983541
 21
18.05066635460093
 31
0.0
  0
LINE
  5
202
330
1F
100
AcDbEntity
  8
0-0
  6
Continuous
 62
     3
370
     9
100
AcDbLine
 10
-141.2644283983541
 20
18.05066635460093
 30
0.0
 11
-141.2644283983541
 21
27.05074553534405
 31
0.0
  0
LINE
  5
203
330
1F
100
AcDbEntity
  8
0-0
  6
Continuous
 62
     3
370
     9
100
AcDbLine
 10
-141.2644283983541
 20
31.05075873213468
 30
0.0
 11
-141.2644283983541
 21
42.05074553534405
 31
0.0
  0
LINE
  5
204
330
1F
100
AcDbEntity
  8
0-0
  6
Continuous
 62
     3
370
     9
100
AcDbLine
 10
-116.2643459184132
 20
18.05066635460093
 30
0.0
 11
-116.2643459184132
 21
27.05074553534405
 31
0.0
  0
LINE
  5
205
330
1F
100
AcDbEntity
  8
0-0
  6
Continuous
 62
     3
370
     9
100
AcDbLine
 10
-116.2643459184132
 20
31.05075873213468
 30
0.0
 11
-116.2643459184132
 21
42.05074553534405
 31
0.0
  0
LINE
  5
206
330
1F
100
AcDbEntity
  8
0-0
  6
Continuous
 62
     3
370
     9
100
AcDbLine
 10
-251.2643459184133
 20
18.05066635460093
 30
0.0
 11
-276.2644283983542
 21
18.05066635460093
 31
0.0
  0
LINE
  5
207
330
1F
100
AcDbEntity
  8
0-0
  6
Continuous
 62
     3
370
     9
100
AcDbLine
 10
-276.2644283983542
 20
18.05066635460093
 30
0.0
 11
-276.2644283983542
 21
27.05074553534405
 31
0.0
  0
LINE
  5
208
330
1F
100
AcDbEntity
  8
0-0
  6
Continuous
 62
     3
370
     9
100
AcDbLine
 10
-276.2644283983542
 20
31.05075873213468
 30
0.0
 11
-276.2644283983542
 21
42.05074553534405
 31
0.0
  0
LINE
  5
209
330
1F
100
AcDbEntity
  8
0-0
  6
Continuous
 62
     3
370
     9
100
AcDbLine
 10
-251.2643459184133
 20
18.05066635460093
 30
0.0
 11
-251.2643459184133
 21
27.05074553534405
 31
0.0
  0
LINE
  5
20A
330
1F
100
AcDbEntity
  8
0-0
  6
Continuous
 62
     3
370
     9
100
AcDbLine
 10
-251.2643459184133
 20
31.05075873213468
 30
0.0
 11
-251.2643459184133
 21
42.05074553534405
 31
0.0
  0
LINE
  5
20B
330
1F
100
AcDbEntity
  8
0-0
  6
Continuous
 62
     3
370
     9
100
AcDbLine
 10
-386.2643954063778
 20
18.05066635460093
 30
0.0
 11
-386.2643954063778
 21
27.05074553534405
 31
0.0
  0
LINE
  5
20C
330
1F
100
AcDbEntity
  8
0-0
  6
Continuous
 62
     3
370
     9
100
AcDbLine
 10
-386.2643954063778
 20
31.05075873213468
 30
0.0
 11
-386.2643954063778
 21
42.05074553534405
 31
0.0
  0
LINE
  5
20D
330
1F
100
AcDbEntity
  8
0-0
  6
Continuous
 62
     3
370
     9
100
AcDbLine
 10
408.7352086899058
 20
157.5507059449726
 30
0.0
 11
422.7352548786729
 21
158.5506597562057
 31
0.0
  0
LINE
  5
20E
330
1F
100
AcDbEntity
  8
0-0
  6
Continuous
 62
     3
370
     9
100
AcDbLine
 10
418.33577483222
 20
160.4507006662564
 30
0.0
 11
413.1356784956491
 21
160.4507006662564
 31
0.0
  0
LINE
  5
20F
330
1F
100
AcDbEntity
  8
0-0
  6
Continuous
 62
     3
370
     9
100
AcDbLine
 10
408.7352086899058
 20
157.0506795513913
 30
0.0
 11
422.7352548786729
 21
158.5506597562057
 31
0.0
  0
LINE
  5
210
330
1F
100
AcDbEntity
  8
0-0
  6
Continuous
 62
     3
370
     9
100
AcDbLine
 10
437.7357497583183
 20
73.05069934657718
 30
0.0
 11
447.7356837743654
 21
88.05069934657718
 31
0.0
  0
LINE
  5
211
330
1F
100
AcDbEntity
  8
0-0
  6
Continuous
 62
     3
370
     9
100
AcDbLine
 10
432.51655106744
 20
75.27666799100302
 30
0.0
 11
430.954908858825
 21
73.3245657422699
 31
0.0
  0
LINE
  5
212
330
1F
100
AcDbEntity
  8
0-0
  6
Continuous
 62
     3
370
     9
100
AcDbLine
 10
450.7357431599229
 20
50.7637945218305
 30
0.0
 11
450.7357431599229
 21
47.44740806701634
 31
0.0
  0
LINE
  5
213
330
1F
100
AcDbEntity
  8
0-0
  6
Continuous
 62
     3
370
     9
100
AcDbLine
 10
405.7357431599229
 20
42.05074553534405
 30
0.0
 11
405.7357431599229
 21
18.05066635460093
 31
0.0
  0
LINE
  5
214
330
1F
100
AcDbEntity
  8
0-0
  6
Continuous
 62
     3
370
     9
100
AcDbLine
 10
410.7357101679466
 20
46.05075873213468
 30
0.0
 11
410.7357101679466
 21
18.05066635460093
 31
0.0
  0
LINE
  5
215
330
1F
100
AcDbEntity
  8
0-0
  6
Continuous
 62
     3
370
     9
100
AcDbLine
 10
405.7357431599229
 20
27.05074553534405
 30
0.0
 11
390.7357431599229
 21
27.05074553534405
 31
0.0
  0
LINE
  5
216
330
1F
100
AcDbEntity
  8
0-0
  6
Continuous
 62
     3
370
     9
100
AcDbLine
 10
405.7357431599229
 20
31.05075873213468
 30
0.0
 11
390.7357431599229
 21
31.05075873213468
 31
0.0
  0
LINE
  5
217
330
1F
100
AcDbEntity
  8
0-0
  6
Continuous
 62
     3
370
     9
100
AcDbLine
 10
410.7357101679466
 20
42.05074553534405
 30
0.0
 11
390.7357431599229
 21
42.05074553534405
 31
0.0
  0
LINE
  5
218
330
1F
100
AcDbEntity
  8
0-0
  6
Continuous
 62
     3
370
     9
100
AcDbLine
 10
410.7357101679466
 20
46.05075873213468
 30
0.0
 11
390.7357431599229
 21
46.05075873213468
 31
0.0
  0
LINE
  5
219
330
1F
100
AcDbEntity
  8
0-0
  6
Continuous
 62
     3
370
     9
100
AcDbLine
 10
410.7357101679466
 20
18.05066635460093
 30
0.0
 11
405.7357431599229
 21
18.05066635460093
 31
0.0
  0
LINE
  5
21A
330
1F
100
AcDbEntity
  8
0-0
  6
Continuous
 62
     3
370
     9
100
AcDbLine
 10
427.03486821271
 20
51.29272188669552
 30
0.0
 11
408.7358025454804
 21
49.92027216646738
 31
0.0
  0
LINE
  5
21B
330
1F
100
AcDbEntity
  8
0-0
  6
Continuous
 62
     3
370
     9
100
AcDbLine
 10
441.1274568951425
 20
53.52888505181363
 30
0.0
 11
449.4638034956491
 21
52.24640445109571
 31
0.0
  0
LINE
  5
21C
330
1F
100
AcDbEntity
  8
0-0
  6
Continuous
 62
     3
370
     9
100
AcDbLine
 10
408.7358025454804
 20
159.0506861497868
 30
0.0
 11
408.7358025454804
 21
46.05075873213468
 31
0.0
  0
LINE
  5
21D
330
1F
100
AcDbEntity
  8
0-0
  6
Continuous
 62
     3
370
     9
100
AcDbLine
 10
419.73578934869
 20
159.0506861497868
 30
0.0
 11
391.735795947085
 21
159.0506861497868
 31
0.0
  0
LINE
  5
21E
330
1F
100
AcDbEntity
  8
0-0
  6
Continuous
 62
     3
370
     9
100
AcDbLine
 10
425.5362736709025
 20
39.05068614978677
 30
0.0
 11
425.5362736709025
 21
25.0506399610199
 31
0.0
  0
LINE
  5
21F
330
1F
100
AcDbEntity
  8
0-0
  6
Continuous
 62
     3
370
     9
100
AcDbLine
 10
425.5362736709025
 20
39.05068614978677
 30
0.0
 11
427.1362195640612
 21
37.57564787909405
 31
0.0
  0
LINE
  5
220
330
1F
100
AcDbEntity
  8
0-0
  6
Continuous
 62
     3
370
     9
100
AcDbLine
 10
425.5362736709025
 20
25.0506399610199
 30
0.0
 11
427.1362195640612
 21
26.52567823171239
 31
0.0
  0
LINE
  5
221
330
1F
100
AcDbEntity
  8
0-0
  6
Continuous
 62
     3
370
     9
100
AcDbLine
 10
425.5362736709025
 20
34.81313072326634
 30
0.0
 11
430.7361720556154
 21
34.81313072326634
 31
0.0
  0
LINE
  5
222
330
1F
100
AcDbEntity
  8
0-0
  6
Continuous
 62
     3
370
     9
100
AcDbLine
 10
425.5362736709025
 20
29.2881953875401
 30
0.0
 11
430.7361720556154
 21
29.2881953875401
 31
0.0
  0
LINE
  5
223
330
1F
100
AcDbEntity
  8
0-0
  6
Continuous
 62
     3
370
     9
100
AcDbLine
 10
424.7363502122879
 20
39.05068614978677
 30
0.0
 11
425.5362736709025
 21
39.05068614978677
 31
0.0
  0
LINE
  5
224
330
1F
100
AcDbEntity
  8
0-0
  6
Continuous
 62
     3
370
     9
100
AcDbLine
 10
427.1362195640612
 20
37.57564787909405
 30
0.0
 11
430.7361720556154
 21
37.57564787909405
 31
0.0
  0
LINE
  5
225
330
1F
100
AcDbEntity
  8
0-0
  6
Continuous
 62
     3
370
     9
100
AcDbLine
 10
430.7361720556154
 20
37.57564787909405
 30
0.0
 11
430.7361720556154
 21
26.52567823171239
 31
0.0
  0
LINE
  5
226
330
1F
100
AcDbEntity
  8
0-0
  6
Continuous
 62
     3
370
     9
100
AcDbLine
 10
434.7361852524058
 20
35.05067295299614
 30
0.0
 11
434.7361852524058
 21
29.05075213373948
 31
0.0
  0
LINE
  5
227
330
1F
100
AcDbEntity
  8
0-0
  6
Continuous
 62
     3
370
     9
100
AcDbLine
 10
434.7361852524058
 20
35.05067295299614
 30
0.0
 11
435.7362380395683
 21
34.05062016583406
 31
0.0
  0
LINE
  5
228
330
1F
100
AcDbEntity
  8
0-0
  6
Continuous
 62
     3
370
     9
100
AcDbLine
 10
435.7362380395683
 20
30.05070594497261
 30
0.0
 11
434.7361852524058
 21
29.05075213373948
 31
0.0
  0
LINE
  5
229
330
1F
100
AcDbEntity
  8
0-0
  6
Continuous
 62
     3
370
     9
100
AcDbLine
 10
427.1362195640612
 20
26.52567823171239
 30
0.0
 11
430.7361720556154
 21
26.52567823171239
 31
0.0
  0
LINE
  5
22A
330
1F
100
AcDbEntity
  8
0-0
  6
Continuous
 62
     3
370
     9
100
AcDbLine
 10
435.7362380395683
 20
34.05062016583406
 30
0.0
 11
435.7362380395683
 21
30.05070594497261
 31
0.0
  0
LINE
  5
22B
330
1F
100
AcDbEntity
  8
0-0
  6
Continuous
 62
     3
370
     9
100
AcDbLine
 10
430.7361720556154
 20
29.05075213373948
 30
0.0
 11
434.7361852524058
 21
29.05075213373948
 31
0.0
  0
LINE
  5
22C
330
1F
100
AcDbEntity
  8
0-0
  6
Continuous
 62
     3
370
     9
100
AcDbLine
 10
435.7362380395683
 20
30.05070594497261
 30
0.0
 11
430.7361720556154
 21
30.05070594497261
 31
0.0
  0
LINE
  5
22D
330
1F
100
AcDbEntity
  8
0-0
  6
Continuous
 62
     3
370
     9
100
AcDbLine
 10
430.7361720556154
 20
34.05062016583406
 30
0.0
 11
435.7362380395683
 21
34.05062016583406
 31
0.0
  0
LINE
  5
22E
330
1F
100
AcDbEntity
  8
0-0
  6
Continuous
 62
     3
370
     9
100
AcDbLine
 10
430.7361720556154
 20
35.05067295299614
 30
0.0
 11
434.7361852524058
 21
35.05067295299614
 31
0.0
  0
LINE
  5
22F
330
1F
100
AcDbEntity
  8
0-0
  6
Continuous
 62
     3
370
     9
100
AcDbLine
 10
410.7357101679466
 20
36.5506531578103
 30
0.0
 11
424.7363502122879
 21
36.5506531578103
 31
0.0
  0
LINE
  5
230
330
1F
100
AcDbEntity
  8
0-0
  6
Continuous
 62
     3
370
     9
100
AcDbLine
 10
410.7357101679466
 20
27.55057397706719
 30
0.0
 11
424.7363502122879
 21
27.55057397706719
 31
0.0
  0
LINE
  5
231
330
1F
100
AcDbEntity
  8
0-0
  6
Continuous
 62
     3
370
     9
100
AcDbLine
 10
410.7357101679466
 20
29.05075213373948
 30
0.0
 11
424.7363502122879
 21
29.05075213373948
 31
0.0
  0
LINE
  5
232
330
1F
100
AcDbEntity
  8
0-0
  6
Continuous
 62
     3
370
     9
100
AcDbLine
 10
424.7363502122879
 20
30.05070594497261
 30
0.0
 11
410.7357101679466
 21
30.05070594497261
 31
0.0
  0
LINE
  5
233
330
1F
100
AcDbEntity
  8
0-0
  6
Continuous
 62
     3
370
     9
100
AcDbLine
 10
424.7363502122879
 20
34.05062016583406
 30
0.0
 11
410.7357101679466
 21
34.05062016583406
 31
0.0
  0
LINE
  5
234
330
1F
100
AcDbEntity
  8
0-0
  6
Continuous
 62
     3
370
     9
100
AcDbLine
 10
410.7357101679466
 20
35.05067295299614
 30
0.0
 11
424.7363502122879
 21
35.05067295299614
 31
0.0
  0
LINE
  5
235
330
1F
100
AcDbEntity
  8
0-0
  6
Continuous
 62
     3
370
     9
100
AcDbLine
 10
424.7363502122879
 20
25.0506399610199
 30
0.0
 11
425.5362736709025
 21
25.0506399610199
 31
0.0
  0
LINE
  5
236
330
1F
100
AcDbEntity
  8
0-0
  6
Continuous
 62
     3
370
     9
100
AcDbLine
 10
449.3425579825579
 20
45.95118894750635
 30
0.0
 11
428.4513127334025
 21
44.45892886515821
 31
0.0
  0
LINE
  5
237
330
1F
100
AcDbEntity
  8
0-0
  6
Continuous
 62
     3
370
     9
100
AcDbLine
 10
423.4222468022371
 20
21.88647848509072
 30
0.0
 11
410.7357101679466
 21
20.30078512571572
 31
0.0
  0
LINE
  5
238
330
1F
100
AcDbEntity
  8
0-0
  6
Continuous
 62
     3
370
     9
100
AcDbLine
 10
424.7363502122879
 20
23.3748785062055
 30
0.0
 11
424.7363502122879
 21
40.46920916498948
 31
0.0
  0
LINE
  5
239
330
1F
100
AcDbEntity
  8
0-0
  6
JWW_CENTER1
 62
     3
370
     9
100
AcDbLine
 10
467.7357497583183
 20
163.0506993465772
 30
0.0
 11
370.73567717597
 21
163.0506993465772
 31
0.0
  0
LINE
  5
23A
330
1F
100
AcDbEntity
  8
0-0
  6
JWW_CENTER1
 62
     3
370
     9
100
AcDbLine
 10
-718.2644391207466
 20
163.0506993465772
 30
0.0
 11
150.7355452080648
 21
163.0506993465772
 31
0.0
  0
LINE
  5
23B
330
1F
100
AcDbEntity
  8
0-0
  6
JWW_CENTER1
 62
     3
370
     9
100
AcDbLine
 10
401.7355320112741
 20
294.0507851257157
 30
0.0
 11
439.7363502122879
 21
294.0507851257157
 31
0.0
  0
LINE
  5
23C
330
1F
100
AcDbEntity
  8
0-0
  6
JWW_CENTER1
 62
     3
370
     9
100
AcDbLine
 10
401.7355320112741
 20
32.05061356743863
 30
0.0
 11
439.7363502122879
 21
32.05061356743863
 31
0.0
  0
LINE
  5
23D
330
1F
100
AcDbEntity
  8
0-0
  6
JWW_PHANTOM2
 62
     3
370
     9
100
AcDbLine
 10
-98.26428653285582
 20
27.05074553534405
 30
0.0
 11
130.7355782000412
 21
27.05074553534405
 31
0.0
  0
LINE
  5
23E
330
1F
100
AcDbEntity
  8
0-0
  6
JWW_PHANTOM2
 62
     3
370
     9
100
AcDbLine
 10
-98.26428653285582
 20
299.0506531578103
 30
0.0
 11
130.7355782000412
 21
299.0506531578103
 31
0.0
  0
LINE
  5
23F
330
1F
100
AcDbEntity
  8
0-0
  6
JWW_PHANTOM2
 62
     3
370
     9
100
AcDbLine
 10
-98.26428653285582
 20
27.05074553534405
 30
0.0
 11
-98.26428653285582
 21
299.0506531578103
 31
0.0
  0
LINE
  5
240
330
1F
100
AcDbEntity
  8
0-1
  6
JWW_DASHED3
 62
     2
370
     9
100
AcDbLine
 10
-698.2644349967495
 20
263.05058387466
 30
0.0
 11
-99.26428983205342
 21
263.05058387466
 31
0.0
  0
LINE
  5
241
330
1F
100
AcDbEntity
  8
0-1
  6
Continuous
 62
     2
370
     9
100
AcDbLine
 10
-99.26428983205342
 20
263.05058387466
 30
0.0
 11
130.7355782000412
 21
263.05058387466
 31
0.0
  0
LINE
  5
242
330
1F
100
AcDbEntity
  8
0-1
  6
JWW_DASHED3
 62
     2
370
     9
100
AcDbLine
 10
-698.2644349967495
 20
63.05061686663635
 30
0.0
 11
-99.26428983205342
 21
63.05061686663635
 31
0.0
  0
LINE
  5
243
330
1F
100
AcDbEntity
  8
0-1
  6
Continuous
 62
     2
370
     9
100
AcDbLine
 10
-99.26428983205342
 20
63.05061686663635
 30
0.0
 11
130.7355782000412
 21
63.05061686663635
 31
0.0
  0
ARC
  5
244
330
1F
100
AcDbEntity
  8
0-0
  6
Continuous
 62
     3
370
     9
100
AcDbCircle
 10
426.7358619310379
 20
270.819897377616
 30
0.0
 40
4.000000051549963
100
AcDbArc
 50
0.0
 51
85.71116638183594
  0
CIRCLE
  5
245
330
1F
100
AcDbEntity
  8
0-0
  6
Continuous
 62
     3
370
     9
100
AcDbCircle
 10
415.7357761518991
 20
163.0506993465772
 30
0.0
 40
2.000000025774982
  0
ARC
  5
246
330
1F
100
AcDbEntity
  8
0-0
  6
Continuous
 62
     3
370
     9
100
AcDbCircle
 10
431.7355320112741
 20
250.2000441259269
 30
0.0
 40
1.000000012887491
100
AcDbArc
 50
0.0
 51
38.66105651855469
  0
ARC
  5
247
330
1F
100
AcDbEntity
  8
0-0
  6
Continuous
 62
     3
370
     9
100
AcDbCircle
 10
431.7358289390612
 20
253.4015690150738
 30
0.0
 40
1.000000012887491
100
AcDbArc
 50
180.0
 51
218.6610565185547
  0
ARC
  5
248
330
1F
100
AcDbEntity
  8
0-0
  6
Continuous
 62
     3
370
     9
100
AcDbCircle
 10
449.2356639791795
 20
278.653990626138
 30
0.0
 40
1.500000019331236
100
AcDbArc
 50
0.0
 51
85.91419982910156
  0
ARC
  5
249
330
1F
100
AcDbEntity
  8
0-0
  6
Continuous
 62
     3
370
     9
100
AcDbCircle
 10
449.2356639791795
 20
275.3376041713238
 30
0.0
 40
1.500000019331236
100
AcDbArc
 50
278.7463684082031
 51
0.0
  0
ARC
  5
24A
330
1F
100
AcDbEntity
  8
0-0
  6
Continuous
 62
     3
370
     9
100
AcDbCircle
 10
441.7358619310379
 20
268.6190191312056
 30
0.0
 40
4.000000051549963
100
AcDbArc
 50
98.74600219726562
 51
180.0
  0
ARC
  5
24B
330
1F
100
AcDbEntity
  8
0-0
  6
Continuous
 62
     3
370
     9
100
AcDbCircle
 10
-684.2465978847351
 20
272.1811133298964
 30
0.0
 40
4.000000051549963
100
AcDbArc
 50
90.0
 51
180.0
  0
ARC
  5
24C
330
1F
100
AcDbEntity
  8
0-0
  6
Continuous
 62
     3
370
     9
100
AcDbCircle
 10
-683.6752098463061
 20
271.5310889158339
 30
0.0
 40
3.000000038662472
100
AcDbArc
 50
90.0
 51
180.0
  0
ARC
  5
24D
330
1F
100
AcDbEntity
  8
0-0
  6
Continuous
 62
     3
370
     9
100
AcDbCircle
 10
428.7362644331491
 20
285.632189528165
 30
0.0
 40
4.000000051549963
100
AcDbArc
 50
180.0
 51
265.9141693115234
  0
ARC
  5
24E
330
1F
100
AcDbEntity
  8
0-0
  6
Continuous
 62
     3
370
     9
100
AcDbCircle
 10
423.2361720556154
 20
302.7265201869488
 30
0.0
 40
1.500000019331236
100
AcDbArc
 50
0.0
 51
82.87332153320312
  0
ARC
  5
24F
330
1F
100
AcDbEntity
  8
0-0
  6
Continuous
 62
     3
370
     9
100
AcDbCircle
 10
-113.2822011760146
 20
272.1811133298964
 30
0.0
 40
4.000000051549963
100
AcDbArc
 50
0.0
 51
90.0
  0
ARC
  5
250
330
1F
100
AcDbEntity
  8
0-0
  6
Continuous
 62
     3
370
     9
100
AcDbCircle
 10
-113.8535397264792
 20
271.5310889158339
 30
0.0
 40
3.000000038662472
100
AcDbArc
 50
0.0
 51
90.0
  0
ARC
  5
251
330
1F
100
AcDbEntity
  8
0-0
  6
Continuous
 62
     3
370
     9
100
AcDbCircle
 10
-684.2465978847351
 20
53.92028536325802
 30
0.0
 40
4.000000051549963
100
AcDbArc
 50
180.0
 51
270.0
  0
ARC
  5
252
330
1F
100
AcDbEntity
  8
0-0
  6
Continuous
 62
     3
370
     9
100
AcDbCircle
 10
-683.6752098463061
 20
54.57030977732052
 30
0.0
 40
3.000000038662472
100
AcDbArc
 50
180.0
 51
270.0
  0
ARC
  5
253
330
1F
100
AcDbEntity
  8
0-0
  6
Continuous
 62
     3
370
     9
100
AcDbCircle
 10
-113.2822011760146
 20
53.92028536325802
 30
0.0
 40
4.000000051549963
100
AcDbArc
 50
270.0
 51
0.0
  0
ARC
  5
254
330
1F
100
AcDbEntity
  8
0-0
  6
Continuous
 62
     3
370
     9
100
AcDbCircle
 10
-113.8535397264792
 20
54.57030977732052
 30
0.0
 40
3.000000038662472
100
AcDbArc
 50
270.0
 51
0.0
  0
ARC
  5
255
330
1F
100
AcDbEntity
  8
0-0
  6
Continuous
 62
     3
370
     9
100
AcDbCircle
 10
426.7358619310379
 20
55.28150131553843
 30
0.0
 40
4.000000051549963
100
AcDbArc
 50
274.2888336181641
 51
0.0
  0
ARC
  5
256
330
1F
100
AcDbEntity
  8
0-0
  6
Continuous
 62
     3
370
     9
100
AcDbCircle
 10
431.7355320112741
 20
75.9013545672276
 30
0.0
 40
1.000000012887491
100
AcDbArc
 50
321.3389434814453
 51
0.0000000000000127
  0
ARC
  5
257
330
1F
100
AcDbEntity
  8
0-0
  6
Continuous
 62
     3
370
     9
100
AcDbCircle
 10
431.7358289390612
 20
72.6998296780805
 30
0.0
 40
1.000000012887491
100
AcDbArc
 50
141.3389434814453
 51
180.0
  0
ARC
  5
258
330
1F
100
AcDbEntity
  8
0-0
  6
Continuous
 62
     3
370
     9
100
AcDbCircle
 10
449.2356639791795
 20
47.44740806701634
 30
0.0
 40
1.500000019331236
100
AcDbArc
 50
274.0858001708984
 51
0.0000000000000254
  0
ARC
  5
259
330
1F
100
AcDbEntity
  8
0-0
  6
Continuous
 62
     3
370
     9
100
AcDbCircle
 10
449.2356639791795
 20
50.7637945218305
 30
0.0
 40
1.500000019331236
100
AcDbArc
 50
0.0
 51
81.25363159179688
  0
ARC
  5
25A
330
1F
100
AcDbEntity
  8
0-0
  6
Continuous
 62
     3
370
     9
100
AcDbCircle
 10
441.7358619310379
 20
57.48237956194885
 30
0.0
 40
4.000000051549963
100
AcDbArc
 50
180.0
 51
261.2539978027344
  0
ARC
  5
25B
330
1F
100
AcDbEntity
  8
0-0
  6
Continuous
 62
     3
370
     9
100
AcDbCircle
 10
428.7362644331491
 20
40.46920916498948
 30
0.0
 40
4.000000051549963
100
AcDbArc
 50
94.08583068847656
 51
180.0
  0
ARC
  5
25C
330
1F
100
AcDbEntity
  8
0-0
  6
Continuous
 62
     3
370
     9
100
AcDbCircle
 10
423.2361720556154
 20
23.3748785062055
 30
0.0
 40
1.500000019331236
100
AcDbArc
 50
277.1266784667969
 51
0.0000000000000127
  0
TEXT
  5
25D
330
1F
100
AcDbEntity
  8
0-F
  6
Continuous
 62
     2
370
     9
100
AcDbText
 10
-411.7644613903306
 20
-57.69344251892116
 30
0.0
 40
12.192
  1
591
 41
1.083333333333333
  7
ＭＳ ゴシック
100
AcDbText
  0
TEXT
  5
25E
330
1F
100
AcDbEntity
  8
0-F
  6
Continuous
 62
     2
370
     9
100
AcDbText
 10
-411.7644613903306
 20
-97.69342602293304
 30
0.0
 40
12.192
  1
599
 41
1.083333333333333
  7
ＭＳ ゴシック
100
AcDbText
  0
TEXT
  5
25F
330
1F
100
AcDbEntity
  8
0-F
  6
Continuous
 62
     2
370
     9
100
AcDbText
 10
-80.83557724495456
 20
-97.69342602293304
 30
0.0
 40
12.192
  1
1
  7
ＭＳ ゴシック
100
AcDbText
  0
TEXT
  5
260
330
1F
100
AcDbEntity
  8
0-F
  6
Continuous
 62
     2
370
     9
100
AcDbText
 10
99.7626382190446
 20
-97.69342602293304
 30
0.0
 40
12.192
  1
599
 41
1.083333333333333
  7
ＭＳ ゴシック
100
AcDbText
  0
TEXT
  5
261
330
1F
100
AcDbEntity
  8
0-F
  6
Continuous
 62
     2
370
     9
100
AcDbText
 10
326.4796379571455
 20
23.55066295679034
 30
0.0
 40
12.192
  1
28
 50
90.00000250447789
 41
1.062500000000001
  7
ＭＳ ゴシック
100
AcDbText
  0
TEXT
  5
262
330
1F
100
AcDbEntity
  8
0-F
  6
Continuous
 62
     2
370
     9
100
AcDbText
 10
286.4796047684681
 20
303.1339182091131
 30
0.0
 40
12.192
  1
2
 50
90.00000250448173
 41
1.000000000000001
  7
ＭＳ ゴシック
100
AcDbText
  0
TEXT
  5
263
330
1F
100
AcDbEntity
  8
0-F
  6
Continuous
 62
     2
370
     9
100
AcDbText
 10
286.4796047684681
 20
15.24429121639793
 30
0.0
 40
12.192
  1
2
 50
90.00000250448173
 41
1.000000000000001
  7
ＭＳ ゴシック
100
AcDbText
  0
TEXT
  5
264
330
1F
100
AcDbEntity
  8
0-F
  6
Continuous
 62
     2
370
     9
100
AcDbText
 10
399.9997944426508
 20
121.3020012891449
 30
0.0
 40
12.192
  1
40
 41
1.0625
  7
ＭＳ ゴシック
100
AcDbText
  0
TEXT
  5
265
330
1F
100
AcDbEntity
  8
0-F
  6
Continuous
 62
     2
370
     9
100
AcDbText
 10
452.4901046991966
 20
140.5259970133847
 30
0.0
 40
12.192
  1
7
  7
ＭＳ ゴシック
100
AcDbText
  0
TEXT
  5
266
330
1F
100
AcDbEntity
  8
0-F
  6
Continuous
 62
     2
370
     9
100
AcDbText
 10
326.4796377604439
 20
278.0506712047844
 30
0.0
 40
12.192
  1
4
 50
90.00000250447522
 41
1.000000000000001
  7
ＭＳ ゴシック
100
AcDbText
  0
TEXT
  5
267
330
1F
100
AcDbEntity
  8
0-F
  6
Continuous
 62
     2
370
     9
100
AcDbText
 10
308.6148786666051
 20
281.0506959487668
 30
0.0
 40
12.192
  1
11
 50
90.00000250448097
 41
1.062500000000001
  7
ＭＳ ゴシック
100
AcDbText
  0
TEXT
  5
268
330
1F
100
AcDbEntity
  8
0-F
  6
Continuous
 62
     2
370
     9
100
AcDbText
 10
326.4796377604439
 20
293.0506464608021
 30
0.0
 40
12.192
  1
4
 50
90.00000250447522
 41
1.000000000000001
  7
ＭＳ ゴシック
100
AcDbText
  0
TEXT
  5
269
330
1F
100
AcDbEntity
  8
0-F
  6
Continuous
 62
     2
370
     9
100
AcDbText
 10
286.4796047684681
 20
-8.683684000029352
 30
0.0
 40
12.192
  1
3
 50
90.00000250448173
 41
1.000000000000001
  7
ＭＳ ゴシック
100
AcDbText
  0
TEXT
  5
26A
330
1F
100
AcDbEntity
  8
0-F
  6
Continuous
 62
     2
370
     9
100
AcDbText
 10
326.4796377604439
 20
321.7532699827615
 30
0.0
 40
12.192
  1
9
 50
90.00000250447522
 41
1.000000000000001
  7
ＭＳ ゴシック
100
AcDbText
  0
TEXT
  5
26B
330
1F
100
AcDbEntity
  8
0-F
  6
Continuous
 62
     2
370
     9
100
AcDbText
 10
286.4796047684681
 20
326.7848103121538
 30
0.0
 40
12.192
  1
3
 50
90.00000250448173
 41
1.000000000000001
  7
ＭＳ ゴシック
100
AcDbText
  0
TEXT
  5
26C
330
1F
100
AcDbEntity
  8
0-F
  6
Continuous
 62
     2
370
     9
100
AcDbText
 10
457.8468700338672
 20
121.3020012891449
 30
0.0
 40
12.192
  1
10
 41
1.062499999999986
  7
ＭＳ ゴシック
100
AcDbText
  0
TEXT
  5
26D
330
1F
100
AcDbEntity
  8
0-F
  6
Continuous
 62
     2
370
     9
100
AcDbText
 10
246.4795721698941
 20
150.0505507840707
 30
0.0
 40
12.192
  1
300
 50
90.00000250447873
 41
1.083333333333334
  7
ＭＳ ゴシック
100
AcDbText
  0
TEXT
  5
26E
330
1F
100
AcDbEntity
  8
0-F
  6
Continuous
 62
     2
370
     9
100
AcDbText
 10
286.4796051618703
 20
150.0506002720353
 30
0.0
 40
12.192
  1
290
 50
90.00000250447873
 41
1.083333333333334
  7
ＭＳ ゴシック
100
AcDbText
  0
TEXT
  5
26F
330
1F
100
AcDbEntity
  8
0-F
  6
Continuous
 62
     2
370
     9
100
AcDbText
 10
326.4796381538467
 20
150.0506497599999
 30
0.0
 40
12.192
  1
234
 50
90.00000250447873
 41
1.083333333333334
  7
ＭＳ ゴシック
100
AcDbText
  0
LWPOLYLINE
  5
270
330
1F
100
AcDbEntity
  8
0-F
  6
Continuous
 62
     7
370
     9
100
AcDbPolyline
 90
        4
 70
     1
 43
0.4
 10
290.9356111920175
 20
310.0506399610198
 42
0.4142135623731
 10
290.7356111920175
 20
310.2506399610198
 42
0.4142135623731
 10
290.5356111920175
 20
310.0506399610198
 42
0.4142135623731
 10
290.7356111920175
 20
309.8506399610198
 42
0.4142135623731
  0
LWPOLYLINE
  5
271
330
1F
100
AcDbEntity
  8
0-F
  6
Continuous
 62
     7
370
     9
100
AcDbPolyline
 90
        4
 70
     1
 43
0.4
 10
290.9356111920175
 20
16.05056078027656
 42
0.4142135623731
 10
290.7356111920175
 20
16.25056078027655
 42
0.4142135623731
 10
290.5356111920175
 20
16.05056078027656
 42
0.4142135623731
 10
290.7356111920175
 20
15.85056078027656
 42
0.4142135623731
  0
LWPOLYLINE
  5
272
330
1F
100
AcDbEntity
  8
0-F
  6
Continuous
 62
     7
370
     9
100
AcDbPolyline
 90
        4
 70
     1
 43
0.4
 10
437.9357497583183
 20
117.0459946907495
 42
0.4142135623731
 10
437.7357497583183
 20
117.2459946907495
 42
0.4142135623731
 10
437.5357497583183
 20
117.0459946907495
 42
0.4142135623731
 10
437.7357497583183
 20
116.8459946907495
 42
0.4142135623731
  0
LWPOLYLINE
  5
273
330
1F
100
AcDbEntity
  8
0-F
  6
Continuous
 62
     7
370
     9
100
AcDbPolyline
 90
        4
 70
     1
 43
0.4
 10
330.9356441839937
 20
284.0506531578103
 42
0.4142135623731
 10
330.7356441839937
 20
284.2506531578103
 42
0.4142135623731
 10
330.5356441839937
 20
284.0506531578103
 42
0.4142135623731
 10
330.7356441839937
 20
283.8506531578103
 42
0.4142135623731
  0
LWPOLYLINE
  5
274
330
1F
100
AcDbEntity
  8
0-F
  6
Continuous
 62
     7
370
     9
100
AcDbPolyline
 90
        4
 70
     1
 43
0.4
 10
330.9356441839937
 20
295.0506399610198
 42
0.4142135623731
 10
330.7356441839937
 20
295.2506399610198
 42
0.4142135623731
 10
330.5356441839937
 20
295.0506399610198
 42
0.4142135623731
 10
330.7356441839937
 20
294.8506399610198
 42
0.4142135623731
  0
LWPOLYLINE
  5
275
330
1F
100
AcDbEntity
  8
0-F
  6
Continuous
 62
     7
370
     9
100
AcDbPolyline
 90
        4
 70
     1
 43
0.4
 10
330.9356441839937
 20
299.0506531578103
 42
0.4142135623731
 10
330.7356441839937
 20
299.2506531578103
 42
0.4142135623731
 10
330.5356441839937
 20
299.0506531578103
 42
0.4142135623731
 10
330.7356441839937
 20
298.8506531578103
 42
0.4142135623731
  0
TEXT
  5
276
330
1F
100
AcDbEntity
  8
0-5
  6
Continuous
 62
     2
370
     9
100
AcDbText
 10
340.8585012560083
 20
-431.743715914372
 30
0.0
 40
12.192
  1
蓋 質 量：１３．０ｋｇ
 41
1.113636363636364
  7
ＭＳ ゴシック
100
AcDbText
  0
TEXT
  5
277
330
1F
100
AcDbEntity
  8
0-5
  6
Continuous
 62
     2
370
     9
100
AcDbText
 10
340.8582934065572
 20
-407.7436862215933
 30
0.0
 40
12.192
  1
接触圧子：２００×１６０ｍｍ
 41
1.116071428571429
  7
ＭＳ ゴシック
100
AcDbText
  0
LINE
  5
278
330
1F
100
AcDbEntity
  8
0-F
  6
Continuous
 62
     7
370
     9
100
AcDbLine
 10
-699.2644382959471
 20
317.0506135674385
 30
0.0
 11
-699.2644382959471
 21
429.2506175264758
 31
0.0
  0
LINE
  5
279
330
1F
100
AcDbEntity
  8
0-F
  6
Continuous
 62
     7
370
     9
100
AcDbLine
 10
-699.2644382959471
 20
388.0506003706481
 30
0.0
 11
-687.3671357199338
 21
389.6168944479285
 31
0.0
  0
LINE
  5
27A
330
1F
100
AcDbEntity
  8
0-F
  6
Continuous
 62
     7
370
     9
100
AcDbLine
 10
-699.2644382959471
 20
388.0506003706481
 30
0.0
 11
-687.3671357199338
 21
386.4843062933677
 31
0.0
  0
LINE
  5
27B
330
1F
100
AcDbEntity
  8
0-F
  6
Continuous
 62
     7
370
     9
100
AcDbLine
 10
-587.3671522159221
 20
386.4843062933677
 30
0.0
 11
-611.161856343878
 21
389.6168944479285
 31
0.0
  0
LINE
  5
27C
330
1F
100
AcDbEntity
  8
0-F
  6
Continuous
 62
     7
370
     9
100
AcDbLine
 10
-587.3671522159221
 20
389.6168944479285
 30
0.0
 11
-611.161856343878
 21
386.4843062933677
 31
0.0
  0
LINE
  5
27D
330
1F
100
AcDbEntity
  8
0-F
  6
Continuous
 62
     7
370
     9
100
AcDbLine
 10
12.63284778407829
 20
386.4843062933677
 30
0.0
 11
-11.16175736794879
 21
389.6168944479285
 31
0.0
  0
LINE
  5
27E
330
1F
100
AcDbEntity
  8
0-F
  6
Continuous
 62
     7
370
     9
100
AcDbLine
 10
12.63284778407829
 20
389.6168944479285
 30
0.0
 11
-11.16175736794879
 21
386.4843062933677
 31
0.0
  0
LINE
  5
27F
330
1F
100
AcDbEntity
  8
0-F
  6
Continuous
 62
     7
370
     9
100
AcDbLine
 10
-699.2644382959471
 20
428.0506333626244
 30
0.0
 11
-687.3671357199338
 21
429.6169274399048
 31
0.0
  0
LINE
  5
280
330
1F
100
AcDbEntity
  8
0-F
  6
Continuous
 62
     7
370
     9
100
AcDbLine
 10
-699.2644382959471
 20
428.0506333626244
 30
0.0
 11
-687.3671357199338
 21
426.4843392853439
 31
0.0
  0
LINE
  5
281
330
1F
100
AcDbEntity
  8
0-F
  6
Continuous
 62
     7
370
     9
100
AcDbLine
 10
-699.2644382959471
 20
388.0506003706481
 30
0.0
 11
130.735578200041
 21
388.0506003706481
 31
0.0
  0
LINE
  5
282
330
1F
100
AcDbEntity
  8
0-F
  6
Continuous
 62
     7
370
     9
100
AcDbLine
 10
-699.2644382959471
 20
428.0506333626244
 30
0.0
 11
130.735578200041
 21
428.0506333626244
 31
0.0
  0
TEXT
  5
283
330
1F
100
AcDbEntity
  8
0-F
  6
Continuous
 62
     2
370
     9
100
AcDbText
 10
-661.7644820103161
 20
392.3066069690433
 30
0.0
 40
12.192
  1
100
 41
1.083333333333333
  7
ＭＳ ゴシック
100
AcDbText
  0
TEXT
  5
284
330
1F
100
AcDbEntity
  8
0-F
  6
Continuous
 62
     2
370
     9
100
AcDbText
 10
-311.7644283983542
 20
392.3066069690433
 30
0.0
 40
12.192
  1
600
 41
1.083333333333333
  7
ＭＳ ゴシック
100
AcDbText
  0
TEXT
  5
285
330
1F
100
AcDbEntity
  8
0-F
  6
Continuous
 62
     2
370
     9
100
AcDbText
 10
104.7355847984364
 20
392.3066069690433
 30
0.0
 40
12.192
  1
600
 41
1.083333333333334
  7
ＭＳ ゴシック
100
AcDbText
  0
TEXT
  5
286
330
1F
100
AcDbEntity
  8
0-F
  6
Continuous
 62
     2
370
     9
100
AcDbText
 10
-171.2468024349886
 20
432.3066399610198
 30
0.0
 40
12.192
  1
2000
 41
1.09375
  7
ＭＳ ゴシック
100
AcDbText
  0
TEXT
  5
287
330
1F
100
AcDbEntity
  8
0-5
  6
Continuous
 62
     2
370
     9
100
AcDbText
 10
-580.2867718397894
 20
366.8999808605131
 30
0.0
 40
12.192
  1
φ8.5
 41
1.1
  7
ＭＳ ゴシック
100
AcDbText
  0
LINE
  5
288
330
1F
100
AcDbEntity
  8
0-5
  6
Continuous
 62
     7
370
     9
100
AcDbLine
 10
-582.1786005377891
 20
362.6440732380469
 30
0.0
 11
-534.3949431417897
 21
362.6440732380469
 31
0.0
  0
LINE
  5
289
330
1F
100
AcDbEntity
  8
0-5
  6
Continuous
 62
     7
370
     9
100
AcDbLine
 10
-597.139438469928
 20
336.731141815778
 30
0.0
 11
-582.1786005377891
 21
362.6440732380469
 31
0.0
  0
LINE
  5
28A
330
1F
100
AcDbEntity
  8
0-5
  6
Continuous
 62
     7
370
     9
100
AcDbLine
 10
-597.139438469928
 20
336.731141815778
 30
0.0
 11
-591.051824179841
 21
344.6646752186904
 31
0.0
  0
LINE
  5
28B
330
1F
100
AcDbEntity
  8
0-5
  6
Continuous
 62
     7
370
     9
100
AcDbLine
 10
-597.139438469928
 20
336.731141815778
 30
0.0
 11
-593.3126041462775
 21
345.9699371408907
 31
0.0
  0
ARC
  5
28C
330
1F
100
AcDbEntity
  8
0-1
  6
Continuous
 62
     2
370
     9
100
AcDbCircle
 10
-591.7644281626973
 20
312.0505850529447
 30
0.0
 40
1.999999824868206
100
AcDbArc
 50
90.0
 51
149.9994903964416
  0
ARC
  5
28D
330
1F
100
AcDbEntity
  8
0-1
  6
Continuous
 62
     2
370
     9
100
AcDbCircle
 10
-606.7644484291969
 20
312.0505850529447
 30
0.0
 40
1.999999824868206
100
AcDbArc
 50
30.00050960355836
 51
89.99999999999999
  0
LINE
  5
28E
330
1F
100
AcDbEntity
  8
0-1
  6
JWW_CENTER2
 62
     2
370
     9
100
AcDbLine
 10
-599.2644382959471
 20
333.0505341510383
 30
0.0
 11
-605.0405143292556
 21
333.0505341510383
 31
0.0
  0
LINE
  5
28F
330
1F
100
AcDbEntity
  8
0-1
  6
JWW_CENTER2
 62
     2
370
     9
100
AcDbLine
 10
-599.2644382959471
 20
333.0505341510383
 30
0.0
 11
-593.4883622626377
 21
333.0505341510383
 31
0.0
  0
LINE
  5
290
330
1F
100
AcDbEntity
  8
0-1
  6
Continuous
 62
     2
370
     9
100
AcDbLine
 10
-608.0144170868199
 20
314.0505943613952
 30
0.0
 11
-608.0144170868199
 21
343.0505806932905
 31
0.0
  0
LINE
  5
291
330
1F
100
AcDbEntity
  8
0-1
  6
Continuous
 62
     2
370
     9
100
AcDbLine
 10
-599.2644382959471
 20
343.0505806932905
 30
0.0
 11
-608.0144170868199
 21
343.0505806932905
 31
0.0
  0
LINE
  5
292
330
1F
100
AcDbEntity
  8
0-1
  6
Continuous
 62
     2
370
     9
100
AcDbLine
 10
-599.2644382959471
 20
343.0505806932905
 30
0.0
 11
-590.5144595050743
 21
343.0505806932905
 31
0.0
  0
LINE
  5
293
330
1F
100
AcDbEntity
  8
0-1
  6
Continuous
 62
     2
370
     9
100
AcDbLine
 10
-590.5144595050743
 20
314.0505943613952
 30
0.0
 11
-590.5144595050743
 21
343.0505806932905
 31
0.0
  0
LINE
  5
294
330
1F
100
AcDbEntity
  8
0-1
  6
Continuous
 62
     2
370
     9
100
AcDbLine
 10
-608.0144170868199
 20
314.0505943613952
 30
0.0
 11
-606.7644484291969
 21
314.0505943613952
 31
0.0
  0
LINE
  5
295
330
1F
100
AcDbEntity
  8
0-1
  6
JWW_DASHED1
 62
     2
370
     9
100
AcDbLine
 10
-606.014407778369
 20
313.904678803416
 30
0.0
 11
-606.014407778369
 21
343.0505806932905
 31
0.0
  0
LINE
  5
296
330
1F
100
AcDbEntity
  8
0-1
  6
Continuous
 62
     2
370
     9
100
AcDbLine
 10
-590.5144595050743
 20
314.0505943613952
 30
0.0
 11
-591.7644281626973
 21
314.0505943613952
 31
0.0
  0
LINE
  5
297
330
1F
100
AcDbEntity
  8
0-1
  6
JWW_DASHED1
 62
     2
370
     9
100
AcDbLine
 10
-592.5144688135252
 20
313.904678803416
 30
0.0
 11
-592.5144688135252
 21
343.0505806932905
 31
0.0
  0
CIRCLE
  5
298
330
1F
100
AcDbEntity
  8
0-1
  6
Continuous
 62
     2
370
     9
100
AcDbCircle
 10
-599.2644382959471
 20
333.0505341510383
 30
0.0
 40
4.249999652037749
  0
LINE
  5
299
330
1F
100
AcDbEntity
  8
0-1
  6
JWW_CENTER2
 62
     2
370
     9
100
AcDbLine
 10
-599.2644382959471
 20
343.831043127684
 30
0.0
 11
-599.2644382959471
 21
304.0506469129003
 31
0.0
  0
LINE
  5
29A
330
1F
100
AcDbEntity
  8
0-F
  6
Continuous
 62
     7
370
     9
100
AcDbLine
 10
-599.2644733038261
 20
349.4497233344874
 30
0.0
 11
-599.2644547919355
 21
389.2505845344994
 31
0.0
  0
ARC
  5
29B
330
1F
100
AcDbEntity
  8
0-1
  6
Continuous
 62
     2
370
     9
100
AcDbCircle
 10
8.235555341314566
 20
312.0505850529447
 30
0.0
 40
1.999999824868206
100
AcDbArc
 50
90.0
 51
149.9994903964416
  0
ARC
  5
29C
330
1F
100
AcDbEntity
  8
0-1
  6
Continuous
 62
     2
370
     9
100
AcDbCircle
 10
-6.764464925185067
 20
312.0505850529447
 30
0.0
 40
1.999999824868206
100
AcDbArc
 50
30.00050960355836
 51
89.99999999999999
  0
LINE
  5
29D
330
1F
100
AcDbEntity
  8
0-1
  6
JWW_CENTER2
 62
     2
370
     9
100
AcDbLine
 10
0.7355452080647495
 20
333.0505341510383
 30
0.0
 11
-5.040530825243778
 21
333.0505341510383
 31
0.0
  0
LINE
  5
29E
330
1F
100
AcDbEntity
  8
0-1
  6
JWW_CENTER2
 62
     2
370
     9
100
AcDbLine
 10
0.7355452080647495
 20
333.0505341510383
 30
0.0
 11
6.511621241374186
 21
333.0505341510383
 31
0.0
  0
LINE
  5
29F
330
1F
100
AcDbEntity
  8
0-1
  6
Continuous
 62
     2
370
     9
100
AcDbLine
 10
-8.014433582808024
 20
314.0505943613952
 30
0.0
 11
-8.014433582808024
 21
343.0505806932905
 31
0.0
  0
LINE
  5
2A0
330
1F
100
AcDbEntity
  8
0-1
  6
Continuous
 62
     2
370
     9
100
AcDbLine
 10
0.7355452080647495
 20
343.0505806932905
 30
0.0
 11
-8.014433582808024
 21
343.0505806932905
 31
0.0
  0
LINE
  5
2A1
330
1F
100
AcDbEntity
  8
0-1
  6
Continuous
 62
     2
370
     9
100
AcDbLine
 10
0.7355452080647495
 20
343.0505806932905
 30
0.0
 11
9.485523998937524
 21
343.0505806932905
 31
0.0
  0
LINE
  5
2A2
330
1F
100
AcDbEntity
  8
0-1
  6
Continuous
 62
     2
370
     9
100
AcDbLine
 10
9.485523998937524
 20
314.0505943613952
 30
0.0
 11
9.485523998937524
 21
343.0505806932905
 31
0.0
  0
LINE
  5
2A3
330
1F
100
AcDbEntity
  8
0-1
  6
Continuous
 62
     2
370
     9
100
AcDbLine
 10
-8.014433582808024
 20
314.0505943613952
 30
0.0
 11
-6.764464925185067
 21
314.0505943613952
 31
0.0
  0
LINE
  5
2A4
330
1F
100
AcDbEntity
  8
0-1
  6
JWW_DASHED1
 62
     2
370
     9
100
AcDbLine
 10
-6.014424274357125
 20
313.904678803416
 30
0.0
 11
-6.014424274357125
 21
343.0505806932905
 31
0.0
  0
LINE
  5
2A5
330
1F
100
AcDbEntity
  8
0-1
  6
Continuous
 62
     2
370
     9
100
AcDbLine
 10
9.485523998937524
 20
314.0505943613952
 30
0.0
 11
8.235555341314566
 21
314.0505943613952
 31
0.0
  0
LINE
  5
2A6
330
1F
100
AcDbEntity
  8
0-1
  6
JWW_DASHED1
 62
     2
370
     9
100
AcDbLine
 10
7.485514690486625
 20
313.904678803416
 30
0.0
 11
7.485514690486625
 21
343.0505806932905
 31
0.0
  0
CIRCLE
  5
2A7
330
1F
100
AcDbEntity
  8
0-1
  6
Continuous
 62
     2
370
     9
100
AcDbCircle
 10
0.7355452080647495
 20
333.0505341510383
 30
0.0
 40
4.249999652037749
  0
LINE
  5
2A8
330
1F
100
AcDbEntity
  8
0-1
  6
JWW_CENTER2
 62
     2
370
     9
100
AcDbLine
 10
0.7355452080647495
 20
343.831043127684
 30
0.0
 11
0.7355452080647495
 21
304.0506469129003
 31
0.0
  0
LINE
  5
2A9
330
1F
100
AcDbEntity
  8
0-F
  6
Continuous
 62
     7
370
     9
100
AcDbLine
 10
0.7355452080647495
 20
349.4497233344874
 30
0.0
 11
0.7355452080647495
 21
389.2505845344994
 31
0.0
  0
LINE
  5
2AA
330
1F
100
AcDbEntity
  8
0-1
  6
JWW_CENTER2
 62
     2
370
     9
100
AcDbLine
 10
0.7355452080647495
 20
-17.72989187435223
 30
0.0
 11
0.7355452080647495
 21
22.05050434043142
 31
0.0
  0
CIRCLE
  5
2AB
330
1F
100
AcDbEntity
  8
0-1
  6
Continuous
 62
     2
370
     9
100
AcDbCircle
 10
0.7355452080647495
 20
-6.949382897706528
 30
0.0
 40
4.249999652037749
  0
LINE
  5
2AC
330
1F
100
AcDbEntity
  8
0-1
  6
JWW_DASHED1
 62
     2
370
     9
100
AcDbLine
 10
7.485514690486625
 20
12.19647244991575
 30
0.0
 11
7.485514690486625
 21
-16.94942943995875
 31
0.0
  0
LINE
  5
2AD
330
1F
100
AcDbEntity
  8
0-1
  6
Continuous
 62
     2
370
     9
100
AcDbLine
 10
9.485523998937524
 20
12.05055689193659
 30
0.0
 11
8.235555341314566
 21
12.05055689193659
 31
0.0
  0
LINE
  5
2AE
330
1F
100
AcDbEntity
  8
0-1
  6
JWW_DASHED1
 62
     2
370
     9
100
AcDbLine
 10
-6.014424274357125
 20
12.19647244991575
 30
0.0
 11
-6.014424274357125
 21
-16.94942943995875
 31
0.0
  0
LINE
  5
2AF
330
1F
100
AcDbEntity
  8
0-1
  6
Continuous
 62
     2
370
     9
100
AcDbLine
 10
-8.014433582808024
 20
12.05055689193659
 30
0.0
 11
-6.764464925185067
 21
12.05055689193659
 31
0.0
  0
LINE
  5
2B0
330
1F
100
AcDbEntity
  8
0-1
  6
Continuous
 62
     2
370
     9
100
AcDbLine
 10
9.485523998937524
 20
12.05055689193659
 30
0.0
 11
9.485523998937524
 21
-16.94942943995875
 31
0.0
  0
LINE
  5
2B1
330
1F
100
AcDbEntity
  8
0-1
  6
Continuous
 62
     2
370
     9
100
AcDbLine
 10
0.7355452080647495
 20
-16.94942943995875
 30
0.0
 11
9.485523998937524
 21
-16.94942943995875
 31
0.0
  0
LINE
  5
2B2
330
1F
100
AcDbEntity
  8
0-1
  6
Continuous
 62
     2
370
     9
100
AcDbLine
 10
0.7355452080647495
 20
-16.94942943995875
 30
0.0
 11
-8.014433582808024
 21
-16.94942943995875
 31
0.0
  0
LINE
  5
2B3
330
1F
100
AcDbEntity
  8
0-1
  6
Continuous
 62
     2
370
     9
100
AcDbLine
 10
-8.014433582808024
 20
12.05055689193659
 30
0.0
 11
-8.014433582808024
 21
-16.94942943995875
 31
0.0
  0
LINE
  5
2B4
330
1F
100
AcDbEntity
  8
0-1
  6
JWW_CENTER2
 62
     2
370
     9
100
AcDbLine
 10
0.7355452080647495
 20
-6.949382897706528
 30
0.0
 11
6.511621241374186
 21
-6.949382897706528
 31
0.0
  0
LINE
  5
2B5
330
1F
100
AcDbEntity
  8
0-1
  6
JWW_CENTER2
 62
     2
370
     9
100
AcDbLine
 10
0.7355452080647495
 20
-6.949382897706528
 30
0.0
 11
-5.040530825243778
 21
-6.949382897706528
 31
0.0
  0
ARC
  5
2B6
330
1F
100
AcDbEntity
  8
0-1
  6
Continuous
 62
     2
370
     9
100
AcDbCircle
 10
-6.764464925185067
 20
14.05056620038704
 30
0.0
 40
1.999999824868206
100
AcDbArc
 50
270.0
 51
329.9994903964416
  0
ARC
  5
2B7
330
1F
100
AcDbEntity
  8
0-1
  6
Continuous
 62
     2
370
     9
100
AcDbCircle
 10
8.235555341314566
 20
14.05056620038704
 30
0.0
 40
1.999999824868206
100
AcDbArc
 50
210.0005096035584
 51
270.0
  0
LINE
  5
2B8
330
1F
100
AcDbEntity
  8
0-1
  6
JWW_CENTER2
 62
     2
370
     9
100
AcDbLine
 10
-599.2644382959471
 20
-17.72989187435223
 30
0.0
 11
-599.2644382959471
 21
22.05050434043142
 31
0.0
  0
CIRCLE
  5
2B9
330
1F
100
AcDbEntity
  8
0-1
  6
Continuous
 62
     2
370
     9
100
AcDbCircle
 10
-599.2644382959471
 20
-6.949382897706528
 30
0.0
 40
4.249999652037749
  0
LINE
  5
2BA
330
1F
100
AcDbEntity
  8
0-1
  6
JWW_DASHED1
 62
     2
370
     9
100
AcDbLine
 10
-592.5144688135252
 20
12.19647244991575
 30
0.0
 11
-592.5144688135252
 21
-16.94942943995875
 31
0.0
  0
LINE
  5
2BB
330
1F
100
AcDbEntity
  8
0-1
  6
Continuous
 62
     2
370
     9
100
AcDbLine
 10
-590.5144595050743
 20
12.05055689193659
 30
0.0
 11
-591.7644281626973
 21
12.05055689193659
 31
0.0
  0
LINE
  5
2BC
330
1F
100
AcDbEntity
  8
0-1
  6
JWW_DASHED1
 62
     2
370
     9
100
AcDbLine
 10
-606.014407778369
 20
12.19647244991575
 30
0.0
 11
-606.014407778369
 21
-16.94942943995875
 31
0.0
  0
LINE
  5
2BD
330
1F
100
AcDbEntity
  8
0-1
  6
Continuous
 62
     2
370
     9
100
AcDbLine
 10
-608.0144170868199
 20
12.05055689193659
 30
0.0
 11
-606.7644484291969
 21
12.05055689193659
 31
0.0
  0
LINE
  5
2BE
330
1F
100
AcDbEntity
  8
0-1
  6
Continuous
 62
     2
370
     9
100
AcDbLine
 10
-590.5144595050743
 20
12.05055689193659
 30
0.0
 11
-590.5144595050743
 21
-16.94942943995875
 31
0.0
  0
LINE
  5
2BF
330
1F
100
AcDbEntity
  8
0-1
  6
Continuous
 62
     2
370
     9
100
AcDbLine
 10
-599.2644382959471
 20
-16.94942943995875
 30
0.0
 11
-590.5144595050743
 21
-16.94942943995875
 31
0.0
  0
LINE
  5
2C0
330
1F
100
AcDbEntity
  8
0-1
  6
Continuous
 62
     2
370
     9
100
AcDbLine
 10
-599.2644382959471
 20
-16.94942943995875
 30
0.0
 11
-608.0144170868199
 21
-16.94942943995875
 31
0.0
  0
LINE
  5
2C1
330
1F
100
AcDbEntity
  8
0-1
  6
Continuous
 62
     2
370
     9
100
AcDbLine
 10
-608.0144170868199
 20
12.05055689193659
 30
0.0
 11
-608.0144170868199
 21
-16.94942943995875
 31
0.0
  0
LINE
  5
2C2
330
1F
100
AcDbEntity
  8
0-1
  6
JWW_CENTER2
 62
     2
370
     9
100
AcDbLine
 10
-599.2644382959471
 20
-6.949382897706528
 30
0.0
 11
-593.4883622626377
 21
-6.949382897706528
 31
0.0
  0
LINE
  5
2C3
330
1F
100
AcDbEntity
  8
0-1
  6
JWW_CENTER2
 62
     2
370
     9
100
AcDbLine
 10
-599.2644382959471
 20
-6.949382897706528
 30
0.0
 11
-605.0405143292556
 21
-6.949382897706528
 31
0.0
  0
ARC
  5
2C4
330
1F
100
AcDbEntity
  8
0-1
  6
Continuous
 62
     2
370
     9
100
AcDbCircle
 10
-606.7644484291969
 20
14.05056620038704
 30
0.0
 40
1.999999824868206
100
AcDbArc
 50
270.0
 51
329.9994903964416
  0
ARC
  5
2C5
330
1F
100
AcDbEntity
  8
0-1
  6
Continuous
 62
     2
370
     9
100
AcDbCircle
 10
-591.7644281626973
 20
14.05056620038704
 30
0.0
 40
1.999999824868206
100
AcDbArc
 50
210.0005096035584
 51
270.0
  0
ARC
  5
2C6
330
1F
100
AcDbEntity
  8
0-1
  6
Continuous
 62
     2
370
     9
100
AcDbCircle
 10
453.7356441839937
 20
310.0506399610198
 30
0.0
 40
3.000000038662472
100
AcDbArc
 50
0.0
 51
90.0
  0
LINE
  5
2C7
330
1F
100
AcDbEntity
  8
0-1
  6
Continuous
 62
     2
370
     9
100
AcDbLine
 10
453.7356441839937
 20
310.0506399610198
 30
0.0
 11
390.7356441839937
 21
310.0506399610198
 31
0.0
  0
LINE
  5
2C8
330
1F
100
AcDbEntity
  8
0-1
  6
Continuous
 62
     2
370
     9
100
AcDbLine
 10
456.735604593622
 20
263.05058387466
 30
0.0
 11
453.7356441839937
 21
263.05058387466
 31
0.0
  0
LINE
  5
2C9
330
1F
100
AcDbEntity
  8
0-1
  6
Continuous
 62
     2
370
     9
100
AcDbLine
 10
453.7356441839937
 20
16.05056078027656
 30
0.0
 11
390.7356441839937
 21
16.05056078027656
 31
0.0
  0
LINE
  5
2CA
330
1F
100
AcDbEntity
  8
0-1
  6
Continuous
 62
     2
370
     9
100
AcDbLine
 10
456.735604593622
 20
63.05061686663635
 30
0.0
 11
453.7356441839937
 21
63.05061686663635
 31
0.0
  0
LINE
  5
2CB
330
1F
100
AcDbEntity
  8
0-1
  6
Continuous
 62
     2
370
     9
100
AcDbLine
 10
453.7356441839937
 20
16.05056078027656
 30
0.0
 11
453.7356441839937
 21
63.05061686663635
 31
0.0
  0
LINE
  5
2CC
330
1F
100
AcDbEntity
  8
0-1
  6
Continuous
 62
     2
370
     9
100
AcDbLine
 10
453.7356441839937
 20
310.0506399610198
 30
0.0
 11
453.7356441839937
 21
263.05058387466
 31
0.0
  0
LINE
  5
2CD
330
1F
100
AcDbEntity
  8
0-1
  6
Continuous
 62
     2
370
     9
100
AcDbLine
 10
453.7356441839937
 20
13.05055088268364
 30
0.0
 11
390.7356441839937
 21
13.05055088268364
 31
0.0
  0
LINE
  5
2CE
330
1F
100
AcDbEntity
  8
0-1
  6
Continuous
 62
     2
370
     9
100
AcDbLine
 10
453.7356441839937
 20
313.0506003706481
 30
0.0
 11
390.7356441839937
 21
313.0506003706481
 31
0.0
  0
ARC
  5
2CF
330
1F
100
AcDbEntity
  8
0-1
  6
Continuous
 62
     2
370
     9
100
AcDbCircle
 10
453.7356441839937
 20
16.05056078027656
 30
0.0
 40
3.000000038662472
100
AcDbArc
 50
270.0
 51
0.0
  0
LINE
  5
2D0
330
1F
100
AcDbEntity
  8
0-1
  6
Continuous
 62
     2
370
     9
100
AcDbLine
 10
456.735604593622
 20
310.0506399610198
 30
0.0
 11
456.735604593622
 21
263.05058387466
 31
0.0
  0
LINE
  5
2D1
330
1F
100
AcDbEntity
  8
0-1
  6
Continuous
 62
     2
370
     9
100
AcDbLine
 10
456.735604593622
 20
16.05056078027656
 30
0.0
 11
456.735604593622
 21
63.05061686663635
 31
0.0
  0
TEXT
  5
2D2
330
1F
100
AcDbEntity
  8
0-E
  6
Continuous
 62
     7
370
     9
100
AcDbText
 10
190.2094797693764
 20
390.4568106747023
 30
0.0
 40
9.144
  1
受枠：ＴＬ６０Ｐ，ｔ＝３．０
 41
1.154761904761904
  7
ＭＳ ゴシック
100
AcDbText
  0
TEXT
  5
2D3
330
1F
100
AcDbEntity
  8
0-E
  6
Continuous
 62
     7
370
     9
100
AcDbText
 10
189.8221737621972
 20
370.6717204086548
 30
0.0
 40
9.144
  1
ＳＵＳ３０４
 41
1.138888888888885
  7
ＭＳ ゴシック
100
AcDbText
  0
LINE
  5
2D4
330
1F
100
AcDbEntity
  8
0-E
  6
Continuous
 62
     7
370
     9
100
AcDbLine
 10
189.2823288697843
 20
384.7301559027427
 30
0.0
 11
382.7409624905816
 21
384.7301559027427
 31
0.0
  0
LINE
  5
2D5
330
1F
100
AcDbEntity
  8
0-E
  6
Continuous
 62
     7
370
     9
100
AcDbLine
 10
382.7409624905816
 20
384.7301559027427
 30
0.0
 11
416.1372225201425
 21
313.0506003706481
 31
0.0
  0
LINE
  5
2D6
330
1F
100
AcDbEntity
  8
0-E
  6
Continuous
 62
     7
370
     9
100
AcDbLine
 10
416.1372225201425
 20
313.0506003706481
 30
0.0
 11
409.6928997794329
 21
323.1733635146514
 31
0.0
  0
LINE
  5
2D7
330
1F
100
AcDbEntity
  8
0-E
  6
Continuous
 62
     7
370
     9
100
AcDbLine
 10
416.1372225201425
 20
313.0506003706481
 30
0.0
 11
412.5325191839937
 21
324.4963747583171
 31
0.0
  0
LINE
  5
2D8
330
1F
100
AcDbEntity
  8
0-F
  6
Continuous
 62
     7
370
     9
100
AcDbLine
 10
545.3019976468316
 20
274.9479359386379
 30
0.0
 11
542.1694094922708
 21
251.1532812986464
 31
0.0
  0
LINE
  5
2D9
330
1F
100
AcDbEntity
  8
0-F
  6
Continuous
 62
     7
370
     9
100
AcDbLine
 10
542.1694094922708
 20
274.9479359386379
 30
0.0
 11
545.3019976468316
 21
251.1532812986464
 31
0.0
  0
LINE
  5
2DA
330
1F
100
AcDbEntity
  8
0-F
  6
Continuous
 62
     7
370
     9
100
AcDbLine
 10
543.7357035695512
 20
313.0506003706481
 30
0.0
 11
542.1694094922708
 21
301.1532977946346
 31
0.0
  0
LINE
  5
2DB
330
1F
100
AcDbEntity
  8
0-F
  6
Continuous
 62
     7
370
     9
100
AcDbLine
 10
543.7358025454804
 20
313.0506003706481
 30
0.0
 11
545.3019976468316
 21
301.1532977946346
 31
0.0
  0
TEXT
  5
2DC
330
1F
100
AcDbEntity
  8
0-F
  6
Continuous
 62
     2
370
     9
100
AcDbText
 10
539.4796973427026
 20
279.5506167680234
 30
0.0
 40
12.192
  1
50
 50
90.00000250447789
 41
1.062500000000001
  7
ＭＳ ゴシック
100
AcDbText
  0
LINE
  5
2DD
330
1F
100
AcDbEntity
  8
0-1
  6
JWW_CENTER2
 62
     2
370
     9
100
AcDbLine
 10
461.2353526763167
 20
333.0505009234054
 30
0.0
 11
455.2353742978443
 21
333.0505009234054
 31
0.0
  0
LINE
  5
2DE
330
1F
100
AcDbEntity
  8
0-1
  6
Continuous
 62
     2
370
     9
100
AcDbLine
 10
457.2353340594158
 20
300.8007502484835
 30
0.0
 11
457.2353340594158
 21
287.3007057093151
 31
0.0
  0
LINE
  5
2DF
330
1F
100
AcDbEntity
  8
0-1
  6
Continuous
 62
     2
370
     9
100
AcDbLine
 10
456.735604593622
 20
304.050600134991
 30
0.0
 11
456.735604593622
 21
284.0505341510385
 31
0.0
  0
LINE
  5
2E0
330
1F
100
AcDbEntity
  8
0-1
  6
Continuous
 62
     2
370
     9
100
AcDbLine
 10
461.7353303478184
 20
291.3004962102656
 30
0.0
 11
461.7353303478184
 21
296.8005143558527
 31
0.0
  0
LINE
  5
2E1
330
1F
100
AcDbEntity
  8
0-1
  6
Continuous
 62
     2
370
     9
100
AcDbLine
 10
461.7353303478184
 20
291.3004962102656
 30
0.0
 11
461.2356008820246
 21
291.3004962102656
 31
0.0
  0
LINE
  5
2E2
330
1F
100
AcDbEntity
  8
0-1
  6
Continuous
 62
     2
370
     9
100
AcDbLine
 10
461.7353303478184
 20
291.3004962102656
 30
0.0
 11
463.2352115767038
 21
293.0505885877993
 31
0.0
  0
LINE
  5
2E3
330
1F
100
AcDbEntity
  8
0-1
  6
Continuous
 62
     2
370
     9
100
AcDbLine
 10
463.2352115767038
 20
293.0505885877993
 30
0.0
 11
463.2352115767038
 21
295.0503724903543
 31
0.0
  0
LINE
  5
2E4
330
1F
100
AcDbEntity
  8
0-1
  6
Continuous
 62
     2
370
     9
100
AcDbLine
 10
463.2352115767038
 20
295.0503724903543
 30
0.0
 11
461.7353303478184
 21
296.8005143558527
 31
0.0
  0
LINE
  5
2E5
330
1F
100
AcDbEntity
  8
0-1
  6
Continuous
 62
     2
370
     9
100
AcDbLine
 10
461.7353303478184
 20
296.8005143558527
 30
0.0
 11
461.2356008820246
 21
296.8005143558527
 31
0.0
  0
LINE
  5
2E6
330
1F
100
AcDbEntity
  8
0-1
  6
Continuous
 62
     2
370
     9
100
AcDbLine
 10
457.0351676148952
 20
290.0504302263131
 30
0.0
 11
457.0351676148952
 21
294.0505671430147
 31
0.0
  0
LINE
  5
2E7
330
1F
100
AcDbEntity
  8
0-1
  6
Continuous
 62
     2
370
     9
100
AcDbLine
 10
457.0351676148952
 20
298.0503081560006
 30
0.0
 11
457.0351676148952
 21
294.0505671430147
 31
0.0
  0
LINE
  5
2E8
330
1F
100
AcDbEntity
  8
0-1
  6
Continuous
 62
     2
370
     9
100
AcDbLine
 10
457.2353340594158
 20
298.0503081560006
 30
0.0
 11
457.0351676148952
 21
298.0503081560006
 31
0.0
  0
LINE
  5
2E9
330
1F
100
AcDbEntity
  8
0-1
  6
Continuous
 62
     2
370
     9
100
AcDbLine
 10
457.2353340594158
 20
290.0504302263131
 30
0.0
 11
457.0351676148952
 21
290.0504302263131
 31
0.0
  0
LINE
  5
2EA
330
1F
100
AcDbEntity
  8
0-1
  6
Continuous
 62
     2
370
     9
100
AcDbLine
 10
456.735604593622
 20
284.0505341510385
 30
0.0
 11
461.2356008820246
 21
284.0505341510385
 31
0.0
  0
LINE
  5
2EB
330
1F
100
AcDbEntity
  8
0-1
  6
Continuous
 62
     2
370
     9
100
AcDbLine
 10
459.2356375855983
 20
285.3005753910089
 30
0.0
 11
459.2356375855983
 21
284.0505341510385
 31
0.0
  0
LINE
  5
2EC
330
1F
100
AcDbEntity
  8
0-1
  6
Continuous
 62
     2
370
     9
100
AcDbLine
 10
457.2353340594158
 20
287.3007057093151
 30
0.0
 11
457.2353340594158
 21
284.0505341510385
 31
0.0
  0
LINE
  5
2ED
330
1F
100
AcDbEntity
  8
0-1
  6
Continuous
 62
     2
370
     9
100
AcDbLine
 10
459.2356375855983
 20
302.8005588950206
 30
0.0
 11
459.2356375855983
 21
304.050600134991
 31
0.0
  0
LINE
  5
2EE
330
1F
100
AcDbEntity
  8
0-1
  6
Continuous
 62
     2
370
     9
100
AcDbLine
 10
457.2353340594158
 20
300.8007502484835
 30
0.0
 11
457.2353340594158
 21
304.050600134991
 31
0.0
  0
LINE
  5
2EF
330
1F
100
AcDbEntity
  8
0-1
  6
JWW_CENTER2
 62
     2
370
     9
100
AcDbLine
 10
464.7834054309582
 20
294.0505671430147
 30
0.0
 11
455.6990296886387
 21
294.0505671430147
 31
0.0
  0
LINE
  5
2F0
330
1F
100
AcDbEntity
  8
0-1
  6
JWW_DASHED1
 62
     2
370
     9
100
AcDbLine
 10
459.2353433678662
 20
337.3005330905822
 30
0.0
 11
457.2353340594158
 21
337.3005330905822
 31
0.0
  0
LINE
  5
2F1
330
1F
100
AcDbEntity
  8
0-1
  6
JWW_DASHED1
 62
     2
370
     9
100
AcDbLine
 10
459.2353433678662
 20
328.8005678499854
 30
0.0
 11
457.2353340594158
 21
328.8005678499854
 31
0.0
  0
LINE
  5
2F2
330
1F
100
AcDbEntity
  8
0-1
  6
Continuous
 62
     2
370
     9
100
AcDbLine
 10
459.2353433678662
 20
310.0505425168609
 30
0.0
 11
457.2353340594158
 21
310.0505425168609
 31
0.0
  0
LINE
  5
2F3
330
1F
100
AcDbEntity
  8
0-1
  6
JWW_DASHED1
 62
     2
370
     9
100
AcDbLine
 10
459.2353433678662
 20
343.0455432309014
 30
0.0
 11
459.2353433678662
 21
314.0555653685175
 31
0.0
  0
LINE
  5
2F4
330
1F
100
AcDbEntity
  8
0-1
  6
Continuous
 62
     2
370
     9
100
AcDbLine
 10
460.035327272495
 20
343.0505474656571
 30
0.0
 11
457.2353340594158
 21
343.0505474656571
 31
0.0
  0
LINE
  5
2F5
330
1F
100
AcDbEntity
  8
0-1
  6
Continuous
 62
     2
370
     9
100
AcDbLine
 10
460.035327272495
 20
314.0505611337618
 30
0.0
 11
457.2353340594158
 21
314.0505611337618
 31
0.0
  0
LINE
  5
2F6
330
1F
100
AcDbEntity
  8
0-1
  6
Continuous
 62
     2
370
     9
100
AcDbLine
 10
463.0353412351704
 20
317.0505750964372
 30
0.0
 11
463.0353412351704
 21
340.0505830498602
 31
0.0
  0
ARC
  5
2F7
330
1F
100
AcDbEntity
  8
0-1
  6
Continuous
 62
     2
370
     9
100
AcDbCircle
 10
460.035327272495
 20
340.0505830498602
 30
0.0
 40
3.000000414701042
100
AcDbArc
 50
0.0
 51
90.0
  0
ARC
  5
2F8
330
1F
100
AcDbEntity
  8
0-1
  6
Continuous
 62
     2
370
     9
100
AcDbCircle
 10
460.035327272495
 20
317.0505750964372
 30
0.0
 40
3.000000414701042
100
AcDbArc
 50
270.0
 51
0.0
  0
LINE
  5
2F9
330
1F
100
AcDbEntity
  8
0-1
  6
Continuous
 62
     2
370
     9
100
AcDbLine
 10
457.2353340594158
 20
343.0505474656571
 30
0.0
 11
457.2353340594158
 21
284.0505206007625
 31
0.0
  0
LINE
  5
2FA
330
1F
100
AcDbEntity
  8
0-1
  6
Continuous
 62
     2
370
     9
100
AcDbLine
 10
459.2353433678662
 20
314.0555653685175
 30
0.0
 11
459.2353433678662
 21
284.0505206007625
 31
0.0
  0
LINE
  5
2FB
330
1F
100
AcDbEntity
  8
0-1
  6
Continuous
 62
     2
370
     9
100
AcDbLine
 10
457.2353340594158
 20
284.0505206007625
 30
0.0
 11
459.2353433678662
 21
284.0505206007625
 31
0.0
  0
LINE
  5
2FC
330
1F
100
AcDbEntity
  8
0-1
  6
JWW_DASHED1
 62
     2
370
     9
100
AcDbLine
 10
459.0353226182696
 20
291.8005442842883
 30
0.0
 11
457.2353340594158
 21
290.0506476198713
 31
0.0
  0
LINE
  5
2FD
330
1F
100
AcDbEntity
  8
0-1
  6
JWW_DASHED1
 62
     2
370
     9
100
AcDbLine
 10
461.2353526763167
 20
291.8005442842883
 30
0.0
 11
459.2353433678662
 21
291.8005442842883
 31
0.0
  0
LINE
  5
2FE
330
1F
100
AcDbEntity
  8
0-1
  6
JWW_DASHED1
 62
     2
370
     9
100
AcDbLine
 10
459.0353226182696
 20
296.3005404548627
 30
0.0
 11
459.0353226182696
 21
291.8005442842883
 31
0.0
  0
LINE
  5
2FF
330
1F
100
AcDbEntity
  8
0-1
  6
JWW_DASHED1
 62
     2
370
     9
100
AcDbLine
 10
459.0353226182696
 20
291.8005442842883
 30
0.0
 11
459.2353929147451
 21
291.8005442842883
 31
0.0
  0
LINE
  5
300
330
1F
100
AcDbEntity
  8
0-1
  6
JWW_DASHED1
 62
     2
370
     9
100
AcDbLine
 10
459.0353226182696
 20
296.3005404548627
 30
0.0
 11
459.2353929147451
 21
296.3005404548627
 31
0.0
  0
LINE
  5
301
330
1F
100
AcDbEntity
  8
0-1
  6
JWW_DASHED1
 62
     2
370
     9
100
AcDbLine
 10
459.0353226182696
 20
296.3005404548627
 30
0.0
 11
457.2353340594158
 21
298.0504866661582
 31
0.0
  0
LINE
  5
302
330
1F
100
AcDbEntity
  8
0-1
  6
JWW_DASHED1
 62
     2
370
     9
100
AcDbLine
 10
461.2353526763167
 20
296.3005404548627
 30
0.0
 11
459.2353433678662
 21
296.3005404548627
 31
0.0
  0
LINE
  5
303
330
1F
100
AcDbEntity
  8
0-1
  6
Continuous
 62
     2
370
     9
100
AcDbLine
 10
461.2356008820246
 20
304.050600134991
 30
0.0
 11
461.2356008820246
 21
284.0505341510385
 31
0.0
  0
LINE
  5
304
330
1F
100
AcDbEntity
  8
0-1
  6
Continuous
 62
     2
370
     9
100
AcDbLine
 10
456.735604593622
 20
304.050600134991
 30
0.0
 11
457.2353340594158
 21
304.050600134991
 31
0.0
  0
LINE
  5
305
330
1F
100
AcDbEntity
  8
0-1
  6
Continuous
 62
     2
370
     9
100
AcDbLine
 10
459.2353433678662
 20
304.050600134991
 30
0.0
 11
461.2356008820246
 21
304.050600134991
 31
0.0
  0
LINE
  5
306
330
1F
100
AcDbEntity
  8
0-6
  6
Continuous
 62
     6
370
     9
100
AcDbLine
 10
453.7354462321354
 20
266.5505343866954
 30
0.0
 11
453.7354462321354
 21
306.5505343866954
 31
0.0
  0
LINE
  5
307
330
1F
100
AcDbEntity
  8
0-6
  6
Continuous
 62
     6
370
     9
100
AcDbLine
 10
453.7354462321354
 20
306.5505343866954
 30
0.0
 11
450.7354462321354
 21
306.5505343866954
 31
0.0
  0
LINE
  5
308
330
1F
100
AcDbEntity
  8
0-6
  6
Continuous
 62
     6
370
     9
100
AcDbLine
 10
450.7354462321354
 20
306.5505343866954
 30
0.0
 11
450.7354462321354
 21
266.5505343866954
 31
0.0
  0
LINE
  5
309
330
1F
100
AcDbEntity
  8
0-6
  6
Continuous
 62
     6
370
     9
100
AcDbLine
 10
452.6488477966271
 20
266.5505343866959
 30
0.0
 11
453.7354462321349
 21
267.6371328222036
 31
0.0
  0
LINE
  5
30A
330
1F
100
AcDbEntity
  8
0-6
  6
Continuous
 62
     6
370
     9
100
AcDbLine
 10
450.7354462321344
 20
270.2939870716963
 30
0.0
 11
453.7354462321344
 21
273.2939870716965
 31
0.0
  0
LINE
  5
30B
330
1F
100
AcDbEntity
  8
0-6
  6
Continuous
 62
     6
370
     9
100
AcDbLine
 10
450.7354462321354
 20
275.9508413211835
 30
0.0
 11
453.7354462321335
 21
278.9508413211817
 31
0.0
  0
LINE
  5
30C
330
1F
100
AcDbEntity
  8
0-6
  6
Continuous
 62
     6
370
     9
100
AcDbLine
 10
450.7354462321349
 20
281.6076955706764
 30
0.0
 11
453.7354462321354
 21
284.6076955706766
 31
0.0
  0
LINE
  5
30D
330
1F
100
AcDbEntity
  8
0-6
  6
Continuous
 62
     6
370
     9
100
AcDbLine
 10
450.7354462321354
 20
287.2645498201704
 30
0.0
 11
453.7354462321354
 21
290.2645498201704
 31
0.0
  0
LINE
  5
30E
330
1F
100
AcDbEntity
  8
0-6
  6
Continuous
 62
     6
370
     9
100
AcDbLine
 10
450.7354462321349
 20
292.921404069663
 30
0.0
 11
453.7354462321349
 21
295.921404069663
 31
0.0
  0
LINE
  5
30F
330
1F
100
AcDbEntity
  8
0-6
  6
Continuous
 62
     6
370
     9
100
AcDbLine
 10
450.7354462321358
 20
298.5782583191573
 30
0.0
 11
453.7354462321358
 21
301.5782583191575
 31
0.0
  0
LINE
  5
310
330
1F
100
AcDbEntity
  8
0-6
  6
Continuous
 62
     6
370
     9
100
AcDbLine
 10
450.7354462321354
 20
304.2351125686502
 30
0.0
 11
453.0508680501806
 21
306.5505343866952
 31
0.0
  0
LINE
  5
311
330
1F
100
AcDbEntity
  8
0-6
  6
Continuous
 62
     6
370
     9
100
AcDbLine
 10
450.7354462321354
 20
266.5505343866954
 30
0.0
 11
453.7354462321354
 21
266.5505343866954
 31
0.0
  0
LINE
  5
312
330
1F
100
AcDbEntity
  8
0-4
  6
Continuous
 62
     7
370
     9
100
AcDbLine
 10
543.7357035695512
 20
313.0506003706481
 30
0.0
 11
543.7357035695512
 21
343.0505474656571
 31
0.0
  0
LINE
  5
313
330
1F
100
AcDbEntity
  8
0-4
  6
Continuous
 62
     7
370
     9
100
AcDbLine
 10
543.7357035695512
 20
313.0506003706481
 30
0.0
 11
542.4304416473507
 21
322.9650489843862
 31
0.0
  0
LINE
  5
314
330
1F
100
AcDbEntity
  8
0-4
  6
Continuous
 62
     7
370
     9
100
AcDbLine
 10
543.7357035695512
 20
313.0506003706481
 30
0.0
 11
545.0409654917518
 21
322.9650489843862
 31
0.0
  0
LINE
  5
315
330
1F
100
AcDbEntity
  8
0-4
  6
Continuous
 62
     7
370
     9
100
AcDbLine
 10
543.7357035695512
 20
343.0505474656571
 30
0.0
 11
542.4304416473507
 21
333.136098851919
 31
0.0
  0
LINE
  5
316
330
1F
100
AcDbEntity
  8
0-4
  6
Continuous
 62
     7
370
     9
100
AcDbLine
 10
543.7357035695512
 20
343.0505474656571
 30
0.0
 11
545.0409654917518
 21
333.136098851919
 31
0.0
  0
LINE
  5
317
330
1F
100
AcDbEntity
  8
0-4
  6
Continuous
 62
     7
370
     9
100
AcDbLine
 10
544.9357035695513
 20
343.0505474656571
 30
0.0
 11
465.2353340594158
 21
343.0505474656571
 31
0.0
  0
TEXT
  5
318
330
1F
100
AcDbEntity
  8
0-4
  6
Continuous
 62
     2
370
   211
100
AcDbText
 10
537.4797035695512
 20
319.5505739181525
 30
0.0
 40
12.192
  1
30
 50
90.0
 41
1.0625
  7
ＭＳ ゴシック
100
AcDbText
  0
LINE
  5
319
330
1F
100
AcDbEntity
  8
0-E
  6
Continuous
 62
     7
370
     9
100
AcDbLine
 10
480.592542979373
 20
384.7301559027427
 30
0.0
 11
459.2353433678662
 21
343.0505474656571
 31
0.0
  0
LINE
  5
31A
330
1F
100
AcDbEntity
  8
0-F
  6
Continuous
 62
     7
370
     9
100
AcDbLine
 10
459.2353433678662
 20
343.0505474656571
 30
0.0
 11
466.0548838556196
 21
352.9245840999478
 31
0.0
  0
LINE
  5
31B
330
1F
100
AcDbEntity
  8
0-F
  6
Continuous
 62
     7
370
     9
100
AcDbLine
 10
459.2353433678662
 20
343.0505474656571
 30
0.0
 11
463.266929886025
 21
354.3530047080559
 31
0.0
  0
TEXT
  5
31C
330
1F
100
AcDbEntity
  8
0-E
  6
Continuous
 62
     7
370
     9
100
AcDbText
 10
484.1999855746311
 20
371.6026879973373
 30
0.0
 40
9.144
  1
ＳＥＣＣ
 41
1.124999999999995
  7
ＭＳ ゴシック
100
AcDbText
  0
LINE
  5
31D
330
1F
100
AcDbEntity
  8
0-E
  6
Continuous
 62
     7
370
     9
100
AcDbLine
 10
480.592542979373
 20
384.7301559027427
 30
0.0
 11
645.8461412534733
 21
384.7301559027427
 31
0.0
  0
TEXT
  5
31E
330
1F
100
AcDbEntity
  8
0-E
  6
Continuous
 62
     7
370
     9
100
AcDbText
 10
484.3919889794025
 20
391.8712756768135
 30
0.0
 40
9.144
  1
回転アンカー：ｔ＝２.０
 41
1.152173913043478
  7
ＭＳ ゴシック
100
AcDbText
  0
TEXT
  5
31F
330
1F
100
AcDbEntity
  8
0-5
  6
Continuous
 62
     7
370
     9
100
AcDbText
 10
470.3919889794023
 20
431.6463926734951
 30
0.0
 40
9.144
  1
※
  7
ＭＳ ゴシック
100
AcDbText
  0
LINE
  5
320
330
1F
100
AcDbEntity
  8
0-F
  6
Continuous
 62
     7
370
     9
100
AcDbLine
 10
465.2353340594158
 20
313.0506003706481
 30
0.0
 11
544.9356877334025
 21
313.0506003706481
 31
0.0
  0
LINE
  5
321
330
1F
100
AcDbEntity
  8
0-F
  6
Continuous
 62
     7
370
     9
100
AcDbLine
 10
465.2353340594158
 20
263.0506333626244
 30
0.0
 11
544.9356877334025
 21
263.0506333626244
 31
0.0
  0
TEXT
  5
322
330
1F
100
AcDbEntity
  8
0-5
  6
Continuous
 62
     7
370
     9
100
AcDbText
 10
484.3919889794025
 20
416.4658256789265
 30
0.0
 40
9.144
  1
境界部・壁際用として使用できます
 41
1.15625
  7
ＭＳ ゴシック
100
AcDbText
  0
TEXT
  5
323
330
1F
100
AcDbEntity
  8
0-5
  6
Continuous
 62
     7
370
     9
100
AcDbText
 10
484.3919889794025
 20
431.6463926734951
 30
0.0
 40
9.144
  1
アンカーを回転・変形させることで
 41
1.15625
  7
ＭＳ ゴシック
100
AcDbText
  0
LINE
  5
324
330
1F
100
AcDbEntity
  8
0-F
  6
Continuous
 62
     7
370
     9
100
AcDbLine
 10
543.7357035695512
 20
263.0506333626244
 30
0.0
 11
543.7357035695512
 21
313.0506003706481
 31
0.0
  0
LINE
  5
325
330
1F
100
AcDbEntity
  8
0-F
  6
Continuous
 62
     7
370
     9
100
AcDbLine
 10
545.3019976468316
 20
74.94796893061425
 30
0.0
 11
542.1694094922708
 21
51.15326480265844
 31
0.0
  0
LINE
  5
326
330
1F
100
AcDbEntity
  8
0-F
  6
Continuous
 62
     7
370
     9
100
AcDbLine
 10
542.1694094922708
 20
74.94796893061425
 30
0.0
 11
545.3019976468316
 21
51.15326480265844
 31
0.0
  0
LINE
  5
327
330
1F
100
AcDbEntity
  8
0-F
  6
Continuous
 62
     7
370
     9
100
AcDbLine
 10
543.7357035695512
 20
13.05050139471928
 30
0.0
 11
542.1694094922708
 21
24.94785345869718
 31
0.0
  0
LINE
  5
328
330
1F
100
AcDbEntity
  8
0-F
  6
Continuous
 62
     7
370
     9
100
AcDbLine
 10
543.7357035695512
 20
13.05050139471928
 30
0.0
 11
545.3019976468316
 21
24.94785345869718
 31
0.0
  0
TEXT
  5
329
330
1F
100
AcDbEntity
  8
0-F
  6
Continuous
 62
     2
370
     9
100
AcDbText
 10
539.4796973427026
 20
29.55058377604722
 30
0.0
 40
12.192
  1
50
 50
90.00000250447789
 41
1.062500000000001
  7
ＭＳ ゴシック
100
AcDbText
  0
LINE
  5
32A
330
1F
100
AcDbEntity
  8
0-4
  6
Continuous
 62
     7
370
     9
100
AcDbLine
 10
543.7357035695512
 20
-16.94944570029043
 30
0.0
 11
543.7357035695512
 21
13.05050139471928
 31
0.0
  0
LINE
  5
32B
330
1F
100
AcDbEntity
  8
0-4
  6
Continuous
 62
     7
370
     9
100
AcDbLine
 10
543.7357035695512
 20
-16.94944570029043
 30
0.0
 11
542.4304416473507
 21
-7.034997086552039
 31
0.0
  0
LINE
  5
32C
330
1F
100
AcDbEntity
  8
0-4
  6
Continuous
 62
     7
370
     9
100
AcDbLine
 10
543.7357035695512
 20
-16.94944570029043
 30
0.0
 11
545.0409654917518
 21
-7.034997086552039
 31
0.0
  0
LINE
  5
32D
330
1F
100
AcDbEntity
  8
0-4
  6
Continuous
 62
     7
370
     9
100
AcDbLine
 10
543.7357035695512
 20
13.05050139471928
 30
0.0
 11
542.4304416473507
 21
3.13605278098089
 31
0.0
  0
LINE
  5
32E
330
1F
100
AcDbEntity
  8
0-4
  6
Continuous
 62
     7
370
     9
100
AcDbLine
 10
543.7357035695512
 20
13.05050139471928
 30
0.0
 11
545.0409654917518
 21
3.13605278098089
 31
0.0
  0
TEXT
  5
32F
330
1F
100
AcDbEntity
  8
0-4
  6
Continuous
 62
     2
370
   211
100
AcDbText
 10
537.4797035695512
 20
-10.44947215278557
 30
0.0
 40
12.192
  1
30
 50
90.0
 41
1.0625
  7
ＭＳ ゴシック
100
AcDbText
  0
LINE
  5
330
330
1F
100
AcDbEntity
  8
0-4
  6
Continuous
 62
     7
370
     9
100
AcDbLine
 10
544.9357035695513
 20
-16.94944570029043
 30
0.0
 11
465.2353340594158
 21
-16.94944570029043
 31
0.0
  0
LINE
  5
331
330
1F
100
AcDbEntity
  8
0-F
  6
Continuous
 62
     7
370
     9
100
AcDbLine
 10
465.2353340594158
 20
13.05050139471928
 30
0.0
 11
544.9356877334025
 21
13.05050139471928
 31
0.0
  0
LINE
  5
332
330
1F
100
AcDbEntity
  8
0-F
  6
Continuous
 62
     7
370
     9
100
AcDbLine
 10
465.2353340594158
 20
63.05061686663635
 30
0.0
 11
544.9356877334025
 21
63.05061686663635
 31
0.0
  0
LINE
  5
333
330
1F
100
AcDbEntity
  8
0-F
  6
Continuous
 62
     7
370
     9
100
AcDbLine
 10
543.7357035695512
 20
13.05050139471928
 30
0.0
 11
543.7357035695512
 21
63.05061686663635
 31
0.0
  0
LINE
  5
334
330
1F
100
AcDbEntity
  8
0-F
  6
Continuous
 62
     7
370
     9
100
AcDbLine
 10
543.7357035695512
 20
63.05061686663635
 30
0.0
 11
543.7357035695512
 21
263.0506333626244
 31
0.0
  0
TEXT
  5
335
330
1F
100
AcDbEntity
  8
0-F
  6
Continuous
 62
     2
370
   211
100
AcDbText
 10
539.479697539404
 20
150.0506250160174
 30
0.0
 40
12.192
  1
200
 50
90.00000250447873
 41
1.083333333333334
  7
ＭＳ ゴシック
100
AcDbText
  0
LINE
  5
336
330
1F
100
AcDbEntity
  8
0-1
  6
Continuous
 62
     2
370
     9
100
AcDbLine
 10
457.2353340594158
 20
25.30040100484803
 30
0.0
 11
457.2353340594158
 21
38.80044554401593
 31
0.0
  0
LINE
  5
337
330
1F
100
AcDbEntity
  8
0-1
  6
Continuous
 62
     2
370
     9
100
AcDbLine
 10
456.735604593622
 20
22.05055111834008
 30
0.0
 11
456.735604593622
 21
42.05061710229302
 31
0.0
  0
LINE
  5
338
330
1F
100
AcDbEntity
  8
0-1
  6
Continuous
 62
     2
370
     9
100
AcDbLine
 10
461.7353303478184
 20
34.80065504306594
 30
0.0
 11
461.7353303478184
 21
29.30063689747885
 31
0.0
  0
LINE
  5
339
330
1F
100
AcDbEntity
  8
0-1
  6
Continuous
 62
     2
370
     9
100
AcDbLine
 10
461.7353303478184
 20
34.80065504306594
 30
0.0
 11
461.2356008820246
 21
34.80065504306594
 31
0.0
  0
LINE
  5
33A
330
1F
100
AcDbEntity
  8
0-1
  6
Continuous
 62
     2
370
     9
100
AcDbLine
 10
461.7353303478184
 20
34.80065504306594
 30
0.0
 11
463.2352115767038
 21
33.05056266553174
 31
0.0
  0
LINE
  5
33B
330
1F
100
AcDbEntity
  8
0-1
  6
Continuous
 62
     2
370
     9
100
AcDbLine
 10
463.2352115767038
 20
33.05056266553174
 30
0.0
 11
463.2352115767038
 21
31.05077876297719
 31
0.0
  0
LINE
  5
33C
330
1F
100
AcDbEntity
  8
0-1
  6
Continuous
 62
     2
370
     9
100
AcDbLine
 10
463.2352115767038
 20
31.05077876297719
 30
0.0
 11
461.7353303478184
 21
29.30063689747885
 31
0.0
  0
LINE
  5
33D
330
1F
100
AcDbEntity
  8
0-1
  6
Continuous
 62
     2
370
     9
100
AcDbLine
 10
461.7353303478184
 20
29.30063689747885
 30
0.0
 11
461.2356008820246
 21
29.30063689747885
 31
0.0
  0
LINE
  5
33E
330
1F
100
AcDbEntity
  8
0-1
  6
Continuous
 62
     2
370
     9
100
AcDbLine
 10
457.0351676148952
 20
36.05072102701843
 30
0.0
 11
457.0351676148952
 21
32.05058411031678
 31
0.0
  0
LINE
  5
33F
330
1F
100
AcDbEntity
  8
0-1
  6
Continuous
 62
     2
370
     9
100
AcDbLine
 10
457.0351676148952
 20
28.05084309733093
 30
0.0
 11
457.0351676148952
 21
32.05058411031678
 31
0.0
  0
LINE
  5
340
330
1F
100
AcDbEntity
  8
0-1
  6
Continuous
 62
     2
370
     9
100
AcDbLine
 10
457.2353340594158
 20
28.05084309733093
 30
0.0
 11
457.0351676148952
 21
28.05084309733093
 31
0.0
  0
LINE
  5
341
330
1F
100
AcDbEntity
  8
0-1
  6
Continuous
 62
     2
370
     9
100
AcDbLine
 10
457.2353340594158
 20
36.05072102701843
 30
0.0
 11
457.0351676148952
 21
36.05072102701843
 31
0.0
  0
LINE
  5
342
330
1F
100
AcDbEntity
  8
0-1
  6
Continuous
 62
     2
370
     9
100
AcDbLine
 10
456.735604593622
 20
42.05061710229302
 30
0.0
 11
461.2356008820246
 21
42.05061710229302
 31
0.0
  0
LINE
  5
343
330
1F
100
AcDbEntity
  8
0-1
  6
Continuous
 62
     2
370
     9
100
AcDbLine
 10
459.2356375855983
 20
40.8005758623226
 30
0.0
 11
459.2356375855983
 21
42.05061710229302
 31
0.0
  0
LINE
  5
344
330
1F
100
AcDbEntity
  8
0-1
  6
Continuous
 62
     2
370
     9
100
AcDbLine
 10
457.2353340594158
 20
38.80044554401593
 30
0.0
 11
457.2353340594158
 21
42.05061710229302
 31
0.0
  0
LINE
  5
345
330
1F
100
AcDbEntity
  8
0-1
  6
Continuous
 62
     2
370
     9
100
AcDbLine
 10
459.2356375855983
 20
23.3005923583105
 30
0.0
 11
459.2356375855983
 21
22.05055111834008
 31
0.0
  0
LINE
  5
346
330
1F
100
AcDbEntity
  8
0-1
  6
Continuous
 62
     2
370
     9
100
AcDbLine
 10
457.2353340594158
 20
25.30040100484803
 30
0.0
 11
457.2353340594158
 21
22.05055111834008
 31
0.0
  0
LINE
  5
347
330
1F
100
AcDbEntity
  8
0-1
  6
JWW_DASHED1
 62
     2
370
     9
100
AcDbLine
 10
459.2353433678662
 20
-11.19938183725071
 30
0.0
 11
457.2353340594158
 21
-11.19938183725071
 31
0.0
  0
LINE
  5
348
330
1F
100
AcDbEntity
  8
0-1
  6
JWW_DASHED1
 62
     2
370
     9
100
AcDbLine
 10
459.2353433678662
 20
-2.699416596654373
 30
0.0
 11
457.2353340594158
 21
-2.699416596654373
 31
0.0
  0
LINE
  5
349
330
1F
100
AcDbEntity
  8
0-1
  6
Continuous
 62
     2
370
     9
100
AcDbLine
 10
459.2353433678662
 20
16.05060873647017
 30
0.0
 11
457.2353340594158
 21
16.05060873647017
 31
0.0
  0
LINE
  5
34A
330
1F
100
AcDbEntity
  8
0-1
  6
JWW_CENTER2
 62
     2
370
     9
100
AcDbLine
 10
461.2353526763167
 20
-6.949349670073843
 30
0.0
 11
455.2353742978443
 21
-6.949349670073843
 31
0.0
  0
LINE
  5
34B
330
1F
100
AcDbEntity
  8
0-1
  6
JWW_DASHED1
 62
     2
370
     9
100
AcDbLine
 10
459.2353433678662
 20
-16.94439197757038
 30
0.0
 11
459.2353433678662
 21
12.04558588481359
 31
0.0
  0
LINE
  5
34C
330
1F
100
AcDbEntity
  8
0-1
  6
Continuous
 62
     2
370
     9
100
AcDbLine
 10
460.035327272495
 20
-16.94939621232606
 30
0.0
 11
457.2353340594158
 21
-16.94939621232606
 31
0.0
  0
LINE
  5
34D
330
1F
100
AcDbEntity
  8
0-1
  6
Continuous
 62
     2
370
     9
100
AcDbLine
 10
460.035327272495
 20
12.05059011956928
 30
0.0
 11
457.2353340594158
 21
12.05059011956928
 31
0.0
  0
LINE
  5
34E
330
1F
100
AcDbEntity
  8
0-1
  6
Continuous
 62
     2
370
     9
100
AcDbLine
 10
463.0353412351704
 20
9.05057615689384
 30
0.0
 11
463.0353412351704
 21
-13.9494317965291
 31
0.0
  0
ARC
  5
34F
330
1F
100
AcDbEntity
  8
0-1
  6
Continuous
 62
     2
370
     9
100
AcDbCircle
 10
460.035327272495
 20
-13.9494317965291
 30
0.0
 40
3.000000414701042
100
AcDbArc
 50
270.0
 51
0.0
  0
ARC
  5
350
330
1F
100
AcDbEntity
  8
0-1
  6
Continuous
 62
     2
370
     9
100
AcDbCircle
 10
460.035327272495
 20
9.05057615689384
 30
0.0
 40
3.000000414701042
100
AcDbArc
 50
0.0
 51
90.0
  0
LINE
  5
351
330
1F
100
AcDbEntity
  8
0-1
  6
Continuous
 62
     2
370
     9
100
AcDbLine
 10
457.2353340594158
 20
-16.94939621232606
 30
0.0
 11
457.2353340594158
 21
42.050630652569
 31
0.0
  0
LINE
  5
352
330
1F
100
AcDbEntity
  8
0-1
  6
Continuous
 62
     2
370
     9
100
AcDbLine
 10
459.2353433678662
 20
12.04558588481359
 30
0.0
 11
459.2353433678662
 21
42.050630652569
 31
0.0
  0
LINE
  5
353
330
1F
100
AcDbEntity
  8
0-1
  6
Continuous
 62
     2
370
     9
100
AcDbLine
 10
457.2353340594158
 20
42.050630652569
 30
0.0
 11
459.2353433678662
 21
42.050630652569
 31
0.0
  0
LINE
  5
354
330
1F
100
AcDbEntity
  8
0-1
  6
JWW_DASHED1
 62
     2
370
     9
100
AcDbLine
 10
459.0353226182696
 20
34.3006069690432
 30
0.0
 11
457.2353340594158
 21
36.05050363345981
 31
0.0
  0
LINE
  5
355
330
1F
100
AcDbEntity
  8
0-1
  6
JWW_DASHED1
 62
     2
370
     9
100
AcDbLine
 10
461.2353526763167
 20
34.3006069690432
 30
0.0
 11
459.2353433678662
 21
34.3006069690432
 31
0.0
  0
LINE
  5
356
330
1F
100
AcDbEntity
  8
0-1
  6
JWW_DASHED1
 62
     2
370
     9
100
AcDbLine
 10
459.0353226182696
 20
29.80061079846882
 30
0.0
 11
459.0353226182696
 21
34.3006069690432
 31
0.0
  0
LINE
  5
357
330
1F
100
AcDbEntity
  8
0-1
  6
JWW_DASHED1
 62
     2
370
     9
100
AcDbLine
 10
459.0353226182696
 20
34.3006069690432
 30
0.0
 11
459.2353929147451
 21
34.3006069690432
 31
0.0
  0
LINE
  5
358
330
1F
100
AcDbEntity
  8
0-1
  6
JWW_DASHED1
 62
     2
370
     9
100
AcDbLine
 10
459.0353226182696
 20
29.80061079846882
 30
0.0
 11
459.2353929147451
 21
29.80061079846882
 31
0.0
  0
LINE
  5
359
330
1F
100
AcDbEntity
  8
0-1
  6
JWW_DASHED1
 62
     2
370
     9
100
AcDbLine
 10
459.0353226182696
 20
29.80061079846882
 30
0.0
 11
457.2353340594158
 21
28.05066458717329
 31
0.0
  0
LINE
  5
35A
330
1F
100
AcDbEntity
  8
0-1
  6
JWW_DASHED1
 62
     2
370
     9
100
AcDbLine
 10
461.2353526763167
 20
29.80061079846882
 30
0.0
 11
459.2353433678662
 21
29.80061079846882
 31
0.0
  0
LINE
  5
35B
330
1F
100
AcDbEntity
  8
0-1
  6
Continuous
 62
     2
370
     9
100
AcDbLine
 10
461.2356008820246
 20
22.05055111834008
 30
0.0
 11
461.2356008820246
 21
42.05061710229302
 31
0.0
  0
LINE
  5
35C
330
1F
100
AcDbEntity
  8
0-1
  6
Continuous
 62
     2
370
     9
100
AcDbLine
 10
456.735604593622
 20
22.05055111834008
 30
0.0
 11
457.2353340594158
 21
22.05055111834008
 31
0.0
  0
LINE
  5
35D
330
1F
100
AcDbEntity
  8
0-1
  6
Continuous
 62
     2
370
     9
100
AcDbLine
 10
459.2353433678662
 20
22.05055111834008
 30
0.0
 11
461.2356008820246
 21
22.05055111834008
 31
0.0
  0
LINE
  5
35E
330
1F
100
AcDbEntity
  8
0-1
  6
JWW_CENTER2
 62
     2
370
     9
100
AcDbLine
 10
464.7834054309582
 20
32.05058411031678
 30
0.0
 11
455.6990296886387
 21
32.05058411031678
 31
0.0
  0
LINE
  5
35F
330
1F
100
AcDbEntity
  8
0-6
  6
Continuous
 62
     6
370
     9
100
AcDbLine
 10
453.7354462321354
 20
19.55061686663612
 30
0.0
 11
453.7354462321354
 21
59.55061686663612
 31
0.0
  0
LINE
  5
360
330
1F
100
AcDbEntity
  8
0-6
  6
Continuous
 62
     6
370
     9
100
AcDbLine
 10
453.7354462321354
 20
59.55061686663612
 30
0.0
 11
450.7354462321354
 21
59.55061686663612
 31
0.0
  0
LINE
  5
361
330
1F
100
AcDbEntity
  8
0-6
  6
Continuous
 62
     6
370
     9
100
AcDbLine
 10
450.7354462321354
 20
59.55061686663612
 30
0.0
 11
450.7354462321354
 21
19.55061686663612
 31
0.0
  0
LINE
  5
362
330
1F
100
AcDbEntity
  8
0-6
  6
Continuous
 62
     6
370
     9
100
AcDbLine
 10
452.6488477966271
 20
19.55061686663703
 30
0.0
 11
453.7354462321349
 21
20.6372153021448
 31
0.0
  0
LINE
  5
363
330
1F
100
AcDbEntity
  8
0-6
  6
Continuous
 62
     6
370
     9
100
AcDbLine
 10
450.7354462321344
 20
23.29406955163722
 30
0.0
 11
453.7354462321344
 21
26.29406955163768
 31
0.0
  0
LINE
  5
364
330
1F
100
AcDbEntity
  8
0-6
  6
Continuous
 62
     6
370
     9
100
AcDbLine
 10
450.7354462321354
 20
28.95092380112465
 30
0.0
 11
453.7354462321335
 21
31.95092380112283
 31
0.0
  0
LINE
  5
365
330
1F
100
AcDbEntity
  8
0-6
  6
Continuous
 62
     6
370
     9
100
AcDbLine
 10
450.7354462321349
 20
34.60777805061753
 30
0.0
 11
453.7354462321354
 21
37.60777805061753
 31
0.0
  0
LINE
  5
366
330
1F
100
AcDbEntity
  8
0-6
  6
Continuous
 62
     6
370
     9
100
AcDbLine
 10
450.7354462321354
 20
40.26463230011132
 30
0.0
 11
453.7354462321354
 21
43.26463230011132
 31
0.0
  0
LINE
  5
367
330
1F
100
AcDbEntity
  8
0-6
  6
Continuous
 62
     6
370
     9
100
AcDbLine
 10
450.7354462321349
 20
45.92148654960374
 30
0.0
 11
453.7354462321349
 21
48.9214865496042
 31
0.0
  0
LINE
  5
368
330
1F
100
AcDbEntity
  8
0-6
  6
Continuous
 62
     6
370
     9
100
AcDbLine
 10
450.7354462321358
 20
51.57834079909799
 30
0.0
 11
453.7354462321358
 21
54.57834079909844
 31
0.0
  0
LINE
  5
369
330
1F
100
AcDbEntity
  8
0-6
  6
Continuous
 62
     6
370
     9
100
AcDbLine
 10
450.7354462321354
 20
57.23519504859087
 30
0.0
 11
453.0508680501806
 21
59.55061686663612
 31
0.0
  0
LINE
  5
36A
330
1F
100
AcDbEntity
  8
0-6
  6
Continuous
 62
     6
370
     9
100
AcDbLine
 10
450.7354462321354
 20
19.55061686663612
 30
0.0
 11
453.7354462321354
 21
19.55061686663612
 31
0.0
  0
TEXT
  5
36B
330
1F
100
AcDbEntity
  8
F-5
  6
Continuous
 62
     2
370
     9
100
AcDbText
 10
-309.3628001271063
 20
-548.1112208411942
 30
0.0
 40
12.192
  1
　　　　　　　　　　　　　ＳＥＭ－２－３０６０（Ｐ＝１５）＋ＴＬ６０Ｐ
 41
0.7742857142857144
  7
ＭＳ ゴシック
100
AcDbText
  0
LINE
  5
36C
330
1F
100
AcDbEntity
  8
0-4
  6
Continuous
 62
     7
370
     9
100
AcDbLine
 10
463.2352115767039
 20
-87.94964970853243
 30
0.0
 11
463.2352115767039
 21
24.050584110317
 31
0.0
  0
LINE
  5
36D
330
1F
100
AcDbEntity
  8
0-4
  6
Continuous
 62
     7
370
     9
100
AcDbLine
 10
463.2352115767039
 20
-86.74964970853239
 30
0.0
 11
473.1496601904423
 21
-85.44438778633184
 31
0.0
  0
LINE
  5
36E
330
1F
100
AcDbEntity
  8
0-4
  6
Continuous
 62
     7
370
     9
100
AcDbLine
 10
463.2352115767039
 20
-86.74964970853239
 30
0.0
 11
473.1496601904423
 21
-88.05491163073293
 31
0.0
  0
LINE
  5
36F
330
1F
100
AcDbEntity
  8
0-4
  6
Continuous
 62
     7
370
     9
100
AcDbLine
 10
456.7356045936222
 20
-86.74964970853239
 30
0.0
 11
446.8211559798842
 21
-85.44438778633184
 31
0.0
  0
LINE
  5
370
330
1F
100
AcDbEntity
  8
0-4
  6
Continuous
 62
     7
370
     9
100
AcDbLine
 10
456.7356045936222
 20
-86.74964970853239
 30
0.0
 11
446.8211559798842
 21
-88.05491163073293
 31
0.0
  0
LINE
  5
371
330
1F
100
AcDbEntity
  8
0-4
  6
Continuous
 62
     7
370
     9
100
AcDbLine
 10
456.7356045936222
 20
-86.74964970853239
 30
0.0
 11
463.2352115767039
 21
-86.74964970853239
 31
0.0
  0
TEXT
  5
372
330
1F
100
AcDbEntity
  8
0-4
  6
Continuous
 62
     2
370
     9
100
AcDbText
 10
412.2356936719584
 20
-42.49361011816072
 30
0.0
 40
12.192
  1
60
 41
1.0625
  7
ＭＳ ゴシック
100
AcDbText
  0
LINE
  5
373
330
1F
100
AcDbEntity
  8
0-4
  6
Continuous
 62
     7
370
     9
100
AcDbLine
 10
390.7356441839938
 20
-86.74964970853239
 30
0.0
 11
402.6329467600076
 21
-88.3159437858128
 31
0.0
  0
LINE
  5
374
330
1F
100
AcDbEntity
  8
0-4
  6
Continuous
 62
     7
370
     9
100
AcDbLine
 10
390.7356441839938
 20
-86.74964970853239
 30
0.0
 11
402.6329467600076
 21
-85.18335563125197
 31
0.0
  0
LINE
  5
375
330
1F
100
AcDbEntity
  8
0-4
  6
Continuous
 62
     7
370
     9
100
AcDbLine
 10
450.7356441839938
 20
-46.74961671655615
 30
0.0
 11
438.8383416079805
 21
-48.31591079383657
 31
0.0
  0
LINE
  5
376
330
1F
100
AcDbEntity
  8
0-4
  6
Continuous
 62
     7
370
     9
100
AcDbLine
 10
450.7356441839938
 20
-46.74961671655615
 30
0.0
 11
438.8383416079805
 21
-45.18332263927573
 31
0.0
  0
LINE
  5
377
330
1F
100
AcDbEntity
  8
0-4
  6
Continuous
 62
     7
370
     9
100
AcDbLine
 10
390.7356441839938
 20
-46.74961671655615
 30
0.0
 11
402.6329467600076
 21
-48.31591079383657
 31
0.0
  0
LINE
  5
378
330
1F
100
AcDbEntity
  8
0-4
  6
Continuous
 62
     7
370
     9
100
AcDbLine
 10
390.7356441839938
 20
-46.74961671655615
 30
0.0
 11
402.6329467600076
 21
-45.18332263927573
 31
0.0
  0
LINE
  5
379
330
1F
100
AcDbEntity
  8
0-4
  6
Continuous
 62
     7
370
     9
100
AcDbLine
 10
450.7356441839938
 20
8.050484898730929
 30
0.0
 11
450.7356441839938
 21
-47.94960088040739
 31
0.0
  0
LINE
  5
37A
330
1F
100
AcDbEntity
  8
0-4
  6
Continuous
 62
     7
370
     9
100
AcDbLine
 10
390.7356441839938
 20
5.0505244891026
 30
0.0
 11
390.7356441839938
 21
-87.94963387238386
 31
0.0
  0
LINE
  5
37B
330
1F
100
AcDbEntity
  8
0-4
  6
Continuous
 62
     7
370
     9
100
AcDbLine
 10
390.7356441839938
 20
-46.74961671655615
 30
0.0
 11
450.7356441839938
 21
-46.74961671655615
 31
0.0
  0
LINE
  5
37C
330
1F
100
AcDbEntity
  8
0-4
  6
Continuous
 62
     7
370
     9
100
AcDbLine
 10
456.7356045936222
 20
-20.98538209180219
 30
0.0
 11
456.7356045936222
 21
-87.94963387238386
 31
0.0
  0
LINE
  5
37D
330
1F
100
AcDbEntity
  8
0-4
  6
Continuous
 62
     7
370
     9
100
AcDbLine
 10
456.7356045936222
 20
-86.74964970853239
 30
0.0
 11
444.8383020176084
 21
-88.3159437858128
 31
0.0
  0
LINE
  5
37E
330
1F
100
AcDbEntity
  8
0-4
  6
Continuous
 62
     7
370
     9
100
AcDbLine
 10
456.7356045936222
 20
-86.74964970853239
 30
0.0
 11
444.8383020176084
 21
-85.18335563125197
 31
0.0
  0
LINE
  5
37F
330
1F
100
AcDbEntity
  8
0-4
  6
Continuous
 62
     7
370
     9
100
AcDbLine
 10
390.7356441839938
 20
-86.74964970853239
 30
0.0
 11
456.7356045936222
 21
-86.74964970853239
 31
0.0
  0
TEXT
  5
380
330
1F
100
AcDbEntity
  8
0-4
  6
Continuous
 62
     2
370
   211
100
AcDbText
 10
415.235624388808
 20
-82.49364311013719
 30
0.0
 40
12.192
  1
66
 41
1.0625
  7
ＭＳ ゴシック
100
AcDbText
  0
TEXT
  5
381
330
1F
100
AcDbEntity
  8
0-4
  6
Continuous
 62
     2
370
   211
100
AcDbText
 10
468.6076948849559
 20
-82.0936497085323
 30
0.0
 40
12.192
  1
6.5
 41
1.083333333333333
  7
ＭＳ ゴシック
100
AcDbText
  0
LINE
  5
382
330
1F
100
AcDbEntity
  8
0-4
  6
Continuous
 62
     7
370
     9
100
AcDbLine
 10
463.2352115767039
 20
-86.74964970853239
 30
0.0
 11
495.6934172375708
 21
-86.74964970853239
 31
0.0
  0
ENDSEC
  0
SECTION
  2
OBJECTS
  0
DICTIONARY
  5
C
330
0
100
AcDbDictionary
281
     1
  3
ACAD_GROUP
350
D
  3
ACAD_LAYOUT
350
1A
  3
ACAD_MLEADERSTYLE
350
384
  3
ACAD_MLINESTYLE
350
17
  3
ACAD_PLOTSETTINGS
350
19
  3
ACAD_PLOTSTYLENAME
350
E
  3
ACAD_TABLESTYLE
350
383
  3
ACAD_VISUALSTYLE
350
2A
  0
DICTIONARY
  5
D
102
{ACAD_REACTORS
330
C
102
}
330
C
100
AcDbDictionary
281
     1
  0
DICTIONARY
  5
1A
102
{ACAD_REACTORS
330
C
102
}
330
C
100
AcDbDictionary
281
     1
  3
Layout1
350
1E
  3
Layout2
350
26
  3
Model
350
22
  0
DICTIONARY
  5
384
102
{ACAD_REACTORS
330
C
102
}
330
C
100
AcDbDictionary
281
     1
  0
DICTIONARY
  5
17
102
{ACAD_REACTORS
330
C
102
}
330
C
100
AcDbDictionary
281
     1
  3
Standard
350
18
  0
DICTIONARY
  5
19
102
{ACAD_REACTORS
330
C
102
}
330
C
100
AcDbDictionary
281
     1
  0
ACDBDICTIONARYWDFLT
  5
E
102
{ACAD_REACTORS
330
C
102
}
330
C
100
AcDbDictionary
281
     1
  3
Normal
350
F
100
AcDbDictionaryWithDefault
340
F
  0
DICTIONARY
  5
383
102
{ACAD_REACTORS
330
C
102
}
330
C
100
AcDbDictionary
281
     1
  0
DICTIONARY
  5
2A
102
{ACAD_REACTORS
330
C
102
}
330
C
100
AcDbDictionary
281
     1
  3
2dWireframe
350
2F
  3
3D Hidden
350
31
  3
3dWireframe
350
30
  3
Basic
350
32
  3
Brighten
350
36
  3
ColorChange
350
3A
  3
Conceptual
350
34
  3
Dim
350
35
  3
Facepattern
350
39
  3
Flat
350
2B
  3
FlatWithEdges
350
2C
  3
Gouraud
350
2D
  3
GouraudWithEdges
350
2E
  3
Linepattern
350
38
  3
Realistic
350
33
  3
Thicken
350
37
  0
LAYOUT
  5
1E
102
{ACAD_REACTORS
330
1A
102
}
330
1A
100
AcDbPlotSettings
  1

  2
none_device
  4

  6

 40
0.0
 41
0.0
 42
0.0
 43
0.0
 44
0.0
 45
0.0
 46
0.0
 47
0.0
 48
0.0
 49
0.0
140
0.0
141
0.0
142
1.0
143
1.0
 70
   688
 72
     0
 73
     0
 74
     5
  7

 75
    16
 76
     0
 77
     5
 78
   300
147
1.0
148
0.0
149
0.0
100
AcDbLayout
  1
Layout1
 70
     1
 71
     1
 10
0.0
 20
0.0
 11
420.0
 21
297.0
 12
0.0
 22
0.0
 32
0.0
 14
1.000000000000000E+20
 24
1.000000000000000E+20
 34
1.000000000000000E+20
 15
-1.000000000000000E+20
 25
-1.000000000000000E+20
 35
-1.000000000000000E+20
146
0.0
 13
0.0
 23
0.0
 33
0.0
 16
1.0
 26
0.0
 36
0.0
 17
0.0
 27
1.0
 37
0.0
 76
     0
330
1B
  0
LAYOUT
  5
26
102
{ACAD_REACTORS
330
1A
102
}
330
1A
100
AcDbPlotSettings
  1

  2
none_device
  4

  6

 40
0.0
 41
0.0
 42
0.0
 43
0.0
 44
0.0
 45
0.0
 46
0.0
 47
0.0
 48
0.0
 49
0.0
140
0.0
141
0.0
142
1.0
143
1.0
 70
   688
 72
     0
 73
     0
 74
     5
  7

 75
    16
 76
     0
 77
     5
 78
   300
147
1.0
148
0.0
149
0.0
100
AcDbLayout
  1
Layout2
 70
     1
 71
     2
 10
0.0
 20
0.0
 11
0.0
 21
0.0
 12
0.0
 22
0.0
 32
0.0
 14
0.0
 24
0.0
 34
0.0
 15
0.0
 25
0.0
 35
0.0
146
0.0
 13
0.0
 23
0.0
 33
0.0
 16
1.0
 26
0.0
 36
0.0
 17
0.0
 27
1.0
 37
0.0
 76
     0
330
23
  0
LAYOUT
  5
22
102
{ACAD_REACTORS
330
1A
102
}
330
1A
100
AcDbPlotSettings
  1

  2
none_device
  4

  6

 40
0.0
 41
0.0
 42
0.0
 43
0.0
 44
0.0
 45
0.0
 46
0.0
 47
0.0
 48
0.0
 49
0.0
140
0.0
141
0.0
142
1.0
143
1.0
 70
  1712
 72
     0
 73
     0
 74
     0
  7

 75
     0
 76
     0
 77
     5
 78
   300
147
1.0
148
0.0
149
0.0
100
AcDbLayout
  1
Model
 70
     1
 71
     0
 10
-840.0
 20
-594.0
 11
840.0
 21
594.0
 12
0.0
 22
0.0
 32
0.0
 14
-840.0
 24
-594.0
 34
0.0
 15
840.0
 25
594.0
 35
0.0
146
0.0
 13
0.0
 23
0.0
 33
0.0
 16
1.0
 26
0.0
 36
0.0
 17
0.0
 27
1.0
 37
0.0
 76
     0
330
1F
331
29
  0
MLINESTYLE
  5
18
102
{ACAD_REACTORS
330
17
102
}
330
17
100
AcDbMlineStyle
  2
Standard
 70
     0
  3

 62
   256
 51
90.0
 52
90.0
 71
     2
 49
0.5
 62
   256
  6
BYLAYER
 49
-0.5
 62
   256
  6
BYLAYER
  0
ACDBPLACEHOLDER
  5
F
102
{ACAD_REACTORS
330
E
102
}
330
E
  0
VISUALSTYLE
  5
2F
102
{ACAD_REACTORS
330
2A
102
}
330
2A
100
AcDbVisualStyle
  2
2dWireframe
 70
     4
 71
     0
 72
     2
 73
     0
 90
        0
 40
-0.6
 41
-30.0
 62
     5
 63
     7
421
 16777215
 74
     1
 91
        4
 64
     7
 65
   257
 75
     1
175
     1
 42
1.0
 92
        0
 66
   257
 43
1.0
 76
     1
 77
     6
 78
     2
 67
     7
 79
     5
170
     0
171
     0
290
     0
174
     0
 93
        1
 44
0.0
173
     0
291
     0
 45
0.0
1001
ACAD
1000
AcDbSavedByObjectVersion
1070
     0
  0
VISUALSTYLE
  5
31
102
{ACAD_REACTORS
330
2A
102
}
330
2A
100
AcDbVisualStyle
  2
3D Hidden
 70
     6
 71
     1
 72
     2
 73
     2
 90
        0
 40
-0.6
 41
-30.0
 62
     5
 63
     7
421
 16777215
 74
     2
 91
        2
 64
     7
 65
   257
 75
     2
175
     1
 42
40.0
 92
        0
 66
   257
 43
1.0
 76
     1
 77
     6
 78
     2
 67
     7
 79
     3
170
     0
171
     0
290
     0
174
     0
 93
        1
 44
0.0
173
     0
291
     0
 45
0.0
1001
ACAD
1000
AcDbSavedByObjectVersion
1070
     0
  0
VISUALSTYLE
  5
30
102
{ACAD_REACTORS
330
2A
102
}
330
2A
100
AcDbVisualStyle
  2
3dWireframe
 70
     5
 71
     0
 72
     2
 73
     0
 90
        0
 40
-0.6
 41
-30.0
 62
     5
 63
     7
421
 16777215
 74
     1
 91
        4
 64
     7
 65
   257
 75
     1
175
     1
 42
1.0
 92
        0
 66
   257
 43
1.0
 76
     1
 77
     6
 78
     2
 67
     7
 79
     5
170
     0
171
     0
290
     0
174
     0
 93
        1
 44
0.0
173
     0
291
     0
 45
0.0
1001
ACAD
1000
AcDbSavedByObjectVersion
1070
     0
  0
VISUALSTYLE
  5
32
102
{ACAD_REACTORS
330
2A
102
}
330
2A
100
AcDbVisualStyle
  2
Basic
 70
     7
 71
     1
 72
     0
 73
     1
 90
        0
 40
-0.6
 41
-30.0
 62
     5
 63
     7
421
 16777215
 74
     0
 91
        4
 64
     7
 65
   257
 75
     1
175
     1
 42
1.0
 92
        8
 66
     7
 43
1.0
 76
     1
 77
     6
 78
     2
 67
     7
 79
     5
170
     0
171
     0
290
     0
174
     0
 93
        1
 44
0.0
173
     0
291
     1
 45
0.0
1001
ACAD
1000
AcDbSavedByObjectVersion
1070
     0
  0
VISUALSTYLE
  5
36
102
{ACAD_REACTORS
330
2A
102
}
330
2A
100
AcDbVisualStyle
  2
Brighten
 70
    12
 71
     2
 72
     2
 73
     0
 90
        0
 40
-0.6
 41
-30.0
 62
     5
 63
     7
421
 16777215
 74
     1
 91
        4
 64
     7
 65
   257
 75
     1
175
     1
 42
1.0
 92
        8
 66
     7
 43
1.0
 76
     1
 77
     6
 78
     2
 67
     7
 79
     5
170
     0
171
     0
290
     0
174
     0
 93
        1
 44
50.0
173
     0
291
     1
 45
0.0
1001
ACAD
1000
AcDbSavedByObjectVersion
1070
     0
  0
VISUALSTYLE
  5
3A
102
{ACAD_REACTORS
330
2A
102
}
330
2A
100
AcDbVisualStyle
  2
ColorChange
 70
    16
 71
     2
 72
     2
 73
     3
 90
        0
 40
-0.6
 41
-30.0
 62
     5
 63
     8
421
  8421504
 74
     1
 91
        4
 64
     7
 65
   257
 75
     1
175
     1
 42
1.0
 92
        8
 66
     8
424
  8421504
 43
1.0
 76
     1
 77
     6
 78
     2
 67
     7
 79
     5
170
     0
171
     0
290
     0
174
     0
 93
        1
 44
0.0
173
     0
291
     1
 45
0.0
1001
ACAD
1000
AcDbSavedByObjectVersion
1070
     0
  0
VISUALSTYLE
  5
34
102
{ACAD_REACTORS
330
2A
102
}
330
2A
100
AcDbVisualStyle
  2
Conceptual
 70
     9
 71
     3
 72
     2
 73
     0
 90
        0
 40
-0.6
 41
-30.0
 62
     5
 63
     7
421
 16777215
 74
     2
 91
        2
 64
     7
 65
   257
 75
     1
175
     1
 42
40.0
 92
        8
 66
     7
 43
1.0
 76
     1
 77
     6
 78
     2
 67
     7
 79
     3
170
     0
171
     0
290
     0
174
     0
 93
        1
 44
0.0
173
     0
291
     0
 45
0.0
1001
ACAD
1000
AcDbSavedByObjectVersion
1070
     0
  0
VISUALSTYLE
  5
35
102
{ACAD_REACTORS
330
2A
102
}
330
2A
100
AcDbVisualStyle
  2
Dim
 70
    11
 71
     2
 72
     2
 73
     0
 90
        0
 40
-0.6
 41
-30.0
 62
     5
 63
     7
421
 16777215
 74
     1
 91
        4
 64
     7
 65
   257
 75
     1
175
     1
 42
1.0
 92
        8
 66
     7
 43
1.0
 76
     1
 77
     6
 78
     2
 67
     7
 79
     5
170
     0
171
     0
290
     0
174
     0
 93
        1
 44
-50.0
173
     0
291
     1
 45
0.0
1001
ACAD
1000
AcDbSavedByObjectVersion
1070
     0
  0
VISUALSTYLE
  5
39
102
{ACAD_REACTORS
330
2A
102
}
330
2A
100
AcDbVisualStyle
  2
Facepattern
 70
    15
 71
     2
 72
     2
 73
     0
 90
        0
 40
-0.6
 41
-30.0
 62
     5
 63
     7
421
 16777215
 74
     1
 91
        4
 64
     7
 65
   257
 75
     1
175
     1
 42
1.0
 92
        8
 66
     7
 43
1.0
 76
     1
 77
     6
 78
     2
 67
     7
 79
     5
170
     0
171
     0
290
     0
174
     0
 93
        1
 44
0.0
173
     0
291
     1
 45
0.0
1001
ACAD
1000
AcDbSavedByObjectVersion
1070
     0
  0
VISUALSTYLE
  5
2B
102
{ACAD_REACTORS
330
2A
102
}
330
2A
100
AcDbVisualStyle
  2
Flat
 70
     0
 71
     2
 72
     1
 73
     1
 90
        2
 40
-0.6
 41
30.0
 62
     5
 63
     7
421
 16777215
 74
     0
 91
        4
 64
     7
 65
   257
 75
     1
175
     1
 42
1.0
 92
        8
 66
     7
 43
1.0
 76
     1
 77
     6
 78
     2
 67
     7
 79
     5
170
     0
171
     0
290
     0
174
     0
 93
       13
 44
0.0
173
     0
291
     1
 45
0.0
1001
ACAD
1000
AcDbSavedByObjectVersion
1070
     0
  0
VISUALSTYLE
  5
2C
102
{ACAD_REACTORS
330
2A
102
}
330
2A
100
AcDbVisualStyle
  2
FlatWithEdges
 70
     1
 71
     2
 72
     1
 73
     1
 90
        2
 40
-0.6
 41
30.0
 62
     5
 63
     7
421
 16777215
 74
     1
 91
        4
 64
     7
 65
   257
 75
     1
175
     1
 42
1.0
 92
        0
 66
   257
 43
1.0
 76
     1
 77
     6
 78
     2
 67
     7
 79
     5
170
     0
171
     0
290
     0
174
     0
 93
       13
 44
0.0
173
     0
291
     1
 45
0.0
1001
ACAD
1000
AcDbSavedByObjectVersion
1070
     0
  0
VISUALSTYLE
  5
2D
102
{ACAD_REACTORS
330
2A
102
}
330
2A
100
AcDbVisualStyle
  2
Gouraud
 70
     2
 71
     2
 72
     2
 73
     1
 90
        2
 40
-0.6
 41
30.0
 62
     5
 63
     7
421
 16777215
 74
     0
 91
        4
 64
     7
 65
   257
 75
     1
175
     1
 42
1.0
 92
        0
 66
     7
 43
1.0
 76
     1
 77
     6
 78
     2
 67
     7
 79
     5
170
     0
171
     0
290
     0
174
     0
 93
       13
 44
0.0
173
     0
291
     1
 45
0.0
1001
ACAD
1000
AcDbSavedByObjectVersion
1070
     0
  0
VISUALSTYLE
  5
2E
102
{ACAD_REACTORS
330
2A
102
}
330
2A
100
AcDbVisualStyle
  2
GouraudWithEdges
 70
     3
 71
     2
 72
     2
 73
     1
 90
        2
 40
-0.6
 41
30.0
 62
     5
 63
     7
421
 16777215
 74
     1
 91
        4
 64
     7
 65
   257
 75
     1
175
     1
 42
1.0
 92
        0
 66
   257
 43
1.0
 76
     1
 77
     6
 78
     2
 67
     7
 79
     5
170
     0
171
     0
290
     0
174
     0
 93
       13
 44
0.0
173
     0
291
     1
 45
0.0
1001
ACAD
1000
AcDbSavedByObjectVersion
1070
     0
  0
VISUALSTYLE
  5
38
102
{ACAD_REACTORS
330
2A
102
}
330
2A
100
AcDbVisualStyle
  2
Linepattern
 70
    14
 71
     2
 72
     2
 73
     0
 90
        0
 40
-0.6
 41
-30.0
 62
     5
 63
     7
421
 16777215
 74
     1
 91
        4
 64
     7
 65
   257
 75
     7
175
     7
 42
1.0
 92
        8
 66
     7
 43
1.0
 76
     1
 77
     6
 78
     2
 67
     7
 79
     5
170
     0
171
     0
290
     0
174
     0
 93
        1
 44
0.0
173
     0
291
     1
 45
0.0
1001
ACAD
1000
AcDbSavedByObjectVersion
1070
     0
  0
VISUALSTYLE
  5
33
102
{ACAD_REACTORS
330
2A
102
}
330
2A
100
AcDbVisualStyle
  2
Realistic
 70
     8
 71
     2
 72
     2
 73
     0
 90
        0
 40
-0.6
 41
-30.0
 62
     5
 63
     7
421
 16777215
 74
     1
 91
        0
 64
     7
 65
   257
 75
     1
175
     1
 42
1.0
 92
        8
 66
     8
424
  7895160
 43
1.0
 76
     1
 77
     6
 78
     2
 67
     7
 79
     5
170
     0
171
     0
290
     0
174
     0
 93
       13
 44
0.0
173
     0
291
     0
 45
0.0
1001
ACAD
1000
AcDbSavedByObjectVersion
1070
     0
  0
VISUALSTYLE
  5
37
102
{ACAD_REACTORS
330
2A
102
}
330
2A
100
AcDbVisualStyle
  2
Thicken
 70
    13
 71
     2
 72
     2
 73
     0
 90
        0
 40
-0.6
 41
-30.0
 62
     5
 63
     7
421
 16777215
 74
     1
 91
        4
 64
     7
 65
   257
 75
     1
175
     1
 42
1.0
 92
       12
 66
     7
 43
1.0
 76
     1
 77
     6
 78
     2
 67
     7
 79
     5
170
     0
171
     0
290
     0
174
     0
 93
        1
 44
0.0
173
     0
291
     1
 45
0.0
1001
ACAD
1000
AcDbSavedByObjectVersion
1070
     0
  0
ENDSEC
  0
EOF
