  0
SECTION
  2
HEADER
  9
$ACADVER
  1
AC1015
  9
$ACADMAINTVER
 70
     6
  9
$DWGCODEPAGE
  3
ANSI_932
  9
$INSBASE
 10
0.0
 20
0.0
 30
0.0
  9
$EXTMIN
 10
-2100.0
 20
-1485.0
 30
0.0
  9
$EXTMAX
 10
2100.0
 20
1485.0
 30
0.0
  9
$LIMMIN
 10
-2100.0
 20
-1485.0
  9
$LIMMAX
 10
2100.0
 20
1485.0
  9
$ORTHOMODE
 70
     0
  9
$REGENMODE
 70
     1
  9
$FILLMODE
 70
     1
  9
$QTEXTMODE
 70
     0
  9
$MIRRTEXT
 70
     1
  9
$LTSCALE
 40
10.0
  9
$ATTMODE
 70
     1
  9
$TEXTSIZE
 40
2.5
  9
$TRACEWID
 40
1.0
  9
$TEXTSTYLE
  7
Standard
  9
$CLAYER
  8
0
  9
$CELTYPE
  6
ByLayer
  9
$CECOLOR
 62
   256
  9
$CELTSCALE
 40
1.0
  9
$DISPSILH
 70
     0
  9
$DIMSCALE
 40
1.0
  9
$DIMASZ
 40
2.5
  9
$DIMEXO
 40
0.625
  9
$DIMDLI
 40
3.75
  9
$DIMRND
 40
0.0
  9
$DIMDLE
 40
0.0
  9
$DIMEXE
 40
1.25
  9
$DIMTP
 40
0.0
  9
$DIMTM
 40
0.0
  9
$DIMTXT
 40
2.5
  9
$DIMCEN
 40
2.5
  9
$DIMTSZ
 40
0.0
  9
$DIMTOL
 70
     0
  9
$DIMLIM
 70
     0
  9
$DIMTIH
 70
     0
  9
$DIMTOH
 70
     0
  9
$DIMSE1
 70
     0
  9
$DIMSE2
 70
     0
  9
$DIMTAD
 70
     1
  9
$DIMZIN
 70
     8
  9
$DIMBLK
  1

  9
$DIMASO
 70
     1
  9
$DIMSHO
 70
     1
  9
$DIMPOST
  1

  9
$DIMAPOST
  1

  9
$DIMALT
 70
     0
  9
$DIMALTD
 70
     3
  9
$DIMALTF
 40
0.03937007874016
  9
$DIMLFAC
 40
1.0
  9
$DIMTOFL
 70
     1
  9
$DIMTVP
 40
0.0
  9
$DIMTIX
 70
     0
  9
$DIMSOXD
 70
     0
  9
$DIMSAH
 70
     0
  9
$DIMBLK1
  1

  9
$DIMBLK2
  1

  9
$DIMSTYLE
  2
ISO-25
  9
$DIMCLRD
 70
     0
  9
$DIMCLRE
 70
     0
  9
$DIMCLRT
 70
     0
  9
$DIMTFAC
 40
1.0
  9
$DIMGAP
 40
0.625
  9
$DIMJUST
 70
     0
  9
$DIMSD1
 70
     0
  9
$DIMSD2
 70
     0
  9
$DIMTOLJ
 70
     0
  9
$DIMTZIN
 70
     8
  9
$DIMALTZ
 70
     0
  9
$DIMALTTZ
 70
     0
  9
$DIMUPT
 70
     0
  9
$DIMDEC
 70
     2
  9
$DIMTDEC
 70
     2
  9
$DIMALTU
 70
     2
  9
$DIMALTTD
 70
     3
  9
$DIMTXSTY
  7
Standard
  9
$DIMAUNIT
 70
     0
  9
$DIMADEC
 70
     0
  9
$DIMALTRND
 40
0.0
  9
$DIMAZIN
 70
     0
  9
$DIMDSEP
 70
    44
  9
$DIMATFIT
 70
     3
  9
$DIMFRAC
 70
     0
  9
$DIMLDRBLK
  1

  9
$DIMLUNIT
 70
     2
  9
$DIMLWD
 70
    -2
  9
$DIMLWE
 70
    -2
  9
$DIMTMOVE
 70
     0
  9
$LUNITS
 70
     2
  9
$LUPREC
 70
     4
  9
$SKETCHINC
 40
1.0
  9
$FILLETRAD
 40
10.0
  9
$AUNITS
 70
     0
  9
$AUPREC
 70
     0
  9
$MENU
  1
.
  9
$ELEVATION
 40
0.0
  9
$PELEVATION
 40
0.0
  9
$THICKNESS
 40
0.0
  9
$LIMCHECK
 70
     0
  9
$CHAMFERA
 40
10.0
  9
$CHAMFERB
 40
10.0
  9
$CHAMFERC
 40
20.0
  9
$CHAMFERD
 40
0.0
  9
$SKPOLY
 70
     0
  9
$TDCREATE
 40
2456899.721359444
  9
$TDUCREATE
 40
2456899.346359444
  9
$TDUPDATE
 40
2456899.721359456
  9
$TDUUPDATE
 40
2456899.346359456
  9
$TDINDWG
 40
0.0000000116
  9
$TDUSRTIMER
 40
0.0000000116
  9
$USRTIMER
 70
     1
  9
$ANGBASE
 50
0.0
  9
$ANGDIR
 70
     0
  9
$PDMODE
 70
     0
  9
$PDSIZE
 40
0.0
  9
$PLINEWID
 40
0.0
  9
$SPLFRAME
 70
     0
  9
$SPLINETYPE
 70
     6
  9
$SPLINESEGS
 70
     8
  9
$HANDSEED
  5
3AF
  9
$SURFTAB1
 70
     6
  9
$SURFTAB2
 70
     6
  9
$SURFTYPE
 70
     6
  9
$SURFU
 70
     6
  9
$SURFV
 70
     6
  9
$UCSBASE
  2

  9
$UCSNAME
  2

  9
$UCSORG
 10
0.0
 20
0.0
 30
0.0
  9
$UCSXDIR
 10
1.0
 20
0.0
 30
0.0
  9
$UCSYDIR
 10
0.0
 20
1.0
 30
0.0
  9
$UCSORTHOREF
  2

  9
$UCSORTHOVIEW
 70
     0
  9
$UCSORGTOP
 10
0.0
 20
0.0
 30
0.0
  9
$UCSORGBOTTOM
 10
0.0
 20
0.0
 30
0.0
  9
$UCSORGLEFT
 10
0.0
 20
0.0
 30
0.0
  9
$UCSORGRIGHT
 10
0.0
 20
0.0
 30
0.0
  9
$UCSORGFRONT
 10
0.0
 20
0.0
 30
0.0
  9
$UCSORGBACK
 10
0.0
 20
0.0
 30
0.0
  9
$PUCSBASE
  2

  9
$PUCSNAME
  2

  9
$PUCSORG
 10
0.0
 20
0.0
 30
0.0
  9
$PUCSXDIR
 10
1.0
 20
0.0
 30
0.0
  9
$PUCSYDIR
 10
0.0
 20
1.0
 30
0.0
  9
$PUCSORTHOREF
  2

  9
$PUCSORTHOVIEW
 70
     0
  9
$PUCSORGTOP
 10
0.0
 20
0.0
 30
0.0
  9
$PUCSORGBOTTOM
 10
0.0
 20
0.0
 30
0.0
  9
$PUCSORGLEFT
 10
0.0
 20
0.0
 30
0.0
  9
$PUCSORGRIGHT
 10
0.0
 20
0.0
 30
0.0
  9
$PUCSORGFRONT
 10
0.0
 20
0.0
 30
0.0
  9
$PUCSORGBACK
 10
0.0
 20
0.0
 30
0.0
  9
$USERI1
 70
     0
  9
$USERI2
 70
     0
  9
$USERI3
 70
     0
  9
$USERI4
 70
     0
  9
$USERI5
 70
     0
  9
$USERR1
 40
0.0
  9
$USERR2
 40
0.0
  9
$USERR3
 40
0.0
  9
$USERR4
 40
0.0
  9
$USERR5
 40
0.0
  9
$WORLDVIEW
 70
     1
  9
$SHADEDGE
 70
     3
  9
$SHADEDIF
 70
    70
  9
$TILEMODE
 70
     1
  9
$MAXACTVP
 70
    64
  9
$PINSBASE
 10
0.0
 20
0.0
 30
0.0
  9
$PLIMCHECK
 70
     0
  9
$PEXTMIN
 10
1.000000000000000E+20
 20
1.000000000000000E+20
 30
1.000000000000000E+20
  9
$PEXTMAX
 10
-1.000000000000000E+20
 20
-1.000000000000000E+20
 30
-1.000000000000000E+20
  9
$PLIMMIN
 10
0.0
 20
0.0
  9
$PLIMMAX
 10
420.0
 20
297.0
  9
$UNITMODE
 70
     0
  9
$VISRETAIN
 70
     1
  9
$PLINEGEN
 70
     0
  9
$PSLTSCALE
 70
     1
  9
$TREEDEPTH
 70
  3020
  9
$CMLSTYLE
  2
Standard
  9
$CMLJUST
 70
     0
  9
$CMLSCALE
 40
20.0
  9
$PROXYGRAPHICS
 70
     1
  9
$MEASUREMENT
 70
     1
  9
$CELWEIGHT
370
    -1
  9
$ENDCAPS
280
     0
  9
$JOINSTYLE
280
     0
  9
$LWDISPLAY
290
     0
  9
$INSUNITS
 70
     4
  9
$HYPERLINKBASE
  1

  9
$STYLESHEET
  1

  9
$XEDIT
290
     1
  9
$CEPSNTYPE
380
     0
  9
$PSTYLEMODE
290
     1
  9
$FINGERPRINTGUID
  2
{7F935EE6-8238-41EC-BA82-A312E5A00A56}
  9
$VERSIONGUID
  2
{FAEB1C32-E019-11D5-929B-00C0DF256EC4}
  9
$EXTNAMES
290
     1
  9
$PSVPSCALE
 40
0.0
  9
$OLESTARTUP
290
     0
  0
ENDSEC
  0
SECTION
  2
CLASSES
  0
CLASS
  1
ACDBDICTIONARYWDFLT
  2
AcDbDictionaryWithDefault
  3
ObjectDBX Classes
 90
        0
280
     0
281
     0
  0
CLASS
  1
VISUALSTYLE
  2
AcDbVisualStyle
  3
ObjectDBX Classes
 90
     4095
280
     0
281
     0
  0
CLASS
  1
DICTIONARYVAR
  2
AcDbDictionaryVar
  3
ObjectDBX Classes
 90
        0
280
     0
281
     0
  0
CLASS
  1
ACDBPLACEHOLDER
  2
AcDbPlaceHolder
  3
ObjectDBX Classes
 90
        0
280
     0
281
     0
  0
CLASS
  1
LAYOUT
  2
AcDbLayout
  3
ObjectDBX Classes
 90
        0
280
     0
281
     0
  0
ENDSEC
  0
SECTION
  2
TABLES
  0
TABLE
  2
VPORT
  5
8
330
0
100
AcDbSymbolTable
 70
     1
  0
VPORT
  5
29
330
8
100
AcDbSymbolTableRecord
100
AcDbViewportTableRecord
  2
*Active
 70
     0
 10
0.0
 20
0.0
 11
1.0
 21
1.0
 12
0.0
 22
0.0
 13
0.0
 23
0.0
 14
10.0
 24
10.0
 15
10.0
 25
10.0
 16
0.0
 26
0.0
 36
1.0
 17
0.0
 27
0.0
 37
0.0
 40
3267.0
 41
1.414141414141414
 42
50.0
 43
0.0
 44
0.0
 50
0.0
 51
0.0
 71
     0
 72
 10000
 73
     1
 74
     3
 75
     0
 76
     0
 77
     0
 78
     0
281
     0
 65
     1
110
0.0
120
0.0
130
0.0
111
1.0
121
0.0
131
0.0
112
0.0
122
1.0
132
0.0
 79
     0
146
0.0
  0
ENDTAB
  0
TABLE
  2
LTYPE
  5
5
330
0
100
AcDbSymbolTable
 70
     6
  0
LTYPE
  5
14
330
5
100
AcDbSymbolTableRecord
100
AcDbLinetypeTableRecord
  2
ByBlock
 70
     0
  3

 72
    65
 73
     0
 40
0.0
  0
LTYPE
  5
15
330
5
100
AcDbSymbolTableRecord
100
AcDbLinetypeTableRecord
  2
ByLayer
 70
     0
  3

 72
    65
 73
     0
 40
0.0
  0
LTYPE
  5
16
330
5
100
AcDbSymbolTableRecord
100
AcDbLinetypeTableRecord
  2
Continuous
 70
     0
  3
Solid line
 72
    65
 73
     0
 40
0.0
  0
LTYPE
  5
3C
330
5
100
AcDbSymbolTableRecord
100
AcDbLinetypeTableRecord
  2
JWW_CENTER1
 70
     0
  3
-----  --  ----------  --  -----
 72
    65
 73
     4
 40
6.773333333333333
 49
4.233333333333333
 74
     0
 49
-0.8466666666666667
 74
     0
 49
0.8466666666666667
 74
     0
 49
-0.8466666666666667
 74
     0
  0
LTYPE
  5
3D
330
5
100
AcDbSymbolTableRecord
100
AcDbLinetypeTableRecord
  2
JWW_CENTER2
 70
     0
  3
-------------  --  -------------
 72
    65
 73
     4
 40
13.54666666666667
 49
11.00666666666667
 74
     0
 49
-0.8466666666666667
 74
     0
 49
0.8466666666666667
 74
     0
 49
-0.8466666666666667
 74
     0
  0
LTYPE
  5
3E
330
5
100
AcDbSymbolTableRecord
100
AcDbLinetypeTableRecord
  2
JWW_DASHED1
 70
     0
  3
-  --  --  --  --  --  --  --  -
 72
    65
 73
     2
 40
1.693333333333333
 49
0.8466666666666667
 74
     0
 49
-0.8466666666666667
 74
     0
  0
LTYPE
  5
3F
330
5
100
AcDbSymbolTableRecord
100
AcDbLinetypeTableRecord
  2
JWW_PHANTOM2
 70
     0
  3
------------  -  -  ------------
 72
    65
 73
     6
 40
13.54666666666667
 49
10.16
 74
     0
 49
-0.8466666666666667
 74
     0
 49
0.4233333333333333
 74
     0
 49
-0.8466666666666667
 74
     0
 49
0.4233333333333333
 74
     0
 49
-0.8466666666666667
 74
     0
  0
LTYPE
  5
40
330
5
100
AcDbSymbolTableRecord
100
AcDbLinetypeTableRecord
  2
JWW_DASHED3
 70
     0
  3
---  ------  ------  ------  ---
 72
    65
 73
     2
 40
3.386666666666667
 49
2.54
 74
     0
 49
-0.8466666666666667
 74
     0
  0
ENDTAB
  0
TABLE
  2
LAYER
  5
2
330
0
100
AcDbSymbolTable
 70
     9
  0
LAYER
  5
10
330
2
100
AcDbSymbolTableRecord
100
AcDbLayerTableRecord
  2
0
 70
     0
 62
     7
  6
Continuous
370
    -3
390
F
  0
LAYER
  5
41
330
2
100
AcDbSymbolTableRecord
100
AcDbLayerTableRecord
  2
0-F
 70
     0
 62
     7
  6
Continuous
370
    -3
390
F
  0
LAYER
  5
42
330
2
100
AcDbSymbolTableRecord
100
AcDbLayerTableRecord
  2
0-E
 70
     0
 62
     7
  6
Continuous
370
    -3
390
F
  0
LAYER
  5
43
330
2
100
AcDbSymbolTableRecord
100
AcDbLayerTableRecord
  2
0-1
 70
     0
 62
     7
  6
Continuous
370
    -3
390
F
  0
LAYER
  5
44
330
2
100
AcDbSymbolTableRecord
100
AcDbLayerTableRecord
  2
0-0
 70
     0
 62
     7
  6
Continuous
370
    -3
390
F
  0
LAYER
  5
45
330
2
100
AcDbSymbolTableRecord
100
AcDbLayerTableRecord
  2
0-6
 70
     0
 62
     7
  6
Continuous
370
    -3
390
F
  0
LAYER
  5
46
330
2
100
AcDbSymbolTableRecord
100
AcDbLayerTableRecord
  2
0-4
 70
     0
 62
     7
  6
Continuous
370
    -3
390
F
  0
LAYER
  5
47
330
2
100
AcDbSymbolTableRecord
100
AcDbLayerTableRecord
  2
0-5
 70
     0
 62
     7
  6
Continuous
370
    -3
390
F
  0
LAYER
  5
48
330
2
100
AcDbSymbolTableRecord
100
AcDbLayerTableRecord
  2
F-5
 70
     0
 62
     7
  6
Continuous
370
    -3
390
F
  0
ENDTAB
  0
TABLE
  2
STYLE
  5
3
330
0
100
AcDbSymbolTable
 70
     2
  0
STYLE
  5
11
330
3
100
AcDbSymbolTableRecord
100
AcDbTextStyleTableRecord
  2
Standard
 70
     0
 40
0.0
 41
1.0
 50
0.0
 71
     0
 42
2.5
  3
txt
  4

1001
ACAD
1000

1071
        0
  0
STYLE
  5
3B
330
3
100
AcDbSymbolTableRecord
100
AcDbTextStyleTableRecord
  2
ＭＳ ゴシック
 70
     0
 40
1.0
 41
1.0
 50
0.0
 71
     0
 42
10.0
  3
msgothic.ttc
  4

1001
ACAD
1000
MS Gothic
1071
    32817
  0
ENDTAB
  0
TABLE
  2
VIEW
  5
6
330
0
100
AcDbSymbolTable
 70
     0
  0
ENDTAB
  0
TABLE
  2
UCS
  5
7
330
0
100
AcDbSymbolTable
 70
     0
  0
ENDTAB
  0
TABLE
  2
APPID
  5
9
330
0
100
AcDbSymbolTable
 70
     1
  0
APPID
  5
12
330
9
100
AcDbSymbolTableRecord
100
AcDbRegAppTableRecord
  2
ACAD
 70
     0
  0
ENDTAB
  0
TABLE
  2
DIMSTYLE
  5
A
330
0
100
AcDbSymbolTable
 70
     1
100
AcDbDimStyleTable
  0
DIMSTYLE
105
27
330
A
100
AcDbSymbolTableRecord
100
AcDbDimStyleTableRecord
  2
ISO-25
 70
     0
 41
2.5
 42
0.625
 43
3.75
 44
1.25
 73
     0
 74
     0
 77
     1
 78
     8
140
2.5
141
2.5
143
0.03937007874016
147
0.625
171
     3
172
     1
271
     2
272
     2
274
     3
278
    44
283
     0
284
     8
340
11
  0
ENDTAB
  0
TABLE
  2
BLOCK_RECORD
  5
1
330
0
100
AcDbSymbolTable
 70
     1
  0
BLOCK_RECORD
  5
1F
330
1
100
AcDbSymbolTableRecord
100
AcDbBlockTableRecord
  2
*Model_Space
340
22
  0
BLOCK_RECORD
  5
1B
330
1
100
AcDbSymbolTableRecord
100
AcDbBlockTableRecord
  2
*Paper_Space
340
1E
  0
BLOCK_RECORD
  5
23
330
1
100
AcDbSymbolTableRecord
100
AcDbBlockTableRecord
  2
*Paper_Space0
340
26
  0
ENDTAB
  0
ENDSEC
  0
SECTION
  2
BLOCKS
  0
BLOCK
  5
20
330
1F
100
AcDbEntity
  8
0
100
AcDbBlockBegin
  2
*Model_Space
 70
     0
 10
0.0
 20
0.0
 30
0.0
  3
*Model_Space
  1

  0
ENDBLK
  5
21
330
1F
100
AcDbEntity
  8
0
100
AcDbBlockEnd
  0
BLOCK
  5
1C
330
1B
100
AcDbEntity
 67
     1
  8
0
100
AcDbBlockBegin
  2
*Paper_Space
 70
     0
 10
0.0
 20
0.0
 30
0.0
  3
*Paper_Space
  1

  0
ENDBLK
  5
1D
330
1B
100
AcDbEntity
 67
     1
  8
0
100
AcDbBlockEnd
  0
BLOCK
  5
24
330
23
100
AcDbEntity
  8
0
100
AcDbBlockBegin
  2
*Paper_Space0
 70
     0
 10
0.0
 20
0.0
 30
0.0
  3
*Paper_Space0
  1

  0
ENDBLK
  5
25
330
23
100
AcDbEntity
  8
0
100
AcDbBlockEnd
  0
ENDSEC
  0
SECTION
  2
ENTITIES
  0
TEXT
  5
49
330
1F
100
AcDbEntity
  8
0-F
  6
Continuous
 62
     2
370
     9
100
AcDbText
 10
833.7925427208509
 20
-780.365141799514
 30
0.0
 40
30.48
  1
仕様
 41
1.0625
  7
ＭＳ ゴシック
100
AcDbText
  0
TEXT
  5
4A
330
1F
100
AcDbEntity
  8
0-F
  6
Continuous
 62
     2
370
     9
100
AcDbText
 10
833.792493232887
 20
-840.3650923115495
 30
0.0
 40
30.48
  1
適用荷重：Ｔ－２
 41
1.109375
  7
ＭＳ ゴシック
100
AcDbText
  0
TEXT
  5
4B
330
1F
100
AcDbEntity
  8
0-F
  6
Continuous
 62
     2
370
     9
100
AcDbText
 10
833.7925674648332
 20
-960.3651170555318
 30
0.0
 40
30.48
  1
接触圧子：２００×１６０ｍｍ
 41
1.116071428571428
  7
ＭＳ ゴシック
100
AcDbText
  0
TEXT
  5
4C
330
1F
100
AcDbEntity
  8
0-F
  6
Continuous
 62
     2
370
     9
100
AcDbText
 10
833.7925922088154
 20
-900.3651665434963
 30
0.0
 40
30.48
  1
破壊荷重：３５ｋＮ（３，６００ｋｇｆ）以上
 41
1.119047619047619
  7
ＭＳ ゴシック
100
AcDbText
  0
TEXT
  5
4D
330
1F
100
AcDbEntity
  8
0-F
  6
Continuous
 62
     2
370
     9
100
AcDbText
 10
833.7930870884613
 20
-1020.365191287479
 30
0.0
 40
30.48
  1
蓋 質 量：１５．０ｋｇ
 41
1.113636363636363
  7
ＭＳ ゴシック
100
AcDbText
  0
LINE
  5
4E
330
1F
100
AcDbEntity
  8
0-E
  6
Continuous
 62
     7
370
     9
100
AcDbLine
 10
1454.677381120989
 20
502.5611176361915
 30
0.0
 11
1798.586567406884
 21
502.5611176361915
 31
0.0
  0
LINE
  5
4F
330
1F
100
AcDbEntity
  8
0-E
  6
Continuous
 62
     7
370
     9
100
AcDbLine
 10
938.2160345204817
 20
-315.99839494035
 30
0.0
 11
411.364689767526
 21
-315.99839494035
 31
0.0
  0
TEXT
  5
50
330
1F
100
AcDbEntity
  8
0-E
  6
Continuous
 62
     7
370
     9
100
AcDbText
 10
1473.159189345228
 20
466.1537044050891
 30
0.0
 40
22.86
  1
樹脂系塗装
 41
1.133333333333333
  7
ＭＳ ゴシック
100
AcDbText
  0
TEXT
  5
51
330
1F
100
AcDbEntity
  8
0-E
  6
Continuous
 62
     7
370
     9
100
AcDbText
 10
1475.61278613049
 20
521.3480024018165
 30
0.0
 40
22.86
  1
蓋本体：ＦＣ２００
 41
1.148148148148148
  7
ＭＳ ゴシック
100
AcDbText
  0
TEXT
  5
52
330
1F
100
AcDbEntity
  8
0-E
  6
Continuous
 62
     7
370
     9
100
AcDbText
 10
411.36465677555
 20
-348.3642498284411
 30
0.0
 40
22.86
  1
ＳＵＳ３０４
 41
1.138888888888889
  7
ＭＳ ゴシック
100
AcDbText
  0
TEXT
  5
53
330
1F
100
AcDbEntity
  8
0-E
  6
Continuous
 62
     7
370
     9
100
AcDbText
 10
415.2465174570317
 20
-300.376512946051
 30
0.0
 40
22.86
  1
排水口グレーチング（Ｐ＝１０）
 41
1.155555555555555
  7
ＭＳ ゴシック
100
AcDbText
  0
LINE
  5
54
330
1F
100
AcDbEntity
  8
0-F
  6
Continuous
 62
     7
370
     9
100
AcDbLine
 10
998.4216075251276
 20
-76.48716282200127
 30
0.0
 11
755.4215976275349
 21
-76.48716282200127
 31
0.0
  0
LINE
  5
55
330
1F
100
AcDbEntity
  8
0-F
  6
Continuous
 62
     7
370
     9
100
AcDbLine
 10
998.4216075251276
 20
-6.486808158255428
 30
0.0
 11
855.4216801074755
 21
-6.486808158255428
 31
0.0
  0
LINE
  5
56
330
1F
100
AcDbEntity
  8
0-F
  6
Continuous
 62
     7
370
     9
100
AcDbLine
 10
858.4216405171036
 20
-76.48716282200127
 30
0.0
 11
854.5059053239025
 21
-46.74378266205622
 31
0.0
  0
LINE
  5
57
330
1F
100
AcDbEntity
  8
0-F
  6
Continuous
 62
     7
370
     9
100
AcDbLine
 10
858.4216405171036
 20
-76.48716282200127
 30
0.0
 11
862.3373757103046
 21
-46.74378266205622
 31
0.0
  0
LINE
  5
58
330
1F
100
AcDbEntity
  8
0-F
  6
Continuous
 62
     7
370
     9
100
AcDbLine
 10
862.3373757103046
 20
23.25657200168962
 30
0.0
 11
854.5059053239025
 21
-36.23018831820048
 31
0.0
  0
LINE
  5
59
330
1F
100
AcDbEntity
  8
0-F
  6
Continuous
 62
     7
370
     9
100
AcDbLine
 10
854.5059053239025
 20
23.25657200168962
 30
0.0
 11
862.3373757103046
 21
-36.23018831820048
 31
0.0
  0
LINE
  5
5A
330
1F
100
AcDbEntity
  8
0-F
  6
Continuous
 62
     7
370
     9
100
AcDbLine
 10
998.4216075251276
 20
773.5131670977623
 30
0.0
 11
755.4215976275349
 21
773.5131670977623
 31
0.0
  0
LINE
  5
5B
330
1F
100
AcDbEntity
  8
0-F
  6
Continuous
 62
     7
370
     9
100
AcDbLine
 10
998.4216075251276
 20
-88.98708034206038
 30
0.0
 11
655.4215151475934
 21
-88.98708034206038
 31
0.0
  0
LINE
  5
5C
330
1F
100
AcDbEntity
  8
0-F
  6
Continuous
 62
     7
370
     9
100
AcDbLine
 10
998.4216075251276
 20
-81.48705559807809
 30
0.0
 11
755.4215976275349
 21
-81.48705559807809
 31
0.0
  0
LINE
  5
5D
330
1F
100
AcDbEntity
  8
0-F
  6
Continuous
 62
     7
370
     9
100
AcDbLine
 10
758.421558037163
 20
-148.3107778188341
 30
0.0
 11
758.421558037163
 21
845.336782094595
 31
0.0
  0
LINE
  5
5E
330
1F
100
AcDbEntity
  8
0-F
  6
Continuous
 62
     7
370
     9
100
AcDbLine
 10
758.421558037163
 20
773.5131670977623
 30
0.0
 11
754.5058228439619
 21
743.7699106577284
 31
0.0
  0
LINE
  5
5F
330
1F
100
AcDbEntity
  8
0-F
  6
Continuous
 62
     7
370
     9
100
AcDbLine
 10
758.421558037163
 20
773.5131670977623
 30
0.0
 11
762.337293230364
 21
743.7699106577284
 31
0.0
  0
LINE
  5
60
330
1F
100
AcDbEntity
  8
0-F
  6
Continuous
 62
     7
370
     9
100
AcDbLine
 10
998.4216075251276
 20
778.5131835937506
 30
0.0
 11
755.4215976275349
 21
778.5131835937506
 31
0.0
  0
LINE
  5
61
330
1F
100
AcDbEntity
  8
0-F
  6
Continuous
 62
     7
370
     9
100
AcDbLine
 10
998.4216075251276
 20
786.0130846178214
 30
0.0
 11
655.4215151475934
 21
786.0130846178214
 31
0.0
  0
LINE
  5
62
330
1F
100
AcDbEntity
  8
0-F
  6
Continuous
 62
     7
370
     9
100
AcDbLine
 10
758.421558037163
 20
786.0130846178214
 30
0.0
 11
754.5058228439619
 21
815.7563410578553
 31
0.0
  0
LINE
  5
63
330
1F
100
AcDbEntity
  8
0-F
  6
Continuous
 62
     7
370
     9
100
AcDbLine
 10
758.421558037163
 20
786.0130846178214
 30
0.0
 11
762.337293230364
 21
815.7563410578553
 31
0.0
  0
LINE
  5
64
330
1F
100
AcDbEntity
  8
0-F
  6
Continuous
 62
     7
370
     9
100
AcDbLine
 10
658.421475557222
 20
-88.98708034206038
 30
0.0
 11
658.421475557222
 21
786.0130846178214
 31
0.0
  0
LINE
  5
65
330
1F
100
AcDbEntity
  8
0-F
  6
Continuous
 62
     7
370
     9
100
AcDbLine
 10
658.421475557222
 20
-88.98708034206038
 30
0.0
 11
654.505740364021
 21
-59.24370018211533
 31
0.0
  0
LINE
  5
66
330
1F
100
AcDbEntity
  8
0-F
  6
Continuous
 62
     7
370
     9
100
AcDbLine
 10
658.421475557222
 20
-88.98708034206038
 30
0.0
 11
662.3372107504231
 21
-59.24370018211533
 31
0.0
  0
LINE
  5
67
330
1F
100
AcDbEntity
  8
0-F
  6
Continuous
 62
     7
370
     9
100
AcDbLine
 10
658.421475557222
 20
786.0130846178214
 30
0.0
 11
654.505740364021
 21
756.2698281777875
 31
0.0
  0
LINE
  5
68
330
1F
100
AcDbEntity
  8
0-F
  6
Continuous
 62
     7
370
     9
100
AcDbLine
 10
658.421475557222
 20
786.0130846178214
 30
0.0
 11
662.3372107504231
 21
756.2698281777875
 31
0.0
  0
LINE
  5
69
330
1F
100
AcDbEntity
  8
0-F
  6
Continuous
 62
     7
370
     9
100
AcDbLine
 10
758.421558037163
 20
-76.4870391020898
 30
0.0
 11
754.5058228439619
 21
-46.74378266205622
 31
0.0
  0
LINE
  5
6A
330
1F
100
AcDbEntity
  8
0-F
  6
Continuous
 62
     7
370
     9
100
AcDbLine
 10
758.421558037163
 20
-76.4870391020898
 30
0.0
 11
762.337293230364
 21
-46.74378266205622
 31
0.0
  0
LINE
  5
6B
330
1F
100
AcDbEntity
  8
0-F
  6
Continuous
 62
     7
370
     9
100
AcDbLine
 10
758.421558037163
 20
-88.98708034206038
 30
0.0
 11
754.5058228439619
 21
-118.7303367820942
 31
0.0
  0
LINE
  5
6C
330
1F
100
AcDbEntity
  8
0-F
  6
Continuous
 62
     7
370
     9
100
AcDbLine
 10
758.421558037163
 20
-88.98708034206038
 30
0.0
 11
762.337293230364
 21
-118.7303367820942
 31
0.0
  0
LINE
  5
6D
330
1F
100
AcDbEntity
  8
0-F
  6
Continuous
 62
     7
370
     9
100
AcDbLine
 10
1394.837524174198
 20
65.75658849767791
 30
0.0
 11
1387.006053787796
 21
6.269828177787531
 31
0.0
  0
LINE
  5
6E
330
1F
100
AcDbEntity
  8
0-F
  6
Continuous
 62
     7
370
     9
100
AcDbLine
 10
1387.006053787796
 20
65.75658849767791
 30
0.0
 11
1394.837524174198
 21
6.269828177787531
 31
0.0
  0
LINE
  5
6F
330
1F
100
AcDbEntity
  8
0-F
  6
Continuous
 62
     7
370
     9
100
AcDbLine
 10
1394.837524174198
 20
690.7564235377961
 30
0.0
 11
1387.006053787796
 21
631.2699106577284
 31
0.0
  0
LINE
  5
70
330
1F
100
AcDbEntity
  8
0-F
  6
Continuous
 62
     7
370
     9
100
AcDbLine
 10
1387.006053787796
 20
690.7564235377961
 30
0.0
 11
1394.837524174198
 21
631.2699106577284
 31
0.0
  0
LINE
  5
71
330
1F
100
AcDbEntity
  8
0-F
  6
Continuous
 62
     7
370
     9
100
AcDbLine
 10
1008.421145637459
 20
248.5132908176737
 30
0.0
 11
1231.002668811022
 21
248.5132908176737
 31
0.0
  0
LINE
  5
72
330
1F
100
AcDbEntity
  8
0-F
  6
Continuous
 62
     7
370
     9
100
AcDbLine
 10
1008.421145637459
 20
248.5132908176737
 30
0.0
 11
1038.164402077492
 21
252.4290260108745
 31
0.0
  0
LINE
  5
73
330
1F
100
AcDbEntity
  8
0-F
  6
Continuous
 62
     7
370
     9
100
AcDbLine
 10
1008.421145637459
 20
248.5132908176737
 30
0.0
 11
1038.164402077492
 21
244.5975556244727
 31
0.0
  0
LINE
  5
74
330
1F
100
AcDbEntity
  8
0-F
  6
Continuous
 62
     7
370
     9
100
AcDbLine
 10
1108.421475557222
 20
248.5132908176737
 30
0.0
 11
1078.678219117188
 21
252.4290260108745
 31
0.0
  0
LINE
  5
75
330
1F
100
AcDbEntity
  8
0-F
  6
Continuous
 62
     7
370
     9
100
AcDbLine
 10
1108.421475557222
 20
248.5132908176737
 30
0.0
 11
1078.678219117188
 21
244.5975556244727
 31
0.0
  0
LINE
  5
76
330
1F
100
AcDbEntity
  8
0-F
  6
Continuous
 62
     7
370
     9
100
AcDbLine
 10
1163.421904452915
 20
248.5132908176737
 30
0.0
 11
1193.165160892948
 21
252.4290260108745
 31
0.0
  0
LINE
  5
77
330
1F
100
AcDbEntity
  8
0-F
  6
Continuous
 62
     7
370
     9
100
AcDbLine
 10
1163.421904452915
 20
248.5132908176737
 30
0.0
 11
1193.165160892948
 21
244.5975556244727
 31
0.0
  0
LINE
  5
78
330
1F
100
AcDbEntity
  8
0-E
  6
Continuous
 62
     7
370
     9
100
AcDbLine
 10
1163.421904452915
 20
417.5934992609803
 30
0.0
 11
1190.878322052155
 21
429.6824192356425
 31
0.0
  0
LINE
  5
79
330
1F
100
AcDbEntity
  8
0-E
  6
Continuous
 62
     7
370
     9
100
AcDbLine
 10
1163.421904452915
 20
417.5934992609803
 30
0.0
 11
1193.071628639992
 21
422.1642076646964
 31
0.0
  0
LINE
  5
7A
330
1F
100
AcDbEntity
  8
0-F
  6
Continuous
 62
     7
370
     9
100
AcDbLine
 10
1152.556326961361
 20
293.6124152106211
 30
0.0
 11
1118.700868108954
 21
248.5132908176737
 31
0.0
  0
LINE
  5
7B
330
1F
100
AcDbEntity
  8
0-F
  6
Continuous
 62
     7
370
     9
100
AcDbLine
 10
858.4216405171036
 20
-76.48716282200127
 30
0.0
 11
858.4216405171036
 21
840.7757238439617
 31
0.0
  0
LINE
  5
7C
330
1F
100
AcDbEntity
  8
0-1
  6
Continuous
 62
     2
370
     9
100
AcDbLine
 10
1008.421640517104
 20
778.5131835937506
 30
0.0
 11
1008.421640517104
 21
786.0130846178214
 31
0.0
  0
LINE
  5
7D
330
1F
100
AcDbEntity
  8
0-1
  6
Continuous
 62
     2
370
     9
100
AcDbLine
 10
1008.421640517104
 20
-81.48705559807809
 30
0.0
 11
1008.421640517104
 21
-88.98708034206038
 31
0.0
  0
LINE
  5
7E
330
1F
100
AcDbEntity
  8
0-F
  6
Continuous
 62
     7
370
     9
100
AcDbLine
 10
1390.921788980997
 20
786.0130846178214
 30
0.0
 11
1387.006053787796
 21
756.2698281777875
 31
0.0
  0
LINE
  5
7F
330
1F
100
AcDbEntity
  8
0-F
  6
Continuous
 62
     7
370
     9
100
AcDbLine
 10
1390.92203642082
 20
786.0130846178214
 30
0.0
 11
1394.837524174198
 21
756.2698281777875
 31
0.0
  0
LINE
  5
80
330
1F
100
AcDbEntity
  8
0-F
  6
Continuous
 62
     7
370
     9
100
AcDbLine
 10
1390.921788980997
 20
-88.98708034206038
 30
0.0
 11
1387.006053787796
 21
-59.24370018211533
 31
0.0
  0
LINE
  5
81
330
1F
100
AcDbEntity
  8
0-F
  6
Continuous
 62
     7
370
     9
100
AcDbLine
 10
1390.921788980997
 20
-88.98708034206038
 30
0.0
 11
1394.837524174198
 21
-59.24370018211533
 31
0.0
  0
LINE
  5
82
330
1F
100
AcDbEntity
  8
0-E
  6
Continuous
 62
     7
370
     9
100
AcDbLine
 10
1454.677381120989
 20
502.5611176361915
 30
0.0
 11
1163.421904452915
 21
417.5934992609803
 31
0.0
  0
LINE
  5
83
330
1F
100
AcDbEntity
  8
0-F
  6
Continuous
 62
     7
370
     9
100
AcDbLine
 10
1152.556326961361
 20
293.6124152106211
 30
0.0
 11
1189.805422981209
 21
293.6124152106211
 31
0.0
  0
LINE
  5
84
330
1F
100
AcDbEntity
  8
0-E
  6
Continuous
 62
     7
370
     9
100
AcDbLine
 10
1008.421887956927
 20
-53.98671743032054
 30
0.0
 11
938.2160345204817
 21
-315.99839494035
 31
0.0
  0
LINE
  5
85
330
1F
100
AcDbEntity
  8
0-E
  6
Continuous
 62
     7
370
     9
100
AcDbLine
 10
1008.421887956927
 20
-53.98671743032054
 30
0.0
 11
1004.506152763725
 21
-83.73009759026559
 31
0.0
  0
LINE
  5
86
330
1F
100
AcDbEntity
  8
0-E
  6
Continuous
 62
     7
370
     9
100
AcDbLine
 10
1008.421887956927
 20
-53.98671743032054
 30
0.0
 11
996.9414225061245
 21
-81.7030705632385
 31
0.0
  0
LINE
  5
87
330
1F
100
AcDbEntity
  8
0-0
  6
Continuous
 62
     3
370
     9
100
AcDbLine
 10
1053.420799221707
 20
362.2632330817149
 30
0.0
 11
1088.420419813978
 21
359.7632248337209
 31
0.0
  0
LINE
  5
88
330
1F
100
AcDbEntity
  8
0-0
  6
Continuous
 62
     3
370
     9
100
AcDbLine
 10
1088.420419813978
 20
337.2631506017743
 30
0.0
 11
1088.420419813978
 21
359.7632248337209
 31
0.0
  0
LINE
  5
89
330
1F
100
AcDbEntity
  8
0-0
  6
JWW_CENTER1
 62
     3
370
     9
100
AcDbLine
 10
1070.921970436867
 20
366.0131835937506
 30
0.0
 11
1070.921970436867
 21
331.0133155616558
 31
0.0
  0
LINE
  5
8A
330
1F
100
AcDbEntity
  8
0-0
  6
Continuous
 62
     3
370
     9
100
AcDbLine
 10
1077.421719697847
 20
355.0132462785055
 30
0.0
 11
1064.421726296242
 21
355.0132462785055
 31
0.0
  0
LINE
  5
8B
330
1F
100
AcDbEntity
  8
0-0
  6
Continuous
 62
     3
370
     9
100
AcDbLine
 10
1064.421726296242
 20
355.0132462785055
 30
0.0
 11
1064.421726296242
 21
342.0132528769008
 31
0.0
  0
LINE
  5
8C
330
1F
100
AcDbEntity
  8
0-0
  6
Continuous
 62
     3
370
     9
100
AcDbLine
 10
1077.421719697847
 20
355.0132462785055
 30
0.0
 11
1077.421719697847
 21
342.0132528769008
 31
0.0
  0
LINE
  5
8D
330
1F
100
AcDbEntity
  8
0-0
  6
Continuous
 62
     3
370
     9
100
AcDbLine
 10
1053.420799221707
 20
363.5132990656678
 30
0.0
 11
1088.420419813978
 21
359.7632248337209
 31
0.0
  0
LINE
  5
8E
330
1F
100
AcDbEntity
  8
0-0
  6
Continuous
 62
     3
370
     9
100
AcDbLine
 10
1113.421986932856
 20
628.8865702861068
 30
0.0
 11
1113.421986932856
 21
68.13992886929952
 31
0.0
  0
LINE
  5
8F
330
1F
100
AcDbEntity
  8
0-0
  6
Continuous
 62
     3
370
     9
100
AcDbLine
 10
1163.421409573269
 20
598.5132083377329
 30
0.0
 11
1163.421409573269
 21
98.51329081767375
 31
0.0
  0
LINE
  5
90
330
1F
100
AcDbEntity
  8
0-0
  6
Continuous
 62
     3
370
     9
100
AcDbLine
 10
1125.921904452915
 20
636.0132083377329
 30
0.0
 11
1163.421409573269
 21
598.5132083377329
 31
0.0
  0
LINE
  5
91
330
1F
100
AcDbEntity
  8
0-0
  6
Continuous
 62
     3
370
     9
100
AcDbLine
 10
1112.873907725719
 20
630.4482867266686
 30
0.0
 11
1108.969802204182
 21
635.3285423485013
 31
0.0
  0
LINE
  5
92
330
1F
100
AcDbEntity
  8
0-0
  6
Continuous
 62
     3
370
     9
100
AcDbLine
 10
1158.421640517103
 20
691.7305941195107
 30
0.0
 11
1158.421640517103
 21
700.0215602565461
 31
0.0
  0
LINE
  5
93
330
1F
100
AcDbEntity
  8
0-0
  6
Continuous
 62
     3
370
     9
100
AcDbLine
 10
1045.921640517103
 20
713.5132165857269
 30
0.0
 11
1045.921640517103
 21
773.5134145375849
 31
0.0
  0
LINE
  5
94
330
1F
100
AcDbEntity
  8
0-0
  6
Continuous
 62
     3
370
     9
100
AcDbLine
 10
1058.421805476986
 20
703.5131835937506
 30
0.0
 11
1058.421805476986
 21
773.5134145375849
 31
0.0
  0
LINE
  5
95
330
1F
100
AcDbEntity
  8
0-0
  6
Continuous
 62
     3
370
     9
100
AcDbLine
 10
1058.421805476986
 20
713.5132165857269
 30
0.0
 11
1008.421640517104
 21
713.5132165857269
 31
0.0
  0
LINE
  5
96
330
1F
100
AcDbEntity
  8
0-0
  6
Continuous
 62
     3
370
     9
100
AcDbLine
 10
1058.421805476986
 20
703.5131835937506
 30
0.0
 11
1008.421640517104
 21
703.5131835937506
 31
0.0
  0
LINE
  5
97
330
1F
100
AcDbEntity
  8
0-0
  6
Continuous
 62
     3
370
     9
100
AcDbLine
 10
1058.421805476986
 20
773.5134145375849
 30
0.0
 11
1045.921640517103
 21
773.5134145375849
 31
0.0
  0
LINE
  5
98
330
1F
100
AcDbEntity
  8
0-0
  6
Continuous
 62
     3
370
     9
100
AcDbLine
 10
1099.169700588894
 20
690.4082757073485
 30
0.0
 11
1053.421541541174
 21
693.8392762880073
 31
0.0
  0
LINE
  5
99
330
1F
100
AcDbEntity
  8
0-0
  6
Continuous
 62
     3
370
     9
100
AcDbLine
 10
1108.421970436867
 20
680.43620341533
 30
0.0
 11
1108.421970436867
 21
16.59029574007661
 31
0.0
  0
LINE
  5
9A
330
1F
100
AcDbEntity
  8
0-0
  6
Continuous
 62
     3
370
     9
100
AcDbLine
 10
1134.401172294975
 20
684.8176203547303
 30
0.0
 11
1155.242038796242
 21
688.0239455764363
 31
0.0
  0
LINE
  5
9B
330
1F
100
AcDbEntity
  8
0-0
  6
Continuous
 62
     3
370
     9
100
AcDbLine
 10
1125.921904452915
 20
674.9338840793926
 30
0.0
 11
1125.921904452915
 21
22.09236763619145
 31
0.0
  0
LINE
  5
9C
330
1F
100
AcDbEntity
  8
0-0
  6
Continuous
 62
     3
370
     9
100
AcDbLine
 10
1080.922003428844
 20
358.5132825696795
 30
0.0
 11
1080.922003428844
 21
338.5132165857269
 31
0.0
  0
LINE
  5
9D
330
1F
100
AcDbEntity
  8
0-0
  6
Continuous
 62
     3
370
     9
100
AcDbLine
 10
1053.421541541174
 20
358.5132825696795
 30
0.0
 11
1053.421541541174
 21
703.5131835937506
 31
0.0
  0
LINE
  5
9E
330
1F
100
AcDbEntity
  8
0-0
  6
Continuous
 62
     3
370
     9
100
AcDbLine
 10
1047.171706501057
 20
358.5132825696795
 30
0.0
 11
1047.171706501057
 21
338.5132165857269
 31
0.0
  0
LINE
  5
9F
330
1F
100
AcDbEntity
  8
0-0
  6
Continuous
 62
     3
370
     9
100
AcDbLine
 10
1010.922019924832
 20
358.5132825696795
 30
0.0
 11
1010.922019924832
 21
338.5132165857269
 31
0.0
  0
LINE
  5
A0
330
1F
100
AcDbEntity
  8
0-0
  6
Continuous
 62
     3
370
     9
100
AcDbLine
 10
1080.922003428844
 20
358.5132825696795
 30
0.0
 11
1010.922019924832
 21
358.5132825696795
 31
0.0
  0
LINE
  5
A1
330
1F
100
AcDbEntity
  8
0-0
  6
Continuous
 62
     3
370
     9
100
AcDbLine
 10
1045.921640517103
 20
728.5130186338688
 30
0.0
 11
1008.421640517104
 21
728.5130186338688
 31
0.0
  0
LINE
  5
A2
330
1F
100
AcDbEntity
  8
0-0
  6
Continuous
 62
     3
370
     9
100
AcDbLine
 10
1045.921640517103
 20
738.513051625845
 30
0.0
 11
1008.421640517104
 21
738.513051625845
 31
0.0
  0
LINE
  5
A3
330
1F
100
AcDbEntity
  8
0-0
  6
Continuous
 62
     3
370
     9
100
AcDbLine
 10
1045.921640517103
 20
753.512853673987
 30
0.0
 11
1008.421640517104
 21
753.512853673987
 31
0.0
  0
LINE
  5
A4
330
1F
100
AcDbEntity
  8
0-0
  6
Continuous
 62
     3
370
     9
100
AcDbLine
 10
1045.921640517103
 20
763.5128866659634
 30
0.0
 11
1008.421640517104
 21
763.5128866659634
 31
0.0
  0
LINE
  5
A5
330
1F
100
AcDbEntity
  8
0-0
  6
Continuous
 62
     3
370
     9
100
AcDbLine
 10
1008.421640517104
 20
-66.48663495037965
 30
0.0
 11
1008.421640517104
 21
763.5128866659634
 31
0.0
  0
LINE
  5
A6
330
1F
100
AcDbEntity
  8
0-0
  6
Continuous
 62
     3
370
     9
100
AcDbLine
 10
1095.422966794554
 20
721.0131176097977
 30
0.0
 11
1095.422966794554
 21
756.0134805215375
 31
0.0
  0
LINE
  5
A7
330
1F
100
AcDbEntity
  8
0-0
  6
Continuous
 62
     3
370
     9
100
AcDbLine
 10
1095.422966794554
 20
721.0131176097977
 30
0.0
 11
1099.422584087627
 21
724.7009607263519
 31
0.0
  0
LINE
  5
A8
330
1F
100
AcDbEntity
  8
0-0
  6
Continuous
 62
     3
370
     9
100
AcDbLine
 10
1095.422966794554
 20
756.0134805215375
 30
0.0
 11
1099.422584087627
 21
752.3256374049836
 31
0.0
  0
LINE
  5
A9
330
1F
100
AcDbEntity
  8
0-0
  6
Continuous
 62
     3
370
     9
100
AcDbLine
 10
1095.422966794554
 20
731.6070061760985
 30
0.0
 11
1108.423207635981
 21
731.6070061760985
 31
0.0
  0
LINE
  5
AA
330
1F
100
AcDbEntity
  8
0-0
  6
Continuous
 62
     3
370
     9
100
AcDbLine
 10
1095.422966794554
 20
745.419591955237
 30
0.0
 11
1108.423207635981
 21
745.419591955237
 31
0.0
  0
LINE
  5
AB
330
1F
100
AcDbEntity
  8
0-0
  6
Continuous
 62
     3
370
     9
100
AcDbLine
 10
1093.422910708193
 20
721.0131176097977
 30
0.0
 11
1095.422966794554
 21
721.0131176097977
 31
0.0
  0
LINE
  5
AC
330
1F
100
AcDbEntity
  8
0-0
  6
Continuous
 62
     3
370
     9
100
AcDbLine
 10
1099.422584087627
 20
724.7009607263519
 30
0.0
 11
1108.423207635981
 21
724.7009607263519
 31
0.0
  0
LINE
  5
AD
330
1F
100
AcDbEntity
  8
0-0
  6
Continuous
 62
     3
370
     9
100
AcDbLine
 10
1108.423207635981
 20
724.7009607263519
 30
0.0
 11
1108.423207635981
 21
752.3256374049836
 31
0.0
  0
LINE
  5
AE
330
1F
100
AcDbEntity
  8
0-0
  6
Continuous
 62
     3
370
     9
100
AcDbLine
 10
1118.423240627957
 20
731.0131506017742
 30
0.0
 11
1118.423240627957
 21
746.0132000897386
 31
0.0
  0
LINE
  5
AF
330
1F
100
AcDbEntity
  8
0-0
  6
Continuous
 62
     3
370
     9
100
AcDbLine
 10
1118.423240627957
 20
731.0131506017742
 30
0.0
 11
1120.922630276394
 21
733.5132825696794
 31
0.0
  0
LINE
  5
B0
330
1F
100
AcDbEntity
  8
0-0
  6
Continuous
 62
     3
370
     9
100
AcDbLine
 10
1120.922630276394
 20
743.5133155616561
 30
0.0
 11
1118.423240627957
 21
746.0132000897386
 31
0.0
  0
LINE
  5
B1
330
1F
100
AcDbEntity
  8
0-0
  6
Continuous
 62
     3
370
     9
100
AcDbLine
 10
1099.422584087627
 20
752.3256374049836
 30
0.0
 11
1108.423207635981
 21
752.3256374049836
 31
0.0
  0
LINE
  5
B2
330
1F
100
AcDbEntity
  8
0-0
  6
Continuous
 62
     3
370
     9
100
AcDbLine
 10
1120.922630276394
 20
733.5132825696794
 30
0.0
 11
1120.922630276394
 21
743.5133155616561
 31
0.0
  0
LINE
  5
B3
330
1F
100
AcDbEntity
  8
0-0
  6
Continuous
 62
     3
370
     9
100
AcDbLine
 10
1108.423207635981
 20
746.0132000897386
 30
0.0
 11
1118.423240627957
 21
746.0132000897386
 31
0.0
  0
LINE
  5
B4
330
1F
100
AcDbEntity
  8
0-0
  6
Continuous
 62
     3
370
     9
100
AcDbLine
 10
1120.922630276394
 20
743.5133155616561
 30
0.0
 11
1108.423207635981
 21
743.5133155616561
 31
0.0
  0
LINE
  5
B5
330
1F
100
AcDbEntity
  8
0-0
  6
Continuous
 62
     3
370
     9
100
AcDbLine
 10
1108.423207635981
 20
733.5132825696794
 30
0.0
 11
1120.922630276394
 21
733.5132825696794
 31
0.0
  0
LINE
  5
B6
330
1F
100
AcDbEntity
  8
0-0
  6
Continuous
 62
     3
370
     9
100
AcDbLine
 10
1108.423207635981
 20
731.0131506017742
 30
0.0
 11
1118.423240627957
 21
731.0131506017742
 31
0.0
  0
LINE
  5
B7
330
1F
100
AcDbEntity
  8
0-0
  6
Continuous
 62
     3
370
     9
100
AcDbLine
 10
1058.421805476986
 20
727.2634475295613
 30
0.0
 11
1093.422910708193
 21
727.2634475295613
 31
0.0
  0
LINE
  5
B8
330
1F
100
AcDbEntity
  8
0-0
  6
Continuous
 62
     3
370
     9
100
AcDbLine
 10
1058.421805476986
 20
749.7636454814193
 30
0.0
 11
1093.422910708193
 21
749.7636454814193
 31
0.0
  0
LINE
  5
B9
330
1F
100
AcDbEntity
  8
0-0
  6
Continuous
 62
     3
370
     9
100
AcDbLine
 10
1058.421805476986
 20
746.0132000897386
 30
0.0
 11
1093.422910708193
 21
746.0132000897386
 31
0.0
  0
LINE
  5
BA
330
1F
100
AcDbEntity
  8
0-0
  6
Continuous
 62
     3
370
     9
100
AcDbLine
 10
1093.422910708193
 20
743.5133155616561
 30
0.0
 11
1058.421805476986
 21
743.5133155616561
 31
0.0
  0
LINE
  5
BB
330
1F
100
AcDbEntity
  8
0-0
  6
Continuous
 62
     3
370
     9
100
AcDbLine
 10
1093.422910708193
 20
733.5132825696794
 30
0.0
 11
1058.421805476986
 21
733.5132825696794
 31
0.0
  0
LINE
  5
BC
330
1F
100
AcDbEntity
  8
0-0
  6
Continuous
 62
     3
370
     9
100
AcDbLine
 10
1058.421805476986
 20
731.0131506017742
 30
0.0
 11
1093.422910708193
 21
731.0131506017742
 31
0.0
  0
LINE
  5
BD
330
1F
100
AcDbEntity
  8
0-0
  6
Continuous
 62
     3
370
     9
100
AcDbLine
 10
1093.422910708193
 20
756.0134805215375
 30
0.0
 11
1095.422966794554
 21
756.0134805215375
 31
0.0
  0
LINE
  5
BE
330
1F
100
AcDbEntity
  8
0-0
  6
Continuous
 62
     3
370
     9
100
AcDbLine
 10
1154.938677573692
 20
703.7621080553214
 30
0.0
 11
1102.710564450804
 21
707.4925108213688
 31
0.0
  0
LINE
  5
BF
330
1F
100
AcDbEntity
  8
0-0
  6
Continuous
 62
     3
370
     9
100
AcDbLine
 10
1090.138147062712
 20
763.9238842113602
 30
0.0
 11
1058.421805476986
 21
767.8881176097977
 31
0.0
  0
LINE
  5
C0
330
1F
100
AcDbEntity
  8
0-0
  6
Continuous
 62
     3
370
     9
100
AcDbLine
 10
1093.422910708193
 20
760.2026367187506
 30
0.0
 11
1093.422910708193
 21
717.4670575116136
 31
0.0
  0
LINE
  5
C1
330
1F
100
AcDbEntity
  8
0-0
  6
Continuous
 62
     3
370
     9
100
AcDbLine
 10
1053.420799221707
 20
334.7632660736915
 30
0.0
 11
1088.420419813978
 21
337.2631506017743
 31
0.0
  0
LINE
  5
C2
330
1F
100
AcDbEntity
  8
0-0
  6
Continuous
 62
     3
370
     9
100
AcDbLine
 10
1077.421719697847
 20
342.0132528769008
 30
0.0
 11
1064.421726296242
 21
342.0132528769008
 31
0.0
  0
LINE
  5
C3
330
1F
100
AcDbEntity
  8
0-0
  6
Continuous
 62
     3
370
     9
100
AcDbLine
 10
1053.420799221707
 20
333.5132000897386
 30
0.0
 11
1088.420419813978
 21
337.2631506017743
 31
0.0
  0
LINE
  5
C4
330
1F
100
AcDbEntity
  8
0-0
  6
Continuous
 62
     3
370
     9
100
AcDbLine
 10
1125.921904452915
 20
61.01329081767375
 30
0.0
 11
1163.421409573269
 21
98.51329081767375
 31
0.0
  0
LINE
  5
C5
330
1F
100
AcDbEntity
  8
0-0
  6
Continuous
 62
     3
370
     9
100
AcDbLine
 10
1112.873907725719
 20
66.5782124287378
 30
0.0
 11
1108.969802204182
 21
61.69795680690498
 31
0.0
  0
LINE
  5
C6
330
1F
100
AcDbEntity
  8
0-0
  6
Continuous
 62
     3
370
     9
100
AcDbLine
 10
1158.421640517103
 20
5.296028755807072
 30
0.0
 11
1158.421640517103
 21
-2.995061101139811
 31
0.0
  0
LINE
  5
C7
330
1F
100
AcDbEntity
  8
0-0
  6
Continuous
 62
     3
370
     9
100
AcDbLine
 10
1045.921640517103
 20
-16.48671743032054
 30
0.0
 11
1045.921640517103
 21
-76.48666794235595
 31
0.0
  0
LINE
  5
C8
330
1F
100
AcDbEntity
  8
0-0
  6
Continuous
 62
     3
370
     9
100
AcDbLine
 10
1058.421805476986
 20
-6.486684438344241
 30
0.0
 11
1058.421805476986
 21
-76.48666794235595
 31
0.0
  0
LINE
  5
C9
330
1F
100
AcDbEntity
  8
0-0
  6
Continuous
 62
     3
370
     9
100
AcDbLine
 10
1058.421805476986
 20
-16.48671743032054
 30
0.0
 11
1008.421640517104
 21
-16.48671743032054
 31
0.0
  0
LINE
  5
CA
330
1F
100
AcDbEntity
  8
0-0
  6
Continuous
 62
     3
370
     9
100
AcDbLine
 10
1058.421805476986
 20
-6.486684438344241
 30
0.0
 11
1008.421640517104
 21
-6.486684438344241
 31
0.0
  0
LINE
  5
CB
330
1F
100
AcDbEntity
  8
0-0
  6
Continuous
 62
     3
370
     9
100
AcDbLine
 10
1058.421805476986
 20
-76.48666794235595
 30
0.0
 11
1045.921640517103
 21
-76.48666794235595
 31
0.0
  0
LINE
  5
CC
330
1F
100
AcDbEntity
  8
0-0
  6
Continuous
 62
     3
370
     9
100
AcDbLine
 10
1099.169700588894
 20
6.618223448057847
 30
0.0
 11
1053.421541541174
 21
3.187222867398987
 31
0.0
  0
LINE
  5
CD
330
1F
100
AcDbEntity
  8
0-0
  6
Continuous
 62
     3
370
     9
100
AcDbLine
 10
1134.401172294975
 20
12.20875508076489
 30
0.0
 11
1155.242038796242
 21
9.002553578970094
 31
0.0
  0
LINE
  5
CE
330
1F
100
AcDbEntity
  8
0-0
  6
Continuous
 62
     3
370
     9
100
AcDbLine
 10
1053.421541541174
 20
338.5132165857269
 30
0.0
 11
1053.421541541174
 21
-6.486684438344241
 31
0.0
  0
LINE
  5
CF
330
1F
100
AcDbEntity
  8
0-0
  6
Continuous
 62
     3
370
     9
100
AcDbLine
 10
1080.922003428844
 20
338.5132165857269
 30
0.0
 11
1010.922019924832
 21
338.5132165857269
 31
0.0
  0
LINE
  5
D0
330
1F
100
AcDbEntity
  8
0-0
  6
Continuous
 62
     3
370
     9
100
AcDbLine
 10
1045.921640517103
 20
-31.48651947846247
 30
0.0
 11
1008.421640517104
 21
-31.48651947846247
 31
0.0
  0
LINE
  5
D1
330
1F
100
AcDbEntity
  8
0-0
  6
Continuous
 62
     3
370
     9
100
AcDbLine
 10
1045.921640517103
 20
-41.48655247043877
 30
0.0
 11
1008.421640517104
 21
-41.48655247043877
 31
0.0
  0
LINE
  5
D2
330
1F
100
AcDbEntity
  8
0-0
  6
Continuous
 62
     3
370
     9
100
AcDbLine
 10
1045.921640517103
 20
-56.48660195840336
 30
0.0
 11
1008.421640517104
 21
-56.48660195840336
 31
0.0
  0
LINE
  5
D3
330
1F
100
AcDbEntity
  8
0-0
  6
Continuous
 62
     3
370
     9
100
AcDbLine
 10
1045.921640517103
 20
-66.48663495037965
 30
0.0
 11
1008.421640517104
 21
-66.48663495037965
 31
0.0
  0
LINE
  5
D4
330
1F
100
AcDbEntity
  8
0-0
  6
Continuous
 62
     3
370
     9
100
AcDbLine
 10
1095.422966794554
 20
-23.98686589421402
 30
0.0
 11
1095.422966794554
 21
-58.9869813661312
 31
0.0
  0
LINE
  5
D5
330
1F
100
AcDbEntity
  8
0-0
  6
Continuous
 62
     3
370
     9
100
AcDbLine
 10
1095.422966794554
 20
-23.98686589421402
 30
0.0
 11
1099.422584087627
 21
-27.67446157094554
 31
0.0
  0
LINE
  5
D6
330
1F
100
AcDbEntity
  8
0-0
  6
Continuous
 62
     3
370
     9
100
AcDbLine
 10
1095.422966794554
 20
-58.9869813661312
 30
0.0
 11
1099.422584087627
 21
-55.29938568939997
 31
0.0
  0
LINE
  5
D7
330
1F
100
AcDbEntity
  8
0-0
  6
Continuous
 62
     3
370
     9
100
AcDbLine
 10
1095.422966794554
 20
-34.58075446051481
 30
0.0
 11
1108.423207635981
 21
-34.58075446051481
 31
0.0
  0
LINE
  5
D8
330
1F
100
AcDbEntity
  8
0-0
  6
Continuous
 62
     3
370
     9
100
AcDbLine
 10
1095.422966794554
 20
-48.3930927998307
 30
0.0
 11
1108.423207635981
 21
-48.3930927998307
 31
0.0
  0
LINE
  5
D9
330
1F
100
AcDbEntity
  8
0-0
  6
Continuous
 62
     3
370
     9
100
AcDbLine
 10
1093.422910708193
 20
-23.98686589421402
 30
0.0
 11
1095.422966794554
 21
-23.98686589421402
 31
0.0
  0
LINE
  5
DA
330
1F
100
AcDbEntity
  8
0-0
  6
Continuous
 62
     3
370
     9
100
AcDbLine
 10
1099.422584087627
 20
-27.67446157094554
 30
0.0
 11
1108.423207635981
 21
-27.67446157094554
 31
0.0
  0
LINE
  5
DB
330
1F
100
AcDbEntity
  8
0-0
  6
Continuous
 62
     3
370
     9
100
AcDbLine
 10
1108.423207635981
 20
-27.67446157094554
 30
0.0
 11
1108.423207635981
 21
-55.29938568939997
 31
0.0
  0
LINE
  5
DC
330
1F
100
AcDbEntity
  8
0-0
  6
Continuous
 62
     3
370
     9
100
AcDbLine
 10
1118.423240627957
 20
-33.98689888619032
 30
0.0
 11
1118.423240627957
 21
-48.98670093433225
 31
0.0
  0
LINE
  5
DD
330
1F
100
AcDbEntity
  8
0-0
  6
Continuous
 62
     3
370
     9
100
AcDbLine
 10
1118.423240627957
 20
-33.98689888619032
 30
0.0
 11
1120.922630276394
 21
-36.48678341427313
 31
0.0
  0
LINE
  5
DE
330
1F
100
AcDbEntity
  8
0-0
  6
Continuous
 62
     3
370
     9
100
AcDbLine
 10
1120.922630276394
 20
-46.48669268633824
 30
0.0
 11
1118.423240627957
 21
-48.98670093433225
 31
0.0
  0
LINE
  5
DF
330
1F
100
AcDbEntity
  8
0-0
  6
Continuous
 62
     3
370
     9
100
AcDbLine
 10
1099.422584087627
 20
-55.29938568939997
 30
0.0
 11
1108.423207635981
 21
-55.29938568939997
 31
0.0
  0
LINE
  5
E0
330
1F
100
AcDbEntity
  8
0-0
  6
Continuous
 62
     3
370
     9
100
AcDbLine
 10
1120.922630276394
 20
-36.48678341427313
 30
0.0
 11
1120.922630276394
 21
-46.48669268633824
 31
0.0
  0
LINE
  5
E1
330
1F
100
AcDbEntity
  8
0-0
  6
Continuous
 62
     3
370
     9
100
AcDbLine
 10
1108.423207635981
 20
-48.98670093433225
 30
0.0
 11
1118.423240627957
 21
-48.98670093433225
 31
0.0
  0
LINE
  5
E2
330
1F
100
AcDbEntity
  8
0-0
  6
Continuous
 62
     3
370
     9
100
AcDbLine
 10
1120.922630276394
 20
-46.48669268633824
 30
0.0
 11
1108.423207635981
 21
-46.48669268633824
 31
0.0
  0
LINE
  5
E3
330
1F
100
AcDbEntity
  8
0-0
  6
Continuous
 62
     3
370
     9
100
AcDbLine
 10
1108.423207635981
 20
-36.48678341427313
 30
0.0
 11
1120.922630276394
 21
-36.48678341427313
 31
0.0
  0
LINE
  5
E4
330
1F
100
AcDbEntity
  8
0-0
  6
Continuous
 62
     3
370
     9
100
AcDbLine
 10
1108.423207635981
 20
-33.98689888619032
 30
0.0
 11
1118.423240627957
 21
-33.98689888619032
 31
0.0
  0
LINE
  5
E5
330
1F
100
AcDbEntity
  8
0-0
  6
Continuous
 62
     3
370
     9
100
AcDbLine
 10
1058.421805476986
 20
-30.23694837415491
 30
0.0
 11
1093.422910708193
 21
-30.23694837415491
 31
0.0
  0
LINE
  5
E6
330
1F
100
AcDbEntity
  8
0-0
  6
Continuous
 62
     3
370
     9
100
AcDbLine
 10
1058.421805476986
 20
-52.73689888619032
 30
0.0
 11
1093.422910708193
 21
-52.73689888619032
 31
0.0
  0
LINE
  5
E7
330
1F
100
AcDbEntity
  8
0-0
  6
Continuous
 62
     3
370
     9
100
AcDbLine
 10
1058.421805476986
 20
-48.98670093433225
 30
0.0
 11
1093.422910708193
 21
-48.98670093433225
 31
0.0
  0
LINE
  5
E8
330
1F
100
AcDbEntity
  8
0-0
  6
Continuous
 62
     3
370
     9
100
AcDbLine
 10
1093.422910708193
 20
-46.48669268633824
 30
0.0
 11
1058.421805476986
 21
-46.48669268633824
 31
0.0
  0
LINE
  5
E9
330
1F
100
AcDbEntity
  8
0-0
  6
Continuous
 62
     3
370
     9
100
AcDbLine
 10
1093.422910708193
 20
-36.48678341427313
 30
0.0
 11
1058.421805476986
 21
-36.48678341427313
 31
0.0
  0
LINE
  5
EA
330
1F
100
AcDbEntity
  8
0-0
  6
Continuous
 62
     3
370
     9
100
AcDbLine
 10
1058.421805476986
 20
-33.98689888619032
 30
0.0
 11
1093.422910708193
 21
-33.98689888619032
 31
0.0
  0
LINE
  5
EB
330
1F
100
AcDbEntity
  8
0-0
  6
Continuous
 62
     3
370
     9
100
AcDbLine
 10
1093.422910708193
 20
-58.9869813661312
 30
0.0
 11
1095.422966794554
 21
-58.9869813661312
 31
0.0
  0
LINE
  5
EC
330
1F
100
AcDbEntity
  8
0-0
  6
Continuous
 62
     3
370
     9
100
AcDbLine
 10
1154.938677573692
 20
-6.735361460092406
 30
0.0
 11
1102.710564450804
 21
-10.46601166596247
 31
0.0
  0
LINE
  5
ED
330
1F
100
AcDbEntity
  8
0-0
  6
Continuous
 62
     3
370
     9
100
AcDbLine
 10
1090.138147062712
 20
-66.89738505595386
 30
0.0
 11
1058.421805476986
 21
-70.86161845439136
 31
0.0
  0
LINE
  5
EE
330
1F
100
AcDbEntity
  8
0-0
  6
Continuous
 62
     3
370
     9
100
AcDbLine
 10
1093.422910708193
 20
-63.17613756334424
 30
0.0
 11
1093.422910708193
 21
-20.44055835620725
 31
0.0
  0
LINE
  5
EF
330
1F
100
AcDbEntity
  8
0-0
  6
JWW_CENTER1
 62
     3
370
     9
100
AcDbLine
 10
1048.422019924832
 20
738.5135465054905
 30
0.0
 11
1127.904392311867
 21
738.5135465054905
 31
0.0
  0
LINE
  5
F0
330
1F
100
AcDbEntity
  8
0-0
  6
JWW_CENTER1
 62
     3
370
     9
100
AcDbLine
 10
1048.422019924832
 20
-41.48692363017261
 30
0.0
 11
1127.904392311867
 21
-41.48692363017261
 31
0.0
  0
LINE
  5
F1
330
1F
100
AcDbEntity
  8
0-0
  6
JWW_CENTER1
 62
     3
370
     9
100
AcDbLine
 10
1213.421079653506
 20
348.5132495777032
 30
0.0
 11
958.4214755572224
 21
348.5132495777032
 31
0.0
  0
LINE
  5
F2
330
1F
100
AcDbEntity
  8
0-F
  6
Continuous
 62
     7
370
     9
100
AcDbLine
 10
998.4216075251276
 20
763.5128866659634
 30
0.0
 11
855.4216801074755
 21
763.5128866659634
 31
0.0
  0
LINE
  5
F3
330
1F
100
AcDbEntity
  8
0-F
  6
Continuous
 62
     7
370
     9
100
AcDbLine
 10
998.4216075251276
 20
753.512853673987
 30
0.0
 11
855.4216801074755
 21
753.512853673987
 31
0.0
  0
LINE
  5
F4
330
1F
100
AcDbEntity
  8
0-F
  6
Continuous
 62
     7
370
     9
100
AcDbLine
 10
998.4216075251276
 20
738.513051625845
 30
0.0
 11
855.4216801074755
 21
738.513051625845
 31
0.0
  0
LINE
  5
F5
330
1F
100
AcDbEntity
  8
0-F
  6
Continuous
 62
     7
370
     9
100
AcDbLine
 10
998.4216075251276
 20
728.5130186338688
 30
0.0
 11
855.4216801074755
 21
728.5130186338688
 31
0.0
  0
LINE
  5
F6
330
1F
100
AcDbEntity
  8
0-F
  6
Continuous
 62
     7
370
     9
100
AcDbLine
 10
998.4216075251276
 20
713.5132165857269
 30
0.0
 11
855.4216801074755
 21
713.5132165857269
 31
0.0
  0
LINE
  5
F7
330
1F
100
AcDbEntity
  8
0-F
  6
Continuous
 62
     7
370
     9
100
AcDbLine
 10
998.4216075251276
 20
703.5131835937506
 30
0.0
 11
855.4216801074755
 21
703.5131835937506
 31
0.0
  0
LINE
  5
F8
330
1F
100
AcDbEntity
  8
0-F
  6
Continuous
 62
     7
370
     9
100
AcDbLine
 10
858.4216405171036
 20
703.5131835937506
 30
0.0
 11
854.5059053239025
 21
673.7699271537167
 31
0.0
  0
LINE
  5
F9
330
1F
100
AcDbEntity
  8
0-F
  6
Continuous
 62
     7
370
     9
100
AcDbLine
 10
858.4216405171036
 20
703.5131835937506
 30
0.0
 11
862.3373757103046
 21
673.7699271537167
 31
0.0
  0
LINE
  5
FA
330
1F
100
AcDbEntity
  8
0-F
  6
Continuous
 62
     7
370
     9
100
AcDbLine
 10
858.4216405171036
 20
773.5134145375849
 30
0.0
 11
854.5059053239025
 21
803.2566709776188
 31
0.0
  0
LINE
  5
FB
330
1F
100
AcDbEntity
  8
0-F
  6
Continuous
 62
     7
370
     9
100
AcDbLine
 10
858.4216405171036
 20
773.5134145375849
 30
0.0
 11
862.3373757103046
 21
803.2566709776188
 31
0.0
  0
ARC
  5
FC
330
1F
100
AcDbEntity
  8
0-0
  6
Continuous
 62
     3
370
     9
100
AcDbCircle
 10
1098.421937444891
 20
680.43620341533
 30
0.0
 40
10.00000012887491
100
AcDbArc
 50
0.0
 51
85.71116638183594
  0
CIRCLE
  5
FD
330
1F
100
AcDbEntity
  8
0-0
  6
Continuous
 62
     3
370
     9
100
AcDbCircle
 10
1070.921970436867
 20
348.5132495777032
 30
0.0
 40
5.000000064437454
  0
ARC
  5
FE
330
1F
100
AcDbEntity
  8
0-0
  6
Continuous
 62
     3
370
     9
100
AcDbCircle
 10
1110.921607525127
 20
628.8865702861068
 30
0.0
 40
2.500000032218727
100
AcDbArc
 50
0.0
 51
38.66105651855469
  0
ARC
  5
FF
330
1F
100
AcDbEntity
  8
0-0
  6
Continuous
 62
     3
370
     9
100
AcDbCircle
 10
1110.921607525127
 20
636.8903825089742
 30
0.0
 40
2.500000032218727
100
AcDbArc
 50
180.0
 51
218.6610565185547
  0
ARC
  5
100
330
1F
100
AcDbEntity
  8
0-0
  6
Continuous
 62
     3
370
     9
100
AcDbCircle
 10
1154.671690005068
 20
700.0215602565461
 30
0.0
 40
3.75000004832809
100
AcDbArc
 50
0.0
 51
85.91419982910156
  0
ARC
  5
101
330
1F
100
AcDbEntity
  8
0-0
  6
Continuous
 62
     3
370
     9
100
AcDbCircle
 10
1154.671690005068
 20
691.7305941195107
 30
0.0
 40
3.75000004832809
100
AcDbArc
 50
278.7463684082031
 51
0.0
  0
ARC
  5
102
330
1F
100
AcDbEntity
  8
0-0
  6
Continuous
 62
     3
370
     9
100
AcDbCircle
 10
1135.921937444891
 20
674.9338840793926
 30
0.0
 40
10.00000012887491
100
AcDbArc
 50
98.74600219726562
 51
180.0
  0
ARC
  5
103
330
1F
100
AcDbEntity
  8
0-0
  6
Continuous
 62
     3
370
     9
100
AcDbCircle
 10
1103.422696260347
 20
717.4670575116136
 30
0.0
 40
10.00000012887491
100
AcDbArc
 50
180.0
 51
265.9141693115234
  0
ARC
  5
104
330
1F
100
AcDbEntity
  8
0-0
  6
Continuous
 62
     3
370
     9
100
AcDbCircle
 10
1089.673207635981
 20
760.2026367187506
 30
0.0
 40
3.75000004832809
100
AcDbArc
 50
0.0
 51
82.87332153320312
  0
ARC
  5
105
330
1F
100
AcDbEntity
  8
0-0
  6
Continuous
 62
     3
370
     9
100
AcDbCircle
 10
1098.421937444891
 20
16.59029574007661
 30
0.0
 40
10.00000012887491
100
AcDbArc
 50
274.2888336181641
 51
0.0
  0
ARC
  5
106
330
1F
100
AcDbEntity
  8
0-0
  6
Continuous
 62
     3
370
     9
100
AcDbCircle
 10
1110.921607525127
 20
68.13992886929952
 30
0.0
 40
2.500000032218727
100
AcDbArc
 50
321.3389434814453
 51
0.0000000000000127
  0
ARC
  5
107
330
1F
100
AcDbEntity
  8
0-0
  6
Continuous
 62
     3
370
     9
100
AcDbCircle
 10
1110.921607525127
 20
60.13611664643207
 30
0.0
 40
2.500000032218727
100
AcDbArc
 50
141.3389434814453
 51
180.0
  0
ARC
  5
108
330
1F
100
AcDbEntity
  8
0-0
  6
Continuous
 62
     3
370
     9
100
AcDbCircle
 10
1154.671690005068
 20
-2.995061101139811
 30
0.0
 40
3.75000004832809
100
AcDbArc
 50
274.0858001708984
 51
0.0000000000000254
  0
ARC
  5
109
330
1F
100
AcDbEntity
  8
0-0
  6
Continuous
 62
     3
370
     9
100
AcDbCircle
 10
1154.671690005068
 20
5.296028755807072
 30
0.0
 40
3.75000004832809
100
AcDbArc
 50
0.0
 51
81.25363159179688
  0
ARC
  5
10A
330
1F
100
AcDbEntity
  8
0-0
  6
Continuous
 62
     3
370
     9
100
AcDbCircle
 10
1135.921937444891
 20
22.09236763619145
 30
0.0
 40
10.00000012887491
100
AcDbArc
 50
180.0
 51
261.2539978027344
  0
ARC
  5
10B
330
1F
100
AcDbEntity
  8
0-0
  6
Continuous
 62
     3
370
     9
100
AcDbCircle
 10
1103.422696260347
 20
-20.44055835620725
 30
0.0
 40
10.00000012887491
100
AcDbArc
 50
94.08583068847656
 51
180.0
  0
ARC
  5
10C
330
1F
100
AcDbEntity
  8
0-0
  6
Continuous
 62
     3
370
     9
100
AcDbCircle
 10
1089.673207635981
 20
-63.17613756334424
 30
0.0
 40
3.75000004832809
100
AcDbArc
 50
277.1266784667969
 51
0.0000000000000127
  0
TEXT
  5
10D
330
1F
100
AcDbEntity
  8
0-F
  6
Continuous
 62
     2
370
     9
100
AcDbText
 10
847.7816249499831
 20
-62.73680015679363
 30
0.0
 40
30.48
  1
28
 50
90.00000250447789
 41
1.0625
  7
ＭＳ ゴシック
100
AcDbText
  0
TEXT
  5
10E
330
1F
100
AcDbEntity
  8
0-F
  6
Continuous
 62
     2
370
     9
100
AcDbText
 10
747.7815419782895
 20
761.2213792139839
 30
0.0
 40
30.48
  1
2
 50
90.00000250448173
 41
1.000000000000001
  7
ＭＳ ゴシック
100
AcDbText
  0
TEXT
  5
10F
330
1F
100
AcDbEntity
  8
0-F
  6
Continuous
 62
     2
370
     9
100
AcDbText
 10
747.7815419782895
 20
-83.50272950777493
 30
0.0
 40
30.48
  1
2
 50
90.00000250448173
 41
0.9999999999999998
  7
ＭＳ ゴシック
100
AcDbText
  0
TEXT
  5
110
330
1F
100
AcDbEntity
  8
0-F
  6
Continuous
 62
     2
370
     9
100
AcDbText
 10
1032.43023987574
 20
259.1533073136617
 30
0.0
 40
30.48
  1
40
 41
1.0625
  7
ＭＳ ゴシック
100
AcDbText
  0
TEXT
  5
111
330
1F
100
AcDbEntity
  8
0-F
  6
Continuous
 62
     2
370
     9
100
AcDbText
 10
1169.100433934545
 20
304.3233232157943
 30
0.0
 40
30.48
  1
7
 41
0.9999999999999998
  7
ＭＳ ゴシック
100
AcDbText
  0
TEXT
  5
112
330
1F
100
AcDbEntity
  8
0-F
  6
Continuous
 62
     2
370
     9
100
AcDbText
 10
1380.281773413875
 20
702.2631256112596
 30
0.0
 40
30.48
  1
50
 50
90.00000250447789
 41
1.062500000000001
  7
ＭＳ ゴシック
100
AcDbText
  0
TEXT
  5
113
330
1F
100
AcDbEntity
  8
0-F
  6
Continuous
 62
     2
370
     9
100
AcDbText
 10
1380.281773413875
 20
-47.73687438874052
 30
0.0
 40
30.48
  1
50
 50
90.00000250447789
 41
1.0625
  7
ＭＳ ゴシック
100
AcDbText
  0
TEXT
  5
114
330
1F
100
AcDbEntity
  8
0-F
  6
Continuous
 62
     2
370
     9
100
AcDbText
 10
747.7815419782895
 20
-143.3226675488428
 30
0.0
 40
30.48
  1
3
 50
90.00000250448173
 41
0.9999999999999998
  7
ＭＳ ゴシック
100
AcDbText
  0
TEXT
  5
115
330
1F
100
AcDbEntity
  8
0-F
  6
Continuous
 62
     2
370
     9
100
AcDbText
 10
747.7815419782895
 20
820.3486094715853
 30
0.0
 40
30.48
  1
3
 50
90.00000250448173
 41
1.000000000000001
  7
ＭＳ ゴシック
100
AcDbText
  0
TEXT
  5
116
330
1F
100
AcDbEntity
  8
0-F
  6
Continuous
 62
     2
370
     9
100
AcDbText
 10
647.7814604818545
 20
316.0130018913486
 30
0.0
 40
30.48
  1
350
 50
90.00000250447873
 41
1.083333333333333
  7
ＭＳ ゴシック
100
AcDbText
  0
TEXT
  5
117
330
1F
100
AcDbEntity
  8
0-F
  6
Continuous
 62
     2
370
     9
100
AcDbText
 10
747.7815429617949
 20
316.0130018913486
 30
0.0
 40
30.48
  1
340
 50
90.00000250447873
 41
1.083333333333333
  7
ＭＳ ゴシック
100
AcDbText
  0
TEXT
  5
118
330
1F
100
AcDbEntity
  8
0-F
  6
Continuous
 62
     2
370
     9
100
AcDbText
 10
847.7816254417361
 20
316.0131256112599
 30
0.0
 40
30.48
  1
284
 50
90.00000250447873
 41
1.083333333333333
  7
ＭＳ ゴシック
100
AcDbText
  0
TEXT
  5
119
330
1F
100
AcDbEntity
  8
0-F
  6
Continuous
 62
     2
370
     9
100
AcDbText
 10
1380.281773905629
 20
316.0131256112599
 30
0.0
 40
30.48
  1
250
 50
90.00000250447873
 41
1.083333333333333
  7
ＭＳ ゴシック
100
AcDbText
  0
TEXT
  5
11A
330
1F
100
AcDbEntity
  8
0-F
  6
Continuous
 62
     2
370
     9
100
AcDbText
 10
1188.699870101669
 20
259.1533073136617
 30
0.0
 40
30.48
  1
15
 41
1.0625
  7
ＭＳ ゴシック
100
AcDbText
  0
TEXT
  5
11B
330
1F
100
AcDbEntity
  8
0-F
  6
Continuous
 62
     2
370
     9
100
AcDbText
 10
847.781624458229
 20
809.3122985024124
 30
0.0
 40
30.48
  1
4
 50
90.00000250447522
 41
1.000000000000001
  7
ＭＳ ゴシック
100
AcDbText
  0
TEXT
  5
11C
330
1F
100
AcDbEntity
  8
0-F
  6
Continuous
 62
     2
370
     9
100
AcDbText
 10
847.781624458229
 20
748.5128699234428
 30
0.0
 40
30.48
  1
4
 50
90.00000250447522
 41
1.000000000000001
  7
ＭＳ ゴシック
100
AcDbText
  0
TEXT
  5
11D
330
1F
100
AcDbEntity
  8
0-F
  6
Continuous
 62
     2
370
     9
100
AcDbText
 10
811.3762982335664
 20
736.0129524033837
 30
0.0
 40
30.48
  1
6
 50
90.00000250447522
 41
1.000000000000001
  7
ＭＳ ゴシック
100
AcDbText
  0
TEXT
  5
11E
330
1F
100
AcDbEntity
  8
0-F
  6
Continuous
 62
     2
370
     9
100
AcDbText
 10
847.781624458229
 20
723.5130348833245
 30
0.0
 40
30.48
  1
4
 50
90.00000250447522
 41
1.000000000000001
  7
ＭＳ ゴシック
100
AcDbText
  0
TEXT
  5
11F
330
1F
100
AcDbEntity
  8
0-F
  6
Continuous
 62
     2
370
     9
100
AcDbText
 10
811.3762982335664
 20
711.0131173632655
 30
0.0
 40
30.48
  1
6
 50
90.00000250447522
 41
1.000000000000001
  7
ＭＳ ゴシック
100
AcDbText
  0
TEXT
  5
120
330
1F
100
AcDbEntity
  8
0-F
  6
Continuous
 62
     2
370
     9
100
AcDbText
 10
847.781624458229
 20
698.5131998432064
 30
0.0
 40
30.48
  1
4
 50
90.00000250447522
 41
1.000000000000001
  7
ＭＳ ゴシック
100
AcDbText
  0
LWPOLYLINE
  5
121
330
1F
100
AcDbEntity
  8
0-F
  6
Continuous
 62
     7
370
     9
100
AcDbPolyline
 90
        4
 70
     1
 43
1.0
 10
758.9215580371629
 20
778.5131835937506
 42
0.4142135623731
 10
758.421558037163
 20
779.0131835937506
 42
0.4142135623731
 10
757.921558037163
 20
778.5131835937506
 42
0.4142135623731
 10
758.421558037163
 20
778.0131835937506
 42
0.4142135623731
  0
LWPOLYLINE
  5
122
330
1F
100
AcDbEntity
  8
0-F
  6
Continuous
 62
     7
370
     9
100
AcDbPolyline
 90
        4
 70
     1
 43
1.0
 10
758.9215580371629
 20
-81.48705559807809
 42
0.4142135623731
 10
758.421558037163
 20
-80.98705559807809
 42
0.4142135623731
 10
757.921558037163
 20
-81.48705559807809
 42
0.4142135623731
 10
758.421558037163
 20
-81.98705559807809
 42
0.4142135623731
  0
LWPOLYLINE
  5
123
330
1F
100
AcDbEntity
  8
0-F
  6
Continuous
 62
     7
370
     9
100
AcDbPolyline
 90
        4
 70
     1
 43
1.0
 10
1126.421904452915
 20
248.5132908176737
 42
0.4142135623731
 10
1125.921904452915
 20
249.0132908176737
 42
0.4142135623731
 10
1125.421904452915
 20
248.5132908176737
 42
0.4142135623731
 10
1125.921904452915
 20
248.0132908176737
 42
0.4142135623731
  0
LWPOLYLINE
  5
124
330
1F
100
AcDbEntity
  8
0-F
  6
Continuous
 62
     7
370
     9
100
AcDbPolyline
 90
        4
 70
     1
 43
1.0
 10
858.9216405171035
 20
763.5128866659634
 42
0.4142135623731
 10
858.4216405171036
 20
764.0128866659633
 42
0.4142135623731
 10
857.9216405171036
 20
763.5128866659634
 42
0.4142135623731
 10
858.4216405171036
 20
763.0128866659634
 42
0.4142135623731
  0
LWPOLYLINE
  5
125
330
1F
100
AcDbEntity
  8
0-F
  6
Continuous
 62
     7
370
     9
100
AcDbPolyline
 90
        4
 70
     1
 43
1.0
 10
858.9216405171035
 20
753.512853673987
 42
0.4142135623731
 10
858.4216405171036
 20
754.012853673987
 42
0.4142135623731
 10
857.9216405171036
 20
753.512853673987
 42
0.4142135623731
 10
858.4216405171036
 20
753.012853673987
 42
0.4142135623731
  0
LWPOLYLINE
  5
126
330
1F
100
AcDbEntity
  8
0-F
  6
Continuous
 62
     7
370
     9
100
AcDbPolyline
 90
        4
 70
     1
 43
1.0
 10
858.9216405171035
 20
738.513051625845
 42
0.4142135623731
 10
858.4216405171036
 20
739.013051625845
 42
0.4142135623731
 10
857.9216405171036
 20
738.513051625845
 42
0.4142135623731
 10
858.4216405171036
 20
738.0130516258452
 42
0.4142135623731
  0
LWPOLYLINE
  5
127
330
1F
100
AcDbEntity
  8
0-F
  6
Continuous
 62
     7
370
     9
100
AcDbPolyline
 90
        4
 70
     1
 43
1.0
 10
858.9216405171035
 20
728.5130186338688
 42
0.4142135623731
 10
858.4216405171036
 20
729.0130186338688
 42
0.4142135623731
 10
857.9216405171036
 20
728.5130186338688
 42
0.4142135623731
 10
858.4216405171036
 20
728.0130186338688
 42
0.4142135623731
  0
LWPOLYLINE
  5
128
330
1F
100
AcDbEntity
  8
0-F
  6
Continuous
 62
     7
370
     9
100
AcDbPolyline
 90
        4
 70
     1
 43
1.0
 10
858.9216405171035
 20
713.5132165857269
 42
0.4142135623731
 10
858.4216405171036
 20
714.0132165857268
 42
0.4142135623731
 10
857.9216405171036
 20
713.5132165857269
 42
0.4142135623731
 10
858.4216405171036
 20
713.0132165857269
 42
0.4142135623731
  0
LINE
  5
129
330
1F
100
AcDbEntity
  8
0-F
  6
Continuous
 62
     7
370
     9
100
AcDbLine
 10
1390.921788980997
 20
-88.98708034206038
 30
0.0
 11
1390.921788980997
 21
786.0130846178214
 31
0.0
  0
LINE
  5
12A
330
1F
100
AcDbEntity
  8
0-1
  6
Continuous
 62
     2
370
     9
100
AcDbLine
 10
1165.921640517103
 20
778.5131835937506
 30
0.0
 11
1008.421640517104
 21
778.5131835937506
 31
0.0
  0
LINE
  5
12B
330
1F
100
AcDbEntity
  8
0-1
  6
Continuous
 62
     2
370
     9
100
AcDbLine
 10
1173.421541541174
 20
661.0129196579396
 30
0.0
 11
1165.921640517103
 21
661.0129196579396
 31
0.0
  0
LINE
  5
12C
330
1F
100
AcDbEntity
  8
0-1
  6
Continuous
 62
     2
370
     9
100
AcDbLine
 10
1165.921640517103
 20
-81.48705559807809
 30
0.0
 11
1008.421640517104
 21
-81.48705559807809
 31
0.0
  0
LINE
  5
12D
330
1F
100
AcDbEntity
  8
0-1
  6
Continuous
 62
     2
370
     9
100
AcDbLine
 10
1173.421541541174
 20
36.01308461782139
 30
0.0
 11
1165.921640517103
 21
36.01308461782139
 31
0.0
  0
LINE
  5
12E
330
1F
100
AcDbEntity
  8
0-1
  6
Continuous
 62
     2
370
     9
100
AcDbLine
 10
1165.921640517103
 20
-81.48705559807809
 30
0.0
 11
1165.921640517103
 21
36.01308461782139
 31
0.0
  0
LINE
  5
12F
330
1F
100
AcDbEntity
  8
0-1
  6
Continuous
 62
     2
370
     9
100
AcDbLine
 10
1165.921640517103
 20
778.5131835937506
 30
0.0
 11
1165.921640517103
 21
661.0129196579396
 31
0.0
  0
LINE
  5
130
330
1F
100
AcDbEntity
  8
0-1
  6
Continuous
 62
     2
370
     9
100
AcDbLine
 10
1165.921640517103
 20
-88.98708034206038
 30
0.0
 11
1008.421640517104
 21
-88.98708034206038
 31
0.0
  0
LINE
  5
131
330
1F
100
AcDbEntity
  8
0-1
  6
Continuous
 62
     2
370
     9
100
AcDbLine
 10
1165.921640517103
 20
786.0130846178214
 30
0.0
 11
1008.421640517104
 21
786.0130846178214
 31
0.0
  0
ARC
  5
132
330
1F
100
AcDbEntity
  8
0-1
  6
Continuous
 62
     2
370
     9
100
AcDbCircle
 10
1165.921640517103
 20
778.5131835937506
 30
0.0
 40
7.500000096656181
100
AcDbArc
 50
0.0
 51
90.0
  0
ARC
  5
133
330
1F
100
AcDbEntity
  8
0-1
  6
Continuous
 62
     2
370
     9
100
AcDbCircle
 10
1165.921640517103
 20
-81.48705559807809
 30
0.0
 40
7.500000096656181
100
AcDbArc
 50
270.0
 51
0.0
  0
LINE
  5
134
330
1F
100
AcDbEntity
  8
0-1
  6
Continuous
 62
     2
370
     9
100
AcDbLine
 10
1173.421541541174
 20
778.5517332887448
 30
0.0
 11
1173.421541541174
 21
661.0129196579396
 31
0.0
  0
LINE
  5
135
330
1F
100
AcDbEntity
  8
0-1
  6
Continuous
 62
     2
370
     9
100
AcDbLine
 10
1173.421541541174
 20
-81.48705559807809
 30
0.0
 11
1173.421541541174
 21
36.01308461782139
 31
0.0
  0
LINE
  5
136
330
1F
100
AcDbEntity
  8
0-6
  6
Continuous
 62
     6
370
     9
100
AcDbLine
 10
1158.421145637458
 20
669.7629196579396
 30
0.0
 11
1165.921145637458
 21
669.7629196579396
 31
0.0
  0
LINE
  5
137
330
1F
100
AcDbEntity
  8
0-6
  6
Continuous
 62
     6
370
     9
100
AcDbLine
 10
1158.421145637458
 20
763.9743651128265
 30
0.0
 11
1164.209700182571
 21
769.762919657939
 31
0.0
  0
LINE
  5
138
330
1F
100
AcDbEntity
  8
0-6
  6
Continuous
 62
     6
370
     9
100
AcDbLine
 10
1158.421145637459
 20
749.8322294890943
 30
0.0
 11
1165.921145637459
 21
757.3322294890949
 31
0.0
  0
LINE
  5
139
330
1F
100
AcDbEntity
  8
0-6
  6
Continuous
 62
     6
370
     9
100
AcDbLine
 10
1158.421145637457
 20
735.6900938653587
 30
0.0
 11
1165.921145637457
 21
743.1900938653587
 31
0.0
  0
LINE
  5
13A
330
1F
100
AcDbEntity
  8
0-6
  6
Continuous
 62
     6
370
     9
100
AcDbLine
 10
1158.421145637458
 20
721.547958241627
 30
0.0
 11
1165.921145637458
 21
729.047958241627
 31
0.0
  0
LINE
  5
13B
330
1F
100
AcDbEntity
  8
0-6
  6
Continuous
 62
     6
370
     9
100
AcDbLine
 10
1158.421145637457
 20
707.405822617892
 30
0.0
 11
1165.921145637458
 21
714.9058226178926
 31
0.0
  0
LINE
  5
13C
330
1F
100
AcDbEntity
  8
0-6
  6
Continuous
 62
     6
370
     9
100
AcDbLine
 10
1158.421145637458
 20
693.2636869941598
 30
0.0
 11
1165.921145637453
 21
700.7636869941553
 31
0.0
  0
LINE
  5
13D
330
1F
100
AcDbEntity
  8
0-6
  6
Continuous
 62
     6
370
     9
100
AcDbLine
 10
1158.421145637456
 20
679.1215513704418
 30
0.0
 11
1165.921145637456
 21
686.6215513704424
 31
0.0
  0
LINE
  5
13E
330
1F
100
AcDbEntity
  8
0-6
  6
Continuous
 62
     6
370
     9
100
AcDbLine
 10
1163.204649548687
 20
669.7629196579408
 30
0.0
 11
1165.921145637457
 21
672.4794157467102
 31
0.0
  0
LINE
  5
13F
330
1F
100
AcDbEntity
  8
0-6
  6
Continuous
 62
     6
370
     9
100
AcDbLine
 10
1158.421145637458
 20
769.7629196579396
 30
0.0
 11
1158.421145637458
 21
669.7629196579396
 31
0.0
  0
LINE
  5
140
330
1F
100
AcDbEntity
  8
0-6
  6
Continuous
 62
     6
370
     9
100
AcDbLine
 10
1165.921145637458
 20
769.7629196579396
 30
0.0
 11
1158.421145637458
 21
769.7629196579396
 31
0.0
  0
LINE
  5
141
330
1F
100
AcDbEntity
  8
0-6
  6
Continuous
 62
     6
370
     9
100
AcDbLine
 10
1165.921145637458
 20
669.7629196579396
 30
0.0
 11
1165.921145637458
 21
769.7629196579396
 31
0.0
  0
LINE
  5
142
330
1F
100
AcDbEntity
  8
0-6
  6
Continuous
 62
     6
370
     9
100
AcDbLine
 10
1158.421145637458
 20
-72.73691538217861
 30
0.0
 11
1165.921145637458
 21
-72.73691538217861
 31
0.0
  0
LINE
  5
143
330
1F
100
AcDbEntity
  8
0-6
  6
Continuous
 62
     6
370
     9
100
AcDbLine
 10
1158.421145637458
 20
21.47453007270826
 30
0.0
 11
1164.209700182571
 21
27.26308461782139
 31
0.0
  0
LINE
  5
144
330
1F
100
AcDbEntity
  8
0-6
  6
Continuous
 62
     6
370
     9
100
AcDbLine
 10
1158.421145637459
 20
7.332394448976061
 30
0.0
 11
1165.921145637459
 21
14.8323944489772
 31
0.0
  0
LINE
  5
145
330
1F
100
AcDbEntity
  8
0-6
  6
Continuous
 62
     6
370
     9
100
AcDbLine
 10
1158.421145637457
 20
-6.809741174759552
 30
0.0
 11
1165.921145637457
 21
0.6902588252410169
 31
0.0
  0
LINE
  5
146
330
1F
100
AcDbEntity
  8
0-6
  6
Continuous
 62
     6
370
     9
100
AcDbLine
 10
1158.421145637458
 20
-20.95187679849118
 30
0.0
 11
1165.921145637458
 21
-13.45187679849062
 31
0.0
  0
LINE
  5
147
330
1F
100
AcDbEntity
  8
0-6
  6
Continuous
 62
     6
370
     9
100
AcDbLine
 10
1158.421145637457
 20
-35.09401242222566
 30
0.0
 11
1165.921145637458
 21
-27.59401242222509
 31
0.0
  0
LINE
  5
148
330
1F
100
AcDbEntity
  8
0-6
  6
Continuous
 62
     6
370
     9
100
AcDbLine
 10
1158.421145637458
 20
-49.23614804595786
 30
0.0
 11
1165.921145637453
 21
-41.73614804596241
 31
0.0
  0
LINE
  5
149
330
1F
100
AcDbEntity
  8
0-6
  6
Continuous
 62
     6
370
     9
100
AcDbLine
 10
1158.421145637456
 20
-63.37828366967585
 30
0.0
 11
1165.921145637456
 21
-55.87828366967528
 31
0.0
  0
LINE
  5
14A
330
1F
100
AcDbEntity
  8
0-6
  6
Continuous
 62
     6
370
     9
100
AcDbLine
 10
1163.204649548687
 20
-72.7369153821769
 30
0.0
 11
1165.921145637457
 21
-70.02041929340749
 31
0.0
  0
LINE
  5
14B
330
1F
100
AcDbEntity
  8
0-6
  6
Continuous
 62
     6
370
     9
100
AcDbLine
 10
1158.421145637458
 20
27.26308461782139
 30
0.0
 11
1158.421145637458
 21
-72.73691538217861
 31
0.0
  0
LINE
  5
14C
330
1F
100
AcDbEntity
  8
0-6
  6
Continuous
 62
     6
370
     9
100
AcDbLine
 10
1165.921145637458
 20
27.26308461782139
 30
0.0
 11
1158.421145637458
 21
27.26308461782139
 31
0.0
  0
LINE
  5
14D
330
1F
100
AcDbEntity
  8
0-6
  6
Continuous
 62
     6
370
     9
100
AcDbLine
 10
1165.921145637458
 20
-72.73691538217861
 30
0.0
 11
1165.921145637458
 21
27.26308461782139
 31
0.0
  0
LINE
  5
14E
330
1F
100
AcDbEntity
  8
0-4
  6
Continuous
 62
     7
370
     9
100
AcDbLine
 10
1189.670558998879
 20
-341.4875818201006
 30
0.0
 11
1189.670558998879
 21
-61.48699727297696
 31
0.0
  0
LINE
  5
14F
330
1F
100
AcDbEntity
  8
0-4
  6
Continuous
 62
     7
370
     9
100
AcDbLine
 10
1189.670558998879
 20
-338.4875818201004
 30
0.0
 11
1214.456680533225
 21
-335.2244270145991
 31
0.0
  0
LINE
  5
150
330
1F
100
AcDbEntity
  8
0-4
  6
Continuous
 62
     7
370
     9
100
AcDbLine
 10
1189.670558998879
 20
-338.4875818201004
 30
0.0
 11
1214.456680533225
 21
-341.7507366256018
 31
0.0
  0
LINE
  5
151
330
1F
100
AcDbEntity
  8
0-4
  6
Continuous
 62
     7
370
     9
100
AcDbLine
 10
1173.421541541175
 20
-338.4875818201004
 30
0.0
 11
1148.63542000683
 21
-335.2244270145991
 31
0.0
  0
LINE
  5
152
330
1F
100
AcDbEntity
  8
0-4
  6
Continuous
 62
     7
370
     9
100
AcDbLine
 10
1173.421541541175
 20
-338.4875818201004
 30
0.0
 11
1148.63542000683
 21
-341.7507366256018
 31
0.0
  0
LINE
  5
153
330
1F
100
AcDbEntity
  8
0-4
  6
Continuous
 62
     7
370
     9
100
AcDbLine
 10
1173.421541541175
 20
-338.4875818201004
 30
0.0
 11
1189.670558998879
 21
-338.4875818201004
 31
0.0
  0
TEXT
  5
154
330
1F
100
AcDbEntity
  8
0-4
  6
Continuous
 62
     2
370
     9
100
AcDbText
 10
1062.171764237015
 20
-227.8474828441713
 30
0.0
 40
30.48
  1
60
 41
1.0625
  7
ＭＳ ゴシック
100
AcDbText
  0
LINE
  5
155
330
1F
100
AcDbEntity
  8
0-4
  6
Continuous
 62
     7
370
     9
100
AcDbLine
 10
1008.421640517104
 20
-338.4875818201004
 30
0.0
 11
1038.164896957138
 21
-342.4033170133015
 31
0.0
  0
LINE
  5
156
330
1F
100
AcDbEntity
  8
0-4
  6
Continuous
 62
     7
370
     9
100
AcDbLine
 10
1008.421640517104
 20
-338.4875818201004
 30
0.0
 11
1038.164896957138
 21
-334.5718466268994
 31
0.0
  0
LINE
  5
157
330
1F
100
AcDbEntity
  8
0-4
  6
Continuous
 62
     7
370
     9
100
AcDbLine
 10
1158.421640517104
 20
-238.4874993401598
 30
0.0
 11
1128.678384077071
 21
-242.4032345333609
 31
0.0
  0
LINE
  5
158
330
1F
100
AcDbEntity
  8
0-4
  6
Continuous
 62
     7
370
     9
100
AcDbLine
 10
1158.421640517104
 20
-238.4874993401598
 30
0.0
 11
1128.678384077071
 21
-234.5717641469588
 31
0.0
  0
LINE
  5
159
330
1F
100
AcDbEntity
  8
0-4
  6
Continuous
 62
     7
370
     9
100
AcDbLine
 10
1008.421640517104
 20
-238.4874993401598
 30
0.0
 11
1038.164896957138
 21
-242.4032345333609
 31
0.0
  0
LINE
  5
15A
330
1F
100
AcDbEntity
  8
0-4
  6
Continuous
 62
     7
370
     9
100
AcDbLine
 10
1008.421640517104
 20
-238.4874993401598
 30
0.0
 11
1038.164896957138
 21
-234.5717641469588
 31
0.0
  0
LINE
  5
15B
330
1F
100
AcDbEntity
  8
0-4
  6
Continuous
 62
     7
370
     9
100
AcDbLine
 10
1158.421640517104
 20
-101.4872453019422
 30
0.0
 11
1158.421640517104
 21
-241.4874597497879
 31
0.0
  0
LINE
  5
15C
330
1F
100
AcDbEntity
  8
0-4
  6
Continuous
 62
     7
370
     9
100
AcDbLine
 10
1008.421640517104
 20
-108.987146326013
 30
0.0
 11
1008.421640517104
 21
-341.4875422297291
 31
0.0
  0
LINE
  5
15D
330
1F
100
AcDbEntity
  8
0-4
  6
Continuous
 62
     7
370
     9
100
AcDbLine
 10
1008.421640517104
 20
-238.4874993401598
 30
0.0
 11
1158.421640517104
 21
-238.4874993401598
 31
0.0
  0
LINE
  5
15E
330
1F
100
AcDbEntity
  8
0-4
  6
Continuous
 62
     7
370
     9
100
AcDbLine
 10
1173.421541541175
 20
-174.076912778275
 30
0.0
 11
1173.421541541175
 21
-341.4875422297291
 31
0.0
  0
LINE
  5
15F
330
1F
100
AcDbEntity
  8
0-4
  6
Continuous
 62
     7
370
     9
100
AcDbLine
 10
1173.421541541175
 20
-338.4875818201004
 30
0.0
 11
1143.67828510114
 21
-342.4033170133015
 31
0.0
  0
LINE
  5
160
330
1F
100
AcDbEntity
  8
0-4
  6
Continuous
 62
     7
370
     9
100
AcDbLine
 10
1173.421541541175
 20
-338.4875818201004
 30
0.0
 11
1143.67828510114
 21
-334.5718466268994
 31
0.0
  0
LINE
  5
161
330
1F
100
AcDbEntity
  8
0-4
  6
Continuous
 62
     7
370
     9
100
AcDbLine
 10
1008.421640517104
 20
-338.4875818201004
 30
0.0
 11
1173.421541541175
 21
-338.4875818201004
 31
0.0
  0
TEXT
  5
162
330
1F
100
AcDbEntity
  8
0-4
  6
Continuous
 62
     2
370
   211
100
AcDbText
 10
1069.671591029139
 20
-327.8475653241125
 30
0.0
 40
30.48
  1
66
 41
1.0625
  7
ＭＳ ゴシック
100
AcDbText
  0
TEXT
  5
163
330
1F
100
AcDbEntity
  8
0-4
  6
Continuous
 62
     2
370
   211
100
AcDbText
 10
1203.101767269509
 20
-326.8475818201002
 30
0.0
 40
30.48
  1
6.5
 41
1.083333333333335
  7
ＭＳ ゴシック
100
AcDbText
  0
LINE
  5
164
330
1F
100
AcDbEntity
  8
0-4
  6
Continuous
 62
     7
370
     9
100
AcDbLine
 10
1189.670558998879
 20
-338.4875818201004
 30
0.0
 11
1270.816073151047
 21
-338.4875818201004
 31
0.0
  0
LINE
  5
165
330
1F
100
AcDbEntity
  8
0-1
  6
JWW_CENTER2
 62
     2
370
     9
100
AcDbLine
 10
1193.541043634515
 20
-41.48699727297696
 30
0.0
 11
1170.830104278716
 21
-41.48699727297696
 31
0.0
  0
LINE
  5
166
330
1F
100
AcDbEntity
  8
0-1
  6
Continuous
 62
     2
370
     9
100
AcDbLine
 10
1179.670888476785
 20
-66.4870797529187
 30
0.0
 11
1184.671532262181
 21
-66.4870797529187
 31
0.0
  0
LINE
  5
167
330
1F
100
AcDbEntity
  8
0-1
  6
Continuous
 62
     2
370
     9
100
AcDbLine
 10
1173.421541541175
 20
-66.4870797529187
 30
0.0
 11
1174.670865205659
 21
-66.4870797529187
 31
0.0
  0
LINE
  5
168
330
1F
100
AcDbEntity
  8
0-1
  6
Continuous
 62
     2
370
     9
100
AcDbLine
 10
1184.671532262181
 20
-66.4870797529187
 30
0.0
 11
1184.671532262181
 21
-16.48691479303636
 31
0.0
  0
LINE
  5
169
330
1F
100
AcDbEntity
  8
0-1
  6
JWW_DASHED1
 62
     2
370
     9
100
AcDbLine
 10
1184.670911747911
 20
-47.11193055259685
 30
0.0
 11
1179.670888476785
 21
-47.11193055259685
 31
0.0
  0
LINE
  5
16A
330
1F
100
AcDbEntity
  8
0-1
  6
JWW_DASHED1
 62
     2
370
     9
100
AcDbLine
 10
1179.170836602794
 20
-47.11193055259685
 30
0.0
 11
1174.670865205659
 21
-51.48679608083569
 31
0.0
  0
LINE
  5
16B
330
1F
100
AcDbEntity
  8
0-1
  6
JWW_DASHED1
 62
     2
370
     9
100
AcDbLine
 10
1179.170836602794
 20
-47.11193055259685
 30
0.0
 11
1179.671012343983
 21
-47.11193055259685
 31
0.0
  0
LINE
  5
16C
330
1F
100
AcDbEntity
  8
0-1
  6
JWW_DASHED1
 62
     2
370
     9
100
AcDbLine
 10
1179.170836602794
 20
-35.8619401261609
 30
0.0
 11
1179.671012343983
 21
-35.8619401261609
 31
0.0
  0
LINE
  5
16D
330
1F
100
AcDbEntity
  8
0-1
  6
JWW_DASHED1
 62
     2
370
     9
100
AcDbLine
 10
1179.170836602794
 20
-47.11193055259685
 30
0.0
 11
1179.170836602794
 21
-35.8619401261609
 31
0.0
  0
LINE
  5
16E
330
1F
100
AcDbEntity
  8
0-1
  6
JWW_DASHED1
 62
     2
370
     9
100
AcDbLine
 10
1184.670911747911
 20
-35.8619401261609
 30
0.0
 11
1179.670888476785
 21
-35.8619401261609
 31
0.0
  0
LINE
  5
16F
330
1F
100
AcDbEntity
  8
0-1
  6
JWW_DASHED1
 62
     2
370
     9
100
AcDbLine
 10
1179.170836602794
 20
-35.8619401261609
 30
0.0
 11
1174.670865205659
 21
-31.48719846511938
 31
0.0
  0
LINE
  5
170
330
1F
100
AcDbEntity
  8
0-1
  6
Continuous
 62
     2
370
     9
100
AcDbLine
 10
1174.670865205659
 20
-16.48688091734641
 30
0.0
 11
1179.670888476785
 21
-16.48688091734641
 31
0.0
  0
LINE
  5
171
330
1F
100
AcDbEntity
  8
0-1
  6
Continuous
 62
     2
370
     9
100
AcDbLine
 10
1179.670888476785
 20
-91.49949283673493
 30
0.0
 11
1179.670888476785
 21
-16.48688091734641
 31
0.0
  0
LINE
  5
172
330
1F
100
AcDbEntity
  8
0-1
  6
Continuous
 62
     2
370
     9
100
AcDbLine
 10
1174.670865205659
 20
-163.9869480795841
 30
0.0
 11
1174.670865205659
 21
-16.48688091734641
 31
0.0
  0
ARC
  5
173
330
1F
100
AcDbEntity
  8
0-1
  6
Continuous
 62
     2
370
     9
100
AcDbCircle
 10
1181.670848238357
 20
-98.9870171565343
 30
0.0
 40
7.500001036752605
100
AcDbArc
 50
0.0
 51
90.0
  0
ARC
  5
174
330
1F
100
AcDbEntity
  8
0-1
  6
Continuous
 62
     2
370
     9
100
AcDbCircle
 10
1181.670848238357
 20
-156.4870370400916
 30
0.0
 40
7.500001036752605
100
AcDbArc
 50
270.0
 51
0.0
  0
LINE
  5
175
330
1F
100
AcDbEntity
  8
0-1
  6
Continuous
 62
     2
370
     9
100
AcDbLine
 10
1189.170883145046
 20
-98.9870171565343
 30
0.0
 11
1189.170883145046
 21
-156.4870370400916
 31
0.0
  0
LINE
  5
176
330
1F
100
AcDbEntity
  8
0-1
  6
Continuous
 62
     2
370
     9
100
AcDbLine
 10
1181.670848238357
 20
-91.48698224984571
 30
0.0
 11
1174.670865205659
 21
-91.48698224984571
 31
0.0
  0
LINE
  5
177
330
1F
100
AcDbEntity
  8
0-1
  6
Continuous
 62
     2
370
     9
100
AcDbLine
 10
1181.670848238357
 20
-163.9869480795841
 30
0.0
 11
1174.670865205659
 21
-163.9869480795841
 31
0.0
  0
LINE
  5
178
330
1F
100
AcDbEntity
  8
0-1
  6
JWW_DASHED1
 62
     2
370
     9
100
AcDbLine
 10
1179.670888476785
 20
-163.9744374926948
 30
0.0
 11
1179.670888476785
 21
-91.49949283673493
 31
0.0
  0
LINE
  5
179
330
1F
100
AcDbEntity
  8
0-1
  6
JWW_CENTER2
 62
     2
370
     9
100
AcDbLine
 10
1184.670911747911
 20
-138.9868317239535
 30
0.0
 11
1169.67096580173
 21
-138.9868317239535
 31
0.0
  0
LINE
  5
17A
330
1F
100
AcDbEntity
  8
0-1
  6
Continuous
 62
     2
370
     9
100
AcDbLine
 10
1179.670888476785
 20
-81.48693570759349
 30
0.0
 11
1174.670865205659
 21
-81.48693570759349
 31
0.0
  0
LINE
  5
17B
330
1F
100
AcDbEntity
  8
0-1
  6
JWW_DASHED1
 62
     2
370
     9
100
AcDbLine
 10
1179.670888476785
 20
-128.3619990404048
 30
0.0
 11
1174.670865205659
 21
-128.3619990404048
 31
0.0
  0
LINE
  5
17C
330
1F
100
AcDbEntity
  8
0-1
  6
JWW_DASHED1
 62
     2
370
     9
100
AcDbLine
 10
1179.670888476785
 20
-149.6119121418957
 30
0.0
 11
1174.670865205659
 21
-149.6119121418957
 31
0.0
  0
LINE
  5
17D
330
1F
100
AcDbEntity
  8
0-1
  6
Continuous
 62
     2
370
     9
100
AcDbLine
 10
1174.670865205659
 20
-58.36245503664884
 30
0.0
 11
1174.670865205659
 21
-66.4870797529187
 31
0.0
  0
LINE
  5
17E
330
1F
100
AcDbEntity
  8
0-1
  6
Continuous
 62
     2
370
     9
100
AcDbLine
 10
1179.671624021115
 20
-63.36197665299267
 30
0.0
 11
1179.671624021115
 21
-66.4870797529187
 31
0.0
  0
LINE
  5
17F
330
1F
100
AcDbEntity
  8
0-1
  6
Continuous
 62
     2
370
     9
100
AcDbLine
 10
1174.670865205659
 20
-24.61234368872908
 30
0.0
 11
1174.670865205659
 21
-16.48691479303636
 31
0.0
  0
LINE
  5
180
330
1F
100
AcDbEntity
  8
0-1
  6
Continuous
 62
     2
370
     9
100
AcDbLine
 10
1179.671624021115
 20
-19.6120178929624
 30
0.0
 11
1179.671624021115
 21
-16.48691479303636
 31
0.0
  0
LINE
  5
181
330
1F
100
AcDbEntity
  8
0-1
  6
Continuous
 62
     2
370
     9
100
AcDbLine
 10
1173.421541541175
 20
-16.48691479303636
 30
0.0
 11
1184.671532262181
 21
-16.48691479303636
 31
0.0
  0
LINE
  5
182
330
1F
100
AcDbEntity
  8
0-1
  6
Continuous
 62
     2
370
     9
100
AcDbLine
 10
1174.670865205659
 20
-31.48665498122284
 30
0.0
 11
1174.170449094358
 21
-31.48665498122284
 31
0.0
  0
LINE
  5
183
330
1F
100
AcDbEntity
  8
0-1
  6
Continuous
 62
     2
370
     9
100
AcDbLine
 10
1174.670865205659
 20
-51.48634980544159
 30
0.0
 11
1174.170449094358
 21
-51.48634980544159
 31
0.0
  0
LINE
  5
184
330
1F
100
AcDbEntity
  8
0-1
  6
Continuous
 62
     2
370
     9
100
AcDbLine
 10
1174.170449094358
 20
-51.48634980544159
 30
0.0
 11
1174.170449094358
 21
-41.48699727297696
 31
0.0
  0
LINE
  5
185
330
1F
100
AcDbEntity
  8
0-1
  6
Continuous
 62
     2
370
     9
100
AcDbLine
 10
1174.170449094358
 20
-31.48665498122284
 30
0.0
 11
1174.170449094358
 21
-41.48699727297696
 31
0.0
  0
LINE
  5
186
330
1F
100
AcDbEntity
  8
0-1
  6
Continuous
 62
     2
370
     9
100
AcDbLine
 10
1185.920855926666
 20
-48.36186530507177
 30
0.0
 11
1184.671532262181
 21
-48.36186530507177
 31
0.0
  0
LINE
  5
187
330
1F
100
AcDbEntity
  8
0-1
  6
Continuous
 62
     2
370
     9
100
AcDbLine
 10
1189.670558998879
 20
-43.98651064132594
 30
0.0
 11
1185.920855926666
 21
-48.36186530507177
 31
0.0
  0
LINE
  5
188
330
1F
100
AcDbEntity
  8
0-1
  6
Continuous
 62
     2
370
     9
100
AcDbLine
 10
1189.670558998879
 20
-38.98705088493955
 30
0.0
 11
1189.670558998879
 21
-43.98651064132594
 31
0.0
  0
LINE
  5
189
330
1F
100
AcDbEntity
  8
0-1
  6
Continuous
 62
     2
370
     9
100
AcDbLine
 10
1185.920855926666
 20
-34.61181994110405
 30
0.0
 11
1189.670558998879
 21
-38.98705088493955
 31
0.0
  0
LINE
  5
18A
330
1F
100
AcDbEntity
  8
0-1
  6
Continuous
 62
     2
370
     9
100
AcDbLine
 10
1185.920855926666
 20
-34.61181994110405
 30
0.0
 11
1184.671532262181
 21
-34.61181994110405
 31
0.0
  0
LINE
  5
18B
330
1F
100
AcDbEntity
  8
0-1
  6
Continuous
 62
     2
370
     9
100
AcDbLine
 10
1185.920855926666
 20
-34.61181994110405
 30
0.0
 11
1185.920855926666
 21
-48.36186530507177
 31
0.0
  0
LINE
  5
18C
330
1F
100
AcDbEntity
  8
0-1
  6
Continuous
 62
     2
370
     9
100
AcDbLine
 10
1173.421541541175
 20
-66.4870797529187
 30
0.0
 11
1173.421541541175
 21
-16.48691479303636
 31
0.0
  0
LINE
  5
18D
330
1F
100
AcDbEntity
  8
0-1
  6
Continuous
 62
     2
370
     9
100
AcDbLine
 10
1174.670865205659
 20
-58.36245503664884
 30
0.0
 11
1174.670865205659
 21
-24.61234368872908
 31
0.0
  0
LINE
  5
18E
330
1F
100
AcDbEntity
  8
0-1
  6
Continuous
 62
     2
370
     9
100
AcDbLine
 10
1179.670888476785
 20
763.5130840286786
 30
0.0
 11
1184.671532262181
 21
763.5130840286786
 31
0.0
  0
LINE
  5
18F
330
1F
100
AcDbEntity
  8
0-1
  6
Continuous
 62
     2
370
     9
100
AcDbLine
 10
1173.421541541175
 20
763.5130840286786
 30
0.0
 11
1174.670865205659
 21
763.5130840286786
 31
0.0
  0
LINE
  5
190
330
1F
100
AcDbEntity
  8
0-1
  6
Continuous
 62
     2
370
     9
100
AcDbLine
 10
1184.671532262181
 20
763.5130840286786
 30
0.0
 11
1184.671532262181
 21
713.5129190687974
 31
0.0
  0
LINE
  5
191
330
1F
100
AcDbEntity
  8
0-1
  6
JWW_DASHED1
 62
     2
370
     9
100
AcDbLine
 10
1184.670911747911
 20
744.1379348283579
 30
0.0
 11
1179.670888476785
 21
744.1379348283579
 31
0.0
  0
LINE
  5
192
330
1F
100
AcDbEntity
  8
0-1
  6
JWW_DASHED1
 62
     2
370
     9
100
AcDbLine
 10
1179.170836602794
 20
744.1379348283579
 30
0.0
 11
1174.670865205659
 21
748.5128003565967
 31
0.0
  0
LINE
  5
193
330
1F
100
AcDbEntity
  8
0-1
  6
JWW_DASHED1
 62
     2
370
     9
100
AcDbLine
 10
1179.170836602794
 20
744.1379348283579
 30
0.0
 11
1179.671012343983
 21
744.1379348283579
 31
0.0
  0
LINE
  5
194
330
1F
100
AcDbEntity
  8
0-1
  6
JWW_DASHED1
 62
     2
370
     9
100
AcDbLine
 10
1179.170836602794
 20
732.8879444019219
 30
0.0
 11
1179.671012343983
 21
732.8879444019219
 31
0.0
  0
LINE
  5
195
330
1F
100
AcDbEntity
  8
0-1
  6
JWW_DASHED1
 62
     2
370
     9
100
AcDbLine
 10
1179.170836602794
 20
744.1379348283579
 30
0.0
 11
1179.170836602794
 21
732.8879444019219
 31
0.0
  0
LINE
  5
196
330
1F
100
AcDbEntity
  8
0-1
  6
JWW_DASHED1
 62
     2
370
     9
100
AcDbLine
 10
1184.670911747911
 20
732.8879444019219
 30
0.0
 11
1179.670888476785
 21
732.8879444019219
 31
0.0
  0
LINE
  5
197
330
1F
100
AcDbEntity
  8
0-1
  6
JWW_DASHED1
 62
     2
370
     9
100
AcDbLine
 10
1179.170836602794
 20
732.8879444019219
 30
0.0
 11
1174.670865205659
 21
728.5132027408793
 31
0.0
  0
LINE
  5
198
330
1F
100
AcDbEntity
  8
0-1
  6
Continuous
 62
     2
370
     9
100
AcDbLine
 10
1174.670865205659
 20
713.5128851931074
 30
0.0
 11
1179.670888476785
 21
713.5128851931074
 31
0.0
  0
LINE
  5
199
330
1F
100
AcDbEntity
  8
0-1
  6
Continuous
 62
     2
370
     9
100
AcDbLine
 10
1179.670888476785
 20
788.5254971124948
 30
0.0
 11
1179.670888476785
 21
713.5128851931074
 31
0.0
  0
LINE
  5
19A
330
1F
100
AcDbEntity
  8
0-1
  6
Continuous
 62
     2
370
     9
100
AcDbLine
 10
1174.670865205659
 20
861.0129523553439
 30
0.0
 11
1174.670865205659
 21
713.5128851931074
 31
0.0
  0
ARC
  5
19B
330
1F
100
AcDbEntity
  8
0-1
  6
Continuous
 62
     2
370
     9
100
AcDbCircle
 10
1181.670848238357
 20
796.0130214322942
 30
0.0
 40
7.500001036752605
100
AcDbArc
 50
270.0
 51
0.0
  0
ARC
  5
19C
330
1F
100
AcDbEntity
  8
0-1
  6
Continuous
 62
     2
370
     9
100
AcDbCircle
 10
1181.670848238357
 20
853.5130413158515
 30
0.0
 40
7.500001036752605
100
AcDbArc
 50
0.0
 51
90.0
  0
LINE
  5
19D
330
1F
100
AcDbEntity
  8
0-1
  6
Continuous
 62
     2
370
     9
100
AcDbLine
 10
1189.170883145046
 20
796.0130214322942
 30
0.0
 11
1189.170883145046
 21
853.5130413158515
 31
0.0
  0
LINE
  5
19E
330
1F
100
AcDbEntity
  8
0-1
  6
Continuous
 62
     2
370
     9
100
AcDbLine
 10
1181.670848238357
 20
788.5129865256056
 30
0.0
 11
1174.670865205659
 21
788.5129865256056
 31
0.0
  0
LINE
  5
19F
330
1F
100
AcDbEntity
  8
0-1
  6
Continuous
 62
     2
370
     9
100
AcDbLine
 10
1181.670848238357
 20
861.0129523553439
 30
0.0
 11
1174.670865205659
 21
861.0129523553439
 31
0.0
  0
LINE
  5
1A0
330
1F
100
AcDbEntity
  8
0-1
  6
JWW_DASHED1
 62
     2
370
     9
100
AcDbLine
 10
1179.670888476785
 20
861.0004417684547
 30
0.0
 11
1179.670888476785
 21
788.5254971124948
 31
0.0
  0
LINE
  5
1A1
330
1F
100
AcDbEntity
  8
0-1
  6
Continuous
 62
     2
370
     9
100
AcDbLine
 10
1179.670888476785
 20
778.5129399833534
 30
0.0
 11
1174.670865205659
 21
778.5129399833534
 31
0.0
  0
LINE
  5
1A2
330
1F
100
AcDbEntity
  8
0-1
  6
JWW_DASHED1
 62
     2
370
     9
100
AcDbLine
 10
1179.670888476785
 20
825.3880033161647
 30
0.0
 11
1174.670865205659
 21
825.3880033161647
 31
0.0
  0
LINE
  5
1A3
330
1F
100
AcDbEntity
  8
0-1
  6
JWW_DASHED1
 62
     2
370
     9
100
AcDbLine
 10
1179.670888476785
 20
846.6379164176567
 30
0.0
 11
1174.670865205659
 21
846.6379164176567
 31
0.0
  0
LINE
  5
1A4
330
1F
100
AcDbEntity
  8
0-1
  6
JWW_CENTER2
 62
     2
370
     9
100
AcDbLine
 10
1193.541043634515
 20
738.513001548738
 30
0.0
 11
1170.830104278716
 21
738.513001548738
 31
0.0
  0
LINE
  5
1A5
330
1F
100
AcDbEntity
  8
0-1
  6
Continuous
 62
     2
370
     9
100
AcDbLine
 10
1174.670865205659
 20
755.3884593124099
 30
0.0
 11
1174.670865205659
 21
763.5130840286786
 31
0.0
  0
LINE
  5
1A6
330
1F
100
AcDbEntity
  8
0-1
  6
Continuous
 62
     2
370
     9
100
AcDbLine
 10
1179.671624021115
 20
760.3879809287525
 30
0.0
 11
1179.671624021115
 21
763.5130840286786
 31
0.0
  0
LINE
  5
1A7
330
1F
100
AcDbEntity
  8
0-1
  6
Continuous
 62
     2
370
     9
100
AcDbLine
 10
1174.670865205659
 20
721.638347964489
 30
0.0
 11
1174.670865205659
 21
713.5129190687974
 31
0.0
  0
LINE
  5
1A8
330
1F
100
AcDbEntity
  8
0-1
  6
Continuous
 62
     2
370
     9
100
AcDbLine
 10
1179.671624021115
 20
716.6380221687234
 30
0.0
 11
1179.671624021115
 21
713.5129190687974
 31
0.0
  0
LINE
  5
1A9
330
1F
100
AcDbEntity
  8
0-1
  6
Continuous
 62
     2
370
     9
100
AcDbLine
 10
1173.421541541175
 20
713.5129190687974
 30
0.0
 11
1184.671532262181
 21
713.5129190687974
 31
0.0
  0
LINE
  5
1AA
330
1F
100
AcDbEntity
  8
0-1
  6
Continuous
 62
     2
370
     9
100
AcDbLine
 10
1174.670865205659
 20
728.5126592569839
 30
0.0
 11
1174.170449094358
 21
728.5126592569839
 31
0.0
  0
LINE
  5
1AB
330
1F
100
AcDbEntity
  8
0-1
  6
Continuous
 62
     2
370
     9
100
AcDbLine
 10
1174.670865205659
 20
748.5123540812026
 30
0.0
 11
1174.170449094358
 21
748.5123540812026
 31
0.0
  0
LINE
  5
1AC
330
1F
100
AcDbEntity
  8
0-1
  6
Continuous
 62
     2
370
     9
100
AcDbLine
 10
1174.170449094358
 20
748.5123540812026
 30
0.0
 11
1174.170449094358
 21
738.513001548738
 31
0.0
  0
LINE
  5
1AD
330
1F
100
AcDbEntity
  8
0-1
  6
Continuous
 62
     2
370
     9
100
AcDbLine
 10
1174.170449094358
 20
728.5126592569839
 30
0.0
 11
1174.170449094358
 21
738.513001548738
 31
0.0
  0
LINE
  5
1AE
330
1F
100
AcDbEntity
  8
0-1
  6
Continuous
 62
     2
370
     9
100
AcDbLine
 10
1185.920855926666
 20
745.3878695808328
 30
0.0
 11
1184.671532262181
 21
745.3878695808328
 31
0.0
  0
LINE
  5
1AF
330
1F
100
AcDbEntity
  8
0-1
  6
Continuous
 62
     2
370
     9
100
AcDbLine
 10
1189.670558998879
 20
741.012514917087
 30
0.0
 11
1185.920855926666
 21
745.3878695808328
 31
0.0
  0
LINE
  5
1B0
330
1F
100
AcDbEntity
  8
0-1
  6
Continuous
 62
     2
370
     9
100
AcDbLine
 10
1189.670558998879
 20
736.0130551606994
 30
0.0
 11
1189.670558998879
 21
741.012514917087
 31
0.0
  0
LINE
  5
1B1
330
1F
100
AcDbEntity
  8
0-1
  6
Continuous
 62
     2
370
     9
100
AcDbLine
 10
1185.920855926666
 20
731.637824216865
 30
0.0
 11
1189.670558998879
 21
736.0130551606994
 31
0.0
  0
LINE
  5
1B2
330
1F
100
AcDbEntity
  8
0-1
  6
Continuous
 62
     2
370
     9
100
AcDbLine
 10
1185.920855926666
 20
731.637824216865
 30
0.0
 11
1184.671532262181
 21
731.637824216865
 31
0.0
  0
LINE
  5
1B3
330
1F
100
AcDbEntity
  8
0-1
  6
Continuous
 62
     2
370
     9
100
AcDbLine
 10
1185.920855926666
 20
731.637824216865
 30
0.0
 11
1185.920855926666
 21
745.3878695808328
 31
0.0
  0
LINE
  5
1B4
330
1F
100
AcDbEntity
  8
0-1
  6
Continuous
 62
     2
370
     9
100
AcDbLine
 10
1173.421541541175
 20
763.5130840286786
 30
0.0
 11
1173.421541541175
 21
713.5129190687974
 31
0.0
  0
LINE
  5
1B5
330
1F
100
AcDbEntity
  8
0-1
  6
Continuous
 62
     2
370
     9
100
AcDbLine
 10
1174.670865205659
 20
755.3884593124099
 30
0.0
 11
1174.670865205659
 21
721.638347964489
 31
0.0
  0
LINE
  5
1B6
330
1F
100
AcDbEntity
  8
0-1
  6
JWW_CENTER2
 62
     2
370
     9
100
AcDbLine
 10
1184.670911747911
 20
836.0128359997145
 30
0.0
 11
1169.67096580173
 21
836.0128359997145
 31
0.0
  0
LINE
  5
1B7
330
1F
100
AcDbEntity
  8
0-4
  6
Continuous
 62
     7
370
     9
100
AcDbLine
 10
1390.921788980997
 20
-163.9869480795841
 30
0.0
 11
1390.921788980997
 21
-88.98708034206038
 31
0.0
  0
LINE
  5
1B8
330
1F
100
AcDbEntity
  8
0-4
  6
Continuous
 62
     7
370
     9
100
AcDbLine
 10
1390.921788980997
 20
-163.9869480795841
 30
0.0
 11
1387.658634175496
 21
-139.2008265452388
 31
0.0
  0
LINE
  5
1B9
330
1F
100
AcDbEntity
  8
0-4
  6
Continuous
 62
     7
370
     9
100
AcDbLine
 10
1390.921788980997
 20
-163.9869480795841
 30
0.0
 11
1394.184943786498
 21
-139.2008265452388
 31
0.0
  0
LINE
  5
1BA
330
1F
100
AcDbEntity
  8
0-4
  6
Continuous
 62
     7
370
     9
100
AcDbLine
 10
1390.921788980997
 20
-88.98708034206038
 30
0.0
 11
1387.658634175496
 21
-113.7732018764056
 31
0.0
  0
LINE
  5
1BB
330
1F
100
AcDbEntity
  8
0-4
  6
Continuous
 62
     7
370
     9
100
AcDbLine
 10
1390.921788980997
 20
-88.98708034206038
 30
0.0
 11
1394.184943786498
 21
-113.7732018764056
 31
0.0
  0
LINE
  5
1BC
330
1F
100
AcDbEntity
  8
0-4
  6
Continuous
 62
     7
370
     9
100
AcDbLine
 10
1393.921788980997
 20
-163.9869480795841
 30
0.0
 11
1194.670865205659
 21
-163.9869480795841
 31
0.0
  0
TEXT
  5
1BD
330
1F
100
AcDbEntity
  8
0-4
  6
Continuous
 62
     2
370
   211
100
AcDbText
 10
1375.281788980997
 20
-147.7370142108222
 30
0.0
 40
30.48
  1
30
 50
90.0
 41
1.0625
  7
ＭＳ ゴシック
100
AcDbText
  0
LINE
  5
1BE
330
1F
100
AcDbEntity
  8
0-F
  6
Continuous
 62
     7
370
     9
100
AcDbLine
 10
1194.670865205659
 20
-88.98708034206038
 30
0.0
 11
1393.921749390625
 21
-88.98708034206038
 31
0.0
  0
LINE
  5
1BF
330
1F
100
AcDbEntity
  8
0-F
  6
Continuous
 62
     7
370
     9
100
AcDbLine
 10
1194.670865205659
 20
36.01320833773286
 30
0.0
 11
1393.921749390625
 21
36.01320833773286
 31
0.0
  0
LINE
  5
1C0
330
1F
100
AcDbEntity
  8
0-F
  6
Continuous
 62
     7
370
     9
100
AcDbLine
 10
1194.670865205659
 20
661.0131670977623
 30
0.0
 11
1393.921749390625
 21
661.0131670977623
 31
0.0
  0
LINE
  5
1C1
330
1F
100
AcDbEntity
  8
0-F
  6
Continuous
 62
     7
370
     9
100
AcDbLine
 10
1194.670865205659
 20
786.0130846178214
 30
0.0
 11
1393.921749390625
 21
786.0130846178214
 31
0.0
  0
LINE
  5
1C2
330
1F
100
AcDbEntity
  8
0-4
  6
Continuous
 62
     7
370
     9
100
AcDbLine
 10
1390.921788980997
 20
786.0130846178214
 30
0.0
 11
1390.921788980997
 21
861.0129523553439
 31
0.0
  0
LINE
  5
1C3
330
1F
100
AcDbEntity
  8
0-4
  6
Continuous
 62
     7
370
     9
100
AcDbLine
 10
1390.921788980997
 20
786.0130846178214
 30
0.0
 11
1387.658634175496
 21
810.7992061521667
 31
0.0
  0
LINE
  5
1C4
330
1F
100
AcDbEntity
  8
0-4
  6
Continuous
 62
     7
370
     9
100
AcDbLine
 10
1390.921788980997
 20
786.0130846178214
 30
0.0
 11
1394.184943786498
 21
810.7992061521667
 31
0.0
  0
LINE
  5
1C5
330
1F
100
AcDbEntity
  8
0-4
  6
Continuous
 62
     7
370
     9
100
AcDbLine
 10
1390.921788980997
 20
861.0129523553439
 30
0.0
 11
1387.658634175496
 21
836.2268308209987
 31
0.0
  0
LINE
  5
1C6
330
1F
100
AcDbEntity
  8
0-4
  6
Continuous
 62
     7
370
     9
100
AcDbLine
 10
1390.921788980997
 20
861.0129523553439
 30
0.0
 11
1394.184943786498
 21
836.2268308209987
 31
0.0
  0
LINE
  5
1C7
330
1F
100
AcDbEntity
  8
0-4
  6
Continuous
 62
     7
370
     9
100
AcDbLine
 10
1393.921788980997
 20
861.0129523553439
 30
0.0
 11
1194.670865205659
 21
861.0129523553439
 31
0.0
  0
TEXT
  5
1C8
330
1F
100
AcDbEntity
  8
0-4
  6
Continuous
 62
     2
370
   211
100
AcDbText
 10
1375.281788980997
 20
802.2630184865827
 30
0.0
 40
30.48
  1
30
 50
90.0
 41
1.0625
  7
ＭＳ ゴシック
100
AcDbText
  0
LINE
  5
1C9
330
1F
100
AcDbEntity
  8
0-E
  6
Continuous
 62
     7
370
     9
100
AcDbLine
 10
988.4349362835734
 20
965.2119734480578
 30
0.0
 11
1071.925586357475
 21
786.0130846178214
 31
0.0
  0
LINE
  5
1CA
330
1F
100
AcDbEntity
  8
0-E
  6
Continuous
 62
     7
370
     9
100
AcDbLine
 10
1071.925586357475
 20
786.0130846178214
 30
0.0
 11
1055.814779505701
 21
811.31999247783
 31
0.0
  0
LINE
  5
1CB
330
1F
100
AcDbEntity
  8
0-E
  6
Continuous
 62
     7
370
     9
100
AcDbLine
 10
1071.925586357475
 20
786.0130846178214
 30
0.0
 11
1062.913828017103
 21
814.6275205869938
 31
0.0
  0
TEXT
  5
1CC
330
1F
100
AcDbEntity
  8
0-E
  6
Continuous
 62
     7
370
     9
100
AcDbText
 10
506.1379644626123
 20
930.0658847128384
 30
0.0
 40
22.86
  1
ＳＵＳ３０４
 41
1.138888888888889
  7
ＭＳ ゴシック
100
AcDbText
  0
TEXT
  5
1CD
330
1F
100
AcDbEntity
  8
0-E
  6
Continuous
 62
     7
370
     9
100
AcDbText
 10
507.1062294805603
 20
979.5286103779565
 30
0.0
 40
22.86
  1
受枠：ＴＬ６０Ｐ，ｔ＝３．０
 41
1.154761904761905
  7
ＭＳ ゴシック
100
AcDbText
  0
LINE
  5
1CE
330
1F
100
AcDbEntity
  8
0-E
  6
Continuous
 62
     7
370
     9
100
AcDbLine
 10
504.7883522315799
 20
965.2119734480578
 30
0.0
 11
988.4349362835734
 21
965.2119734480578
 31
0.0
  0
LINE
  5
1CF
330
1F
100
AcDbEntity
  8
0-E
  6
Continuous
 62
     7
370
     9
100
AcDbLine
 10
1162.171145637458
 20
27.26308461782139
 30
0.0
 11
1189.627563236698
 21
39.35200459248392
 31
0.0
  0
LINE
  5
1D0
330
1F
100
AcDbEntity
  8
0-E
  6
Continuous
 62
     7
370
     9
100
AcDbLine
 10
1162.171145637458
 20
27.26308461782139
 30
0.0
 11
1191.820869824535
 21
31.8337930215381
 31
0.0
  0
LINE
  5
1D1
330
1F
100
AcDbEntity
  8
0-E
  6
Continuous
 62
     7
370
     9
100
AcDbLine
 10
1448.778580873266
 20
110.8747167117144
 30
0.0
 11
1162.171145637458
 21
27.26308461782139
 31
0.0
  0
TEXT
  5
1D2
330
1F
100
AcDbEntity
  8
0-E
  6
Continuous
 62
     7
370
     9
100
AcDbText
 10
1458.192720081785
 20
74.46730348061179
 30
0.0
 40
22.86
  1
クロロプレンゴム
 41
1.145833333333333
  7
ＭＳ ゴシック
100
AcDbText
  0
TEXT
  5
1D3
330
1F
100
AcDbEntity
  8
0-E
  6
Continuous
 62
     7
370
     9
100
AcDbText
 10
1460.646316867047
 20
129.6616014773394
 30
0.0
 40
22.86
  1
クッション：ｔ＝３．０
 41
1.151515151515152
  7
ＭＳ ゴシック
100
AcDbText
  0
LINE
  5
1D4
330
1F
100
AcDbEntity
  8
0-E
  6
Continuous
 62
     7
370
     9
100
AcDbLine
 10
1448.778580873266
 20
110.8747167117144
 30
0.0
 11
1840.396804374604
 21
110.8747167117144
 31
0.0
  0
LINE
  5
1D5
330
1F
100
AcDbEntity
  8
0-1
  6
Continuous
 62
     2
370
     9
100
AcDbLine
 10
-1805.40764039847
 20
661.0129196579396
 30
0.0
 11
-1805.40764039847
 21
786.0130846178214
 31
0.0
  0
LINE
  5
1D6
330
1F
100
AcDbEntity
  8
0-1
  6
Continuous
 62
     2
370
     9
100
AcDbLine
 10
-1805.40764039847
 20
36.01308461782139
 30
0.0
 11
-1805.40764039847
 21
-88.98708034206038
 31
0.0
  0
LINE
  5
1D7
330
1F
100
AcDbEntity
  8
0-1
  6
Continuous
 62
     2
370
     9
100
AcDbLine
 10
-1805.40764039847
 20
661.0129196579396
 30
0.0
 11
-1802.907632150476
 21
661.0129196579396
 31
0.0
  0
LINE
  5
1D8
330
1F
100
AcDbEntity
  8
0-1
  6
Continuous
 62
     2
370
     9
100
AcDbLine
 10
-1805.40764039847
 20
36.01308461782139
 30
0.0
 11
-1802.907632150476
 21
36.01308461782139
 31
0.0
  0
LINE
  5
1D9
330
1F
100
AcDbEntity
  8
0-1
  6
Continuous
 62
     2
370
     9
100
AcDbLine
 10
269.5924008415003
 20
398.5131670977623
 30
0.0
 11
294.5924833214411
 21
398.5131670977623
 31
0.0
  0
LINE
  5
1DA
330
1F
100
AcDbEntity
  8
0-1
  6
Continuous
 62
     2
370
     9
100
AcDbLine
 10
294.5924833214411
 20
398.5131670977623
 30
0.0
 11
244.5923183615594
 21
298.5130846178214
 31
0.0
  0
LINE
  5
1DB
330
1F
100
AcDbEntity
  8
0-1
  6
Continuous
 62
     2
370
     9
100
AcDbLine
 10
244.5923183615594
 20
298.5130846178214
 30
0.0
 11
269.5924008415003
 21
298.5130846178214
 31
0.0
  0
LINE
  5
1DC
330
1F
100
AcDbEntity
  8
0-1
  6
Continuous
 62
     2
370
     9
100
AcDbLine
 10
269.5924008415003
 20
-138.986874142208
 30
0.0
 11
269.5924008415003
 21
298.5130846178214
 31
0.0
  0
LINE
  5
1DD
330
1F
100
AcDbEntity
  8
0-1
  6
Continuous
 62
     2
370
     9
100
AcDbLine
 10
269.5924008415003
 20
398.5131670977623
 30
0.0
 11
269.5924008415003
 21
836.0130021378804
 31
0.0
  0
LINE
  5
1DE
330
1F
100
AcDbEntity
  8
0-1
  6
Continuous
 62
     2
370
     9
100
AcDbLine
 10
-1805.40764039847
 20
786.0130846178214
 30
0.0
 11
269.5924008415003
 21
786.0130846178214
 31
0.0
  0
LINE
  5
1DF
330
1F
100
AcDbEntity
  8
0-1
  6
Continuous
 62
     2
370
     9
100
AcDbLine
 10
-1805.40764039847
 20
778.5131835937506
 30
0.0
 11
269.5924008415003
 21
778.5131835937506
 31
0.0
  0
LINE
  5
1E0
330
1F
100
AcDbEntity
  8
0-1
  6
Continuous
 62
     2
370
     9
100
AcDbLine
 10
-1805.40764039847
 20
-88.98708034206038
 30
0.0
 11
269.5924008415003
 21
-88.98708034206038
 31
0.0
  0
LINE
  5
1E1
330
1F
100
AcDbEntity
  8
0-1
  6
Continuous
 62
     2
370
     9
100
AcDbLine
 10
-1805.40764039847
 20
-81.48705559807809
 30
0.0
 11
269.5924008415003
 21
-81.48705559807809
 31
0.0
  0
LINE
  5
1E2
330
1F
100
AcDbEntity
  8
0-F
  6
Continuous
 62
     7
370
     9
100
AcDbLine
 10
-1805.40764039847
 20
796.0131176097977
 30
0.0
 11
-1805.40764039847
 21
1076.513127507391
 31
0.0
  0
LINE
  5
1E3
330
1F
100
AcDbEntity
  8
0-0
  6
Continuous
 62
     3
370
     9
100
AcDbLine
 10
-305.4075166785589
 20
-726.4868947621935
 30
0.0
 11
-1802.907384710654
 21
-726.4868947621935
 31
0.0
  0
LINE
  5
1E4
330
1F
100
AcDbEntity
  8
0-0
  6
Continuous
 62
     3
370
     9
100
AcDbLine
 10
-305.4075166785589
 20
-676.4867916622671
 30
0.0
 11
-1802.907384710654
 21
-676.4867916622671
 31
0.0
  0
LINE
  5
1E5
330
1F
100
AcDbEntity
  8
0-0
  6
Continuous
 62
     3
370
     9
100
AcDbLine
 10
-1802.907384710654
 20
-726.4868947621935
 30
0.0
 11
-1802.907384710654
 21
-676.4867916622671
 31
0.0
  0
LINE
  5
1E6
330
1F
100
AcDbEntity
  8
0-0
  6
Continuous
 62
     3
370
     9
100
AcDbLine
 10
-305.4075166785589
 20
-713.9867298023116
 30
0.0
 11
-1802.907384710654
 21
-713.9867298023116
 31
0.0
  0
LINE
  5
1E7
330
1F
100
AcDbEntity
  8
0-0
  6
Continuous
 62
     3
370
     9
100
AcDbLine
 10
-1113.440320600645
 20
-826.4867916622675
 30
0.0
 11
-994.8745807885675
 21
-826.4867916622675
 31
0.0
  0
LINE
  5
1E8
330
1F
100
AcDbEntity
  8
0-0
  6
Continuous
 62
     3
370
     9
100
AcDbLine
 10
-1450.940320600645
 20
-826.4867916622675
 30
0.0
 11
-1332.374642648523
 21
-826.4867916622675
 31
0.0
  0
LINE
  5
1E9
330
1F
100
AcDbEntity
  8
0-0
  6
Continuous
 62
     3
370
     9
100
AcDbLine
 10
-1784.415835605396
 20
-826.4867916622675
 30
0.0
 11
-1666.124630276532
 21
-826.4867916622675
 31
0.0
  0
LINE
  5
1EA
330
1F
100
AcDbEntity
  8
0-0
  6
Continuous
 62
     3
370
     9
100
AcDbLine
 10
-1788.15625968426
 20
-823.0038287188552
 30
0.0
 11
-1795.050304302609
 21
-726.4868947621935
 31
0.0
  0
LINE
  5
1EB
330
1F
100
AcDbEntity
  8
0-0
  6
Continuous
 62
     3
370
     9
100
AcDbLine
 10
-1120.679172611836
 20
-800.346259039801
 30
0.0
 11
-1117.146721703897
 21
-823.3069425015833
 31
0.0
  0
LINE
  5
1EC
330
1F
100
AcDbEntity
  8
0-0
  6
Continuous
 62
     3
370
     9
100
AcDbLine
 10
-1325.135852497288
 20
-800.346259039801
 30
0.0
 11
-1328.668179685316
 21
-823.3069425015833
 31
0.0
  0
LINE
  5
1ED
330
1F
100
AcDbEntity
  8
0-0
  6
Continuous
 62
     3
370
     9
100
AcDbLine
 10
-1317.723050290784
 20
-793.9868081582554
 30
0.0
 11
-1128.091974818339
 21
-793.9868081582554
 31
0.0
  0
LINE
  5
1EE
330
1F
100
AcDbEntity
  8
0-0
  6
Continuous
 62
     3
370
     9
100
AcDbLine
 10
-1458.179048891925
 20
-800.346259039801
 30
0.0
 11
-1454.646721703897
 21
-823.3069425015833
 31
0.0
  0
LINE
  5
1EF
330
1F
100
AcDbEntity
  8
0-0
  6
Continuous
 62
     3
370
     9
100
AcDbLine
 10
-1658.885901985252
 20
-800.346259039801
 30
0.0
 11
-1662.418352893192
 21
-823.3069425015833
 31
0.0
  0
LINE
  5
1F0
330
1F
100
AcDbEntity
  8
0-0
  6
Continuous
 62
     3
370
     9
100
AcDbLine
 10
-1651.47322349866
 20
-793.9868081582554
 30
0.0
 11
-1465.591851098428
 21
-793.9868081582554
 31
0.0
  0
LINE
  5
1F1
330
1F
100
AcDbEntity
  8
0-0
  6
Continuous
 62
     3
370
     9
100
AcDbLine
 10
-1802.033303537195
 20
-726.4868947621935
 30
0.0
 11
-1791.676709760801
 21
-785.7094512114651
 31
0.0
  0
LINE
  5
1F2
330
1F
100
AcDbEntity
  8
0-0
  6
Continuous
 62
     3
370
     9
100
AcDbLine
 10
-1071.657384710654
 20
-763.4869426005591
 30
0.0
 11
-1067.970036473745
 21
-767.4868073334562
 31
0.0
  0
LINE
  5
1F3
330
1F
100
AcDbEntity
  8
0-0
  6
Continuous
 62
     3
370
     9
100
AcDbLine
 10
-1061.063743584175
 20
-763.4869426005591
 30
0.0
 11
-1061.063743584175
 21
-776.4868741422083
 31
0.0
  0
LINE
  5
1F4
330
1F
100
AcDbEntity
  8
0-0
  6
Continuous
 62
     3
370
     9
100
AcDbLine
 10
-1067.970036473745
 20
-767.4868073334562
 30
0.0
 11
-1067.970036473745
 21
-776.4868741422083
 31
0.0
  0
LINE
  5
1F5
330
1F
100
AcDbEntity
  8
0-0
  6
Continuous
 62
     3
370
     9
100
AcDbLine
 10
-1061.6575991585
 20
-786.4868452742289
 30
0.0
 11
-1059.157467190594
 21
-788.9867298023116
 31
0.0
  0
LINE
  5
1F6
330
1F
100
AcDbEntity
  8
0-0
  6
Continuous
 62
     3
370
     9
100
AcDbLine
 10
-1059.157467190594
 20
-788.9867298023116
 30
0.0
 11
-1049.157434198618
 21
-788.9867298023116
 31
0.0
  0
LINE
  5
1F7
330
1F
100
AcDbEntity
  8
0-0
  6
Continuous
 62
     3
370
     9
100
AcDbLine
 10
-1061.6575991585
 20
-786.4868452742289
 30
0.0
 11
-1046.657302230713
 21
-786.4868452742289
 31
0.0
  0
LINE
  5
1F8
330
1F
100
AcDbEntity
  8
0-0
  6
Continuous
 62
     3
370
     9
100
AcDbLine
 10
-1067.970036473745
 20
-776.4868741422083
 30
0.0
 11
-1040.344864915468
 21
-776.4868741422083
 31
0.0
  0
LINE
  5
1F9
330
1F
100
AcDbEntity
  8
0-0
  6
Continuous
 62
     3
370
     9
100
AcDbLine
 10
-1071.657384710654
 20
-763.4869426005591
 30
0.0
 11
-1036.657516678559
 21
-763.4869426005591
 31
0.0
  0
LINE
  5
1FA
330
1F
100
AcDbEntity
  8
0-0
  6
Continuous
 62
     3
370
     9
100
AcDbLine
 10
-1071.657384710654
 20
-761.4868246542437
 30
0.0
 11
-1071.657384710654
 21
-763.4869426005591
 31
0.0
  0
LINE
  5
1FB
330
1F
100
AcDbEntity
  8
0-0
  6
Continuous
 62
     3
370
     9
100
AcDbLine
 10
-1077.096978051553
 20
-761.4868246542437
 30
0.0
 11
-1031.21792333766
 21
-761.4868246542437
 31
0.0
  0
LINE
  5
1FC
330
1F
100
AcDbEntity
  8
0-0
  6
Continuous
 62
     3
370
     9
100
AcDbLine
 10
-1059.157467190594
 20
-776.4868741422083
 30
0.0
 11
-1059.157467190594
 21
-788.9867298023116
 31
0.0
  0
LINE
  5
1FD
330
1F
100
AcDbEntity
  8
0-0
  6
Continuous
 62
     3
370
     9
100
AcDbLine
 10
-1061.6575991585
 20
-776.4868741422083
 30
0.0
 11
-1061.6575991585
 21
-786.4868452742289
 31
0.0
  0
LINE
  5
1FE
330
1F
100
AcDbEntity
  8
0-0
  6
Continuous
 62
     3
370
     9
100
AcDbLine
 10
-1746.657508430565
 20
-763.4869426005591
 30
0.0
 11
-1742.970036473745
 21
-767.4868073334562
 31
0.0
  0
LINE
  5
1FF
330
1F
100
AcDbEntity
  8
0-0
  6
Continuous
 62
     3
370
     9
100
AcDbLine
 10
-1736.063743584175
 20
-763.4869426005591
 30
0.0
 11
-1736.063743584175
 21
-776.4868741422083
 31
0.0
  0
LINE
  5
200
330
1F
100
AcDbEntity
  8
0-0
  6
Continuous
 62
     3
370
     9
100
AcDbLine
 10
-1742.970036473745
 20
-767.4868073334562
 30
0.0
 11
-1742.970036473745
 21
-776.4868741422083
 31
0.0
  0
LINE
  5
201
330
1F
100
AcDbEntity
  8
0-0
  6
Continuous
 62
     3
370
     9
100
AcDbLine
 10
-1736.6575991585
 20
-786.4868452742289
 30
0.0
 11
-1734.157467190595
 21
-788.9867298023116
 31
0.0
  0
LINE
  5
202
330
1F
100
AcDbEntity
  8
0-0
  6
Continuous
 62
     3
370
     9
100
AcDbLine
 10
-1734.157467190595
 20
-788.9867298023116
 30
0.0
 11
-1724.157434198618
 21
-788.9867298023116
 31
0.0
  0
LINE
  5
203
330
1F
100
AcDbEntity
  8
0-0
  6
Continuous
 62
     3
370
     9
100
AcDbLine
 10
-1736.6575991585
 20
-786.4868452742289
 30
0.0
 11
-1721.657302230713
 21
-786.4868452742289
 31
0.0
  0
LINE
  5
204
330
1F
100
AcDbEntity
  8
0-0
  6
Continuous
 62
     3
370
     9
100
AcDbLine
 10
-1742.970036473745
 20
-776.4868741422083
 30
0.0
 11
-1715.344864915468
 21
-776.4868741422083
 31
0.0
  0
LINE
  5
205
330
1F
100
AcDbEntity
  8
0-0
  6
Continuous
 62
     3
370
     9
100
AcDbLine
 10
-1746.657508430565
 20
-763.4869426005591
 30
0.0
 11
-1711.657516678559
 21
-763.4869426005591
 31
0.0
  0
LINE
  5
206
330
1F
100
AcDbEntity
  8
0-0
  6
Continuous
 62
     3
370
     9
100
AcDbLine
 10
-1746.657508430565
 20
-761.4868246542437
 30
0.0
 11
-1746.657508430565
 21
-763.4869426005591
 31
0.0
  0
LINE
  5
207
330
1F
100
AcDbEntity
  8
0-0
  6
Continuous
 62
     3
370
     9
100
AcDbLine
 10
-1734.157467190595
 20
-776.4868741422083
 30
0.0
 11
-1734.157467190595
 21
-788.9867298023116
 31
0.0
  0
LINE
  5
208
330
1F
100
AcDbEntity
  8
0-0
  6
Continuous
 62
     3
370
     9
100
AcDbLine
 10
-1736.6575991585
 20
-776.4868741422083
 30
0.0
 11
-1736.6575991585
 21
-786.4868452742289
 31
0.0
  0
LINE
  5
209
330
1F
100
AcDbEntity
  8
0-0
  6
Continuous
 62
     3
370
     9
100
AcDbLine
 10
-1711.657516678559
 20
-763.4869426005591
 30
0.0
 11
-1715.344864915468
 21
-767.4868073334562
 31
0.0
  0
LINE
  5
20A
330
1F
100
AcDbEntity
  8
0-0
  6
Continuous
 62
     3
370
     9
100
AcDbLine
 10
-1722.251157805037
 20
-763.4869426005591
 30
0.0
 11
-1722.251157805037
 21
-776.4868741422083
 31
0.0
  0
LINE
  5
20B
330
1F
100
AcDbEntity
  8
0-0
  6
Continuous
 62
     3
370
     9
100
AcDbLine
 10
-1715.344864915468
 20
-767.4868073334562
 30
0.0
 11
-1715.344864915468
 21
-776.4868741422083
 31
0.0
  0
LINE
  5
20C
330
1F
100
AcDbEntity
  8
0-0
  6
Continuous
 62
     3
370
     9
100
AcDbLine
 10
-1721.657302230713
 20
-786.4868452742289
 30
0.0
 11
-1724.157434198618
 21
-788.9867298023116
 31
0.0
  0
LINE
  5
20D
330
1F
100
AcDbEntity
  8
0-0
  6
Continuous
 62
     3
370
     9
100
AcDbLine
 10
-1711.657516678559
 20
-761.4868246542437
 30
0.0
 11
-1711.657516678559
 21
-763.4869426005591
 31
0.0
  0
LINE
  5
20E
330
1F
100
AcDbEntity
  8
0-0
  6
Continuous
 62
     3
370
     9
100
AcDbLine
 10
-1706.21792333766
 20
-761.4868246542437
 30
0.0
 11
-1752.096978051553
 21
-761.4868246542437
 31
0.0
  0
LINE
  5
20F
330
1F
100
AcDbEntity
  8
0-0
  6
Continuous
 62
     3
370
     9
100
AcDbLine
 10
-1724.157434198618
 20
-776.4868741422083
 30
0.0
 11
-1724.157434198618
 21
-788.9867298023116
 31
0.0
  0
LINE
  5
210
330
1F
100
AcDbEntity
  8
0-0
  6
Continuous
 62
     3
370
     9
100
AcDbLine
 10
-1721.657302230713
 20
-776.4868741422083
 30
0.0
 11
-1721.657302230713
 21
-786.4868452742289
 31
0.0
  0
LINE
  5
211
330
1F
100
AcDbEntity
  8
0-0
  6
Continuous
 62
     3
370
     9
100
AcDbLine
 10
-1760.407491934577
 20
-713.9867298023116
 30
0.0
 11
-1760.407491934577
 21
-726.4868947621935
 31
0.0
  0
LINE
  5
212
330
1F
100
AcDbEntity
  8
0-0
  6
Continuous
 62
     3
370
     9
100
AcDbLine
 10
-1697.907533174547
 20
-713.9867298023116
 30
0.0
 11
-1697.907533174547
 21
-726.4868947621935
 31
0.0
  0
LINE
  5
213
330
1F
100
AcDbEntity
  8
0-0
  6
Continuous
 62
     3
370
     9
100
AcDbLine
 10
-1422.907615654488
 20
-713.9867298023116
 30
0.0
 11
-1422.907615654488
 21
-726.4868947621935
 31
0.0
  0
LINE
  5
214
330
1F
100
AcDbEntity
  8
0-0
  6
Continuous
 62
     3
370
     9
100
AcDbLine
 10
-1360.407533174547
 20
-713.9867298023116
 30
0.0
 11
-1360.407533174547
 21
-726.4868947621935
 31
0.0
  0
LINE
  5
215
330
1F
100
AcDbEntity
  8
0-0
  6
Continuous
 62
     3
370
     9
100
AcDbLine
 10
-1085.407615654488
 20
-713.9867298023116
 30
0.0
 11
-1085.407615654488
 21
-726.4868947621935
 31
0.0
  0
LINE
  5
216
330
1F
100
AcDbEntity
  8
0-0
  6
Continuous
 62
     3
370
     9
100
AcDbLine
 10
-1080.818101824252
 20
-758.2018754288953
 30
0.0
 11
-1084.7824589426
 21
-726.4868947621935
 31
0.0
  0
LINE
  5
217
330
1F
100
AcDbEntity
  8
0-0
  6
Continuous
 62
     3
370
     9
100
AcDbLine
 10
-1755.818101824252
 20
-758.2018754288953
 30
0.0
 11
-1759.7824589426
 21
-726.4868947621935
 31
0.0
  0
LINE
  5
218
330
1F
100
AcDbEntity
  8
0-0
  6
Continuous
 62
     3
370
     9
100
AcDbLine
 10
-1702.496799564961
 20
-758.2018754288953
 30
0.0
 11
-1698.532566166523
 21
-726.4868947621935
 31
0.0
  0
LINE
  5
219
330
1F
100
AcDbEntity
  8
0-0
  6
Continuous
 62
     3
370
     9
100
AcDbLine
 10
-1399.022868175075
 20
-761.4868246542437
 30
0.0
 11
-1384.292033214138
 21
-761.4868246542437
 31
0.0
  0
LINE
  5
21A
330
1F
100
AcDbEntity
  8
0-0
  6
Continuous
 62
     3
370
     9
100
AcDbLine
 10
-1402.736321313272
 20
-758.2590340279239
 30
0.0
 11
-1407.204342190595
 21
-726.4868947621935
 31
0.0
  0
LINE
  5
21B
330
1F
100
AcDbEntity
  8
0-0
  6
Continuous
 62
     3
370
     9
100
AcDbLine
 10
-1380.578703795852
 20
-758.2590340279239
 30
0.0
 11
-1376.110682918529
 21
-726.4868947621935
 31
0.0
  0
LINE
  5
21C
330
1F
100
AcDbEntity
  8
0-0
  6
JWW_CENTER1
 62
     3
370
     9
100
AcDbLine
 10
-1729.157450694606
 20
-751.4868535222229
 30
0.0
 11
-1729.157450694606
 21
-798.9867009343322
 31
0.0
  0
LINE
  5
21D
330
1F
100
AcDbEntity
  8
0-0
  6
JWW_CENTER1
 62
     3
370
     9
100
AcDbLine
 10
-1054.157450694606
 20
-751.4868535222229
 30
0.0
 11
-1054.157450694606
 21
-798.9867009343322
 31
0.0
  0
LINE
  5
21E
330
1F
100
AcDbEntity
  8
0-0
  6
Continuous
 62
     3
370
     9
100
AcDbLine
 10
-305.4075166785589
 20
-726.4868947621935
 30
0.0
 11
-305.4075166785589
 21
-676.4867916622671
 31
0.0
  0
LINE
  5
21F
330
1F
100
AcDbEntity
  8
0-0
  6
Continuous
 62
     3
370
     9
100
AcDbLine
 10
-657.3745807885675
 20
-826.4867916622675
 30
0.0
 11
-775.940320600645
 21
-826.4867916622675
 31
0.0
  0
LINE
  5
220
330
1F
100
AcDbEntity
  8
0-0
  6
Continuous
 62
     3
370
     9
100
AcDbLine
 10
-323.8991895037279
 20
-826.4867916622675
 30
0.0
 11
-442.1902711126805
 21
-826.4867916622675
 31
0.0
  0
LINE
  5
221
330
1F
100
AcDbEntity
  8
0-0
  6
Continuous
 62
     3
370
     9
100
AcDbLine
 10
-320.1586417049526
 20
-823.0038287188552
 30
0.0
 11
-313.2644733666925
 21
-726.4868947621935
 31
0.0
  0
LINE
  5
222
330
1F
100
AcDbEntity
  8
0-0
  6
Continuous
 62
     3
370
     9
100
AcDbLine
 10
-987.6357287773766
 20
-800.346259039801
 30
0.0
 11
-991.1681796853157
 21
-823.3069425015833
 31
0.0
  0
LINE
  5
223
330
1F
100
AcDbEntity
  8
0-0
  6
Continuous
 62
     3
370
     9
100
AcDbLine
 10
-783.1790488919248
 20
-800.346259039801
 30
0.0
 11
-779.6467217038969
 21
-823.3069425015833
 31
0.0
  0
LINE
  5
224
330
1F
100
AcDbEntity
  8
0-0
  6
Continuous
 62
     3
370
     9
100
AcDbLine
 10
-790.5918510984282
 20
-793.9868081582554
 30
0.0
 11
-980.2229265708731
 21
-793.9868081582554
 31
0.0
  0
LINE
  5
225
330
1F
100
AcDbEntity
  8
0-0
  6
Continuous
 62
     3
370
     9
100
AcDbLine
 10
-650.1358524972877
 20
-800.346259039801
 30
0.0
 11
-653.6681796853156
 21
-823.3069425015833
 31
0.0
  0
LINE
  5
226
330
1F
100
AcDbEntity
  8
0-0
  6
Continuous
 62
     3
370
     9
100
AcDbLine
 10
-449.4291231238714
 20
-800.346259039801
 30
0.0
 11
-445.8965484960208
 21
-823.3069425015833
 31
0.0
  0
LINE
  5
227
330
1F
100
AcDbEntity
  8
0-0
  6
Continuous
 62
     3
370
     9
100
AcDbLine
 10
-456.8416778905521
 20
-793.9868081582554
 30
0.0
 11
-642.7230502907844
 21
-793.9868081582554
 31
0.0
  0
LINE
  5
228
330
1F
100
AcDbEntity
  8
0-0
  6
Continuous
 62
     3
370
     9
100
AcDbLine
 10
-306.2815978520175
 20
-726.4868947621935
 30
0.0
 11
-316.6381916284112
 21
-785.7094512114651
 31
0.0
  0
LINE
  5
229
330
1F
100
AcDbEntity
  8
0-0
  6
Continuous
 62
     3
370
     9
100
AcDbLine
 10
-1036.657516678559
 20
-763.4869426005591
 30
0.0
 11
-1040.344864915468
 21
-767.4868073334562
 31
0.0
  0
LINE
  5
22A
330
1F
100
AcDbEntity
  8
0-0
  6
Continuous
 62
     3
370
     9
100
AcDbLine
 10
-1047.251157805037
 20
-763.4869426005591
 30
0.0
 11
-1047.251157805037
 21
-776.4868741422083
 31
0.0
  0
LINE
  5
22B
330
1F
100
AcDbEntity
  8
0-0
  6
Continuous
 62
     3
370
     9
100
AcDbLine
 10
-1040.344864915468
 20
-767.4868073334562
 30
0.0
 11
-1040.344864915468
 21
-776.4868741422083
 31
0.0
  0
LINE
  5
22C
330
1F
100
AcDbEntity
  8
0-0
  6
Continuous
 62
     3
370
     9
100
AcDbLine
 10
-1046.657302230713
 20
-786.4868452742289
 30
0.0
 11
-1049.157434198618
 21
-788.9867298023116
 31
0.0
  0
LINE
  5
22D
330
1F
100
AcDbEntity
  8
0-0
  6
Continuous
 62
     3
370
     9
100
AcDbLine
 10
-1036.657516678559
 20
-761.4868246542437
 30
0.0
 11
-1036.657516678559
 21
-763.4869426005591
 31
0.0
  0
LINE
  5
22E
330
1F
100
AcDbEntity
  8
0-0
  6
Continuous
 62
     3
370
     9
100
AcDbLine
 10
-1049.157434198618
 20
-776.4868741422083
 30
0.0
 11
-1049.157434198618
 21
-788.9867298023116
 31
0.0
  0
LINE
  5
22F
330
1F
100
AcDbEntity
  8
0-0
  6
Continuous
 62
     3
370
     9
100
AcDbLine
 10
-1046.657302230713
 20
-776.4868741422083
 30
0.0
 11
-1046.657302230713
 21
-786.4868452742289
 31
0.0
  0
LINE
  5
230
330
1F
100
AcDbEntity
  8
0-0
  6
Continuous
 62
     3
370
     9
100
AcDbLine
 10
-361.6575166785589
 20
-763.4869426005591
 30
0.0
 11
-365.3448649154677
 21
-767.4868073334562
 31
0.0
  0
LINE
  5
231
330
1F
100
AcDbEntity
  8
0-0
  6
Continuous
 62
     3
370
     9
100
AcDbLine
 10
-372.251157805037
 20
-763.4869426005591
 30
0.0
 11
-372.251157805037
 21
-776.4868741422083
 31
0.0
  0
LINE
  5
232
330
1F
100
AcDbEntity
  8
0-0
  6
Continuous
 62
     3
370
     9
100
AcDbLine
 10
-365.3448649154677
 20
-767.4868073334562
 30
0.0
 11
-365.3448649154677
 21
-776.4868741422083
 31
0.0
  0
LINE
  5
233
330
1F
100
AcDbEntity
  8
0-0
  6
Continuous
 62
     3
370
     9
100
AcDbLine
 10
-371.6573022307128
 20
-786.4868452742289
 30
0.0
 11
-374.157434198618
 21
-788.9867298023116
 31
0.0
  0
LINE
  5
234
330
1F
100
AcDbEntity
  8
0-0
  6
Continuous
 62
     3
370
     9
100
AcDbLine
 10
-374.157434198618
 20
-788.9867298023116
 30
0.0
 11
-384.1574671905946
 21
-788.9867298023116
 31
0.0
  0
LINE
  5
235
330
1F
100
AcDbEntity
  8
0-0
  6
Continuous
 62
     3
370
     9
100
AcDbLine
 10
-371.6573022307128
 20
-786.4868452742289
 30
0.0
 11
-386.6575991584997
 21
-786.4868452742289
 31
0.0
  0
LINE
  5
236
330
1F
100
AcDbEntity
  8
0-0
  6
Continuous
 62
     3
370
     9
100
AcDbLine
 10
-365.3448649154677
 20
-776.4868741422083
 30
0.0
 11
-392.9700364737448
 21
-776.4868741422083
 31
0.0
  0
LINE
  5
237
330
1F
100
AcDbEntity
  8
0-0
  6
Continuous
 62
     3
370
     9
100
AcDbLine
 10
-361.6575166785589
 20
-763.4869426005591
 30
0.0
 11
-396.6572609907422
 21
-763.4869426005591
 31
0.0
  0
LINE
  5
238
330
1F
100
AcDbEntity
  8
0-0
  6
Continuous
 62
     3
370
     9
100
AcDbLine
 10
-361.6575166785589
 20
-761.4868246542437
 30
0.0
 11
-361.6575166785589
 21
-763.4869426005591
 31
0.0
  0
LINE
  5
239
330
1F
100
AcDbEntity
  8
0-0
  6
Continuous
 62
     3
370
     9
100
AcDbLine
 10
-374.157434198618
 20
-776.4868741422083
 30
0.0
 11
-374.157434198618
 21
-788.9867298023116
 31
0.0
  0
LINE
  5
23A
330
1F
100
AcDbEntity
  8
0-0
  6
Continuous
 62
     3
370
     9
100
AcDbLine
 10
-371.6573022307128
 20
-776.4868741422083
 30
0.0
 11
-371.6573022307128
 21
-786.4868452742289
 31
0.0
  0
LINE
  5
23B
330
1F
100
AcDbEntity
  8
0-0
  6
Continuous
 62
     3
370
     9
100
AcDbLine
 10
-396.6572609907422
 20
-763.4869426005591
 30
0.0
 11
-392.9700364737448
 21
-767.4868073334562
 31
0.0
  0
LINE
  5
23C
330
1F
100
AcDbEntity
  8
0-0
  6
Continuous
 62
     3
370
     9
100
AcDbLine
 10
-386.0637435841755
 20
-763.4869426005591
 30
0.0
 11
-386.0637435841755
 21
-776.4868741422083
 31
0.0
  0
LINE
  5
23D
330
1F
100
AcDbEntity
  8
0-0
  6
Continuous
 62
     3
370
     9
100
AcDbLine
 10
-392.9700364737448
 20
-767.4868073334562
 30
0.0
 11
-392.9700364737448
 21
-776.4868741422083
 31
0.0
  0
LINE
  5
23E
330
1F
100
AcDbEntity
  8
0-0
  6
Continuous
 62
     3
370
     9
100
AcDbLine
 10
-386.6575991584997
 20
-786.4868452742289
 30
0.0
 11
-384.1574671905946
 21
-788.9867298023116
 31
0.0
  0
LINE
  5
23F
330
1F
100
AcDbEntity
  8
0-0
  6
Continuous
 62
     3
370
     9
100
AcDbLine
 10
-396.6572609907422
 20
-761.4868246542437
 30
0.0
 11
-396.6572609907422
 21
-763.4869426005591
 31
0.0
  0
LINE
  5
240
330
1F
100
AcDbEntity
  8
0-0
  6
Continuous
 62
     3
370
     9
100
AcDbLine
 10
-402.0968543316417
 20
-761.4868246542437
 30
0.0
 11
-356.2177996177482
 21
-761.4868246542437
 31
0.0
  0
LINE
  5
241
330
1F
100
AcDbEntity
  8
0-0
  6
Continuous
 62
     3
370
     9
100
AcDbLine
 10
-384.1574671905946
 20
-776.4868741422083
 30
0.0
 11
-384.1574671905946
 21
-788.9867298023116
 31
0.0
  0
LINE
  5
242
330
1F
100
AcDbEntity
  8
0-0
  6
Continuous
 62
     3
370
     9
100
AcDbLine
 10
-386.6575991584997
 20
-776.4868741422083
 30
0.0
 11
-386.6575991584997
 21
-786.4868452742289
 31
0.0
  0
LINE
  5
243
330
1F
100
AcDbEntity
  8
0-0
  6
Continuous
 62
     3
370
     9
100
AcDbLine
 10
-347.9074094546357
 20
-713.9867298023116
 30
0.0
 11
-347.9074094546357
 21
-726.4868947621935
 31
0.0
  0
LINE
  5
244
330
1F
100
AcDbEntity
  8
0-0
  6
Continuous
 62
     3
370
     9
100
AcDbLine
 10
-410.4073682146654
 20
-713.9867298023116
 30
0.0
 11
-410.4073682146654
 21
-726.4868947621935
 31
0.0
  0
LINE
  5
245
330
1F
100
AcDbEntity
  8
0-0
  6
Continuous
 62
     3
370
     9
100
AcDbLine
 10
-685.4072857347245
 20
-713.9867298023116
 30
0.0
 11
-685.4072857347245
 21
-726.4868947621935
 31
0.0
  0
LINE
  5
246
330
1F
100
AcDbEntity
  8
0-0
  6
Continuous
 62
     3
370
     9
100
AcDbLine
 10
-747.9073682146654
 20
-713.9867298023116
 30
0.0
 11
-747.9073682146654
 21
-726.4868947621935
 31
0.0
  0
LINE
  5
247
330
1F
100
AcDbEntity
  8
0-0
  6
Continuous
 62
     3
370
     9
100
AcDbLine
 10
-1022.907285734724
 20
-713.9867298023116
 30
0.0
 11
-1022.907285734724
 21
-726.4868947621935
 31
0.0
  0
LINE
  5
248
330
1F
100
AcDbEntity
  8
0-0
  6
Continuous
 62
     3
370
     9
100
AcDbLine
 10
-1027.496799564961
 20
-758.2018754288953
 30
0.0
 11
-1023.532442446612
 21
-726.4868947621935
 31
0.0
  0
LINE
  5
249
330
1F
100
AcDbEntity
  8
0-0
  6
Continuous
 62
     3
370
     9
100
AcDbLine
 10
-352.496799564961
 20
-758.2018754288953
 30
0.0
 11
-348.5324424466123
 21
-726.4868947621935
 31
0.0
  0
LINE
  5
24A
330
1F
100
AcDbEntity
  8
0-0
  6
Continuous
 62
     3
370
     9
100
AcDbLine
 10
-405.8181018242516
 20
-758.2018754288953
 30
0.0
 11
-409.7823352226891
 21
-726.4868947621935
 31
0.0
  0
LINE
  5
24B
330
1F
100
AcDbEntity
  8
0-0
  6
Continuous
 62
     3
370
     9
100
AcDbLine
 10
-709.2920332141375
 20
-761.4868246542437
 30
0.0
 11
-724.022868175075
 21
-761.4868246542437
 31
0.0
  0
LINE
  5
24C
330
1F
100
AcDbEntity
  8
0-0
  6
Continuous
 62
     3
370
     9
100
AcDbLine
 10
-705.5785800759406
 20
-758.2590340279239
 30
0.0
 11
-701.1105591986179
 21
-726.4868947621935
 31
0.0
  0
LINE
  5
24D
330
1F
100
AcDbEntity
  8
0-0
  6
Continuous
 62
     3
370
     9
100
AcDbLine
 10
-727.7361975933604
 20
-758.2590340279239
 30
0.0
 11
-732.2042184706831
 21
-726.4868947621935
 31
0.0
  0
LINE
  5
24E
330
1F
100
AcDbEntity
  8
0-0
  6
JWW_CENTER1
 62
     3
370
     9
100
AcDbLine
 10
-379.1574506946063
 20
-751.4868535222229
 30
0.0
 11
-379.1574506946063
 21
-798.9867009343322
 31
0.0
  0
LINE
  5
24F
330
1F
100
AcDbEntity
  8
0-0
  6
JWW_CENTER1
 62
     3
370
     9
100
AcDbLine
 10
-1852.907642460469
 20
348.5132495777032
 30
0.0
 11
319.5923183615594
 21
348.5132495777032
 31
0.0
  0
LINE
  5
250
330
1F
100
AcDbEntity
  8
0-0
  6
Continuous
 62
     3
370
     9
100
AcDbLine
 10
-1620.407524926553
 20
61.01341453758494
 30
0.0
 11
-1620.407524926553
 21
636.0130846178214
 31
0.0
  0
LINE
  5
251
330
1F
100
AcDbEntity
  8
0-0
  6
Continuous
 62
     3
370
     9
100
AcDbLine
 10
-1637.9074589426
 20
636.0130846178214
 30
0.0
 11
-1620.407524926553
 21
636.0130846178214
 31
0.0
  0
LINE
  5
252
330
1F
100
AcDbEntity
  8
0-0
  6
Continuous
 62
     3
370
     9
100
AcDbLine
 10
-1637.9074589426
 20
61.01341453758494
 30
0.0
 11
-1637.9074589426
 21
636.0130846178214
 31
0.0
  0
LINE
  5
253
330
1F
100
AcDbEntity
  8
0-0
  6
Continuous
 62
     3
370
     9
100
AcDbLine
 10
-1626.657483686583
 20
67.26337329761435
 30
0.0
 11
-1626.657483686583
 21
629.7631258577919
 31
0.0
  0
LINE
  5
254
330
1F
100
AcDbEntity
  8
0-0
  6
Continuous
 62
     3
370
     9
100
AcDbLine
 10
-1631.657500182571
 20
629.7631258577919
 30
0.0
 11
-1626.657483686583
 21
629.7631258577919
 31
0.0
  0
LINE
  5
255
330
1F
100
AcDbEntity
  8
0-0
  6
Continuous
 62
     3
370
     9
100
AcDbLine
 10
-1631.657500182571
 20
67.26337329761435
 30
0.0
 11
-1631.657500182571
 21
629.7631258577919
 31
0.0
  0
LINE
  5
256
330
1F
100
AcDbEntity
  8
0-0
  6
Continuous
 62
     3
370
     9
100
AcDbLine
 10
-1620.407524926553
 20
636.0130846178214
 30
0.0
 11
-1626.657483686583
 21
629.7631258577919
 31
0.0
  0
LINE
  5
257
330
1F
100
AcDbEntity
  8
0-0
  6
Continuous
 62
     3
370
     9
100
AcDbLine
 10
-1637.9074589426
 20
636.0130846178214
 30
0.0
 11
-1631.657500182571
 21
629.7631258577919
 31
0.0
  0
LINE
  5
258
330
1F
100
AcDbEntity
  8
0-0
  6
Continuous
 62
     3
370
     9
100
AcDbLine
 10
-1332.907566166524
 20
61.01341453758494
 30
0.0
 11
-1332.907566166524
 21
636.0130846178214
 31
0.0
  0
LINE
  5
259
330
1F
100
AcDbEntity
  8
0-0
  6
Continuous
 62
     3
370
     9
100
AcDbLine
 10
-1350.407500182571
 20
636.0130846178214
 30
0.0
 11
-1332.907566166524
 21
636.0130846178214
 31
0.0
  0
LINE
  5
25A
330
1F
100
AcDbEntity
  8
0-0
  6
Continuous
 62
     3
370
     9
100
AcDbLine
 10
-1350.407500182571
 20
61.01341453758494
 30
0.0
 11
-1350.407500182571
 21
636.0130846178214
 31
0.0
  0
LINE
  5
25B
330
1F
100
AcDbEntity
  8
0-0
  6
Continuous
 62
     3
370
     9
100
AcDbLine
 10
-1339.157401206642
 20
67.26337329761435
 30
0.0
 11
-1339.157401206642
 21
629.7631258577919
 31
0.0
  0
LINE
  5
25C
330
1F
100
AcDbEntity
  8
0-0
  6
Continuous
 62
     3
370
     9
100
AcDbLine
 10
-1344.157541422541
 20
629.7631258577919
 30
0.0
 11
-1339.157401206642
 21
629.7631258577919
 31
0.0
  0
LINE
  5
25D
330
1F
100
AcDbEntity
  8
0-0
  6
Continuous
 62
     3
370
     9
100
AcDbLine
 10
-1344.157541422541
 20
67.26337329761435
 30
0.0
 11
-1344.157541422541
 21
629.7631258577919
 31
0.0
  0
LINE
  5
25E
330
1F
100
AcDbEntity
  8
0-0
  6
Continuous
 62
     3
370
     9
100
AcDbLine
 10
-1332.907566166524
 20
636.0130846178214
 30
0.0
 11
-1339.157401206642
 21
629.7631258577919
 31
0.0
  0
LINE
  5
25F
330
1F
100
AcDbEntity
  8
0-0
  6
Continuous
 62
     3
370
     9
100
AcDbLine
 10
-1350.407500182571
 20
636.0130846178214
 30
0.0
 11
-1344.157541422541
 21
629.7631258577919
 31
0.0
  0
LINE
  5
260
330
1F
100
AcDbEntity
  8
0-0
  6
Continuous
 62
     3
370
     9
100
AcDbLine
 10
-1062.90741770263
 20
61.01341453758494
 30
0.0
 11
-1062.90741770263
 21
636.0130846178214
 31
0.0
  0
LINE
  5
261
330
1F
100
AcDbEntity
  8
0-0
  6
Continuous
 62
     3
370
     9
100
AcDbLine
 10
-1056.6574589426
 20
67.26337329761435
 30
0.0
 11
-1056.6574589426
 21
629.7631258577919
 31
0.0
  0
LINE
  5
262
330
1F
100
AcDbEntity
  8
0-0
  6
Continuous
 62
     3
370
     9
100
AcDbLine
 10
-1062.90741770263
 20
636.0130846178214
 30
0.0
 11
-1056.6574589426
 21
629.7631258577919
 31
0.0
  0
LINE
  5
263
330
1F
100
AcDbEntity
  8
0-0
  6
Continuous
 62
     3
370
     9
100
AcDbLine
 10
-1062.90741770263
 20
636.0130846178214
 30
0.0
 11
-1045.407483686583
 21
636.0130846178214
 31
0.0
  0
LINE
  5
264
330
1F
100
AcDbEntity
  8
0-0
  6
Continuous
 62
     3
370
     9
100
AcDbLine
 10
-1056.6574589426
 20
629.7631258577919
 30
0.0
 11
-1051.657442446612
 21
629.7631258577919
 31
0.0
  0
LINE
  5
265
330
1F
100
AcDbEntity
  8
0-0
  6
Continuous
 62
     3
370
     9
100
AcDbLine
 10
-1792.9075991585
 20
703.5131835937506
 30
0.0
 11
-315.4073022307128
 21
703.5131835937506
 31
0.0
  0
LINE
  5
266
330
1F
100
AcDbEntity
  8
0-0
  6
Continuous
 62
     3
370
     9
100
AcDbLine
 10
-1792.9075991585
 20
713.5132165857269
 30
0.0
 11
-315.4073022307128
 21
713.5132165857269
 31
0.0
  0
LINE
  5
267
330
1F
100
AcDbEntity
  8
0-0
  6
Continuous
 62
     3
370
     9
100
AcDbLine
 10
-1767.863101230396
 20
693.8392762880073
 30
0.0
 11
-340.4520475986391
 21
693.8392762880073
 31
0.0
  0
LINE
  5
268
330
1F
100
AcDbEntity
  8
0-0
  6
Continuous
 62
     3
370
     9
100
AcDbLine
 10
-1766.434507414412
 20
689.7142070048568
 30
0.0
 11
-341.8803939748005
 21
689.7142070048568
 31
0.0
  0
LINE
  5
269
330
1F
100
AcDbEntity
  8
0-0
  6
Continuous
 62
     3
370
     9
100
AcDbLine
 10
-1773.934532158394
 20
682.214305980786
 30
0.0
 11
-1773.934532158394
 21
14.81219317462035
 31
0.0
  0
LINE
  5
26A
330
1F
100
AcDbEntity
  8
0-0
  6
Continuous
 62
     3
370
     9
100
AcDbLine
 10
-1789.157524926553
 20
338.5132165857269
 30
0.0
 11
-1789.157524926553
 21
358.5132825696795
 31
0.0
  0
LINE
  5
26B
330
1F
100
AcDbEntity
  8
0-0
  6
Continuous
 62
     3
370
     9
100
AcDbLine
 10
-1779.157491934577
 20
338.5132165857269
 30
0.0
 11
-1779.157491934577
 21
358.5132825696795
 31
0.0
  0
LINE
  5
26C
330
1F
100
AcDbEntity
  8
0-0
  6
Continuous
 62
     3
370
     9
100
AcDbLine
 10
-1792.9075991585
 20
358.5132825696795
 30
0.0
 11
-1779.157491934577
 21
358.5132825696795
 31
0.0
  0
LINE
  5
26D
330
1F
100
AcDbEntity
  8
0-0
  6
Continuous
 62
     3
370
     9
100
AcDbLine
 10
-1785.382088112786
 20
363.5131753457563
 30
0.0
 11
-1782.882079864792
 21
362.2631093618037
 31
0.0
  0
LINE
  5
26E
330
1F
100
AcDbEntity
  8
0-0
  6
Continuous
 62
     3
370
     9
100
AcDbLine
 10
-1782.882079864792
 20
362.2631093618037
 30
0.0
 11
-1775.363002254467
 21
362.2631093618037
 31
0.0
  0
LINE
  5
26F
330
1F
100
AcDbEntity
  8
0-0
  6
Continuous
 62
     3
370
     9
100
AcDbLine
 10
-1775.363002254467
 20
362.2631093618037
 30
0.0
 11
-1782.882079864792
 21
363.5131753457563
 31
0.0
  0
LINE
  5
270
330
1F
100
AcDbEntity
  8
0-0
  6
Continuous
 62
     3
370
     9
100
AcDbLine
 10
-1782.882079864792
 20
363.5131753457563
 30
0.0
 11
-1785.382088112786
 21
363.5131753457563
 31
0.0
  0
LINE
  5
271
330
1F
100
AcDbEntity
  8
0-0
  6
Continuous
 62
     3
370
     9
100
AcDbLine
 10
-1775.363002254467
 20
334.7633897936026
 30
0.0
 11
-1775.363002254467
 21
362.2631093618037
 31
0.0
  0
LINE
  5
272
330
1F
100
AcDbEntity
  8
0-0
  6
Continuous
 62
     3
370
     9
100
AcDbLine
 10
-1785.382088112786
 20
363.5131753457563
 30
0.0
 11
-1785.382088112786
 21
358.5132825696795
 31
0.0
  0
LINE
  5
273
330
1F
100
AcDbEntity
  8
0-0
  6
Continuous
 62
     3
370
     9
100
AcDbLine
 10
-1777.863010502461
 20
683.8392432960311
 30
0.0
 11
-1777.863010502461
 21
362.6786845439193
 31
0.0
  0
LINE
  5
274
330
1F
100
AcDbEntity
  8
0-0
  6
Continuous
 62
     3
370
     9
100
AcDbLine
 10
-1792.9075991585
 20
728.5130186338688
 30
0.0
 11
-315.4073022307128
 21
728.5130186338688
 31
0.0
  0
LINE
  5
275
330
1F
100
AcDbEntity
  8
0-0
  6
Continuous
 62
     3
370
     9
100
AcDbLine
 10
-1792.9075991585
 20
738.513051625845
 30
0.0
 11
-315.4073022307128
 21
738.513051625845
 31
0.0
  0
LINE
  5
276
330
1F
100
AcDbEntity
  8
0-0
  6
Continuous
 62
     3
370
     9
100
AcDbLine
 10
-1792.9075991585
 20
753.512853673987
 30
0.0
 11
-315.4073022307128
 21
753.512853673987
 31
0.0
  0
LINE
  5
277
330
1F
100
AcDbEntity
  8
0-0
  6
Continuous
 62
     3
370
     9
100
AcDbLine
 10
-1802.907632150476
 20
763.5128866659634
 30
0.0
 11
-305.4072692387362
 21
763.5128866659634
 31
0.0
  0
LINE
  5
278
330
1F
100
AcDbEntity
  8
0-0
  6
Continuous
 62
     3
370
     9
100
AcDbLine
 10
-1792.9075991585
 20
-66.48663495037965
 30
0.0
 11
-1792.9075991585
 21
763.5128866659634
 31
0.0
  0
LINE
  5
279
330
1F
100
AcDbEntity
  8
0-0
  6
Continuous
 62
     3
370
     9
100
AcDbLine
 10
-1802.907632150476
 20
-66.48663495037965
 30
0.0
 11
-1802.907632150476
 21
763.5128866659634
 31
0.0
  0
LINE
  5
27A
330
1F
100
AcDbEntity
  8
0-0
  6
Continuous
 62
     3
370
     9
100
AcDbLine
 10
-1760.407491934577
 20
773.5134145375849
 30
0.0
 11
-1697.907409454636
 21
773.5134145375849
 31
0.0
  0
LINE
  5
27B
330
1F
100
AcDbEntity
  8
0-0
  6
Continuous
 62
     3
370
     9
100
AcDbLine
 10
-1422.907615654488
 20
773.5134145375849
 30
0.0
 11
-1360.407409454636
 21
773.5134145375849
 31
0.0
  0
LINE
  5
27C
330
1F
100
AcDbEntity
  8
0-0
  6
Continuous
 62
     3
370
     9
100
AcDbLine
 10
-1085.407615654488
 20
773.5134145375849
 30
0.0
 11
-1022.907409454636
 21
773.5134145375849
 31
0.0
  0
LINE
  5
27D
330
1F
100
AcDbEntity
  8
0-0
  6
Continuous
 62
     3
370
     9
100
AcDbLine
 10
-1760.407491934577
 20
773.5134145375849
 30
0.0
 11
-1760.407491934577
 21
763.5128866659634
 31
0.0
  0
LINE
  5
27E
330
1F
100
AcDbEntity
  8
0-0
  6
Continuous
 62
     3
370
     9
100
AcDbLine
 10
-1760.407491934577
 20
753.512853673987
 30
0.0
 11
-1760.407491934577
 21
738.513051625845
 31
0.0
  0
LINE
  5
27F
330
1F
100
AcDbEntity
  8
0-0
  6
Continuous
 62
     3
370
     9
100
AcDbLine
 10
-1760.407491934577
 20
728.5130186338688
 30
0.0
 11
-1760.407491934577
 21
713.5132165857269
 31
0.0
  0
LINE
  5
280
330
1F
100
AcDbEntity
  8
0-0
  6
Continuous
 62
     3
370
     9
100
AcDbLine
 10
-1697.907409454636
 20
773.5134145375849
 30
0.0
 11
-1697.907409454636
 21
763.5128866659634
 31
0.0
  0
LINE
  5
281
330
1F
100
AcDbEntity
  8
0-0
  6
Continuous
 62
     3
370
     9
100
AcDbLine
 10
-1697.907409454636
 20
753.512853673987
 30
0.0
 11
-1697.907409454636
 21
738.513051625845
 31
0.0
  0
LINE
  5
282
330
1F
100
AcDbEntity
  8
0-0
  6
Continuous
 62
     3
370
     9
100
AcDbLine
 10
-1697.907409454636
 20
728.5130186338688
 30
0.0
 11
-1697.907409454636
 21
713.5132165857269
 31
0.0
  0
LINE
  5
283
330
1F
100
AcDbEntity
  8
0-0
  6
Continuous
 62
     3
370
     9
100
AcDbLine
 10
-1422.907615654488
 20
773.5134145375849
 30
0.0
 11
-1422.907615654488
 21
763.5128866659634
 31
0.0
  0
LINE
  5
284
330
1F
100
AcDbEntity
  8
0-0
  6
Continuous
 62
     3
370
     9
100
AcDbLine
 10
-1360.407409454636
 20
773.5134145375849
 30
0.0
 11
-1360.407409454636
 21
763.5128866659634
 31
0.0
  0
LINE
  5
285
330
1F
100
AcDbEntity
  8
0-0
  6
Continuous
 62
     3
370
     9
100
AcDbLine
 10
-1422.907615654488
 20
728.5130186338688
 30
0.0
 11
-1422.907615654488
 21
713.5132165857269
 31
0.0
  0
LINE
  5
286
330
1F
100
AcDbEntity
  8
0-0
  6
Continuous
 62
     3
370
     9
100
AcDbLine
 10
-1360.407409454636
 20
728.5130186338688
 30
0.0
 11
-1360.407409454636
 21
713.5132165857269
 31
0.0
  0
LINE
  5
287
330
1F
100
AcDbEntity
  8
0-0
  6
Continuous
 62
     3
370
     9
100
AcDbLine
 10
-1422.907615654488
 20
753.512853673987
 30
0.0
 11
-1422.907615654488
 21
738.513051625845
 31
0.0
  0
LINE
  5
288
330
1F
100
AcDbEntity
  8
0-0
  6
Continuous
 62
     3
370
     9
100
AcDbLine
 10
-1360.407409454636
 20
753.512853673987
 30
0.0
 11
-1360.407409454636
 21
738.513051625845
 31
0.0
  0
LINE
  5
289
330
1F
100
AcDbEntity
  8
0-0
  6
Continuous
 62
     3
370
     9
100
AcDbLine
 10
-1085.407615654488
 20
773.5134145375849
 30
0.0
 11
-1085.407615654488
 21
763.5128866659634
 31
0.0
  0
LINE
  5
28A
330
1F
100
AcDbEntity
  8
0-0
  6
Continuous
 62
     3
370
     9
100
AcDbLine
 10
-1085.407615654488
 20
728.5130186338688
 30
0.0
 11
-1085.407615654488
 21
713.5132165857269
 31
0.0
  0
LINE
  5
28B
330
1F
100
AcDbEntity
  8
0-0
  6
Continuous
 62
     3
370
     9
100
AcDbLine
 10
-1085.407615654488
 20
753.512853673987
 30
0.0
 11
-1085.407615654488
 21
738.513051625845
 31
0.0
  0
LINE
  5
28C
330
1F
100
AcDbEntity
  8
0-0
  6
Continuous
 62
     3
370
     9
100
AcDbLine
 10
-487.9075001825709
 20
61.01341453758494
 30
0.0
 11
-487.9075001825709
 21
636.0130846178214
 31
0.0
  0
LINE
  5
28D
330
1F
100
AcDbEntity
  8
0-0
  6
Continuous
 62
     3
370
     9
100
AcDbLine
 10
-470.4073187267008
 20
636.0130846178214
 30
0.0
 11
-487.9075001825709
 21
636.0130846178214
 31
0.0
  0
LINE
  5
28E
330
1F
100
AcDbEntity
  8
0-0
  6
Continuous
 62
     3
370
     9
100
AcDbLine
 10
-470.4073187267008
 20
61.01341453758494
 30
0.0
 11
-470.4073187267008
 21
636.0130846178214
 31
0.0
  0
LINE
  5
28F
330
1F
100
AcDbEntity
  8
0-0
  6
Continuous
 62
     3
370
     9
100
AcDbLine
 10
-481.65741770263
 20
67.26337329761435
 30
0.0
 11
-481.65741770263
 21
629.7631258577919
 31
0.0
  0
LINE
  5
290
330
1F
100
AcDbEntity
  8
0-0
  6
Continuous
 62
     3
370
     9
100
AcDbLine
 10
-476.6574012066417
 20
629.7631258577919
 30
0.0
 11
-481.65741770263
 21
629.7631258577919
 31
0.0
  0
LINE
  5
291
330
1F
100
AcDbEntity
  8
0-0
  6
Continuous
 62
     3
370
     9
100
AcDbLine
 10
-476.6574012066417
 20
67.26337329761435
 30
0.0
 11
-476.6574012066417
 21
629.7631258577919
 31
0.0
  0
LINE
  5
292
330
1F
100
AcDbEntity
  8
0-0
  6
Continuous
 62
     3
370
     9
100
AcDbLine
 10
-487.9075001825709
 20
636.0130846178214
 30
0.0
 11
-481.65741770263
 21
629.7631258577919
 31
0.0
  0
LINE
  5
293
330
1F
100
AcDbEntity
  8
0-0
  6
Continuous
 62
     3
370
     9
100
AcDbLine
 10
-470.4073187267008
 20
636.0130846178214
 30
0.0
 11
-476.6574012066417
 21
629.7631258577919
 31
0.0
  0
LINE
  5
294
330
1F
100
AcDbEntity
  8
0-0
  6
Continuous
 62
     3
370
     9
100
AcDbLine
 10
-775.4074589426002
 20
61.01341453758494
 30
0.0
 11
-775.4074589426002
 21
636.0130846178214
 31
0.0
  0
LINE
  5
295
330
1F
100
AcDbEntity
  8
0-0
  6
Continuous
 62
     3
370
     9
100
AcDbLine
 10
-757.9075249265532
 20
636.0130846178214
 30
0.0
 11
-775.4074589426002
 21
636.0130846178214
 31
0.0
  0
LINE
  5
296
330
1F
100
AcDbEntity
  8
0-0
  6
Continuous
 62
     3
370
     9
100
AcDbLine
 10
-757.9075249265532
 20
61.01341453758494
 30
0.0
 11
-757.9075249265532
 21
636.0130846178214
 31
0.0
  0
LINE
  5
297
330
1F
100
AcDbEntity
  8
0-0
  6
Continuous
 62
     3
370
     9
100
AcDbLine
 10
-769.1575001825709
 20
67.26337329761435
 30
0.0
 11
-769.1575001825709
 21
629.7631258577919
 31
0.0
  0
LINE
  5
298
330
1F
100
AcDbEntity
  8
0-0
  6
Continuous
 62
     3
370
     9
100
AcDbLine
 10
-764.1573599666714
 20
629.7631258577919
 30
0.0
 11
-769.1575001825709
 21
629.7631258577919
 31
0.0
  0
LINE
  5
299
330
1F
100
AcDbEntity
  8
0-0
  6
Continuous
 62
     3
370
     9
100
AcDbLine
 10
-764.1573599666714
 20
67.26337329761435
 30
0.0
 11
-764.1573599666714
 21
629.7631258577919
 31
0.0
  0
LINE
  5
29A
330
1F
100
AcDbEntity
  8
0-0
  6
Continuous
 62
     3
370
     9
100
AcDbLine
 10
-775.4074589426002
 20
636.0130846178214
 30
0.0
 11
-769.1575001825709
 21
629.7631258577919
 31
0.0
  0
LINE
  5
29B
330
1F
100
AcDbEntity
  8
0-0
  6
Continuous
 62
     3
370
     9
100
AcDbLine
 10
-757.9075249265532
 20
636.0130846178214
 30
0.0
 11
-764.1573599666714
 21
629.7631258577919
 31
0.0
  0
LINE
  5
29C
330
1F
100
AcDbEntity
  8
0-0
  6
Continuous
 62
     3
370
     9
100
AcDbLine
 10
-1045.407483686583
 20
61.01341453758494
 30
0.0
 11
-1045.407483686583
 21
636.0130846178214
 31
0.0
  0
LINE
  5
29D
330
1F
100
AcDbEntity
  8
0-0
  6
Continuous
 62
     3
370
     9
100
AcDbLine
 10
-1051.657442446612
 20
67.26337329761435
 30
0.0
 11
-1051.657442446612
 21
629.7631258577919
 31
0.0
  0
LINE
  5
29E
330
1F
100
AcDbEntity
  8
0-0
  6
Continuous
 62
     3
370
     9
100
AcDbLine
 10
-1045.407483686583
 20
636.0130846178214
 30
0.0
 11
-1051.657442446612
 21
629.7631258577919
 31
0.0
  0
LINE
  5
29F
330
1F
100
AcDbEntity
  8
0-0
  6
Continuous
 62
     3
370
     9
100
AcDbLine
 10
-334.3802455109071
 20
682.214305980786
 30
0.0
 11
-334.3802455109071
 21
14.81219317462035
 31
0.0
  0
LINE
  5
2A0
330
1F
100
AcDbEntity
  8
0-0
  6
Continuous
 62
     3
370
     9
100
AcDbLine
 10
-319.1572527427482
 20
338.5132165857269
 30
0.0
 11
-319.1572527427482
 21
358.5132825696795
 31
0.0
  0
LINE
  5
2A1
330
1F
100
AcDbEntity
  8
0-0
  6
Continuous
 62
     3
370
     9
100
AcDbLine
 10
-329.1572857347245
 20
338.5132165857269
 30
0.0
 11
-329.1572857347245
 21
358.5132825696795
 31
0.0
  0
LINE
  5
2A2
330
1F
100
AcDbEntity
  8
0-0
  6
Continuous
 62
     3
370
     9
100
AcDbLine
 10
-315.4073022307128
 20
358.5132825696795
 30
0.0
 11
-329.1572857347245
 21
358.5132825696795
 31
0.0
  0
LINE
  5
2A3
330
1F
100
AcDbEntity
  8
0-0
  6
Continuous
 62
     3
370
     9
100
AcDbLine
 10
-322.9326895565151
 20
363.5131753457563
 30
0.0
 11
-325.4328215244203
 21
362.2631093618037
 31
0.0
  0
LINE
  5
2A4
330
1F
100
AcDbEntity
  8
0-0
  6
Continuous
 62
     3
370
     9
100
AcDbLine
 10
-325.4328215244203
 20
362.2631093618037
 30
0.0
 11
-332.9520228546571
 21
362.2631093618037
 31
0.0
  0
LINE
  5
2A5
330
1F
100
AcDbEntity
  8
0-0
  6
Continuous
 62
     3
370
     9
100
AcDbLine
 10
-332.9520228546571
 20
362.2631093618037
 30
0.0
 11
-325.4328215244203
 21
363.5131753457563
 31
0.0
  0
LINE
  5
2A6
330
1F
100
AcDbEntity
  8
0-0
  6
Continuous
 62
     3
370
     9
100
AcDbLine
 10
-325.4328215244203
 20
363.5131753457563
 30
0.0
 11
-322.9326895565151
 21
363.5131753457563
 31
0.0
  0
LINE
  5
2A7
330
1F
100
AcDbEntity
  8
0-0
  6
Continuous
 62
     3
370
     9
100
AcDbLine
 10
-332.9520228546571
 20
334.7633897936026
 30
0.0
 11
-332.9520228546571
 21
362.2631093618037
 31
0.0
  0
LINE
  5
2A8
330
1F
100
AcDbEntity
  8
0-0
  6
Continuous
 62
     3
370
     9
100
AcDbLine
 10
-322.9326895565151
 20
363.5131753457563
 30
0.0
 11
-322.9326895565151
 21
358.5132825696795
 31
0.0
  0
LINE
  5
2A9
330
1F
100
AcDbEntity
  8
0-0
  6
Continuous
 62
     3
370
     9
100
AcDbLine
 10
-330.4518908867516
 20
683.8392432960311
 30
0.0
 11
-330.4518908867516
 21
362.6786845439193
 31
0.0
  0
LINE
  5
2AA
330
1F
100
AcDbEntity
  8
0-0
  6
Continuous
 62
     3
370
     9
100
AcDbLine
 10
-315.4073022307128
 20
-66.48663495037965
 30
0.0
 11
-315.4073022307128
 21
763.5128866659634
 31
0.0
  0
LINE
  5
2AB
330
1F
100
AcDbEntity
  8
0-0
  6
Continuous
 62
     3
370
     9
100
AcDbLine
 10
-305.4072692387362
 20
-66.48663495037965
 30
0.0
 11
-305.4072692387362
 21
763.5128866659634
 31
0.0
  0
LINE
  5
2AC
330
1F
100
AcDbEntity
  8
0-0
  6
Continuous
 62
     3
370
     9
100
AcDbLine
 10
-347.9072857347245
 20
773.5134145375849
 30
0.0
 11
-410.407615654488
 21
773.5134145375849
 31
0.0
  0
LINE
  5
2AD
330
1F
100
AcDbEntity
  8
0-0
  6
Continuous
 62
     3
370
     9
100
AcDbLine
 10
-685.407409454636
 20
773.5134145375849
 30
0.0
 11
-747.9074919345766
 21
773.5134145375849
 31
0.0
  0
LINE
  5
2AE
330
1F
100
AcDbEntity
  8
0-0
  6
Continuous
 62
     3
370
     9
100
AcDbLine
 10
-347.9072857347245
 20
773.5134145375849
 30
0.0
 11
-347.9072857347245
 21
763.5128866659634
 31
0.0
  0
LINE
  5
2AF
330
1F
100
AcDbEntity
  8
0-0
  6
Continuous
 62
     3
370
     9
100
AcDbLine
 10
-347.9072857347245
 20
753.512853673987
 30
0.0
 11
-347.9072857347245
 21
738.513051625845
 31
0.0
  0
LINE
  5
2B0
330
1F
100
AcDbEntity
  8
0-0
  6
Continuous
 62
     3
370
     9
100
AcDbLine
 10
-347.9072857347245
 20
728.5130186338688
 30
0.0
 11
-347.9072857347245
 21
713.5132165857269
 31
0.0
  0
LINE
  5
2B1
330
1F
100
AcDbEntity
  8
0-0
  6
Continuous
 62
     3
370
     9
100
AcDbLine
 10
-410.407615654488
 20
773.5134145375849
 30
0.0
 11
-410.407615654488
 21
763.5128866659634
 31
0.0
  0
LINE
  5
2B2
330
1F
100
AcDbEntity
  8
0-0
  6
Continuous
 62
     3
370
     9
100
AcDbLine
 10
-410.407615654488
 20
753.512853673987
 30
0.0
 11
-410.407615654488
 21
738.513051625845
 31
0.0
  0
LINE
  5
2B3
330
1F
100
AcDbEntity
  8
0-0
  6
Continuous
 62
     3
370
     9
100
AcDbLine
 10
-410.407615654488
 20
728.5130186338688
 30
0.0
 11
-410.407615654488
 21
713.5132165857269
 31
0.0
  0
LINE
  5
2B4
330
1F
100
AcDbEntity
  8
0-0
  6
Continuous
 62
     3
370
     9
100
AcDbLine
 10
-685.407409454636
 20
773.5134145375849
 30
0.0
 11
-685.407409454636
 21
763.5128866659634
 31
0.0
  0
LINE
  5
2B5
330
1F
100
AcDbEntity
  8
0-0
  6
Continuous
 62
     3
370
     9
100
AcDbLine
 10
-747.9074919345766
 20
773.5134145375849
 30
0.0
 11
-747.9074919345766
 21
763.5128866659634
 31
0.0
  0
LINE
  5
2B6
330
1F
100
AcDbEntity
  8
0-0
  6
Continuous
 62
     3
370
     9
100
AcDbLine
 10
-685.407409454636
 20
728.5130186338688
 30
0.0
 11
-685.407409454636
 21
713.5132165857269
 31
0.0
  0
LINE
  5
2B7
330
1F
100
AcDbEntity
  8
0-0
  6
Continuous
 62
     3
370
     9
100
AcDbLine
 10
-747.9074919345766
 20
728.5130186338688
 30
0.0
 11
-747.9074919345766
 21
713.5132165857269
 31
0.0
  0
LINE
  5
2B8
330
1F
100
AcDbEntity
  8
0-0
  6
Continuous
 62
     3
370
     9
100
AcDbLine
 10
-685.407409454636
 20
753.512853673987
 30
0.0
 11
-685.407409454636
 21
738.513051625845
 31
0.0
  0
LINE
  5
2B9
330
1F
100
AcDbEntity
  8
0-0
  6
Continuous
 62
     3
370
     9
100
AcDbLine
 10
-747.9074919345766
 20
753.512853673987
 30
0.0
 11
-747.9074919345766
 21
738.513051625845
 31
0.0
  0
LINE
  5
2BA
330
1F
100
AcDbEntity
  8
0-0
  6
Continuous
 62
     3
370
     9
100
AcDbLine
 10
-1022.907409454636
 20
773.5134145375849
 30
0.0
 11
-1022.907409454636
 21
763.5128866659634
 31
0.0
  0
LINE
  5
2BB
330
1F
100
AcDbEntity
  8
0-0
  6
Continuous
 62
     3
370
     9
100
AcDbLine
 10
-1022.907409454636
 20
728.5130186338688
 30
0.0
 11
-1022.907409454636
 21
713.5132165857269
 31
0.0
  0
LINE
  5
2BC
330
1F
100
AcDbEntity
  8
0-0
  6
Continuous
 62
     3
370
     9
100
AcDbLine
 10
-1022.907409454636
 20
753.512853673987
 30
0.0
 11
-1022.907409454636
 21
738.513051625845
 31
0.0
  0
LINE
  5
2BD
330
1F
100
AcDbEntity
  8
0-0
  6
Continuous
 62
     3
370
     9
100
AcDbLine
 10
-1637.9074589426
 20
61.01341453758494
 30
0.0
 11
-1620.407524926553
 21
61.01341453758494
 31
0.0
  0
LINE
  5
2BE
330
1F
100
AcDbEntity
  8
0-0
  6
Continuous
 62
     3
370
     9
100
AcDbLine
 10
-1631.657500182571
 20
67.26337329761435
 30
0.0
 11
-1626.657483686583
 21
67.26337329761435
 31
0.0
  0
LINE
  5
2BF
330
1F
100
AcDbEntity
  8
0-0
  6
Continuous
 62
     3
370
     9
100
AcDbLine
 10
-1620.407524926553
 20
61.01341453758494
 30
0.0
 11
-1626.657483686583
 21
67.26337329761435
 31
0.0
  0
LINE
  5
2C0
330
1F
100
AcDbEntity
  8
0-0
  6
Continuous
 62
     3
370
     9
100
AcDbLine
 10
-1637.9074589426
 20
61.01341453758494
 30
0.0
 11
-1631.657500182571
 21
67.26337329761435
 31
0.0
  0
LINE
  5
2C1
330
1F
100
AcDbEntity
  8
0-0
  6
Continuous
 62
     3
370
     9
100
AcDbLine
 10
-1350.407500182571
 20
61.01341453758494
 30
0.0
 11
-1332.907566166524
 21
61.01341453758494
 31
0.0
  0
LINE
  5
2C2
330
1F
100
AcDbEntity
  8
0-0
  6
Continuous
 62
     3
370
     9
100
AcDbLine
 10
-1344.157541422541
 20
67.26337329761435
 30
0.0
 11
-1339.157401206642
 21
67.26337329761435
 31
0.0
  0
LINE
  5
2C3
330
1F
100
AcDbEntity
  8
0-0
  6
Continuous
 62
     3
370
     9
100
AcDbLine
 10
-1332.907566166524
 20
61.01341453758494
 30
0.0
 11
-1339.157401206642
 21
67.26337329761435
 31
0.0
  0
LINE
  5
2C4
330
1F
100
AcDbEntity
  8
0-0
  6
Continuous
 62
     3
370
     9
100
AcDbLine
 10
-1350.407500182571
 20
61.01341453758494
 30
0.0
 11
-1344.157541422541
 21
67.26337329761435
 31
0.0
  0
LINE
  5
2C5
330
1F
100
AcDbEntity
  8
0-0
  6
Continuous
 62
     3
370
     9
100
AcDbLine
 10
-1062.90741770263
 20
61.01341453758494
 30
0.0
 11
-1056.6574589426
 21
67.26337329761435
 31
0.0
  0
LINE
  5
2C6
330
1F
100
AcDbEntity
  8
0-0
  6
Continuous
 62
     3
370
     9
100
AcDbLine
 10
-1062.90741770263
 20
61.01341453758494
 30
0.0
 11
-1045.407483686583
 21
61.01341453758494
 31
0.0
  0
LINE
  5
2C7
330
1F
100
AcDbEntity
  8
0-0
  6
Continuous
 62
     3
370
     9
100
AcDbLine
 10
-1056.6574589426
 20
67.26337329761435
 30
0.0
 11
-1051.657442446612
 21
67.26337329761435
 31
0.0
  0
LINE
  5
2C8
330
1F
100
AcDbEntity
  8
0-0
  6
Continuous
 62
     3
370
     9
100
AcDbLine
 10
-1792.9075991585
 20
-6.486684438344241
 30
0.0
 11
-315.4073022307128
 21
-6.486684438344241
 31
0.0
  0
LINE
  5
2C9
330
1F
100
AcDbEntity
  8
0-0
  6
Continuous
 62
     3
370
     9
100
AcDbLine
 10
-1792.9075991585
 20
-16.48671743032054
 30
0.0
 11
-315.4073022307128
 21
-16.48671743032054
 31
0.0
  0
LINE
  5
2CA
330
1F
100
AcDbEntity
  8
0-0
  6
Continuous
 62
     3
370
     9
100
AcDbLine
 10
-1767.863101230396
 20
3.187222867398987
 30
0.0
 11
-340.4520475986391
 21
3.187222867398987
 31
0.0
  0
LINE
  5
2CB
330
1F
100
AcDbEntity
  8
0-0
  6
Continuous
 62
     3
370
     9
100
AcDbLine
 10
-1766.434507414412
 20
7.312292150549524
 30
0.0
 11
-341.8803939748005
 21
7.312292150549524
 31
0.0
  0
LINE
  5
2CC
330
1F
100
AcDbEntity
  8
0-0
  6
Continuous
 62
     3
370
     9
100
AcDbLine
 10
-1792.9075991585
 20
338.5132165857269
 30
0.0
 11
-1779.157491934577
 21
338.5132165857269
 31
0.0
  0
LINE
  5
2CD
330
1F
100
AcDbEntity
  8
0-0
  6
Continuous
 62
     3
370
     9
100
AcDbLine
 10
-1785.382088112786
 20
333.51332380965
 30
0.0
 11
-1782.882079864792
 21
334.7633897936026
 31
0.0
  0
LINE
  5
2CE
330
1F
100
AcDbEntity
  8
0-0
  6
Continuous
 62
     3
370
     9
100
AcDbLine
 10
-1782.882079864792
 20
334.7633897936026
 30
0.0
 11
-1775.363002254467
 21
334.7633897936026
 31
0.0
  0
LINE
  5
2CF
330
1F
100
AcDbEntity
  8
0-0
  6
Continuous
 62
     3
370
     9
100
AcDbLine
 10
-1775.363002254467
 20
334.7633897936026
 30
0.0
 11
-1782.882079864792
 21
333.51332380965
 31
0.0
  0
LINE
  5
2D0
330
1F
100
AcDbEntity
  8
0-0
  6
Continuous
 62
     3
370
     9
100
AcDbLine
 10
-1782.882079864792
 20
333.51332380965
 30
0.0
 11
-1785.382088112786
 21
333.51332380965
 31
0.0
  0
LINE
  5
2D1
330
1F
100
AcDbEntity
  8
0-0
  6
Continuous
 62
     3
370
     9
100
AcDbLine
 10
-1785.382088112786
 20
333.51332380965
 30
0.0
 11
-1785.382088112786
 21
338.5132165857269
 31
0.0
  0
LINE
  5
2D2
330
1F
100
AcDbEntity
  8
0-0
  6
Continuous
 62
     3
370
     9
100
AcDbLine
 10
-1777.863010502461
 20
13.18725585937557
 30
0.0
 11
-1777.863010502461
 21
334.347814611487
 31
0.0
  0
LINE
  5
2D3
330
1F
100
AcDbEntity
  8
0-0
  6
Continuous
 62
     3
370
     9
100
AcDbLine
 10
-1792.9075991585
 20
-31.48651947846247
 30
0.0
 11
-315.4073022307128
 21
-31.48651947846247
 31
0.0
  0
LINE
  5
2D4
330
1F
100
AcDbEntity
  8
0-0
  6
Continuous
 62
     3
370
     9
100
AcDbLine
 10
-1792.9075991585
 20
-41.48655247043877
 30
0.0
 11
-315.4073022307128
 21
-41.48655247043877
 31
0.0
  0
LINE
  5
2D5
330
1F
100
AcDbEntity
  8
0-0
  6
Continuous
 62
     3
370
     9
100
AcDbLine
 10
-1792.9075991585
 20
-56.48660195840336
 30
0.0
 11
-315.4073022307128
 21
-56.48660195840336
 31
0.0
  0
LINE
  5
2D6
330
1F
100
AcDbEntity
  8
0-0
  6
Continuous
 62
     3
370
     9
100
AcDbLine
 10
-1802.907632150476
 20
-66.48663495037965
 30
0.0
 11
-305.4072692387362
 21
-66.48663495037965
 31
0.0
  0
LINE
  5
2D7
330
1F
100
AcDbEntity
  8
0-0
  6
Continuous
 62
     3
370
     9
100
AcDbLine
 10
-1760.407491934577
 20
-76.48666794235595
 30
0.0
 11
-1697.907409454636
 21
-76.48666794235595
 31
0.0
  0
LINE
  5
2D8
330
1F
100
AcDbEntity
  8
0-0
  6
Continuous
 62
     3
370
     9
100
AcDbLine
 10
-1422.907615654488
 20
-76.48666794235595
 30
0.0
 11
-1360.407409454636
 21
-76.48666794235595
 31
0.0
  0
LINE
  5
2D9
330
1F
100
AcDbEntity
  8
0-0
  6
Continuous
 62
     3
370
     9
100
AcDbLine
 10
-1085.407615654488
 20
-76.48666794235595
 30
0.0
 11
-1022.907409454636
 21
-76.48666794235595
 31
0.0
  0
LINE
  5
2DA
330
1F
100
AcDbEntity
  8
0-0
  6
Continuous
 62
     3
370
     9
100
AcDbLine
 10
-1760.407491934577
 20
-76.48666794235595
 30
0.0
 11
-1760.407491934577
 21
-66.48663495037965
 31
0.0
  0
LINE
  5
2DB
330
1F
100
AcDbEntity
  8
0-0
  6
Continuous
 62
     3
370
     9
100
AcDbLine
 10
-1760.407491934577
 20
-56.48660195840336
 30
0.0
 11
-1760.407491934577
 21
-41.48655247043877
 31
0.0
  0
LINE
  5
2DC
330
1F
100
AcDbEntity
  8
0-0
  6
Continuous
 62
     3
370
     9
100
AcDbLine
 10
-1760.407491934577
 20
-31.48651947846247
 30
0.0
 11
-1760.407491934577
 21
-16.48671743032054
 31
0.0
  0
LINE
  5
2DD
330
1F
100
AcDbEntity
  8
0-0
  6
Continuous
 62
     3
370
     9
100
AcDbLine
 10
-1697.907409454636
 20
-76.48666794235595
 30
0.0
 11
-1697.907409454636
 21
-66.48663495037965
 31
0.0
  0
LINE
  5
2DE
330
1F
100
AcDbEntity
  8
0-0
  6
Continuous
 62
     3
370
     9
100
AcDbLine
 10
-1697.907409454636
 20
-56.48660195840336
 30
0.0
 11
-1697.907409454636
 21
-41.48655247043877
 31
0.0
  0
LINE
  5
2DF
330
1F
100
AcDbEntity
  8
0-0
  6
Continuous
 62
     3
370
     9
100
AcDbLine
 10
-1697.907409454636
 20
-31.48651947846247
 30
0.0
 11
-1697.907409454636
 21
-16.48671743032054
 31
0.0
  0
LINE
  5
2E0
330
1F
100
AcDbEntity
  8
0-0
  6
Continuous
 62
     3
370
     9
100
AcDbLine
 10
-1422.907615654488
 20
-76.48666794235595
 30
0.0
 11
-1422.907615654488
 21
-66.48663495037965
 31
0.0
  0
LINE
  5
2E1
330
1F
100
AcDbEntity
  8
0-0
  6
Continuous
 62
     3
370
     9
100
AcDbLine
 10
-1360.407409454636
 20
-76.48666794235595
 30
0.0
 11
-1360.407409454636
 21
-66.48663495037965
 31
0.0
  0
LINE
  5
2E2
330
1F
100
AcDbEntity
  8
0-0
  6
Continuous
 62
     3
370
     9
100
AcDbLine
 10
-1422.907615654488
 20
-31.48651947846247
 30
0.0
 11
-1422.907615654488
 21
-16.48671743032054
 31
0.0
  0
LINE
  5
2E3
330
1F
100
AcDbEntity
  8
0-0
  6
Continuous
 62
     3
370
     9
100
AcDbLine
 10
-1360.407409454636
 20
-31.48651947846247
 30
0.0
 11
-1360.407409454636
 21
-16.48671743032054
 31
0.0
  0
LINE
  5
2E4
330
1F
100
AcDbEntity
  8
0-0
  6
Continuous
 62
     3
370
     9
100
AcDbLine
 10
-1422.907615654488
 20
-56.48660195840336
 30
0.0
 11
-1422.907615654488
 21
-41.48655247043877
 31
0.0
  0
LINE
  5
2E5
330
1F
100
AcDbEntity
  8
0-0
  6
Continuous
 62
     3
370
     9
100
AcDbLine
 10
-1360.407409454636
 20
-56.48660195840336
 30
0.0
 11
-1360.407409454636
 21
-41.48655247043877
 31
0.0
  0
LINE
  5
2E6
330
1F
100
AcDbEntity
  8
0-0
  6
Continuous
 62
     3
370
     9
100
AcDbLine
 10
-1085.407615654488
 20
-76.48666794235595
 30
0.0
 11
-1085.407615654488
 21
-66.48663495037965
 31
0.0
  0
LINE
  5
2E7
330
1F
100
AcDbEntity
  8
0-0
  6
Continuous
 62
     3
370
     9
100
AcDbLine
 10
-1085.407615654488
 20
-31.48651947846247
 30
0.0
 11
-1085.407615654488
 21
-16.48671743032054
 31
0.0
  0
LINE
  5
2E8
330
1F
100
AcDbEntity
  8
0-0
  6
Continuous
 62
     3
370
     9
100
AcDbLine
 10
-1085.407615654488
 20
-56.48660195840336
 30
0.0
 11
-1085.407615654488
 21
-41.48655247043877
 31
0.0
  0
LINE
  5
2E9
330
1F
100
AcDbEntity
  8
0-0
  6
Continuous
 62
     3
370
     9
100
AcDbLine
 10
-470.4073187267008
 20
61.01341453758494
 30
0.0
 11
-487.9075001825709
 21
61.01341453758494
 31
0.0
  0
LINE
  5
2EA
330
1F
100
AcDbEntity
  8
0-0
  6
Continuous
 62
     3
370
     9
100
AcDbLine
 10
-476.6574012066417
 20
67.26337329761435
 30
0.0
 11
-481.65741770263
 21
67.26337329761435
 31
0.0
  0
LINE
  5
2EB
330
1F
100
AcDbEntity
  8
0-0
  6
Continuous
 62
     3
370
     9
100
AcDbLine
 10
-487.9075001825709
 20
61.01341453758494
 30
0.0
 11
-481.65741770263
 21
67.26337329761435
 31
0.0
  0
LINE
  5
2EC
330
1F
100
AcDbEntity
  8
0-0
  6
Continuous
 62
     3
370
     9
100
AcDbLine
 10
-470.4073187267008
 20
61.01341453758494
 30
0.0
 11
-476.6574012066417
 21
67.26337329761435
 31
0.0
  0
LINE
  5
2ED
330
1F
100
AcDbEntity
  8
0-0
  6
Continuous
 62
     3
370
     9
100
AcDbLine
 10
-757.9075249265532
 20
61.01341453758494
 30
0.0
 11
-775.4074589426002
 21
61.01341453758494
 31
0.0
  0
LINE
  5
2EE
330
1F
100
AcDbEntity
  8
0-0
  6
Continuous
 62
     3
370
     9
100
AcDbLine
 10
-764.1573599666714
 20
67.26337329761435
 30
0.0
 11
-769.1575001825709
 21
67.26337329761435
 31
0.0
  0
LINE
  5
2EF
330
1F
100
AcDbEntity
  8
0-0
  6
Continuous
 62
     3
370
     9
100
AcDbLine
 10
-775.4074589426002
 20
61.01341453758494
 30
0.0
 11
-769.1575001825709
 21
67.26337329761435
 31
0.0
  0
LINE
  5
2F0
330
1F
100
AcDbEntity
  8
0-0
  6
Continuous
 62
     3
370
     9
100
AcDbLine
 10
-757.9075249265532
 20
61.01341453758494
 30
0.0
 11
-764.1573599666714
 21
67.26337329761435
 31
0.0
  0
LINE
  5
2F1
330
1F
100
AcDbEntity
  8
0-0
  6
Continuous
 62
     3
370
     9
100
AcDbLine
 10
-1045.407483686583
 20
61.01341453758494
 30
0.0
 11
-1051.657442446612
 21
67.26337329761435
 31
0.0
  0
LINE
  5
2F2
330
1F
100
AcDbEntity
  8
0-0
  6
Continuous
 62
     3
370
     9
100
AcDbLine
 10
-315.4073022307128
 20
338.5132165857269
 30
0.0
 11
-329.1572857347245
 21
338.5132165857269
 31
0.0
  0
LINE
  5
2F3
330
1F
100
AcDbEntity
  8
0-0
  6
Continuous
 62
     3
370
     9
100
AcDbLine
 10
-322.9326895565151
 20
333.51332380965
 30
0.0
 11
-325.4328215244203
 21
334.7633897936026
 31
0.0
  0
LINE
  5
2F4
330
1F
100
AcDbEntity
  8
0-0
  6
Continuous
 62
     3
370
     9
100
AcDbLine
 10
-325.4328215244203
 20
334.7633897936026
 30
0.0
 11
-332.9520228546571
 21
334.7633897936026
 31
0.0
  0
LINE
  5
2F5
330
1F
100
AcDbEntity
  8
0-0
  6
Continuous
 62
     3
370
     9
100
AcDbLine
 10
-332.9520228546571
 20
334.7633897936026
 30
0.0
 11
-325.4328215244203
 21
333.51332380965
 31
0.0
  0
LINE
  5
2F6
330
1F
100
AcDbEntity
  8
0-0
  6
Continuous
 62
     3
370
     9
100
AcDbLine
 10
-325.4328215244203
 20
333.51332380965
 30
0.0
 11
-322.9326895565151
 21
333.51332380965
 31
0.0
  0
LINE
  5
2F7
330
1F
100
AcDbEntity
  8
0-0
  6
Continuous
 62
     3
370
     9
100
AcDbLine
 10
-322.9326895565151
 20
333.51332380965
 30
0.0
 11
-322.9326895565151
 21
338.5132165857269
 31
0.0
  0
LINE
  5
2F8
330
1F
100
AcDbEntity
  8
0-0
  6
Continuous
 62
     3
370
     9
100
AcDbLine
 10
-330.4518908867516
 20
13.18725585937557
 30
0.0
 11
-330.4518908867516
 21
334.347814611487
 31
0.0
  0
LINE
  5
2F9
330
1F
100
AcDbEntity
  8
0-0
  6
Continuous
 62
     3
370
     9
100
AcDbLine
 10
-347.9072857347245
 20
-76.48666794235595
 30
0.0
 11
-410.407615654488
 21
-76.48666794235595
 31
0.0
  0
LINE
  5
2FA
330
1F
100
AcDbEntity
  8
0-0
  6
Continuous
 62
     3
370
     9
100
AcDbLine
 10
-685.407409454636
 20
-76.48666794235595
 30
0.0
 11
-747.9074919345766
 21
-76.48666794235595
 31
0.0
  0
LINE
  5
2FB
330
1F
100
AcDbEntity
  8
0-0
  6
Continuous
 62
     3
370
     9
100
AcDbLine
 10
-347.9072857347245
 20
-76.48666794235595
 30
0.0
 11
-347.9072857347245
 21
-66.48663495037965
 31
0.0
  0
LINE
  5
2FC
330
1F
100
AcDbEntity
  8
0-0
  6
Continuous
 62
     3
370
     9
100
AcDbLine
 10
-347.9072857347245
 20
-56.48660195840336
 30
0.0
 11
-347.9072857347245
 21
-41.48655247043877
 31
0.0
  0
LINE
  5
2FD
330
1F
100
AcDbEntity
  8
0-0
  6
Continuous
 62
     3
370
     9
100
AcDbLine
 10
-347.9072857347245
 20
-31.48651947846247
 30
0.0
 11
-347.9072857347245
 21
-16.48671743032054
 31
0.0
  0
LINE
  5
2FE
330
1F
100
AcDbEntity
  8
0-0
  6
Continuous
 62
     3
370
     9
100
AcDbLine
 10
-410.407615654488
 20
-76.48666794235595
 30
0.0
 11
-410.407615654488
 21
-66.48663495037965
 31
0.0
  0
LINE
  5
2FF
330
1F
100
AcDbEntity
  8
0-0
  6
Continuous
 62
     3
370
     9
100
AcDbLine
 10
-410.407615654488
 20
-56.48660195840336
 30
0.0
 11
-410.407615654488
 21
-41.48655247043877
 31
0.0
  0
LINE
  5
300
330
1F
100
AcDbEntity
  8
0-0
  6
Continuous
 62
     3
370
     9
100
AcDbLine
 10
-410.407615654488
 20
-31.48651947846247
 30
0.0
 11
-410.407615654488
 21
-16.48671743032054
 31
0.0
  0
LINE
  5
301
330
1F
100
AcDbEntity
  8
0-0
  6
Continuous
 62
     3
370
     9
100
AcDbLine
 10
-685.407409454636
 20
-76.48666794235595
 30
0.0
 11
-685.407409454636
 21
-66.48663495037965
 31
0.0
  0
LINE
  5
302
330
1F
100
AcDbEntity
  8
0-0
  6
Continuous
 62
     3
370
     9
100
AcDbLine
 10
-747.9074919345766
 20
-76.48666794235595
 30
0.0
 11
-747.9074919345766
 21
-66.48663495037965
 31
0.0
  0
LINE
  5
303
330
1F
100
AcDbEntity
  8
0-0
  6
Continuous
 62
     3
370
     9
100
AcDbLine
 10
-685.407409454636
 20
-31.48651947846247
 30
0.0
 11
-685.407409454636
 21
-16.48671743032054
 31
0.0
  0
LINE
  5
304
330
1F
100
AcDbEntity
  8
0-0
  6
Continuous
 62
     3
370
     9
100
AcDbLine
 10
-747.9074919345766
 20
-31.48651947846247
 30
0.0
 11
-747.9074919345766
 21
-16.48671743032054
 31
0.0
  0
LINE
  5
305
330
1F
100
AcDbEntity
  8
0-0
  6
Continuous
 62
     3
370
     9
100
AcDbLine
 10
-685.407409454636
 20
-56.48660195840336
 30
0.0
 11
-685.407409454636
 21
-41.48655247043877
 31
0.0
  0
LINE
  5
306
330
1F
100
AcDbEntity
  8
0-0
  6
Continuous
 62
     3
370
     9
100
AcDbLine
 10
-747.9074919345766
 20
-56.48660195840336
 30
0.0
 11
-747.9074919345766
 21
-41.48655247043877
 31
0.0
  0
LINE
  5
307
330
1F
100
AcDbEntity
  8
0-0
  6
Continuous
 62
     3
370
     9
100
AcDbLine
 10
-1022.907409454636
 20
-76.48666794235595
 30
0.0
 11
-1022.907409454636
 21
-66.48663495037965
 31
0.0
  0
LINE
  5
308
330
1F
100
AcDbEntity
  8
0-0
  6
Continuous
 62
     3
370
     9
100
AcDbLine
 10
-1022.907409454636
 20
-31.48651947846247
 30
0.0
 11
-1022.907409454636
 21
-16.48671743032054
 31
0.0
  0
LINE
  5
309
330
1F
100
AcDbEntity
  8
0-0
  6
Continuous
 62
     3
370
     9
100
AcDbLine
 10
-1022.907409454636
 20
-56.48660195840336
 30
0.0
 11
-1022.907409454636
 21
-41.48655247043877
 31
0.0
  0
LINE
  5
30A
330
1F
100
AcDbEntity
  8
0-0
  6
JWW_PHANTOM2
 62
     3
370
     9
100
AcDbLine
 10
-302.9072609907422
 20
-66.48663495037965
 30
0.0
 11
-302.9072609907422
 21
763.5128866659634
 31
0.0
  0
LINE
  5
30B
330
1F
100
AcDbEntity
  8
0-0
  6
JWW_PHANTOM2
 62
     3
370
     9
100
AcDbLine
 10
-302.9072609907422
 20
763.5128866659634
 30
0.0
 11
269.5928957211456
 21
763.5128866659634
 31
0.0
  0
LINE
  5
30C
330
1F
100
AcDbEntity
  8
0-0
  6
JWW_PHANTOM2
 62
     3
370
     9
100
AcDbLine
 10
-302.9072609907422
 20
-66.48663495037965
 30
0.0
 11
269.5928957211456
 21
-66.48663495037965
 31
0.0
  0
LINE
  5
30D
330
1F
100
AcDbEntity
  8
0-1
  6
JWW_DASHED3
 62
     2
370
     9
100
AcDbLine
 10
-1802.907632150476
 20
661.0129196579396
 30
0.0
 11
-305.4072692387362
 21
661.0129196579396
 31
0.0
  0
LINE
  5
30E
330
1F
100
AcDbEntity
  8
0-1
  6
Continuous
 62
     2
370
     9
100
AcDbLine
 10
-305.4072692387362
 20
661.0129196579396
 30
0.0
 11
269.5924008415003
 21
661.0129196579396
 31
0.0
  0
LINE
  5
30F
330
1F
100
AcDbEntity
  8
0-1
  6
JWW_DASHED3
 62
     2
370
     9
100
AcDbLine
 10
-1802.907632150476
 20
36.01308461782139
 30
0.0
 11
-305.4072692387362
 21
36.01308461782139
 31
0.0
  0
LINE
  5
310
330
1F
100
AcDbEntity
  8
0-1
  6
Continuous
 62
     2
370
     9
100
AcDbLine
 10
-305.4072692387362
 20
36.01308461782139
 30
0.0
 11
269.5924008415003
 21
36.01308461782139
 31
0.0
  0
ARC
  5
311
330
1F
100
AcDbEntity
  8
0-0
  6
Continuous
 62
     3
370
     9
100
AcDbCircle
 10
-1113.440320600645
 20
-822.7368411502317
 30
0.0
 40
3.75000004832809
100
AcDbArc
 50
188.7459106445312
 51
270.0
  0
ARC
  5
312
330
1F
100
AcDbEntity
  8
0-0
  6
Continuous
 62
     3
370
     9
100
AcDbCircle
 10
-1332.374642648523
 20
-822.7368411502317
 30
0.0
 40
3.75000004832809
100
AcDbArc
 50
270.0
 51
351.2540893554688
  0
ARC
  5
313
330
1F
100
AcDbEntity
  8
0-0
  6
Continuous
 62
     3
370
     9
100
AcDbCircle
 10
-1450.940320600645
 20
-822.7368411502317
 30
0.0
 40
3.75000004832809
100
AcDbArc
 50
188.7460174560547
 51
270.0
  0
ARC
  5
314
330
1F
100
AcDbEntity
  8
0-0
  6
Continuous
 62
     3
370
     9
100
AcDbCircle
 10
-1666.124630276532
 20
-822.7368411502317
 30
0.0
 40
3.75000004832809
100
AcDbArc
 50
270.0
 51
351.2539978027344
  0
ARC
  5
315
330
1F
100
AcDbEntity
  8
0-0
  6
Continuous
 62
     3
370
     9
100
AcDbCircle
 10
-1784.415835605396
 20
-822.7368411502317
 30
0.0
 40
3.75000004832809
100
AcDbArc
 50
184.0851135253906
 51
270.0
  0
ARC
  5
316
330
1F
100
AcDbEntity
  8
0-0
  6
Continuous
 62
     3
370
     9
100
AcDbCircle
 10
-1128.091974818339
 20
-801.4868329022377
 30
0.0
 40
7.500000096656181
100
AcDbArc
 50
8.746337890625
 51
90.0
  0
ARC
  5
317
330
1F
100
AcDbEntity
  8
0-0
  6
Continuous
 62
     3
370
     9
100
AcDbCircle
 10
-1317.723050290784
 20
-801.4868329022377
 30
0.0
 40
7.500000096656181
100
AcDbArc
 50
90.0
 51
171.253662109375
  0
ARC
  5
318
330
1F
100
AcDbEntity
  8
0-0
  6
Continuous
 62
     3
370
     9
100
AcDbCircle
 10
-1465.591851098428
 20
-801.4868329022377
 30
0.0
 40
7.500000096656181
100
AcDbArc
 50
8.746292114257812
 51
90.0
  0
ARC
  5
319
330
1F
100
AcDbEntity
  8
0-0
  6
Continuous
 62
     3
370
     9
100
AcDbCircle
 10
-1651.47322349866
 20
-801.4868329022377
 30
0.0
 40
7.500000096656181
100
AcDbArc
 50
90.0
 51
171.2537078857422
  0
ARC
  5
31A
330
1F
100
AcDbEntity
  8
0-0
  6
Continuous
 62
     3
370
     9
100
AcDbCircle
 10
-1781.826006701785
 20
-783.9868988861906
 30
0.0
 40
10.00000012887491
100
AcDbArc
 50
189.9193572998047
 51
208.6634521484375
  0
ARC
  5
31B
330
1F
100
AcDbEntity
  8
0-0
  6
Continuous
 62
     3
370
     9
100
AcDbCircle
 10
-1077.096978051553
 20
-757.7368122822526
 30
0.0
 40
3.75000004832809
100
AcDbArc
 50
187.1250152587891
 51
270.0
  0
ARC
  5
31C
330
1F
100
AcDbEntity
  8
0-0
  6
Continuous
 62
     3
370
     9
100
AcDbCircle
 10
-1752.096978051553
 20
-757.7368122822526
 30
0.0
 40
3.75000004832809
100
AcDbArc
 50
187.1250152587891
 51
270.0
  0
ARC
  5
31D
330
1F
100
AcDbEntity
  8
0-0
  6
Continuous
 62
     3
370
     9
100
AcDbCircle
 10
-1706.21792333766
 20
-757.7368122822526
 30
0.0
 40
3.75000004832809
100
AcDbArc
 50
270.0
 51
352.8749847412109
  0
ARC
  5
31E
330
1F
100
AcDbEntity
  8
0-0
  6
Continuous
 62
     3
370
     9
100
AcDbCircle
 10
-1399.022868175075
 20
-757.7368122822526
 30
0.0
 40
3.75000004832809
100
AcDbArc
 50
188.004867553711
 51
270.0
  0
ARC
  5
31F
330
1F
100
AcDbEntity
  8
0-0
  6
Continuous
 62
     3
370
     9
100
AcDbCircle
 10
-1384.292033214138
 20
-757.7368122822526
 30
0.0
 40
3.75000004832809
100
AcDbArc
 50
270.0
 51
351.9951324462891
  0
ARC
  5
320
330
1F
100
AcDbEntity
  8
0-0
  6
Continuous
 62
     3
370
     9
100
AcDbCircle
 10
-994.8745807885675
 20
-822.7368411502317
 30
0.0
 40
3.75000004832809
100
AcDbArc
 50
270.0
 51
351.2540893554688
  0
ARC
  5
321
330
1F
100
AcDbEntity
  8
0-0
  6
Continuous
 62
     3
370
     9
100
AcDbCircle
 10
-775.940320600645
 20
-822.7368411502317
 30
0.0
 40
3.75000004832809
100
AcDbArc
 50
188.7459106445312
 51
270.0
  0
ARC
  5
322
330
1F
100
AcDbEntity
  8
0-0
  6
Continuous
 62
     3
370
     9
100
AcDbCircle
 10
-657.3745807885675
 20
-822.7368411502317
 30
0.0
 40
3.75000004832809
100
AcDbArc
 50
270.0
 51
351.2539825439453
  0
ARC
  5
323
330
1F
100
AcDbEntity
  8
0-0
  6
Continuous
 62
     3
370
     9
100
AcDbCircle
 10
-442.1902711126805
 20
-822.7368411502317
 30
0.0
 40
3.75000004832809
100
AcDbArc
 50
188.7460021972657
 51
270.0
  0
ARC
  5
324
330
1F
100
AcDbEntity
  8
0-0
  6
Continuous
 62
     3
370
     9
100
AcDbCircle
 10
-323.8991895037279
 20
-822.7368411502317
 30
0.0
 40
3.75000004832809
100
AcDbArc
 50
270.0
 51
355.9148864746094
  0
ARC
  5
325
330
1F
100
AcDbEntity
  8
0-0
  6
Continuous
 62
     3
370
     9
100
AcDbCircle
 10
-980.2229265708731
 20
-801.4868329022377
 30
0.0
 40
7.500000096656181
100
AcDbArc
 50
90.0
 51
171.253662109375
  0
ARC
  5
326
330
1F
100
AcDbEntity
  8
0-0
  6
Continuous
 62
     3
370
     9
100
AcDbCircle
 10
-790.5918510984282
 20
-801.4868329022377
 30
0.0
 40
7.500000096656181
100
AcDbArc
 50
8.746337890625
 51
90.0
  0
ARC
  5
327
330
1F
100
AcDbEntity
  8
0-0
  6
Continuous
 62
     3
370
     9
100
AcDbCircle
 10
-642.7230502907844
 20
-801.4868329022377
 30
0.0
 40
7.500000096656181
100
AcDbArc
 50
90.0
 51
171.2537078857422
  0
ARC
  5
328
330
1F
100
AcDbEntity
  8
0-0
  6
Continuous
 62
     3
370
     9
100
AcDbCircle
 10
-456.8416778905521
 20
-801.4868329022377
 30
0.0
 40
7.500000096656181
100
AcDbArc
 50
8.746292114257812
 51
90.0
  0
ARC
  5
329
330
1F
100
AcDbEntity
  8
0-0
  6
Continuous
 62
     3
370
     9
100
AcDbCircle
 10
-326.4888946874271
 20
-783.9868988861906
 30
0.0
 40
10.00000012887491
100
AcDbArc
 50
331.3365478515625
 51
350.0806427001953
  0
ARC
  5
32A
330
1F
100
AcDbEntity
  8
0-0
  6
Continuous
 62
     3
370
     9
100
AcDbCircle
 10
-1031.21792333766
 20
-757.7368122822526
 30
0.0
 40
3.75000004832809
100
AcDbArc
 50
270.0
 51
352.8749847412109
  0
ARC
  5
32B
330
1F
100
AcDbEntity
  8
0-0
  6
Continuous
 62
     3
370
     9
100
AcDbCircle
 10
-356.2177996177482
 20
-757.7368122822526
 30
0.0
 40
3.75000004832809
100
AcDbArc
 50
270.0
 51
352.8749847412109
  0
ARC
  5
32C
330
1F
100
AcDbEntity
  8
0-0
  6
Continuous
 62
     3
370
     9
100
AcDbCircle
 10
-402.0968543316417
 20
-757.7368122822526
 30
0.0
 40
3.75000004832809
100
AcDbArc
 50
187.1250152587891
 51
270.0
  0
ARC
  5
32D
330
1F
100
AcDbEntity
  8
0-0
  6
Continuous
 62
     3
370
     9
100
AcDbCircle
 10
-709.2920332141375
 20
-757.7368122822526
 30
0.0
 40
3.75000004832809
100
AcDbArc
 50
270.0
 51
351.9951324462891
  0
ARC
  5
32E
330
1F
100
AcDbEntity
  8
0-0
  6
Continuous
 62
     3
370
     9
100
AcDbCircle
 10
-724.022868175075
 20
-757.7368122822526
 30
0.0
 40
3.75000004832809
100
AcDbArc
 50
188.004867553711
 51
270.0
  0
ARC
  5
32F
330
1F
100
AcDbEntity
  8
0-0
  6
Continuous
 62
     3
370
     9
100
AcDbCircle
 10
-1767.863101230396
 20
683.8392432960311
 30
0.0
 40
10.00000012887491
100
AcDbArc
 50
90.0
 51
180.0
  0
ARC
  5
330
330
1F
100
AcDbEntity
  8
0-0
  6
Continuous
 62
     3
370
     9
100
AcDbCircle
 10
-1766.434507414412
 20
682.214305980786
 30
0.0
 40
7.500000096656181
100
AcDbArc
 50
90.0
 51
180.0
  0
ARC
  5
331
330
1F
100
AcDbEntity
  8
0-0
  6
Continuous
 62
     3
370
     9
100
AcDbCircle
 10
-340.4519238787279
 20
683.8392432960311
 30
0.0
 40
10.00000012887491
100
AcDbArc
 50
0.0
 51
90.0
  0
ARC
  5
332
330
1F
100
AcDbEntity
  8
0-0
  6
Continuous
 62
     3
370
     9
100
AcDbCircle
 10
-341.8803939748005
 20
682.214305980786
 30
0.0
 40
7.500000096656181
100
AcDbArc
 50
0.0
 51
90.0
  0
ARC
  5
333
330
1F
100
AcDbEntity
  8
0-0
  6
Continuous
 62
     3
370
     9
100
AcDbCircle
 10
-1767.863101230396
 20
13.18725585937557
 30
0.0
 40
10.00000012887491
100
AcDbArc
 50
180.0
 51
270.0
  0
ARC
  5
334
330
1F
100
AcDbEntity
  8
0-0
  6
Continuous
 62
     3
370
     9
100
AcDbCircle
 10
-1766.434507414412
 20
14.81219317462035
 30
0.0
 40
7.500000096656181
100
AcDbArc
 50
180.0
 51
270.0
  0
ARC
  5
335
330
1F
100
AcDbEntity
  8
0-0
  6
Continuous
 62
     3
370
     9
100
AcDbCircle
 10
-340.4519238787279
 20
13.18725585937557
 30
0.0
 40
10.00000012887491
100
AcDbArc
 50
270.0
 51
0.0
  0
ARC
  5
336
330
1F
100
AcDbEntity
  8
0-0
  6
Continuous
 62
     3
370
     9
100
AcDbCircle
 10
-341.8803939748005
 20
14.81219317462035
 30
0.0
 40
7.500000096656181
100
AcDbArc
 50
270.0
 51
0.0
  0
LINE
  5
337
330
1F
100
AcDbEntity
  8
0-F
  6
Continuous
 62
     7
370
     9
100
AcDbLine
 10
-1805.40764039847
 20
973.5130846178214
 30
0.0
 11
-1775.664383958436
 21
977.4288198110224
 31
0.0
  0
LINE
  5
338
330
1F
100
AcDbEntity
  8
0-F
  6
Continuous
 62
     7
370
     9
100
AcDbLine
 10
-1805.40764039847
 20
973.5130846178214
 30
0.0
 11
-1775.664383958436
 21
969.5973494246203
 31
0.0
  0
LINE
  5
339
330
1F
100
AcDbEntity
  8
0-F
  6
Continuous
 62
     7
370
     9
100
AcDbLine
 10
-1525.664425198407
 20
969.5973494246203
 30
0.0
 11
-1585.151185518297
 21
977.4288198110224
 31
0.0
  0
LINE
  5
33A
330
1F
100
AcDbEntity
  8
0-F
  6
Continuous
 62
     7
370
     9
100
AcDbLine
 10
-1525.664425198407
 20
977.4288198110224
 30
0.0
 11
-1585.151185518297
 21
969.5973494246203
 31
0.0
  0
LINE
  5
33B
330
1F
100
AcDbEntity
  8
0-F
  6
Continuous
 62
     7
370
     9
100
AcDbLine
 10
-25.66442519840678
 20
969.5973494246203
 30
0.0
 11
-85.1509380784745
 21
977.4288198110224
 31
0.0
  0
LINE
  5
33C
330
1F
100
AcDbEntity
  8
0-F
  6
Continuous
 62
     7
370
     9
100
AcDbLine
 10
-25.66442519840678
 20
977.4288198110224
 30
0.0
 11
-85.1509380784745
 21
969.5973494246203
 31
0.0
  0
LINE
  5
33D
330
1F
100
AcDbEntity
  8
0-F
  6
Continuous
 62
     7
370
     9
100
AcDbLine
 10
-1805.40764039847
 20
1073.513167097762
 30
0.0
 11
-1775.664383958436
 21
1077.428902290963
 31
0.0
  0
LINE
  5
33E
330
1F
100
AcDbEntity
  8
0-F
  6
Continuous
 62
     7
370
     9
100
AcDbLine
 10
-1805.40764039847
 20
1073.513167097762
 30
0.0
 11
-1775.664383958436
 21
1069.597431904561
 31
0.0
  0
LINE
  5
33F
330
1F
100
AcDbEntity
  8
0-F
  6
Continuous
 62
     7
370
     9
100
AcDbLine
 10
-1805.40764039847
 20
973.5130846178214
 30
0.0
 11
269.5924008415003
 21
973.5130846178214
 31
0.0
  0
LINE
  5
340
330
1F
100
AcDbEntity
  8
0-F
  6
Continuous
 62
     7
370
     9
100
AcDbLine
 10
-1805.40764039847
 20
1073.513167097762
 30
0.0
 11
269.5924008415003
 21
1073.513167097762
 31
0.0
  0
TEXT
  5
341
330
1F
100
AcDbEntity
  8
0-F
  6
Continuous
 62
     2
370
     9
100
AcDbText
 10
-1711.657749684392
 20
984.1531011138096
 30
0.0
 40
30.48
  1
100
 41
1.083333333333333
  7
ＭＳ ゴシック
100
AcDbText
  0
TEXT
  5
342
330
1F
100
AcDbEntity
  8
0-F
  6
Continuous
 62
     2
370
     9
100
AcDbText
 10
-836.657615654488
 20
984.1531011138096
 30
0.0
 40
30.48
  1
600
 41
1.083333333333333
  7
ＭＳ ゴシック
100
AcDbText
  0
TEXT
  5
343
330
1F
100
AcDbEntity
  8
0-F
  6
Continuous
 62
     2
370
     9
100
AcDbText
 10
204.5924173374885
 20
984.1531011138096
 30
0.0
 40
30.48
  1
600
 41
1.083333333333333
  7
ＭＳ ゴシック
100
AcDbText
  0
TEXT
  5
344
330
1F
100
AcDbEntity
  8
0-F
  6
Continuous
 62
     2
370
     9
100
AcDbText
 10
-485.3635507460737
 20
1084.153183593751
 30
0.0
 40
30.48
  1
2000
 41
1.09375
  7
ＭＳ ゴシック
100
AcDbText
  0
LINE
  5
345
330
1F
100
AcDbEntity
  8
0-F
  6
Continuous
 62
     7
370
     9
100
AcDbLine
 10
-1802.907632150476
 20
-338.4875818201004
 30
0.0
 11
-1773.164375710443
 21
-334.5718466268994
 31
0.0
  0
LINE
  5
346
330
1F
100
AcDbEntity
  8
0-F
  6
Continuous
 62
     7
370
     9
100
AcDbLine
 10
-1802.907632150476
 20
-338.4875818201004
 30
0.0
 11
-1773.164375710443
 21
-342.4033170133015
 31
0.0
  0
LINE
  5
347
330
1F
100
AcDbEntity
  8
0-F
  6
Continuous
 62
     7
370
     9
100
AcDbLine
 10
-305.4075166785589
 20
-338.4875818201004
 30
0.0
 11
-335.1507731185927
 21
-334.5718466268994
 31
0.0
  0
LINE
  5
348
330
1F
100
AcDbEntity
  8
0-F
  6
Continuous
 62
     7
370
     9
100
AcDbLine
 10
-305.4075166785589
 20
-338.4875818201004
 30
0.0
 11
-335.1507731185927
 21
-342.4033170133015
 31
0.0
  0
LINE
  5
349
330
1F
100
AcDbEntity
  8
0-F
  6
Continuous
 62
     7
370
     9
100
AcDbLine
 10
-302.907632150476
 20
-338.4875818201004
 30
0.0
 11
-273.1643757104425
 21
-334.5718466268994
 31
0.0
  0
LINE
  5
34A
330
1F
100
AcDbEntity
  8
0-F
  6
Continuous
 62
     7
370
     9
100
AcDbLine
 10
-302.907632150476
 20
-338.4875818201004
 30
0.0
 11
-273.1643757104425
 21
-342.4033170133015
 31
0.0
  0
LINE
  5
34B
330
1F
100
AcDbEntity
  8
0-F
  6
Continuous
 62
     7
370
     9
100
AcDbLine
 10
-1802.907632150476
 20
-98.98686589421402
 30
0.0
 11
-1802.907632150476
 21
-341.4875422297285
 31
0.0
  0
LINE
  5
34C
330
1F
100
AcDbEntity
  8
0-F
  6
Continuous
 62
     7
370
     9
100
AcDbLine
 10
-305.4075166785589
 20
-98.98686589421402
 30
0.0
 11
-305.4075166785589
 21
-341.4875422297285
 31
0.0
  0
LINE
  5
34D
330
1F
100
AcDbEntity
  8
0-F
  6
Continuous
 62
     7
370
     9
100
AcDbLine
 10
-302.907632150476
 20
-98.98686589421402
 30
0.0
 11
-302.907632150476
 21
-341.4875422297285
 31
0.0
  0
LINE
  5
34E
330
1F
100
AcDbEntity
  8
0-F
  6
Continuous
 62
     7
370
     9
100
AcDbLine
 10
-1802.907632150476
 20
-338.4875818201004
 30
0.0
 11
269.5924008415003
 21
-338.4875818201004
 31
0.0
  0
TEXT
  5
34F
330
1F
100
AcDbEntity
  8
0-F
  6
Continuous
 62
     2
370
     9
100
AcDbText
 10
-1086.657698134429
 20
-327.8475653241122
 30
0.0
 40
30.48
  1
599
 41
1.083333333333333
  7
ＭＳ ゴシック
100
AcDbText
  0
TEXT
  5
350
330
1F
100
AcDbEntity
  8
0-F
  6
Continuous
 62
     2
370
     9
100
AcDbText
 10
-259.3354877709891
 20
-327.8475653241122
 30
0.0
 40
30.48
  1
1
 41
0.9999999999999998
  7
ＭＳ ゴシック
100
AcDbText
  0
TEXT
  5
351
330
1F
100
AcDbEntity
  8
0-F
  6
Continuous
 62
     2
370
     9
100
AcDbText
 10
192.1600508890089
 20
-327.8475653241122
 30
0.0
 40
30.48
  1
599
 41
1.083333333333333
  7
ＭＳ ゴシック
100
AcDbText
  0
LINE
  5
352
330
1F
100
AcDbEntity
  8
0-F
  6
Continuous
 62
     7
370
     9
100
AcDbLine
 10
-1792.9075991585
 20
-238.4874993401598
 30
0.0
 11
-315.4075496705352
 21
-238.4874993401598
 31
0.0
  0
LINE
  5
353
330
1F
100
AcDbEntity
  8
0-F
  6
Continuous
 62
     7
370
     9
100
AcDbLine
 10
-1792.9075991585
 20
-238.4874993401598
 30
0.0
 11
-1763.164342718466
 21
-234.5717641469588
 31
0.0
  0
LINE
  5
354
330
1F
100
AcDbEntity
  8
0-F
  6
Continuous
 62
     7
370
     9
100
AcDbLine
 10
-1792.9075991585
 20
-238.4874993401598
 30
0.0
 11
-1763.164342718466
 21
-242.4032345333609
 31
0.0
  0
LINE
  5
355
330
1F
100
AcDbEntity
  8
0-F
  6
Continuous
 62
     7
370
     9
100
AcDbLine
 10
-315.4075496705352
 20
-238.4874993401598
 30
0.0
 11
-345.150806110569
 21
-234.5717641469588
 31
0.0
  0
LINE
  5
356
330
1F
100
AcDbEntity
  8
0-F
  6
Continuous
 62
     7
370
     9
100
AcDbLine
 10
-315.4075496705352
 20
-238.4874993401598
 30
0.0
 11
-345.150806110569
 21
-242.4032345333609
 31
0.0
  0
LINE
  5
357
330
1F
100
AcDbEntity
  8
0-F
  6
Continuous
 62
     7
370
     9
100
AcDbLine
 10
-1792.9075991585
 20
-98.98686589421402
 30
0.0
 11
-1792.9075991585
 21
-241.4874597497882
 31
0.0
  0
LINE
  5
358
330
1F
100
AcDbEntity
  8
0-F
  6
Continuous
 62
     7
370
     9
100
AcDbLine
 10
-315.4075496705352
 20
-98.98686589421402
 30
0.0
 11
-315.4075496705352
 21
-241.4874597497882
 31
0.0
  0
TEXT
  5
359
330
1F
100
AcDbEntity
  8
0-F
  6
Continuous
 62
     2
370
     9
100
AcDbText
 10
-1086.657698134429
 20
-227.8474828441719
 30
0.0
 40
30.48
  1
591
 41
1.083333333333333
  7
ＭＳ ゴシック
100
AcDbText
  0
LINE
  5
35A
330
1F
100
AcDbEntity
  8
0-1
  6
JWW_CENTER2
 62
     2
370
     9
100
AcDbLine
 10
-1555.40764039847
 20
862.9641915104111
 30
0.0
 11
-1555.40764039847
 21
763.513200973452
 31
0.0
  0
CIRCLE
  5
35B
330
1F
100
AcDbEntity
  8
0-1
  6
Continuous
 62
     2
370
     9
100
AcDbCircle
 10
-1555.40764039847
 20
836.0129190687968
 30
0.0
 40
10.62499913009437
  0
LINE
  5
35C
330
1F
100
AcDbEntity
  8
0-1
  6
JWW_DASHED1
 62
     2
370
     9
100
AcDbLine
 10
-1538.532716692416
 20
788.1482806997411
 30
0.0
 11
-1538.532716692416
 21
861.0130354244274
 31
0.0
  0
LINE
  5
35D
330
1F
100
AcDbEntity
  8
0-1
  6
Continuous
 62
     2
370
     9
100
AcDbLine
 10
-1533.532693421289
 20
788.513069594689
 30
0.0
 11
-1536.657615065346
 21
788.513069594689
 31
0.0
  0
LINE
  5
35E
330
1F
100
AcDbEntity
  8
0-1
  6
JWW_DASHED1
 62
     2
370
     9
100
AcDbLine
 10
-1572.282564104525
 20
788.1482806997411
 30
0.0
 11
-1572.282564104525
 21
861.0130354244274
 31
0.0
  0
LINE
  5
35F
330
1F
100
AcDbEntity
  8
0-1
  6
Continuous
 62
     2
370
     9
100
AcDbLine
 10
-1577.282587375652
 20
788.513069594689
 30
0.0
 11
-1574.157665731595
 21
788.513069594689
 31
0.0
  0
LINE
  5
360
330
1F
100
AcDbEntity
  8
0-1
  6
Continuous
 62
     2
370
     9
100
AcDbLine
 10
-1533.532693421289
 20
788.513069594689
 30
0.0
 11
-1533.532693421289
 21
861.0130354244274
 31
0.0
  0
LINE
  5
361
330
1F
100
AcDbEntity
  8
0-1
  6
Continuous
 62
     2
370
     9
100
AcDbLine
 10
-1555.40764039847
 20
861.0130354244274
 30
0.0
 11
-1533.532693421289
 21
861.0130354244274
 31
0.0
  0
LINE
  5
362
330
1F
100
AcDbEntity
  8
0-1
  6
Continuous
 62
     2
370
     9
100
AcDbLine
 10
-1555.40764039847
 20
861.0130354244274
 30
0.0
 11
-1577.282587375652
 21
861.0130354244274
 31
0.0
  0
LINE
  5
363
330
1F
100
AcDbEntity
  8
0-1
  6
Continuous
 62
     2
370
     9
100
AcDbLine
 10
-1577.282587375652
 20
788.513069594689
 30
0.0
 11
-1577.282587375652
 21
861.0130354244274
 31
0.0
  0
LINE
  5
364
330
1F
100
AcDbEntity
  8
0-1
  6
JWW_CENTER2
 62
     2
370
     9
100
AcDbLine
 10
-1555.40764039847
 20
836.0129190687968
 30
0.0
 11
-1540.967450315197
 21
836.0129190687968
 31
0.0
  0
LINE
  5
365
330
1F
100
AcDbEntity
  8
0-1
  6
JWW_CENTER2
 62
     2
370
     9
100
AcDbLine
 10
-1555.40764039847
 20
836.0129190687968
 30
0.0
 11
-1569.847830481742
 21
836.0129190687968
 31
0.0
  0
ARC
  5
366
330
1F
100
AcDbEntity
  8
0-1
  6
Continuous
 62
     2
370
     9
100
AcDbCircle
 10
-1574.157665731595
 20
783.5130463235629
 30
0.0
 40
4.999999562170514
100
AcDbArc
 50
30.00050960355836
 51
89.99999999999999
  0
ARC
  5
367
330
1F
100
AcDbEntity
  8
0-1
  6
Continuous
 62
     2
370
     9
100
AcDbCircle
 10
-1536.657615065346
 20
783.5130463235629
 30
0.0
 40
4.999999562170514
100
AcDbArc
 50
90.0
 51
149.9994903964416
  0
LINE
  5
368
330
1F
100
AcDbEntity
  8
0-5
  6
Continuous
 62
     7
370
     9
100
AcDbLine
 10
-1550.095140833423
 20
845.214438230646
 30
0.0
 11
-1540.528055024296
 21
868.3114265434281
 31
0.0
  0
LINE
  5
369
330
1F
100
AcDbEntity
  8
0-5
  6
Continuous
 62
     7
370
     9
100
AcDbLine
 10
-1550.095140833423
 20
845.214438230646
 30
0.0
 11
-1534.876105108205
 21
865.048271737927
 31
0.0
  0
LINE
  5
36A
330
1F
100
AcDbEntity
  8
0-5
  6
Continuous
 62
     7
370
     9
100
AcDbLine
 10
-1550.095140833423
 20
845.214438230646
 30
0.0
 11
-1512.693046003075
 21
909.9967667863183
 31
0.0
  0
LINE
  5
36B
330
1F
100
AcDbEntity
  8
0-5
  6
Continuous
 62
     7
370
     9
100
AcDbLine
 10
-1512.693046003075
 20
909.9967667863183
 30
0.0
 11
-1393.233902513077
 21
909.9967667863183
 31
0.0
  0
TEXT
  5
36C
330
1F
100
AcDbEntity
  8
0-5
  6
Continuous
 62
     2
370
     9
100
AcDbText
 10
-1507.963474258076
 20
920.6365358424839
 30
0.0
 40
30.48
  1
φ8.5
 41
1.1
  7
ＭＳ ゴシック
100
AcDbText
  0
CIRCLE
  5
36D
330
1F
100
AcDbEntity
  8
0-1
  6
Continuous
 62
     2
370
     9
100
AcDbCircle
 10
-55.40768163844049
 20
836.0129190687968
 30
0.0
 40
10.62499913009437
  0
LINE
  5
36E
330
1F
100
AcDbEntity
  8
0-1
  6
JWW_DASHED1
 62
     2
370
     9
100
AcDbLine
 10
-38.53275793238581
 20
788.1482806997411
 30
0.0
 11
-38.53275793238581
 21
861.0130354244274
 31
0.0
  0
LINE
  5
36F
330
1F
100
AcDbEntity
  8
0-1
  6
Continuous
 62
     2
370
     9
100
AcDbLine
 10
-33.53273466125856
 20
788.513069594689
 30
0.0
 11
-36.65765630531595
 21
788.513069594689
 31
0.0
  0
LINE
  5
370
330
1F
100
AcDbEntity
  8
0-1
  6
JWW_DASHED1
 62
     2
370
     9
100
AcDbLine
 10
-72.28260534449518
 20
788.1482806997411
 30
0.0
 11
-72.28260534449518
 21
861.0130354244274
 31
0.0
  0
LINE
  5
371
330
1F
100
AcDbEntity
  8
0-1
  6
Continuous
 62
     2
370
     9
100
AcDbLine
 10
-77.28262861562243
 20
788.513069594689
 30
0.0
 11
-74.15770697156503
 21
788.513069594689
 31
0.0
  0
LINE
  5
372
330
1F
100
AcDbEntity
  8
0-1
  6
Continuous
 62
     2
370
     9
100
AcDbLine
 10
-33.53273466125856
 20
788.513069594689
 30
0.0
 11
-33.53273466125856
 21
861.0130354244274
 31
0.0
  0
LINE
  5
373
330
1F
100
AcDbEntity
  8
0-1
  6
Continuous
 62
     2
370
     9
100
AcDbLine
 10
-55.40768163844049
 20
861.0130354244274
 30
0.0
 11
-33.53273466125856
 21
861.0130354244274
 31
0.0
  0
LINE
  5
374
330
1F
100
AcDbEntity
  8
0-1
  6
Continuous
 62
     2
370
     9
100
AcDbLine
 10
-55.40768163844049
 20
861.0130354244274
 30
0.0
 11
-77.28262861562243
 21
861.0130354244274
 31
0.0
  0
LINE
  5
375
330
1F
100
AcDbEntity
  8
0-1
  6
Continuous
 62
     2
370
     9
100
AcDbLine
 10
-77.28262861562243
 20
788.513069594689
 30
0.0
 11
-77.28262861562243
 21
861.0130354244274
 31
0.0
  0
LINE
  5
376
330
1F
100
AcDbEntity
  8
0-1
  6
JWW_CENTER2
 62
     2
370
     9
100
AcDbLine
 10
-55.40768163844049
 20
836.0129190687968
 30
0.0
 11
-40.9674915551669
 21
836.0129190687968
 31
0.0
  0
LINE
  5
377
330
1F
100
AcDbEntity
  8
0-1
  6
JWW_CENTER2
 62
     2
370
     9
100
AcDbLine
 10
-55.40768163844049
 20
836.0129190687968
 30
0.0
 11
-69.84787172171181
 21
836.0129190687968
 31
0.0
  0
ARC
  5
378
330
1F
100
AcDbEntity
  8
0-1
  6
Continuous
 62
     2
370
     9
100
AcDbCircle
 10
-74.15770697156503
 20
783.5130463235629
 30
0.0
 40
4.999999562170514
100
AcDbArc
 50
30.00050960355836
 51
89.99999999999999
  0
ARC
  5
379
330
1F
100
AcDbEntity
  8
0-1
  6
Continuous
 62
     2
370
     9
100
AcDbCircle
 10
-36.65765630531595
 20
783.5130463235629
 30
0.0
 40
4.999999562170514
100
AcDbArc
 50
90.0
 51
149.9994903964416
  0
LINE
  5
37A
330
1F
100
AcDbEntity
  8
0-1
  6
JWW_CENTER2
 62
     2
370
     9
100
AcDbLine
 10
-55.40768163844049
 20
862.9641915104111
 30
0.0
 11
-55.40768163844049
 21
763.513200973452
 31
0.0
  0
LINE
  5
37B
330
1F
100
AcDbEntity
  8
0-F
  6
Continuous
 62
     7
370
     9
100
AcDbLine
 10
-1555.407726126516
 20
880.8629715081344
 30
0.0
 11
-1555.407681638441
 21
976.5130450274498
 31
0.0
  0
LINE
  5
37C
330
1F
100
AcDbEntity
  8
0-F
  6
Continuous
 62
     7
370
     9
100
AcDbLine
 10
-55.40768163844064
 20
880.8629715081344
 30
0.0
 11
-55.40768163844064
 21
976.5130450274498
 31
0.0
  0
ARC
  5
37D
330
1F
100
AcDbEntity
  8
0-1
  6
Continuous
 62
     2
370
     9
100
AcDbCircle
 10
-1536.657615065346
 20
-86.48704204780188
 30
0.0
 40
4.999999562170514
100
AcDbArc
 50
210.0005096035584
 51
270.0
  0
ARC
  5
37E
330
1F
100
AcDbEntity
  8
0-1
  6
Continuous
 62
     2
370
     9
100
AcDbCircle
 10
-1574.157665731595
 20
-86.48704204780188
 30
0.0
 40
4.999999562170514
100
AcDbArc
 50
270.0
 51
329.9994903964416
  0
LINE
  5
37F
330
1F
100
AcDbEntity
  8
0-1
  6
JWW_CENTER2
 62
     2
370
     9
100
AcDbLine
 10
-1555.40764039847
 20
-138.9869147930358
 30
0.0
 11
-1569.847830481742
 21
-138.9869147930358
 31
0.0
  0
LINE
  5
380
330
1F
100
AcDbEntity
  8
0-1
  6
JWW_CENTER2
 62
     2
370
     9
100
AcDbLine
 10
-1555.40764039847
 20
-138.9869147930358
 30
0.0
 11
-1540.967450315197
 21
-138.9869147930358
 31
0.0
  0
LINE
  5
381
330
1F
100
AcDbEntity
  8
0-1
  6
Continuous
 62
     2
370
     9
100
AcDbLine
 10
-1577.282587375652
 20
-91.48706531892799
 30
0.0
 11
-1577.282587375652
 21
-163.9870311486663
 31
0.0
  0
LINE
  5
382
330
1F
100
AcDbEntity
  8
0-1
  6
Continuous
 62
     2
370
     9
100
AcDbLine
 10
-1555.40764039847
 20
-163.9870311486663
 30
0.0
 11
-1577.282587375652
 21
-163.9870311486663
 31
0.0
  0
LINE
  5
383
330
1F
100
AcDbEntity
  8
0-1
  6
Continuous
 62
     2
370
     9
100
AcDbLine
 10
-1555.40764039847
 20
-163.9870311486663
 30
0.0
 11
-1533.532693421289
 21
-163.9870311486663
 31
0.0
  0
LINE
  5
384
330
1F
100
AcDbEntity
  8
0-1
  6
Continuous
 62
     2
370
     9
100
AcDbLine
 10
-1533.532693421289
 20
-91.48706531892799
 30
0.0
 11
-1533.532693421289
 21
-163.9870311486663
 31
0.0
  0
LINE
  5
385
330
1F
100
AcDbEntity
  8
0-1
  6
Continuous
 62
     2
370
     9
100
AcDbLine
 10
-1577.282587375652
 20
-91.48706531892799
 30
0.0
 11
-1574.157665731595
 21
-91.48706531892799
 31
0.0
  0
LINE
  5
386
330
1F
100
AcDbEntity
  8
0-1
  6
JWW_DASHED1
 62
     2
370
     9
100
AcDbLine
 10
-1572.282564104525
 20
-91.12227642398011
 30
0.0
 11
-1572.282564104525
 21
-163.9870311486663
 31
0.0
  0
LINE
  5
387
330
1F
100
AcDbEntity
  8
0-1
  6
Continuous
 62
     2
370
     9
100
AcDbLine
 10
-1533.532693421289
 20
-91.48706531892799
 30
0.0
 11
-1536.657615065346
 21
-91.48706531892799
 31
0.0
  0
LINE
  5
388
330
1F
100
AcDbEntity
  8
0-1
  6
JWW_DASHED1
 62
     2
370
     9
100
AcDbLine
 10
-1538.532716692416
 20
-91.12227642398011
 30
0.0
 11
-1538.532716692416
 21
-163.9870311486663
 31
0.0
  0
CIRCLE
  5
389
330
1F
100
AcDbEntity
  8
0-1
  6
Continuous
 62
     2
370
     9
100
AcDbCircle
 10
-1555.40764039847
 20
-138.9869147930358
 30
0.0
 40
10.62499913009437
  0
LINE
  5
38A
330
1F
100
AcDbEntity
  8
0-1
  6
JWW_CENTER2
 62
     2
370
     9
100
AcDbLine
 10
-1555.40764039847
 20
-165.9381872346501
 30
0.0
 11
-1555.40764039847
 21
-66.48719669769093
 31
0.0
  0
ARC
  5
38B
330
1F
100
AcDbEntity
  8
0-1
  6
Continuous
 62
     2
370
     9
100
AcDbCircle
 10
-36.65765630531595
 20
-86.48704204780188
 30
0.0
 40
4.999999562170514
100
AcDbArc
 50
210.0005096035584
 51
270.0
  0
ARC
  5
38C
330
1F
100
AcDbEntity
  8
0-1
  6
Continuous
 62
     2
370
     9
100
AcDbCircle
 10
-74.15770697156503
 20
-86.48704204780188
 30
0.0
 40
4.999999562170514
100
AcDbArc
 50
270.0
 51
329.9994903964416
  0
LINE
  5
38D
330
1F
100
AcDbEntity
  8
0-1
  6
JWW_CENTER2
 62
     2
370
     9
100
AcDbLine
 10
-55.40768163844049
 20
-138.9869147930358
 30
0.0
 11
-69.84787172171181
 21
-138.9869147930358
 31
0.0
  0
LINE
  5
38E
330
1F
100
AcDbEntity
  8
0-1
  6
JWW_CENTER2
 62
     2
370
     9
100
AcDbLine
 10
-55.40768163844049
 20
-138.9869147930358
 30
0.0
 11
-40.9674915551669
 21
-138.9869147930358
 31
0.0
  0
LINE
  5
38F
330
1F
100
AcDbEntity
  8
0-1
  6
Continuous
 62
     2
370
     9
100
AcDbLine
 10
-77.28262861562243
 20
-91.48706531892799
 30
0.0
 11
-77.28262861562243
 21
-163.9870311486663
 31
0.0
  0
LINE
  5
390
330
1F
100
AcDbEntity
  8
0-1
  6
Continuous
 62
     2
370
     9
100
AcDbLine
 10
-55.40768163844049
 20
-163.9870311486663
 30
0.0
 11
-77.28262861562243
 21
-163.9870311486663
 31
0.0
  0
LINE
  5
391
330
1F
100
AcDbEntity
  8
0-1
  6
Continuous
 62
     2
370
     9
100
AcDbLine
 10
-55.40768163844049
 20
-163.9870311486663
 30
0.0
 11
-33.53273466125856
 21
-163.9870311486663
 31
0.0
  0
LINE
  5
392
330
1F
100
AcDbEntity
  8
0-1
  6
Continuous
 62
     2
370
     9
100
AcDbLine
 10
-33.53273466125856
 20
-91.48706531892799
 30
0.0
 11
-33.53273466125856
 21
-163.9870311486663
 31
0.0
  0
LINE
  5
393
330
1F
100
AcDbEntity
  8
0-1
  6
Continuous
 62
     2
370
     9
100
AcDbLine
 10
-77.28262861562243
 20
-91.48706531892799
 30
0.0
 11
-74.15770697156503
 21
-91.48706531892799
 31
0.0
  0
LINE
  5
394
330
1F
100
AcDbEntity
  8
0-1
  6
JWW_DASHED1
 62
     2
370
     9
100
AcDbLine
 10
-72.28260534449518
 20
-91.12227642398011
 30
0.0
 11
-72.28260534449518
 21
-163.9870311486663
 31
0.0
  0
LINE
  5
395
330
1F
100
AcDbEntity
  8
0-1
  6
Continuous
 62
     2
370
     9
100
AcDbLine
 10
-33.53273466125856
 20
-91.48706531892799
 30
0.0
 11
-36.65765630531595
 21
-91.48706531892799
 31
0.0
  0
LINE
  5
396
330
1F
100
AcDbEntity
  8
0-1
  6
JWW_DASHED1
 62
     2
370
     9
100
AcDbLine
 10
-38.53275793238581
 20
-91.12227642398011
 30
0.0
 11
-38.53275793238581
 21
-163.9870311486663
 31
0.0
  0
CIRCLE
  5
397
330
1F
100
AcDbEntity
  8
0-1
  6
Continuous
 62
     2
370
     9
100
AcDbCircle
 10
-55.40768163844049
 20
-138.9869147930358
 30
0.0
 40
10.62499913009437
  0
LINE
  5
398
330
1F
100
AcDbEntity
  8
0-1
  6
JWW_CENTER2
 62
     2
370
     9
100
AcDbLine
 10
-55.40768163844049
 20
-165.9381872346501
 30
0.0
 11
-55.40768163844049
 21
-66.48719669769093
 31
0.0
  0
TEXT
  5
399
330
1F
100
AcDbEntity
  8
F-5
  6
Continuous
 62
     2
370
     9
100
AcDbText
 10
-773.4070003177658
 20
-1321.122187763459
 30
0.0
 40
30.48
  1
タイル用　充填深さ４０ｍｍ　ステンレス目地　側溝用　カラー舗装用みぞ蓋　
 41
0.7743055555555556
  7
ＭＳ ゴシック
100
AcDbText
  0
TEXT
  5
39A
330
1F
100
AcDbEntity
  8
F-5
  6
Continuous
 62
     2
370
     9
100
AcDbText
 10
-773.4070003177658
 20
-1370.278052102985
 30
0.0
 40
30.48
  1
　　　　　　　　　　　　　ＳＥＭ－２－３５６０（Ｐ＝１０）＋ＴＬ６０Ｐ
 41
0.7742857142857141
  7
ＭＳ ゴシック
100
AcDbText
  0
LINE
  5
39B
330
1F
100
AcDbEntity
  8
0-F
  6
Continuous
 62
     7
370
     9
100
AcDbLine
 10
1179.670888476785
 20
861.0129523553439
 30
0.0
 11
1189.749854772182
 21
889.2690954613408
 31
0.0
  0
LINE
  5
39C
330
1F
100
AcDbEntity
  8
0-F
  6
Continuous
 62
     7
370
     9
100
AcDbLine
 10
1179.670888476785
 20
861.0129523553439
 30
0.0
 11
1196.719739696169
 21
885.6980439410705
 31
0.0
  0
LINE
  5
39D
330
1F
100
AcDbEntity
  8
0-E
  6
Continuous
 62
     7
370
     9
100
AcDbLine
 10
1233.063887505552
 20
965.2119734480578
 30
0.0
 11
1179.670888476785
 21
861.0129523553439
 31
0.0
  0
TEXT
  5
39E
330
1F
100
AcDbEntity
  8
0-E
  6
Continuous
 62
     7
370
     9
100
AcDbText
 10
1242.082493993697
 20
932.3933036845443
 30
0.0
 40
22.86
  1
ＳＥＣＣ
 41
1.124999999999998
  7
ＭＳ ゴシック
100
AcDbText
  0
LINE
  5
39F
330
1F
100
AcDbEntity
  8
0-E
  6
Continuous
 62
     7
370
     9
100
AcDbLine
 10
1233.063887505552
 20
965.2119734480578
 30
0.0
 11
1646.197883190803
 21
965.2119734480578
 31
0.0
  0
TEXT
  5
3A0
330
1F
100
AcDbEntity
  8
0-E
  6
Continuous
 62
     7
370
     9
100
AcDbText
 10
1242.562502505626
 20
983.0647728832349
 30
0.0
 40
22.86
  1
回転アンカー：ｔ＝２.０
 41
1.152173913043478
  7
ＭＳ ゴシック
100
AcDbText
  0
TEXT
  5
3A1
330
1F
100
AcDbEntity
  8
0-5
  6
Continuous
 62
     7
370
     9
100
AcDbText
 10
1242.562502505626
 20
1044.551147888518
 30
0.0
 40
22.86
  1
境界部・壁際用として使用できます
 41
1.15625
  7
ＭＳ ゴシック
100
AcDbText
  0
TEXT
  5
3A2
330
1F
100
AcDbEntity
  8
0-5
  6
Continuous
 62
     7
370
     9
100
AcDbText
 10
1242.562502505626
 20
1082.502565374939
 30
0.0
 40
22.86
  1
アンカーを回転・変形させることで
 41
1.15625
  7
ＭＳ ゴシック
100
AcDbText
  0
TEXT
  5
3A3
330
1F
100
AcDbEntity
  8
0-5
  6
Continuous
 62
     7
370
     9
100
AcDbText
 10
1207.562502505625
 20
1082.502565374939
 30
0.0
 40
22.86
  1
※
  7
ＭＳ ゴシック
100
AcDbText
  0
ENDSEC
  0
SECTION
  2
OBJECTS
  0
DICTIONARY
  5
C
330
0
100
AcDbDictionary
281
     1
  3
ACAD_GROUP
350
D
  3
ACAD_LAYOUT
350
1A
  3
ACAD_MLEADERSTYLE
350
3A5
  3
ACAD_MLINESTYLE
350
17
  3
ACAD_PLOTSETTINGS
350
19
  3
ACAD_PLOTSTYLENAME
350
E
  3
ACAD_TABLESTYLE
350
3A4
  3
ACAD_VISUALSTYLE
350
2A
  3
AcDbVariableDictionary
350
3A6
  0
DICTIONARY
  5
D
102
{ACAD_REACTORS
330
C
102
}
330
C
100
AcDbDictionary
281
     1
  0
DICTIONARY
  5
1A
102
{ACAD_REACTORS
330
C
102
}
330
C
100
AcDbDictionary
281
     1
  3
Layout1
350
1E
  3
Layout2
350
26
  3
Model
350
22
  0
DICTIONARY
  5
3A5
102
{ACAD_REACTORS
330
C
102
}
330
C
100
AcDbDictionary
281
     1
  0
DICTIONARY
  5
17
102
{ACAD_REACTORS
330
C
102
}
330
C
100
AcDbDictionary
281
     1
  3
Standard
350
18
  0
DICTIONARY
  5
19
102
{ACAD_REACTORS
330
C
102
}
330
C
100
AcDbDictionary
281
     1
  0
ACDBDICTIONARYWDFLT
  5
E
102
{ACAD_REACTORS
330
C
102
}
330
C
100
AcDbDictionary
281
     1
  3
Normal
350
F
100
AcDbDictionaryWithDefault
340
F
  0
DICTIONARY
  5
3A4
102
{ACAD_REACTORS
330
C
102
}
330
C
100
AcDbDictionary
281
     1
  0
DICTIONARY
  5
2A
102
{ACAD_REACTORS
330
C
102
}
330
C
100
AcDbDictionary
281
     1
  3
2dWireframe
350
2F
  3
3D Hidden
350
31
  3
3dWireframe
350
30
  3
Basic
350
32
  3
Brighten
350
36
  3
ColorChange
350
3A
  3
Conceptual
350
34
  3
Dim
350
35
  3
Facepattern
350
39
  3
Flat
350
2B
  3
FlatWithEdges
350
2C
  3
Gouraud
350
2D
  3
GouraudWithEdges
350
2E
  3
Linepattern
350
38
  3
Realistic
350
33
  3
Thicken
350
37
  0
DICTIONARY
  5
3A6
102
{ACAD_REACTORS
330
C
102
}
330
C
100
AcDbDictionary
281
     1
  3
PSOLHEIGHT
350
3A8
  3
PSOLWIDTH
350
3A7
  0
LAYOUT
  5
1E
102
{ACAD_REACTORS
330
1A
102
}
102
{ACAD_XDICTIONARY
360
3A9
102
}
330
1A
100
AcDbPlotSettings
  1

  2
none_device
  4

  6

 40
0.0
 41
0.0
 42
0.0
 43
0.0
 44
0.0
 45
0.0
 46
0.0
 47
0.0
 48
0.0
 49
0.0
140
0.0
141
0.0
142
1.0
143
1.0
 70
   688
 72
     0
 73
     0
 74
     5
  7

 75
    16
147
1.0
148
0.0
149
0.0
100
AcDbLayout
  1
Layout1
 70
     1
 71
     1
 10
0.0
 20
0.0
 11
420.0
 21
297.0
 12
0.0
 22
0.0
 32
0.0
 14
1.000000000000000E+20
 24
1.000000000000000E+20
 34
1.000000000000000E+20
 15
-1.000000000000000E+20
 25
-1.000000000000000E+20
 35
-1.000000000000000E+20
146
0.0
 13
0.0
 23
0.0
 33
0.0
 16
1.0
 26
0.0
 36
0.0
 17
0.0
 27
1.0
 37
0.0
 76
     0
330
1B
  0
LAYOUT
  5
26
102
{ACAD_REACTORS
330
1A
102
}
102
{ACAD_XDICTIONARY
360
3AD
102
}
330
1A
100
AcDbPlotSettings
  1

  2
none_device
  4

  6

 40
0.0
 41
0.0
 42
0.0
 43
0.0
 44
0.0
 45
0.0
 46
0.0
 47
0.0
 48
0.0
 49
0.0
140
0.0
141
0.0
142
1.0
143
1.0
 70
   688
 72
     0
 73
     0
 74
     5
  7

 75
    16
147
1.0
148
0.0
149
0.0
100
AcDbLayout
  1
Layout2
 70
     1
 71
     2
 10
0.0
 20
0.0
 11
0.0
 21
0.0
 12
0.0
 22
0.0
 32
0.0
 14
0.0
 24
0.0
 34
0.0
 15
0.0
 25
0.0
 35
0.0
146
0.0
 13
0.0
 23
0.0
 33
0.0
 16
1.0
 26
0.0
 36
0.0
 17
0.0
 27
1.0
 37
0.0
 76
     0
330
23
  0
LAYOUT
  5
22
102
{ACAD_REACTORS
330
1A
102
}
102
{ACAD_XDICTIONARY
360
3AB
102
}
330
1A
100
AcDbPlotSettings
  1

  2
none_device
  4

  6

 40
0.0
 41
0.0
 42
0.0
 43
0.0
 44
0.0
 45
0.0
 46
0.0
 47
0.0
 48
0.0
 49
0.0
140
0.0
141
0.0
142
1.0
143
1.0
 70
  1712
 72
     0
 73
     0
 74
     0
  7

 75
     0
147
1.0
148
0.0
149
0.0
100
AcDbLayout
  1
Model
 70
     1
 71
     0
 10
-2100.0
 20
-1485.0
 11
2100.0
 21
1485.0
 12
0.0
 22
0.0
 32
0.0
 14
-2100.0
 24
-1485.0
 34
0.0
 15
2100.0
 25
1485.0
 35
0.0
146
0.0
 13
0.0
 23
0.0
 33
0.0
 16
1.0
 26
0.0
 36
0.0
 17
0.0
 27
1.0
 37
0.0
 76
     0
330
1F
331
29
  0
MLINESTYLE
  5
18
102
{ACAD_REACTORS
330
17
102
}
330
17
100
AcDbMlineStyle
  2
Standard
 70
     0
  3

 62
   256
 51
90.0
 52
90.0
 71
     2
 49
0.5
 62
   256
  6
BYLAYER
 49
-0.5
 62
   256
  6
BYLAYER
  0
ACDBPLACEHOLDER
  5
F
102
{ACAD_REACTORS
330
E
102
}
330
E
  0
VISUALSTYLE
  5
2F
102
{ACAD_REACTORS
330
2A
102
}
330
2A
100
AcDbVisualStyle
  2
2dWireframe
 70
     4
 71
     0
 72
     2
 73
     0
 90
        0
 40
-0.6
 41
-30.0
 62
     5
 63
     7
 74
     1
 91
        4
 64
     7
 65
   257
 75
     1
175
     1
 42
1.0
 92
        0
 66
   257
 43
1.0
 76
     1
 77
     6
 78
     2
 67
     7
 79
     5
170
     0
171
     0
290
     0
174
     0
 93
        1
 44
0.0
173
     0
291
     0
 45
0.0
1001
ACAD
1000
AcDbSavedByObjectVersion
1070
     0
  0
VISUALSTYLE
  5
31
102
{ACAD_REACTORS
330
2A
102
}
330
2A
100
AcDbVisualStyle
  2
3D Hidden
 70
     6
 71
     1
 72
     2
 73
     2
 90
        0
 40
-0.6
 41
-30.0
 62
     5
 63
     7
 74
     2
 91
        2
 64
     7
 65
   257
 75
     2
175
     1
 42
40.0
 92
        0
 66
   257
 43
1.0
 76
     1
 77
     6
 78
     2
 67
     7
 79
     3
170
     0
171
     0
290
     0
174
     0
 93
        1
 44
0.0
173
     0
291
     0
 45
0.0
1001
ACAD
1000
AcDbSavedByObjectVersion
1070
     0
  0
VISUALSTYLE
  5
30
102
{ACAD_REACTORS
330
2A
102
}
330
2A
100
AcDbVisualStyle
  2
3dWireframe
 70
     5
 71
     0
 72
     2
 73
     0
 90
        0
 40
-0.6
 41
-30.0
 62
     5
 63
     7
 74
     1
 91
        4
 64
     7
 65
   257
 75
     1
175
     1
 42
1.0
 92
        0
 66
   257
 43
1.0
 76
     1
 77
     6
 78
     2
 67
     7
 79
     5
170
     0
171
     0
290
     0
174
     0
 93
        1
 44
0.0
173
     0
291
     0
 45
0.0
1001
ACAD
1000
AcDbSavedByObjectVersion
1070
     0
  0
VISUALSTYLE
  5
32
102
{ACAD_REACTORS
330
2A
102
}
330
2A
100
AcDbVisualStyle
  2
Basic
 70
     7
 71
     1
 72
     0
 73
     1
 90
        0
 40
-0.6
 41
-30.0
 62
     5
 63
     7
 74
     0
 91
        4
 64
     7
 65
   257
 75
     1
175
     1
 42
1.0
 92
        8
 66
     7
 43
1.0
 76
     1
 77
     6
 78
     2
 67
     7
 79
     5
170
     0
171
     0
290
     0
174
     0
 93
        1
 44
0.0
173
     0
291
     1
 45
0.0
1001
ACAD
1000
AcDbSavedByObjectVersion
1070
     0
  0
VISUALSTYLE
  5
36
102
{ACAD_REACTORS
330
2A
102
}
330
2A
100
AcDbVisualStyle
  2
Brighten
 70
    12
 71
     2
 72
     2
 73
     0
 90
        0
 40
-0.6
 41
-30.0
 62
     5
 63
     7
 74
     1
 91
        4
 64
     7
 65
   257
 75
     1
175
     1
 42
1.0
 92
        8
 66
     7
 43
1.0
 76
     1
 77
     6
 78
     2
 67
     7
 79
     5
170
     0
171
     0
290
     0
174
     0
 93
        1
 44
50.0
173
     0
291
     1
 45
0.0
1001
ACAD
1000
AcDbSavedByObjectVersion
1070
     0
  0
VISUALSTYLE
  5
3A
102
{ACAD_REACTORS
330
2A
102
}
330
2A
100
AcDbVisualStyle
  2
ColorChange
 70
    16
 71
     2
 72
     2
 73
     3
 90
        0
 40
-0.6
 41
-30.0
 62
     5
 63
     8
 74
     1
 91
        4
 64
     7
 65
   257
 75
     1
175
     1
 42
1.0
 92
        8
 66
     8
 43
1.0
 76
     1
 77
     6
 78
     2
 67
     7
 79
     5
170
     0
171
     0
290
     0
174
     0
 93
        1
 44
0.0
173
     0
291
     1
 45
0.0
1001
ACAD
1000
AcDbSavedByObjectVersion
1070
     0
  0
VISUALSTYLE
  5
34
102
{ACAD_REACTORS
330
2A
102
}
330
2A
100
AcDbVisualStyle
  2
Conceptual
 70
     9
 71
     3
 72
     2
 73
     0
 90
        0
 40
-0.6
 41
-30.0
 62
     5
 63
     7
 74
     2
 91
        2
 64
     7
 65
   257
 75
     1
175
     1
 42
40.0
 92
        8
 66
     7
 43
1.0
 76
     1
 77
     6
 78
     2
 67
     7
 79
     3
170
     0
171
     0
290
     0
174
     0
 93
        1
 44
0.0
173
     0
291
     0
 45
0.0
1001
ACAD
1000
AcDbSavedByObjectVersion
1070
     0
  0
VISUALSTYLE
  5
35
102
{ACAD_REACTORS
330
2A
102
}
330
2A
100
AcDbVisualStyle
  2
Dim
 70
    11
 71
     2
 72
     2
 73
     0
 90
        0
 40
-0.6
 41
-30.0
 62
     5
 63
     7
 74
     1
 91
        4
 64
     7
 65
   257
 75
     1
175
     1
 42
1.0
 92
        8
 66
     7
 43
1.0
 76
     1
 77
     6
 78
     2
 67
     7
 79
     5
170
     0
171
     0
290
     0
174
     0
 93
        1
 44
-50.0
173
     0
291
     1
 45
0.0
1001
ACAD
1000
AcDbSavedByObjectVersion
1070
     0
  0
VISUALSTYLE
  5
39
102
{ACAD_REACTORS
330
2A
102
}
330
2A
100
AcDbVisualStyle
  2
Facepattern
 70
    15
 71
     2
 72
     2
 73
     0
 90
        0
 40
-0.6
 41
-30.0
 62
     5
 63
     7
 74
     1
 91
        4
 64
     7
 65
   257
 75
     1
175
     1
 42
1.0
 92
        8
 66
     7
 43
1.0
 76
     1
 77
     6
 78
     2
 67
     7
 79
     5
170
     0
171
     0
290
     0
174
     0
 93
        1
 44
0.0
173
     0
291
     1
 45
0.0
1001
ACAD
1000
AcDbSavedByObjectVersion
1070
     0
  0
VISUALSTYLE
  5
2B
102
{ACAD_REACTORS
330
2A
102
}
330
2A
100
AcDbVisualStyle
  2
Flat
 70
     0
 71
     2
 72
     1
 73
     1
 90
        2
 40
-0.6
 41
30.0
 62
     5
 63
     7
 74
     0
 91
        4
 64
     7
 65
   257
 75
     1
175
     1
 42
1.0
 92
        8
 66
     7
 43
1.0
 76
     1
 77
     6
 78
     2
 67
     7
 79
     5
170
     0
171
     0
290
     0
174
     0
 93
       13
 44
0.0
173
     0
291
     1
 45
0.0
1001
ACAD
1000
AcDbSavedByObjectVersion
1070
     0
  0
VISUALSTYLE
  5
2C
102
{ACAD_REACTORS
330
2A
102
}
330
2A
100
AcDbVisualStyle
  2
FlatWithEdges
 70
     1
 71
     2
 72
     1
 73
     1
 90
        2
 40
-0.6
 41
30.0
 62
     5
 63
     7
 74
     1
 91
        4
 64
     7
 65
   257
 75
     1
175
     1
 42
1.0
 92
        0
 66
   257
 43
1.0
 76
     1
 77
     6
 78
     2
 67
     7
 79
     5
170
     0
171
     0
290
     0
174
     0
 93
       13
 44
0.0
173
     0
291
     1
 45
0.0
1001
ACAD
1000
AcDbSavedByObjectVersion
1070
     0
  0
VISUALSTYLE
  5
2D
102
{ACAD_REACTORS
330
2A
102
}
330
2A
100
AcDbVisualStyle
  2
Gouraud
 70
     2
 71
     2
 72
     2
 73
     1
 90
        2
 40
-0.6
 41
30.0
 62
     5
 63
     7
 74
     0
 91
        4
 64
     7
 65
   257
 75
     1
175
     1
 42
1.0
 92
        0
 66
     7
 43
1.0
 76
     1
 77
     6
 78
     2
 67
     7
 79
     5
170
     0
171
     0
290
     0
174
     0
 93
       13
 44
0.0
173
     0
291
     1
 45
0.0
1001
ACAD
1000
AcDbSavedByObjectVersion
1070
     0
  0
VISUALSTYLE
  5
2E
102
{ACAD_REACTORS
330
2A
102
}
330
2A
100
AcDbVisualStyle
  2
GouraudWithEdges
 70
     3
 71
     2
 72
     2
 73
     1
 90
        2
 40
-0.6
 41
30.0
 62
     5
 63
     7
 74
     1
 91
        4
 64
     7
 65
   257
 75
     1
175
     1
 42
1.0
 92
        0
 66
   257
 43
1.0
 76
     1
 77
     6
 78
     2
 67
     7
 79
     5
170
     0
171
     0
290
     0
174
     0
 93
       13
 44
0.0
173
     0
291
     1
 45
0.0
1001
ACAD
1000
AcDbSavedByObjectVersion
1070
     0
  0
VISUALSTYLE
  5
38
102
{ACAD_REACTORS
330
2A
102
}
330
2A
100
AcDbVisualStyle
  2
Linepattern
 70
    14
 71
     2
 72
     2
 73
     0
 90
        0
 40
-0.6
 41
-30.0
 62
     5
 63
     7
 74
     1
 91
        4
 64
     7
 65
   257
 75
     7
175
     7
 42
1.0
 92
        8
 66
     7
 43
1.0
 76
     1
 77
     6
 78
     2
 67
     7
 79
     5
170
     0
171
     0
290
     0
174
     0
 93
        1
 44
0.0
173
     0
291
     1
 45
0.0
1001
ACAD
1000
AcDbSavedByObjectVersion
1070
     0
  0
VISUALSTYLE
  5
33
102
{ACAD_REACTORS
330
2A
102
}
330
2A
100
AcDbVisualStyle
  2
Realistic
 70
     8
 71
     2
 72
     2
 73
     0
 90
        0
 40
-0.6
 41
-30.0
 62
     5
 63
     7
 74
     1
 91
        0
 64
     7
 65
   257
 75
     1
175
     1
 42
1.0
 92
        8
 66
     8
 43
1.0
 76
     1
 77
     6
 78
     2
 67
     7
 79
     5
170
     0
171
     0
290
     0
174
     0
 93
       13
 44
0.0
173
     0
291
     0
 45
0.0
1001
ACAD
1000
AcDbSavedByObjectVersion
1070
     0
  0
VISUALSTYLE
  5
37
102
{ACAD_REACTORS
330
2A
102
}
330
2A
100
AcDbVisualStyle
  2
Thicken
 70
    13
 71
     2
 72
     2
 73
     0
 90
        0
 40
-0.6
 41
-30.0
 62
     5
 63
     7
 74
     1
 91
        4
 64
     7
 65
   257
 75
     1
175
     1
 42
1.0
 92
       12
 66
     7
 43
1.0
 76
     1
 77
     6
 78
     2
 67
     7
 79
     5
170
     0
171
     0
290
     0
174
     0
 93
        1
 44
0.0
173
     0
291
     1
 45
0.0
1001
ACAD
1000
AcDbSavedByObjectVersion
1070
     0
  0
DICTIONARYVAR
  5
3A8
102
{ACAD_REACTORS
330
3A6
102
}
330
3A6
100
DictionaryVariables
280
     0
  1
80.000000
  0
DICTIONARYVAR
  5
3A7
102
{ACAD_REACTORS
330
3A6
102
}
330
3A6
100
DictionaryVariables
280
     0
  1
5.000000
  0
DICTIONARY
  5
3A9
330
1E
100
AcDbDictionary
280
     1
281
     1
  3
ACAD_XREC_ROUNDTRIP
360
3AA
  0
DICTIONARY
  5
3AD
330
26
100
AcDbDictionary
280
     1
281
     1
  3
ACAD_XREC_ROUNDTRIP
360
3AE
  0
DICTIONARY
  5
3AB
330
22
100
AcDbDictionary
280
     1
281
     1
  3
ACAD_XREC_ROUNDTRIP
360
3AC
  0
XRECORD
  5
3AA
102
{ACAD_REACTORS
330
3A9
102
}
330
3A9
100
AcDbXrecord
280
     1
102
SHADEPLOT
 70
     0
102
SHADEPLOTRESLEVEL
 70
     5
102
SHADEPLOTCUSTOMDPI
 70
   300
  0
XRECORD
  5
3AE
102
{ACAD_REACTORS
330
3AD
102
}
330
3AD
100
AcDbXrecord
280
     1
102
SHADEPLOT
 70
     0
102
SHADEPLOTRESLEVEL
 70
     5
102
SHADEPLOTCUSTOMDPI
 70
   300
  0
XRECORD
  5
3AC
102
{ACAD_REACTORS
330
3AB
102
}
330
3AB
100
AcDbXrecord
280
     1
102
SHADEPLOT
 70
     0
102
SHADEPLOTRESLEVEL
 70
     5
102
SHADEPLOTCUSTOMDPI
 70
   300
  0
ENDSEC
  0
EOF
