  0
SECTION
  2
HEADER
  9
$ACADVER
  1
AC1018
  9
$ACADMAINTVER
 70
     0
  9
$DWGCODEPAGE
  3
ANSI_932
  9
$INSBASE
 10
0.0
 20
0.0
 30
0.0
  9
$EXTMIN
 10
-840.0
 20
-594.0
 30
0.0
  9
$EXTMAX
 10
840.0
 20
594.0
 30
0.0
  9
$LIMMIN
 10
-840.0
 20
-594.0
  9
$LIMMAX
 10
840.0
 20
594.0
  9
$ORTHOMODE
 70
     0
  9
$REGENMODE
 70
     1
  9
$FILLMODE
 70
     1
  9
$QTEXTMODE
 70
     0
  9
$MIRRTEXT
 70
     1
  9
$LTSCALE
 40
4.0
  9
$ATTMODE
 70
     1
  9
$TEXTSIZE
 40
2.5
  9
$TRACEWID
 40
1.0
  9
$TEXTSTYLE
  7
Standard
  9
$CLAYER
  8
0
  9
$CELTYPE
  6
ByLayer
  9
$CECOLOR
 62
   256
  9
$CELTSCALE
 40
1.0
  9
$DISPSILH
 70
     0
  9
$DIMSCALE
 40
1.0
  9
$DIMASZ
 40
2.5
  9
$DIMEXO
 40
0.625
  9
$DIMDLI
 40
3.75
  9
$DIMRND
 40
0.0
  9
$DIMDLE
 40
0.0
  9
$DIMEXE
 40
1.25
  9
$DIMTP
 40
0.0
  9
$DIMTM
 40
0.0
  9
$DIMTXT
 40
2.5
  9
$DIMCEN
 40
2.5
  9
$DIMTSZ
 40
0.0
  9
$DIMTOL
 70
     0
  9
$DIMLIM
 70
     0
  9
$DIMTIH
 70
     0
  9
$DIMTOH
 70
     0
  9
$DIMSE1
 70
     0
  9
$DIMSE2
 70
     0
  9
$DIMTAD
 70
     1
  9
$DIMZIN
 70
     8
  9
$DIMBLK
  1

  9
$DIMASO
 70
     1
  9
$DIMSHO
 70
     1
  9
$DIMPOST
  1

  9
$DIMAPOST
  1

  9
$DIMALT
 70
     0
  9
$DIMALTD
 70
     3
  9
$DIMALTF
 40
0.03937007874016
  9
$DIMLFAC
 40
1.0
  9
$DIMTOFL
 70
     1
  9
$DIMTVP
 40
0.0
  9
$DIMTIX
 70
     0
  9
$DIMSOXD
 70
     0
  9
$DIMSAH
 70
     0
  9
$DIMBLK1
  1

  9
$DIMBLK2
  1

  9
$DIMSTYLE
  2
ISO-25
  9
$DIMCLRD
 70
     0
  9
$DIMCLRE
 70
     0
  9
$DIMCLRT
 70
     0
  9
$DIMTFAC
 40
1.0
  9
$DIMGAP
 40
0.625
  9
$DIMJUST
 70
     0
  9
$DIMSD1
 70
     0
  9
$DIMSD2
 70
     0
  9
$DIMTOLJ
 70
     0
  9
$DIMTZIN
 70
     8
  9
$DIMALTZ
 70
     0
  9
$DIMALTTZ
 70
     0
  9
$DIMUPT
 70
     0
  9
$DIMDEC
 70
     2
  9
$DIMTDEC
 70
     2
  9
$DIMALTU
 70
     2
  9
$DIMALTTD
 70
     3
  9
$DIMTXSTY
  7
Standard
  9
$DIMAUNIT
 70
     0
  9
$DIMADEC
 70
     0
  9
$DIMALTRND
 40
0.0
  9
$DIMAZIN
 70
     0
  9
$DIMDSEP
 70
    44
  9
$DIMATFIT
 70
     3
  9
$DIMFRAC
 70
     0
  9
$DIMLDRBLK
  1

  9
$DIMLUNIT
 70
     2
  9
$DIMLWD
 70
    -2
  9
$DIMLWE
 70
    -2
  9
$DIMTMOVE
 70
     0
  9
$LUNITS
 70
     2
  9
$LUPREC
 70
     4
  9
$SKETCHINC
 40
1.0
  9
$FILLETRAD
 40
10.0
  9
$AUNITS
 70
     0
  9
$AUPREC
 70
     0
  9
$MENU
  1
.
  9
$ELEVATION
 40
0.0
  9
$PELEVATION
 40
0.0
  9
$THICKNESS
 40
0.0
  9
$LIMCHECK
 70
     0
  9
$CHAMFERA
 40
10.0
  9
$CHAMFERB
 40
10.0
  9
$CHAMFERC
 40
20.0
  9
$CHAMFERD
 40
0.0
  9
$SKPOLY
 70
     0
  9
$TDCREATE
 40
2457518.437578669
  9
$TDUCREATE
 40
2457518.062578669
  9
$TDUPDATE
 40
2457518.43757868
  9
$TDUUPDATE
 40
2457518.06257868
  9
$TDINDWG
 40
0.0000000116
  9
$TDUSRTIMER
 40
0.0000000116
  9
$USRTIMER
 70
     1
  9
$ANGBASE
 50
0.0
  9
$ANGDIR
 70
     0
  9
$PDMODE
 70
     0
  9
$PDSIZE
 40
0.0
  9
$PLINEWID
 40
0.0
  9
$SPLFRAME
 70
     0
  9
$SPLINETYPE
 70
     6
  9
$SPLINESEGS
 70
     8
  9
$HANDSEED
  5
385
  9
$SURFTAB1
 70
     6
  9
$SURFTAB2
 70
     6
  9
$SURFTYPE
 70
     6
  9
$SURFU
 70
     6
  9
$SURFV
 70
     6
  9
$UCSBASE
  2

  9
$UCSNAME
  2

  9
$UCSORG
 10
0.0
 20
0.0
 30
0.0
  9
$UCSXDIR
 10
1.0
 20
0.0
 30
0.0
  9
$UCSYDIR
 10
0.0
 20
1.0
 30
0.0
  9
$UCSORTHOREF
  2

  9
$UCSORTHOVIEW
 70
     0
  9
$UCSORGTOP
 10
0.0
 20
0.0
 30
0.0
  9
$UCSORGBOTTOM
 10
0.0
 20
0.0
 30
0.0
  9
$UCSORGLEFT
 10
0.0
 20
0.0
 30
0.0
  9
$UCSORGRIGHT
 10
0.0
 20
0.0
 30
0.0
  9
$UCSORGFRONT
 10
0.0
 20
0.0
 30
0.0
  9
$UCSORGBACK
 10
0.0
 20
0.0
 30
0.0
  9
$PUCSBASE
  2

  9
$PUCSNAME
  2

  9
$PUCSORG
 10
0.0
 20
0.0
 30
0.0
  9
$PUCSXDIR
 10
1.0
 20
0.0
 30
0.0
  9
$PUCSYDIR
 10
0.0
 20
1.0
 30
0.0
  9
$PUCSORTHOREF
  2

  9
$PUCSORTHOVIEW
 70
     0
  9
$PUCSORGTOP
 10
0.0
 20
0.0
 30
0.0
  9
$PUCSORGBOTTOM
 10
0.0
 20
0.0
 30
0.0
  9
$PUCSORGLEFT
 10
0.0
 20
0.0
 30
0.0
  9
$PUCSORGRIGHT
 10
0.0
 20
0.0
 30
0.0
  9
$PUCSORGFRONT
 10
0.0
 20
0.0
 30
0.0
  9
$PUCSORGBACK
 10
0.0
 20
0.0
 30
0.0
  9
$USERI1
 70
     0
  9
$USERI2
 70
     0
  9
$USERI3
 70
     0
  9
$USERI4
 70
     0
  9
$USERI5
 70
     0
  9
$USERR1
 40
0.0
  9
$USERR2
 40
0.0
  9
$USERR3
 40
0.0
  9
$USERR4
 40
0.0
  9
$USERR5
 40
0.0
  9
$WORLDVIEW
 70
     1
  9
$SHADEDGE
 70
     3
  9
$SHADEDIF
 70
    70
  9
$TILEMODE
 70
     1
  9
$MAXACTVP
 70
    64
  9
$PINSBASE
 10
0.0
 20
0.0
 30
0.0
  9
$PLIMCHECK
 70
     0
  9
$PEXTMIN
 10
1.000000000000000E+20
 20
1.000000000000000E+20
 30
1.000000000000000E+20
  9
$PEXTMAX
 10
-1.000000000000000E+20
 20
-1.000000000000000E+20
 30
-1.000000000000000E+20
  9
$PLIMMIN
 10
0.0
 20
0.0
  9
$PLIMMAX
 10
420.0
 20
297.0
  9
$UNITMODE
 70
     0
  9
$VISRETAIN
 70
     1
  9
$PLINEGEN
 70
     0
  9
$PSLTSCALE
 70
     1
  9
$TREEDEPTH
 70
  3020
  9
$CMLSTYLE
  2
Standard
  9
$CMLJUST
 70
     0
  9
$CMLSCALE
 40
20.0
  9
$PROXYGRAPHICS
 70
     1
  9
$MEASUREMENT
 70
     1
  9
$CELWEIGHT
370
    -1
  9
$ENDCAPS
280
     0
  9
$JOINSTYLE
280
     0
  9
$LWDISPLAY
290
     0
  9
$INSUNITS
 70
     4
  9
$HYPERLINKBASE
  1

  9
$STYLESHEET
  1

  9
$XEDIT
290
     1
  9
$CEPSNTYPE
380
     0
  9
$PSTYLEMODE
290
     1
  9
$FINGERPRINTGUID
  2
{C39116C7-311D-4F2E-B9D7-FECED883DCD9}
  9
$VERSIONGUID
  2
{FAEB1C32-E019-11D5-929B-00C0DF256EC4}
  9
$EXTNAMES
290
     1
  9
$PSVPSCALE
 40
0.0
  9
$OLESTARTUP
290
     0
  9
$SORTENTS
280
   127
  9
$INDEXCTL
280
     0
  9
$HIDETEXT
280
     1
  9
$XCLIPFRAME
290
     0
  9
$HALOGAP
280
     0
  9
$OBSCOLOR
 70
   257
  9
$OBSLTYPE
280
     0
  9
$INTERSECTIONDISPLAY
280
     0
  9
$INTERSECTIONCOLOR
 70
   257
  9
$DIMASSOC
280
     2
  9
$PROJECTNAME
  1

  0
ENDSEC
  0
SECTION
  2
CLASSES
  0
CLASS
  1
ACDBDICTIONARYWDFLT
  2
AcDbDictionaryWithDefault
  3
ObjectDBX Classes
 90
        0
 91
        4
280
     0
281
     0
  0
CLASS
  1
VISUALSTYLE
  2
AcDbVisualStyle
  3
ObjectDBX Classes
 90
     4095
 91
        4
280
     0
281
     0
  0
ENDSEC
  0
SECTION
  2
TABLES
  0
TABLE
  2
VPORT
  5
8
330
0
100
AcDbSymbolTable
 70
     1
  0
VPORT
  5
29
330
8
100
AcDbSymbolTableRecord
100
AcDbViewportTableRecord
  2
*Active
 70
     0
 10
0.0
 20
0.0
 11
1.0
 21
1.0
 12
0.0
 22
0.0
 13
0.0
 23
0.0
 14
10.0
 24
10.0
 15
10.0
 25
10.0
 16
0.0
 26
0.0
 36
1.0
 17
0.0
 27
0.0
 37
0.0
 40
1306.8
 41
1.414141414141414
 42
50.0
 43
0.0
 44
0.0
 50
0.0
 51
0.0
 71
     0
 72
 10000
 73
     1
 74
     3
 75
     0
 76
     0
 77
     0
 78
     0
281
     0
 65
     1
110
0.0
120
0.0
130
0.0
111
1.0
121
0.0
131
0.0
112
0.0
122
1.0
132
0.0
 79
     0
146
0.0
  0
ENDTAB
  0
TABLE
  2
LTYPE
  5
5
330
0
100
AcDbSymbolTable
 70
     6
  0
LTYPE
  5
14
330
5
100
AcDbSymbolTableRecord
100
AcDbLinetypeTableRecord
  2
ByBlock
 70
     0
  3

 72
    65
 73
     0
 40
0.0
  0
LTYPE
  5
15
330
5
100
AcDbSymbolTableRecord
100
AcDbLinetypeTableRecord
  2
ByLayer
 70
     0
  3

 72
    65
 73
     0
 40
0.0
  0
LTYPE
  5
16
330
5
100
AcDbSymbolTableRecord
100
AcDbLinetypeTableRecord
  2
Continuous
 70
     0
  3
Solid line
 72
    65
 73
     0
 40
0.0
  0
LTYPE
  5
3C
330
5
100
AcDbSymbolTableRecord
100
AcDbLinetypeTableRecord
  2
JWW_CENTER1
 70
     0
  3
-----  --  ----------  --  -----
 72
    65
 73
     4
 40
6.773333333333333
 49
4.233333333333333
 74
     0
 49
-0.8466666666666667
 74
     0
 49
0.8466666666666667
 74
     0
 49
-0.8466666666666667
 74
     0
  0
LTYPE
  5
3D
330
5
100
AcDbSymbolTableRecord
100
AcDbLinetypeTableRecord
  2
JWW_PHANTOM2
 70
     0
  3
------------  -  -  ------------
 72
    65
 73
     6
 40
13.54666666666667
 49
10.16
 74
     0
 49
-0.8466666666666667
 74
     0
 49
0.4233333333333333
 74
     0
 49
-0.8466666666666667
 74
     0
 49
0.4233333333333333
 74
     0
 49
-0.8466666666666667
 74
     0
  0
LTYPE
  5
3E
330
5
100
AcDbSymbolTableRecord
100
AcDbLinetypeTableRecord
  2
JWW_DASHED3
 70
     0
  3
---  ------  ------  ------  ---
 72
    65
 73
     2
 40
3.386666666666667
 49
2.54
 74
     0
 49
-0.8466666666666667
 74
     0
  0
LTYPE
  5
3F
330
5
100
AcDbSymbolTableRecord
100
AcDbLinetypeTableRecord
  2
JWW_CENTER2
 70
     0
  3
-------------  --  -------------
 72
    65
 73
     4
 40
13.54666666666667
 49
11.00666666666667
 74
     0
 49
-0.8466666666666667
 74
     0
 49
0.8466666666666667
 74
     0
 49
-0.8466666666666667
 74
     0
  0
LTYPE
  5
40
330
5
100
AcDbSymbolTableRecord
100
AcDbLinetypeTableRecord
  2
JWW_DASHED1
 70
     0
  3
-  --  --  --  --  --  --  --  -
 72
    65
 73
     2
 40
1.693333333333333
 49
0.8466666666666667
 74
     0
 49
-0.8466666666666667
 74
     0
  0
ENDTAB
  0
TABLE
  2
LAYER
  5
2
330
0
100
AcDbSymbolTable
 70
     9
  0
LAYER
  5
10
330
2
100
AcDbSymbolTableRecord
100
AcDbLayerTableRecord
  2
0
 70
     0
 62
     7
  6
Continuous
370
    -3
390
F
  0
LAYER
  5
41
330
2
100
AcDbSymbolTableRecord
100
AcDbLayerTableRecord
  2
F-5
 70
     0
 62
     7
  6
Continuous
370
    -3
390
F
  0
LAYER
  5
42
330
2
100
AcDbSymbolTableRecord
100
AcDbLayerTableRecord
  2
0-5
 70
     0
 62
     7
  6
Continuous
370
    -3
390
F
  0
LAYER
  5
43
330
2
100
AcDbSymbolTableRecord
100
AcDbLayerTableRecord
  2
0-E
 70
     0
 62
     7
  6
Continuous
370
    -3
390
F
  0
LAYER
  5
44
330
2
100
AcDbSymbolTableRecord
100
AcDbLayerTableRecord
  2
0-0
 70
     0
 62
     7
  6
Continuous
370
    -3
390
F
  0
LAYER
  5
45
330
2
100
AcDbSymbolTableRecord
100
AcDbLayerTableRecord
  2
0-F
 70
     0
 62
     7
  6
Continuous
370
    -3
390
F
  0
LAYER
  5
46
330
2
100
AcDbSymbolTableRecord
100
AcDbLayerTableRecord
  2
0-1
 70
     0
 62
     7
  6
Continuous
370
    -3
390
F
  0
LAYER
  5
47
330
2
100
AcDbSymbolTableRecord
100
AcDbLayerTableRecord
  2
0-6
 70
     0
 62
     7
  6
Continuous
370
    -3
390
F
  0
LAYER
  5
48
330
2
100
AcDbSymbolTableRecord
100
AcDbLayerTableRecord
  2
0-4
 70
     0
 62
     7
  6
Continuous
370
    -3
390
F
  0
ENDTAB
  0
TABLE
  2
STYLE
  5
3
330
0
100
AcDbSymbolTable
 70
     2
  0
STYLE
  5
11
330
3
100
AcDbSymbolTableRecord
100
AcDbTextStyleTableRecord
  2
Standard
 70
     0
 40
0.0
 41
1.0
 50
0.0
 71
     0
 42
2.5
  3
txt
  4

1001
ACAD
1000

1071
        0
  0
STYLE
  5
3B
330
3
100
AcDbSymbolTableRecord
100
AcDbTextStyleTableRecord
  2
ＭＳ ゴシック
 70
     0
 40
1.0
 41
1.0
 50
0.0
 71
     0
 42
10.0
  3

  4

1001
ACAD
1000
MS Gothic
1071
    32817
  0
ENDTAB
  0
TABLE
  2
VIEW
  5
6
330
0
100
AcDbSymbolTable
 70
     0
  0
ENDTAB
  0
TABLE
  2
UCS
  5
7
330
0
100
AcDbSymbolTable
 70
     0
  0
ENDTAB
  0
TABLE
  2
APPID
  5
9
330
0
100
AcDbSymbolTable
 70
     1
  0
APPID
  5
12
330
9
100
AcDbSymbolTableRecord
100
AcDbRegAppTableRecord
  2
ACAD
 70
     0
  0
ENDTAB
  0
TABLE
  2
DIMSTYLE
  5
A
330
0
100
AcDbSymbolTable
 70
     1
100
AcDbDimStyleTable
  0
DIMSTYLE
105
27
330
A
100
AcDbSymbolTableRecord
100
AcDbDimStyleTableRecord
  2
ISO-25
 70
     0
 41
2.5
 42
0.625
 43
3.75
 44
1.25
 73
     0
 74
     0
 77
     1
 78
     8
140
2.5
141
2.5
143
0.03937007874016
147
0.625
171
     3
172
     1
271
     2
272
     2
274
     3
278
    44
283
     0
284
     8
340
11
  0
ENDTAB
  0
TABLE
  2
BLOCK_RECORD
  5
1
330
0
100
AcDbSymbolTable
 70
     1
  0
BLOCK_RECORD
  5
1F
330
1
100
AcDbSymbolTableRecord
100
AcDbBlockTableRecord
  2
*Model_Space
340
22
  0
BLOCK_RECORD
  5
1B
330
1
100
AcDbSymbolTableRecord
100
AcDbBlockTableRecord
  2
*Paper_Space
340
1E
  0
BLOCK_RECORD
  5
23
330
1
100
AcDbSymbolTableRecord
100
AcDbBlockTableRecord
  2
*Paper_Space0
340
26
  0
ENDTAB
  0
ENDSEC
  0
SECTION
  2
BLOCKS
  0
BLOCK
  5
20
330
1F
100
AcDbEntity
  8
0
100
AcDbBlockBegin
  2
*Model_Space
 70
     0
 10
0.0
 20
0.0
 30
0.0
  3
*Model_Space
  1

  0
ENDBLK
  5
21
330
1F
100
AcDbEntity
  8
0
100
AcDbBlockEnd
  0
BLOCK
  5
1C
330
1B
100
AcDbEntity
 67
     1
  8
0
100
AcDbBlockBegin
  2
*Paper_Space
 70
     0
 10
0.0
 20
0.0
 30
0.0
  3
*Paper_Space
  1

  0
ENDBLK
  5
1D
330
1B
100
AcDbEntity
 67
     1
  8
0
100
AcDbBlockEnd
  0
BLOCK
  5
24
330
23
100
AcDbEntity
  8
0
100
AcDbBlockBegin
  2
*Paper_Space0
 70
     0
 10
0.0
 20
0.0
 30
0.0
  3
*Paper_Space0
  1

  0
ENDBLK
  5
25
330
23
100
AcDbEntity
  8
0
100
AcDbBlockEnd
  0
ENDSEC
  0
SECTION
  2
ENTITIES
  0
TEXT
  5
49
330
1F
100
AcDbEntity
  8
F-5
  6
Continuous
 62
     2
370
     9
100
AcDbText
 10
-309.3628001271063
 20
-528.4488751053836
 30
0.0
 40
12.192
  1
タイル用　充填深さ４０ｍｍ　ステンレス目地　側溝用　カラー舗装用みぞ蓋　
 41
0.7743055555555557
  7
ＭＳ ゴシック
100
AcDbText
  0
TEXT
  5
4A
330
1F
100
AcDbEntity
  8
0-5
  6
Continuous
 62
     2
370
     9
100
AcDbText
 10
343.3542294711526
 20
-334.2757169963783
 30
0.0
 40
12.192
  1
仕様
 41
1.0625
  7
ＭＳ ゴシック
100
AcDbText
  0
TEXT
  5
4B
330
1F
100
AcDbEntity
  8
0-5
  6
Continuous
 62
     2
370
     9
100
AcDbText
 10
343.3542096759669
 20
-358.2756972011924
 30
0.0
 40
12.192
  1
適用荷重：Ｔ－２
 41
1.109375
  7
ＭＳ ゴシック
100
AcDbText
  0
TEXT
  5
4C
330
1F
100
AcDbEntity
  8
0-5
  6
Continuous
 62
     2
370
     9
100
AcDbText
 10
343.3542393687455
 20
-406.2757070987853
 30
0.0
 40
12.192
  1
接触圧子：２００×１６０ｍｍ
 41
1.116071428571429
  7
ＭＳ ゴシック
100
AcDbText
  0
TEXT
  5
4D
330
1F
100
AcDbEntity
  8
0-5
  6
Continuous
 62
     2
370
     9
100
AcDbText
 10
343.3542492663385
 20
-382.2757268939712
 30
0.0
 40
12.192
  1
破壊荷重：３５ｋＮ（３，６００ｋｇｆ）以上
 41
1.119047619047619
  7
ＭＳ ゴシック
100
AcDbText
  0
LINE
  5
4E
330
1F
100
AcDbEntity
  8
0-E
  6
Continuous
 62
     7
370
     9
100
AcDbLine
 10
458.2313592023478
 20
193.0258740194272
 30
0.0
 11
469.2139262420436
 21
197.8614420092922
 31
0.0
  0
LINE
  5
4F
330
1F
100
AcDbEntity
  8
0-E
  6
Continuous
 62
     7
370
     9
100
AcDbLine
 10
458.2313592023478
 20
193.0258740194272
 30
0.0
 11
470.0912488771786
 21
194.8541573809139
 31
0.0
  0
LINE
  5
50
330
1F
100
AcDbEntity
  8
0-E
  6
Continuous
 62
     7
370
     9
100
AcDbLine
 10
571.7338863877362
 20
226.1378256927803
 30
0.0
 11
709.2975609020941
 21
226.1378256927803
 31
0.0
  0
LINE
  5
51
330
1F
100
AcDbEntity
  8
0-E
  6
Continuous
 62
     7
370
     9
100
AcDbLine
 10
393.2316891221111
 20
-21.48129183783612
 30
0.0
 11
365.1493477475332
 21
-126.2859628418482
 31
0.0
  0
LINE
  5
52
330
1F
100
AcDbEntity
  8
0-E
  6
Continuous
 62
     7
370
     9
100
AcDbLine
 10
393.2316891221111
 20
-21.48129183783612
 30
0.0
 11
391.6653950448307
 21
-33.37864390181448
 31
0.0
  0
LINE
  5
53
330
1F
100
AcDbEntity
  8
0-E
  6
Continuous
 62
     7
370
     9
100
AcDbLine
 10
393.2316891221111
 20
-21.48129183783612
 30
0.0
 11
388.6395029417903
 21
-32.56783309100365
 31
0.0
  0
LINE
  5
54
330
1F
100
AcDbEntity
  8
0-E
  6
Continuous
 62
     7
370
     9
100
AcDbLine
 10
365.1493477475332
 20
-126.2859628418482
 30
0.0
 11
154.4088098463509
 21
-126.2859628418482
 31
0.0
  0
LINE
  5
55
330
1F
100
AcDbEntity
  8
0-0
  6
Continuous
 62
     3
370
     9
100
AcDbLine
 10
-96.76864079765244
 20
-290.4814617465145
 30
0.0
 11
-695.7683900586321
 21
-290.4814617465145
 31
0.0
  0
LINE
  5
56
330
1F
100
AcDbEntity
  8
0-0
  6
Continuous
 62
     3
370
     9
100
AcDbLine
 10
-96.76864079765244
 20
-270.4814452505263
 30
0.0
 11
-695.7683900586321
 21
-270.4814452505263
 31
0.0
  0
LINE
  5
57
330
1F
100
AcDbEntity
  8
0-0
  6
Continuous
 62
     3
370
     9
100
AcDbLine
 10
-695.7683900586321
 20
-290.4814617465145
 30
0.0
 11
-695.7683900586321
 21
-270.4814452505263
 31
0.0
  0
LINE
  5
58
330
1F
100
AcDbEntity
  8
0-0
  6
Continuous
 62
     3
370
     9
100
AcDbLine
 10
-96.76864079765244
 20
-285.4814452505263
 30
0.0
 11
-695.7683900586321
 21
-285.4814452505263
 31
0.0
  0
LINE
  5
59
330
1F
100
AcDbEntity
  8
0-0
  6
Continuous
 62
     3
370
     9
100
AcDbLine
 10
-419.9816139025933
 20
-330.4814452505263
 30
0.0
 11
-372.5554169536913
 21
-330.4814452505263
 31
0.0
  0
LINE
  5
5A
330
1F
100
AcDbEntity
  8
0-0
  6
Continuous
 62
     3
370
     9
100
AcDbLine
 10
-554.9815644146288
 20
-330.4814452505263
 30
0.0
 11
-507.5553179777622
 21
-330.4814452505263
 31
0.0
  0
LINE
  5
5B
330
1F
100
AcDbEntity
  8
0-0
  6
Continuous
 62
     3
370
     9
100
AcDbLine
 10
-688.3717704165292
 20
-330.4814452505263
 30
0.0
 11
-641.0552882849836
 21
-330.4814452505263
 31
0.0
  0
LINE
  5
5C
330
1F
100
AcDbEntity
  8
0-0
  6
Continuous
 62
     3
370
     9
100
AcDbLine
 10
-689.8679400480748
 20
-329.0883590490905
 30
0.0
 11
-692.6256073833788
 21
-290.4814617465145
 31
0.0
  0
LINE
  5
5D
330
1F
100
AcDbEntity
  8
0-0
  6
Continuous
 62
     3
370
     9
100
AcDbLine
 10
-422.8771052191051
 20
-320.0253311774691
 30
0.0
 11
-421.4642238318585
 21
-329.2095055862528
 31
0.0
  0
LINE
  5
5E
330
1F
100
AcDbEntity
  8
0-0
  6
Continuous
 62
     3
370
     9
100
AcDbLine
 10
-504.6598019172682
 20
-320.0253311774691
 30
0.0
 11
-506.0727575364616
 21
-329.2095055862528
 31
0.0
  0
LINE
  5
5F
330
1F
100
AcDbEntity
  8
0-0
  6
Continuous
 62
     3
370
     9
100
AcDbLine
 10
-501.6947057786491
 20
-317.4814518489216
 30
0.0
 11
-425.8422261017065
 21
-317.4814518489216
 31
0.0
  0
LINE
  5
60
330
1F
100
AcDbEntity
  8
0-0
  6
Continuous
 62
     3
370
     9
100
AcDbLine
 10
-557.8770557311407
 20
-320.0253311774691
 30
0.0
 11
-556.464075367965
 21
-329.2095055862528
 31
0.0
  0
LINE
  5
61
330
1F
100
AcDbEntity
  8
0-0
  6
Continuous
 62
     3
370
     9
100
AcDbLine
 10
-638.1597969684717
 20
-320.0253311774691
 30
0.0
 11
-639.5727278436827
 21
-329.2095055862528
 31
0.0
  0
LINE
  5
62
330
1F
100
AcDbEntity
  8
0-0
  6
Continuous
 62
     3
370
     9
100
AcDbLine
 10
-635.1946760858702
 20
-317.4814518489216
 30
0.0
 11
-560.8421271257776
 21
-317.4814518489216
 31
0.0
  0
LINE
  5
63
330
1F
100
AcDbEntity
  8
0-0
  6
Continuous
 62
     3
370
     9
100
AcDbLine
 10
-695.4188070772132
 20
-290.4814617465145
 30
0.0
 11
-691.2761200786913
 21
-314.1705090702053
 31
0.0
  0
LINE
  5
64
330
1F
100
AcDbEntity
  8
0-0
  6
Continuous
 62
     3
370
     9
100
AcDbLine
 10
-403.2684890345612
 20
-305.2814808818607
 30
0.0
 11
-401.7934507638687
 21
-306.8814762629841
 31
0.0
  0
LINE
  5
65
330
1F
100
AcDbEntity
  8
0-0
  6
Continuous
 62
     3
370
     9
100
AcDbLine
 10
-399.03103258397
 20
-305.2814808818607
 30
0.0
 11
-399.03103258397
 21
-310.4814782425028
 31
0.0
  0
LINE
  5
66
330
1F
100
AcDbEntity
  8
0-0
  6
Continuous
 62
     3
370
     9
100
AcDbLine
 10
-401.7934507638687
 20
-306.8814762629841
 30
0.0
 11
-401.7934507638687
 21
-310.4814782425028
 31
0.0
  0
LINE
  5
67
330
1F
100
AcDbEntity
  8
0-0
  6
Continuous
 62
     3
370
     9
100
AcDbLine
 10
-399.2684758377707
 20
-314.4814914392932
 30
0.0
 11
-398.2685220265375
 21
-315.4814452505263
 31
0.0
  0
LINE
  5
68
330
1F
100
AcDbEntity
  8
0-0
  6
Continuous
 62
     3
370
     9
100
AcDbLine
 10
-398.2685220265375
 20
-315.4814452505263
 30
0.0
 11
-394.268508829747
 21
-315.4814452505263
 31
0.0
  0
LINE
  5
69
330
1F
100
AcDbEntity
  8
0-0
  6
Continuous
 62
     3
370
     9
100
AcDbLine
 10
-399.2684758377707
 20
-314.4814914392932
 30
0.0
 11
-393.2685550185139
 21
-314.4814914392932
 31
0.0
  0
LINE
  5
6A
330
1F
100
AcDbEntity
  8
0-0
  6
Continuous
 62
     3
370
     9
100
AcDbLine
 10
-401.7934507638687
 20
-310.4814782425028
 30
0.0
 11
-390.743580092416
 21
-310.4814782425028
 31
0.0
  0
LINE
  5
6B
330
1F
100
AcDbEntity
  8
0-0
  6
Continuous
 62
     3
370
     9
100
AcDbLine
 10
-403.2684890345612
 20
-305.2814808818607
 30
0.0
 11
-389.2685418217234
 21
-305.2814808818607
 31
0.0
  0
LINE
  5
6C
330
1F
100
AcDbEntity
  8
0-0
  6
Continuous
 62
     3
370
     9
100
AcDbLine
 10
-403.2684890345612
 20
-304.481458447317
 30
0.0
 11
-403.2684890345612
 21
-305.2814808818607
 31
0.0
  0
LINE
  5
6D
330
1F
100
AcDbEntity
  8
0-0
  6
Continuous
 62
     3
370
     9
100
AcDbLine
 10
-405.4442768829565
 20
-304.481458447317
 30
0.0
 11
-387.0927539733282
 21
-304.481458447317
 31
0.0
  0
LINE
  5
6E
330
1F
100
AcDbEntity
  8
0-0
  6
Continuous
 62
     3
370
     9
100
AcDbLine
 10
-398.2685220265375
 20
-310.4814782425028
 30
0.0
 11
-398.2685220265375
 21
-315.4814452505263
 31
0.0
  0
LINE
  5
6F
330
1F
100
AcDbEntity
  8
0-0
  6
Continuous
 62
     3
370
     9
100
AcDbLine
 10
-399.2684758377707
 20
-310.4814782425028
 30
0.0
 11
-399.2684758377707
 21
-314.4814914392932
 31
0.0
  0
LINE
  5
70
330
1F
100
AcDbEntity
  8
0-0
  6
Continuous
 62
     3
370
     9
100
AcDbLine
 10
-673.2684890345613
 20
-305.2814808818607
 30
0.0
 11
-671.7935002518332
 21
-306.8814762629841
 31
0.0
  0
LINE
  5
71
330
1F
100
AcDbEntity
  8
0-0
  6
Continuous
 62
     3
370
     9
100
AcDbLine
 10
-669.0309830960055
 20
-305.2814808818607
 30
0.0
 11
-669.0309830960055
 21
-310.4814782425028
 31
0.0
  0
LINE
  5
72
330
1F
100
AcDbEntity
  8
0-0
  6
Continuous
 62
     3
370
     9
100
AcDbLine
 10
-671.7935002518332
 20
-306.8814762629841
 30
0.0
 11
-671.7935002518332
 21
-310.4814782425028
 31
0.0
  0
LINE
  5
73
330
1F
100
AcDbEntity
  8
0-0
  6
Continuous
 62
     3
370
     9
100
AcDbLine
 10
-669.2684758377707
 20
-314.4814914392932
 30
0.0
 11
-668.268472538573
 21
-315.4814452505263
 31
0.0
  0
LINE
  5
74
330
1F
100
AcDbEntity
  8
0-0
  6
Continuous
 62
     3
370
     9
100
AcDbLine
 10
-668.268472538573
 20
-315.4814452505263
 30
0.0
 11
-664.268409853818
 21
-315.4814452505263
 31
0.0
  0
LINE
  5
75
330
1F
100
AcDbEntity
  8
0-0
  6
Continuous
 62
     3
370
     9
100
AcDbLine
 10
-669.2684758377707
 20
-314.4814914392932
 30
0.0
 11
-663.2684065546202
 21
-314.4814914392932
 31
0.0
  0
LINE
  5
76
330
1F
100
AcDbEntity
  8
0-0
  6
Continuous
 62
     3
370
     9
100
AcDbLine
 10
-671.7935002518332
 20
-310.4814782425028
 30
0.0
 11
-660.7434316285223
 21
-310.4814782425028
 31
0.0
  0
LINE
  5
77
330
1F
100
AcDbEntity
  8
0-0
  6
Continuous
 62
     3
370
     9
100
AcDbLine
 10
-673.2684890345613
 20
-305.2814808818607
 30
0.0
 11
-659.2684428457944
 21
-305.2814808818607
 31
0.0
  0
LINE
  5
78
330
1F
100
AcDbEntity
  8
0-0
  6
Continuous
 62
     3
370
     9
100
AcDbLine
 10
-673.2684890345613
 20
-304.481458447317
 30
0.0
 11
-673.2684890345613
 21
-305.2814808818607
 31
0.0
  0
LINE
  5
79
330
1F
100
AcDbEntity
  8
0-0
  6
Continuous
 62
     3
370
     9
100
AcDbLine
 10
-675.4442768829565
 20
-304.481458447317
 30
0.0
 11
-657.092654997399
 21
-304.481458447317
 31
0.0
  0
LINE
  5
7A
330
1F
100
AcDbEntity
  8
0-0
  6
Continuous
 62
     3
370
     9
100
AcDbLine
 10
-668.268472538573
 20
-310.4814782425028
 30
0.0
 11
-668.268472538573
 21
-315.4814452505263
 31
0.0
  0
LINE
  5
7B
330
1F
100
AcDbEntity
  8
0-0
  6
Continuous
 62
     3
370
     9
100
AcDbLine
 10
-669.2684758377707
 20
-310.4814782425028
 30
0.0
 11
-669.2684758377707
 21
-314.4814914392932
 31
0.0
  0
LINE
  5
7C
330
1F
100
AcDbEntity
  8
0-0
  6
Continuous
 62
     3
370
     9
100
AcDbLine
 10
-659.2684428457944
 20
-305.2814808818607
 30
0.0
 11
-660.7434316285223
 21
-306.8814762629841
 31
0.0
  0
LINE
  5
7D
330
1F
100
AcDbEntity
  8
0-0
  6
Continuous
 62
     3
370
     9
100
AcDbLine
 10
-663.5058992963855
 20
-305.2814808818607
 30
0.0
 11
-663.5058992963855
 21
-310.4814782425028
 31
0.0
  0
LINE
  5
7E
330
1F
100
AcDbEntity
  8
0-0
  6
Continuous
 62
     3
370
     9
100
AcDbLine
 10
-660.7434316285223
 20
-306.8814762629841
 30
0.0
 11
-660.7434316285223
 21
-310.4814782425028
 31
0.0
  0
LINE
  5
7F
330
1F
100
AcDbEntity
  8
0-0
  6
Continuous
 62
     3
370
     9
100
AcDbLine
 10
-663.2684065546202
 20
-314.4814914392932
 30
0.0
 11
-664.268409853818
 21
-315.4814452505263
 31
0.0
  0
LINE
  5
80
330
1F
100
AcDbEntity
  8
0-0
  6
Continuous
 62
     3
370
     9
100
AcDbLine
 10
-659.2684428457944
 20
-304.481458447317
 30
0.0
 11
-659.2684428457944
 21
-305.2814808818607
 31
0.0
  0
LINE
  5
81
330
1F
100
AcDbEntity
  8
0-0
  6
Continuous
 62
     3
370
     9
100
AcDbLine
 10
-664.268409853818
 20
-310.4814782425028
 30
0.0
 11
-664.268409853818
 21
-315.4814452505263
 31
0.0
  0
LINE
  5
82
330
1F
100
AcDbEntity
  8
0-0
  6
Continuous
 62
     3
370
     9
100
AcDbLine
 10
-663.2684065546202
 20
-310.4814782425028
 30
0.0
 11
-663.2684065546202
 21
-314.4814914392932
 31
0.0
  0
LINE
  5
83
330
1F
100
AcDbEntity
  8
0-0
  6
Continuous
 62
     3
370
     9
100
AcDbLine
 10
-678.7684824361659
 20
-285.4814452505263
 30
0.0
 11
-678.7684824361659
 21
-290.4814617465145
 31
0.0
  0
LINE
  5
84
330
1F
100
AcDbEntity
  8
0-0
  6
Continuous
 62
     3
370
     9
100
AcDbLine
 10
-653.7684494441896
 20
-285.4814452505263
 30
0.0
 11
-653.7684494441896
 21
-290.4814617465145
 31
0.0
  0
LINE
  5
85
330
1F
100
AcDbEntity
  8
0-0
  6
Continuous
 62
     3
370
     9
100
AcDbLine
 10
-543.768482436166
 20
-285.4814452505263
 30
0.0
 11
-543.768482436166
 21
-290.4814617465145
 31
0.0
  0
LINE
  5
86
330
1F
100
AcDbEntity
  8
0-0
  6
Continuous
 62
     3
370
     9
100
AcDbLine
 10
-518.7684494441896
 20
-285.4814452505263
 30
0.0
 11
-518.7684494441896
 21
-290.4814617465145
 31
0.0
  0
LINE
  5
87
330
1F
100
AcDbEntity
  8
0-0
  6
Continuous
 62
     3
370
     9
100
AcDbLine
 10
-408.768482436166
 20
-285.4814452505263
 30
0.0
 11
-408.768482436166
 21
-290.4814617465145
 31
0.0
  0
LINE
  5
88
330
1F
100
AcDbEntity
  8
0-0
  6
Continuous
 62
     3
370
     9
100
AcDbLine
 10
-406.9326769040714
 20
-303.1675529891243
 30
0.0
 11
-408.5184692393755
 21
-290.4814617465145
 31
0.0
  0
LINE
  5
89
330
1F
100
AcDbEntity
  8
0-0
  6
Continuous
 62
     3
370
     9
100
AcDbLine
 10
-676.9326769040713
 20
-303.1675529891243
 30
0.0
 11
-678.5184692393755
 21
-290.4814617465145
 31
0.0
  0
LINE
  5
8A
330
1F
100
AcDbEntity
  8
0-0
  6
Continuous
 62
     3
370
     9
100
AcDbLine
 10
-655.6042054883196
 20
-303.1675529891243
 30
0.0
 11
-654.01846264098
 21
-290.4814617465145
 31
0.0
  0
LINE
  5
8B
330
1F
100
AcDbEntity
  8
0-0
  6
Continuous
 62
     3
370
     9
100
AcDbLine
 10
-534.2146329323652
 20
-304.481458447317
 30
0.0
 11
-528.3222989479904
 21
-304.481458447317
 31
0.0
  0
LINE
  5
8C
330
1F
100
AcDbEntity
  8
0-0
  6
Continuous
 62
     3
370
     9
100
AcDbLine
 10
-535.6999646996795
 20
-303.1903174528068
 30
0.0
 11
-537.4872225385731
 21
-290.4814617465145
 31
0.0
  0
LINE
  5
8D
330
1F
100
AcDbEntity
  8
0-0
  6
Continuous
 62
     3
370
     9
100
AcDbLine
 10
-526.8369671806762
 20
-303.1903174528068
 30
0.0
 11
-525.049758829747
 21
-290.4814617465145
 31
0.0
  0
LINE
  5
8E
330
1F
100
AcDbEntity
  8
0-0
  6
JWW_CENTER1
 62
     3
370
     9
100
AcDbLine
 10
-666.2684164522132
 20
-300.4814452505263
 30
0.0
 11
-666.2684164522132
 21
-319.4814089593524
 31
0.0
  0
LINE
  5
8F
330
1F
100
AcDbEntity
  8
0-0
  6
JWW_CENTER1
 62
     3
370
     9
100
AcDbLine
 10
-396.2685154281423
 20
-300.4814452505263
 30
0.0
 11
-396.2685154281423
 21
-319.4814089593524
 31
0.0
  0
LINE
  5
90
330
1F
100
AcDbEntity
  8
0-0
  6
Continuous
 62
     3
370
     9
100
AcDbLine
 10
-96.76864079765244
 20
-290.4814617465145
 30
0.0
 11
-96.76864079765244
 21
-270.4814452505263
 31
0.0
  0
LINE
  5
91
330
1F
100
AcDbEntity
  8
0-0
  6
Continuous
 62
     3
370
     9
100
AcDbLine
 10
-237.5554664416559
 20
-330.4814452505263
 30
0.0
 11
-284.9817128785224
 21
-330.4814452505263
 31
0.0
  0
LINE
  5
92
330
1F
100
AcDbEntity
  8
0-0
  6
Continuous
 62
     3
370
     9
100
AcDbLine
 10
-104.1652604397555
 20
-330.4814452505263
 30
0.0
 11
-151.4817425713011
 21
-330.4814452505263
 31
0.0
  0
LINE
  5
93
330
1F
100
AcDbEntity
  8
0-0
  6
Continuous
 62
     3
370
     9
100
AcDbLine
 10
-102.6691402961744
 20
-329.0883590490905
 30
0.0
 11
-99.91142347290588
 21
-290.4814617465145
 31
0.0
  0
LINE
  5
94
330
1F
100
AcDbEntity
  8
0-0
  6
Continuous
 62
     3
370
     9
100
AcDbLine
 10
-369.6599256371794
 20
-320.0253311774691
 30
0.0
 11
-371.0728070244261
 21
-329.2095055862528
 31
0.0
  0
LINE
  5
95
330
1F
100
AcDbEntity
  8
0-0
  6
Continuous
 62
     3
370
     9
100
AcDbLine
 10
-287.8772041950342
 20
-320.0253311774691
 30
0.0
 11
-286.4642733198231
 21
-329.2095055862528
 31
0.0
  0
LINE
  5
96
330
1F
100
AcDbEntity
  8
0-0
  6
Continuous
 62
     3
370
     9
100
AcDbLine
 10
-290.8423250776356
 20
-317.4814518489216
 30
0.0
 11
-366.6948047545782
 21
-317.4814518489216
 31
0.0
  0
LINE
  5
97
330
1F
100
AcDbEntity
  8
0-0
  6
Continuous
 62
     3
370
     9
100
AcDbLine
 10
-234.659975125144
 20
-320.0253311774691
 30
0.0
 11
-236.0729554883197
 21
-329.2095055862528
 31
0.0
  0
LINE
  5
98
330
1F
100
AcDbEntity
  8
0-0
  6
Continuous
 62
     3
370
     9
100
AcDbLine
 10
-154.377233887813
 20
-320.0253311774691
 30
0.0
 11
-152.9643030126018
 21
-329.2095055862528
 31
0.0
  0
LINE
  5
99
330
1F
100
AcDbEntity
  8
0-0
  6
Continuous
 62
     3
370
     9
100
AcDbLine
 10
-157.3423547704143
 20
-317.4814518489216
 30
0.0
 11
-231.6949037305072
 21
-317.4814518489216
 31
0.0
  0
LINE
  5
9A
330
1F
100
AcDbEntity
  8
0-0
  6
Continuous
 62
     3
370
     9
100
AcDbLine
 10
-97.1182237790714
 20
-290.4814617465145
 30
0.0
 11
-101.2609107775934
 21
-314.1705090702053
 31
0.0
  0
LINE
  5
9B
330
1F
100
AcDbEntity
  8
0-0
  6
Continuous
 62
     3
370
     9
100
AcDbLine
 10
-389.2685418217234
 20
-305.2814808818607
 30
0.0
 11
-390.743580092416
 21
-306.8814762629841
 31
0.0
  0
LINE
  5
9C
330
1F
100
AcDbEntity
  8
0-0
  6
Continuous
 62
     3
370
     9
100
AcDbLine
 10
-393.5059982723146
 20
-305.2814808818607
 30
0.0
 11
-393.5059982723146
 21
-310.4814782425028
 31
0.0
  0
LINE
  5
9D
330
1F
100
AcDbEntity
  8
0-0
  6
Continuous
 62
     3
370
     9
100
AcDbLine
 10
-390.743580092416
 20
-306.8814762629841
 30
0.0
 11
-390.743580092416
 21
-310.4814782425028
 31
0.0
  0
LINE
  5
9E
330
1F
100
AcDbEntity
  8
0-0
  6
Continuous
 62
     3
370
     9
100
AcDbLine
 10
-393.2685550185139
 20
-314.4814914392932
 30
0.0
 11
-394.268508829747
 21
-315.4814452505263
 31
0.0
  0
LINE
  5
9F
330
1F
100
AcDbEntity
  8
0-0
  6
Continuous
 62
     3
370
     9
100
AcDbLine
 10
-389.2685418217234
 20
-304.481458447317
 30
0.0
 11
-389.2685418217234
 21
-305.2814808818607
 31
0.0
  0
LINE
  5
A0
330
1F
100
AcDbEntity
  8
0-0
  6
Continuous
 62
     3
370
     9
100
AcDbLine
 10
-394.268508829747
 20
-310.4814782425028
 30
0.0
 11
-394.268508829747
 21
-315.4814452505263
 31
0.0
  0
LINE
  5
A1
330
1F
100
AcDbEntity
  8
0-0
  6
Continuous
 62
     3
370
     9
100
AcDbLine
 10
-393.2685550185139
 20
-310.4814782425028
 30
0.0
 11
-393.2685550185139
 21
-314.4814914392932
 31
0.0
  0
LINE
  5
A2
330
1F
100
AcDbEntity
  8
0-0
  6
Continuous
 62
     3
370
     9
100
AcDbLine
 10
-119.2685418217234
 20
-305.2814808818607
 30
0.0
 11
-120.7435306044514
 21
-306.8814762629841
 31
0.0
  0
LINE
  5
A3
330
1F
100
AcDbEntity
  8
0-0
  6
Continuous
 62
     3
370
     9
100
AcDbLine
 10
-123.5060477602791
 20
-305.2814808818607
 30
0.0
 11
-123.5060477602791
 21
-310.4814782425028
 31
0.0
  0
LINE
  5
A4
330
1F
100
AcDbEntity
  8
0-0
  6
Continuous
 62
     3
370
     9
100
AcDbLine
 10
-120.7435306044514
 20
-306.8814762629841
 30
0.0
 11
-120.7435306044514
 21
-310.4814782425028
 31
0.0
  0
LINE
  5
A5
330
1F
100
AcDbEntity
  8
0-0
  6
Continuous
 62
     3
370
     9
100
AcDbLine
 10
-123.2685550185139
 20
-314.4814914392932
 30
0.0
 11
-124.2685583177116
 21
-315.4814452505263
 31
0.0
  0
LINE
  5
A6
330
1F
100
AcDbEntity
  8
0-0
  6
Continuous
 62
     3
370
     9
100
AcDbLine
 10
-124.2685583177116
 20
-315.4814452505263
 30
0.0
 11
-128.2686210024666
 21
-315.4814452505263
 31
0.0
  0
LINE
  5
A7
330
1F
100
AcDbEntity
  8
0-0
  6
Continuous
 62
     3
370
     9
100
AcDbLine
 10
-123.2685550185139
 20
-314.4814914392932
 30
0.0
 11
-129.2686243016643
 21
-314.4814914392932
 31
0.0
  0
LINE
  5
A8
330
1F
100
AcDbEntity
  8
0-0
  6
Continuous
 62
     3
370
     9
100
AcDbLine
 10
-120.7435306044514
 20
-310.4814782425028
 30
0.0
 11
-131.7935497397978
 21
-310.4814782425028
 31
0.0
  0
LINE
  5
A9
330
1F
100
AcDbEntity
  8
0-0
  6
Continuous
 62
     3
370
     9
100
AcDbLine
 10
-119.2685418217234
 20
-305.2814808818607
 30
0.0
 11
-133.2685880104902
 21
-305.2814808818607
 31
0.0
  0
LINE
  5
AA
330
1F
100
AcDbEntity
  8
0-0
  6
Continuous
 62
     3
370
     9
100
AcDbLine
 10
-119.2685418217234
 20
-304.481458447317
 30
0.0
 11
-119.2685418217234
 21
-305.2814808818607
 31
0.0
  0
LINE
  5
AB
330
1F
100
AcDbEntity
  8
0-0
  6
Continuous
 62
     3
370
     9
100
AcDbLine
 10
-117.0927539733282
 20
-304.481458447317
 30
0.0
 11
-135.4443758588856
 21
-304.481458447317
 31
0.0
  0
LINE
  5
AC
330
1F
100
AcDbEntity
  8
0-0
  6
Continuous
 62
     3
370
     9
100
AcDbLine
 10
-124.2685583177116
 20
-310.4814782425028
 30
0.0
 11
-124.2685583177116
 21
-315.4814452505263
 31
0.0
  0
LINE
  5
AD
330
1F
100
AcDbEntity
  8
0-0
  6
Continuous
 62
     3
370
     9
100
AcDbLine
 10
-123.2685550185139
 20
-310.4814782425028
 30
0.0
 11
-123.2685550185139
 21
-314.4814914392932
 31
0.0
  0
LINE
  5
AE
330
1F
100
AcDbEntity
  8
0-0
  6
Continuous
 62
     3
370
     9
100
AcDbLine
 10
-133.2685880104902
 20
-305.2814808818607
 30
0.0
 11
-131.7935497397978
 21
-306.8814762629841
 31
0.0
  0
LINE
  5
AF
330
1F
100
AcDbEntity
  8
0-0
  6
Continuous
 62
     3
370
     9
100
AcDbLine
 10
-129.0311315598991
 20
-305.2814808818607
 30
0.0
 11
-129.0311315598991
 21
-310.4814782425028
 31
0.0
  0
LINE
  5
B0
330
1F
100
AcDbEntity
  8
0-0
  6
Continuous
 62
     3
370
     9
100
AcDbLine
 10
-131.7935497397978
 20
-306.8814762629841
 30
0.0
 11
-131.7935497397978
 21
-310.4814782425028
 31
0.0
  0
LINE
  5
B1
330
1F
100
AcDbEntity
  8
0-0
  6
Continuous
 62
     3
370
     9
100
AcDbLine
 10
-129.2686243016643
 20
-314.4814914392932
 30
0.0
 11
-128.2686210024666
 21
-315.4814452505263
 31
0.0
  0
LINE
  5
B2
330
1F
100
AcDbEntity
  8
0-0
  6
Continuous
 62
     3
370
     9
100
AcDbLine
 10
-133.2685880104902
 20
-304.481458447317
 30
0.0
 11
-133.2685880104902
 21
-305.2814808818607
 31
0.0
  0
LINE
  5
B3
330
1F
100
AcDbEntity
  8
0-0
  6
Continuous
 62
     3
370
     9
100
AcDbLine
 10
-128.2686210024666
 20
-310.4814782425028
 30
0.0
 11
-128.2686210024666
 21
-315.4814452505263
 31
0.0
  0
LINE
  5
B4
330
1F
100
AcDbEntity
  8
0-0
  6
Continuous
 62
     3
370
     9
100
AcDbLine
 10
-129.2686243016643
 20
-310.4814782425028
 30
0.0
 11
-129.2686243016643
 21
-314.4814914392932
 31
0.0
  0
LINE
  5
B5
330
1F
100
AcDbEntity
  8
0-0
  6
Continuous
 62
     3
370
     9
100
AcDbLine
 10
-113.7685484201187
 20
-285.4814452505263
 30
0.0
 11
-113.7685484201187
 21
-290.4814617465145
 31
0.0
  0
LINE
  5
B6
330
1F
100
AcDbEntity
  8
0-0
  6
Continuous
 62
     3
370
     9
100
AcDbLine
 10
-138.768581412095
 20
-285.4814452505263
 30
0.0
 11
-138.768581412095
 21
-290.4814617465145
 31
0.0
  0
LINE
  5
B7
330
1F
100
AcDbEntity
  8
0-0
  6
Continuous
 62
     3
370
     9
100
AcDbLine
 10
-248.7685484201187
 20
-285.4814452505263
 30
0.0
 11
-248.7685484201187
 21
-290.4814617465145
 31
0.0
  0
LINE
  5
B8
330
1F
100
AcDbEntity
  8
0-0
  6
Continuous
 62
     3
370
     9
100
AcDbLine
 10
-273.768581412095
 20
-285.4814452505263
 30
0.0
 11
-273.768581412095
 21
-290.4814617465145
 31
0.0
  0
LINE
  5
B9
330
1F
100
AcDbEntity
  8
0-0
  6
Continuous
 62
     3
370
     9
100
AcDbLine
 10
-383.7685484201187
 20
-285.4814452505263
 30
0.0
 11
-383.7685484201187
 21
-290.4814617465145
 31
0.0
  0
LINE
  5
BA
330
1F
100
AcDbEntity
  8
0-0
  6
Continuous
 62
     3
370
     9
100
AcDbLine
 10
-385.6043539522133
 20
-303.1675529891243
 30
0.0
 11
-384.0185616169092
 21
-290.4814617465145
 31
0.0
  0
LINE
  5
BB
330
1F
100
AcDbEntity
  8
0-0
  6
Continuous
 62
     3
370
     9
100
AcDbLine
 10
-115.6043539522133
 20
-303.1675529891243
 30
0.0
 11
-114.0185616169092
 21
-290.4814617465145
 31
0.0
  0
LINE
  5
BC
330
1F
100
AcDbEntity
  8
0-0
  6
Continuous
 62
     3
370
     9
100
AcDbLine
 10
-136.9328253679649
 20
-303.1675529891243
 30
0.0
 11
-138.5185187273399
 21
-290.4814617465145
 31
0.0
  0
LINE
  5
BD
330
1F
100
AcDbEntity
  8
0-0
  6
Continuous
 62
     3
370
     9
100
AcDbLine
 10
-258.3223979239193
 20
-304.481458447317
 30
0.0
 11
-264.2147319082943
 21
-304.481458447317
 31
0.0
  0
LINE
  5
BE
330
1F
100
AcDbEntity
  8
0-0
  6
Continuous
 62
     3
370
     9
100
AcDbLine
 10
-256.8370661566051
 20
-303.1903174528068
 30
0.0
 11
-255.0498083177116
 21
-290.4814617465145
 31
0.0
  0
LINE
  5
BF
330
1F
100
AcDbEntity
  8
0-0
  6
Continuous
 62
     3
370
     9
100
AcDbLine
 10
-265.7000636756086
 20
-303.1903174528068
 30
0.0
 11
-267.4872720265377
 21
-290.4814617465145
 31
0.0
  0
LINE
  5
C0
330
1F
100
AcDbEntity
  8
0-0
  6
JWW_CENTER1
 62
     3
370
     9
100
AcDbLine
 10
-126.2686144040714
 20
-300.4814452505263
 30
0.0
 11
-126.2686144040714
 21
-319.4814089593524
 31
0.0
  0
LINE
  5
C1
330
1F
100
AcDbEntity
  8
0-E
  6
Continuous
 62
     7
370
     9
100
AcDbLine
 10
571.7338863877362
 20
226.1378256927803
 30
0.0
 11
458.2313592023478
 21
193.0258740194272
 31
0.0
  0
ARC
  5
C2
330
1F
100
AcDbEntity
  8
0-0
  6
Continuous
 62
     3
370
     9
100
AcDbCircle
 10
-419.9816139025933
 20
-328.981465045712
 30
0.0
 40
1.500000019331236
100
AcDbArc
 50
188.7459106445312
 51
270.0
  0
ARC
  5
C3
330
1F
100
AcDbEntity
  8
0-0
  6
Continuous
 62
     3
370
     9
100
AcDbCircle
 10
-507.5553179777622
 20
-328.981465045712
 30
0.0
 40
1.500000019331236
100
AcDbArc
 50
270.0
 51
351.2540893554688
  0
ARC
  5
C4
330
1F
100
AcDbEntity
  8
0-0
  6
Continuous
 62
     3
370
     9
100
AcDbCircle
 10
-554.9815644146288
 20
-328.981465045712
 30
0.0
 40
1.500000019331236
100
AcDbArc
 50
188.7460174560547
 51
270.0
  0
ARC
  5
C5
330
1F
100
AcDbEntity
  8
0-0
  6
Continuous
 62
     3
370
     9
100
AcDbCircle
 10
-641.0552882849836
 20
-328.981465045712
 30
0.0
 40
1.500000019331236
100
AcDbArc
 50
270.0
 51
351.2539978027344
  0
ARC
  5
C6
330
1F
100
AcDbEntity
  8
0-0
  6
Continuous
 62
     3
370
     9
100
AcDbCircle
 10
-688.3717704165292
 20
-328.981465045712
 30
0.0
 40
1.500000019331236
100
AcDbArc
 50
184.0851135253906
 51
270.0
  0
ARC
  5
C7
330
1F
100
AcDbEntity
  8
0-0
  6
Continuous
 62
     3
370
     9
100
AcDbCircle
 10
-425.8422261017065
 20
-320.4814617465145
 30
0.0
 40
3.000000038662472
100
AcDbArc
 50
8.746337890625
 51
90.0
  0
ARC
  5
C8
330
1F
100
AcDbEntity
  8
0-0
  6
Continuous
 62
     3
370
     9
100
AcDbCircle
 10
-501.6947057786491
 20
-320.4814617465145
 30
0.0
 40
3.000000038662472
100
AcDbArc
 50
90.0
 51
171.253662109375
  0
ARC
  5
C9
330
1F
100
AcDbEntity
  8
0-0
  6
Continuous
 62
     3
370
     9
100
AcDbCircle
 10
-560.8421271257776
 20
-320.4814617465145
 30
0.0
 40
3.000000038662472
100
AcDbArc
 50
8.746292114257812
 51
90.0
  0
ARC
  5
CA
330
1F
100
AcDbEntity
  8
0-0
  6
Continuous
 62
     3
370
     9
100
AcDbCircle
 10
-635.1946760858702
 20
-320.4814617465145
 30
0.0
 40
3.000000038662472
100
AcDbArc
 50
90.0
 51
171.2537078857422
  0
ARC
  5
CB
330
1F
100
AcDbEntity
  8
0-0
  6
Continuous
 62
     3
370
     9
100
AcDbCircle
 10
-687.3358388550848
 20
-313.4814386521311
 30
0.0
 40
4.000000051549963
100
AcDbArc
 50
189.9193572998047
 51
208.6634521484375
  0
ARC
  5
CC
330
1F
100
AcDbEntity
  8
0-0
  6
Continuous
 62
     3
370
     9
100
AcDbCircle
 10
-405.4442768829565
 20
-302.9814782425028
 30
0.0
 40
1.500000019331236
100
AcDbArc
 50
187.1250152587891
 51
270.0
  0
ARC
  5
CD
330
1F
100
AcDbEntity
  8
0-0
  6
Continuous
 62
     3
370
     9
100
AcDbCircle
 10
-675.4442768829565
 20
-302.9814782425028
 30
0.0
 40
1.500000019331236
100
AcDbArc
 50
187.1250152587891
 51
270.0
  0
ARC
  5
CE
330
1F
100
AcDbEntity
  8
0-0
  6
Continuous
 62
     3
370
     9
100
AcDbCircle
 10
-657.092654997399
 20
-302.9814782425028
 30
0.0
 40
1.500000019331236
100
AcDbArc
 50
270.0
 51
352.8749847412109
  0
ARC
  5
CF
330
1F
100
AcDbEntity
  8
0-0
  6
Continuous
 62
     3
370
     9
100
AcDbCircle
 10
-534.2146329323652
 20
-302.9814782425028
 30
0.0
 40
1.500000019331236
100
AcDbArc
 50
188.004867553711
 51
270.0
  0
ARC
  5
D0
330
1F
100
AcDbEntity
  8
0-0
  6
Continuous
 62
     3
370
     9
100
AcDbCircle
 10
-528.3222989479904
 20
-302.9814782425028
 30
0.0
 40
1.500000019331236
100
AcDbArc
 50
270.0
 51
351.9951324462891
  0
ARC
  5
D1
330
1F
100
AcDbEntity
  8
0-0
  6
Continuous
 62
     3
370
     9
100
AcDbCircle
 10
-372.5554169536913
 20
-328.981465045712
 30
0.0
 40
1.500000019331236
100
AcDbArc
 50
270.0
 51
351.2540893554688
  0
ARC
  5
D2
330
1F
100
AcDbEntity
  8
0-0
  6
Continuous
 62
     3
370
     9
100
AcDbCircle
 10
-284.9817128785224
 20
-328.981465045712
 30
0.0
 40
1.500000019331236
100
AcDbArc
 50
188.7459106445312
 51
270.0
  0
ARC
  5
D3
330
1F
100
AcDbEntity
  8
0-0
  6
Continuous
 62
     3
370
     9
100
AcDbCircle
 10
-237.5554664416559
 20
-328.981465045712
 30
0.0
 40
1.500000019331236
100
AcDbArc
 50
270.0
 51
351.2539825439453
  0
ARC
  5
D4
330
1F
100
AcDbEntity
  8
0-0
  6
Continuous
 62
     3
370
     9
100
AcDbCircle
 10
-151.4817425713011
 20
-328.981465045712
 30
0.0
 40
1.500000019331236
100
AcDbArc
 50
188.7460021972657
 51
270.0
  0
ARC
  5
D5
330
1F
100
AcDbEntity
  8
0-0
  6
Continuous
 62
     3
370
     9
100
AcDbCircle
 10
-104.1652604397555
 20
-328.981465045712
 30
0.0
 40
1.500000019331236
100
AcDbArc
 50
270.0
 51
355.9148864746094
  0
ARC
  5
D6
330
1F
100
AcDbEntity
  8
0-0
  6
Continuous
 62
     3
370
     9
100
AcDbCircle
 10
-366.6948047545782
 20
-320.4814617465145
 30
0.0
 40
3.000000038662472
100
AcDbArc
 50
90.0
 51
171.253662109375
  0
ARC
  5
D7
330
1F
100
AcDbEntity
  8
0-0
  6
Continuous
 62
     3
370
     9
100
AcDbCircle
 10
-290.8423250776356
 20
-320.4814617465145
 30
0.0
 40
3.000000038662472
100
AcDbArc
 50
8.746337890625
 51
90.0
  0
ARC
  5
D8
330
1F
100
AcDbEntity
  8
0-0
  6
Continuous
 62
     3
370
     9
100
AcDbCircle
 10
-231.6949037305072
 20
-320.4814617465145
 30
0.0
 40
3.000000038662472
100
AcDbArc
 50
90.0
 51
171.2537078857422
  0
ARC
  5
D9
330
1F
100
AcDbEntity
  8
0-0
  6
Continuous
 62
     3
370
     9
100
AcDbCircle
 10
-157.3423547704143
 20
-320.4814617465145
 30
0.0
 40
3.000000038662472
100
AcDbArc
 50
8.746292114257812
 51
90.0
  0
ARC
  5
DA
330
1F
100
AcDbEntity
  8
0-0
  6
Continuous
 62
     3
370
     9
100
AcDbCircle
 10
-105.2011425132353
 20
-313.4814386521311
 30
0.0
 40
4.000000051549963
100
AcDbArc
 50
331.3365478515625
 51
350.0806427001953
  0
ARC
  5
DB
330
1F
100
AcDbEntity
  8
0-0
  6
Continuous
 62
     3
370
     9
100
AcDbCircle
 10
-387.0927539733282
 20
-302.9814782425028
 30
0.0
 40
1.500000019331236
100
AcDbArc
 50
270.0
 51
352.8749847412109
  0
ARC
  5
DC
330
1F
100
AcDbEntity
  8
0-0
  6
Continuous
 62
     3
370
     9
100
AcDbCircle
 10
-117.0927539733282
 20
-302.9814782425028
 30
0.0
 40
1.500000019331236
100
AcDbArc
 50
270.0
 51
352.8749847412109
  0
ARC
  5
DD
330
1F
100
AcDbEntity
  8
0-0
  6
Continuous
 62
     3
370
     9
100
AcDbCircle
 10
-135.4443758588856
 20
-302.9814782425028
 30
0.0
 40
1.500000019331236
100
AcDbArc
 50
187.1250152587891
 51
270.0
  0
ARC
  5
DE
330
1F
100
AcDbEntity
  8
0-0
  6
Continuous
 62
     3
370
     9
100
AcDbCircle
 10
-258.3223979239193
 20
-302.9814782425028
 30
0.0
 40
1.500000019331236
100
AcDbArc
 50
270.0
 51
351.9951324462891
  0
ARC
  5
DF
330
1F
100
AcDbEntity
  8
0-0
  6
Continuous
 62
     3
370
     9
100
AcDbCircle
 10
-264.2147319082943
 20
-302.9814782425028
 30
0.0
 40
1.500000019331236
100
AcDbArc
 50
188.004867553711
 51
270.0
  0
TEXT
  5
E0
330
1F
100
AcDbEntity
  8
0-E
  6
Continuous
 62
     7
370
     9
100
AcDbText
 10
579.126609677432
 20
211.5748604003393
 30
0.0
 40
9.144
  1
樹脂系塗装
 41
1.133333333333333
  7
ＭＳ ゴシック
100
AcDbText
  0
TEXT
  5
E1
330
1F
100
AcDbEntity
  8
0-E
  6
Continuous
 62
     7
370
     9
100
AcDbText
 10
580.1080483915368
 20
233.6525795990303
 30
0.0
 40
9.144
  1
蓋本体：ＦＣ２００
 41
1.148148148148148
  7
ＭＳ ゴシック
100
AcDbText
  0
TEXT
  5
E2
330
1F
100
AcDbEntity
  8
0-E
  6
Continuous
 62
     7
370
     9
100
AcDbText
 10
155.9615409221532
 20
-119.5915214355982
 30
0.0
 40
9.144
  1
排水口グレーチング（Ｐ＝１５）
 41
1.155555555555555
  7
ＭＳ ゴシック
100
AcDbText
  0
TEXT
  5
E3
330
1F
100
AcDbEntity
  8
0-E
  6
Continuous
 62
     7
370
     9
100
AcDbText
 10
154.4087966495605
 20
-139.232329541067
 30
0.0
 40
9.144
  1
ＳＵＳ３０４
 41
1.138888888888888
  7
ＭＳ ゴシック
100
AcDbText
  0
LINE
  5
E4
330
1F
100
AcDbEntity
  8
0-F
  6
Continuous
 62
     7
370
     9
100
AcDbLine
 10
-691.7684758377707
 20
-110.4814370025324
 30
0.0
 11
-100.7684560425848
 21
-110.4814370025324
 31
0.0
  0
LINE
  5
E5
330
1F
100
AcDbEntity
  8
0-F
  6
Continuous
 62
     7
370
     9
100
AcDbLine
 10
-691.7684758377707
 20
-110.4814370025324
 30
0.0
 11
-679.8711732617571
 21
-108.915142925252
 31
0.0
  0
LINE
  5
E6
330
1F
100
AcDbEntity
  8
0-F
  6
Continuous
 62
     7
370
     9
100
AcDbLine
 10
-691.7684758377707
 20
-110.4814370025324
 30
0.0
 11
-679.8711732617571
 21
-112.0477310798128
 31
0.0
  0
LINE
  5
E7
330
1F
100
AcDbEntity
  8
0-F
  6
Continuous
 62
     7
370
     9
100
AcDbLine
 10
-100.7684560425848
 20
-110.4814370025324
 30
0.0
 11
-112.6657586185984
 21
-108.915142925252
 31
0.0
  0
LINE
  5
E8
330
1F
100
AcDbEntity
  8
0-F
  6
Continuous
 62
     7
370
     9
100
AcDbLine
 10
-100.7684560425848
 20
-110.4814370025324
 30
0.0
 11
-112.6657586185984
 21
-112.0477310798128
 31
0.0
  0
LINE
  5
E9
330
1F
100
AcDbEntity
  8
0-F
  6
Continuous
 62
     7
370
     9
100
AcDbLine
 10
-695.7684890345613
 20
-150.4814452505261
 30
0.0
 11
-683.8711864585478
 21
-148.9151511732459
 31
0.0
  0
LINE
  5
EA
330
1F
100
AcDbEntity
  8
0-F
  6
Continuous
 62
     7
370
     9
100
AcDbLine
 10
-695.7684890345613
 20
-150.4814452505261
 30
0.0
 11
-683.8711864585478
 21
-152.0477393278065
 31
0.0
  0
LINE
  5
EB
330
1F
100
AcDbEntity
  8
0-F
  6
Continuous
 62
     7
370
     9
100
AcDbLine
 10
-96.76844284579431
 20
-150.4814452505261
 30
0.0
 11
-108.6657454218079
 21
-148.9151511732459
 31
0.0
  0
LINE
  5
EC
330
1F
100
AcDbEntity
  8
0-F
  6
Continuous
 62
     7
370
     9
100
AcDbLine
 10
-96.76844284579431
 20
-150.4814452505261
 30
0.0
 11
-108.6657454218079
 21
-152.0477393278065
 31
0.0
  0
LINE
  5
ED
330
1F
100
AcDbEntity
  8
0-F
  6
Continuous
 62
     7
370
     9
100
AcDbLine
 10
-95.76848903456118
 20
-150.4814452505261
 30
0.0
 11
-83.87118645854775
 21
-148.9151511732459
 31
0.0
  0
LINE
  5
EE
330
1F
100
AcDbEntity
  8
0-F
  6
Continuous
 62
     7
370
     9
100
AcDbLine
 10
-95.76848903456118
 20
-150.4814452505261
 30
0.0
 11
-83.87118645854775
 21
-152.0477393278065
 31
0.0
  0
LINE
  5
EF
330
1F
100
AcDbEntity
  8
0-F
  6
Continuous
 62
     7
370
     9
100
AcDbLine
 10
389.2315769493915
 20
-30.48146999450864
 30
0.0
 11
292.0315729903544
 21
-30.48146999450864
 31
0.0
  0
LINE
  5
F0
330
1F
100
AcDbEntity
  8
0-F
  6
Continuous
 62
     7
370
     9
100
AcDbLine
 10
389.2315769493915
 20
-2.481328129010308
 30
0.0
 11
332.0316059823307
 21
-2.481328129010308
 31
0.0
  0
LINE
  5
F1
330
1F
100
AcDbEntity
  8
0-F
  6
Continuous
 62
     7
370
     9
100
AcDbLine
 10
333.2315901461819
 20
-30.48146999450864
 30
0.0
 11
331.6652960689015
 21
-18.58411793053051
 31
0.0
  0
LINE
  5
F2
330
1F
100
AcDbEntity
  8
0-F
  6
Continuous
 62
     7
370
     9
100
AcDbLine
 10
333.2315901461819
 20
-30.48146999450864
 30
0.0
 11
334.7978842234623
 21
-18.58411793053051
 31
0.0
  0
LINE
  5
F3
330
1F
100
AcDbEntity
  8
0-F
  6
Continuous
 62
     7
370
     9
100
AcDbLine
 10
334.7978842234623
 20
9.416023934967825
 30
0.0
 11
331.6652960689015
 21
-14.37868019298821
 31
0.0
  0
LINE
  5
F4
330
1F
100
AcDbEntity
  8
0-F
  6
Continuous
 62
     7
370
     9
100
AcDbLine
 10
331.6652960689015
 20
9.416023934967825
 30
0.0
 11
334.7978842234623
 21
-14.37868019298821
 31
0.0
  0
LINE
  5
F5
330
1F
100
AcDbEntity
  8
0-F
  6
Continuous
 62
     7
370
     9
100
AcDbLine
 10
389.2315769493915
 20
331.5186850677803
 30
0.0
 11
332.0316059823307
 21
331.5186850677803
 31
0.0
  0
LINE
  5
F6
330
1F
100
AcDbEntity
  8
0-F
  6
Continuous
 62
     7
370
     9
100
AcDbLine
 10
333.2315901461819
 20
331.5186850677803
 30
0.0
 11
331.6652960689015
 21
319.6213824917668
 31
0.0
  0
LINE
  5
F7
330
1F
100
AcDbEntity
  8
0-F
  6
Continuous
 62
     7
370
     9
100
AcDbLine
 10
333.2315901461819
 20
331.5186850677803
 30
0.0
 11
334.7978842234623
 21
319.6213824917668
 31
0.0
  0
LINE
  5
F8
330
1F
100
AcDbEntity
  8
0-F
  6
Continuous
 62
     7
370
     9
100
AcDbLine
 10
389.2315769493915
 20
359.518678469385
 30
0.0
 11
292.0315729903544
 21
359.518678469385
 31
0.0
  0
LINE
  5
F9
330
1F
100
AcDbEntity
  8
0-F
  6
Continuous
 62
     7
370
     9
100
AcDbLine
 10
389.2315769493915
 20
-35.48143700253218
 30
0.0
 11
252.0315399983778
 21
-35.48143700253218
 31
0.0
  0
LINE
  5
FA
330
1F
100
AcDbEntity
  8
0-F
  6
Continuous
 62
     7
370
     9
100
AcDbLine
 10
389.2315769493915
 20
-32.48142710493948
 30
0.0
 11
292.0315729903544
 21
-32.48142710493948
 31
0.0
  0
LINE
  5
FB
330
1F
100
AcDbEntity
  8
0-F
  6
Continuous
 62
     7
370
     9
100
AcDbLine
 10
293.2315571542057
 20
-59.21091599324154
 30
0.0
 11
293.2315571542057
 21
388.2481244681181
 31
0.0
  0
LINE
  5
FC
330
1F
100
AcDbEntity
  8
0-F
  6
Continuous
 62
     7
370
     9
100
AcDbLine
 10
293.2315571542057
 20
359.518678469385
 30
0.0
 11
291.6652630769253
 21
347.6213758933715
 31
0.0
  0
LINE
  5
FD
330
1F
100
AcDbEntity
  8
0-F
  6
Continuous
 62
     7
370
     9
100
AcDbLine
 10
293.2315571542057
 20
359.518678469385
 30
0.0
 11
294.7978512314861
 21
347.6213758933715
 31
0.0
  0
LINE
  5
FE
330
1F
100
AcDbEntity
  8
0-F
  6
Continuous
 62
     7
370
     9
100
AcDbLine
 10
389.2315769493915
 20
361.5186850677803
 30
0.0
 11
292.0315729903544
 21
361.5186850677803
 31
0.0
  0
LINE
  5
FF
330
1F
100
AcDbEntity
  8
0-F
  6
Continuous
 62
     7
370
     9
100
AcDbLine
 10
389.2315769493915
 20
364.5186454774087
 30
0.0
 11
252.0315399983778
 21
364.5186454774087
 31
0.0
  0
LINE
  5
100
330
1F
100
AcDbEntity
  8
0-F
  6
Continuous
 62
     7
370
     9
100
AcDbLine
 10
293.2315571542057
 20
364.5186454774087
 30
0.0
 11
291.6652630769253
 21
376.4159480534222
 31
0.0
  0
LINE
  5
101
330
1F
100
AcDbEntity
  8
0-F
  6
Continuous
 62
     7
370
     9
100
AcDbLine
 10
293.2315571542057
 20
364.5186454774087
 30
0.0
 11
294.7978512314861
 21
376.4159480534222
 31
0.0
  0
LINE
  5
102
330
1F
100
AcDbEntity
  8
0-F
  6
Continuous
 62
     7
370
     9
100
AcDbLine
 10
253.2315241622293
 20
-35.48143700253218
 30
0.0
 11
253.2315241622293
 21
364.5186454774087
 31
0.0
  0
LINE
  5
103
330
1F
100
AcDbEntity
  8
0-F
  6
Continuous
 62
     7
370
     9
100
AcDbLine
 10
253.2315241622293
 20
-35.48143700253218
 30
0.0
 11
251.6652300849489
 21
-23.58408493855404
 31
0.0
  0
LINE
  5
104
330
1F
100
AcDbEntity
  8
0-F
  6
Continuous
 62
     7
370
     9
100
AcDbLine
 10
253.2315241622293
 20
-35.48143700253218
 30
0.0
 11
254.7978182395097
 21
-23.58408493855404
 31
0.0
  0
LINE
  5
105
330
1F
100
AcDbEntity
  8
0-F
  6
Continuous
 62
     7
370
     9
100
AcDbLine
 10
253.2315241622293
 20
364.5186454774087
 30
0.0
 11
251.6652300849489
 21
352.6213429013951
 31
0.0
  0
LINE
  5
106
330
1F
100
AcDbEntity
  8
0-F
  6
Continuous
 62
     7
370
     9
100
AcDbLine
 10
253.2315241622293
 20
364.5186454774087
 30
0.0
 11
254.7978182395097
 21
352.6213429013951
 31
0.0
  0
LINE
  5
107
330
1F
100
AcDbEntity
  8
0-F
  6
Continuous
 62
     7
370
     9
100
AcDbLine
 10
293.2315571542057
 20
-30.48142050654405
 30
0.0
 11
291.6652630769253
 21
-18.58411793053051
 31
0.0
  0
LINE
  5
108
330
1F
100
AcDbEntity
  8
0-F
  6
Continuous
 62
     7
370
     9
100
AcDbLine
 10
293.2315571542057
 20
-30.48142050654405
 30
0.0
 11
294.7978512314861
 21
-18.58411793053051
 31
0.0
  0
LINE
  5
109
330
1F
100
AcDbEntity
  8
0-F
  6
Continuous
 62
     7
370
     9
100
AcDbLine
 10
293.2315571542057
 20
-35.48143700253218
 30
0.0
 11
291.6652630769253
 21
-47.37873957854572
 31
0.0
  0
LINE
  5
10A
330
1F
100
AcDbEntity
  8
0-F
  6
Continuous
 62
     7
370
     9
100
AcDbLine
 10
293.2315571542057
 20
-35.48143700253218
 30
0.0
 11
294.7978512314861
 21
-47.37873957854572
 31
0.0
  0
LINE
  5
10B
330
1F
100
AcDbEntity
  8
0-F
  6
Continuous
 62
     7
370
     9
100
AcDbLine
 10
393.231392194324
 20
106.8356059926114
 30
0.0
 11
405.1286947703373
 21
108.4019000698918
 31
0.0
  0
LINE
  5
10C
330
1F
100
AcDbEntity
  8
0-F
  6
Continuous
 62
     7
370
     9
100
AcDbLine
 10
393.231392194324
 20
106.8356059926114
 30
0.0
 11
405.1286947703373
 21
105.2693119153309
 31
0.0
  0
LINE
  5
10D
330
1F
100
AcDbEntity
  8
0-F
  6
Continuous
 62
     7
370
     9
100
AcDbLine
 10
433.2315241622294
 20
106.8356059926114
 30
0.0
 11
421.3342215862157
 21
108.4019000698918
 31
0.0
  0
LINE
  5
10E
330
1F
100
AcDbEntity
  8
0-F
  6
Continuous
 62
     7
370
     9
100
AcDbLine
 10
433.2315241622294
 20
106.8356059926114
 30
0.0
 11
421.3342215862157
 21
105.2693119153309
 31
0.0
  0
LINE
  5
10F
330
1F
100
AcDbEntity
  8
0-F
  6
Continuous
 62
     7
370
     9
100
AcDbLine
 10
458.2313592023478
 20
106.8356059926114
 30
0.0
 11
470.1286617783611
 21
108.4019000698918
 31
0.0
  0
LINE
  5
110
330
1F
100
AcDbEntity
  8
0-F
  6
Continuous
 62
     7
370
     9
100
AcDbLine
 10
458.2313592023478
 20
106.8356059926114
 30
0.0
 11
470.1286617783611
 21
105.2693119153309
 31
0.0
  0
LINE
  5
111
330
1F
100
AcDbEntity
  8
0-F
  6
Continuous
 62
     7
370
     9
100
AcDbLine
 10
-695.7684890345613
 20
-39.48135122339363
 30
0.0
 11
-695.7684890345613
 21
-151.6814294143778
 31
0.0
  0
LINE
  5
112
330
1F
100
AcDbEntity
  8
0-F
  6
Continuous
 62
     7
370
     9
100
AcDbLine
 10
-691.7684758377707
 20
-39.48135122339363
 30
0.0
 11
-691.7684758377707
 21
-111.6814211663836
 31
0.0
  0
LINE
  5
113
330
1F
100
AcDbEntity
  8
0-F
  6
Continuous
 62
     7
370
     9
100
AcDbLine
 10
-100.7684560425848
 20
-39.48135122339363
 30
0.0
 11
-100.7684560425848
 21
-111.6814211663836
 31
0.0
  0
LINE
  5
114
330
1F
100
AcDbEntity
  8
0-F
  6
Continuous
 62
     7
370
     9
100
AcDbLine
 10
-96.76844284579431
 20
-39.48135122339363
 30
0.0
 11
-96.76844284579431
 21
-151.6814294143778
 31
0.0
  0
LINE
  5
115
330
1F
100
AcDbEntity
  8
0-F
  6
Continuous
 62
     7
370
     9
100
AcDbLine
 10
-95.76848903456118
 20
-39.48135122339363
 30
0.0
 11
-95.76848903456118
 21
-151.6814294143778
 31
0.0
  0
LINE
  5
116
330
1F
100
AcDbEntity
  8
0-F
  6
Continuous
 62
     7
370
     9
100
AcDbLine
 10
-695.7684890345613
 20
-150.4814452505261
 30
0.0
 11
133.2315241622293
 21
-150.4814452505261
 31
0.0
  0
LINE
  5
117
330
1F
100
AcDbEntity
  8
0-F
  6
Continuous
 62
     7
370
     9
100
AcDbLine
 10
442.7081724413678
 20
127.6659315574339
 30
0.0
 11
437.3432811829219
 21
106.8356059926114
 31
0.0
  0
LINE
  5
118
330
1F
100
AcDbEntity
  8
0-F
  6
Continuous
 62
     7
370
     9
100
AcDbLine
 10
333.2315901461819
 20
-30.48146999450864
 30
0.0
 11
333.2315901461819
 21
386.6808406315472
 31
0.0
  0
LINE
  5
119
330
1F
100
AcDbEntity
  8
0-F
  6
Continuous
 62
     7
370
     9
100
AcDbLine
 10
389.2315769493915
 20
335.5186982645708
 30
0.0
 11
332.0316059823307
 21
335.5186982645708
 31
0.0
  0
LINE
  5
11A
330
1F
100
AcDbEntity
  8
0-F
  6
Continuous
 62
     7
370
     9
100
AcDbLine
 10
389.2315769493915
 20
346.5186850677803
 30
0.0
 11
332.0316059823307
 21
346.5186850677803
 31
0.0
  0
LINE
  5
11B
330
1F
100
AcDbEntity
  8
0-F
  6
Continuous
 62
     7
370
     9
100
AcDbLine
 10
389.2315769493915
 20
350.5186982645708
 30
0.0
 11
332.0316059823307
 21
350.5186982645708
 31
0.0
  0
LINE
  5
11C
330
1F
100
AcDbEntity
  8
0-F
  6
Continuous
 62
     7
370
     9
100
AcDbLine
 10
333.2315901461819
 20
359.518678469385
 30
0.0
 11
331.6652960689015
 21
371.4159810453986
 31
0.0
  0
LINE
  5
11D
330
1F
100
AcDbEntity
  8
0-F
  6
Continuous
 62
     7
370
     9
100
AcDbLine
 10
333.2315901461819
 20
359.518678469385
 30
0.0
 11
334.7978842234623
 21
371.4159810453986
 31
0.0
  0
LINE
  5
11E
330
1F
100
AcDbEntity
  8
0-1
  6
Continuous
 62
     2
370
     9
100
AcDbLine
 10
393.2315901461819
 20
361.5186850677803
 30
0.0
 11
393.2315901461819
 21
364.5186454774087
 31
0.0
  0
LINE
  5
11F
330
1F
100
AcDbEntity
  8
0-1
  6
Continuous
 62
     2
370
     9
100
AcDbLine
 10
393.2315901461819
 20
-32.48142710493948
 30
0.0
 11
393.2315901461819
 21
-35.48143700253218
 31
0.0
  0
LINE
  5
120
330
1F
100
AcDbEntity
  8
0-1
  6
Continuous
 62
     2
370
     9
100
AcDbLine
 10
-696.7684923337588
 20
314.5185794934559
 30
0.0
 11
-696.7684923337588
 21
364.5186454774087
 31
0.0
  0
LINE
  5
121
330
1F
100
AcDbEntity
  8
0-1
  6
Continuous
 62
     2
370
     9
100
AcDbLine
 10
-696.7684923337588
 20
14.51862898142053
 30
0.0
 11
-696.7684923337588
 21
-35.48143700253218
 31
0.0
  0
LINE
  5
122
330
1F
100
AcDbEntity
  8
0-1
  6
Continuous
 62
     2
370
     9
100
AcDbLine
 10
-696.7684923337588
 20
314.5185794934559
 30
0.0
 11
-695.7684890345613
 21
314.5185794934559
 31
0.0
  0
LINE
  5
123
330
1F
100
AcDbEntity
  8
0-1
  6
Continuous
 62
     2
370
     9
100
AcDbLine
 10
-696.7684923337588
 20
14.51862898142053
 30
0.0
 11
-695.7684890345613
 21
14.51862898142053
 31
0.0
  0
LINE
  5
124
330
1F
100
AcDbEntity
  8
0-1
  6
Continuous
 62
     2
370
     9
100
AcDbLine
 10
133.2315241622293
 20
184.5186454774087
 30
0.0
 11
143.2315571542057
 21
184.5186454774087
 31
0.0
  0
LINE
  5
125
330
1F
100
AcDbEntity
  8
0-1
  6
Continuous
 62
     2
370
     9
100
AcDbLine
 10
143.2315571542057
 20
184.5186454774087
 30
0.0
 11
123.231491170253
 21
144.5186124854322
 31
0.0
  0
LINE
  5
126
330
1F
100
AcDbEntity
  8
0-1
  6
Continuous
 62
     2
370
     9
100
AcDbLine
 10
123.231491170253
 20
144.5186124854322
 30
0.0
 11
133.2315241622293
 21
144.5186124854322
 31
0.0
  0
LINE
  5
127
330
1F
100
AcDbEntity
  8
0-1
  6
Continuous
 62
     2
370
     9
100
AcDbLine
 10
133.2315241622293
 20
-55.48135452259135
 30
0.0
 11
133.2315241622293
 21
144.5186124854322
 31
0.0
  0
LINE
  5
128
330
1F
100
AcDbEntity
  8
0-1
  6
Continuous
 62
     2
370
     9
100
AcDbLine
 10
133.2315241622293
 20
184.5186454774087
 30
0.0
 11
133.2315241622293
 21
384.5186124854323
 31
0.0
  0
LINE
  5
129
330
1F
100
AcDbEntity
  8
0-1
  6
Continuous
 62
     2
370
     9
100
AcDbLine
 10
-696.7684923337588
 20
364.5186454774087
 30
0.0
 11
133.2315241622293
 21
364.5186454774087
 31
0.0
  0
LINE
  5
12A
330
1F
100
AcDbEntity
  8
0-1
  6
Continuous
 62
     2
370
     9
100
AcDbLine
 10
-696.7684923337588
 20
361.5186850677803
 30
0.0
 11
133.2315241622293
 21
361.5186850677803
 31
0.0
  0
LINE
  5
12B
330
1F
100
AcDbEntity
  8
0-1
  6
Continuous
 62
     2
370
     9
100
AcDbLine
 10
-696.7684923337588
 20
-35.48143700253218
 30
0.0
 11
133.2315241622293
 21
-35.48143700253218
 31
0.0
  0
LINE
  5
12C
330
1F
100
AcDbEntity
  8
0-1
  6
Continuous
 62
     2
370
     9
100
AcDbLine
 10
-696.7684923337588
 20
-32.48142710493948
 30
0.0
 11
133.2315241622293
 21
-32.48142710493948
 31
0.0
  0
LINE
  5
12D
330
1F
100
AcDbEntity
  8
0-0
  6
Continuous
 62
     3
370
     9
100
AcDbLine
 10
411.2310556761653
 20
170.0186718709897
 30
0.0
 11
425.2312008408611
 21
169.0187180597568
 31
0.0
  0
LINE
  5
12E
330
1F
100
AcDbEntity
  8
0-0
  6
Continuous
 62
     3
370
     9
100
AcDbLine
 10
425.2312008408611
 20
160.0186388790135
 30
0.0
 11
425.2312008408611
 21
169.0187180597568
 31
0.0
  0
LINE
  5
12F
330
1F
100
AcDbEntity
  8
0-0
  6
Continuous
 62
     3
370
     9
100
AcDbLine
 10
420.8316218184794
 20
167.1186771497059
 30
0.0
 11
415.6316244578373
 21
167.1186771497059
 31
0.0
  0
LINE
  5
130
330
1F
100
AcDbEntity
  8
0-0
  6
Continuous
 62
     3
370
     9
100
AcDbLine
 10
415.6316244578373
 20
167.1186771497059
 30
0.0
 11
415.6316244578373
 21
161.9186797890641
 31
0.0
  0
LINE
  5
131
330
1F
100
AcDbEntity
  8
0-0
  6
Continuous
 62
     3
370
     9
100
AcDbLine
 10
420.8316218184794
 20
167.1186771497059
 30
0.0
 11
420.8316218184794
 21
161.9186797890641
 31
0.0
  0
LINE
  5
132
330
1F
100
AcDbEntity
  8
0-0
  6
Continuous
 62
     3
370
     9
100
AcDbLine
 10
411.2310556761653
 20
170.518698264571
 30
0.0
 11
425.2312008408611
 21
169.0187180597568
 31
0.0
  0
LINE
  5
133
330
1F
100
AcDbEntity
  8
0-0
  6
Continuous
 62
     3
370
     9
100
AcDbLine
 10
435.2315307606244
 20
301.6679407687938
 30
0.0
 11
435.2315307606244
 21
27.36941616997638
 31
0.0
  0
LINE
  5
134
330
1F
100
AcDbEntity
  8
0-0
  6
Continuous
 62
     3
370
     9
100
AcDbLine
 10
458.2313592023478
 20
289.5186454774087
 30
0.0
 11
458.2313592023478
 21
39.51871146136136
 31
0.0
  0
LINE
  5
135
330
1F
100
AcDbEntity
  8
0-0
  6
Continuous
 62
     3
370
     9
100
AcDbLine
 10
440.2314977686482
 20
304.5186454774087
 30
0.0
 11
458.2313592023478
 21
289.5186454774087
 31
0.0
  0
LINE
  5
136
330
1F
100
AcDbEntity
  8
0-0
  6
Continuous
 62
     3
370
     9
100
AcDbLine
 10
435.0124970296282
 20
302.292676832983
 30
0.0
 11
433.4506568691548
 21
304.2447790817162
 31
0.0
  0
LINE
  5
137
330
1F
100
AcDbEntity
  8
0-0
  6
Continuous
 62
     3
370
     9
100
AcDbLine
 10
453.2316891221111
 20
326.8055503021553
 30
0.0
 11
453.2316891221111
 21
330.1219367569695
 31
0.0
  0
LINE
  5
138
330
1F
100
AcDbEntity
  8
0-0
  6
Continuous
 62
     3
370
     9
100
AcDbLine
 10
408.2316891221111
 20
335.5185992886418
 30
0.0
 11
408.2316891221111
 21
359.518678469385
 31
0.0
  0
LINE
  5
139
330
1F
100
AcDbEntity
  8
0-0
  6
Continuous
 62
     3
370
     9
100
AcDbLine
 10
413.2315571542057
 20
331.5185860918513
 30
0.0
 11
413.2315571542057
 21
359.518678469385
 31
0.0
  0
LINE
  5
13A
330
1F
100
AcDbEntity
  8
0-0
  6
Continuous
 62
     3
370
     9
100
AcDbLine
 10
408.2316891221111
 20
350.5185992886418
 30
0.0
 11
393.2316891221111
 21
350.5185992886418
 31
0.0
  0
LINE
  5
13B
330
1F
100
AcDbEntity
  8
0-0
  6
Continuous
 62
     3
370
     9
100
AcDbLine
 10
408.2316891221111
 20
346.5185860918513
 30
0.0
 11
393.2316891221111
 21
346.5185860918513
 31
0.0
  0
LINE
  5
13C
330
1F
100
AcDbEntity
  8
0-0
  6
Continuous
 62
     3
370
     9
100
AcDbLine
 10
413.2315571542057
 20
335.5185992886418
 30
0.0
 11
393.2316891221111
 21
335.5185992886418
 31
0.0
  0
LINE
  5
13D
330
1F
100
AcDbEntity
  8
0-0
  6
Continuous
 62
     3
370
     9
100
AcDbLine
 10
413.2315571542057
 20
331.5185860918513
 30
0.0
 11
393.2316891221111
 21
331.5185860918513
 31
0.0
  0
LINE
  5
13E
330
1F
100
AcDbEntity
  8
0-0
  6
Continuous
 62
     3
370
     9
100
AcDbLine
 10
413.2315571542057
 20
359.518678469385
 30
0.0
 11
408.2316891221111
 21
359.518678469385
 31
0.0
  0
LINE
  5
13F
330
1F
100
AcDbEntity
  8
0-0
  6
Continuous
 62
     3
370
     9
100
AcDbLine
 10
393.2316891221111
 20
-21.48124234987176
 30
0.0
 11
393.2316891221111
 21
350.5185992886418
 31
0.0
  0
LINE
  5
140
330
1F
100
AcDbEntity
  8
0-0
  6
Continuous
 62
     3
370
     9
100
AcDbLine
 10
429.5306162230403
 20
326.2766229372904
 30
0.0
 11
411.2315505558103
 21
327.649023169554
 31
0.0
  0
LINE
  5
141
330
1F
100
AcDbEntity
  8
0-0
  6
Continuous
 62
     3
370
     9
100
AcDbLine
 10
433.2315241622294
 20
322.287794020483
 30
0.0
 11
433.2315241622294
 21
6.749562918286983
 31
0.0
  0
LINE
  5
142
330
1F
100
AcDbEntity
  8
0-0
  6
Continuous
 62
     3
370
     9
100
AcDbLine
 10
443.6234028573307
 20
324.0404597721722
 30
0.0
 11
451.9595515059794
 21
325.3228908849255
 31
0.0
  0
LINE
  5
143
330
1F
100
AcDbEntity
  8
0-0
  6
Continuous
 62
     3
370
     9
100
AcDbLine
 10
440.2314977686482
 20
320.0869652620371
 30
0.0
 11
440.2314977686482
 21
8.950391676733034
 31
0.0
  0
LINE
  5
144
330
1F
100
AcDbEntity
  8
0-0
  6
Continuous
 62
     3
370
     9
100
AcDbLine
 10
422.2315373590199
 20
168.5186916661755
 30
0.0
 11
422.2315373590199
 21
160.5186652725945
 31
0.0
  0
LINE
  5
145
330
1F
100
AcDbEntity
  8
0-0
  6
Continuous
 62
     3
370
     9
100
AcDbLine
 10
411.2315505558103
 20
168.5186916661755
 30
0.0
 11
411.2315505558103
 21
331.5185860918513
 31
0.0
  0
LINE
  5
146
330
1F
100
AcDbEntity
  8
0-0
  6
Continuous
 62
     3
370
     9
100
AcDbLine
 10
408.7316165397632
 20
168.5186916661755
 30
0.0
 11
408.7316165397632
 21
160.5186652725945
 31
0.0
  0
LINE
  5
147
330
1F
100
AcDbEntity
  8
0-0
  6
Continuous
 62
     3
370
     9
100
AcDbLine
 10
394.231642933344
 20
168.5186916661755
 30
0.0
 11
394.231642933344
 21
160.5186652725945
 31
0.0
  0
LINE
  5
148
330
1F
100
AcDbEntity
  8
0-0
  6
Continuous
 62
     3
370
     9
100
AcDbLine
 10
422.2315373590199
 20
168.5186916661755
 30
0.0
 11
394.231642933344
 21
168.5186916661755
 31
0.0
  0
LINE
  5
149
330
1F
100
AcDbEntity
  8
0-0
  6
Continuous
 62
     3
370
     9
100
AcDbLine
 10
-622.7684214010096
 20
24.51881043729054
 30
0.0
 11
-622.7684214010096
 21
304.5185465014796
 31
0.0
  0
LINE
  5
14A
330
1F
100
AcDbEntity
  8
0-0
  6
Continuous
 62
     3
370
     9
100
AcDbLine
 10
-629.7684197514109
 20
304.5185465014796
 30
0.0
 11
-622.7684214010096
 21
304.5185465014796
 31
0.0
  0
LINE
  5
14B
330
1F
100
AcDbEntity
  8
0-0
  6
Continuous
 62
     3
370
     9
100
AcDbLine
 10
-629.7684197514109
 20
24.51881043729054
 30
0.0
 11
-629.7684197514109
 21
304.5185465014796
 31
0.0
  0
LINE
  5
14C
330
1F
100
AcDbEntity
  8
0-0
  6
Continuous
 62
     3
370
     9
100
AcDbLine
 10
-625.2684049050215
 20
27.01874445333783
 30
0.0
 11
-625.2684049050215
 21
302.0186124854323
 31
0.0
  0
LINE
  5
14D
330
1F
100
AcDbEntity
  8
0-0
  6
Continuous
 62
     3
370
     9
100
AcDbLine
 10
-627.268436247399
 20
302.0186124854323
 30
0.0
 11
-625.2684049050215
 21
302.0186124854323
 31
0.0
  0
LINE
  5
14E
330
1F
100
AcDbEntity
  8
0-0
  6
Continuous
 62
     3
370
     9
100
AcDbLine
 10
-627.268436247399
 20
27.01874445333783
 30
0.0
 11
-627.268436247399
 21
302.0186124854323
 31
0.0
  0
LINE
  5
14F
330
1F
100
AcDbEntity
  8
0-0
  6
Continuous
 62
     3
370
     9
100
AcDbLine
 10
-622.7684214010096
 20
304.5185465014796
 30
0.0
 11
-625.2684049050215
 21
302.0186124854323
 31
0.0
  0
LINE
  5
150
330
1F
100
AcDbEntity
  8
0-0
  6
Continuous
 62
     3
370
     9
100
AcDbLine
 10
-629.7684197514109
 20
304.5185465014796
 30
0.0
 11
-627.268436247399
 21
302.0186124854323
 31
0.0
  0
LINE
  5
151
330
1F
100
AcDbEntity
  8
0-0
  6
Continuous
 62
     3
370
     9
100
AcDbLine
 10
-507.7684626409801
 20
24.51881043729054
 30
0.0
 11
-507.7684626409801
 21
304.5185465014796
 31
0.0
  0
LINE
  5
152
330
1F
100
AcDbEntity
  8
0-0
  6
Continuous
 62
     3
370
     9
100
AcDbLine
 10
-514.7684609913814
 20
304.5185465014796
 30
0.0
 11
-507.7684626409801
 21
304.5185465014796
 31
0.0
  0
LINE
  5
153
330
1F
100
AcDbEntity
  8
0-0
  6
Continuous
 62
     3
370
     9
100
AcDbLine
 10
-514.7684609913814
 20
24.51881043729054
 30
0.0
 11
-514.7684609913814
 21
304.5185465014796
 31
0.0
  0
LINE
  5
154
330
1F
100
AcDbEntity
  8
0-0
  6
Continuous
 62
     3
370
     9
100
AcDbLine
 10
-510.268446144992
 20
27.01874445333783
 30
0.0
 11
-510.268446144992
 21
302.0186124854323
 31
0.0
  0
LINE
  5
155
330
1F
100
AcDbEntity
  8
0-0
  6
Continuous
 62
     3
370
     9
100
AcDbLine
 10
-512.2685022313518
 20
302.0186124854323
 30
0.0
 11
-510.268446144992
 21
302.0186124854323
 31
0.0
  0
LINE
  5
156
330
1F
100
AcDbEntity
  8
0-0
  6
Continuous
 62
     3
370
     9
100
AcDbLine
 10
-512.2685022313518
 20
27.01874445333783
 30
0.0
 11
-512.2685022313518
 21
302.0186124854323
 31
0.0
  0
LINE
  5
157
330
1F
100
AcDbEntity
  8
0-0
  6
Continuous
 62
     3
370
     9
100
AcDbLine
 10
-507.7684626409801
 20
304.5185465014796
 30
0.0
 11
-510.268446144992
 21
302.0186124854323
 31
0.0
  0
LINE
  5
158
330
1F
100
AcDbEntity
  8
0-0
  6
Continuous
 62
     3
370
     9
100
AcDbLine
 10
-514.7684609913814
 20
304.5185465014796
 30
0.0
 11
-512.2685022313518
 21
302.0186124854323
 31
0.0
  0
LINE
  5
159
330
1F
100
AcDbEntity
  8
0-0
  6
Continuous
 62
     3
370
     9
100
AcDbLine
 10
-399.7684527433872
 20
24.51881043729054
 30
0.0
 11
-399.7684527433872
 21
304.5185465014796
 31
0.0
  0
LINE
  5
15A
330
1F
100
AcDbEntity
  8
0-0
  6
Continuous
 62
     3
370
     9
100
AcDbLine
 10
-397.2684692393755
 20
27.01874445333783
 30
0.0
 11
-397.2684692393755
 21
302.0186124854323
 31
0.0
  0
LINE
  5
15B
330
1F
100
AcDbEntity
  8
0-0
  6
Continuous
 62
     3
370
     9
100
AcDbLine
 10
-399.7684527433872
 20
304.5185465014796
 30
0.0
 11
-397.2684692393755
 21
302.0186124854323
 31
0.0
  0
LINE
  5
15C
330
1F
100
AcDbEntity
  8
0-0
  6
Continuous
 62
     3
370
     9
100
AcDbLine
 10
-399.7684527433872
 20
304.5185465014796
 30
0.0
 11
-392.7684791369683
 21
304.5185465014796
 31
0.0
  0
LINE
  5
15D
330
1F
100
AcDbEntity
  8
0-0
  6
Continuous
 62
     3
370
     9
100
AcDbLine
 10
-397.2684692393755
 20
302.0186124854323
 30
0.0
 11
-395.2684626409801
 21
302.0186124854323
 31
0.0
  0
LINE
  5
15E
330
1F
100
AcDbEntity
  8
0-0
  6
Continuous
 62
     3
370
     9
100
AcDbLine
 10
-695.7684890345613
 20
-21.48124234987176
 30
0.0
 11
-695.7684890345613
 21
350.5185992886418
 31
0.0
  0
LINE
  5
15F
330
1F
100
AcDbEntity
  8
0-0
  6
Continuous
 62
     3
370
     9
100
AcDbLine
 10
-691.7684882097619
 20
-21.48124234987176
 30
0.0
 11
-691.7684882097619
 21
350.5185992886418
 31
0.0
  0
LINE
  5
160
330
1F
100
AcDbEntity
  8
0-0
  6
Continuous
 62
     3
370
     9
100
AcDbLine
 10
-691.7684882097619
 20
331.5185860918513
 30
0.0
 11
-100.7685055305494
 21
331.5185860918513
 31
0.0
  0
LINE
  5
161
330
1F
100
AcDbEntity
  8
0-0
  6
Continuous
 62
     3
370
     9
100
AcDbLine
 10
-691.7684882097619
 20
335.5185992886418
 30
0.0
 11
-100.7685055305494
 21
335.5185992886418
 31
0.0
  0
LINE
  5
162
330
1F
100
AcDbEntity
  8
0-0
  6
Continuous
 62
     3
370
     9
100
AcDbLine
 10
-691.7684882097619
 20
346.5185860918513
 30
0.0
 11
-100.7685055305494
 21
346.5185860918513
 31
0.0
  0
LINE
  5
163
330
1F
100
AcDbEntity
  8
0-0
  6
Continuous
 62
     3
370
     9
100
AcDbLine
 10
-681.7506519225469
 20
327.649023169554
 30
0.0
 11
-110.786304701791
 21
327.649023169554
 31
0.0
  0
LINE
  5
164
330
1F
100
AcDbEntity
  8
0-0
  6
Continuous
 62
     3
370
     9
100
AcDbLine
 10
-681.1792638841177
 20
325.9990944322228
 30
0.0
 11
-111.35769274022
 21
325.9990944322228
 31
0.0
  0
LINE
  5
165
330
1F
100
AcDbEntity
  8
0-0
  6
Continuous
 62
     3
370
     9
100
AcDbLine
 10
-684.1792490377284
 20
322.9990350466654
 30
0.0
 11
-684.1792490377284
 21
6.038321892104705
 31
0.0
  0
LINE
  5
166
330
1F
100
AcDbEntity
  8
0-0
  6
Continuous
 62
     3
370
     9
100
AcDbLine
 10
-690.2684585169832
 20
160.5186652725945
 30
0.0
 11
-690.2684585169832
 21
168.5186916661755
 31
0.0
  0
LINE
  5
167
330
1F
100
AcDbEntity
  8
0-0
  6
Continuous
 62
     3
370
     9
100
AcDbLine
 10
-686.2684453201925
 20
160.5186652725945
 30
0.0
 11
-686.2684453201925
 21
168.5186916661755
 31
0.0
  0
LINE
  5
168
330
1F
100
AcDbEntity
  8
0-0
  6
Continuous
 62
     3
370
     9
100
AcDbLine
 10
-691.7684882097619
 20
168.5186916661755
 30
0.0
 11
-686.2684453201925
 21
168.5186916661755
 31
0.0
  0
LINE
  5
169
330
1F
100
AcDbEntity
  8
0-0
  6
Continuous
 62
     3
370
     9
100
AcDbLine
 10
-688.7582837914763
 20
170.5186487766064
 30
0.0
 11
-687.7582557482965
 21
170.0186223830251
 31
0.0
  0
LINE
  5
16A
330
1F
100
AcDbEntity
  8
0-0
  6
Continuous
 62
     3
370
     9
100
AcDbLine
 10
-687.7582557482965
 20
170.0186223830251
 30
0.0
 11
-684.7506494481486
 21
170.0186223830251
 31
0.0
  0
LINE
  5
16B
330
1F
100
AcDbEntity
  8
0-0
  6
Continuous
 62
     3
370
     9
100
AcDbLine
 10
-684.7506494481486
 20
170.0186223830251
 30
0.0
 11
-687.7582557482965
 21
170.5186487766064
 31
0.0
  0
LINE
  5
16C
330
1F
100
AcDbEntity
  8
0-0
  6
Continuous
 62
     3
370
     9
100
AcDbLine
 10
-687.7582557482965
 20
170.5186487766064
 30
0.0
 11
-688.7582837914763
 21
170.5186487766064
 31
0.0
  0
LINE
  5
16D
330
1F
100
AcDbEntity
  8
0-0
  6
Continuous
 62
     3
370
     9
100
AcDbLine
 10
-684.7506494481486
 20
159.0187345557447
 30
0.0
 11
-684.7506494481486
 21
170.0186223830251
 31
0.0
  0
LINE
  5
16E
330
1F
100
AcDbEntity
  8
0-0
  6
Continuous
 62
     3
370
     9
100
AcDbLine
 10
-688.7582837914763
 20
170.5186487766064
 30
0.0
 11
-688.7582837914763
 21
168.5186916661755
 31
0.0
  0
LINE
  5
16F
330
1F
100
AcDbEntity
  8
0-0
  6
Continuous
 62
     3
370
     9
100
AcDbLine
 10
-685.7506651193373
 20
323.6491089486925
 30
0.0
 11
-685.7506651193373
 21
170.1848524558714
 31
0.0
  0
LINE
  5
170
330
1F
100
AcDbEntity
  8
0-0
  6
Continuous
 62
     3
370
     9
100
AcDbLine
 10
-695.7684890345613
 20
350.5185992886418
 30
0.0
 11
-96.7684923337589
 21
350.5185992886418
 31
0.0
  0
LINE
  5
171
330
1F
100
AcDbEntity
  8
0-0
  6
Continuous
 62
     3
370
     9
100
AcDbLine
 10
428.0320216812328
 20
338.5186586741992
 30
0.0
 11
428.0320216812328
 21
352.5187048629662
 31
0.0
  0
LINE
  5
172
330
1F
100
AcDbEntity
  8
0-0
  6
Continuous
 62
     3
370
     9
100
AcDbLine
 10
428.0320216812328
 20
338.5186586741992
 30
0.0
 11
429.6318685984623
 21
339.9936969448918
 31
0.0
  0
LINE
  5
173
330
1F
100
AcDbEntity
  8
0-0
  6
Continuous
 62
     3
370
     9
100
AcDbLine
 10
428.0320216812328
 20
352.5187048629662
 30
0.0
 11
429.6318685984623
 21
351.0436665922736
 31
0.0
  0
LINE
  5
174
330
1F
100
AcDbEntity
  8
0-0
  6
Continuous
 62
     3
370
     9
100
AcDbLine
 10
428.0320216812328
 20
342.7562141007195
 30
0.0
 11
433.2319200659457
 21
342.7562141007195
 31
0.0
  0
LINE
  5
175
330
1F
100
AcDbEntity
  8
0-0
  6
Continuous
 62
     3
370
     9
100
AcDbLine
 10
428.0320216812328
 20
348.2811494364458
 30
0.0
 11
433.2319200659457
 21
348.2811494364458
 31
0.0
  0
LINE
  5
176
330
1F
100
AcDbEntity
  8
0-0
  6
Continuous
 62
     3
370
     9
100
AcDbLine
 10
427.2319992466886
 20
338.5186586741992
 30
0.0
 11
428.0320216812328
 21
338.5186586741992
 31
0.0
  0
LINE
  5
177
330
1F
100
AcDbEntity
  8
0-0
  6
Continuous
 62
     3
370
     9
100
AcDbLine
 10
429.6318685984623
 20
339.9936969448918
 30
0.0
 11
433.2319200659457
 21
339.9936969448918
 31
0.0
  0
LINE
  5
178
330
1F
100
AcDbEntity
  8
0-0
  6
Continuous
 62
     3
370
     9
100
AcDbLine
 10
433.2319200659457
 20
339.9936969448918
 30
0.0
 11
433.2319200659457
 21
351.0436665922736
 31
0.0
  0
LINE
  5
179
330
1F
100
AcDbEntity
  8
0-0
  6
Continuous
 62
     3
370
     9
100
AcDbLine
 10
437.2319332627361
 20
342.5186718709898
 30
0.0
 11
437.2319332627361
 21
348.5186916661755
 31
0.0
  0
LINE
  5
17A
330
1F
100
AcDbEntity
  8
0-0
  6
Continuous
 62
     3
370
     9
100
AcDbLine
 10
437.2319332627361
 20
342.5186718709898
 30
0.0
 11
438.2319860498982
 21
343.5187246581519
 31
0.0
  0
LINE
  5
17B
330
1F
100
AcDbEntity
  8
0-0
  6
Continuous
 62
     3
370
     9
100
AcDbLine
 10
438.2319860498982
 20
347.5186388790135
 30
0.0
 11
437.2319332627361
 21
348.5186916661755
 31
0.0
  0
LINE
  5
17C
330
1F
100
AcDbEntity
  8
0-0
  6
Continuous
 62
     3
370
     9
100
AcDbLine
 10
429.6318685984623
 20
351.0436665922736
 30
0.0
 11
433.2319200659457
 21
351.0436665922736
 31
0.0
  0
LINE
  5
17D
330
1F
100
AcDbEntity
  8
0-0
  6
Continuous
 62
     3
370
     9
100
AcDbLine
 10
438.2319860498982
 20
343.5187246581519
 30
0.0
 11
438.2319860498982
 21
347.5186388790135
 31
0.0
  0
LINE
  5
17E
330
1F
100
AcDbEntity
  8
0-0
  6
Continuous
 62
     3
370
     9
100
AcDbLine
 10
433.2319200659457
 20
348.5186916661755
 30
0.0
 11
437.2319332627361
 21
348.5186916661755
 31
0.0
  0
LINE
  5
17F
330
1F
100
AcDbEntity
  8
0-0
  6
Continuous
 62
     3
370
     9
100
AcDbLine
 10
438.2319860498982
 20
347.5186388790135
 30
0.0
 11
433.2319200659457
 21
347.5186388790135
 31
0.0
  0
LINE
  5
180
330
1F
100
AcDbEntity
  8
0-0
  6
Continuous
 62
     3
370
     9
100
AcDbLine
 10
433.2319200659457
 20
343.5187246581519
 30
0.0
 11
438.2319860498982
 21
343.5187246581519
 31
0.0
  0
LINE
  5
181
330
1F
100
AcDbEntity
  8
0-0
  6
Continuous
 62
     3
370
     9
100
AcDbLine
 10
433.2319200659457
 20
342.5186718709898
 30
0.0
 11
437.2319332627361
 21
342.5186718709898
 31
0.0
  0
LINE
  5
182
330
1F
100
AcDbEntity
  8
0-0
  6
Continuous
 62
     3
370
     9
100
AcDbLine
 10
413.2315571542057
 20
341.0186916661755
 30
0.0
 11
427.2319992466886
 21
341.0186916661755
 31
0.0
  0
LINE
  5
183
330
1F
100
AcDbEntity
  8
0-0
  6
Continuous
 62
     3
370
     9
100
AcDbLine
 10
413.2315571542057
 20
350.0187708469188
 30
0.0
 11
427.2319992466886
 21
350.0187708469188
 31
0.0
  0
LINE
  5
184
330
1F
100
AcDbEntity
  8
0-0
  6
Continuous
 62
     3
370
     9
100
AcDbLine
 10
413.2315571542057
 20
348.5186916661755
 30
0.0
 11
427.2319992466886
 21
348.5186916661755
 31
0.0
  0
LINE
  5
185
330
1F
100
AcDbEntity
  8
0-0
  6
Continuous
 62
     3
370
     9
100
AcDbLine
 10
427.2319992466886
 20
347.5186388790135
 30
0.0
 11
413.2315571542057
 21
347.5186388790135
 31
0.0
  0
LINE
  5
186
330
1F
100
AcDbEntity
  8
0-0
  6
Continuous
 62
     3
370
     9
100
AcDbLine
 10
427.2319992466886
 20
343.5187246581519
 30
0.0
 11
413.2315571542057
 21
343.5187246581519
 31
0.0
  0
LINE
  5
187
330
1F
100
AcDbEntity
  8
0-0
  6
Continuous
 62
     3
370
     9
100
AcDbLine
 10
413.2315571542057
 20
342.5186718709898
 30
0.0
 11
427.2319992466886
 21
342.5186718709898
 31
0.0
  0
LINE
  5
188
330
1F
100
AcDbEntity
  8
0-0
  6
Continuous
 62
     3
370
     9
100
AcDbLine
 10
427.2319992466886
 20
352.5187048629662
 30
0.0
 11
428.0320216812328
 21
352.5187048629662
 31
0.0
  0
LINE
  5
189
330
1F
100
AcDbEntity
  8
0-0
  6
Continuous
 62
     3
370
     9
100
AcDbLine
 10
425.9180937884961
 20
355.6829653148242
 30
0.0
 11
413.2315571542057
 21
357.2685596982701
 31
0.0
  0
LINE
  5
18A
330
1F
100
AcDbEntity
  8
0-0
  6
Continuous
 62
     3
370
     9
100
AcDbLine
 10
427.2319992466886
 20
354.1944663177803
 30
0.0
 11
427.2319992466886
 21
337.1001356589965
 31
0.0
  0
LINE
  5
18B
330
1F
100
AcDbEntity
  8
0-0
  6
Continuous
 62
     3
370
     9
100
AcDbLine
 10
-169.7684857353636
 20
24.51881043729054
 30
0.0
 11
-169.7684857353636
 21
304.5185465014796
 31
0.0
  0
LINE
  5
18C
330
1F
100
AcDbEntity
  8
0-0
  6
Continuous
 62
     3
370
     9
100
AcDbLine
 10
-162.7685616169092
 20
304.5185465014796
 30
0.0
 11
-169.7684857353636
 21
304.5185465014796
 31
0.0
  0
LINE
  5
18D
330
1F
100
AcDbEntity
  8
0-0
  6
Continuous
 62
     3
370
     9
100
AcDbLine
 10
-162.7685616169092
 20
24.51881043729054
 30
0.0
 11
-162.7685616169092
 21
304.5185465014796
 31
0.0
  0
LINE
  5
18E
330
1F
100
AcDbEntity
  8
0-0
  6
Continuous
 62
     3
370
     9
100
AcDbLine
 10
-167.2685517193163
 20
27.01874445333783
 30
0.0
 11
-167.2685517193163
 21
302.0186124854323
 31
0.0
  0
LINE
  5
18F
330
1F
100
AcDbEntity
  8
0-0
  6
Continuous
 62
     3
370
     9
100
AcDbLine
 10
-165.2684956329565
 20
302.0186124854323
 30
0.0
 11
-167.2685517193163
 21
302.0186124854323
 31
0.0
  0
LINE
  5
190
330
1F
100
AcDbEntity
  8
0-0
  6
Continuous
 62
     3
370
     9
100
AcDbLine
 10
-165.2684956329565
 20
27.01874445333783
 30
0.0
 11
-165.2684956329565
 21
302.0186124854323
 31
0.0
  0
LINE
  5
191
330
1F
100
AcDbEntity
  8
0-0
  6
Continuous
 62
     3
370
     9
100
AcDbLine
 10
-169.7684857353636
 20
304.5185465014796
 30
0.0
 11
-167.2685517193163
 21
302.0186124854323
 31
0.0
  0
LINE
  5
192
330
1F
100
AcDbEntity
  8
0-0
  6
Continuous
 62
     3
370
     9
100
AcDbLine
 10
-162.7685616169092
 20
304.5185465014796
 30
0.0
 11
-165.2684956329565
 21
302.0186124854323
 31
0.0
  0
LINE
  5
193
330
1F
100
AcDbEntity
  8
0-0
  6
Continuous
 62
     3
370
     9
100
AcDbLine
 10
-284.7684692393755
 20
24.51881043729054
 30
0.0
 11
-284.7684692393755
 21
304.5185465014796
 31
0.0
  0
LINE
  5
194
330
1F
100
AcDbEntity
  8
0-0
  6
Continuous
 62
     3
370
     9
100
AcDbLine
 10
-277.7684956329565
 20
304.5185465014796
 30
0.0
 11
-284.7684692393755
 21
304.5185465014796
 31
0.0
  0
LINE
  5
195
330
1F
100
AcDbEntity
  8
0-0
  6
Continuous
 62
     3
370
     9
100
AcDbLine
 10
-277.7684956329565
 20
24.51881043729054
 30
0.0
 11
-277.7684956329565
 21
304.5185465014796
 31
0.0
  0
LINE
  5
196
330
1F
100
AcDbEntity
  8
0-0
  6
Continuous
 62
     3
370
     9
100
AcDbLine
 10
-282.2684857353636
 20
27.01874445333783
 30
0.0
 11
-282.2684857353636
 21
302.0186124854323
 31
0.0
  0
LINE
  5
197
330
1F
100
AcDbEntity
  8
0-0
  6
Continuous
 62
     3
370
     9
100
AcDbLine
 10
-280.2684296490038
 20
302.0186124854323
 30
0.0
 11
-282.2684857353636
 21
302.0186124854323
 31
0.0
  0
LINE
  5
198
330
1F
100
AcDbEntity
  8
0-0
  6
Continuous
 62
     3
370
     9
100
AcDbLine
 10
-280.2684296490038
 20
27.01874445333783
 30
0.0
 11
-280.2684296490038
 21
302.0186124854323
 31
0.0
  0
LINE
  5
199
330
1F
100
AcDbEntity
  8
0-0
  6
Continuous
 62
     3
370
     9
100
AcDbLine
 10
-284.7684692393755
 20
304.5185465014796
 30
0.0
 11
-282.2684857353636
 21
302.0186124854323
 31
0.0
  0
LINE
  5
19A
330
1F
100
AcDbEntity
  8
0-0
  6
Continuous
 62
     3
370
     9
100
AcDbLine
 10
-277.7684956329565
 20
304.5185465014796
 30
0.0
 11
-280.2684296490038
 21
302.0186124854323
 31
0.0
  0
LINE
  5
19B
330
1F
100
AcDbEntity
  8
0-0
  6
Continuous
 62
     3
370
     9
100
AcDbLine
 10
-392.7684791369683
 20
24.51881043729054
 30
0.0
 11
-392.7684791369683
 21
304.5185465014796
 31
0.0
  0
LINE
  5
19C
330
1F
100
AcDbEntity
  8
0-0
  6
Continuous
 62
     3
370
     9
100
AcDbLine
 10
-395.2684626409801
 20
27.01874445333783
 30
0.0
 11
-395.2684626409801
 21
302.0186124854323
 31
0.0
  0
LINE
  5
19D
330
1F
100
AcDbEntity
  8
0-0
  6
Continuous
 62
     3
370
     9
100
AcDbLine
 10
-392.7684791369683
 20
304.5185465014796
 30
0.0
 11
-395.2684626409801
 21
302.0186124854323
 31
0.0
  0
LINE
  5
19E
330
1F
100
AcDbEntity
  8
0-0
  6
Continuous
 62
     3
370
     9
100
AcDbLine
 10
-96.7684923337589
 20
-21.48124234987176
 30
0.0
 11
-96.7684923337589
 21
350.5185992886418
 31
0.0
  0
LINE
  5
19F
330
1F
100
AcDbEntity
  8
0-0
  6
Continuous
 62
     3
370
     9
100
AcDbLine
 10
-100.7685055305494
 20
-21.48124234987176
 30
0.0
 11
-100.7685055305494
 21
350.5185992886418
 31
0.0
  0
LINE
  5
1A0
330
1F
100
AcDbEntity
  8
0-0
  6
Continuous
 62
     3
370
     9
100
AcDbLine
 10
-108.3577323305916
 20
322.9990350466654
 30
0.0
 11
-108.3577323305916
 21
6.038321892104705
 31
0.0
  0
LINE
  5
1A1
330
1F
100
AcDbEntity
  8
0-0
  6
Continuous
 62
     3
370
     9
100
AcDbLine
 10
-102.2684857353636
 20
160.5186652725945
 30
0.0
 11
-102.2684857353636
 21
168.5186916661755
 31
0.0
  0
LINE
  5
1A2
330
1F
100
AcDbEntity
  8
0-0
  6
Continuous
 62
     3
370
     9
100
AcDbLine
 10
-106.2684989321541
 20
160.5186652725945
 30
0.0
 11
-106.2684989321541
 21
168.5186916661755
 31
0.0
  0
LINE
  5
1A3
330
1F
100
AcDbEntity
  8
0-0
  6
Continuous
 62
     3
370
     9
100
AcDbLine
 10
-100.7685055305494
 20
168.5186916661755
 30
0.0
 11
-106.2684989321541
 21
168.5186916661755
 31
0.0
  0
LINE
  5
1A4
330
1F
100
AcDbEntity
  8
0-0
  6
Continuous
 62
     3
370
     9
100
AcDbLine
 10
-103.7786604608704
 20
170.5186487766064
 30
0.0
 11
-104.778663760068
 21
170.0186223830251
 31
0.0
  0
LINE
  5
1A5
330
1F
100
AcDbEntity
  8
0-0
  6
Continuous
 62
     3
370
     9
100
AcDbLine
 10
-104.778663760068
 20
170.0186223830251
 30
0.0
 11
-107.7862948041981
 21
170.0186223830251
 31
0.0
  0
LINE
  5
1A6
330
1F
100
AcDbEntity
  8
0-0
  6
Continuous
 62
     3
370
     9
100
AcDbLine
 10
-107.7862948041981
 20
170.0186223830251
 30
0.0
 11
-104.778663760068
 21
170.5186487766064
 31
0.0
  0
LINE
  5
1A7
330
1F
100
AcDbEntity
  8
0-0
  6
Continuous
 62
     3
370
     9
100
AcDbLine
 10
-104.778663760068
 20
170.5186487766064
 30
0.0
 11
-103.7786604608704
 21
170.5186487766064
 31
0.0
  0
LINE
  5
1A8
330
1F
100
AcDbEntity
  8
0-0
  6
Continuous
 62
     3
370
     9
100
AcDbLine
 10
-107.7862948041981
 20
159.0187345557447
 30
0.0
 11
-107.7862948041981
 21
170.0186223830251
 31
0.0
  0
LINE
  5
1A9
330
1F
100
AcDbEntity
  8
0-0
  6
Continuous
 62
     3
370
     9
100
AcDbLine
 10
-103.7786604608704
 20
170.5186487766064
 30
0.0
 11
-103.7786604608704
 21
168.5186916661755
 31
0.0
  0
LINE
  5
1AA
330
1F
100
AcDbEntity
  8
0-0
  6
Continuous
 62
     3
370
     9
100
AcDbLine
 10
-106.7862915050005
 20
323.6491089486925
 30
0.0
 11
-106.7862915050005
 21
170.1848524558714
 31
0.0
  0
LINE
  5
1AB
330
1F
100
AcDbEntity
  8
0-0
  6
Continuous
 62
     3
370
     9
100
AcDbLine
 10
-678.7684700641748
 20
359.518678469385
 30
0.0
 11
-653.7684494441896
 21
359.518678469385
 31
0.0
  0
LINE
  5
1AC
330
1F
100
AcDbEntity
  8
0-0
  6
Continuous
 62
     3
370
     9
100
AcDbLine
 10
-653.7684494441896
 20
359.518678469385
 30
0.0
 11
-653.7684494441896
 21
350.5185992886418
 31
0.0
  0
LINE
  5
1AD
330
1F
100
AcDbEntity
  8
0-0
  6
Continuous
 62
     3
370
     9
100
AcDbLine
 10
-653.7684494441896
 20
346.5185860918513
 30
0.0
 11
-653.7684494441896
 21
335.5185992886418
 31
0.0
  0
LINE
  5
1AE
330
1F
100
AcDbEntity
  8
0-0
  6
Continuous
 62
     3
370
     9
100
AcDbLine
 10
-678.7684700641748
 20
359.518678469385
 30
0.0
 11
-678.7684700641748
 21
350.5185992886418
 31
0.0
  0
LINE
  5
1AF
330
1F
100
AcDbEntity
  8
0-0
  6
Continuous
 62
     3
370
     9
100
AcDbLine
 10
-678.7684700641748
 20
346.5185860918513
 30
0.0
 11
-678.7684700641748
 21
335.5185992886418
 31
0.0
  0
LINE
  5
1B0
330
1F
100
AcDbEntity
  8
0-0
  6
Continuous
 62
     3
370
     9
100
AcDbLine
 10
-543.768482436166
 20
359.518678469385
 30
0.0
 11
-518.7684494441896
 21
359.518678469385
 31
0.0
  0
LINE
  5
1B1
330
1F
100
AcDbEntity
  8
0-0
  6
Continuous
 62
     3
370
     9
100
AcDbLine
 10
-518.7684494441896
 20
359.518678469385
 30
0.0
 11
-518.7684494441896
 21
350.5185992886418
 31
0.0
  0
LINE
  5
1B2
330
1F
100
AcDbEntity
  8
0-0
  6
Continuous
 62
     3
370
     9
100
AcDbLine
 10
-518.7684494441896
 20
346.5185860918513
 30
0.0
 11
-518.7684494441896
 21
335.5185992886418
 31
0.0
  0
LINE
  5
1B3
330
1F
100
AcDbEntity
  8
0-0
  6
Continuous
 62
     3
370
     9
100
AcDbLine
 10
-543.768482436166
 20
359.518678469385
 30
0.0
 11
-543.768482436166
 21
350.5185992886418
 31
0.0
  0
LINE
  5
1B4
330
1F
100
AcDbEntity
  8
0-0
  6
Continuous
 62
     3
370
     9
100
AcDbLine
 10
-543.768482436166
 20
346.5185860918513
 30
0.0
 11
-543.768482436166
 21
335.5185992886418
 31
0.0
  0
LINE
  5
1B5
330
1F
100
AcDbEntity
  8
0-0
  6
Continuous
 62
     3
370
     9
100
AcDbLine
 10
-408.768482436166
 20
359.518678469385
 30
0.0
 11
-408.768482436166
 21
350.5185992886418
 31
0.0
  0
LINE
  5
1B6
330
1F
100
AcDbEntity
  8
0-0
  6
Continuous
 62
     3
370
     9
100
AcDbLine
 10
-408.768482436166
 20
346.5185860918513
 30
0.0
 11
-408.768482436166
 21
335.5185992886418
 31
0.0
  0
LINE
  5
1B7
330
1F
100
AcDbEntity
  8
0-0
  6
Continuous
 62
     3
370
     9
100
AcDbLine
 10
-408.768482436166
 20
359.518678469385
 30
0.0
 11
-383.7684494441896
 21
359.518678469385
 31
0.0
  0
LINE
  5
1B8
330
1F
100
AcDbEntity
  8
0-0
  6
Continuous
 62
     3
370
     9
100
AcDbLine
 10
-113.7684989321541
 20
359.518678469385
 30
0.0
 11
-138.768482436166
 21
359.518678469385
 31
0.0
  0
LINE
  5
1B9
330
1F
100
AcDbEntity
  8
0-0
  6
Continuous
 62
     3
370
     9
100
AcDbLine
 10
-138.768482436166
 20
359.518678469385
 30
0.0
 11
-138.768482436166
 21
350.5185992886418
 31
0.0
  0
LINE
  5
1BA
330
1F
100
AcDbEntity
  8
0-0
  6
Continuous
 62
     3
370
     9
100
AcDbLine
 10
-138.768482436166
 20
346.5185860918513
 30
0.0
 11
-138.768482436166
 21
335.5185992886418
 31
0.0
  0
LINE
  5
1BB
330
1F
100
AcDbEntity
  8
0-0
  6
Continuous
 62
     3
370
     9
100
AcDbLine
 10
-113.7684989321541
 20
359.518678469385
 30
0.0
 11
-113.7684989321541
 21
350.5185992886418
 31
0.0
  0
LINE
  5
1BC
330
1F
100
AcDbEntity
  8
0-0
  6
Continuous
 62
     3
370
     9
100
AcDbLine
 10
-113.7684989321541
 20
346.5185860918513
 30
0.0
 11
-113.7684989321541
 21
335.5185992886418
 31
0.0
  0
LINE
  5
1BD
330
1F
100
AcDbEntity
  8
0-0
  6
Continuous
 62
     3
370
     9
100
AcDbLine
 10
-248.7684494441896
 20
359.518678469385
 30
0.0
 11
-273.7685319241305
 21
359.518678469385
 31
0.0
  0
LINE
  5
1BE
330
1F
100
AcDbEntity
  8
0-0
  6
Continuous
 62
     3
370
     9
100
AcDbLine
 10
-273.7685319241305
 20
359.518678469385
 30
0.0
 11
-273.7685319241305
 21
350.5185992886418
 31
0.0
  0
LINE
  5
1BF
330
1F
100
AcDbEntity
  8
0-0
  6
Continuous
 62
     3
370
     9
100
AcDbLine
 10
-273.7685319241305
 20
346.5185860918513
 30
0.0
 11
-273.7685319241305
 21
335.5185992886418
 31
0.0
  0
LINE
  5
1C0
330
1F
100
AcDbEntity
  8
0-0
  6
Continuous
 62
     3
370
     9
100
AcDbLine
 10
-248.7684494441896
 20
359.518678469385
 30
0.0
 11
-248.7684494441896
 21
350.5185992886418
 31
0.0
  0
LINE
  5
1C1
330
1F
100
AcDbEntity
  8
0-0
  6
Continuous
 62
     3
370
     9
100
AcDbLine
 10
-248.7684494441896
 20
346.5185860918513
 30
0.0
 11
-248.7684494441896
 21
335.5185992886418
 31
0.0
  0
LINE
  5
1C2
330
1F
100
AcDbEntity
  8
0-0
  6
Continuous
 62
     3
370
     9
100
AcDbLine
 10
-383.7684494441896
 20
359.518678469385
 30
0.0
 11
-383.7684494441896
 21
350.5185992886418
 31
0.0
  0
LINE
  5
1C3
330
1F
100
AcDbEntity
  8
0-0
  6
Continuous
 62
     3
370
     9
100
AcDbLine
 10
-383.7684494441896
 20
346.5185860918513
 30
0.0
 11
-383.7684494441896
 21
335.5185992886418
 31
0.0
  0
LINE
  5
1C4
330
1F
100
AcDbEntity
  8
0-0
  6
Continuous
 62
     3
370
     9
100
AcDbLine
 10
451.8385039447461
 20
331.6181558764796
 30
0.0
 11
430.9470607437328
 21
333.1104159588276
 31
0.0
  0
LINE
  5
1C5
330
1F
100
AcDbEntity
  8
0-0
  6
Continuous
 62
     3
370
     9
100
AcDbLine
 10
-629.7684197514109
 20
24.51881043729054
 30
0.0
 11
-622.7684214010096
 21
24.51881043729054
 31
0.0
  0
LINE
  5
1C6
330
1F
100
AcDbEntity
  8
0-0
  6
Continuous
 62
     3
370
     9
100
AcDbLine
 10
-627.268436247399
 20
27.01874445333783
 30
0.0
 11
-625.2684049050215
 21
27.01874445333783
 31
0.0
  0
LINE
  5
1C7
330
1F
100
AcDbEntity
  8
0-0
  6
Continuous
 62
     3
370
     9
100
AcDbLine
 10
-622.7684214010096
 20
24.51881043729054
 30
0.0
 11
-625.2684049050215
 21
27.01874445333783
 31
0.0
  0
LINE
  5
1C8
330
1F
100
AcDbEntity
  8
0-0
  6
Continuous
 62
     3
370
     9
100
AcDbLine
 10
-629.7684197514109
 20
24.51881043729054
 30
0.0
 11
-627.268436247399
 21
27.01874445333783
 31
0.0
  0
LINE
  5
1C9
330
1F
100
AcDbEntity
  8
0-0
  6
Continuous
 62
     3
370
     9
100
AcDbLine
 10
-514.7684609913814
 20
24.51881043729054
 30
0.0
 11
-507.7684626409801
 21
24.51881043729054
 31
0.0
  0
LINE
  5
1CA
330
1F
100
AcDbEntity
  8
0-0
  6
Continuous
 62
     3
370
     9
100
AcDbLine
 10
-512.2685022313518
 20
27.01874445333783
 30
0.0
 11
-510.268446144992
 21
27.01874445333783
 31
0.0
  0
LINE
  5
1CB
330
1F
100
AcDbEntity
  8
0-0
  6
Continuous
 62
     3
370
     9
100
AcDbLine
 10
-507.7684626409801
 20
24.51881043729054
 30
0.0
 11
-510.268446144992
 21
27.01874445333783
 31
0.0
  0
LINE
  5
1CC
330
1F
100
AcDbEntity
  8
0-0
  6
Continuous
 62
     3
370
     9
100
AcDbLine
 10
-514.7684609913814
 20
24.51881043729054
 30
0.0
 11
-512.2685022313518
 21
27.01874445333783
 31
0.0
  0
LINE
  5
1CD
330
1F
100
AcDbEntity
  8
0-0
  6
Continuous
 62
     3
370
     9
100
AcDbLine
 10
-399.7684527433872
 20
24.51881043729054
 30
0.0
 11
-397.2684692393755
 21
27.01874445333783
 31
0.0
  0
LINE
  5
1CE
330
1F
100
AcDbEntity
  8
0-0
  6
Continuous
 62
     3
370
     9
100
AcDbLine
 10
-399.7684527433872
 20
24.51881043729054
 30
0.0
 11
-392.7684791369683
 21
24.51881043729054
 31
0.0
  0
LINE
  5
1CF
330
1F
100
AcDbEntity
  8
0-0
  6
Continuous
 62
     3
370
     9
100
AcDbLine
 10
-397.2684692393755
 20
27.01874445333783
 30
0.0
 11
-395.2684626409801
 21
27.01874445333783
 31
0.0
  0
LINE
  5
1D0
330
1F
100
AcDbEntity
  8
0-0
  6
Continuous
 62
     3
370
     9
100
AcDbLine
 10
-691.7684882097619
 20
-2.481229153081131
 30
0.0
 11
-100.7685055305494
 21
-2.481229153081131
 31
0.0
  0
LINE
  5
1D1
330
1F
100
AcDbEntity
  8
0-0
  6
Continuous
 62
     3
370
     9
100
AcDbLine
 10
-691.7684882097619
 20
-6.481242349871764
 30
0.0
 11
-100.7685055305494
 21
-6.481242349871764
 31
0.0
  0
LINE
  5
1D2
330
1F
100
AcDbEntity
  8
0-0
  6
Continuous
 62
     3
370
     9
100
AcDbLine
 10
-691.7684882097619
 20
-17.48122915308113
 30
0.0
 11
-100.7685055305494
 21
-17.48122915308113
 31
0.0
  0
LINE
  5
1D3
330
1F
100
AcDbEntity
  8
0-0
  6
Continuous
 62
     3
370
     9
100
AcDbLine
 10
-681.7506519225469
 20
1.38833376921616
 30
0.0
 11
-110.786304701791
 21
1.38833376921616
 31
0.0
  0
LINE
  5
1D4
330
1F
100
AcDbEntity
  8
0-0
  6
Continuous
 62
     3
370
     9
100
AcDbLine
 10
-681.1792638841177
 20
3.038262506547198
 30
0.0
 11
-111.35769274022
 21
3.038262506547198
 31
0.0
  0
LINE
  5
1D5
330
1F
100
AcDbEntity
  8
0-0
  6
Continuous
 62
     3
370
     9
100
AcDbLine
 10
-691.7684882097619
 20
160.5186652725945
 30
0.0
 11
-686.2684453201925
 21
160.5186652725945
 31
0.0
  0
LINE
  5
1D6
330
1F
100
AcDbEntity
  8
0-0
  6
Continuous
 62
     3
370
     9
100
AcDbLine
 10
-688.7582837914763
 20
158.5187081621639
 30
0.0
 11
-687.7582557482965
 21
159.0187345557447
 31
0.0
  0
LINE
  5
1D7
330
1F
100
AcDbEntity
  8
0-0
  6
Continuous
 62
     3
370
     9
100
AcDbLine
 10
-687.7582557482965
 20
159.0187345557447
 30
0.0
 11
-684.7506494481486
 21
159.0187345557447
 31
0.0
  0
LINE
  5
1D8
330
1F
100
AcDbEntity
  8
0-0
  6
Continuous
 62
     3
370
     9
100
AcDbLine
 10
-684.7506494481486
 20
159.0187345557447
 30
0.0
 11
-687.7582557482965
 21
158.5187081621639
 31
0.0
  0
LINE
  5
1D9
330
1F
100
AcDbEntity
  8
0-0
  6
Continuous
 62
     3
370
     9
100
AcDbLine
 10
-687.7582557482965
 20
158.5187081621639
 30
0.0
 11
-688.7582837914763
 21
158.5187081621639
 31
0.0
  0
LINE
  5
1DA
330
1F
100
AcDbEntity
  8
0-0
  6
Continuous
 62
     3
370
     9
100
AcDbLine
 10
-688.7582837914763
 20
158.5187081621639
 30
0.0
 11
-688.7582837914763
 21
160.5186652725945
 31
0.0
  0
LINE
  5
1DB
330
1F
100
AcDbEntity
  8
0-0
  6
Continuous
 62
     3
370
     9
100
AcDbLine
 10
-685.7506651193373
 20
5.388247990077616
 30
0.0
 11
-685.7506651193373
 21
158.8525044828984
 31
0.0
  0
LINE
  5
1DC
330
1F
100
AcDbEntity
  8
0-0
  6
Continuous
 62
     3
370
     9
100
AcDbLine
 10
-695.7684890345613
 20
-21.48124234987176
 30
0.0
 11
-96.7684923337589
 21
-21.48124234987176
 31
0.0
  0
LINE
  5
1DD
330
1F
100
AcDbEntity
  8
0-0
  6
Continuous
 62
     3
370
     9
100
AcDbLine
 10
-162.7685616169092
 20
24.51881043729054
 30
0.0
 11
-169.7684857353636
 21
24.51881043729054
 31
0.0
  0
LINE
  5
1DE
330
1F
100
AcDbEntity
  8
0-0
  6
Continuous
 62
     3
370
     9
100
AcDbLine
 10
-165.2684956329565
 20
27.01874445333783
 30
0.0
 11
-167.2685517193163
 21
27.01874445333783
 31
0.0
  0
LINE
  5
1DF
330
1F
100
AcDbEntity
  8
0-0
  6
Continuous
 62
     3
370
     9
100
AcDbLine
 10
-169.7684857353636
 20
24.51881043729054
 30
0.0
 11
-167.2685517193163
 21
27.01874445333783
 31
0.0
  0
LINE
  5
1E0
330
1F
100
AcDbEntity
  8
0-0
  6
Continuous
 62
     3
370
     9
100
AcDbLine
 10
-162.7685616169092
 20
24.51881043729054
 30
0.0
 11
-165.2684956329565
 21
27.01874445333783
 31
0.0
  0
LINE
  5
1E1
330
1F
100
AcDbEntity
  8
0-0
  6
Continuous
 62
     3
370
     9
100
AcDbLine
 10
-277.7684956329565
 20
24.51881043729054
 30
0.0
 11
-284.7684692393755
 21
24.51881043729054
 31
0.0
  0
LINE
  5
1E2
330
1F
100
AcDbEntity
  8
0-0
  6
Continuous
 62
     3
370
     9
100
AcDbLine
 10
-280.2684296490038
 20
27.01874445333783
 30
0.0
 11
-282.2684857353636
 21
27.01874445333783
 31
0.0
  0
LINE
  5
1E3
330
1F
100
AcDbEntity
  8
0-0
  6
Continuous
 62
     3
370
     9
100
AcDbLine
 10
-284.7684692393755
 20
24.51881043729054
 30
0.0
 11
-282.2684857353636
 21
27.01874445333783
 31
0.0
  0
LINE
  5
1E4
330
1F
100
AcDbEntity
  8
0-0
  6
Continuous
 62
     3
370
     9
100
AcDbLine
 10
-277.7684956329565
 20
24.51881043729054
 30
0.0
 11
-280.2684296490038
 21
27.01874445333783
 31
0.0
  0
LINE
  5
1E5
330
1F
100
AcDbEntity
  8
0-0
  6
Continuous
 62
     3
370
     9
100
AcDbLine
 10
-392.7684791369683
 20
24.51881043729054
 30
0.0
 11
-395.2684626409801
 21
27.01874445333783
 31
0.0
  0
LINE
  5
1E6
330
1F
100
AcDbEntity
  8
0-0
  6
Continuous
 62
     3
370
     9
100
AcDbLine
 10
-100.7685055305494
 20
160.5186652725945
 30
0.0
 11
-106.2684989321541
 21
160.5186652725945
 31
0.0
  0
LINE
  5
1E7
330
1F
100
AcDbEntity
  8
0-0
  6
Continuous
 62
     3
370
     9
100
AcDbLine
 10
-103.7786604608704
 20
158.5187081621639
 30
0.0
 11
-104.778663760068
 21
159.0187345557447
 31
0.0
  0
LINE
  5
1E8
330
1F
100
AcDbEntity
  8
0-0
  6
Continuous
 62
     3
370
     9
100
AcDbLine
 10
-104.778663760068
 20
159.0187345557447
 30
0.0
 11
-107.7862948041981
 21
159.0187345557447
 31
0.0
  0
LINE
  5
1E9
330
1F
100
AcDbEntity
  8
0-0
  6
Continuous
 62
     3
370
     9
100
AcDbLine
 10
-107.7862948041981
 20
159.0187345557447
 30
0.0
 11
-104.778663760068
 21
158.5187081621639
 31
0.0
  0
LINE
  5
1EA
330
1F
100
AcDbEntity
  8
0-0
  6
Continuous
 62
     3
370
     9
100
AcDbLine
 10
-104.778663760068
 20
158.5187081621639
 30
0.0
 11
-103.7786604608704
 21
158.5187081621639
 31
0.0
  0
LINE
  5
1EB
330
1F
100
AcDbEntity
  8
0-0
  6
Continuous
 62
     3
370
     9
100
AcDbLine
 10
-103.7786604608704
 20
158.5187081621639
 30
0.0
 11
-103.7786604608704
 21
160.5186652725945
 31
0.0
  0
LINE
  5
1EC
330
1F
100
AcDbEntity
  8
0-0
  6
Continuous
 62
     3
370
     9
100
AcDbLine
 10
-106.7862915050005
 20
5.388247990077616
 30
0.0
 11
-106.7862915050005
 21
158.8525044828984
 31
0.0
  0
LINE
  5
1ED
330
1F
100
AcDbEntity
  8
0-0
  6
Continuous
 62
     3
370
     9
100
AcDbLine
 10
-678.7684700641748
 20
-30.48132153061488
 30
0.0
 11
-653.7684494441896
 21
-30.48132153061488
 31
0.0
  0
LINE
  5
1EE
330
1F
100
AcDbEntity
  8
0-0
  6
Continuous
 62
     3
370
     9
100
AcDbLine
 10
-653.7684494441896
 20
-30.48132153061488
 30
0.0
 11
-653.7684494441896
 21
-21.48124234987176
 31
0.0
  0
LINE
  5
1EF
330
1F
100
AcDbEntity
  8
0-0
  6
Continuous
 62
     3
370
     9
100
AcDbLine
 10
-653.7684494441896
 20
-17.48122915308113
 30
0.0
 11
-653.7684494441896
 21
-6.481242349871764
 31
0.0
  0
LINE
  5
1F0
330
1F
100
AcDbEntity
  8
0-0
  6
Continuous
 62
     3
370
     9
100
AcDbLine
 10
-678.7684700641748
 20
-30.48132153061488
 30
0.0
 11
-678.7684700641748
 21
-21.48124234987176
 31
0.0
  0
LINE
  5
1F1
330
1F
100
AcDbEntity
  8
0-0
  6
Continuous
 62
     3
370
     9
100
AcDbLine
 10
-678.7684700641748
 20
-17.48122915308113
 30
0.0
 11
-678.7684700641748
 21
-6.481242349871764
 31
0.0
  0
LINE
  5
1F2
330
1F
100
AcDbEntity
  8
0-0
  6
Continuous
 62
     3
370
     9
100
AcDbLine
 10
-543.768482436166
 20
-30.48132153061488
 30
0.0
 11
-518.7684494441896
 21
-30.48132153061488
 31
0.0
  0
LINE
  5
1F3
330
1F
100
AcDbEntity
  8
0-0
  6
Continuous
 62
     3
370
     9
100
AcDbLine
 10
-518.7684494441896
 20
-30.48132153061488
 30
0.0
 11
-518.7684494441896
 21
-21.48124234987176
 31
0.0
  0
LINE
  5
1F4
330
1F
100
AcDbEntity
  8
0-0
  6
Continuous
 62
     3
370
     9
100
AcDbLine
 10
-518.7684494441896
 20
-17.48122915308113
 30
0.0
 11
-518.7684494441896
 21
-6.481242349871764
 31
0.0
  0
LINE
  5
1F5
330
1F
100
AcDbEntity
  8
0-0
  6
Continuous
 62
     3
370
     9
100
AcDbLine
 10
-543.768482436166
 20
-30.48132153061488
 30
0.0
 11
-543.768482436166
 21
-21.48124234987176
 31
0.0
  0
LINE
  5
1F6
330
1F
100
AcDbEntity
  8
0-0
  6
Continuous
 62
     3
370
     9
100
AcDbLine
 10
-543.768482436166
 20
-17.48122915308113
 30
0.0
 11
-543.768482436166
 21
-6.481242349871764
 31
0.0
  0
LINE
  5
1F7
330
1F
100
AcDbEntity
  8
0-0
  6
Continuous
 62
     3
370
     9
100
AcDbLine
 10
-408.768482436166
 20
-30.48132153061488
 30
0.0
 11
-408.768482436166
 21
-21.48124234987176
 31
0.0
  0
LINE
  5
1F8
330
1F
100
AcDbEntity
  8
0-0
  6
Continuous
 62
     3
370
     9
100
AcDbLine
 10
-408.768482436166
 20
-17.48122915308113
 30
0.0
 11
-408.768482436166
 21
-6.481242349871764
 31
0.0
  0
LINE
  5
1F9
330
1F
100
AcDbEntity
  8
0-0
  6
Continuous
 62
     3
370
     9
100
AcDbLine
 10
-408.768482436166
 20
-30.48132153061488
 30
0.0
 11
-383.7684494441896
 21
-30.48132153061488
 31
0.0
  0
LINE
  5
1FA
330
1F
100
AcDbEntity
  8
0-0
  6
Continuous
 62
     3
370
     9
100
AcDbLine
 10
-113.7684989321541
 20
-30.48132153061488
 30
0.0
 11
-138.768482436166
 21
-30.48132153061488
 31
0.0
  0
LINE
  5
1FB
330
1F
100
AcDbEntity
  8
0-0
  6
Continuous
 62
     3
370
     9
100
AcDbLine
 10
-138.768482436166
 20
-30.48132153061488
 30
0.0
 11
-138.768482436166
 21
-21.48124234987176
 31
0.0
  0
LINE
  5
1FC
330
1F
100
AcDbEntity
  8
0-0
  6
Continuous
 62
     3
370
     9
100
AcDbLine
 10
-138.768482436166
 20
-17.48122915308113
 30
0.0
 11
-138.768482436166
 21
-6.481242349871764
 31
0.0
  0
LINE
  5
1FD
330
1F
100
AcDbEntity
  8
0-0
  6
Continuous
 62
     3
370
     9
100
AcDbLine
 10
-113.7684989321541
 20
-30.48132153061488
 30
0.0
 11
-113.7684989321541
 21
-21.48124234987176
 31
0.0
  0
LINE
  5
1FE
330
1F
100
AcDbEntity
  8
0-0
  6
Continuous
 62
     3
370
     9
100
AcDbLine
 10
-113.7684989321541
 20
-17.48122915308113
 30
0.0
 11
-113.7684989321541
 21
-6.481242349871764
 31
0.0
  0
LINE
  5
1FF
330
1F
100
AcDbEntity
  8
0-0
  6
Continuous
 62
     3
370
     9
100
AcDbLine
 10
-248.7684494441896
 20
-30.48132153061488
 30
0.0
 11
-273.7685319241305
 21
-30.48132153061488
 31
0.0
  0
LINE
  5
200
330
1F
100
AcDbEntity
  8
0-0
  6
Continuous
 62
     3
370
     9
100
AcDbLine
 10
-273.7685319241305
 20
-30.48132153061488
 30
0.0
 11
-273.7685319241305
 21
-21.48124234987176
 31
0.0
  0
LINE
  5
201
330
1F
100
AcDbEntity
  8
0-0
  6
Continuous
 62
     3
370
     9
100
AcDbLine
 10
-273.7685319241305
 20
-17.48122915308113
 30
0.0
 11
-273.7685319241305
 21
-6.481242349871764
 31
0.0
  0
LINE
  5
202
330
1F
100
AcDbEntity
  8
0-0
  6
Continuous
 62
     3
370
     9
100
AcDbLine
 10
-248.7684494441896
 20
-30.48132153061488
 30
0.0
 11
-248.7684494441896
 21
-21.48124234987176
 31
0.0
  0
LINE
  5
203
330
1F
100
AcDbEntity
  8
0-0
  6
Continuous
 62
     3
370
     9
100
AcDbLine
 10
-248.7684494441896
 20
-17.48122915308113
 30
0.0
 11
-248.7684494441896
 21
-6.481242349871764
 31
0.0
  0
LINE
  5
204
330
1F
100
AcDbEntity
  8
0-0
  6
Continuous
 62
     3
370
     9
100
AcDbLine
 10
-383.7684494441896
 20
-30.48132153061488
 30
0.0
 11
-383.7684494441896
 21
-21.48124234987176
 31
0.0
  0
LINE
  5
205
330
1F
100
AcDbEntity
  8
0-0
  6
Continuous
 62
     3
370
     9
100
AcDbLine
 10
-383.7684494441896
 20
-17.48122915308113
 30
0.0
 11
-383.7684494441896
 21
-6.481242349871764
 31
0.0
  0
LINE
  5
206
330
1F
100
AcDbEntity
  8
0-0
  6
JWW_CENTER1
 62
     3
370
     9
100
AcDbLine
 10
373.2316231381582
 20
164.5186784693851
 30
0.0
 11
478.2314251863004
 21
164.5186784693851
 31
0.0
  0
LINE
  5
207
330
1F
100
AcDbEntity
  8
0-0
  6
JWW_CENTER1
 62
     3
370
     9
100
AcDbLine
 10
404.2314779734623
 20
345.5187312565472
 30
0.0
 11
442.2319992466886
 21
345.5187312565472
 31
0.0
  0
LINE
  5
208
330
1F
100
AcDbEntity
  8
0-0
  6
Continuous
 62
     3
370
     9
100
AcDbLine
 10
411.2310556761653
 20
159.0186850677803
 30
0.0
 11
425.2312008408611
 21
160.0186388790135
 31
0.0
  0
LINE
  5
209
330
1F
100
AcDbEntity
  8
0-0
  6
Continuous
 62
     3
370
     9
100
AcDbLine
 10
420.8316218184794
 20
161.9186797890641
 30
0.0
 11
415.6316244578373
 21
161.9186797890641
 31
0.0
  0
LINE
  5
20A
330
1F
100
AcDbEntity
  8
0-0
  6
Continuous
 62
     3
370
     9
100
AcDbLine
 10
411.2310556761653
 20
158.5186586741993
 30
0.0
 11
425.2312008408611
 21
160.0186388790135
 31
0.0
  0
LINE
  5
20B
330
1F
100
AcDbEntity
  8
0-0
  6
Continuous
 62
     3
370
     9
100
AcDbLine
 10
440.2314977686482
 20
24.51871146136136
 30
0.0
 11
458.2313592023478
 21
39.51871146136136
 31
0.0
  0
LINE
  5
20C
330
1F
100
AcDbEntity
  8
0-0
  6
Continuous
 62
     3
370
     9
100
AcDbLine
 10
435.0124970296282
 20
26.74468010578698
 30
0.0
 11
433.4506568691548
 21
24.79257785705408
 31
0.0
  0
LINE
  5
20D
330
1F
100
AcDbEntity
  8
0-0
  6
Continuous
 62
     3
370
     9
100
AcDbLine
 10
453.2316891221111
 20
2.231806636614692
 30
0.0
 11
453.2316891221111
 21
-1.084579818199472
 31
0.0
  0
LINE
  5
20E
330
1F
100
AcDbEntity
  8
0-0
  6
Continuous
 62
     3
370
     9
100
AcDbLine
 10
408.2316891221111
 20
-6.481242349871764
 30
0.0
 11
408.2316891221111
 21
-30.48132153061488
 31
0.0
  0
LINE
  5
20F
330
1F
100
AcDbEntity
  8
0-0
  6
Continuous
 62
     3
370
     9
100
AcDbLine
 10
413.2315571542057
 20
-2.481229153081131
 30
0.0
 11
413.2315571542057
 21
-30.48132153061488
 31
0.0
  0
LINE
  5
210
330
1F
100
AcDbEntity
  8
0-0
  6
Continuous
 62
     3
370
     9
100
AcDbLine
 10
408.2316891221111
 20
-21.48124234987176
 30
0.0
 11
393.2316891221111
 21
-21.48124234987176
 31
0.0
  0
LINE
  5
211
330
1F
100
AcDbEntity
  8
0-0
  6
Continuous
 62
     3
370
     9
100
AcDbLine
 10
408.2316891221111
 20
-17.48122915308113
 30
0.0
 11
393.2316891221111
 21
-17.48122915308113
 31
0.0
  0
LINE
  5
212
330
1F
100
AcDbEntity
  8
0-0
  6
Continuous
 62
     3
370
     9
100
AcDbLine
 10
413.2315571542057
 20
-6.481242349871764
 30
0.0
 11
393.2316891221111
 21
-6.481242349871764
 31
0.0
  0
LINE
  5
213
330
1F
100
AcDbEntity
  8
0-0
  6
Continuous
 62
     3
370
     9
100
AcDbLine
 10
413.2315571542057
 20
-2.481229153081131
 30
0.0
 11
393.2316891221111
 21
-2.481229153081131
 31
0.0
  0
LINE
  5
214
330
1F
100
AcDbEntity
  8
0-0
  6
Continuous
 62
     3
370
     9
100
AcDbLine
 10
413.2315571542057
 20
-30.48132153061488
 30
0.0
 11
408.2316891221111
 21
-30.48132153061488
 31
0.0
  0
LINE
  5
215
330
1F
100
AcDbEntity
  8
0-0
  6
Continuous
 62
     3
370
     9
100
AcDbLine
 10
429.5306162230403
 20
2.760734001479705
 30
0.0
 11
411.2315505558103
 21
1.38833376921616
 31
0.0
  0
LINE
  5
216
330
1F
100
AcDbEntity
  8
0-0
  6
Continuous
 62
     3
370
     9
100
AcDbLine
 10
443.6234028573307
 20
4.996897166597819
 30
0.0
 11
451.9595515059794
 21
3.71446605384449
 31
0.0
  0
LINE
  5
217
330
1F
100
AcDbEntity
  8
0-0
  6
Continuous
 62
     3
370
     9
100
AcDbLine
 10
411.2315505558103
 20
160.5186652725945
 30
0.0
 11
411.2315505558103
 21
-2.481229153081131
 31
0.0
  0
LINE
  5
218
330
1F
100
AcDbEntity
  8
0-0
  6
Continuous
 62
     3
370
     9
100
AcDbLine
 10
422.2315373590199
 20
160.5186652725945
 30
0.0
 11
394.231642933344
 21
160.5186652725945
 31
0.0
  0
LINE
  5
219
330
1F
100
AcDbEntity
  8
0-0
  6
Continuous
 62
     3
370
     9
100
AcDbLine
 10
428.0320216812328
 20
-9.481301735429042
 30
0.0
 11
428.0320216812328
 21
-23.48134792419614
 31
0.0
  0
LINE
  5
21A
330
1F
100
AcDbEntity
  8
0-0
  6
Continuous
 62
     3
370
     9
100
AcDbLine
 10
428.0320216812328
 20
-9.481301735429042
 30
0.0
 11
429.6318685984623
 21
-10.95634000612176
 31
0.0
  0
LINE
  5
21B
330
1F
100
AcDbEntity
  8
0-0
  6
Continuous
 62
     3
370
     9
100
AcDbLine
 10
428.0320216812328
 20
-23.48134792419614
 30
0.0
 11
429.6318685984623
 21
-22.00630965350365
 31
0.0
  0
LINE
  5
21C
330
1F
100
AcDbEntity
  8
0-0
  6
Continuous
 62
     3
370
     9
100
AcDbLine
 10
428.0320216812328
 20
-13.71885716194947
 30
0.0
 11
433.2319200659457
 21
-13.71885716194947
 31
0.0
  0
LINE
  5
21D
330
1F
100
AcDbEntity
  8
0-0
  6
Continuous
 62
     3
370
     9
100
AcDbLine
 10
428.0320216812328
 20
-19.24379249767571
 30
0.0
 11
433.2319200659457
 21
-19.24379249767571
 31
0.0
  0
LINE
  5
21E
330
1F
100
AcDbEntity
  8
0-0
  6
Continuous
 62
     3
370
     9
100
AcDbLine
 10
427.2319992466886
 20
-9.481301735429042
 30
0.0
 11
428.0320216812328
 21
-9.481301735429042
 31
0.0
  0
LINE
  5
21F
330
1F
100
AcDbEntity
  8
0-0
  6
Continuous
 62
     3
370
     9
100
AcDbLine
 10
429.6318685984623
 20
-10.95634000612176
 30
0.0
 11
433.2319200659457
 21
-10.95634000612176
 31
0.0
  0
LINE
  5
220
330
1F
100
AcDbEntity
  8
0-0
  6
Continuous
 62
     3
370
     9
100
AcDbLine
 10
433.2319200659457
 20
-10.95634000612176
 30
0.0
 11
433.2319200659457
 21
-22.00630965350365
 31
0.0
  0
LINE
  5
221
330
1F
100
AcDbEntity
  8
0-0
  6
Continuous
 62
     3
370
     9
100
AcDbLine
 10
437.2319332627361
 20
-13.48131493221968
 30
0.0
 11
437.2319332627361
 21
-19.48133472740551
 31
0.0
  0
LINE
  5
222
330
1F
100
AcDbEntity
  8
0-0
  6
Continuous
 62
     3
370
     9
100
AcDbLine
 10
437.2319332627361
 20
-13.48131493221968
 30
0.0
 11
438.2319860498982
 21
-14.48136771938198
 31
0.0
  0
LINE
  5
223
330
1F
100
AcDbEntity
  8
0-0
  6
Continuous
 62
     3
370
     9
100
AcDbLine
 10
438.2319860498982
 20
-18.48128194024321
 30
0.0
 11
437.2319332627361
 21
-19.48133472740551
 31
0.0
  0
LINE
  5
224
330
1F
100
AcDbEntity
  8
0-0
  6
Continuous
 62
     3
370
     9
100
AcDbLine
 10
429.6318685984623
 20
-22.00630965350365
 30
0.0
 11
433.2319200659457
 21
-22.00630965350365
 31
0.0
  0
LINE
  5
225
330
1F
100
AcDbEntity
  8
0-0
  6
Continuous
 62
     3
370
     9
100
AcDbLine
 10
438.2319860498982
 20
-14.48136771938198
 30
0.0
 11
438.2319860498982
 21
-18.48128194024321
 31
0.0
  0
LINE
  5
226
330
1F
100
AcDbEntity
  8
0-0
  6
Continuous
 62
     3
370
     9
100
AcDbLine
 10
433.2319200659457
 20
-19.48133472740551
 30
0.0
 11
437.2319332627361
 21
-19.48133472740551
 31
0.0
  0
LINE
  5
227
330
1F
100
AcDbEntity
  8
0-0
  6
Continuous
 62
     3
370
     9
100
AcDbLine
 10
438.2319860498982
 20
-18.48128194024321
 30
0.0
 11
433.2319200659457
 21
-18.48128194024321
 31
0.0
  0
LINE
  5
228
330
1F
100
AcDbEntity
  8
0-0
  6
Continuous
 62
     3
370
     9
100
AcDbLine
 10
433.2319200659457
 20
-14.48136771938198
 30
0.0
 11
438.2319860498982
 21
-14.48136771938198
 31
0.0
  0
LINE
  5
229
330
1F
100
AcDbEntity
  8
0-0
  6
Continuous
 62
     3
370
     9
100
AcDbLine
 10
433.2319200659457
 20
-13.48131493221968
 30
0.0
 11
437.2319332627361
 21
-13.48131493221968
 31
0.0
  0
LINE
  5
22A
330
1F
100
AcDbEntity
  8
0-0
  6
Continuous
 62
     3
370
     9
100
AcDbLine
 10
413.2315571542057
 20
-11.98133472740551
 30
0.0
 11
427.2319992466886
 21
-11.98133472740551
 31
0.0
  0
LINE
  5
22B
330
1F
100
AcDbEntity
  8
0-0
  6
Continuous
 62
     3
370
     9
100
AcDbLine
 10
413.2315571542057
 20
-20.98141390814862
 30
0.0
 11
427.2319992466886
 21
-20.98141390814862
 31
0.0
  0
LINE
  5
22C
330
1F
100
AcDbEntity
  8
0-0
  6
Continuous
 62
     3
370
     9
100
AcDbLine
 10
413.2315571542057
 20
-19.48133472740551
 30
0.0
 11
427.2319992466886
 21
-19.48133472740551
 31
0.0
  0
LINE
  5
22D
330
1F
100
AcDbEntity
  8
0-0
  6
Continuous
 62
     3
370
     9
100
AcDbLine
 10
427.2319992466886
 20
-18.48128194024321
 30
0.0
 11
413.2315571542057
 21
-18.48128194024321
 31
0.0
  0
LINE
  5
22E
330
1F
100
AcDbEntity
  8
0-0
  6
Continuous
 62
     3
370
     9
100
AcDbLine
 10
427.2319992466886
 20
-14.48136771938198
 30
0.0
 11
413.2315571542057
 21
-14.48136771938198
 31
0.0
  0
LINE
  5
22F
330
1F
100
AcDbEntity
  8
0-0
  6
Continuous
 62
     3
370
     9
100
AcDbLine
 10
413.2315571542057
 20
-13.48131493221968
 30
0.0
 11
427.2319992466886
 21
-13.48131493221968
 31
0.0
  0
LINE
  5
230
330
1F
100
AcDbEntity
  8
0-0
  6
Continuous
 62
     3
370
     9
100
AcDbLine
 10
427.2319992466886
 20
-23.48134792419614
 30
0.0
 11
428.0320216812328
 21
-23.48134792419614
 31
0.0
  0
LINE
  5
231
330
1F
100
AcDbEntity
  8
0-0
  6
Continuous
 62
     3
370
     9
100
AcDbLine
 10
425.9180937884961
 20
-26.64560837605404
 30
0.0
 11
413.2315571542057
 21
-28.23120275950009
 31
0.0
  0
LINE
  5
232
330
1F
100
AcDbEntity
  8
0-0
  6
Continuous
 62
     3
370
     9
100
AcDbLine
 10
427.2319992466886
 20
-25.15710937901031
 30
0.0
 11
427.2319992466886
 21
-8.06277872022656
 31
0.0
  0
LINE
  5
233
330
1F
100
AcDbEntity
  8
0-0
  6
Continuous
 62
     3
370
     9
100
AcDbLine
 10
451.8385039447461
 20
-2.58079893770946
 30
0.0
 11
430.9470607437328
 21
-4.073059020057599
 31
0.0
  0
LINE
  5
234
330
1F
100
AcDbEntity
  8
0-0
  6
JWW_CENTER1
 62
     3
370
     9
100
AcDbLine
 10
404.2314779734623
 20
-16.48137431777718
 30
0.0
 11
442.2319992466886
 21
-16.48137431777718
 31
0.0
  0
LINE
  5
235
330
1F
100
AcDbEntity
  8
0-0
  6
JWW_CENTER1
 62
     3
370
     9
100
AcDbLine
 10
-715.7684931585584
 20
164.5186784693851
 30
0.0
 11
153.231491170253
 21
164.5186784693851
 31
0.0
  0
LINE
  5
236
330
1F
100
AcDbEntity
  8
0-0
  6
JWW_PHANTOM2
 62
     3
370
     9
100
AcDbLine
 10
-95.76848903456118
 20
350.5185992886418
 30
0.0
 11
133.2315241622293
 21
350.5185992886418
 31
0.0
  0
LINE
  5
237
330
1F
100
AcDbEntity
  8
0-0
  6
JWW_PHANTOM2
 62
     3
370
     9
100
AcDbLine
 10
-95.76848903456118
 20
-21.48124234987176
 30
0.0
 11
133.2315241622293
 21
-21.48124234987176
 31
0.0
  0
LINE
  5
238
330
1F
100
AcDbEntity
  8
0-0
  6
JWW_PHANTOM2
 62
     3
370
     9
100
AcDbLine
 10
-95.76848903456118
 20
-21.48124234987176
 30
0.0
 11
-95.76848903456118
 21
350.5185992886418
 31
0.0
  0
LINE
  5
239
330
1F
100
AcDbEntity
  8
0-F
  6
Continuous
 62
     7
370
     9
100
AcDbLine
 10
442.7081724413678
 20
127.6659315574339
 30
0.0
 11
456.3053865988849
 21
127.6659315574339
 31
0.0
  0
LINE
  5
23A
330
1F
100
AcDbEntity
  8
0-F
  6
Continuous
 62
     7
370
     9
100
AcDbLine
 10
393.231392194324
 20
106.8356059926114
 30
0.0
 11
488.8207608598645
 21
106.8356059926114
 31
0.0
  0
LINE
  5
23B
330
1F
100
AcDbEntity
  8
0-1
  6
JWW_DASHED3
 62
     2
370
     9
100
AcDbLine
 10
-695.7684890345613
 20
314.5185794934559
 30
0.0
 11
-96.7684923337589
 21
314.5185794934559
 31
0.0
  0
LINE
  5
23C
330
1F
100
AcDbEntity
  8
0-1
  6
Continuous
 62
     2
370
     9
100
AcDbLine
 10
-96.7684923337589
 20
314.5185794934559
 30
0.0
 11
133.2315241622293
 21
314.5185794934559
 31
0.0
  0
LINE
  5
23D
330
1F
100
AcDbEntity
  8
0-1
  6
JWW_DASHED3
 62
     2
370
     9
100
AcDbLine
 10
-695.7684890345613
 20
14.51862898142053
 30
0.0
 11
-96.7684923337589
 21
14.51862898142053
 31
0.0
  0
LINE
  5
23E
330
1F
100
AcDbEntity
  8
0-1
  6
Continuous
 62
     2
370
     9
100
AcDbLine
 10
-96.7684923337589
 20
14.51862898142053
 30
0.0
 11
133.2315241622293
 21
14.51862898142053
 31
0.0
  0
ARC
  5
23F
330
1F
100
AcDbEntity
  8
0-0
  6
Continuous
 62
     3
370
     9
100
AcDbCircle
 10
429.2315109654386
 20
322.287794020483
 30
0.0
 40
4.000000051549963
100
AcDbArc
 50
0.0
 51
85.71116638183594
  0
CIRCLE
  5
240
330
1F
100
AcDbEntity
  8
0-0
  6
Continuous
 62
     3
370
     9
100
AcDbCircle
 10
418.2315241622294
 20
164.5186784693851
 30
0.0
 40
2.000000025774982
  0
ARC
  5
241
330
1F
100
AcDbEntity
  8
0-0
  6
Continuous
 62
     3
370
     9
100
AcDbCircle
 10
434.2314779734623
 20
301.6679407687938
 30
0.0
 40
1.000000012887491
100
AcDbArc
 50
0.0
 51
38.66105651855469
  0
ARC
  5
242
330
1F
100
AcDbEntity
  8
0-0
  6
Continuous
 62
     3
370
     9
100
AcDbCircle
 10
434.2314779734623
 20
304.8695151459053
 30
0.0
 40
1.000000012887491
100
AcDbArc
 50
180.0
 51
218.6610565185547
  0
ARC
  5
243
330
1F
100
AcDbEntity
  8
0-0
  6
Continuous
 62
     3
370
     9
100
AcDbCircle
 10
451.7315109654386
 20
330.1219367569695
 30
0.0
 40
1.500000019331236
100
AcDbArc
 50
0.0
 51
85.91419982910156
  0
ARC
  5
244
330
1F
100
AcDbEntity
  8
0-0
  6
Continuous
 62
     3
370
     9
100
AcDbCircle
 10
451.7315109654386
 20
326.8055503021553
 30
0.0
 40
1.500000019331236
100
AcDbArc
 50
278.7463684082031
 51
0.0
  0
ARC
  5
245
330
1F
100
AcDbEntity
  8
0-0
  6
Continuous
 62
     3
370
     9
100
AcDbCircle
 10
444.2315109654386
 20
320.0869652620371
 30
0.0
 40
4.000000051549963
100
AcDbArc
 50
98.74600219726562
 51
180.0
  0
ARC
  5
246
330
1F
100
AcDbEntity
  8
0-0
  6
Continuous
 62
     3
370
     9
100
AcDbCircle
 10
-681.7506519225469
 20
323.6491089486925
 30
0.0
 40
4.000000051549963
100
AcDbArc
 50
90.0
 51
180.0
  0
ARC
  5
247
330
1F
100
AcDbEntity
  8
0-0
  6
Continuous
 62
     3
370
     9
100
AcDbCircle
 10
-681.1792638841177
 20
322.9990350466654
 30
0.0
 40
3.000000038662472
100
AcDbArc
 50
90.0
 51
180.0
  0
ARC
  5
248
330
1F
100
AcDbEntity
  8
0-0
  6
Continuous
 62
     3
370
     9
100
AcDbCircle
 10
431.2320124434794
 20
337.1001356589965
 30
0.0
 40
4.000000051549963
100
AcDbArc
 50
180.0
 51
265.9141693115234
  0
ARC
  5
249
330
1F
100
AcDbEntity
  8
0-0
  6
Continuous
 62
     3
370
     9
100
AcDbCircle
 10
425.7319200659457
 20
354.1944663177803
 30
0.0
 40
1.500000019331236
100
AcDbArc
 50
0.0
 51
82.87332153320312
  0
ARC
  5
24A
330
1F
100
AcDbEntity
  8
0-0
  6
Continuous
 62
     3
370
     9
100
AcDbCircle
 10
-110.786304701791
 20
323.6491089486925
 30
0.0
 40
4.000000051549963
100
AcDbArc
 50
0.0
 51
90.0
  0
ARC
  5
24B
330
1F
100
AcDbEntity
  8
0-0
  6
Continuous
 62
     3
370
     9
100
AcDbCircle
 10
-111.35769274022
 20
322.9990350466654
 30
0.0
 40
3.000000038662472
100
AcDbArc
 50
0.0
 51
90.0
  0
ARC
  5
24C
330
1F
100
AcDbEntity
  8
0-0
  6
Continuous
 62
     3
370
     9
100
AcDbCircle
 10
-681.7506519225469
 20
5.388247990077616
 30
0.0
 40
4.000000051549963
100
AcDbArc
 50
180.0
 51
270.0
  0
ARC
  5
24D
330
1F
100
AcDbEntity
  8
0-0
  6
Continuous
 62
     3
370
     9
100
AcDbCircle
 10
-681.1792638841177
 20
6.038321892104705
 30
0.0
 40
3.000000038662472
100
AcDbArc
 50
180.0
 51
270.0
  0
ARC
  5
24E
330
1F
100
AcDbEntity
  8
0-0
  6
Continuous
 62
     3
370
     9
100
AcDbCircle
 10
-110.786304701791
 20
5.388247990077616
 30
0.0
 40
4.000000051549963
100
AcDbArc
 50
270.0
 51
0.0
  0
ARC
  5
24F
330
1F
100
AcDbEntity
  8
0-0
  6
Continuous
 62
     3
370
     9
100
AcDbCircle
 10
-111.35769274022
 20
6.038321892104705
 30
0.0
 40
3.000000038662472
100
AcDbArc
 50
270.0
 51
0.0
  0
ARC
  5
250
330
1F
100
AcDbEntity
  8
0-0
  6
Continuous
 62
     3
370
     9
100
AcDbCircle
 10
429.2315109654386
 20
6.749562918286983
 30
0.0
 40
4.000000051549963
100
AcDbArc
 50
274.2888336181641
 51
0.0
  0
ARC
  5
251
330
1F
100
AcDbEntity
  8
0-0
  6
Continuous
 62
     3
370
     9
100
AcDbCircle
 10
434.2314779734623
 20
27.36941616997638
 30
0.0
 40
1.000000012887491
100
AcDbArc
 50
321.3389434814453
 51
0.0000000000000127
  0
ARC
  5
252
330
1F
100
AcDbEntity
  8
0-0
  6
Continuous
 62
     3
370
     9
100
AcDbCircle
 10
434.2314779734623
 20
24.16784179286469
 30
0.0
 40
1.000000012887491
100
AcDbArc
 50
141.3389434814453
 51
180.0
  0
ARC
  5
253
330
1F
100
AcDbEntity
  8
0-0
  6
Continuous
 62
     3
370
     9
100
AcDbCircle
 10
451.7315109654386
 20
-1.084579818199472
 30
0.0
 40
1.500000019331236
100
AcDbArc
 50
274.0858001708984
 51
0.0000000000000254
  0
ARC
  5
254
330
1F
100
AcDbEntity
  8
0-0
  6
Continuous
 62
     3
370
     9
100
AcDbCircle
 10
451.7315109654386
 20
2.231806636614692
 30
0.0
 40
1.500000019331236
100
AcDbArc
 50
0.0
 51
81.25363159179688
  0
ARC
  5
255
330
1F
100
AcDbEntity
  8
0-0
  6
Continuous
 62
     3
370
     9
100
AcDbCircle
 10
444.2315109654386
 20
8.950391676733034
 30
0.0
 40
4.000000051549963
100
AcDbArc
 50
180.0
 51
261.2539978027344
  0
ARC
  5
256
330
1F
100
AcDbEntity
  8
0-0
  6
Continuous
 62
     3
370
     9
100
AcDbCircle
 10
431.2320124434794
 20
-8.06277872022656
 30
0.0
 40
4.000000051549963
100
AcDbArc
 50
94.08583068847656
 51
180.0
  0
ARC
  5
257
330
1F
100
AcDbEntity
  8
0-0
  6
Continuous
 62
     3
370
     9
100
AcDbCircle
 10
425.7319200659457
 20
-25.15710937901031
 30
0.0
 40
1.500000019331236
100
AcDbArc
 50
277.1266784667969
 51
0.0000000000000127
  0
TEXT
  5
258
330
1F
100
AcDbEntity
  8
0-F
  6
Continuous
 62
     2
370
     9
100
AcDbText
 10
-409.2685154281423
 20
-106.225430404137
 30
0.0
 40
12.192
  1
591
 41
1.083333333333333
  7
ＭＳ ゴシック
100
AcDbText
  0
TEXT
  5
259
330
1F
100
AcDbEntity
  8
0-F
  6
Continuous
 62
     2
370
     9
100
AcDbText
 10
-409.2685154281423
 20
-146.2254386521311
 30
0.0
 40
12.192
  1
599
 41
1.083333333333333
  7
ＭＳ ゴシック
100
AcDbText
  0
TEXT
  5
25A
330
1F
100
AcDbEntity
  8
0-F
  6
Continuous
 62
     2
370
     9
100
AcDbText
 10
-78.33963128276639
 20
-146.2254386521311
 30
0.0
 40
12.192
  1
1
  7
ＭＳ ゴシック
100
AcDbText
  0
TEXT
  5
25B
330
1F
100
AcDbEntity
  8
0-F
  6
Continuous
 62
     2
370
     9
100
AcDbText
 10
102.2585841812328
 20
-146.2254386521311
 30
0.0
 40
12.192
  1
599
 41
1.083333333333333
  7
ＭＳ ゴシック
100
AcDbText
  0
TEXT
  5
25C
330
1F
100
AcDbEntity
  8
0-F
  6
Continuous
 62
     2
370
     9
100
AcDbText
 10
328.9755839193338
 20
-24.98132492842548
 30
0.0
 40
12.192
  1
28
 50
90.00000250447789
 41
1.062499999999987
  7
ＭＳ ゴシック
100
AcDbText
  0
TEXT
  5
25D
330
1F
100
AcDbEntity
  8
0-F
  6
Continuous
 62
     2
370
     9
100
AcDbText
 10
288.9755507306563
 20
354.6019633158737
 30
0.0
 40
12.192
  1
2
 50
90.00000250448173
 41
1.000000000000001
  7
ＭＳ ゴシック
100
AcDbText
  0
TEXT
  5
25E
330
1F
100
AcDbEntity
  8
0-F
  6
Continuous
 62
     2
370
     9
100
AcDbText
 10
288.9755507306563
 20
-33.28769666881811
 30
0.0
 40
12.192
  1
2
 50
90.00000250448173
 41
1.000000000000001
  7
ＭＳ ゴシック
100
AcDbText
  0
TEXT
  5
25F
330
1F
100
AcDbEntity
  8
0-F
  6
Continuous
 62
     2
370
     9
100
AcDbText
 10
402.4961363085553
 20
111.0916125910068
 30
0.0
 40
12.192
  1
40
 41
1.0625
  7
ＭＳ ゴシック
100
AcDbText
  0
TEXT
  5
260
330
1F
100
AcDbEntity
  8
0-F
  6
Continuous
 62
     2
370
     9
100
AcDbText
 10
446.689987264003
 20
131.9535609651622
 30
0.0
 40
12.192
  1
7
  7
ＭＳ ゴシック
100
AcDbText
  0
TEXT
  5
261
330
1F
100
AcDbEntity
  8
0-F
  6
Continuous
 62
     2
370
     9
100
AcDbText
 10
328.9755837226321
 20
329.5186915675627
 30
0.0
 40
12.192
  1
4
 50
90.00000250447522
 41
1.000000000000001
  7
ＭＳ ゴシック
100
AcDbText
  0
TEXT
  5
262
330
1F
100
AcDbEntity
  8
0-F
  6
Continuous
 62
     2
370
     9
100
AcDbText
 10
311.1108246287934
 20
332.5187410555274
 30
0.0
 40
12.192
  1
11
 50
90.00000250448097
 41
1.062500000000001
  7
ＭＳ ゴシック
100
AcDbText
  0
TEXT
  5
263
330
1F
100
AcDbEntity
  8
0-F
  6
Continuous
 62
     2
370
     9
100
AcDbText
 10
328.9755837226321
 20
344.5186915675627
 30
0.0
 40
12.192
  1
4
 50
90.00000250447522
 41
1.000000000000001
  7
ＭＳ ゴシック
100
AcDbText
  0
TEXT
  5
264
330
1F
100
AcDbEntity
  8
0-F
  6
Continuous
 62
     2
370
     9
100
AcDbText
 10
288.9755507306563
 20
-57.21567188524539
 30
0.0
 40
12.192
  1
3
 50
90.00000250448173
 41
1.000000000000001
  7
ＭＳ ゴシック
100
AcDbText
  0
TEXT
  5
265
330
1F
100
AcDbEntity
  8
0-F
  6
Continuous
 62
     2
370
     9
100
AcDbText
 10
328.9755837226321
 20
373.2213150895221
 30
0.0
 40
12.192
  1
9
 50
90.00000250447522
 41
1.000000000000001
  7
ＭＳ ゴシック
100
AcDbText
  0
TEXT
  5
266
330
1F
100
AcDbEntity
  8
0-F
  6
Continuous
 62
     2
370
     9
100
AcDbText
 10
288.9755507306563
 20
378.2528554189142
 30
0.0
 40
12.192
  1
3
 50
90.00000250448173
 41
1.000000000000001
  7
ＭＳ ゴシック
100
AcDbText
  0
TEXT
  5
267
330
1F
100
AcDbEntity
  8
0-F
  6
Continuous
 62
     2
370
     9
100
AcDbText
 10
248.9755181320823
 20
151.5185793948432
 30
0.0
 40
12.192
  1
400
 50
90.00000250447873
 41
1.083333333333334
  7
ＭＳ ゴシック
100
AcDbText
  0
TEXT
  5
268
330
1F
100
AcDbEntity
  8
0-F
  6
Continuous
 62
     2
370
     9
100
AcDbText
 10
288.9755511240585
 20
151.5186288828076
 30
0.0
 40
12.192
  1
390
 50
90.00000250447873
 41
1.083333333333334
  7
ＭＳ ゴシック
100
AcDbText
  0
TEXT
  5
269
330
1F
100
AcDbEntity
  8
0-F
  6
Continuous
 62
     2
370
     9
100
AcDbText
 10
328.975584116035
 20
151.5186783707722
 30
0.0
 40
12.192
  1
334
 50
90.00000250447873
 41
1.083333333333334
  7
ＭＳ ゴシック
100
AcDbText
  0
TEXT
  5
26A
330
1F
100
AcDbEntity
  8
0-F
  6
Continuous
 62
     2
370
     9
100
AcDbText
 10
471.1674174529812
 20
111.0916125910068
 30
0.0
 40
12.192
  1
18
 41
1.0625
  7
ＭＳ ゴシック
100
AcDbText
  0
LWPOLYLINE
  5
26B
330
1F
100
AcDbEntity
  8
0-F
  6
Continuous
 62
     7
370
     9
100
AcDbPolyline
 90
        4
 70
     1
 43
0.4
 10
293.4315571542057
 20
361.5186850677803
 42
0.4142135623731
 10
293.2315571542057
 20
361.7186850677803
 42
0.4142135623731
 10
293.0315571542057
 20
361.5186850677803
 42
0.4142135623731
 10
293.2315571542057
 20
361.3186850677803
 42
0.4142135623731
  0
LWPOLYLINE
  5
26C
330
1F
100
AcDbEntity
  8
0-F
  6
Continuous
 62
     7
370
     9
100
AcDbPolyline
 90
        4
 70
     1
 43
0.4
 10
293.4315571542057
 20
-32.48142710493948
 42
0.4142135623731
 10
293.2315571542057
 20
-32.28142710493948
 42
0.4142135623731
 10
293.0315571542057
 20
-32.48142710493948
 42
0.4142135623731
 10
293.2315571542057
 20
-32.68142710493949
 42
0.4142135623731
  0
LWPOLYLINE
  5
26D
330
1F
100
AcDbEntity
  8
0-F
  6
Continuous
 62
     7
370
     9
100
AcDbPolyline
 90
        4
 70
     1
 43
0.4
 10
440.4316957205065
 20
106.8356059926114
 42
0.4142135623731
 10
440.2316957205065
 20
107.0356059926114
 42
0.4142135623731
 10
440.0316957205065
 20
106.8356059926114
 42
0.4142135623731
 10
440.2316957205065
 20
106.6356059926114
 42
0.4142135623731
  0
LWPOLYLINE
  5
26E
330
1F
100
AcDbEntity
  8
0-F
  6
Continuous
 62
     7
370
     9
100
AcDbPolyline
 90
        4
 70
     1
 43
0.4
 10
333.4315901461819
 20
335.5186982645708
 42
0.4142135623731
 10
333.2315901461819
 20
335.7186982645708
 42
0.4142135623731
 10
333.0315901461819
 20
335.5186982645708
 42
0.4142135623731
 10
333.2315901461819
 20
335.3186982645709
 42
0.4142135623731
  0
LWPOLYLINE
  5
26F
330
1F
100
AcDbEntity
  8
0-F
  6
Continuous
 62
     7
370
     9
100
AcDbPolyline
 90
        4
 70
     1
 43
0.4
 10
333.4315901461819
 20
346.5186850677803
 42
0.4142135623731
 10
333.2315901461819
 20
346.7186850677803
 42
0.4142135623731
 10
333.0315901461819
 20
346.5186850677803
 42
0.4142135623731
 10
333.2315901461819
 20
346.3186850677803
 42
0.4142135623731
  0
LWPOLYLINE
  5
270
330
1F
100
AcDbEntity
  8
0-F
  6
Continuous
 62
     7
370
     9
100
AcDbPolyline
 90
        4
 70
     1
 43
0.4
 10
333.4315901461819
 20
350.5186982645708
 42
0.4142135623731
 10
333.2315901461819
 20
350.7186982645708
 42
0.4142135623731
 10
333.0315901461819
 20
350.5186982645708
 42
0.4142135623731
 10
333.2315901461819
 20
350.3186982645709
 42
0.4142135623731
  0
TEXT
  5
271
330
1F
100
AcDbEntity
  8
0-5
  6
Continuous
 62
     2
370
     9
100
AcDbText
 10
343.3544472181966
 20
-430.2757367915641
 30
0.0
 40
12.192
  1
蓋 質 量：１７．０ｋｇ
 41
1.113636363636364
  7
ＭＳ ゴシック
100
AcDbText
  0
LINE
  5
272
330
1F
100
AcDbEntity
  8
0-1
  6
Continuous
 62
     2
370
     9
100
AcDbLine
 10
456.2315901461819
 20
361.5186850677803
 30
0.0
 11
393.2315901461819
 21
361.5186850677803
 31
0.0
  0
LINE
  5
273
330
1F
100
AcDbEntity
  8
0-1
  6
Continuous
 62
     2
370
     9
100
AcDbLine
 10
459.2315505558103
 20
314.5185794934559
 30
0.0
 11
456.2315901461819
 21
314.5185794934559
 31
0.0
  0
LINE
  5
274
330
1F
100
AcDbEntity
  8
0-1
  6
Continuous
 62
     2
370
     9
100
AcDbLine
 10
456.2315901461819
 20
-32.48142710493948
 30
0.0
 11
393.2315901461819
 21
-32.48142710493948
 31
0.0
  0
LINE
  5
275
330
1F
100
AcDbEntity
  8
0-1
  6
Continuous
 62
     2
370
     9
100
AcDbLine
 10
459.2315505558103
 20
14.51862898142053
 30
0.0
 11
456.2315901461819
 21
14.51862898142053
 31
0.0
  0
LINE
  5
276
330
1F
100
AcDbEntity
  8
0-1
  6
Continuous
 62
     2
370
     9
100
AcDbLine
 10
456.2315901461819
 20
-32.48142710493948
 30
0.0
 11
456.2315901461819
 21
14.51862898142053
 31
0.0
  0
LINE
  5
277
330
1F
100
AcDbEntity
  8
0-1
  6
Continuous
 62
     2
370
     9
100
AcDbLine
 10
456.2315901461819
 20
361.5186850677803
 30
0.0
 11
456.2315901461819
 21
314.5185794934559
 31
0.0
  0
LINE
  5
278
330
1F
100
AcDbEntity
  8
0-1
  6
Continuous
 62
     2
370
     9
100
AcDbLine
 10
456.2315901461819
 20
-35.48143700253218
 30
0.0
 11
393.2315901461819
 21
-35.48143700253218
 31
0.0
  0
LINE
  5
279
330
1F
100
AcDbEntity
  8
0-1
  6
Continuous
 62
     2
370
     9
100
AcDbLine
 10
456.2315901461819
 20
364.5186454774087
 30
0.0
 11
393.2315901461819
 21
364.5186454774087
 31
0.0
  0
ARC
  5
27A
330
1F
100
AcDbEntity
  8
0-1
  6
Continuous
 62
     2
370
     9
100
AcDbCircle
 10
456.2315901461819
 20
361.5186850677803
 30
0.0
 40
3.000000038662472
100
AcDbArc
 50
0.0
 51
90.0
  0
ARC
  5
27B
330
1F
100
AcDbEntity
  8
0-1
  6
Continuous
 62
     2
370
     9
100
AcDbCircle
 10
456.2315901461819
 20
-32.48142710493948
 30
0.0
 40
3.000000038662472
100
AcDbArc
 50
270.0
 51
0.0
  0
LINE
  5
27C
330
1F
100
AcDbEntity
  8
0-1
  6
Continuous
 62
     2
370
     9
100
AcDbLine
 10
459.2315505558103
 20
-32.48142710493948
 30
0.0
 11
459.2315505558103
 21
14.51862898142053
 31
0.0
  0
LINE
  5
27D
330
1F
100
AcDbEntity
  8
0-1
  6
Continuous
 62
     2
370
     9
100
AcDbLine
 10
459.2315505558103
 20
361.5186850677803
 30
0.0
 11
459.2315505558103
 21
314.5185794934559
 31
0.0
  0
LINE
  5
27E
330
1F
100
AcDbEntity
  8
0-F
  6
Continuous
 62
     7
370
     9
100
AcDbLine
 10
-696.7684923337588
 20
368.5186586741989
 30
0.0
 11
-696.7684923337588
 21
480.7186626332362
 31
0.0
  0
LINE
  5
27F
330
1F
100
AcDbEntity
  8
0-F
  6
Continuous
 62
     7
370
     9
100
AcDbLine
 10
-696.7684923337588
 20
439.5186454774085
 30
0.0
 11
-684.8711897577455
 21
441.084939554689
 31
0.0
  0
LINE
  5
280
330
1F
100
AcDbEntity
  8
0-F
  6
Continuous
 62
     7
370
     9
100
AcDbLine
 10
-696.7684923337588
 20
439.5186454774085
 30
0.0
 11
-684.8711897577455
 21
437.9523514001281
 31
0.0
  0
LINE
  5
281
330
1F
100
AcDbEntity
  8
0-F
  6
Continuous
 62
     7
370
     9
100
AcDbLine
 10
-584.8712062537338
 20
437.9523514001281
 30
0.0
 11
-608.6659103816896
 21
441.084939554689
 31
0.0
  0
LINE
  5
282
330
1F
100
AcDbEntity
  8
0-F
  6
Continuous
 62
     7
370
     9
100
AcDbLine
 10
-584.8712062537338
 20
441.084939554689
 30
0.0
 11
-608.6659103816896
 21
437.9523514001281
 31
0.0
  0
LINE
  5
283
330
1F
100
AcDbEntity
  8
0-F
  6
Continuous
 62
     7
370
     9
100
AcDbLine
 10
15.12879374626662
 20
437.9523514001281
 30
0.0
 11
-8.665811405760472
 21
441.084939554689
 31
0.0
  0
LINE
  5
284
330
1F
100
AcDbEntity
  8
0-F
  6
Continuous
 62
     7
370
     9
100
AcDbLine
 10
15.12879374626662
 20
441.084939554689
 30
0.0
 11
-8.665811405760472
 21
437.9523514001281
 31
0.0
  0
LINE
  5
285
330
1F
100
AcDbEntity
  8
0-F
  6
Continuous
 62
     7
370
     9
100
AcDbLine
 10
-696.7684923337588
 20
479.5186784693848
 30
0.0
 11
-684.8711897577455
 21
481.0849725466652
 31
0.0
  0
LINE
  5
286
330
1F
100
AcDbEntity
  8
0-F
  6
Continuous
 62
     7
370
     9
100
AcDbLine
 10
-696.7684923337588
 20
479.5186784693848
 30
0.0
 11
-684.8711897577455
 21
477.9523843921044
 31
0.0
  0
LINE
  5
287
330
1F
100
AcDbEntity
  8
0-F
  6
Continuous
 62
     7
370
     9
100
AcDbLine
 10
-696.7684923337588
 20
439.5186454774085
 30
0.0
 11
133.2315241622293
 21
439.5186454774085
 31
0.0
  0
LINE
  5
288
330
1F
100
AcDbEntity
  8
0-F
  6
Continuous
 62
     7
370
     9
100
AcDbLine
 10
-696.7684923337588
 20
479.5186784693848
 30
0.0
 11
133.2315241622293
 21
479.5186784693848
 31
0.0
  0
TEXT
  5
289
330
1F
100
AcDbEntity
  8
0-F
  6
Continuous
 62
     2
370
     9
100
AcDbText
 10
-659.2685360481278
 20
443.7746520758037
 30
0.0
 40
12.192
  1
100
 41
1.083333333333333
  7
ＭＳ ゴシック
100
AcDbText
  0
TEXT
  5
28A
330
1F
100
AcDbEntity
  8
0-F
  6
Continuous
 62
     2
370
     9
100
AcDbText
 10
-309.2684824361659
 20
443.7746520758037
 30
0.0
 40
12.192
  1
600
 41
1.083333333333333
  7
ＭＳ ゴシック
100
AcDbText
  0
TEXT
  5
28B
330
1F
100
AcDbEntity
  8
0-F
  6
Continuous
 62
     2
370
     9
100
AcDbText
 10
107.2315307606247
 20
443.7746520758037
 30
0.0
 40
12.192
  1
600
 41
1.083333333333333
  7
ＭＳ ゴシック
100
AcDbText
  0
TEXT
  5
28C
330
1F
100
AcDbEntity
  8
0-F
  6
Continuous
 62
     2
370
     9
100
AcDbText
 10
-168.7508564728003
 20
483.7746850677802
 30
0.0
 40
12.192
  1
2000
 41
1.09375
  7
ＭＳ ゴシック
100
AcDbText
  0
TEXT
  5
28D
330
1F
100
AcDbEntity
  8
0-5
  6
Continuous
 62
     2
370
     9
100
AcDbText
 10
-577.790825877601
 20
418.3680259672735
 30
0.0
 40
12.192
  1
φ8.5
 41
1.1
  7
ＭＳ ゴシック
100
AcDbText
  0
LINE
  5
28E
330
1F
100
AcDbEntity
  8
0-5
  6
Continuous
 62
     7
370
     9
100
AcDbLine
 10
-579.6826545756007
 20
414.1121183448073
 30
0.0
 11
-531.8989971796013
 21
414.1121183448073
 31
0.0
  0
LINE
  5
28F
330
1F
100
AcDbEntity
  8
0-5
  6
Continuous
 62
     7
370
     9
100
AcDbLine
 10
-594.6434925077397
 20
388.1991869225384
 30
0.0
 11
-579.6826545756007
 21
414.1121183448073
 31
0.0
  0
LINE
  5
290
330
1F
100
AcDbEntity
  8
0-5
  6
Continuous
 62
     7
370
     9
100
AcDbLine
 10
-594.6434925077397
 20
388.1991869225384
 30
0.0
 11
-588.5558782176527
 21
396.1327203254508
 31
0.0
  0
LINE
  5
291
330
1F
100
AcDbEntity
  8
0-5
  6
Continuous
 62
     7
370
     9
100
AcDbLine
 10
-594.6434925077397
 20
388.1991869225384
 30
0.0
 11
-590.8166581840892
 21
397.4379822476511
 31
0.0
  0
ARC
  5
292
330
1F
100
AcDbEntity
  8
0-1
  6
Continuous
 62
     2
370
     9
100
AcDbCircle
 10
-589.268482200509
 20
363.5186301597051
 30
0.0
 40
1.999999824868206
100
AcDbArc
 50
90.0
 51
149.9994903964416
  0
ARC
  5
293
330
1F
100
AcDbEntity
  8
0-1
  6
Continuous
 62
     2
370
     9
100
AcDbCircle
 10
-604.2685024670086
 20
363.5186301597051
 30
0.0
 40
1.999999824868206
100
AcDbArc
 50
30.00050960355836
 51
89.99999999999999
  0
LINE
  5
294
330
1F
100
AcDbEntity
  8
0-1
  6
JWW_CENTER2
 62
     2
370
     9
100
AcDbLine
 10
-596.7684923337588
 20
384.5185792577987
 30
0.0
 11
-602.5445683670673
 21
384.5185792577987
 31
0.0
  0
LINE
  5
295
330
1F
100
AcDbEntity
  8
0-1
  6
JWW_CENTER2
 62
     2
370
     9
100
AcDbLine
 10
-596.7684923337588
 20
384.5185792577987
 30
0.0
 11
-590.9924163004493
 21
384.5185792577987
 31
0.0
  0
LINE
  5
296
330
1F
100
AcDbEntity
  8
0-1
  6
Continuous
 62
     2
370
     9
100
AcDbLine
 10
-605.5184711246316
 20
365.5186394681556
 30
0.0
 11
-605.5184711246316
 21
394.5186258000509
 31
0.0
  0
LINE
  5
297
330
1F
100
AcDbEntity
  8
0-1
  6
Continuous
 62
     2
370
     9
100
AcDbLine
 10
-596.7684923337588
 20
394.5186258000509
 30
0.0
 11
-605.5184711246316
 21
394.5186258000509
 31
0.0
  0
LINE
  5
298
330
1F
100
AcDbEntity
  8
0-1
  6
Continuous
 62
     2
370
     9
100
AcDbLine
 10
-596.7684923337588
 20
394.5186258000509
 30
0.0
 11
-588.018513542886
 21
394.5186258000509
 31
0.0
  0
LINE
  5
299
330
1F
100
AcDbEntity
  8
0-1
  6
Continuous
 62
     2
370
     9
100
AcDbLine
 10
-588.018513542886
 20
365.5186394681556
 30
0.0
 11
-588.018513542886
 21
394.5186258000509
 31
0.0
  0
LINE
  5
29A
330
1F
100
AcDbEntity
  8
0-1
  6
Continuous
 62
     2
370
     9
100
AcDbLine
 10
-605.5184711246316
 20
365.5186394681556
 30
0.0
 11
-604.2685024670086
 21
365.5186394681556
 31
0.0
  0
LINE
  5
29B
330
1F
100
AcDbEntity
  8
0-1
  6
JWW_DASHED1
 62
     2
370
     9
100
AcDbLine
 10
-603.5184618161807
 20
365.3727239101764
 30
0.0
 11
-603.5184618161807
 21
394.5186258000509
 31
0.0
  0
LINE
  5
29C
330
1F
100
AcDbEntity
  8
0-1
  6
Continuous
 62
     2
370
     9
100
AcDbLine
 10
-588.018513542886
 20
365.5186394681556
 30
0.0
 11
-589.268482200509
 21
365.5186394681556
 31
0.0
  0
LINE
  5
29D
330
1F
100
AcDbEntity
  8
0-1
  6
JWW_DASHED1
 62
     2
370
     9
100
AcDbLine
 10
-590.0185228513369
 20
365.3727239101764
 30
0.0
 11
-590.0185228513369
 21
394.5186258000509
 31
0.0
  0
CIRCLE
  5
29E
330
1F
100
AcDbEntity
  8
0-1
  6
Continuous
 62
     2
370
     9
100
AcDbCircle
 10
-596.7684923337588
 20
384.5185792577987
 30
0.0
 40
4.249999652037749
  0
LINE
  5
29F
330
1F
100
AcDbEntity
  8
0-1
  6
JWW_CENTER2
 62
     2
370
     9
100
AcDbLine
 10
-596.7684923337588
 20
395.2990882344444
 30
0.0
 11
-596.7684923337588
 21
355.5186920196608
 31
0.0
  0
LINE
  5
2A0
330
1F
100
AcDbEntity
  8
0-F
  6
Continuous
 62
     7
370
     9
100
AcDbLine
 10
-596.7685273416378
 20
400.9177684412479
 30
0.0
 11
-596.7685088297471
 21
440.7186296412598
 31
0.0
  0
ARC
  5
2A1
330
1F
100
AcDbEntity
  8
0-1
  6
Continuous
 62
     2
370
     9
100
AcDbCircle
 10
10.73150130350289
 20
363.5186301597051
 30
0.0
 40
1.999999824868206
100
AcDbArc
 50
90.0
 51
149.9994903964416
  0
ARC
  5
2A2
330
1F
100
AcDbEntity
  8
0-1
  6
Continuous
 62
     2
370
     9
100
AcDbCircle
 10
-4.268518962996744
 20
363.5186301597051
 30
0.0
 40
1.999999824868206
100
AcDbArc
 50
30.00050960355836
 51
89.99999999999999
  0
LINE
  5
2A3
330
1F
100
AcDbEntity
  8
0-1
  6
JWW_CENTER2
 62
     2
370
     9
100
AcDbLine
 10
3.231491170253072
 20
384.5185792577987
 30
0.0
 11
-2.544584863055455
 21
384.5185792577987
 31
0.0
  0
LINE
  5
2A4
330
1F
100
AcDbEntity
  8
0-1
  6
JWW_CENTER2
 62
     2
370
     9
100
AcDbLine
 10
3.231491170253072
 20
384.5185792577987
 30
0.0
 11
9.007567203562509
 21
384.5185792577987
 31
0.0
  0
LINE
  5
2A5
330
1F
100
AcDbEntity
  8
0-1
  6
Continuous
 62
     2
370
     9
100
AcDbLine
 10
-5.518487620619702
 20
365.5186394681556
 30
0.0
 11
-5.518487620619702
 21
394.5186258000509
 31
0.0
  0
LINE
  5
2A6
330
1F
100
AcDbEntity
  8
0-1
  6
Continuous
 62
     2
370
     9
100
AcDbLine
 10
3.231491170253072
 20
394.5186258000509
 30
0.0
 11
-5.518487620619702
 21
394.5186258000509
 31
0.0
  0
LINE
  5
2A7
330
1F
100
AcDbEntity
  8
0-1
  6
Continuous
 62
     2
370
     9
100
AcDbLine
 10
3.231491170253072
 20
394.5186258000509
 30
0.0
 11
11.98146996112585
 21
394.5186258000509
 31
0.0
  0
LINE
  5
2A8
330
1F
100
AcDbEntity
  8
0-1
  6
Continuous
 62
     2
370
     9
100
AcDbLine
 10
11.98146996112585
 20
365.5186394681556
 30
0.0
 11
11.98146996112585
 21
394.5186258000509
 31
0.0
  0
LINE
  5
2A9
330
1F
100
AcDbEntity
  8
0-1
  6
Continuous
 62
     2
370
     9
100
AcDbLine
 10
-5.518487620619702
 20
365.5186394681556
 30
0.0
 11
-4.268518962996744
 21
365.5186394681556
 31
0.0
  0
LINE
  5
2AA
330
1F
100
AcDbEntity
  8
0-1
  6
JWW_DASHED1
 62
     2
370
     9
100
AcDbLine
 10
-3.518478312168803
 20
365.3727239101764
 30
0.0
 11
-3.518478312168803
 21
394.5186258000509
 31
0.0
  0
LINE
  5
2AB
330
1F
100
AcDbEntity
  8
0-1
  6
Continuous
 62
     2
370
     9
100
AcDbLine
 10
11.98146996112585
 20
365.5186394681556
 30
0.0
 11
10.73150130350289
 21
365.5186394681556
 31
0.0
  0
LINE
  5
2AC
330
1F
100
AcDbEntity
  8
0-1
  6
JWW_DASHED1
 62
     2
370
     9
100
AcDbLine
 10
9.981460652674947
 20
365.3727239101764
 30
0.0
 11
9.981460652674947
 21
394.5186258000509
 31
0.0
  0
CIRCLE
  5
2AD
330
1F
100
AcDbEntity
  8
0-1
  6
Continuous
 62
     2
370
     9
100
AcDbCircle
 10
3.231491170253072
 20
384.5185792577987
 30
0.0
 40
4.249999652037749
  0
LINE
  5
2AE
330
1F
100
AcDbEntity
  8
0-1
  6
JWW_CENTER2
 62
     2
370
     9
100
AcDbLine
 10
3.231491170253072
 20
395.2990882344444
 30
0.0
 11
3.231491170253072
 21
355.5186920196608
 31
0.0
  0
LINE
  5
2AF
330
1F
100
AcDbEntity
  8
0-F
  6
Continuous
 62
     7
370
     9
100
AcDbLine
 10
3.231491170253072
 20
400.9177684412479
 30
0.0
 11
3.231491170253072
 21
440.7186296412598
 31
0.0
  0
LINE
  5
2B0
330
1F
100
AcDbEntity
  8
0-1
  6
JWW_CENTER2
 62
     2
370
     9
100
AcDbLine
 10
3.231491170253072
 20
-66.26187975956805
 30
0.0
 11
3.231491170253072
 21
-26.4814835447844
 31
0.0
  0
CIRCLE
  5
2B1
330
1F
100
AcDbEntity
  8
0-1
  6
Continuous
 62
     2
370
     9
100
AcDbCircle
 10
3.231491170253072
 20
-55.48137078292234
 30
0.0
 40
4.249999652037749
  0
LINE
  5
2B2
330
1F
100
AcDbEntity
  8
0-1
  6
JWW_DASHED1
 62
     2
370
     9
100
AcDbLine
 10
9.981460652674947
 20
-36.33551543530007
 30
0.0
 11
9.981460652674947
 21
-65.48141732517456
 31
0.0
  0
LINE
  5
2B3
330
1F
100
AcDbEntity
  8
0-1
  6
Continuous
 62
     2
370
     9
100
AcDbLine
 10
11.98146996112585
 20
-36.48143099327922
 30
0.0
 11
10.73150130350289
 21
-36.48143099327922
 31
0.0
  0
LINE
  5
2B4
330
1F
100
AcDbEntity
  8
0-1
  6
JWW_DASHED1
 62
     2
370
     9
100
AcDbLine
 10
-3.518478312168803
 20
-36.33551543530007
 30
0.0
 11
-3.518478312168803
 21
-65.48141732517456
 31
0.0
  0
LINE
  5
2B5
330
1F
100
AcDbEntity
  8
0-1
  6
Continuous
 62
     2
370
     9
100
AcDbLine
 10
-5.518487620619702
 20
-36.48143099327922
 30
0.0
 11
-4.268518962996744
 21
-36.48143099327922
 31
0.0
  0
LINE
  5
2B6
330
1F
100
AcDbEntity
  8
0-1
  6
Continuous
 62
     2
370
     9
100
AcDbLine
 10
11.98146996112585
 20
-36.48143099327922
 30
0.0
 11
11.98146996112585
 21
-65.48141732517456
 31
0.0
  0
LINE
  5
2B7
330
1F
100
AcDbEntity
  8
0-1
  6
Continuous
 62
     2
370
     9
100
AcDbLine
 10
3.231491170253072
 20
-65.48141732517456
 30
0.0
 11
11.98146996112585
 21
-65.48141732517456
 31
0.0
  0
LINE
  5
2B8
330
1F
100
AcDbEntity
  8
0-1
  6
Continuous
 62
     2
370
     9
100
AcDbLine
 10
3.231491170253072
 20
-65.48141732517456
 30
0.0
 11
-5.518487620619702
 21
-65.48141732517456
 31
0.0
  0
LINE
  5
2B9
330
1F
100
AcDbEntity
  8
0-1
  6
Continuous
 62
     2
370
     9
100
AcDbLine
 10
-5.518487620619702
 20
-36.48143099327922
 30
0.0
 11
-5.518487620619702
 21
-65.48141732517456
 31
0.0
  0
LINE
  5
2BA
330
1F
100
AcDbEntity
  8
0-1
  6
JWW_CENTER2
 62
     2
370
     9
100
AcDbLine
 10
3.231491170253072
 20
-55.48137078292234
 30
0.0
 11
9.007567203562509
 21
-55.48137078292234
 31
0.0
  0
LINE
  5
2BB
330
1F
100
AcDbEntity
  8
0-1
  6
JWW_CENTER2
 62
     2
370
     9
100
AcDbLine
 10
3.231491170253072
 20
-55.48137078292234
 30
0.0
 11
-2.544584863055455
 21
-55.48137078292234
 31
0.0
  0
ARC
  5
2BC
330
1F
100
AcDbEntity
  8
0-1
  6
Continuous
 62
     2
370
     9
100
AcDbCircle
 10
-4.268518962996744
 20
-34.48142168482877
 30
0.0
 40
1.999999824868206
100
AcDbArc
 50
270.0
 51
329.9994903964416
  0
ARC
  5
2BD
330
1F
100
AcDbEntity
  8
0-1
  6
Continuous
 62
     2
370
     9
100
AcDbCircle
 10
10.73150130350289
 20
-34.48142168482877
 30
0.0
 40
1.999999824868206
100
AcDbArc
 50
210.0005096035584
 51
270.0
  0
LINE
  5
2BE
330
1F
100
AcDbEntity
  8
0-1
  6
JWW_CENTER2
 62
     2
370
     9
100
AcDbLine
 10
-596.7684923337588
 20
-66.26187975956805
 30
0.0
 11
-596.7684923337588
 21
-26.4814835447844
 31
0.0
  0
CIRCLE
  5
2BF
330
1F
100
AcDbEntity
  8
0-1
  6
Continuous
 62
     2
370
     9
100
AcDbCircle
 10
-596.7684923337588
 20
-55.48137078292234
 30
0.0
 40
4.249999652037749
  0
LINE
  5
2C0
330
1F
100
AcDbEntity
  8
0-1
  6
JWW_DASHED1
 62
     2
370
     9
100
AcDbLine
 10
-590.0185228513369
 20
-36.33551543530007
 30
0.0
 11
-590.0185228513369
 21
-65.48141732517456
 31
0.0
  0
LINE
  5
2C1
330
1F
100
AcDbEntity
  8
0-1
  6
Continuous
 62
     2
370
     9
100
AcDbLine
 10
-588.018513542886
 20
-36.48143099327922
 30
0.0
 11
-589.268482200509
 21
-36.48143099327922
 31
0.0
  0
LINE
  5
2C2
330
1F
100
AcDbEntity
  8
0-1
  6
JWW_DASHED1
 62
     2
370
     9
100
AcDbLine
 10
-603.5184618161807
 20
-36.33551543530007
 30
0.0
 11
-603.5184618161807
 21
-65.48141732517456
 31
0.0
  0
LINE
  5
2C3
330
1F
100
AcDbEntity
  8
0-1
  6
Continuous
 62
     2
370
     9
100
AcDbLine
 10
-605.5184711246316
 20
-36.48143099327922
 30
0.0
 11
-604.2685024670086
 21
-36.48143099327922
 31
0.0
  0
LINE
  5
2C4
330
1F
100
AcDbEntity
  8
0-1
  6
Continuous
 62
     2
370
     9
100
AcDbLine
 10
-588.018513542886
 20
-36.48143099327922
 30
0.0
 11
-588.018513542886
 21
-65.48141732517456
 31
0.0
  0
LINE
  5
2C5
330
1F
100
AcDbEntity
  8
0-1
  6
Continuous
 62
     2
370
     9
100
AcDbLine
 10
-596.7684923337588
 20
-65.48141732517456
 30
0.0
 11
-588.018513542886
 21
-65.48141732517456
 31
0.0
  0
LINE
  5
2C6
330
1F
100
AcDbEntity
  8
0-1
  6
Continuous
 62
     2
370
     9
100
AcDbLine
 10
-596.7684923337588
 20
-65.48141732517456
 30
0.0
 11
-605.5184711246316
 21
-65.48141732517456
 31
0.0
  0
LINE
  5
2C7
330
1F
100
AcDbEntity
  8
0-1
  6
Continuous
 62
     2
370
     9
100
AcDbLine
 10
-605.5184711246316
 20
-36.48143099327922
 30
0.0
 11
-605.5184711246316
 21
-65.48141732517456
 31
0.0
  0
LINE
  5
2C8
330
1F
100
AcDbEntity
  8
0-1
  6
JWW_CENTER2
 62
     2
370
     9
100
AcDbLine
 10
-596.7684923337588
 20
-55.48137078292234
 30
0.0
 11
-590.9924163004493
 21
-55.48137078292234
 31
0.0
  0
LINE
  5
2C9
330
1F
100
AcDbEntity
  8
0-1
  6
JWW_CENTER2
 62
     2
370
     9
100
AcDbLine
 10
-596.7684923337588
 20
-55.48137078292234
 30
0.0
 11
-602.5445683670673
 21
-55.48137078292234
 31
0.0
  0
ARC
  5
2CA
330
1F
100
AcDbEntity
  8
0-1
  6
Continuous
 62
     2
370
     9
100
AcDbCircle
 10
-604.2685024670086
 20
-34.48142168482877
 30
0.0
 40
1.999999824868206
100
AcDbArc
 50
270.0
 51
329.9994903964416
  0
ARC
  5
2CB
330
1F
100
AcDbEntity
  8
0-1
  6
Continuous
 62
     2
370
     9
100
AcDbCircle
 10
-589.268482200509
 20
-34.48142168482877
 30
0.0
 40
1.999999824868206
100
AcDbArc
 50
210.0005096035584
 51
270.0
  0
TEXT
  5
2CC
330
1F
100
AcDbEntity
  8
0-E
  6
Continuous
 62
     7
370
     9
100
AcDbText
 10
192.7054257315646
 20
441.9248557814627
 30
0.0
 40
9.144
  1
受枠：ＴＬ６０Ｐ，ｔ＝３．０
 41
1.154761904761905
  7
ＭＳ ゴシック
100
AcDbText
  0
TEXT
  5
2CD
330
1F
100
AcDbEntity
  8
0-E
  6
Continuous
 62
     7
370
     9
100
AcDbText
 10
192.3181197243854
 20
422.1397655154152
 30
0.0
 40
9.144
  1
ＳＵＳ３０４
 41
1.138888888888885
  7
ＭＳ ゴシック
100
AcDbText
  0
LINE
  5
2CE
330
1F
100
AcDbEntity
  8
0-E
  6
Continuous
 62
     7
370
     9
100
AcDbLine
 10
191.7782748319725
 20
436.1982010095031
 30
0.0
 11
385.2369084527699
 21
436.1982010095031
 31
0.0
  0
TEXT
  5
2CF
330
1F
100
AcDbEntity
  8
0-5
  6
Continuous
 62
     7
370
     9
100
AcDbText
 10
486.8879349415907
 20
483.1144377802556
 30
0.0
 40
9.144
  1
アンカーを回転・変形させることで
 41
1.15625
  7
ＭＳ ゴシック
100
AcDbText
  0
TEXT
  5
2D0
330
1F
100
AcDbEntity
  8
0-5
  6
Continuous
 62
     7
370
     9
100
AcDbText
 10
486.8879349415907
 20
467.933870785687
 30
0.0
 40
9.144
  1
境界部・壁際用として使用できます
 41
1.15625
  7
ＭＳ ゴシック
100
AcDbText
  0
TEXT
  5
2D1
330
1F
100
AcDbEntity
  8
0-5
  6
Continuous
 62
     7
370
     9
100
AcDbText
 10
472.8879349415905
 20
483.1144377802556
 30
0.0
 40
9.144
  1
※
  7
ＭＳ ゴシック
100
AcDbText
  0
TEXT
  5
2D2
330
1F
100
AcDbEntity
  8
0-E
  6
Continuous
 62
     7
370
     9
100
AcDbText
 10
486.8879349415907
 20
443.339320783574
 30
0.0
 40
9.144
  1
回転アンカー：ｔ＝２.０
 41
1.152173913043478
  7
ＭＳ ゴシック
100
AcDbText
  0
LINE
  5
2D3
330
1F
100
AcDbEntity
  8
0-E
  6
Continuous
 62
     7
370
     9
100
AcDbLine
 10
483.0884889415612
 20
436.1982010095031
 30
0.0
 11
648.3420872156615
 21
436.1982010095031
 31
0.0
  0
TEXT
  5
2D4
330
1F
100
AcDbEntity
  8
0-E
  6
Continuous
 62
     7
370
     9
100
AcDbText
 10
486.6959315368193
 20
423.0707331040977
 30
0.0
 40
9.144
  1
ＳＥＣＣ
 41
1.124999999999995
  7
ＭＳ ゴシック
100
AcDbText
  0
LINE
  5
2D5
330
1F
100
AcDbEntity
  8
0-F
  6
Continuous
 62
     7
370
     9
100
AcDbLine
 10
461.7312893300544
 20
394.5185925724176
 30
0.0
 11
465.7628758482132
 21
405.8210498148163
 31
0.0
  0
LINE
  5
2D6
330
1F
100
AcDbEntity
  8
0-F
  6
Continuous
 62
     7
370
     9
100
AcDbLine
 10
461.7312893300544
 20
394.5185925724176
 30
0.0
 11
468.5508298178078
 21
404.3926292067082
 31
0.0
  0
LINE
  5
2D7
330
1F
100
AcDbEntity
  8
0-E
  6
Continuous
 62
     7
370
     9
100
AcDbLine
 10
483.0884889415612
 20
436.1982010095031
 30
0.0
 11
461.7312893300544
 21
394.5185925724176
 31
0.0
  0
LINE
  5
2D8
330
1F
100
AcDbEntity
  8
0-6
  6
Continuous
 62
     6
370
     9
100
AcDbLine
 10
453.2313921943236
 20
318.0185794934558
 30
0.0
 11
456.2313921943236
 21
318.0185794934558
 31
0.0
  0
LINE
  5
2D9
330
1F
100
AcDbEntity
  8
0-6
  6
Continuous
 62
     6
370
     9
100
AcDbLine
 10
453.2313921943236
 20
355.7031576754106
 30
0.0
 11
455.5468140123688
 21
358.0185794934556
 31
0.0
  0
LINE
  5
2DA
330
1F
100
AcDbEntity
  8
0-6
  6
Continuous
 62
     6
370
     9
100
AcDbLine
 10
453.231392194324
 20
350.0463034259177
 30
0.0
 11
456.231392194324
 21
353.0463034259179
 31
0.0
  0
LINE
  5
2DB
330
1F
100
AcDbEntity
  8
0-6
  6
Continuous
 62
     6
370
     9
100
AcDbLine
 10
453.2313921943231
 20
344.3894491764235
 30
0.0
 11
456.2313921943231
 21
347.3894491764235
 31
0.0
  0
LINE
  5
2DC
330
1F
100
AcDbEntity
  8
0-6
  6
Continuous
 62
     6
370
     9
100
AcDbLine
 10
453.2313921943236
 20
338.7325949269308
 30
0.0
 11
456.2313921943236
 21
341.7325949269308
 31
0.0
  0
LINE
  5
2DD
330
1F
100
AcDbEntity
  8
0-6
  6
Continuous
 62
     6
370
     9
100
AcDbLine
 10
453.2313921943231
 20
333.0757406774368
 30
0.0
 11
456.2313921943236
 21
336.075740677437
 31
0.0
  0
LINE
  5
2DE
330
1F
100
AcDbEntity
  8
0-6
  6
Continuous
 62
     6
370
     9
100
AcDbLine
 10
453.2313921943236
 20
327.4188864279439
 30
0.0
 11
456.2313921943218
 21
330.4188864279421
 31
0.0
  0
LINE
  5
2DF
330
1F
100
AcDbEntity
  8
0-6
  6
Continuous
 62
     6
370
     9
100
AcDbLine
 10
453.2313921943227
 20
321.7620321784567
 30
0.0
 11
456.2313921943227
 21
324.7620321784569
 31
0.0
  0
LINE
  5
2E0
330
1F
100
AcDbEntity
  8
0-6
  6
Continuous
 62
     6
370
     9
100
AcDbLine
 10
455.1447937588154
 20
318.0185794934563
 30
0.0
 11
456.2313921943231
 21
319.1051779289641
 31
0.0
  0
LINE
  5
2E1
330
1F
100
AcDbEntity
  8
0-6
  6
Continuous
 62
     6
370
     9
100
AcDbLine
 10
453.2313921943236
 20
358.0185794934558
 30
0.0
 11
453.2313921943236
 21
318.0185794934558
 31
0.0
  0
LINE
  5
2E2
330
1F
100
AcDbEntity
  8
0-6
  6
Continuous
 62
     6
370
     9
100
AcDbLine
 10
456.2313921943236
 20
358.0185794934558
 30
0.0
 11
453.2313921943236
 21
358.0185794934558
 31
0.0
  0
LINE
  5
2E3
330
1F
100
AcDbEntity
  8
0-6
  6
Continuous
 62
     6
370
     9
100
AcDbLine
 10
456.2313921943236
 20
318.0185794934558
 30
0.0
 11
456.2313921943236
 21
358.0185794934558
 31
0.0
  0
LINE
  5
2E4
330
1F
100
AcDbEntity
  8
0-1
  6
Continuous
 62
     2
370
     9
100
AcDbLine
 10
461.7312893300544
 20
355.5186452417514
 30
0.0
 11
463.7315468442129
 21
355.5186452417514
 31
0.0
  0
LINE
  5
2E5
330
1F
100
AcDbEntity
  8
0-1
  6
Continuous
 62
     2
370
     9
100
AcDbLine
 10
459.2315505558103
 20
355.5186452417514
 30
0.0
 11
459.731280021604
 21
355.5186452417514
 31
0.0
  0
LINE
  5
2E6
330
1F
100
AcDbEntity
  8
0-1
  6
Continuous
 62
     2
370
     9
100
AcDbLine
 10
463.7315468442129
 20
355.5186452417514
 30
0.0
 11
463.7315468442129
 21
335.5185792577989
 31
0.0
  0
LINE
  5
2E7
330
1F
100
AcDbEntity
  8
0-1
  6
JWW_DASHED1
 62
     2
370
     9
100
AcDbLine
 10
463.7312986385049
 20
347.7685855616231
 30
0.0
 11
461.7312893300544
 21
347.7685855616231
 31
0.0
  0
LINE
  5
2E8
330
1F
100
AcDbEntity
  8
0-1
  6
JWW_DASHED1
 62
     2
370
     9
100
AcDbLine
 10
461.5312685804578
 20
347.7685855616231
 30
0.0
 11
459.731280021604
 21
349.5185317729187
 31
0.0
  0
LINE
  5
2E9
330
1F
100
AcDbEntity
  8
0-1
  6
JWW_DASHED1
 62
     2
370
     9
100
AcDbLine
 10
461.5312685804578
 20
347.7685855616231
 30
0.0
 11
461.7313388769334
 21
347.7685855616231
 31
0.0
  0
LINE
  5
2EA
330
1F
100
AcDbEntity
  8
0-1
  6
JWW_DASHED1
 62
     2
370
     9
100
AcDbLine
 10
461.5312685804578
 20
343.2685893910487
 30
0.0
 11
461.7313388769334
 21
343.2685893910487
 31
0.0
  0
LINE
  5
2EB
330
1F
100
AcDbEntity
  8
0-1
  6
JWW_DASHED1
 62
     2
370
     9
100
AcDbLine
 10
461.5312685804578
 20
347.7685855616231
 30
0.0
 11
461.5312685804578
 21
343.2685893910487
 31
0.0
  0
LINE
  5
2EC
330
1F
100
AcDbEntity
  8
0-1
  6
JWW_DASHED1
 62
     2
370
     9
100
AcDbLine
 10
463.7312986385049
 20
343.2685893910487
 30
0.0
 11
461.7312893300544
 21
343.2685893910487
 31
0.0
  0
LINE
  5
2ED
330
1F
100
AcDbEntity
  8
0-1
  6
JWW_DASHED1
 62
     2
370
     9
100
AcDbLine
 10
461.5312685804578
 20
343.2685893910487
 30
0.0
 11
459.731280021604
 21
341.5186927266317
 31
0.0
  0
LINE
  5
2EE
330
1F
100
AcDbEntity
  8
0-1
  6
Continuous
 62
     2
370
     9
100
AcDbLine
 10
459.731280021604
 20
335.518565707523
 30
0.0
 11
461.7312893300544
 21
335.518565707523
 31
0.0
  0
LINE
  5
2EF
330
1F
100
AcDbEntity
  8
0-1
  6
Continuous
 62
     2
370
     9
100
AcDbLine
 10
461.7312893300544
 20
365.5236104752779
 30
0.0
 11
461.7312893300544
 21
335.518565707523
 31
0.0
  0
LINE
  5
2F0
330
1F
100
AcDbEntity
  8
0-1
  6
Continuous
 62
     2
370
     9
100
AcDbLine
 10
459.731280021604
 20
394.5185925724176
 30
0.0
 11
459.731280021604
 21
335.518565707523
 31
0.0
  0
ARC
  5
2F1
330
1F
100
AcDbEntity
  8
0-1
  6
Continuous
 62
     2
370
     9
100
AcDbCircle
 10
462.5312732346832
 20
368.5186202031977
 30
0.0
 40
3.000000414701042
100
AcDbArc
 50
270.0
 51
0.0
  0
ARC
  5
2F2
330
1F
100
AcDbEntity
  8
0-1
  6
Continuous
 62
     2
370
     9
100
AcDbCircle
 10
462.5312732346832
 20
391.5186281566206
 30
0.0
 40
3.000000414701042
100
AcDbArc
 50
0.0
 51
90.0
  0
LINE
  5
2F3
330
1F
100
AcDbEntity
  8
0-1
  6
Continuous
 62
     2
370
     9
100
AcDbLine
 10
465.5312871973587
 20
368.5186202031977
 30
0.0
 11
465.5312871973587
 21
391.5186281566206
 31
0.0
  0
LINE
  5
2F4
330
1F
100
AcDbEntity
  8
0-1
  6
Continuous
 62
     2
370
     9
100
AcDbLine
 10
462.5312732346832
 20
365.5186062405222
 30
0.0
 11
459.731280021604
 21
365.5186062405222
 31
0.0
  0
LINE
  5
2F5
330
1F
100
AcDbEntity
  8
0-1
  6
Continuous
 62
     2
370
     9
100
AcDbLine
 10
462.5312732346832
 20
394.5185925724176
 30
0.0
 11
459.731280021604
 21
394.5185925724176
 31
0.0
  0
LINE
  5
2F6
330
1F
100
AcDbEntity
  8
0-1
  6
JWW_DASHED1
 62
     2
370
     9
100
AcDbLine
 10
461.7312893300544
 20
394.5135883376619
 30
0.0
 11
461.7312893300544
 21
365.5236104752779
 31
0.0
  0
LINE
  5
2F7
330
1F
100
AcDbEntity
  8
0-1
  6
Continuous
 62
     2
370
     9
100
AcDbLine
 10
461.7312893300544
 20
361.5185876236213
 30
0.0
 11
459.731280021604
 21
361.5185876236213
 31
0.0
  0
LINE
  5
2F8
330
1F
100
AcDbEntity
  8
0-1
  6
JWW_DASHED1
 62
     2
370
     9
100
AcDbLine
 10
461.7312893300544
 20
380.2686129567459
 30
0.0
 11
459.731280021604
 21
380.2686129567459
 31
0.0
  0
LINE
  5
2F9
330
1F
100
AcDbEntity
  8
0-1
  6
JWW_DASHED1
 62
     2
370
     9
100
AcDbLine
 10
461.7312893300544
 20
388.7685781973427
 30
0.0
 11
459.731280021604
 21
388.7685781973427
 31
0.0
  0
LINE
  5
2FA
330
1F
100
AcDbEntity
  8
0-1
  6
JWW_CENTER2
 62
     2
370
     9
100
AcDbLine
 10
467.2793513931464
 20
345.5186122497752
 30
0.0
 11
458.1949756508269
 21
345.5186122497752
 31
0.0
  0
LINE
  5
2FB
330
1F
100
AcDbEntity
  8
0-1
  6
Continuous
 62
     2
370
     9
100
AcDbLine
 10
459.731280021604
 20
352.2687953552439
 30
0.0
 11
459.731280021604
 21
355.5186452417514
 31
0.0
  0
LINE
  5
2FC
330
1F
100
AcDbEntity
  8
0-1
  6
Continuous
 62
     2
370
     9
100
AcDbLine
 10
461.7315835477865
 20
354.268604001781
 30
0.0
 11
461.7315835477865
 21
355.5186452417514
 31
0.0
  0
LINE
  5
2FD
330
1F
100
AcDbEntity
  8
0-1
  6
Continuous
 62
     2
370
     9
100
AcDbLine
 10
459.731280021604
 20
338.7687508160756
 30
0.0
 11
459.731280021604
 21
335.5185792577989
 31
0.0
  0
LINE
  5
2FE
330
1F
100
AcDbEntity
  8
0-1
  6
Continuous
 62
     2
370
     9
100
AcDbLine
 10
461.7315835477865
 20
336.7686204977693
 30
0.0
 11
461.7315835477865
 21
335.5185792577989
 31
0.0
  0
LINE
  5
2FF
330
1F
100
AcDbEntity
  8
0-1
  6
Continuous
 62
     2
370
     9
100
AcDbLine
 10
459.2315505558103
 20
335.5185792577989
 30
0.0
 11
463.7315468442129
 21
335.5185792577989
 31
0.0
  0
LINE
  5
300
330
1F
100
AcDbEntity
  8
0-1
  6
Continuous
 62
     2
370
     9
100
AcDbLine
 10
459.731280021604
 20
341.5184753330735
 30
0.0
 11
459.5311135770834
 21
341.5184753330735
 31
0.0
  0
LINE
  5
301
330
1F
100
AcDbEntity
  8
0-1
  6
Continuous
 62
     2
370
     9
100
AcDbLine
 10
459.731280021604
 20
349.518353262761
 30
0.0
 11
459.5311135770834
 21
349.518353262761
 31
0.0
  0
LINE
  5
302
330
1F
100
AcDbEntity
  8
0-1
  6
Continuous
 62
     2
370
     9
100
AcDbLine
 10
459.5311135770834
 20
349.518353262761
 30
0.0
 11
459.5311135770834
 21
345.5186122497752
 31
0.0
  0
LINE
  5
303
330
1F
100
AcDbEntity
  8
0-1
  6
Continuous
 62
     2
370
     9
100
AcDbLine
 10
459.5311135770834
 20
341.5184753330735
 30
0.0
 11
459.5311135770834
 21
345.5186122497752
 31
0.0
  0
LINE
  5
304
330
1F
100
AcDbEntity
  8
0-1
  6
Continuous
 62
     2
370
     9
100
AcDbLine
 10
464.2312763100066
 20
348.2685594626131
 30
0.0
 11
463.7315468442129
 21
348.2685594626131
 31
0.0
  0
LINE
  5
305
330
1F
100
AcDbEntity
  8
0-1
  6
Continuous
 62
     2
370
     9
100
AcDbLine
 10
465.731157538892
 20
346.5184175971148
 30
0.0
 11
464.2312763100066
 21
348.2685594626131
 31
0.0
  0
LINE
  5
306
330
1F
100
AcDbEntity
  8
0-1
  6
Continuous
 62
     2
370
     9
100
AcDbLine
 10
465.731157538892
 20
344.5186336945598
 30
0.0
 11
465.731157538892
 21
346.5184175971148
 31
0.0
  0
LINE
  5
307
330
1F
100
AcDbEntity
  8
0-1
  6
Continuous
 62
     2
370
     9
100
AcDbLine
 10
464.2312763100066
 20
342.768541317026
 30
0.0
 11
465.731157538892
 21
344.5186336945598
 31
0.0
  0
LINE
  5
308
330
1F
100
AcDbEntity
  8
0-1
  6
Continuous
 62
     2
370
     9
100
AcDbLine
 10
464.2312763100066
 20
342.768541317026
 30
0.0
 11
463.7315468442129
 21
342.768541317026
 31
0.0
  0
LINE
  5
309
330
1F
100
AcDbEntity
  8
0-1
  6
Continuous
 62
     2
370
     9
100
AcDbLine
 10
464.2312763100066
 20
342.768541317026
 30
0.0
 11
464.2312763100066
 21
348.2685594626131
 31
0.0
  0
LINE
  5
30A
330
1F
100
AcDbEntity
  8
0-1
  6
Continuous
 62
     2
370
     9
100
AcDbLine
 10
459.2315505558103
 20
355.5186452417514
 30
0.0
 11
459.2315505558103
 21
335.5185792577989
 31
0.0
  0
LINE
  5
30B
330
1F
100
AcDbEntity
  8
0-1
  6
Continuous
 62
     2
370
     9
100
AcDbLine
 10
459.731280021604
 20
352.2687953552439
 30
0.0
 11
459.731280021604
 21
338.7687508160756
 31
0.0
  0
LINE
  5
30C
330
1F
100
AcDbEntity
  8
0-1
  6
JWW_CENTER2
 62
     2
370
     9
100
AcDbLine
 10
463.7312986385049
 20
384.5185460301658
 30
0.0
 11
457.7313202600325
 21
384.5185460301658
 31
0.0
  0
LINE
  5
30D
330
1F
100
AcDbEntity
  8
0-E
  6
Continuous
 62
     7
370
     9
100
AcDbLine
 10
418.6331684823307
 20
364.5186454774085
 30
0.0
 11
415.0284651461819
 21
375.9644198650775
 31
0.0
  0
LINE
  5
30E
330
1F
100
AcDbEntity
  8
0-E
  6
Continuous
 62
     7
370
     9
100
AcDbLine
 10
418.6331684823307
 20
364.5186454774085
 30
0.0
 11
412.1888457416211
 21
374.6414086214119
 31
0.0
  0
LINE
  5
30F
330
1F
100
AcDbEntity
  8
0-E
  6
Continuous
 62
     7
370
     9
100
AcDbLine
 10
385.2369084527699
 20
436.1982010095031
 30
0.0
 11
418.6331684823307
 21
364.5186454774085
 31
0.0
  0
LINE
  5
310
330
1F
100
AcDbEntity
  8
0-F
  6
Continuous
 62
     7
370
     9
100
AcDbLine
 10
547.7979436090199
 20
326.4159810453983
 30
0.0
 11
544.665355454459
 21
302.6213264054069
 31
0.0
  0
LINE
  5
311
330
1F
100
AcDbEntity
  8
0-F
  6
Continuous
 62
     7
370
     9
100
AcDbLine
 10
544.665355454459
 20
326.4159810453983
 30
0.0
 11
547.7979436090199
 21
302.6213264054069
 31
0.0
  0
LINE
  5
312
330
1F
100
AcDbEntity
  8
0-F
  6
Continuous
 62
     7
370
     9
100
AcDbLine
 10
546.2316495317394
 20
364.5186454774085
 30
0.0
 11
544.665355454459
 21
352.621342901395
 31
0.0
  0
LINE
  5
313
330
1F
100
AcDbEntity
  8
0-F
  6
Continuous
 62
     7
370
     9
100
AcDbLine
 10
546.2317485076686
 20
364.5186454774085
 30
0.0
 11
547.7979436090199
 21
352.621342901395
 31
0.0
  0
TEXT
  5
314
330
1F
100
AcDbEntity
  8
0-F
  6
Continuous
 62
     2
370
     9
100
AcDbText
 10
541.9756433048908
 20
331.0186618747838
 30
0.0
 40
12.192
  1
50
 50
90.00000250447789
 41
1.062500000000001
  7
ＭＳ ゴシック
100
AcDbText
  0
LINE
  5
315
330
1F
100
AcDbEntity
  8
0-4
  6
Continuous
 62
     7
370
     9
100
AcDbLine
 10
546.2316495317394
 20
364.5186454774085
 30
0.0
 11
546.2316495317394
 21
394.5185925724176
 31
0.0
  0
LINE
  5
316
330
1F
100
AcDbEntity
  8
0-4
  6
Continuous
 62
     7
370
     9
100
AcDbLine
 10
546.2316495317394
 20
364.5186454774085
 30
0.0
 11
544.9263876095389
 21
374.4330940911466
 31
0.0
  0
LINE
  5
317
330
1F
100
AcDbEntity
  8
0-4
  6
Continuous
 62
     7
370
     9
100
AcDbLine
 10
546.2316495317394
 20
364.5186454774085
 30
0.0
 11
547.53691145394
 21
374.4330940911466
 31
0.0
  0
LINE
  5
318
330
1F
100
AcDbEntity
  8
0-4
  6
Continuous
 62
     7
370
     9
100
AcDbLine
 10
546.2316495317394
 20
394.5185925724176
 30
0.0
 11
544.9263876095389
 21
384.6041439586794
 31
0.0
  0
LINE
  5
319
330
1F
100
AcDbEntity
  8
0-4
  6
Continuous
 62
     7
370
     9
100
AcDbLine
 10
546.2316495317394
 20
394.5185925724176
 30
0.0
 11
547.53691145394
 21
384.6041439586794
 31
0.0
  0
LINE
  5
31A
330
1F
100
AcDbEntity
  8
0-4
  6
Continuous
 62
     7
370
     9
100
AcDbLine
 10
547.4316495317395
 20
394.5185925724176
 30
0.0
 11
467.731280021604
 21
394.5185925724176
 31
0.0
  0
TEXT
  5
31B
330
1F
100
AcDbEntity
  8
0-4
  6
Continuous
 62
     2
370
   211
100
AcDbText
 10
539.9756495317395
 20
371.0186190249129
 30
0.0
 40
12.192
  1
30
 50
90.0
 41
1.0625
  7
ＭＳ ゴシック
100
AcDbText
  0
LINE
  5
31C
330
1F
100
AcDbEntity
  8
0-F
  6
Continuous
 62
     7
370
     9
100
AcDbLine
 10
467.731280021604
 20
364.5186454774085
 30
0.0
 11
547.4316336955907
 21
364.5186454774085
 31
0.0
  0
LINE
  5
31D
330
1F
100
AcDbEntity
  8
0-F
  6
Continuous
 62
     7
370
     9
100
AcDbLine
 10
467.731280021604
 20
314.5186784693848
 30
0.0
 11
547.4316336955907
 21
314.5186784693848
 31
0.0
  0
LINE
  5
31E
330
1F
100
AcDbEntity
  8
0-F
  6
Continuous
 62
     7
370
     9
100
AcDbLine
 10
546.2316495317394
 20
314.5186784693848
 30
0.0
 11
546.2316495317394
 21
364.5186454774085
 31
0.0
  0
LINE
  5
31F
330
1F
100
AcDbEntity
  8
0-F
  6
Continuous
 62
     7
370
     9
100
AcDbLine
 10
547.7979436090199
 20
26.41598104539844
 30
0.0
 11
544.665355454459
 21
2.621276917442628
 31
0.0
  0
LINE
  5
320
330
1F
100
AcDbEntity
  8
0-F
  6
Continuous
 62
     7
370
     9
100
AcDbLine
 10
544.665355454459
 20
26.41598104539844
 30
0.0
 11
547.7979436090199
 21
2.621276917442628
 31
0.0
  0
LINE
  5
321
330
1F
100
AcDbEntity
  8
0-F
  6
Continuous
 62
     7
370
     9
100
AcDbLine
 10
546.2316495317394
 20
-35.48148649049654
 30
0.0
 11
544.665355454459
 21
-23.58413442651863
 31
0.0
  0
LINE
  5
322
330
1F
100
AcDbEntity
  8
0-F
  6
Continuous
 62
     7
370
     9
100
AcDbLine
 10
546.2316495317394
 20
-35.48148649049654
 30
0.0
 11
547.7979436090199
 21
-23.58413442651863
 31
0.0
  0
TEXT
  5
323
330
1F
100
AcDbEntity
  8
0-F
  6
Continuous
 62
     2
370
     9
100
AcDbText
 10
541.9756433048908
 20
-18.98140410916859
 30
0.0
 40
12.192
  1
50
 50
90.00000250447789
 41
1.062500000000001
  7
ＭＳ ゴシック
100
AcDbText
  0
LINE
  5
324
330
1F
100
AcDbEntity
  8
0-4
  6
Continuous
 62
     7
370
     9
100
AcDbLine
 10
546.2316495317394
 20
-65.48143358550624
 30
0.0
 11
546.2316495317394
 21
-35.48148649049654
 31
0.0
  0
LINE
  5
325
330
1F
100
AcDbEntity
  8
0-4
  6
Continuous
 62
     7
370
     9
100
AcDbLine
 10
546.2316495317394
 20
-65.48143358550624
 30
0.0
 11
544.9263876095389
 21
-55.56698497176785
 31
0.0
  0
LINE
  5
326
330
1F
100
AcDbEntity
  8
0-4
  6
Continuous
 62
     7
370
     9
100
AcDbLine
 10
546.2316495317394
 20
-65.48143358550624
 30
0.0
 11
547.53691145394
 21
-55.56698497176785
 31
0.0
  0
LINE
  5
327
330
1F
100
AcDbEntity
  8
0-4
  6
Continuous
 62
     7
370
     9
100
AcDbLine
 10
546.2316495317394
 20
-35.48148649049654
 30
0.0
 11
544.9263876095389
 21
-45.39593510423492
 31
0.0
  0
LINE
  5
328
330
1F
100
AcDbEntity
  8
0-4
  6
Continuous
 62
     7
370
     9
100
AcDbLine
 10
546.2316495317394
 20
-35.48148649049654
 30
0.0
 11
547.53691145394
 21
-45.39593510423492
 31
0.0
  0
TEXT
  5
329
330
1F
100
AcDbEntity
  8
0-4
  6
Continuous
 62
     2
370
   211
100
AcDbText
 10
539.9756495317395
 20
-58.98146003800139
 30
0.0
 40
12.192
  1
30
 50
90.0
 41
1.0625
  7
ＭＳ ゴシック
100
AcDbText
  0
LINE
  5
32A
330
1F
100
AcDbEntity
  8
0-4
  6
Continuous
 62
     7
370
     9
100
AcDbLine
 10
547.4316495317395
 20
-65.48143358550624
 30
0.0
 11
467.731280021604
 21
-65.48143358550624
 31
0.0
  0
LINE
  5
32B
330
1F
100
AcDbEntity
  8
0-F
  6
Continuous
 62
     7
370
     9
100
AcDbLine
 10
467.731280021604
 20
-35.48148649049654
 30
0.0
 11
547.4316336955907
 21
-35.48148649049654
 31
0.0
  0
LINE
  5
32C
330
1F
100
AcDbEntity
  8
0-F
  6
Continuous
 62
     7
370
     9
100
AcDbLine
 10
467.731280021604
 20
14.51862898142053
 30
0.0
 11
547.4316336955907
 21
14.51862898142053
 31
0.0
  0
LINE
  5
32D
330
1F
100
AcDbEntity
  8
0-F
  6
Continuous
 62
     7
370
     9
100
AcDbLine
 10
546.2316495317394
 20
-35.48148649049654
 30
0.0
 11
546.2316495317394
 21
14.51862898142053
 31
0.0
  0
LINE
  5
32E
330
1F
100
AcDbEntity
  8
0-F
  6
Continuous
 62
     7
370
     9
100
AcDbLine
 10
546.2316495317394
 20
14.51862898142053
 30
0.0
 11
546.2316495317394
 21
314.5186784693848
 31
0.0
  0
TEXT
  5
32F
330
1F
100
AcDbEntity
  8
0-F
  6
Continuous
 62
     2
370
   211
100
AcDbText
 10
541.9756435015922
 20
151.5186536267897
 30
0.0
 40
12.192
  1
300
 50
90.00000250447873
 41
1.083333333333334
  7
ＭＳ ゴシック
100
AcDbText
  0
LINE
  5
330
330
1F
100
AcDbEntity
  8
0-4
  6
Continuous
 62
     7
370
     9
100
AcDbLine
 10
465.7311575388921
 20
-136.4816375937485
 30
0.0
 11
465.7311575388921
 21
-24.48140377489904
 31
0.0
  0
LINE
  5
331
330
1F
100
AcDbEntity
  8
0-4
  6
Continuous
 62
     7
370
     9
100
AcDbLine
 10
465.7311575388921
 20
-135.2816375937484
 30
0.0
 11
475.6456061526305
 21
-133.9763756715479
 31
0.0
  0
LINE
  5
332
330
1F
100
AcDbEntity
  8
0-4
  6
Continuous
 62
     7
370
     9
100
AcDbLine
 10
465.7311575388921
 20
-135.2816375937484
 30
0.0
 11
475.6456061526305
 21
-136.586899515949
 31
0.0
  0
LINE
  5
333
330
1F
100
AcDbEntity
  8
0-4
  6
Continuous
 62
     7
370
     9
100
AcDbLine
 10
459.2315505558104
 20
-135.2816375937484
 30
0.0
 11
449.3171019420724
 21
-133.9763756715479
 31
0.0
  0
LINE
  5
334
330
1F
100
AcDbEntity
  8
0-4
  6
Continuous
 62
     7
370
     9
100
AcDbLine
 10
459.2315505558104
 20
-135.2816375937484
 30
0.0
 11
449.3171019420724
 21
-136.586899515949
 31
0.0
  0
LINE
  5
335
330
1F
100
AcDbEntity
  8
0-4
  6
Continuous
 62
     7
370
     9
100
AcDbLine
 10
459.2315505558104
 20
-135.2816375937484
 30
0.0
 11
465.7311575388921
 21
-135.2816375937484
 31
0.0
  0
TEXT
  5
336
330
1F
100
AcDbEntity
  8
0-4
  6
Continuous
 62
     2
370
     9
100
AcDbText
 10
414.7316396341466
 20
-91.02559800337676
 30
0.0
 40
12.192
  1
60
 41
1.0625
  7
ＭＳ ゴシック
100
AcDbText
  0
LINE
  5
337
330
1F
100
AcDbEntity
  8
0-4
  6
Continuous
 62
     7
370
     9
100
AcDbLine
 10
393.231590146182
 20
-135.2816375937484
 30
0.0
 11
405.1288927221958
 21
-136.8479316710288
 31
0.0
  0
LINE
  5
338
330
1F
100
AcDbEntity
  8
0-4
  6
Continuous
 62
     7
370
     9
100
AcDbLine
 10
393.231590146182
 20
-135.2816375937484
 30
0.0
 11
405.1288927221958
 21
-133.715343516468
 31
0.0
  0
LINE
  5
339
330
1F
100
AcDbEntity
  8
0-4
  6
Continuous
 62
     7
370
     9
100
AcDbLine
 10
453.231590146182
 20
-95.28160460177219
 30
0.0
 11
441.3342875701687
 21
-96.8478986790526
 31
0.0
  0
LINE
  5
33A
330
1F
100
AcDbEntity
  8
0-4
  6
Continuous
 62
     7
370
     9
100
AcDbLine
 10
453.231590146182
 20
-95.28160460177219
 30
0.0
 11
441.3342875701687
 21
-93.71531052449177
 31
0.0
  0
LINE
  5
33B
330
1F
100
AcDbEntity
  8
0-4
  6
Continuous
 62
     7
370
     9
100
AcDbLine
 10
393.231590146182
 20
-95.28160460177219
 30
0.0
 11
405.1288927221958
 21
-96.8478986790526
 31
0.0
  0
LINE
  5
33C
330
1F
100
AcDbEntity
  8
0-4
  6
Continuous
 62
     7
370
     9
100
AcDbLine
 10
393.231590146182
 20
-95.28160460177219
 30
0.0
 11
405.1288927221958
 21
-93.71531052449177
 31
0.0
  0
LINE
  5
33D
330
1F
100
AcDbEntity
  8
0-4
  6
Continuous
 62
     7
370
     9
100
AcDbLine
 10
453.231590146182
 20
-40.48150298648511
 30
0.0
 11
453.231590146182
 21
-96.48158876562343
 31
0.0
  0
LINE
  5
33E
330
1F
100
AcDbEntity
  8
0-4
  6
Continuous
 62
     7
370
     9
100
AcDbLine
 10
393.231590146182
 20
-43.48146339611344
 30
0.0
 11
393.231590146182
 21
-136.4816217575999
 31
0.0
  0
LINE
  5
33F
330
1F
100
AcDbEntity
  8
0-4
  6
Continuous
 62
     7
370
     9
100
AcDbLine
 10
393.231590146182
 20
-95.28160460177219
 30
0.0
 11
453.231590146182
 21
-95.28160460177219
 31
0.0
  0
LINE
  5
340
330
1F
100
AcDbEntity
  8
0-4
  6
Continuous
 62
     7
370
     9
100
AcDbLine
 10
459.2315505558104
 20
-69.51736997701823
 30
0.0
 11
459.2315505558104
 21
-136.4816217575999
 31
0.0
  0
LINE
  5
341
330
1F
100
AcDbEntity
  8
0-4
  6
Continuous
 62
     7
370
     9
100
AcDbLine
 10
459.2315505558104
 20
-135.2816375937484
 30
0.0
 11
447.3342479797966
 21
-136.8479316710288
 31
0.0
  0
LINE
  5
342
330
1F
100
AcDbEntity
  8
0-4
  6
Continuous
 62
     7
370
     9
100
AcDbLine
 10
459.2315505558104
 20
-135.2816375937484
 30
0.0
 11
447.3342479797966
 21
-133.715343516468
 31
0.0
  0
LINE
  5
343
330
1F
100
AcDbEntity
  8
0-4
  6
Continuous
 62
     7
370
     9
100
AcDbLine
 10
393.231590146182
 20
-135.2816375937484
 30
0.0
 11
459.2315505558104
 21
-135.2816375937484
 31
0.0
  0
TEXT
  5
344
330
1F
100
AcDbEntity
  8
0-4
  6
Continuous
 62
     2
370
   211
100
AcDbText
 10
417.7315703509962
 20
-131.0256309953532
 30
0.0
 40
12.192
  1
66
 41
1.0625
  7
ＭＳ ゴシック
100
AcDbText
  0
TEXT
  5
345
330
1F
100
AcDbEntity
  8
0-4
  6
Continuous
 62
     2
370
   211
100
AcDbText
 10
471.1036408471441
 20
-130.6256375937483
 30
0.0
 40
12.192
  1
6.5
 41
1.083333333333329
  7
ＭＳ ゴシック
100
AcDbText
  0
LINE
  5
346
330
1F
100
AcDbEntity
  8
0-4
  6
Continuous
 62
     7
370
     9
100
AcDbLine
 10
465.7311575388921
 20
-135.2816375937484
 30
0.0
 11
498.189363199759
 21
-135.2816375937484
 31
0.0
  0
LINE
  5
347
330
1F
100
AcDbEntity
  8
0-E
  6
Continuous
 62
     7
370
     9
100
AcDbLine
 10
454.7313921943236
 20
11.01862898142008
 30
0.0
 11
465.7139592340194
 21
15.85419697128509
 31
0.0
  0
LINE
  5
348
330
1F
100
AcDbEntity
  8
0-E
  6
Continuous
 62
     7
370
     9
100
AcDbLine
 10
454.7313921943236
 20
11.01862898142008
 30
0.0
 11
466.5912818691544
 21
12.84691234290676
 31
0.0
  0
LINE
  5
349
330
1F
100
AcDbEntity
  8
0-E
  6
Continuous
 62
     7
370
     9
100
AcDbLine
 10
569.3743662886471
 20
44.46328181897752
 30
0.0
 11
454.7313921943236
 21
11.01862898142008
 31
0.0
  0
LINE
  5
34A
330
1F
100
AcDbEntity
  8
0-1
  6
Continuous
 62
     2
370
     9
100
AcDbLine
 10
459.731280021604
 20
-23.23158688036801
 30
0.0
 11
459.731280021604
 21
-9.731542341200111
 31
0.0
  0
LINE
  5
34B
330
1F
100
AcDbEntity
  8
0-1
  6
Continuous
 62
     2
370
     9
100
AcDbLine
 10
459.2315505558103
 20
-26.48143676687596
 30
0.0
 11
459.2315505558103
 21
-6.481370782923022
 31
0.0
  0
LINE
  5
34C
330
1F
100
AcDbEntity
  8
0-1
  6
Continuous
 62
     2
370
     9
100
AcDbLine
 10
464.2312763100066
 20
-13.7313328421501
 30
0.0
 11
464.2312763100066
 21
-19.23135098773719
 31
0.0
  0
LINE
  5
34D
330
1F
100
AcDbEntity
  8
0-1
  6
Continuous
 62
     2
370
     9
100
AcDbLine
 10
464.2312763100066
 20
-13.7313328421501
 30
0.0
 11
463.7315468442129
 21
-13.7313328421501
 31
0.0
  0
LINE
  5
34E
330
1F
100
AcDbEntity
  8
0-1
  6
Continuous
 62
     2
370
     9
100
AcDbLine
 10
464.2312763100066
 20
-13.7313328421501
 30
0.0
 11
465.731157538892
 21
-15.4814252196843
 31
0.0
  0
LINE
  5
34F
330
1F
100
AcDbEntity
  8
0-1
  6
Continuous
 62
     2
370
     9
100
AcDbLine
 10
465.731157538892
 20
-15.4814252196843
 30
0.0
 11
465.731157538892
 21
-17.48120912223885
 31
0.0
  0
LINE
  5
350
330
1F
100
AcDbEntity
  8
0-1
  6
Continuous
 62
     2
370
     9
100
AcDbLine
 10
465.731157538892
 20
-17.48120912223885
 30
0.0
 11
464.2312763100066
 21
-19.23135098773719
 31
0.0
  0
LINE
  5
351
330
1F
100
AcDbEntity
  8
0-1
  6
Continuous
 62
     2
370
     9
100
AcDbLine
 10
464.2312763100066
 20
-19.23135098773719
 30
0.0
 11
463.7315468442129
 21
-19.23135098773719
 31
0.0
  0
LINE
  5
352
330
1F
100
AcDbEntity
  8
0-1
  6
Continuous
 62
     2
370
     9
100
AcDbLine
 10
459.5311135770834
 20
-12.48126685819761
 30
0.0
 11
459.5311135770834
 21
-16.48140377489926
 31
0.0
  0
LINE
  5
353
330
1F
100
AcDbEntity
  8
0-1
  6
Continuous
 62
     2
370
     9
100
AcDbLine
 10
459.5311135770834
 20
-20.48114478788511
 30
0.0
 11
459.5311135770834
 21
-16.48140377489926
 31
0.0
  0
LINE
  5
354
330
1F
100
AcDbEntity
  8
0-1
  6
Continuous
 62
     2
370
     9
100
AcDbLine
 10
459.731280021604
 20
-20.48114478788511
 30
0.0
 11
459.5311135770834
 21
-20.48114478788511
 31
0.0
  0
LINE
  5
355
330
1F
100
AcDbEntity
  8
0-1
  6
Continuous
 62
     2
370
     9
100
AcDbLine
 10
459.731280021604
 20
-12.48126685819761
 30
0.0
 11
459.5311135770834
 21
-12.48126685819761
 31
0.0
  0
LINE
  5
356
330
1F
100
AcDbEntity
  8
0-1
  6
Continuous
 62
     2
370
     9
100
AcDbLine
 10
459.2315505558103
 20
-6.481370782923022
 30
0.0
 11
463.7315468442129
 21
-6.481370782923022
 31
0.0
  0
LINE
  5
357
330
1F
100
AcDbEntity
  8
0-1
  6
Continuous
 62
     2
370
     9
100
AcDbLine
 10
461.7315835477865
 20
-7.731412022893437
 30
0.0
 11
461.7315835477865
 21
-6.481370782923022
 31
0.0
  0
LINE
  5
358
330
1F
100
AcDbEntity
  8
0-1
  6
Continuous
 62
     2
370
     9
100
AcDbLine
 10
459.731280021604
 20
-9.731542341200111
 30
0.0
 11
459.731280021604
 21
-6.481370782923022
 31
0.0
  0
LINE
  5
359
330
1F
100
AcDbEntity
  8
0-1
  6
Continuous
 62
     2
370
     9
100
AcDbLine
 10
461.7315835477865
 20
-25.23139552690554
 30
0.0
 11
461.7315835477865
 21
-26.48143676687596
 31
0.0
  0
LINE
  5
35A
330
1F
100
AcDbEntity
  8
0-1
  6
Continuous
 62
     2
370
     9
100
AcDbLine
 10
459.731280021604
 20
-23.23158688036801
 30
0.0
 11
459.731280021604
 21
-26.48143676687596
 31
0.0
  0
LINE
  5
35B
330
1F
100
AcDbEntity
  8
0-1
  6
JWW_DASHED1
 62
     2
370
     9
100
AcDbLine
 10
461.7312893300544
 20
-59.73136972246675
 30
0.0
 11
459.731280021604
 21
-59.73136972246675
 31
0.0
  0
LINE
  5
35C
330
1F
100
AcDbEntity
  8
0-1
  6
JWW_DASHED1
 62
     2
370
     9
100
AcDbLine
 10
461.7312893300544
 20
-51.23140448187041
 30
0.0
 11
459.731280021604
 21
-51.23140448187041
 31
0.0
  0
LINE
  5
35D
330
1F
100
AcDbEntity
  8
0-1
  6
Continuous
 62
     2
370
     9
100
AcDbLine
 10
461.7312893300544
 20
-32.48137914874587
 30
0.0
 11
459.731280021604
 21
-32.48137914874587
 31
0.0
  0
LINE
  5
35E
330
1F
100
AcDbEntity
  8
0-1
  6
JWW_CENTER2
 62
     2
370
     9
100
AcDbLine
 10
463.7312986385049
 20
-55.48133755528988
 30
0.0
 11
457.7313202600325
 21
-55.48133755528988
 31
0.0
  0
LINE
  5
35F
330
1F
100
AcDbEntity
  8
0-1
  6
JWW_DASHED1
 62
     2
370
     9
100
AcDbLine
 10
461.7312893300544
 20
-65.47637986278642
 30
0.0
 11
461.7312893300544
 21
-36.48640200040245
 31
0.0
  0
LINE
  5
360
330
1F
100
AcDbEntity
  8
0-1
  6
Continuous
 62
     2
370
     9
100
AcDbLine
 10
462.5312732346832
 20
-65.4813840975421
 30
0.0
 11
459.731280021604
 21
-65.4813840975421
 31
0.0
  0
LINE
  5
361
330
1F
100
AcDbEntity
  8
0-1
  6
Continuous
 62
     2
370
     9
100
AcDbLine
 10
462.5312732346832
 20
-36.48139776564676
 30
0.0
 11
459.731280021604
 21
-36.48139776564676
 31
0.0
  0
LINE
  5
362
330
1F
100
AcDbEntity
  8
0-1
  6
Continuous
 62
     2
370
     9
100
AcDbLine
 10
465.5312871973587
 20
-39.4814117283222
 30
0.0
 11
465.5312871973587
 21
-62.48141968174514
 31
0.0
  0
ARC
  5
363
330
1F
100
AcDbEntity
  8
0-1
  6
Continuous
 62
     2
370
     9
100
AcDbCircle
 10
462.5312732346832
 20
-62.48141968174514
 30
0.0
 40
3.000000414701042
100
AcDbArc
 50
270.0
 51
0.0
  0
ARC
  5
364
330
1F
100
AcDbEntity
  8
0-1
  6
Continuous
 62
     2
370
     9
100
AcDbCircle
 10
462.5312732346832
 20
-39.4814117283222
 30
0.0
 40
3.000000414701042
100
AcDbArc
 50
0.0
 51
90.0
  0
LINE
  5
365
330
1F
100
AcDbEntity
  8
0-1
  6
Continuous
 62
     2
370
     9
100
AcDbLine
 10
459.731280021604
 20
-65.4813840975421
 30
0.0
 11
459.731280021604
 21
-6.481357232647042
 31
0.0
  0
LINE
  5
366
330
1F
100
AcDbEntity
  8
0-1
  6
Continuous
 62
     2
370
     9
100
AcDbLine
 10
461.7312893300544
 20
-36.48640200040245
 30
0.0
 11
461.7312893300544
 21
-6.481357232647042
 31
0.0
  0
LINE
  5
367
330
1F
100
AcDbEntity
  8
0-1
  6
Continuous
 62
     2
370
     9
100
AcDbLine
 10
459.731280021604
 20
-6.481357232647042
 30
0.0
 11
461.7312893300544
 21
-6.481357232647042
 31
0.0
  0
LINE
  5
368
330
1F
100
AcDbEntity
  8
0-1
  6
JWW_DASHED1
 62
     2
370
     9
100
AcDbLine
 10
461.5312685804578
 20
-14.23138091617284
 30
0.0
 11
459.731280021604
 21
-12.48148425175623
 31
0.0
  0
LINE
  5
369
330
1F
100
AcDbEntity
  8
0-1
  6
JWW_DASHED1
 62
     2
370
     9
100
AcDbLine
 10
463.7312986385049
 20
-14.23138091617284
 30
0.0
 11
461.7312893300544
 21
-14.23138091617284
 31
0.0
  0
LINE
  5
36A
330
1F
100
AcDbEntity
  8
0-1
  6
JWW_DASHED1
 62
     2
370
     9
100
AcDbLine
 10
461.5312685804578
 20
-18.73137708674722
 30
0.0
 11
461.5312685804578
 21
-14.23138091617284
 31
0.0
  0
LINE
  5
36B
330
1F
100
AcDbEntity
  8
0-1
  6
JWW_DASHED1
 62
     2
370
     9
100
AcDbLine
 10
461.5312685804578
 20
-14.23138091617284
 30
0.0
 11
461.7313388769334
 21
-14.23138091617284
 31
0.0
  0
LINE
  5
36C
330
1F
100
AcDbEntity
  8
0-1
  6
JWW_DASHED1
 62
     2
370
     9
100
AcDbLine
 10
461.5312685804578
 20
-18.73137708674722
 30
0.0
 11
461.7313388769334
 21
-18.73137708674722
 31
0.0
  0
LINE
  5
36D
330
1F
100
AcDbEntity
  8
0-1
  6
JWW_DASHED1
 62
     2
370
     9
100
AcDbLine
 10
461.5312685804578
 20
-18.73137708674722
 30
0.0
 11
459.731280021604
 21
-20.48132329804275
 31
0.0
  0
LINE
  5
36E
330
1F
100
AcDbEntity
  8
0-1
  6
JWW_DASHED1
 62
     2
370
     9
100
AcDbLine
 10
463.7312986385049
 20
-18.73137708674722
 30
0.0
 11
461.7312893300544
 21
-18.73137708674722
 31
0.0
  0
LINE
  5
36F
330
1F
100
AcDbEntity
  8
0-1
  6
Continuous
 62
     2
370
     9
100
AcDbLine
 10
463.7315468442129
 20
-26.48143676687596
 30
0.0
 11
463.7315468442129
 21
-6.481370782923022
 31
0.0
  0
LINE
  5
370
330
1F
100
AcDbEntity
  8
0-1
  6
Continuous
 62
     2
370
     9
100
AcDbLine
 10
459.2315505558103
 20
-26.48143676687596
 30
0.0
 11
459.731280021604
 21
-26.48143676687596
 31
0.0
  0
LINE
  5
371
330
1F
100
AcDbEntity
  8
0-1
  6
Continuous
 62
     2
370
     9
100
AcDbLine
 10
461.7312893300544
 20
-26.48143676687596
 30
0.0
 11
463.7315468442129
 21
-26.48143676687596
 31
0.0
  0
LINE
  5
372
330
1F
100
AcDbEntity
  8
0-1
  6
JWW_CENTER2
 62
     2
370
     9
100
AcDbLine
 10
467.2793513931464
 20
-16.48140377489926
 30
0.0
 11
458.1949756508269
 21
-16.48140377489926
 31
0.0
  0
LINE
  5
373
330
1F
100
AcDbEntity
  8
0-6
  6
Continuous
 62
     6
370
     9
100
AcDbLine
 10
456.2313921943236
 20
-28.98137101857992
 30
0.0
 11
456.2313921943236
 21
11.01862898142008
 31
0.0
  0
LINE
  5
374
330
1F
100
AcDbEntity
  8
0-6
  6
Continuous
 62
     6
370
     9
100
AcDbLine
 10
456.2313921943236
 20
11.01862898142008
 30
0.0
 11
453.2313921943236
 21
11.01862898142008
 31
0.0
  0
LINE
  5
375
330
1F
100
AcDbEntity
  8
0-6
  6
Continuous
 62
     6
370
     9
100
AcDbLine
 10
453.2313921943236
 20
11.01862898142008
 30
0.0
 11
453.2313921943236
 21
-28.98137101857992
 31
0.0
  0
LINE
  5
376
330
1F
100
AcDbEntity
  8
0-6
  6
Continuous
 62
     6
370
     9
100
AcDbLine
 10
455.1447937588154
 20
-28.98137101857901
 30
0.0
 11
456.2313921943231
 21
-27.89477258307124
 31
0.0
  0
LINE
  5
377
330
1F
100
AcDbEntity
  8
0-6
  6
Continuous
 62
     6
370
     9
100
AcDbLine
 10
453.2313921943227
 20
-25.23791833357882
 30
0.0
 11
456.2313921943227
 21
-22.23791833357836
 31
0.0
  0
LINE
  5
378
330
1F
100
AcDbEntity
  8
0-6
  6
Continuous
 62
     6
370
     9
100
AcDbLine
 10
453.2313921943236
 20
-19.58106408409139
 30
0.0
 11
456.2313921943218
 21
-16.58106408409321
 31
0.0
  0
LINE
  5
379
330
1F
100
AcDbEntity
  8
0-6
  6
Continuous
 62
     6
370
     9
100
AcDbLine
 10
453.2313921943231
 20
-13.92420983459851
 30
0.0
 11
456.2313921943236
 21
-10.92420983459851
 31
0.0
  0
LINE
  5
37A
330
1F
100
AcDbEntity
  8
0-6
  6
Continuous
 62
     6
370
     9
100
AcDbLine
 10
453.2313921943236
 20
-8.267355585104724
 30
0.0
 11
456.2313921943236
 21
-5.267355585104724
 31
0.0
  0
LINE
  5
37B
330
1F
100
AcDbEntity
  8
0-6
  6
Continuous
 62
     6
370
     9
100
AcDbLine
 10
453.2313921943231
 20
-2.610501335612298
 30
0.0
 11
456.2313921943231
 21
0.3894986643881566
 31
0.0
  0
LINE
  5
37C
330
1F
100
AcDbEntity
  8
0-6
  6
Continuous
 62
     6
370
     9
100
AcDbLine
 10
453.231392194324
 20
3.046352913881947
 30
0.0
 11
456.231392194324
 21
6.046352913882401
 31
0.0
  0
LINE
  5
37D
330
1F
100
AcDbEntity
  8
0-6
  6
Continuous
 62
     6
370
     9
100
AcDbLine
 10
453.2313921943236
 20
8.703207163374827
 30
0.0
 11
455.5468140123688
 21
11.01862898142008
 31
0.0
  0
LINE
  5
37E
330
1F
100
AcDbEntity
  8
0-6
  6
Continuous
 62
     6
370
     9
100
AcDbLine
 10
453.2313921943236
 20
-28.98137101857992
 30
0.0
 11
456.2313921943236
 21
-28.98137101857992
 31
0.0
  0
TEXT
  5
37F
330
1F
100
AcDbEntity
  8
0-E
  6
Continuous
 62
     7
370
     9
100
AcDbText
 10
573.1400219720543
 20
29.90031652653624
 30
0.0
 40
9.144
  1
クロロプレンゴム
 41
1.145833333333333
  7
ＭＳ ゴシック
100
AcDbText
  0
LINE
  5
380
330
1F
100
AcDbEntity
  8
0-E
  6
Continuous
 62
     7
370
     9
100
AcDbLine
 10
569.3743662886471
 20
44.46328181897752
 30
0.0
 11
726.0216556891818
 21
44.46328181897752
 31
0.0
  0
TEXT
  5
381
330
1F
100
AcDbEntity
  8
0-E
  6
Continuous
 62
     7
370
     9
100
AcDbText
 10
574.1214606861591
 20
51.97803572522752
 30
0.0
 40
9.144
  1
クッション：ｔ＝３．０
 41
1.151515151515152
  7
ＭＳ ゴシック
100
AcDbText
  0
TEXT
  5
382
330
1F
100
AcDbEntity
  8
F-5
  6
Continuous
 62
     2
370
     9
100
AcDbText
 10
-309.3628001271063
 20
-548.1112208411942
 30
0.0
 40
12.192
  1
　　　　　　　　　　　　　ＳＥＭ－２－４０６０（Ｐ＝１５）＋ＴＬ６０Ｐ
 41
0.7742857142857144
  7
ＭＳ ゴシック
100
AcDbText
  0
ENDSEC
  0
SECTION
  2
OBJECTS
  0
DICTIONARY
  5
C
330
0
100
AcDbDictionary
281
     1
  3
ACAD_GROUP
350
D
  3
ACAD_LAYOUT
350
1A
  3
ACAD_MLEADERSTYLE
350
384
  3
ACAD_MLINESTYLE
350
17
  3
ACAD_PLOTSETTINGS
350
19
  3
ACAD_PLOTSTYLENAME
350
E
  3
ACAD_TABLESTYLE
350
383
  3
ACAD_VISUALSTYLE
350
2A
  0
DICTIONARY
  5
D
102
{ACAD_REACTORS
330
C
102
}
330
C
100
AcDbDictionary
281
     1
  0
DICTIONARY
  5
1A
102
{ACAD_REACTORS
330
C
102
}
330
C
100
AcDbDictionary
281
     1
  3
Layout1
350
1E
  3
Layout2
350
26
  3
Model
350
22
  0
DICTIONARY
  5
384
102
{ACAD_REACTORS
330
C
102
}
330
C
100
AcDbDictionary
281
     1
  0
DICTIONARY
  5
17
102
{ACAD_REACTORS
330
C
102
}
330
C
100
AcDbDictionary
281
     1
  3
Standard
350
18
  0
DICTIONARY
  5
19
102
{ACAD_REACTORS
330
C
102
}
330
C
100
AcDbDictionary
281
     1
  0
ACDBDICTIONARYWDFLT
  5
E
102
{ACAD_REACTORS
330
C
102
}
330
C
100
AcDbDictionary
281
     1
  3
Normal
350
F
100
AcDbDictionaryWithDefault
340
F
  0
DICTIONARY
  5
383
102
{ACAD_REACTORS
330
C
102
}
330
C
100
AcDbDictionary
281
     1
  0
DICTIONARY
  5
2A
102
{ACAD_REACTORS
330
C
102
}
330
C
100
AcDbDictionary
281
     1
  3
2dWireframe
350
2F
  3
3D Hidden
350
31
  3
3dWireframe
350
30
  3
Basic
350
32
  3
Brighten
350
36
  3
ColorChange
350
3A
  3
Conceptual
350
34
  3
Dim
350
35
  3
Facepattern
350
39
  3
Flat
350
2B
  3
FlatWithEdges
350
2C
  3
Gouraud
350
2D
  3
GouraudWithEdges
350
2E
  3
Linepattern
350
38
  3
Realistic
350
33
  3
Thicken
350
37
  0
LAYOUT
  5
1E
102
{ACAD_REACTORS
330
1A
102
}
330
1A
100
AcDbPlotSettings
  1

  2
none_device
  4

  6

 40
0.0
 41
0.0
 42
0.0
 43
0.0
 44
0.0
 45
0.0
 46
0.0
 47
0.0
 48
0.0
 49
0.0
140
0.0
141
0.0
142
1.0
143
1.0
 70
   688
 72
     0
 73
     0
 74
     5
  7

 75
    16
 76
     0
 77
     5
 78
   300
147
1.0
148
0.0
149
0.0
100
AcDbLayout
  1
Layout1
 70
     1
 71
     1
 10
0.0
 20
0.0
 11
420.0
 21
297.0
 12
0.0
 22
0.0
 32
0.0
 14
1.000000000000000E+20
 24
1.000000000000000E+20
 34
1.000000000000000E+20
 15
-1.000000000000000E+20
 25
-1.000000000000000E+20
 35
-1.000000000000000E+20
146
0.0
 13
0.0
 23
0.0
 33
0.0
 16
1.0
 26
0.0
 36
0.0
 17
0.0
 27
1.0
 37
0.0
 76
     0
330
1B
  0
LAYOUT
  5
26
102
{ACAD_REACTORS
330
1A
102
}
330
1A
100
AcDbPlotSettings
  1

  2
none_device
  4

  6

 40
0.0
 41
0.0
 42
0.0
 43
0.0
 44
0.0
 45
0.0
 46
0.0
 47
0.0
 48
0.0
 49
0.0
140
0.0
141
0.0
142
1.0
143
1.0
 70
   688
 72
     0
 73
     0
 74
     5
  7

 75
    16
 76
     0
 77
     5
 78
   300
147
1.0
148
0.0
149
0.0
100
AcDbLayout
  1
Layout2
 70
     1
 71
     2
 10
0.0
 20
0.0
 11
0.0
 21
0.0
 12
0.0
 22
0.0
 32
0.0
 14
0.0
 24
0.0
 34
0.0
 15
0.0
 25
0.0
 35
0.0
146
0.0
 13
0.0
 23
0.0
 33
0.0
 16
1.0
 26
0.0
 36
0.0
 17
0.0
 27
1.0
 37
0.0
 76
     0
330
23
  0
LAYOUT
  5
22
102
{ACAD_REACTORS
330
1A
102
}
330
1A
100
AcDbPlotSettings
  1

  2
none_device
  4

  6

 40
0.0
 41
0.0
 42
0.0
 43
0.0
 44
0.0
 45
0.0
 46
0.0
 47
0.0
 48
0.0
 49
0.0
140
0.0
141
0.0
142
1.0
143
1.0
 70
  1712
 72
     0
 73
     0
 74
     0
  7

 75
     0
 76
     0
 77
     5
 78
   300
147
1.0
148
0.0
149
0.0
100
AcDbLayout
  1
Model
 70
     1
 71
     0
 10
-840.0
 20
-594.0
 11
840.0
 21
594.0
 12
0.0
 22
0.0
 32
0.0
 14
-840.0
 24
-594.0
 34
0.0
 15
840.0
 25
594.0
 35
0.0
146
0.0
 13
0.0
 23
0.0
 33
0.0
 16
1.0
 26
0.0
 36
0.0
 17
0.0
 27
1.0
 37
0.0
 76
     0
330
1F
331
29
  0
MLINESTYLE
  5
18
102
{ACAD_REACTORS
330
17
102
}
330
17
100
AcDbMlineStyle
  2
Standard
 70
     0
  3

 62
   256
 51
90.0
 52
90.0
 71
     2
 49
0.5
 62
   256
  6
BYLAYER
 49
-0.5
 62
   256
  6
BYLAYER
  0
ACDBPLACEHOLDER
  5
F
102
{ACAD_REACTORS
330
E
102
}
330
E
  0
VISUALSTYLE
  5
2F
102
{ACAD_REACTORS
330
2A
102
}
330
2A
100
AcDbVisualStyle
  2
2dWireframe
 70
     4
 71
     0
 72
     2
 73
     0
 90
        0
 40
-0.6
 41
-30.0
 62
     5
 63
     7
421
 16777215
 74
     1
 91
        4
 64
     7
 65
   257
 75
     1
175
     1
 42
1.0
 92
        0
 66
   257
 43
1.0
 76
     1
 77
     6
 78
     2
 67
     7
 79
     5
170
     0
171
     0
290
     0
174
     0
 93
        1
 44
0.0
173
     0
291
     0
 45
0.0
1001
ACAD
1000
AcDbSavedByObjectVersion
1070
     0
  0
VISUALSTYLE
  5
31
102
{ACAD_REACTORS
330
2A
102
}
330
2A
100
AcDbVisualStyle
  2
3D Hidden
 70
     6
 71
     1
 72
     2
 73
     2
 90
        0
 40
-0.6
 41
-30.0
 62
     5
 63
     7
421
 16777215
 74
     2
 91
        2
 64
     7
 65
   257
 75
     2
175
     1
 42
40.0
 92
        0
 66
   257
 43
1.0
 76
     1
 77
     6
 78
     2
 67
     7
 79
     3
170
     0
171
     0
290
     0
174
     0
 93
        1
 44
0.0
173
     0
291
     0
 45
0.0
1001
ACAD
1000
AcDbSavedByObjectVersion
1070
     0
  0
VISUALSTYLE
  5
30
102
{ACAD_REACTORS
330
2A
102
}
330
2A
100
AcDbVisualStyle
  2
3dWireframe
 70
     5
 71
     0
 72
     2
 73
     0
 90
        0
 40
-0.6
 41
-30.0
 62
     5
 63
     7
421
 16777215
 74
     1
 91
        4
 64
     7
 65
   257
 75
     1
175
     1
 42
1.0
 92
        0
 66
   257
 43
1.0
 76
     1
 77
     6
 78
     2
 67
     7
 79
     5
170
     0
171
     0
290
     0
174
     0
 93
        1
 44
0.0
173
     0
291
     0
 45
0.0
1001
ACAD
1000
AcDbSavedByObjectVersion
1070
     0
  0
VISUALSTYLE
  5
32
102
{ACAD_REACTORS
330
2A
102
}
330
2A
100
AcDbVisualStyle
  2
Basic
 70
     7
 71
     1
 72
     0
 73
     1
 90
        0
 40
-0.6
 41
-30.0
 62
     5
 63
     7
421
 16777215
 74
     0
 91
        4
 64
     7
 65
   257
 75
     1
175
     1
 42
1.0
 92
        8
 66
     7
 43
1.0
 76
     1
 77
     6
 78
     2
 67
     7
 79
     5
170
     0
171
     0
290
     0
174
     0
 93
        1
 44
0.0
173
     0
291
     1
 45
0.0
1001
ACAD
1000
AcDbSavedByObjectVersion
1070
     0
  0
VISUALSTYLE
  5
36
102
{ACAD_REACTORS
330
2A
102
}
330
2A
100
AcDbVisualStyle
  2
Brighten
 70
    12
 71
     2
 72
     2
 73
     0
 90
        0
 40
-0.6
 41
-30.0
 62
     5
 63
     7
421
 16777215
 74
     1
 91
        4
 64
     7
 65
   257
 75
     1
175
     1
 42
1.0
 92
        8
 66
     7
 43
1.0
 76
     1
 77
     6
 78
     2
 67
     7
 79
     5
170
     0
171
     0
290
     0
174
     0
 93
        1
 44
50.0
173
     0
291
     1
 45
0.0
1001
ACAD
1000
AcDbSavedByObjectVersion
1070
     0
  0
VISUALSTYLE
  5
3A
102
{ACAD_REACTORS
330
2A
102
}
330
2A
100
AcDbVisualStyle
  2
ColorChange
 70
    16
 71
     2
 72
     2
 73
     3
 90
        0
 40
-0.6
 41
-30.0
 62
     5
 63
     8
421
  8421504
 74
     1
 91
        4
 64
     7
 65
   257
 75
     1
175
     1
 42
1.0
 92
        8
 66
     8
424
  8421504
 43
1.0
 76
     1
 77
     6
 78
     2
 67
     7
 79
     5
170
     0
171
     0
290
     0
174
     0
 93
        1
 44
0.0
173
     0
291
     1
 45
0.0
1001
ACAD
1000
AcDbSavedByObjectVersion
1070
     0
  0
VISUALSTYLE
  5
34
102
{ACAD_REACTORS
330
2A
102
}
330
2A
100
AcDbVisualStyle
  2
Conceptual
 70
     9
 71
     3
 72
     2
 73
     0
 90
        0
 40
-0.6
 41
-30.0
 62
     5
 63
     7
421
 16777215
 74
     2
 91
        2
 64
     7
 65
   257
 75
     1
175
     1
 42
40.0
 92
        8
 66
     7
 43
1.0
 76
     1
 77
     6
 78
     2
 67
     7
 79
     3
170
     0
171
     0
290
     0
174
     0
 93
        1
 44
0.0
173
     0
291
     0
 45
0.0
1001
ACAD
1000
AcDbSavedByObjectVersion
1070
     0
  0
VISUALSTYLE
  5
35
102
{ACAD_REACTORS
330
2A
102
}
330
2A
100
AcDbVisualStyle
  2
Dim
 70
    11
 71
     2
 72
     2
 73
     0
 90
        0
 40
-0.6
 41
-30.0
 62
     5
 63
     7
421
 16777215
 74
     1
 91
        4
 64
     7
 65
   257
 75
     1
175
     1
 42
1.0
 92
        8
 66
     7
 43
1.0
 76
     1
 77
     6
 78
     2
 67
     7
 79
     5
170
     0
171
     0
290
     0
174
     0
 93
        1
 44
-50.0
173
     0
291
     1
 45
0.0
1001
ACAD
1000
AcDbSavedByObjectVersion
1070
     0
  0
VISUALSTYLE
  5
39
102
{ACAD_REACTORS
330
2A
102
}
330
2A
100
AcDbVisualStyle
  2
Facepattern
 70
    15
 71
     2
 72
     2
 73
     0
 90
        0
 40
-0.6
 41
-30.0
 62
     5
 63
     7
421
 16777215
 74
     1
 91
        4
 64
     7
 65
   257
 75
     1
175
     1
 42
1.0
 92
        8
 66
     7
 43
1.0
 76
     1
 77
     6
 78
     2
 67
     7
 79
     5
170
     0
171
     0
290
     0
174
     0
 93
        1
 44
0.0
173
     0
291
     1
 45
0.0
1001
ACAD
1000
AcDbSavedByObjectVersion
1070
     0
  0
VISUALSTYLE
  5
2B
102
{ACAD_REACTORS
330
2A
102
}
330
2A
100
AcDbVisualStyle
  2
Flat
 70
     0
 71
     2
 72
     1
 73
     1
 90
        2
 40
-0.6
 41
30.0
 62
     5
 63
     7
421
 16777215
 74
     0
 91
        4
 64
     7
 65
   257
 75
     1
175
     1
 42
1.0
 92
        8
 66
     7
 43
1.0
 76
     1
 77
     6
 78
     2
 67
     7
 79
     5
170
     0
171
     0
290
     0
174
     0
 93
       13
 44
0.0
173
     0
291
     1
 45
0.0
1001
ACAD
1000
AcDbSavedByObjectVersion
1070
     0
  0
VISUALSTYLE
  5
2C
102
{ACAD_REACTORS
330
2A
102
}
330
2A
100
AcDbVisualStyle
  2
FlatWithEdges
 70
     1
 71
     2
 72
     1
 73
     1
 90
        2
 40
-0.6
 41
30.0
 62
     5
 63
     7
421
 16777215
 74
     1
 91
        4
 64
     7
 65
   257
 75
     1
175
     1
 42
1.0
 92
        0
 66
   257
 43
1.0
 76
     1
 77
     6
 78
     2
 67
     7
 79
     5
170
     0
171
     0
290
     0
174
     0
 93
       13
 44
0.0
173
     0
291
     1
 45
0.0
1001
ACAD
1000
AcDbSavedByObjectVersion
1070
     0
  0
VISUALSTYLE
  5
2D
102
{ACAD_REACTORS
330
2A
102
}
330
2A
100
AcDbVisualStyle
  2
Gouraud
 70
     2
 71
     2
 72
     2
 73
     1
 90
        2
 40
-0.6
 41
30.0
 62
     5
 63
     7
421
 16777215
 74
     0
 91
        4
 64
     7
 65
   257
 75
     1
175
     1
 42
1.0
 92
        0
 66
     7
 43
1.0
 76
     1
 77
     6
 78
     2
 67
     7
 79
     5
170
     0
171
     0
290
     0
174
     0
 93
       13
 44
0.0
173
     0
291
     1
 45
0.0
1001
ACAD
1000
AcDbSavedByObjectVersion
1070
     0
  0
VISUALSTYLE
  5
2E
102
{ACAD_REACTORS
330
2A
102
}
330
2A
100
AcDbVisualStyle
  2
GouraudWithEdges
 70
     3
 71
     2
 72
     2
 73
     1
 90
        2
 40
-0.6
 41
30.0
 62
     5
 63
     7
421
 16777215
 74
     1
 91
        4
 64
     7
 65
   257
 75
     1
175
     1
 42
1.0
 92
        0
 66
   257
 43
1.0
 76
     1
 77
     6
 78
     2
 67
     7
 79
     5
170
     0
171
     0
290
     0
174
     0
 93
       13
 44
0.0
173
     0
291
     1
 45
0.0
1001
ACAD
1000
AcDbSavedByObjectVersion
1070
     0
  0
VISUALSTYLE
  5
38
102
{ACAD_REACTORS
330
2A
102
}
330
2A
100
AcDbVisualStyle
  2
Linepattern
 70
    14
 71
     2
 72
     2
 73
     0
 90
        0
 40
-0.6
 41
-30.0
 62
     5
 63
     7
421
 16777215
 74
     1
 91
        4
 64
     7
 65
   257
 75
     7
175
     7
 42
1.0
 92
        8
 66
     7
 43
1.0
 76
     1
 77
     6
 78
     2
 67
     7
 79
     5
170
     0
171
     0
290
     0
174
     0
 93
        1
 44
0.0
173
     0
291
     1
 45
0.0
1001
ACAD
1000
AcDbSavedByObjectVersion
1070
     0
  0
VISUALSTYLE
  5
33
102
{ACAD_REACTORS
330
2A
102
}
330
2A
100
AcDbVisualStyle
  2
Realistic
 70
     8
 71
     2
 72
     2
 73
     0
 90
        0
 40
-0.6
 41
-30.0
 62
     5
 63
     7
421
 16777215
 74
     1
 91
        0
 64
     7
 65
   257
 75
     1
175
     1
 42
1.0
 92
        8
 66
     8
424
  7895160
 43
1.0
 76
     1
 77
     6
 78
     2
 67
     7
 79
     5
170
     0
171
     0
290
     0
174
     0
 93
       13
 44
0.0
173
     0
291
     0
 45
0.0
1001
ACAD
1000
AcDbSavedByObjectVersion
1070
     0
  0
VISUALSTYLE
  5
37
102
{ACAD_REACTORS
330
2A
102
}
330
2A
100
AcDbVisualStyle
  2
Thicken
 70
    13
 71
     2
 72
     2
 73
     0
 90
        0
 40
-0.6
 41
-30.0
 62
     5
 63
     7
421
 16777215
 74
     1
 91
        4
 64
     7
 65
   257
 75
     1
175
     1
 42
1.0
 92
       12
 66
     7
 43
1.0
 76
     1
 77
     6
 78
     2
 67
     7
 79
     5
170
     0
171
     0
290
     0
174
     0
 93
        1
 44
0.0
173
     0
291
     1
 45
0.0
1001
ACAD
1000
AcDbSavedByObjectVersion
1070
     0
  0
ENDSEC
  0
EOF
