  0
SECTION
  2
HEADER
  9
$ACADVER
  1
AC1021
  9
$ACADMAINTVER
 70
    25
  9
$DWGCODEPAGE
  3
ANSI_932
  9
$INSBASE
 10
0.0
 20
0.0
 30
0.0
  9
$EXTMIN
 10
-1050.0
 20
-742.5
 30
0.0
  9
$EXTMAX
 10
1050.0
 20
742.5
 30
0.0
  9
$LIMMIN
 10
-1050.0
 20
-742.5
  9
$LIMMAX
 10
1050.0
 20
742.5
  9
$ORTHOMODE
 70
     0
  9
$REGENMODE
 70
     1
  9
$FILLMODE
 70
     1
  9
$QTEXTMODE
 70
     0
  9
$MIRRTEXT
 70
     1
  9
$LTSCALE
 40
5.0
  9
$ATTMODE
 70
     1
  9
$TEXTSIZE
 40
2.5
  9
$TRACEWID
 40
1.0
  9
$TEXTSTYLE
  7
Standard
  9
$CLAYER
  8
0
  9
$CELTYPE
  6
ByLayer
  9
$CECOLOR
 62
   256
  9
$CELTSCALE
 40
1.0
  9
$DISPSILH
 70
     0
  9
$DIMSCALE
 40
1.0
  9
$DIMASZ
 40
2.5
  9
$DIMEXO
 40
0.625
  9
$DIMDLI
 40
3.75
  9
$DIMRND
 40
0.0
  9
$DIMDLE
 40
0.0
  9
$DIMEXE
 40
1.25
  9
$DIMTP
 40
0.0
  9
$DIMTM
 40
0.0
  9
$DIMTXT
 40
2.5
  9
$DIMCEN
 40
2.5
  9
$DIMTSZ
 40
0.0
  9
$DIMTOL
 70
     0
  9
$DIMLIM
 70
     0
  9
$DIMTIH
 70
     0
  9
$DIMTOH
 70
     0
  9
$DIMSE1
 70
     0
  9
$DIMSE2
 70
     0
  9
$DIMTAD
 70
     1
  9
$DIMZIN
 70
     8
  9
$DIMBLK
  1

  9
$DIMASO
 70
     1
  9
$DIMSHO
 70
     1
  9
$DIMPOST
  1

  9
$DIMAPOST
  1

  9
$DIMALT
 70
     0
  9
$DIMALTD
 70
     3
  9
$DIMALTF
 40
0.03937007874016
  9
$DIMLFAC
 40
1.0
  9
$DIMTOFL
 70
     1
  9
$DIMTVP
 40
0.0
  9
$DIMTIX
 70
     0
  9
$DIMSOXD
 70
     0
  9
$DIMSAH
 70
     0
  9
$DIMBLK1
  1

  9
$DIMBLK2
  1

  9
$DIMSTYLE
  2
ISO-25
  9
$DIMCLRD
 70
     0
  9
$DIMCLRE
 70
     0
  9
$DIMCLRT
 70
     0
  9
$DIMTFAC
 40
1.0
  9
$DIMGAP
 40
0.625
  9
$DIMJUST
 70
     0
  9
$DIMSD1
 70
     0
  9
$DIMSD2
 70
     0
  9
$DIMTOLJ
 70
     0
  9
$DIMTZIN
 70
     8
  9
$DIMALTZ
 70
     0
  9
$DIMALTTZ
 70
     0
  9
$DIMUPT
 70
     0
  9
$DIMDEC
 70
     2
  9
$DIMTDEC
 70
     2
  9
$DIMALTU
 70
     2
  9
$DIMALTTD
 70
     3
  9
$DIMTXSTY
  7
Standard
  9
$DIMAUNIT
 70
     0
  9
$DIMADEC
 70
     0
  9
$DIMALTRND
 40
0.0
  9
$DIMAZIN
 70
     0
  9
$DIMDSEP
 70
    44
  9
$DIMATFIT
 70
     3
  9
$DIMFRAC
 70
     0
  9
$DIMLDRBLK
  1

  9
$DIMLUNIT
 70
     2
  9
$DIMLWD
 70
    -2
  9
$DIMLWE
 70
    -2
  9
$DIMTMOVE
 70
     0
  9
$DIMFXL
 40
1.0
  9
$DIMFXLON
 70
     0
  9
$DIMJOGANG
 40
0.7853981633974483
  9
$DIMTFILL
 70
     0
  9
$DIMTFILLCLR
 70
     0
  9
$DIMARCSYM
 70
     0
  9
$DIMLTYPE
  6

  9
$DIMLTEX1
  6

  9
$DIMLTEX2
  6

  9
$LUNITS
 70
     2
  9
$LUPREC
 70
     4
  9
$SKETCHINC
 40
1.0
  9
$FILLETRAD
 40
10.0
  9
$AUNITS
 70
     0
  9
$AUPREC
 70
     0
  9
$MENU
  1
.
  9
$ELEVATION
 40
0.0
  9
$PELEVATION
 40
0.0
  9
$THICKNESS
 40
0.0
  9
$LIMCHECK
 70
     0
  9
$CHAMFERA
 40
10.0
  9
$CHAMFERB
 40
10.0
  9
$CHAMFERC
 40
20.0
  9
$CHAMFERD
 40
0.0
  9
$SKPOLY
 70
     0
  9
$TDCREATE
 40
2458933.723667743
  9
$TDUCREATE
 40
2458933.348667743
  9
$TDUPDATE
 40
2458933.723667755
  9
$TDUUPDATE
 40
2458933.348667755
  9
$TDINDWG
 40
0.0000000116
  9
$TDUSRTIMER
 40
0.0000000116
  9
$USRTIMER
 70
     1
  9
$ANGBASE
 50
0.0
  9
$ANGDIR
 70
     0
  9
$PDMODE
 70
     0
  9
$PDSIZE
 40
0.0
  9
$PLINEWID
 40
0.0
  9
$SPLFRAME
 70
     0
  9
$SPLINETYPE
 70
     6
  9
$SPLINESEGS
 70
     8
  9
$HANDSEED
  5
52F
  9
$SURFTAB1
 70
     6
  9
$SURFTAB2
 70
     6
  9
$SURFTYPE
 70
     6
  9
$SURFU
 70
     6
  9
$SURFV
 70
     6
  9
$UCSBASE
  2

  9
$UCSNAME
  2

  9
$UCSORG
 10
0.0
 20
0.0
 30
0.0
  9
$UCSXDIR
 10
1.0
 20
0.0
 30
0.0
  9
$UCSYDIR
 10
0.0
 20
1.0
 30
0.0
  9
$UCSORTHOREF
  2

  9
$UCSORTHOVIEW
 70
     0
  9
$UCSORGTOP
 10
0.0
 20
0.0
 30
0.0
  9
$UCSORGBOTTOM
 10
0.0
 20
0.0
 30
0.0
  9
$UCSORGLEFT
 10
0.0
 20
0.0
 30
0.0
  9
$UCSORGRIGHT
 10
0.0
 20
0.0
 30
0.0
  9
$UCSORGFRONT
 10
0.0
 20
0.0
 30
0.0
  9
$UCSORGBACK
 10
0.0
 20
0.0
 30
0.0
  9
$PUCSBASE
  2

  9
$PUCSNAME
  2

  9
$PUCSORG
 10
0.0
 20
0.0
 30
0.0
  9
$PUCSXDIR
 10
1.0
 20
0.0
 30
0.0
  9
$PUCSYDIR
 10
0.0
 20
1.0
 30
0.0
  9
$PUCSORTHOREF
  2

  9
$PUCSORTHOVIEW
 70
     0
  9
$PUCSORGTOP
 10
0.0
 20
0.0
 30
0.0
  9
$PUCSORGBOTTOM
 10
0.0
 20
0.0
 30
0.0
  9
$PUCSORGLEFT
 10
0.0
 20
0.0
 30
0.0
  9
$PUCSORGRIGHT
 10
0.0
 20
0.0
 30
0.0
  9
$PUCSORGFRONT
 10
0.0
 20
0.0
 30
0.0
  9
$PUCSORGBACK
 10
0.0
 20
0.0
 30
0.0
  9
$USERI1
 70
     0
  9
$USERI2
 70
     0
  9
$USERI3
 70
     0
  9
$USERI4
 70
     0
  9
$USERI5
 70
     0
  9
$USERR1
 40
0.0
  9
$USERR2
 40
0.0
  9
$USERR3
 40
0.0
  9
$USERR4
 40
0.0
  9
$USERR5
 40
0.0
  9
$WORLDVIEW
 70
     1
  9
$SHADEDGE
 70
     3
  9
$SHADEDIF
 70
    70
  9
$TILEMODE
 70
     1
  9
$MAXACTVP
 70
    64
  9
$PINSBASE
 10
0.0
 20
0.0
 30
0.0
  9
$PLIMCHECK
 70
     0
  9
$PEXTMIN
 10
1.000000000000000E+20
 20
1.000000000000000E+20
 30
1.000000000000000E+20
  9
$PEXTMAX
 10
-1.000000000000000E+20
 20
-1.000000000000000E+20
 30
-1.000000000000000E+20
  9
$PLIMMIN
 10
0.0
 20
0.0
  9
$PLIMMAX
 10
420.0
 20
297.0
  9
$UNITMODE
 70
     0
  9
$VISRETAIN
 70
     1
  9
$PLINEGEN
 70
     0
  9
$PSLTSCALE
 70
     1
  9
$TREEDEPTH
 70
  3020
  9
$CMLSTYLE
  2
Standard
  9
$CMLJUST
 70
     0
  9
$CMLSCALE
 40
20.0
  9
$PROXYGRAPHICS
 70
     1
  9
$MEASUREMENT
 70
     1
  9
$CELWEIGHT
370
    -1
  9
$ENDCAPS
280
     0
  9
$JOINSTYLE
280
     0
  9
$LWDISPLAY
290
     0
  9
$INSUNITS
 70
     4
  9
$HYPERLINKBASE
  1

  9
$STYLESHEET
  1

  9
$XEDIT
290
     1
  9
$CEPSNTYPE
380
     0
  9
$PSTYLEMODE
290
     1
  9
$FINGERPRINTGUID
  2
{6E6C7420-1F84-438C-BC19-D46C41055814}
  9
$VERSIONGUID
  2
{FAEB1C32-E019-11D5-929B-00C0DF256EC4}
  9
$EXTNAMES
290
     1
  9
$PSVPSCALE
 40
0.0
  9
$OLESTARTUP
290
     0
  9
$SORTENTS
280
   127
  9
$INDEXCTL
280
     0
  9
$HIDETEXT
280
     1
  9
$XCLIPFRAME
290
     0
  9
$HALOGAP
280
     0
  9
$OBSCOLOR
 70
   257
  9
$OBSLTYPE
280
     0
  9
$INTERSECTIONDISPLAY
280
     0
  9
$INTERSECTIONCOLOR
 70
   257
  9
$DIMASSOC
280
     2
  9
$PROJECTNAME
  1

  9
$CAMERADISPLAY
290
     0
  9
$LENSLENGTH
 40
50.0
  9
$CAMERAHEIGHT
 40
0.0
  9
$STEPSPERSEC
 40
2.0
  9
$STEPSIZE
 40
6.0
  9
$3DDWFPREC
 40
2.0
  9
$PSOLWIDTH
 40
5.0
  9
$PSOLHEIGHT
 40
80.0
  9
$LOFTANG1
 40
1.570796326794897
  9
$LOFTANG2
 40
1.570796326794897
  9
$LOFTMAG1
 40
0.0
  9
$LOFTMAG2
 40
0.0
  9
$LOFTPARAM
 70
     7
  9
$LOFTNORMALS
280
     1
  9
$LATITUDE
 40
37.795
  9
$LONGITUDE
 40
-122.394
  9
$NORTHDIRECTION
 40
0.0
  9
$TIMEZONE
 70
 -8000
  9
$LIGHTGLYPHDISPLAY
280
     1
  9
$TILEMODELIGHTSYNCH
280
     1
  9
$SOLIDHIST
280
     1
  9
$SHOWHIST
280
     1
  9
$DWFFRAME
280
     2
  9
$DGNFRAME
280
     2
  9
$REALWORLDSCALE
290
     1
  9
$INTERFERECOLOR
 62
   256
  9
$CSHADOW
280
     0
  9
$SHADOWPLANELOCATION
 40
0.0
  0
ENDSEC
  0
SECTION
  2
CLASSES
  0
CLASS
  1
ACDBDICTIONARYWDFLT
  2
AcDbDictionaryWithDefault
  3
ObjectDBX Classes
 90
        0
 91
        4
280
     0
281
     0
  0
CLASS
  1
VISUALSTYLE
  2
AcDbVisualStyle
  3
ObjectDBX Classes
 90
     4095
 91
        4
280
     0
281
     0
  0
ENDSEC
  0
SECTION
  2
TABLES
  0
TABLE
  2
VPORT
  5
8
330
0
100
AcDbSymbolTable
 70
     1
  0
VPORT
  5
29
330
8
100
AcDbSymbolTableRecord
100
AcDbViewportTableRecord
  2
*Active
 70
     0
 10
0.0
 20
0.0
 11
1.0
 21
1.0
 12
0.0
 22
0.0
 13
0.0
 23
0.0
 14
10.0
 24
10.0
 15
10.0
 25
10.0
 16
0.0
 26
0.0
 36
1.0
 17
0.0
 27
0.0
 37
0.0
 40
1633.5
 41
1.414141414141414
 42
50.0
 43
0.0
 44
0.0
 50
0.0
 51
0.0
 71
     0
 72
 10000
 73
     1
 74
     3
 75
     0
 76
     0
 77
     0
 78
     0
281
     0
 65
     1
110
0.0
120
0.0
130
0.0
111
1.0
121
0.0
131
0.0
112
0.0
122
1.0
132
0.0
 79
     0
146
0.0
 60
     3
 61
     5
292
     1
282
     1
141
0.0
142
0.0
 63
   256
  0
ENDTAB
  0
TABLE
  2
LTYPE
  5
5
330
0
100
AcDbSymbolTable
 70
     5
  0
LTYPE
  5
14
330
5
100
AcDbSymbolTableRecord
100
AcDbLinetypeTableRecord
  2
ByBlock
 70
     0
  3

 72
    65
 73
     0
 40
0.0
  0
LTYPE
  5
15
330
5
100
AcDbSymbolTableRecord
100
AcDbLinetypeTableRecord
  2
ByLayer
 70
     0
  3

 72
    65
 73
     0
 40
0.0
  0
LTYPE
  5
16
330
5
100
AcDbSymbolTableRecord
100
AcDbLinetypeTableRecord
  2
Continuous
 70
     0
  3
Solid line
 72
    65
 73
     0
 40
0.0
  0
LTYPE
  5
3C
330
5
100
AcDbSymbolTableRecord
100
AcDbLinetypeTableRecord
  2
JWW_CENTER2
 70
     0
  3
-------------  --  -------------
 72
    65
 73
     4
 40
13.54666666666667
 49
11.00666666666667
 74
     0
 49
-0.8466666666666667
 74
     0
 49
0.8466666666666667
 74
     0
 49
-0.8466666666666667
 74
     0
  0
LTYPE
  5
3D
330
5
100
AcDbSymbolTableRecord
100
AcDbLinetypeTableRecord
  2
JWW_DASHED1
 70
     0
  3
-  --  --  --  --  --  --  --  -
 72
    65
 73
     2
 40
1.693333333333333
 49
0.8466666666666667
 74
     0
 49
-0.8466666666666667
 74
     0
  0
LTYPE
  5
3E
330
5
100
AcDbSymbolTableRecord
100
AcDbLinetypeTableRecord
  2
JWW_DASHED3
 70
     0
  3
---  ------  ------  ------  ---
 72
    65
 73
     2
 40
3.386666666666667
 49
2.54
 74
     0
 49
-0.8466666666666667
 74
     0
  0
LTYPE
  5
3F
330
5
100
AcDbSymbolTableRecord
100
AcDbLinetypeTableRecord
  2
JWW_CENTER1
 70
     0
  3
-----  --  ----------  --  -----
 72
    65
 73
     4
 40
6.773333333333333
 49
4.233333333333333
 74
     0
 49
-0.8466666666666667
 74
     0
 49
0.8466666666666667
 74
     0
 49
-0.8466666666666667
 74
     0
  0
ENDTAB
  0
TABLE
  2
LAYER
  5
2
330
0
100
AcDbSymbolTable
 70
    12
  0
LAYER
  5
10
330
2
100
AcDbSymbolTableRecord
100
AcDbLayerTableRecord
  2
0
 70
     0
 62
     7
  6
Continuous
370
    -3
390
F
347
0
  0
LAYER
  5
40
330
2
100
AcDbSymbolTableRecord
100
AcDbLayerTableRecord
  2
寸法
 70
     0
 62
     7
  6
Continuous
370
    -1
390
F
347
0
  0
LAYER
  5
41
330
2
100
AcDbSymbolTableRecord
100
AcDbLayerTableRecord
  2
その他
 70
     0
 62
     7
  6
Continuous
370
    -1
390
F
347
0
  0
LAYER
  5
42
330
2
100
AcDbSymbolTableRecord
100
AcDbLayerTableRecord
  2
躯体
 70
     0
 62
     7
  6
Continuous
370
    -1
390
F
347
0
  0
LAYER
  5
43
330
2
100
AcDbSymbolTableRecord
100
AcDbLayerTableRecord
  2
ハッチ
 70
     0
 62
     7
  6
Continuous
370
    -1
390
F
347
0
  0
LAYER
  5
44
330
2
100
AcDbSymbolTableRecord
100
AcDbLayerTableRecord
  2
建具
 70
     0
 62
     7
  6
Continuous
370
    -1
390
F
347
0
  0
LAYER
  5
45
330
2
100
AcDbSymbolTableRecord
100
AcDbLayerTableRecord
  2
通り芯
 70
     0
 62
     7
  6
Continuous
370
    -1
390
F
347
0
  0
LAYER
  5
46
330
2
100
AcDbSymbolTableRecord
100
AcDbLayerTableRecord
  2
仕上
 70
     0
 62
     7
  6
Continuous
370
    -1
390
F
347
0
  0
LAYER
  5
47
330
2
100
AcDbSymbolTableRecord
100
AcDbLayerTableRecord
  2
0-E
 70
     0
 62
     7
  6
Continuous
370
    -1
390
F
347
0
  0
LAYER
  5
48
330
2
100
AcDbSymbolTableRecord
100
AcDbLayerTableRecord
  2
0-F
 70
     0
 62
     7
  6
Continuous
370
    -1
390
F
347
0
  0
LAYER
  5
49
330
2
100
AcDbSymbolTableRecord
100
AcDbLayerTableRecord
  2
F-5ﾚｲﾔ
 70
     0
 62
     7
  6
Continuous
370
    -1
390
F
347
0
  0
LAYER
  5
4A
330
2
100
AcDbSymbolTableRecord
100
AcDbLayerTableRecord
  2
F-Fﾚｲﾔ
 70
     0
 62
     7
  6
Continuous
370
    -1
390
F
347
0
  0
ENDTAB
  0
TABLE
  2
STYLE
  5
3
330
0
100
AcDbSymbolTable
 70
     2
  0
STYLE
  5
11
330
3
100
AcDbSymbolTableRecord
100
AcDbTextStyleTableRecord
  2
Standard
 70
     0
 40
0.0
 41
1.0
 50
0.0
 71
     0
 42
2.5
  3
txt
  4

1001
ACAD
1000

1071
        0
  0
STYLE
  5
3B
330
3
100
AcDbSymbolTableRecord
100
AcDbTextStyleTableRecord
  2
ＭＳ ゴシック
 70
     0
 40
1.0
 41
1.0
 50
0.0
 71
     0
 42
10.0
  3

  4

1001
ACAD
1000
MS Gothic
1071
    32817
  0
ENDTAB
  0
TABLE
  2
VIEW
  5
6
330
0
100
AcDbSymbolTable
 70
     0
  0
ENDTAB
  0
TABLE
  2
UCS
  5
7
330
0
100
AcDbSymbolTable
 70
     0
  0
ENDTAB
  0
TABLE
  2
APPID
  5
9
330
0
100
AcDbSymbolTable
 70
     1
  0
APPID
  5
12
330
9
100
AcDbSymbolTableRecord
100
AcDbRegAppTableRecord
  2
ACAD
 70
     0
  0
ENDTAB
  0
TABLE
  2
DIMSTYLE
  5
A
330
0
100
AcDbSymbolTable
 70
     1
100
AcDbDimStyleTable
  0
DIMSTYLE
105
27
330
A
100
AcDbSymbolTableRecord
100
AcDbDimStyleTableRecord
  2
ISO-25
 70
     0
 41
2.5
 42
0.625
 43
3.75
 44
1.25
 73
     0
 74
     0
 77
     1
 78
     8
140
2.5
141
2.5
143
0.03937007874016
147
0.625
171
     3
172
     1
271
     2
272
     2
274
     3
278
    44
283
     0
284
     8
340
11
  0
ENDTAB
  0
TABLE
  2
BLOCK_RECORD
  5
1
330
0
100
AcDbSymbolTable
 70
     1
  0
BLOCK_RECORD
  5
1F
330
1
100
AcDbSymbolTableRecord
100
AcDbBlockTableRecord
  2
*Model_Space
340
22
 70
     0
280
     1
281
     0
  0
BLOCK_RECORD
  5
1B
330
1
100
AcDbSymbolTableRecord
100
AcDbBlockTableRecord
  2
*Paper_Space
340
1E
 70
     0
280
     1
281
     0
  0
BLOCK_RECORD
  5
23
330
1
100
AcDbSymbolTableRecord
100
AcDbBlockTableRecord
  2
*Paper_Space0
340
26
 70
     0
280
     1
281
     0
  0
ENDTAB
  0
ENDSEC
  0
SECTION
  2
BLOCKS
  0
BLOCK
  5
20
330
1F
100
AcDbEntity
  8
0
100
AcDbBlockBegin
  2
*Model_Space
 70
     0
 10
0.0
 20
0.0
 30
0.0
  3
*Model_Space
  1

  0
ENDBLK
  5
21
330
1F
100
AcDbEntity
  8
0
100
AcDbBlockEnd
  0
BLOCK
  5
1C
330
1B
100
AcDbEntity
 67
     1
  8
0
100
AcDbBlockBegin
  2
*Paper_Space
 70
     0
 10
0.0
 20
0.0
 30
0.0
  3
*Paper_Space
  1

  0
ENDBLK
  5
1D
330
1B
100
AcDbEntity
 67
     1
  8
0
100
AcDbBlockEnd
  0
BLOCK
  5
24
330
23
100
AcDbEntity
  8
0
100
AcDbBlockBegin
  2
*Paper_Space0
 70
     0
 10
0.0
 20
0.0
 30
0.0
  3
*Paper_Space0
  1

  0
ENDBLK
  5
25
330
23
100
AcDbEntity
  8
0
100
AcDbBlockEnd
  0
ENDSEC
  0
SECTION
  2
ENTITIES
  0
LINE
  5
4B
330
1F
100
AcDbEntity
  8
寸法
  6
Continuous
 62
     7
370
     9
100
AcDbLine
 10
-599.8041774750843
 20
551.6822257676722
 30
0.0
 11
-537.6423471483135
 21
551.6822257676722
 31
0.0
  0
TEXT
  5
4C
330
1F
100
AcDbEntity
  8
寸法
  6
Continuous
 62
     2
370
     9
100
AcDbText
 10
-598.154118083438
 20
558.439384450455
 30
0.0
 40
15.24
  1
φ8.5
 41
1.1
  7
ＭＳ ゴシック
100
AcDbText
  0
LINE
  5
4D
330
1F
100
AcDbEntity
  8
寸法
  6
Continuous
 62
     7
370
     9
100
AcDbLine
 10
-612.4253329393023
 20
529.8217432534204
 30
0.0
 11
-604.8158150766933
 21
539.738660007061
 31
0.0
  0
LINE
  5
4E
330
1F
100
AcDbEntity
  8
寸法
  6
Continuous
 62
     7
370
     9
100
AcDbLine
 10
-612.4253329393023
 20
529.8217432534204
 30
0.0
 11
-607.6417900347388
 21
541.3702374098115
 31
0.0
  0
LINE
  5
4F
330
1F
100
AcDbEntity
  8
その他
  6
Continuous
 62
     7
370
     9
100
AcDbLine
 10
-14.55015749544712
 20
586.1412018082908
 30
0.0
 11
-26.94321826261975
 21
587.7727792110414
 31
0.0
  0
LINE
  5
50
330
1F
100
AcDbEntity
  8
その他
  6
Continuous
 62
     7
370
     9
100
AcDbLine
 10
-14.55015749544712
 20
586.1412018082908
 30
0.0
 11
-26.94321826261975
 21
584.5096244055401
 31
0.0
  0
LINE
  5
51
330
1F
100
AcDbEntity
  8
その他
  6
Continuous
 62
     7
370
     9
100
AcDbLine
 10
-114.5500420235301
 20
586.1412018082908
 30
0.0
 11
-102.1569812563575
 21
584.5096244055401
 31
0.0
  0
LINE
  5
52
330
1F
100
AcDbEntity
  8
その他
  6
Continuous
 62
     7
370
     9
100
AcDbLine
 10
-114.5500420235301
 20
586.1412018082908
 30
0.0
 11
-102.1569812563575
 21
587.7727792110414
 31
0.0
  0
LINE
  5
53
330
1F
100
AcDbEntity
  8
その他
  6
Continuous
 62
     7
370
     9
100
AcDbLine
 10
-114.5500420235301
 20
586.1412018082908
 30
0.0
 11
-126.9431027907027
 21
587.7727792110414
 31
0.0
  0
LINE
  5
54
330
1F
100
AcDbEntity
  8
その他
  6
Continuous
 62
     7
370
     9
100
AcDbLine
 10
-114.5500420235301
 20
586.1412018082908
 30
0.0
 11
-126.9431027907027
 21
584.5096244055401
 31
0.0
  0
LINE
  5
55
330
1F
100
AcDbEntity
  8
その他
  6
Continuous
 62
     7
370
     9
100
AcDbLine
 10
-614.5503327653214
 20
586.1412018082908
 30
0.0
 11
-602.1572719981486
 21
584.5096244055401
 31
0.0
  0
LINE
  5
56
330
1F
100
AcDbEntity
  8
その他
  6
Continuous
 62
     7
370
     9
100
AcDbLine
 10
-614.5503327653214
 20
586.1412018082908
 30
0.0
 11
-602.1572719981486
 21
587.7727792110414
 31
0.0
  0
LINE
  5
57
330
1F
100
AcDbEntity
  8
その他
  6
Continuous
 62
     7
370
     9
100
AcDbLine
 10
-614.5503327653214
 20
586.1412018082908
 30
0.0
 11
-626.943393532494
 21
587.7727792110414
 31
0.0
  0
LINE
  5
58
330
1F
100
AcDbEntity
  8
その他
  6
Continuous
 62
     7
370
     9
100
AcDbLine
 10
-614.5503327653214
 20
586.1412018082908
 30
0.0
 11
-626.943393532494
 21
584.5096244055401
 31
0.0
  0
LINE
  5
59
330
1F
100
AcDbEntity
  8
その他
  6
Continuous
 62
     7
370
     9
100
AcDbLine
 10
-714.5503327653216
 20
586.1412018082908
 30
0.0
 11
-702.1572719981488
 21
584.5096244055401
 31
0.0
  0
LINE
  5
5A
330
1F
100
AcDbEntity
  8
その他
  6
Continuous
 62
     7
370
     9
100
AcDbLine
 10
-714.5503327653216
 20
586.1412018082908
 30
0.0
 11
-702.1572719981488
 21
587.7727792110414
 31
0.0
  0
LINE
  5
5B
330
1F
100
AcDbEntity
  8
躯体
  6
JWW_CENTER2
 62
     2
370
     9
100
AcDbLine
 10
-114.5500420235301
 20
-224.6393234286862
 30
0.0
 11
-114.5500420235301
 21
-184.8589272139023
 31
0.0
  0
ARC
  5
5C
330
1F
100
AcDbEntity
  8
躯体
  6
Continuous
 62
     2
370
     9
100
AcDbCircle
 10
-107.0500318902803
 20
-192.8588653539467
 30
0.0
 40
1.999999824868206
100
AcDbArc
 50
210.0005096035584
 51
270.0
  0
ARC
  5
5D
330
1F
100
AcDbEntity
  8
躯体
  6
Continuous
 62
     2
370
     9
100
AcDbCircle
 10
-122.0500521567798
 20
-192.8588653539467
 30
0.0
 40
1.999999824868206
100
AcDbArc
 50
270.0
 51
329.9994903964416
  0
LINE
  5
5E
330
1F
100
AcDbEntity
  8
躯体
  6
JWW_CENTER2
 62
     2
370
     9
100
AcDbLine
 10
-114.5500420235301
 20
-213.8588144520404
 30
0.0
 11
-120.3261180568386
 21
-213.8588144520404
 31
0.0
  0
LINE
  5
5F
330
1F
100
AcDbEntity
  8
躯体
  6
JWW_CENTER2
 62
     2
370
     9
100
AcDbLine
 10
-114.5500420235301
 20
-213.8588144520404
 30
0.0
 11
-108.7739659902206
 21
-213.8588144520404
 31
0.0
  0
LINE
  5
60
330
1F
100
AcDbEntity
  8
躯体
  6
Continuous
 62
     2
370
     9
100
AcDbLine
 10
-123.3000208144028
 20
-194.8588746623972
 30
0.0
 11
-123.3000208144028
 21
-223.8588609942926
 31
0.0
  0
LINE
  5
61
330
1F
100
AcDbEntity
  8
躯体
  6
Continuous
 62
     2
370
     9
100
AcDbLine
 10
-114.5500420235301
 20
-223.8588609942926
 30
0.0
 11
-123.3000208144028
 21
-223.8588609942926
 31
0.0
  0
LINE
  5
62
330
1F
100
AcDbEntity
  8
躯体
  6
Continuous
 62
     2
370
     9
100
AcDbLine
 10
-114.5500420235301
 20
-223.8588609942926
 30
0.0
 11
-105.8000632326573
 21
-223.8588609942926
 31
0.0
  0
LINE
  5
63
330
1F
100
AcDbEntity
  8
躯体
  6
Continuous
 62
     2
370
     9
100
AcDbLine
 10
-105.8000632326573
 20
-194.8588746623972
 30
0.0
 11
-105.8000632326573
 21
-223.8588609942926
 31
0.0
  0
LINE
  5
64
330
1F
100
AcDbEntity
  8
躯体
  6
Continuous
 62
     2
370
     9
100
AcDbLine
 10
-123.3000208144028
 20
-194.8588746623972
 30
0.0
 11
-122.0500521567798
 21
-194.8588746623972
 31
0.0
  0
LINE
  5
65
330
1F
100
AcDbEntity
  8
躯体
  6
JWW_DASHED1
 62
     2
370
     9
100
AcDbLine
 10
-121.3000115059519
 20
-194.712959104418
 30
0.0
 11
-121.3000115059519
 21
-223.8588609942926
 31
0.0
  0
LINE
  5
66
330
1F
100
AcDbEntity
  8
躯体
  6
Continuous
 62
     2
370
     9
100
AcDbLine
 10
-105.8000632326573
 20
-194.8588746623972
 30
0.0
 11
-107.0500318902803
 21
-194.8588746623972
 31
0.0
  0
LINE
  5
67
330
1F
100
AcDbEntity
  8
躯体
  6
JWW_DASHED1
 62
     2
370
     9
100
AcDbLine
 10
-107.8000725411082
 20
-194.712959104418
 30
0.0
 11
-107.8000725411082
 21
-223.8588609942926
 31
0.0
  0
CIRCLE
  5
68
330
1F
100
AcDbEntity
  8
躯体
  6
Continuous
 62
     2
370
     9
100
AcDbCircle
 10
-114.5500420235301
 20
-213.8588144520404
 30
0.0
 40
4.249999652037749
  0
ARC
  5
69
330
1F
100
AcDbEntity
  8
躯体
  6
Continuous
 62
     2
370
     9
100
AcDbCircle
 10
-607.0503226320716
 20
-192.8588653539467
 30
0.0
 40
1.999999824868206
100
AcDbArc
 50
210.0005096035584
 51
270.0
  0
ARC
  5
6A
330
1F
100
AcDbEntity
  8
躯体
  6
Continuous
 62
     2
370
     9
100
AcDbCircle
 10
-622.0503428985711
 20
-192.8588653539467
 30
0.0
 40
1.999999824868206
100
AcDbArc
 50
270.0
 51
329.9994903964416
  0
LINE
  5
6B
330
1F
100
AcDbEntity
  8
躯体
  6
JWW_CENTER2
 62
     2
370
     9
100
AcDbLine
 10
-614.5503327653214
 20
-213.8588144520404
 30
0.0
 11
-620.3264087986298
 21
-213.8588144520404
 31
0.0
  0
LINE
  5
6C
330
1F
100
AcDbEntity
  8
躯体
  6
JWW_CENTER2
 62
     2
370
     9
100
AcDbLine
 10
-614.5503327653214
 20
-213.8588144520404
 30
0.0
 11
-608.7742567320118
 21
-213.8588144520404
 31
0.0
  0
LINE
  5
6D
330
1F
100
AcDbEntity
  8
躯体
  6
Continuous
 62
     2
370
     9
100
AcDbLine
 10
-623.3003115561941
 20
-194.8588746623972
 30
0.0
 11
-623.3003115561941
 21
-223.8588609942926
 31
0.0
  0
LINE
  5
6E
330
1F
100
AcDbEntity
  8
躯体
  6
Continuous
 62
     2
370
     9
100
AcDbLine
 10
-614.5503327653214
 20
-223.8588609942926
 30
0.0
 11
-623.3003115561941
 21
-223.8588609942926
 31
0.0
  0
LINE
  5
6F
330
1F
100
AcDbEntity
  8
躯体
  6
Continuous
 62
     2
370
     9
100
AcDbLine
 10
-614.5503327653214
 20
-223.8588609942926
 30
0.0
 11
-605.8003539744484
 21
-223.8588609942926
 31
0.0
  0
LINE
  5
70
330
1F
100
AcDbEntity
  8
躯体
  6
Continuous
 62
     2
370
     9
100
AcDbLine
 10
-605.8003539744484
 20
-194.8588746623972
 30
0.0
 11
-605.8003539744484
 21
-223.8588609942926
 31
0.0
  0
LINE
  5
71
330
1F
100
AcDbEntity
  8
躯体
  6
Continuous
 62
     2
370
     9
100
AcDbLine
 10
-623.3003115561941
 20
-194.8588746623972
 30
0.0
 11
-622.0503428985711
 21
-194.8588746623972
 31
0.0
  0
LINE
  5
72
330
1F
100
AcDbEntity
  8
躯体
  6
JWW_DASHED1
 62
     2
370
     9
100
AcDbLine
 10
-621.3003022477432
 20
-194.712959104418
 30
0.0
 11
-621.3003022477432
 21
-223.8588609942926
 31
0.0
  0
LINE
  5
73
330
1F
100
AcDbEntity
  8
躯体
  6
Continuous
 62
     2
370
     9
100
AcDbLine
 10
-605.8003539744484
 20
-194.8588746623972
 30
0.0
 11
-607.0503226320716
 21
-194.8588746623972
 31
0.0
  0
LINE
  5
74
330
1F
100
AcDbEntity
  8
躯体
  6
JWW_DASHED1
 62
     2
370
     9
100
AcDbLine
 10
-607.8003632828995
 20
-194.712959104418
 30
0.0
 11
-607.8003632828995
 21
-223.8588609942926
 31
0.0
  0
CIRCLE
  5
75
330
1F
100
AcDbEntity
  8
躯体
  6
Continuous
 62
     2
370
     9
100
AcDbCircle
 10
-614.5503327653214
 20
-213.8588144520404
 30
0.0
 40
4.249999652037749
  0
LINE
  5
76
330
1F
100
AcDbEntity
  8
躯体
  6
JWW_CENTER2
 62
     2
370
     9
100
AcDbLine
 10
-614.5503327653214
 20
-224.6393234286862
 30
0.0
 11
-614.5503327653214
 21
-184.8589272139023
 31
0.0
  0
TEXT
  5
77
330
1F
100
AcDbEntity
  8
その他
  6
Continuous
 62
     2
370
   211
100
AcDbText
 10
-380.8001873944257
 20
593.9612018082909
 30
0.0
 40
15.24
  1
500
 41
1.083333333333333
  7
ＭＳ ゴシック
100
AcDbText
  0
TEXT
  5
78
330
1F
100
AcDbEntity
  8
その他
  6
Continuous
 62
     2
370
   211
100
AcDbText
 10
-80.80009975948857
 20
590.961201808291
 30
0.0
 40
15.24
  1
100
 41
1.083333333333333
  7
ＭＳ ゴシック
100
AcDbText
  0
LINE
  5
79
330
1F
100
AcDbEntity
  8
その他
  6
Continuous
 62
     7
370
     9
100
AcDbLine
 10
-14.55015749544712
 20
587.3412018082909
 30
0.0
 11
-14.55015749544712
 21
514.1412018082908
 31
0.0
  0
LINE
  5
7A
330
1F
100
AcDbEntity
  8
その他
  6
Continuous
 62
     7
370
     9
100
AcDbLine
 10
-114.5500420235301
 20
586.1412018082908
 30
0.0
 11
-14.55015749544712
 21
586.1412018082908
 31
0.0
  0
LINE
  5
7B
330
1F
100
AcDbEntity
  8
その他
  6
Continuous
 62
     7
370
     9
100
AcDbLine
 10
-114.5500420235301
 20
587.3412018082909
 30
0.0
 11
-114.5500420235301
 21
544.9216445653267
 31
0.0
  0
LINE
  5
7C
330
1F
100
AcDbEntity
  8
その他
  6
Continuous
 62
     7
370
     9
100
AcDbLine
 10
-614.5503327653214
 20
586.1412018082908
 30
0.0
 11
-114.5500420235301
 21
586.1412018082908
 31
0.0
  0
LINE
  5
7D
330
1F
100
AcDbEntity
  8
躯体
  6
JWW_CENTER2
 62
     2
370
     9
100
AcDbLine
 10
-114.5500420235301
 20
536.9216445653268
 30
0.0
 11
-114.5500420235301
 21
497.1412483505429
 31
0.0
  0
ARC
  5
7E
330
1F
100
AcDbEntity
  8
躯体
  6
Continuous
 62
     2
370
     9
100
AcDbCircle
 10
-107.0500318902803
 20
505.1411864905873
 30
0.0
 40
1.999999824868206
100
AcDbArc
 50
90.0
 51
149.9994903964416
  0
ARC
  5
7F
330
1F
100
AcDbEntity
  8
躯体
  6
Continuous
 62
     2
370
     9
100
AcDbCircle
 10
-122.0500521567799
 20
505.1411864905873
 30
0.0
 40
1.999999824868206
100
AcDbArc
 50
30.00050960355836
 51
90.0
  0
LINE
  5
80
330
1F
100
AcDbEntity
  8
躯体
  6
JWW_CENTER2
 62
     2
370
     9
100
AcDbLine
 10
-114.5500420235301
 20
526.141135588681
 30
0.0
 11
-120.3261180568386
 21
526.141135588681
 31
0.0
  0
LINE
  5
81
330
1F
100
AcDbEntity
  8
躯体
  6
JWW_CENTER2
 62
     2
370
     9
100
AcDbLine
 10
-114.5500420235301
 20
526.141135588681
 30
0.0
 11
-108.7739659902206
 21
526.141135588681
 31
0.0
  0
LINE
  5
82
330
1F
100
AcDbEntity
  8
躯体
  6
Continuous
 62
     2
370
     9
100
AcDbLine
 10
-123.3000208144028
 20
507.1411957990378
 30
0.0
 11
-123.3000208144028
 21
536.1411821309332
 31
0.0
  0
LINE
  5
83
330
1F
100
AcDbEntity
  8
躯体
  6
Continuous
 62
     2
370
     9
100
AcDbLine
 10
-114.5500420235301
 20
536.1411821309332
 30
0.0
 11
-123.3000208144028
 21
536.1411821309332
 31
0.0
  0
LINE
  5
84
330
1F
100
AcDbEntity
  8
躯体
  6
Continuous
 62
     2
370
     9
100
AcDbLine
 10
-114.5500420235301
 20
536.1411821309332
 30
0.0
 11
-105.8000632326573
 21
536.1411821309332
 31
0.0
  0
LINE
  5
85
330
1F
100
AcDbEntity
  8
躯体
  6
Continuous
 62
     2
370
     9
100
AcDbLine
 10
-105.8000632326573
 20
507.1411957990378
 30
0.0
 11
-105.8000632326573
 21
536.1411821309332
 31
0.0
  0
LINE
  5
86
330
1F
100
AcDbEntity
  8
躯体
  6
Continuous
 62
     2
370
     9
100
AcDbLine
 10
-123.3000208144028
 20
507.1411957990378
 30
0.0
 11
-122.0500521567799
 21
507.1411957990378
 31
0.0
  0
LINE
  5
87
330
1F
100
AcDbEntity
  8
躯体
  6
JWW_DASHED1
 62
     2
370
     9
100
AcDbLine
 10
-121.3000115059519
 20
506.9952802410586
 30
0.0
 11
-121.3000115059519
 21
536.1411821309332
 31
0.0
  0
LINE
  5
88
330
1F
100
AcDbEntity
  8
躯体
  6
Continuous
 62
     2
370
     9
100
AcDbLine
 10
-105.8000632326573
 20
507.1411957990378
 30
0.0
 11
-107.0500318902803
 21
507.1411957990378
 31
0.0
  0
LINE
  5
89
330
1F
100
AcDbEntity
  8
躯体
  6
JWW_DASHED1
 62
     2
370
     9
100
AcDbLine
 10
-107.8000725411082
 20
506.9952802410586
 30
0.0
 11
-107.8000725411082
 21
536.1411821309332
 31
0.0
  0
CIRCLE
  5
8A
330
1F
100
AcDbEntity
  8
躯体
  6
Continuous
 62
     2
370
     9
100
AcDbCircle
 10
-114.5500420235301
 20
526.141135588681
 30
0.0
 40
4.249999652037749
  0
TEXT
  5
8B
330
1F
100
AcDbEntity
  8
その他
  6
Continuous
 62
     2
370
   211
100
AcDbText
 10
-680.8003327653214
 20
590.961201808291
 30
0.0
 40
15.24
  1
100
 41
1.083333333333333
  7
ＭＳ ゴシック
100
AcDbText
  0
LINE
  5
8C
330
1F
100
AcDbEntity
  8
その他
  6
Continuous
 62
     7
370
     9
100
AcDbLine
 10
-614.5503327653214
 20
587.3412018082909
 30
0.0
 11
-614.5503327653214
 21
544.9216445653267
 31
0.0
  0
LINE
  5
8D
330
1F
100
AcDbEntity
  8
その他
  6
Continuous
 62
     7
370
     9
100
AcDbLine
 10
-714.5503327653216
 20
587.3412018082909
 30
0.0
 11
-714.5503327653216
 21
514.1412018082908
 31
0.0
  0
LINE
  5
8E
330
1F
100
AcDbEntity
  8
その他
  6
Continuous
 62
     7
370
     9
100
AcDbLine
 10
-714.5503327653216
 20
586.1412018082908
 30
0.0
 11
-614.5503327653214
 21
586.1412018082908
 31
0.0
  0
ARC
  5
8F
330
1F
100
AcDbEntity
  8
躯体
  6
Continuous
 62
     2
370
     9
100
AcDbCircle
 10
-607.0503226320716
 20
505.1411864905873
 30
0.0
 40
1.999999824868206
100
AcDbArc
 50
90.0
 51
149.9994903964416
  0
ARC
  5
90
330
1F
100
AcDbEntity
  8
躯体
  6
Continuous
 62
     2
370
     9
100
AcDbCircle
 10
-622.0503428985711
 20
505.1411864905873
 30
0.0
 40
1.999999824868206
100
AcDbArc
 50
30.00050960355836
 51
90.0
  0
LINE
  5
91
330
1F
100
AcDbEntity
  8
躯体
  6
JWW_CENTER2
 62
     2
370
     9
100
AcDbLine
 10
-614.5503327653214
 20
526.141135588681
 30
0.0
 11
-620.3264087986298
 21
526.141135588681
 31
0.0
  0
LINE
  5
92
330
1F
100
AcDbEntity
  8
躯体
  6
JWW_CENTER2
 62
     2
370
     9
100
AcDbLine
 10
-614.5503327653214
 20
526.141135588681
 30
0.0
 11
-608.7742567320118
 21
526.141135588681
 31
0.0
  0
LINE
  5
93
330
1F
100
AcDbEntity
  8
躯体
  6
Continuous
 62
     2
370
     9
100
AcDbLine
 10
-623.3003115561941
 20
507.1411957990378
 30
0.0
 11
-623.3003115561941
 21
536.1411821309332
 31
0.0
  0
LINE
  5
94
330
1F
100
AcDbEntity
  8
躯体
  6
Continuous
 62
     2
370
     9
100
AcDbLine
 10
-614.5503327653214
 20
536.1411821309332
 30
0.0
 11
-623.3003115561941
 21
536.1411821309332
 31
0.0
  0
LINE
  5
95
330
1F
100
AcDbEntity
  8
躯体
  6
Continuous
 62
     2
370
     9
100
AcDbLine
 10
-614.5503327653214
 20
536.1411821309332
 30
0.0
 11
-605.8003539744484
 21
536.1411821309332
 31
0.0
  0
LINE
  5
96
330
1F
100
AcDbEntity
  8
躯体
  6
Continuous
 62
     2
370
     9
100
AcDbLine
 10
-605.8003539744484
 20
507.1411957990378
 30
0.0
 11
-605.8003539744484
 21
536.1411821309332
 31
0.0
  0
LINE
  5
97
330
1F
100
AcDbEntity
  8
躯体
  6
Continuous
 62
     2
370
     9
100
AcDbLine
 10
-623.3003115561941
 20
507.1411957990378
 30
0.0
 11
-622.0503428985711
 21
507.1411957990378
 31
0.0
  0
LINE
  5
98
330
1F
100
AcDbEntity
  8
躯体
  6
JWW_DASHED1
 62
     2
370
     9
100
AcDbLine
 10
-621.3003022477432
 20
506.9952802410586
 30
0.0
 11
-621.3003022477432
 21
536.1411821309332
 31
0.0
  0
LINE
  5
99
330
1F
100
AcDbEntity
  8
躯体
  6
Continuous
 62
     2
370
     9
100
AcDbLine
 10
-605.8003539744484
 20
507.1411957990378
 30
0.0
 11
-607.0503226320716
 21
507.1411957990378
 31
0.0
  0
LINE
  5
9A
330
1F
100
AcDbEntity
  8
躯体
  6
JWW_DASHED1
 62
     2
370
     9
100
AcDbLine
 10
-607.8003632828995
 20
506.9952802410586
 30
0.0
 11
-607.8003632828995
 21
536.1411821309332
 31
0.0
  0
CIRCLE
  5
9B
330
1F
100
AcDbEntity
  8
躯体
  6
Continuous
 62
     2
370
     9
100
AcDbCircle
 10
-614.5503327653214
 20
526.141135588681
 30
0.0
 40
4.249999652037749
  0
LINE
  5
9C
330
1F
100
AcDbEntity
  8
躯体
  6
JWW_CENTER2
 62
     2
370
     9
100
AcDbLine
 10
-614.5503327653214
 20
536.9216445653268
 30
0.0
 11
-614.5503327653214
 21
497.1412483505429
 31
0.0
  0
LINE
  5
9D
330
1F
100
AcDbEntity
  8
寸法
  6
Continuous
 62
     7
370
     9
100
AcDbLine
 10
-612.4253329393023
 20
529.8217432534204
 30
0.0
 11
-599.8041774750843
 21
551.6822257676722
 31
0.0
  0
LINE
  5
9E
330
1F
100
AcDbEntity
  8
その他
  6
Continuous
 62
     7
370
     9
100
AcDbLine
 10
-14.55046679522527
 20
-312.2595946180184
 30
0.0
 11
9.725260655625583
 21
-312.2595946180184
 31
0.0
  0
TEXT
  5
9F
330
1F
100
AcDbEntity
  8
その他
  6
Continuous
 62
     2
370
   211
100
AcDbText
 10
-6.875686523278368
 20
-304.4395946180184
 30
0.0
 40
15.24
  1
3
 41
0.9999999999999998
  7
ＭＳ ゴシック
100
AcDbText
  0
TEXT
  5
A0
330
1F
100
AcDbEntity
  8
その他
  6
Continuous
 62
     2
370
   211
100
AcDbText
 10
-35.76885749565553
 20
-304.4395946180184
 30
0.0
 40
15.24
  1
2
 41
0.9999999999999998
  7
ＭＳ ゴシック
100
AcDbText
  0
LWPOLYLINE
  5
A1
330
1F
100
AcDbEntity
  8
その他
  6
Continuous
 62
     7
370
     9
100
AcDbPolyline
 90
        4
 70
     1
 43
0.5
 10
-17.30042720485379
 20
-312.2595946180184
 42
0.4142135623731
 10
-17.55042720485379
 20
-312.0095946180185
 42
0.4142135623731
 10
-17.80042720485379
 20
-312.2595946180184
 42
0.4142135623731
 10
-17.55042720485379
 20
-312.5095946180184
 42
0.4142135623731
  0
LINE
  5
A2
330
1F
100
AcDbEntity
  8
その他
  6
Continuous
 62
     7
370
     9
100
AcDbLine
 10
-14.55046679522527
 20
-312.2595946180184
 30
0.0
 11
-2.157406028052637
 21
-313.8911720207691
 31
0.0
  0
LINE
  5
A3
330
1F
100
AcDbEntity
  8
その他
  6
Continuous
 62
     7
370
     9
100
AcDbLine
 10
-14.55046679522527
 20
-312.2595946180184
 30
0.0
 11
-2.157406028052637
 21
-310.6280172152677
 31
0.0
  0
LWPOLYLINE
  5
A4
330
1F
100
AcDbEntity
  8
その他
  6
Continuous
 62
     7
370
     9
100
AcDbPolyline
 90
        4
 70
     1
 43
0.5
 10
-711.3004651456266
 20
-312.2595946180184
 42
0.4142135623731
 10
-711.5504651456267
 20
-312.0095946180185
 42
0.4142135623731
 10
-711.8004651456267
 20
-312.2595946180184
 42
0.4142135623731
 10
-711.5504651456267
 20
-312.5095946180184
 42
0.4142135623731
  0
LINE
  5
A5
330
1F
100
AcDbEntity
  8
その他
  6
Continuous
 62
     7
370
     9
100
AcDbLine
 10
-714.550425555255
 20
-312.2595946180184
 30
0.0
 11
-740.2278658997648
 21
-312.2595946180184
 31
0.0
  0
TEXT
  5
A6
330
1F
100
AcDbEntity
  8
その他
  6
Continuous
 62
     2
370
   211
100
AcDbText
 10
-731.9512078142056
 20
-304.4395946180184
 30
0.0
 40
15.24
  1
3
 41
0.9999999999999998
  7
ＭＳ ゴシック
100
AcDbText
  0
TEXT
  5
A7
330
1F
100
AcDbEntity
  8
その他
  6
Continuous
 62
     2
370
   211
100
AcDbText
 10
-697.4233445164614
 20
-304.4395946180184
 30
0.0
 40
15.24
  1
2
 41
0.9999999999999429
  7
ＭＳ ゴシック
100
AcDbText
  0
LINE
  5
A8
330
1F
100
AcDbEntity
  8
その他
  6
Continuous
 62
     7
370
     9
100
AcDbLine
 10
-714.550425555255
 20
-312.2595946180184
 30
0.0
 11
-726.9434863224278
 21
-313.8911720207691
 31
0.0
  0
LINE
  5
A9
330
1F
100
AcDbEntity
  8
その他
  6
Continuous
 62
     7
370
     9
100
AcDbLine
 10
-714.550425555255
 20
-312.2595946180184
 30
0.0
 11
-726.9434863224278
 21
-310.6280172152677
 31
0.0
  0
TEXT
  5
AA
330
1F
100
AcDbEntity
  8
その他
  6
Continuous
 62
     2
370
   211
100
AcDbText
 10
-380.8004461752401
 20
-344.4395946180184
 30
0.0
 40
15.24
  1
682
 41
1.083333333333333
  7
ＭＳ ゴシック
100
AcDbText
  0
LINE
  5
AB
330
1F
100
AcDbEntity
  8
その他
  6
Continuous
 62
     7
370
     9
100
AcDbLine
 10
-23.55034802411028
 20
-350.7595946180183
 30
0.0
 11
-23.55034802411028
 21
-382.2595946180184
 31
0.0
  0
LINE
  5
AC
330
1F
100
AcDbEntity
  8
その他
  6
Continuous
 62
     7
370
     9
100
AcDbLine
 10
-705.5505443263698
 20
-350.7595946180183
 30
0.0
 11
-705.5505443263698
 21
-382.2595946180184
 31
0.0
  0
LINE
  5
AD
330
1F
100
AcDbEntity
  8
その他
  6
Continuous
 62
     7
370
     9
100
AcDbLine
 10
-23.55034802411028
 20
-352.2595946180184
 30
0.0
 11
-35.94340879128291
 21
-353.891172020769
 31
0.0
  0
LINE
  5
AE
330
1F
100
AcDbEntity
  8
その他
  6
Continuous
 62
     7
370
     9
100
AcDbLine
 10
-23.55034802411028
 20
-352.2595946180184
 30
0.0
 11
-35.94340879128291
 21
-350.6280172152677
 31
0.0
  0
LINE
  5
AF
330
1F
100
AcDbEntity
  8
その他
  6
Continuous
 62
     7
370
     9
100
AcDbLine
 10
-705.5505443263698
 20
-352.2595946180184
 30
0.0
 11
-693.1574835591971
 21
-353.891172020769
 31
0.0
  0
LINE
  5
B0
330
1F
100
AcDbEntity
  8
その他
  6
Continuous
 62
     7
370
     9
100
AcDbLine
 10
-705.5505443263698
 20
-352.2595946180184
 30
0.0
 11
-693.1574835591971
 21
-350.6280172152677
 31
0.0
  0
LINE
  5
B1
330
1F
100
AcDbEntity
  8
その他
  6
Continuous
 62
     7
370
     9
100
AcDbLine
 10
-705.5505443263698
 20
-352.2595946180184
 30
0.0
 11
-23.55034802411028
 21
-352.2595946180184
 31
0.0
  0
LINE
  5
B2
330
1F
100
AcDbEntity
  8
その他
  6
Continuous
 62
     7
370
     9
100
AcDbLine
 10
-17.55042720485379
 20
-312.2595946180184
 30
0.0
 11
-14.55046679522527
 21
-312.2595946180184
 31
0.0
  0
LINE
  5
B3
330
1F
100
AcDbEntity
  8
その他
  6
Continuous
 62
     7
370
     9
100
AcDbLine
 10
-17.55042720485379
 20
-310.7595946180184
 30
0.0
 11
-17.55042720485379
 21
-382.2595946180184
 31
0.0
  0
LINE
  5
B4
330
1F
100
AcDbEntity
  8
その他
  6
Continuous
 62
     7
370
     9
100
AcDbLine
 10
-19.55048329121341
 20
-312.2595946180184
 30
0.0
 11
-17.55042720485379
 21
-312.2595946180184
 31
0.0
  0
TEXT
  5
B5
330
1F
100
AcDbEntity
  8
その他
  6
Continuous
 62
     2
370
   211
100
AcDbText
 10
-380.8004461752401
 20
-304.4395946180184
 30
0.0
 40
15.24
  1
690
 41
1.083333333333333
  7
ＭＳ ゴシック
100
AcDbText
  0
LINE
  5
B6
330
1F
100
AcDbEntity
  8
その他
  6
Continuous
 62
     7
370
     9
100
AcDbLine
 10
-19.55048329121341
 20
-310.7595946180184
 30
0.0
 11
-19.55048329121341
 21
-382.2595946180184
 31
0.0
  0
LINE
  5
B7
330
1F
100
AcDbEntity
  8
その他
  6
Continuous
 62
     7
370
     9
100
AcDbLine
 10
-19.55048329121341
 20
-312.2595946180184
 30
0.0
 11
-31.94354405838605
 21
-313.8911720207691
 31
0.0
  0
LINE
  5
B8
330
1F
100
AcDbEntity
  8
その他
  6
Continuous
 62
     7
370
     9
100
AcDbLine
 10
-19.55048329121341
 20
-312.2595946180184
 30
0.0
 11
-31.94354405838605
 21
-310.6280172152677
 31
0.0
  0
LINE
  5
B9
330
1F
100
AcDbEntity
  8
その他
  6
Continuous
 62
     7
370
     9
100
AcDbLine
 10
-709.5504090592669
 20
-312.2595946180184
 30
0.0
 11
-697.1573482920942
 21
-313.8911720207691
 31
0.0
  0
LINE
  5
BA
330
1F
100
AcDbEntity
  8
その他
  6
Continuous
 62
     7
370
     9
100
AcDbLine
 10
-709.5504090592669
 20
-312.2595946180184
 30
0.0
 11
-697.1573482920942
 21
-310.6280172152677
 31
0.0
  0
LINE
  5
BB
330
1F
100
AcDbEntity
  8
その他
  6
Continuous
 62
     7
370
     9
100
AcDbLine
 10
-709.5504090592669
 20
-312.2595946180184
 30
0.0
 11
-19.55048329121341
 21
-312.2595946180184
 31
0.0
  0
LINE
  5
BC
330
1F
100
AcDbEntity
  8
その他
  6
Continuous
 62
     7
370
     9
100
AcDbLine
 10
-709.5504090592669
 20
-310.7595946180184
 30
0.0
 11
-709.5504090592669
 21
-382.2595946180184
 31
0.0
  0
LINE
  5
BD
330
1F
100
AcDbEntity
  8
その他
  6
Continuous
 62
     7
370
     9
100
AcDbLine
 10
-711.5504651456267
 20
-312.2595946180184
 30
0.0
 11
-709.5504090592669
 21
-312.2595946180184
 31
0.0
  0
LINE
  5
BE
330
1F
100
AcDbEntity
  8
その他
  6
Continuous
 62
     7
370
     9
100
AcDbLine
 10
-711.5504651456267
 20
-310.7595946180184
 30
0.0
 11
-711.5504651456267
 21
-382.2595946180184
 31
0.0
  0
LINE
  5
BF
330
1F
100
AcDbEntity
  8
その他
  6
Continuous
 62
     7
370
     9
100
AcDbLine
 10
-714.550425555255
 20
-312.2595946180184
 30
0.0
 11
-711.5504651456267
 21
-312.2595946180184
 31
0.0
  0
TEXT
  5
C0
330
1F
100
AcDbEntity
  8
その他
  6
Continuous
 62
     2
370
   211
100
AcDbText
 10
-380.8004461752401
 20
-264.4395946180184
 30
0.0
 40
15.24
  1
700
 41
1.083333333333333
  7
ＭＳ ゴシック
100
AcDbText
  0
LINE
  5
C1
330
1F
100
AcDbEntity
  8
その他
  6
Continuous
 62
     7
370
     9
100
AcDbLine
 10
-14.55046679522527
 20
-270.7595946180184
 30
0.0
 11
-14.55046679522527
 21
-382.2595946180184
 31
0.0
  0
LINE
  5
C2
330
1F
100
AcDbEntity
  8
その他
  6
Continuous
 62
     7
370
     9
100
AcDbLine
 10
-714.550425555255
 20
-270.7595946180184
 30
0.0
 11
-714.550425555255
 21
-382.2595946180184
 31
0.0
  0
LINE
  5
C3
330
1F
100
AcDbEntity
  8
その他
  6
Continuous
 62
     7
370
     9
100
AcDbLine
 10
-14.55046679522527
 20
-272.2595946180184
 30
0.0
 11
-26.9435275623979
 21
-273.8911720207688
 31
0.0
  0
LINE
  5
C4
330
1F
100
AcDbEntity
  8
その他
  6
Continuous
 62
     7
370
     9
100
AcDbLine
 10
-14.55046679522527
 20
-272.2595946180184
 30
0.0
 11
-26.9435275623979
 21
-270.6280172152674
 31
0.0
  0
LINE
  5
C5
330
1F
100
AcDbEntity
  8
その他
  6
Continuous
 62
     7
370
     9
100
AcDbLine
 10
-714.550425555255
 20
-272.2595946180184
 30
0.0
 11
-702.1573647880823
 21
-273.8911720207688
 31
0.0
  0
LINE
  5
C6
330
1F
100
AcDbEntity
  8
その他
  6
Continuous
 62
     7
370
     9
100
AcDbLine
 10
-714.550425555255
 20
-272.2595946180184
 30
0.0
 11
-702.1573647880823
 21
-270.6280172152674
 31
0.0
  0
LINE
  5
C7
330
1F
100
AcDbEntity
  8
その他
  6
Continuous
 62
     7
370
     9
100
AcDbLine
 10
-714.550425555255
 20
-272.2595946180184
 30
0.0
 11
-14.55046679522527
 21
-272.2595946180184
 31
0.0
  0
TEXT
  5
C8
330
1F
100
AcDbEntity
  8
その他
  6
Continuous
 62
     2
370
   211
100
AcDbText
 10
-50.17543679153596
 20
-511.4396507043779
 30
0.0
 40
15.24
  1
50
 41
1.0625
  7
ＭＳ ゴシック
100
AcDbText
  0
LINE
  5
C9
330
1F
100
AcDbEntity
  8
その他
  6
Continuous
 62
     7
370
     9
100
AcDbLine
 10
-14.55042740783179
 20
-520.759650704378
 30
0.0
 11
-14.55042740783179
 21
-465.2596688499651
 31
0.0
  0
LINE
  5
CA
330
1F
100
AcDbEntity
  8
その他
  6
Continuous
 62
     7
370
     9
100
AcDbLine
 10
-14.55042740783179
 20
-519.2596507043779
 30
0.0
 11
-26.94348817500443
 21
-520.8912281071287
 31
0.0
  0
LINE
  5
CB
330
1F
100
AcDbEntity
  8
その他
  6
Continuous
 62
     7
370
     9
100
AcDbLine
 10
-14.55042740783179
 20
-519.2596507043779
 30
0.0
 11
-26.94348817500443
 21
-517.6280733016273
 31
0.0
  0
LINE
  5
CC
330
1F
100
AcDbEntity
  8
その他
  6
Continuous
 62
     7
370
     9
100
AcDbLine
 10
-64.55044617524011
 20
-519.2596507043779
 30
0.0
 11
-52.15738540806748
 21
-520.8912281071287
 31
0.0
  0
LINE
  5
CD
330
1F
100
AcDbEntity
  8
その他
  6
Continuous
 62
     7
370
     9
100
AcDbLine
 10
-64.55044617524011
 20
-519.2596507043779
 30
0.0
 11
-52.15738540806748
 21
-517.6280733016273
 31
0.0
  0
LINE
  5
CE
330
1F
100
AcDbEntity
  8
その他
  6
Continuous
 62
     7
370
     9
100
AcDbLine
 10
-64.55044617524011
 20
-519.2596507043779
 30
0.0
 11
-14.55042740783179
 21
-519.2596507043779
 31
0.0
  0
TEXT
  5
CF
330
1F
100
AcDbEntity
  8
その他
  6
Continuous
 62
     2
370
   211
100
AcDbText
 10
-380.8004461752401
 20
-511.4396507043779
 30
0.0
 40
15.24
  1
600
 41
1.083333333333333
  7
ＭＳ ゴシック
100
AcDbText
  0
LINE
  5
D0
330
1F
100
AcDbEntity
  8
その他
  6
Continuous
 62
     7
370
     9
100
AcDbLine
 10
-64.55044617524011
 20
-520.759650704378
 30
0.0
 11
-64.55044617524011
 21
-468.2596601895713
 31
0.0
  0
LINE
  5
D1
330
1F
100
AcDbEntity
  8
その他
  6
Continuous
 62
     7
370
     9
100
AcDbLine
 10
-64.55044617524011
 20
-519.2596507043779
 30
0.0
 11
-76.94350694241274
 21
-520.8912281071287
 31
0.0
  0
LINE
  5
D2
330
1F
100
AcDbEntity
  8
その他
  6
Continuous
 62
     7
370
     9
100
AcDbLine
 10
-64.55044617524011
 20
-519.2596507043779
 30
0.0
 11
-76.94350694241274
 21
-517.6280733016273
 31
0.0
  0
LINE
  5
D3
330
1F
100
AcDbEntity
  8
その他
  6
Continuous
 62
     7
370
     9
100
AcDbLine
 10
-664.55044617524
 20
-519.2596507043779
 30
0.0
 11
-652.1573854080674
 21
-520.8912281071287
 31
0.0
  0
LINE
  5
D4
330
1F
100
AcDbEntity
  8
その他
  6
Continuous
 62
     7
370
     9
100
AcDbLine
 10
-664.55044617524
 20
-519.2596507043779
 30
0.0
 11
-652.1573854080674
 21
-517.6280733016273
 31
0.0
  0
LINE
  5
D5
330
1F
100
AcDbEntity
  8
その他
  6
Continuous
 62
     7
370
     9
100
AcDbLine
 10
-664.55044617524
 20
-519.2596507043779
 30
0.0
 11
-64.55044617524011
 21
-519.2596507043779
 31
0.0
  0
TEXT
  5
D6
330
1F
100
AcDbEntity
  8
その他
  6
Continuous
 62
     2
370
   211
100
AcDbText
 10
-700.1754555589448
 20
-511.4396507043779
 30
0.0
 40
15.24
  1
50
 41
1.062500000000028
  7
ＭＳ ゴシック
100
AcDbText
  0
LINE
  5
D7
330
1F
100
AcDbEntity
  8
その他
  6
Continuous
 62
     7
370
     9
100
AcDbLine
 10
-664.55044617524
 20
-520.759650704378
 30
0.0
 11
-664.55044617524
 21
-468.2596601895713
 31
0.0
  0
LINE
  5
D8
330
1F
100
AcDbEntity
  8
その他
  6
Continuous
 62
     7
370
     9
100
AcDbLine
 10
-714.5504649426488
 20
-520.759650704378
 30
0.0
 11
-714.5504649426488
 21
-465.2596688499651
 31
0.0
  0
LINE
  5
D9
330
1F
100
AcDbEntity
  8
その他
  6
Continuous
 62
     7
370
     9
100
AcDbLine
 10
-664.55044617524
 20
-519.2596507043779
 30
0.0
 11
-676.9435069424128
 21
-520.8912281071287
 31
0.0
  0
LINE
  5
DA
330
1F
100
AcDbEntity
  8
その他
  6
Continuous
 62
     7
370
     9
100
AcDbLine
 10
-664.55044617524
 20
-519.2596507043779
 30
0.0
 11
-676.9435069424128
 21
-517.6280733016273
 31
0.0
  0
LINE
  5
DB
330
1F
100
AcDbEntity
  8
その他
  6
Continuous
 62
     7
370
     9
100
AcDbLine
 10
-714.5504649426488
 20
-519.2596507043779
 30
0.0
 11
-702.1574041754761
 21
-520.8912281071287
 31
0.0
  0
LINE
  5
DC
330
1F
100
AcDbEntity
  8
その他
  6
Continuous
 62
     7
370
     9
100
AcDbLine
 10
-714.5504649426488
 20
-519.2596507043779
 30
0.0
 11
-702.1574041754761
 21
-517.6280733016273
 31
0.0
  0
LINE
  5
DD
330
1F
100
AcDbEntity
  8
その他
  6
Continuous
 62
     7
370
     9
100
AcDbLine
 10
-714.5504649426488
 20
-519.2596507043779
 30
0.0
 11
-664.55044617524
 21
-519.2596507043779
 31
0.0
  0
LINE
  5
DE
330
1F
100
AcDbEntity
  8
ハッチ
  6
Continuous
 62
     6
370
     9
100
AcDbLine
 10
-61.0504272048543
 20
-455.2594708981067
 30
0.0
 11
-21.05042720485424
 21
-455.2594708981067
 31
0.0
  0
LINE
  5
DF
330
1F
100
AcDbEntity
  8
ハッチ
  6
Continuous
 62
     6
370
     9
100
AcDbLine
 10
-21.05042720485424
 20
-455.2594708981067
 30
0.0
 11
-21.05042720485424
 21
-452.2594708981069
 31
0.0
  0
LINE
  5
E0
330
1F
100
AcDbEntity
  8
ハッチ
  6
Continuous
 62
     6
370
     9
100
AcDbLine
 10
-21.05042720485424
 20
-452.2594708981069
 30
0.0
 11
-61.0504272048543
 21
-452.2594708981069
 31
0.0
  0
LINE
  5
E1
330
1F
100
AcDbEntity
  8
ハッチ
  6
Continuous
 62
     6
370
     9
100
AcDbLine
 10
-61.05042720485331
 20
-454.1728724625983
 30
0.0
 11
-59.96382876934562
 21
-455.2594708981061
 31
0.0
  0
LINE
  5
E2
330
1F
100
AcDbEntity
  8
ハッチ
  6
Continuous
 62
     6
370
     9
100
AcDbLine
 10
-57.30697451985309
 20
-452.2594708981055
 30
0.0
 11
-54.30697451985269
 21
-455.2594708981056
 31
0.0
  0
LINE
  5
E3
330
1F
100
AcDbEntity
  8
ハッチ
  6
Continuous
 62
     6
370
     9
100
AcDbLine
 10
-51.65012027036569
 20
-452.2594708981066
 30
0.0
 11
-48.65012027036757
 21
-455.2594708981047
 31
0.0
  0
LINE
  5
E4
330
1F
100
AcDbEntity
  8
ハッチ
  6
Continuous
 62
     6
370
     9
100
AcDbLine
 10
-45.99326602087332
 20
-452.259470898106
 30
0.0
 11
-42.99326602087278
 21
-455.2594708981064
 31
0.0
  0
LINE
  5
E5
330
1F
100
AcDbEntity
  8
ハッチ
  6
Continuous
 62
     6
370
     9
100
AcDbLine
 10
-40.3364117713791
 20
-452.2594708981069
 30
0.0
 11
-37.336411771379
 21
-455.2594708981067
 31
0.0
  0
LINE
  5
E6
330
1F
100
AcDbEntity
  8
ハッチ
  6
Continuous
 62
     6
370
     9
100
AcDbLine
 10
-34.6795575218866
 20
-452.2594708981057
 30
0.0
 11
-31.67955752188663
 21
-455.2594708981061
 31
0.0
  0
LINE
  5
E7
330
1F
100
AcDbEntity
  8
ハッチ
  6
Continuous
 62
     6
370
     9
100
AcDbLine
 10
-29.02270327239238
 20
-452.2594708981069
 30
0.0
 11
-26.02270327239199
 21
-455.2594708981073
 31
0.0
  0
LINE
  5
E8
330
1F
100
AcDbEntity
  8
ハッチ
  6
Continuous
 62
     6
370
     9
100
AcDbLine
 10
-23.36584902289902
 20
-452.2594708981066
 30
0.0
 11
-21.05042720485424
 21
-454.5748927161515
 31
0.0
  0
LINE
  5
E9
330
1F
100
AcDbEntity
  8
ハッチ
  6
Continuous
 62
     6
370
     9
100
AcDbLine
 10
-61.0504272048543
 20
-452.2594708981069
 30
0.0
 11
-61.0504272048543
 21
-455.2594708981067
 31
0.0
  0
LINE
  5
EA
330
1F
100
AcDbEntity
  8
ハッチ
  6
Continuous
 62
     6
370
     9
100
AcDbLine
 10
-708.0504461752406
 20
-455.2594708981067
 30
0.0
 11
-668.0504461752405
 21
-455.2594708981067
 31
0.0
  0
LINE
  5
EB
330
1F
100
AcDbEntity
  8
ハッチ
  6
Continuous
 62
     6
370
     9
100
AcDbLine
 10
-668.0504461752405
 20
-455.2594708981067
 30
0.0
 11
-668.0504461752405
 21
-452.2594708981069
 31
0.0
  0
LINE
  5
EC
330
1F
100
AcDbEntity
  8
ハッチ
  6
Continuous
 62
     6
370
     9
100
AcDbLine
 10
-668.0504461752405
 20
-452.2594708981069
 30
0.0
 11
-708.0504461752406
 21
-452.2594708981069
 31
0.0
  0
LINE
  5
ED
330
1F
100
AcDbEntity
  8
ハッチ
  6
Continuous
 62
     6
370
     9
100
AcDbLine
 10
-708.0504461752398
 20
-454.1728724625983
 30
0.0
 11
-706.9638477397319
 21
-455.2594708981061
 31
0.0
  0
LINE
  5
EE
330
1F
100
AcDbEntity
  8
ハッチ
  6
Continuous
 62
     6
370
     9
100
AcDbLine
 10
-704.3069934902394
 20
-452.2594708981055
 30
0.0
 11
-701.3069934902392
 21
-455.2594708981056
 31
0.0
  0
LINE
  5
EF
330
1F
100
AcDbEntity
  8
ハッチ
  6
Continuous
 62
     6
370
     9
100
AcDbLine
 10
-698.6501392407522
 20
-452.2594708981066
 30
0.0
 11
-695.650139240754
 21
-455.2594708981047
 31
0.0
  0
LINE
  5
F0
330
1F
100
AcDbEntity
  8
ハッチ
  6
Continuous
 62
     6
370
     9
100
AcDbLine
 10
-692.9932849912598
 20
-452.259470898106
 30
0.0
 11
-689.9932849912591
 21
-455.2594708981064
 31
0.0
  0
LINE
  5
F1
330
1F
100
AcDbEntity
  8
ハッチ
  6
Continuous
 62
     6
370
     9
100
AcDbLine
 10
-687.3364307417654
 20
-452.2594708981069
 30
0.0
 11
-684.3364307417653
 21
-455.2594708981067
 31
0.0
  0
LINE
  5
F2
330
1F
100
AcDbEntity
  8
ハッチ
  6
Continuous
 62
     6
370
     9
100
AcDbLine
 10
-681.6795764922731
 20
-452.2594708981057
 30
0.0
 11
-678.6795764922729
 21
-455.2594708981061
 31
0.0
  0
LINE
  5
F3
330
1F
100
AcDbEntity
  8
ハッチ
  6
Continuous
 62
     6
370
     9
100
AcDbLine
 10
-676.0227222427786
 20
-452.2594708981069
 30
0.0
 11
-673.0227222427783
 21
-455.2594708981073
 31
0.0
  0
LINE
  5
F4
330
1F
100
AcDbEntity
  8
ハッチ
  6
Continuous
 62
     6
370
     9
100
AcDbLine
 10
-670.3658679932855
 20
-452.2594708981066
 30
0.0
 11
-668.0504461752405
 21
-454.5748927161515
 31
0.0
  0
LINE
  5
F5
330
1F
100
AcDbEntity
  8
ハッチ
  6
Continuous
 62
     6
370
     9
100
AcDbLine
 10
-708.0504461752406
 20
-452.2594708981069
 30
0.0
 11
-708.0504461752406
 21
-455.2594708981067
 31
0.0
  0
LINE
  5
F6
330
1F
100
AcDbEntity
  8
建具
  6
Continuous
 62
     4
370
     9
100
AcDbLine
 10
-711.5503414257153
 20
503.1412413986623
 30
0.0
 11
-17.55042720485378
 21
503.1412413986623
 31
0.0
  0
LINE
  5
F7
330
1F
100
AcDbEntity
  8
建具
  6
Continuous
 62
     4
370
     9
100
AcDbLine
 10
-711.5503414257153
 20
503.1412413986623
 30
0.0
 11
-711.5503414257153
 21
-190.8589202620221
 31
0.0
  0
LINE
  5
F8
330
1F
100
AcDbEntity
  8
建具
  6
Continuous
 62
     4
370
     9
100
AcDbLine
 10
-17.55042720485378
 20
503.1412413986623
 30
0.0
 11
-17.55042720485378
 21
-190.8589202620221
 31
0.0
  0
LINE
  5
F9
330
1F
100
AcDbEntity
  8
建具
  6
Continuous
 62
     4
370
     9
100
AcDbLine
 10
-711.5503414257153
 20
-190.8589202620221
 30
0.0
 11
-17.55042720485378
 21
-190.8589202620221
 31
0.0
  0
LINE
  5
FA
330
1F
100
AcDbEntity
  8
その他
  6
Continuous
 62
     7
370
     9
100
AcDbLine
 10
402.0478789870805
 20
-160.8586975661816
 30
0.0
 11
355.5477503183727
 21
-160.8586975661816
 31
0.0
  0
LINE
  5
FB
330
1F
100
AcDbEntity
  8
その他
  6
Continuous
 62
     7
370
     9
100
AcDbLine
 10
357.0477305231867
 20
-188.8587404557507
 30
0.0
 11
355.416112332731
 21
-176.4656550791144
 31
0.0
  0
LINE
  5
FC
330
1F
100
AcDbEntity
  8
その他
  6
Continuous
 62
     7
370
     9
100
AcDbLine
 10
357.0477305231867
 20
-188.8587404557507
 30
0.0
 11
358.679348713643
 21
-176.4656550791144
 31
0.0
  0
LINE
  5
FD
330
1F
100
AcDbEntity
  8
その他
  6
Continuous
 62
     7
370
     9
100
AcDbLine
 10
358.679348713643
 20
-148.4656121895451
 30
0.0
 11
355.416112332731
 21
-173.251782942818
 31
0.0
  0
LINE
  5
FE
330
1F
100
AcDbEntity
  8
その他
  6
Continuous
 62
     7
370
     9
100
AcDbLine
 10
355.416112332731
 20
-148.4656121895451
 30
0.0
 11
358.679348713643
 21
-173.251782942818
 31
0.0
  0
LINE
  5
FF
330
1F
100
AcDbEntity
  8
その他
  6
Continuous
 62
     7
370
     9
100
AcDbLine
 10
402.0478789870805
 20
-193.8588188116949
 30
0.0
 11
255.5476678384321
 21
-193.8588188116949
 31
0.0
  0
LINE
  5
100
330
1F
100
AcDbEntity
  8
その他
  6
Continuous
 62
     7
370
     9
100
AcDbLine
 10
402.0478789870805
 20
-190.8587965421106
 30
0.0
 11
305.5478327983134
 21
-190.8587965421106
 31
0.0
  0
LINE
  5
101
330
1F
100
AcDbEntity
  8
その他
  6
Continuous
 62
     7
370
     9
100
AcDbLine
 10
307.0478130031279
 20
501.1410615923911
 30
0.0
 11
305.4161948126717
 21
488.7480380757104
 31
0.0
  0
LINE
  5
102
330
1F
100
AcDbEntity
  8
その他
  6
Continuous
 62
     7
370
     9
100
AcDbLine
 10
307.0478130031279
 20
501.1410615923911
 30
0.0
 11
308.6794311935839
 21
488.7480380757104
 31
0.0
  0
LINE
  5
103
330
1F
100
AcDbEntity
  8
その他
  6
Continuous
 62
     7
370
     9
100
AcDbLine
 10
307.0478130031279
 20
506.1410780883793
 30
0.0
 11
305.4161948126717
 21
518.5341016050602
 31
0.0
  0
LINE
  5
104
330
1F
100
AcDbEntity
  8
その他
  6
Continuous
 62
     7
370
     9
100
AcDbLine
 10
307.0478130031279
 20
506.1410780883793
 30
0.0
 11
308.6794311935839
 21
518.5341016050602
 31
0.0
  0
LINE
  5
105
330
1F
100
AcDbEntity
  8
その他
  6
Continuous
 62
     7
370
     9
100
AcDbLine
 10
257.047648043246
 20
-193.8588188116949
 30
0.0
 11
255.4160298527901
 21
-181.4657334350584
 31
0.0
  0
LINE
  5
106
330
1F
100
AcDbEntity
  8
その他
  6
Continuous
 62
     7
370
     9
100
AcDbLine
 10
257.047648043246
 20
-193.8588188116949
 30
0.0
 11
258.6792662337019
 21
-181.4657334350584
 31
0.0
  0
LINE
  5
107
330
1F
100
AcDbEntity
  8
その他
  6
Continuous
 62
     7
370
     9
100
AcDbLine
 10
257.047648043246
 20
506.1410780883793
 30
0.0
 11
255.4160298527901
 21
493.7480545716986
 31
0.0
  0
LINE
  5
108
330
1F
100
AcDbEntity
  8
その他
  6
Continuous
 62
     7
370
     9
100
AcDbLine
 10
257.047648043246
 20
506.1410780883793
 30
0.0
 11
258.6792662337019
 21
493.7480545716986
 31
0.0
  0
LINE
  5
109
330
1F
100
AcDbEntity
  8
その他
  6
Continuous
 62
     7
370
     9
100
AcDbLine
 10
402.0478789870805
 20
501.1410615923911
 30
0.0
 11
305.5478327983134
 21
501.1410615923911
 31
0.0
  0
LINE
  5
10A
330
1F
100
AcDbEntity
  8
その他
  6
Continuous
 62
     7
370
     9
100
AcDbLine
 10
402.0478789870805
 20
-188.8587404557507
 30
0.0
 11
305.5478327983134
 21
-188.8587404557507
 31
0.0
  0
LINE
  5
10B
330
1F
100
AcDbEntity
  8
その他
  6
Continuous
 62
     7
370
     9
100
AcDbLine
 10
357.0477305231867
 20
-188.8587404557507
 30
0.0
 11
357.0477305231867
 21
527.506640733544
 31
0.0
  0
LINE
  5
10C
330
1F
100
AcDbEntity
  8
その他
  6
Continuous
 62
     7
370
     9
100
AcDbLine
 10
402.0478789870805
 20
506.1410780883793
 30
0.0
 11
360.7875360024948
 21
506.1410780883793
 31
0.0
  0
LINE
  5
10D
330
1F
100
AcDbEntity
  8
その他
  6
Continuous
 62
     7
370
     9
100
AcDbLine
 10
402.0478789870805
 20
503.141117678751
 30
0.0
 11
360.7875360024948
 21
503.141117678751
 31
0.0
  0
LINE
  5
10E
330
1F
100
AcDbEntity
  8
その他
  6
Continuous
 62
     7
370
     9
100
AcDbLine
 10
352.7214926642344
 20
506.1410780883793
 30
0.0
 11
255.5476678384321
 21
506.1410780883793
 31
0.0
  0
LINE
  5
10F
330
1F
100
AcDbEntity
  8
その他
  6
Continuous
 62
     7
370
     9
100
AcDbLine
 10
352.7214926642344
 20
503.141117678751
 30
0.0
 11
305.5478327983134
 21
503.141117678751
 31
0.0
  0
LINE
  5
110
330
1F
100
AcDbEntity
  8
その他
  6
Continuous
 62
     7
370
     9
100
AcDbLine
 10
412.0476645392344
 20
90.71058640895556
 30
0.0
 11
506.6131024747284
 21
90.71058640895556
 31
0.0
  0
LINE
  5
111
330
1F
100
AcDbEntity
  8
その他
  6
Continuous
 62
     7
370
     9
100
AcDbLine
 10
412.0476645392344
 20
90.71058640895556
 30
0.0
 11
424.4406880559148
 21
92.3421427394561
 31
0.0
  0
LINE
  5
112
330
1F
100
AcDbEntity
  8
その他
  6
Continuous
 62
     7
370
     9
100
AcDbLine
 10
412.0476645392344
 20
90.71058640895556
 30
0.0
 11
424.4406880559148
 21
89.07903007845518
 31
0.0
  0
LINE
  5
113
330
1F
100
AcDbEntity
  8
その他
  6
Continuous
 62
     7
370
     9
100
AcDbLine
 10
452.0477965071393
 20
90.71058640895556
 30
0.0
 11
439.6547729904586
 21
92.3421427394561
 31
0.0
  0
LINE
  5
114
330
1F
100
AcDbEntity
  8
その他
  6
Continuous
 62
     7
370
     9
100
AcDbLine
 10
452.0477965071393
 20
90.71058640895556
 30
0.0
 11
439.6547729904586
 21
89.07903007845518
 31
0.0
  0
LINE
  5
115
330
1F
100
AcDbEntity
  8
その他
  6
Continuous
 62
     7
370
     9
100
AcDbLine
 10
489.047720625594
 20
90.71058640895556
 30
0.0
 11
501.4407441422748
 21
92.3421427394561
 31
0.0
  0
LINE
  5
116
330
1F
100
AcDbEntity
  8
その他
  6
Continuous
 62
     7
370
     9
100
AcDbLine
 10
489.047720625594
 20
90.71058640895556
 30
0.0
 11
501.4407441422748
 21
89.07903007845518
 31
0.0
  0
LINE
  5
117
330
1F
100
AcDbEntity
  8
その他
  6
Continuous
 62
     7
370
     9
100
AcDbLine
 10
465.0101790557039
 20
127.3149779709278
 30
0.0
 11
480.3508294595261
 21
127.3149779709278
 31
0.0
  0
LINE
  5
118
330
1F
100
AcDbEntity
  8
その他
  6
Continuous
 62
     7
370
     9
100
AcDbLine
 10
465.0101790557039
 20
127.3149779709278
 30
0.0
 11
456.0308353320971
 21
91.92638197747348
 31
0.0
  0
LINE
  5
119
330
1F
100
AcDbEntity
  8
建具
  6
JWW_DASHED3
 62
     4
370
     9
100
AcDbLine
 10
-664.5503843152845
 20
456.1412842882315
 30
0.0
 11
-664.5503843152845
 21
-143.8589012916356
 31
0.0
  0
LINE
  5
11A
330
1F
100
AcDbEntity
  8
建具
  6
JWW_DASHED3
 62
     4
370
     9
100
AcDbLine
 10
-664.5503843152845
 20
-143.8589012916356
 30
0.0
 11
-64.55056989515128
 21
-143.8589012916356
 31
0.0
  0
LINE
  5
11B
330
1F
100
AcDbEntity
  8
建具
  6
JWW_DASHED3
 62
     4
370
     9
100
AcDbLine
 10
-664.5503843152845
 20
456.1412842882315
 30
0.0
 11
-64.55056989515128
 21
456.1412842882315
 31
0.0
  0
LINE
  5
11C
330
1F
100
AcDbEntity
  8
建具
  6
JWW_DASHED3
 62
     4
370
     9
100
AcDbLine
 10
-64.55056989515128
 20
456.1412842882315
 30
0.0
 11
-64.55056989515128
 21
-143.8589012916356
 31
0.0
  0
LINE
  5
11D
330
1F
100
AcDbEntity
  8
建具
  6
Continuous
 62
     4
370
     9
100
AcDbLine
 10
-17.55042720485378
 20
-392.2595946180185
 30
0.0
 11
-14.55046679522525
 21
-392.2595946180185
 31
0.0
  0
LINE
  5
11E
330
1F
100
AcDbEntity
  8
建具
  6
Continuous
 62
     4
370
     9
100
AcDbLine
 10
-711.5504651456265
 20
-392.2595946180185
 30
0.0
 11
-714.550425555255
 21
-392.2595946180185
 31
0.0
  0
LINE
  5
11F
330
1F
100
AcDbEntity
  8
建具
  6
Continuous
 62
     4
370
     9
100
AcDbLine
 10
412.0479119790573
 20
503.141117678751
 30
0.0
 11
412.0479119790573
 21
506.1410780883793
 31
0.0
  0
LINE
  5
120
330
1F
100
AcDbEntity
  8
建具
  6
Continuous
 62
     4
370
     9
100
AcDbLine
 10
412.0479119790573
 20
-190.8587965421106
 30
0.0
 11
412.0479119790573
 21
-193.8588188116949
 31
0.0
  0
LINE
  5
121
330
1F
100
AcDbEntity
  8
建具
  6
Continuous
 62
     4
370
     9
100
AcDbLine
 10
-14.55046679522525
 20
506.1412018082906
 30
0.0
 11
-14.55046679522525
 21
-193.8589425316059
 31
0.0
  0
LINE
  5
122
330
1F
100
AcDbEntity
  8
建具
  6
Continuous
 62
     4
370
     9
100
AcDbLine
 10
-714.550425555255
 20
-193.8589425316059
 30
0.0
 11
-14.55046679522525
 21
-193.8589425316059
 31
0.0
  0
LINE
  5
123
330
1F
100
AcDbEntity
  8
建具
  6
Continuous
 62
     4
370
     9
100
AcDbLine
 10
-711.5503414257153
 20
-190.8589202620221
 30
0.0
 11
-714.550425555255
 21
-193.8588806716504
 31
0.0
  0
LINE
  5
124
330
1F
100
AcDbEntity
  8
建具
  6
Continuous
 62
     4
370
     9
100
AcDbLine
 10
-711.5503414257153
 20
503.1412413986623
 30
0.0
 11
-714.550425555255
 21
506.1412018082906
 31
0.0
  0
LINE
  5
125
330
1F
100
AcDbEntity
  8
建具
  6
Continuous
 62
     4
370
     9
100
AcDbLine
 10
-714.550425555255
 20
506.1412018082906
 30
0.0
 11
-14.55046679522525
 21
506.1412018082906
 31
0.0
  0
LINE
  5
126
330
1F
100
AcDbEntity
  8
建具
  6
Continuous
 62
     4
370
     9
100
AcDbLine
 10
-714.550425555255
 20
506.1412018082906
 30
0.0
 11
-714.550425555255
 21
-193.8589425316059
 31
0.0
  0
LINE
  5
127
330
1F
100
AcDbEntity
  8
建具
  6
Continuous
 62
     4
370
     9
100
AcDbLine
 10
-17.55042720485378
 20
503.1412413986623
 30
0.0
 11
-14.55021935540273
 21
506.1412018082906
 31
0.0
  0
LINE
  5
128
330
1F
100
AcDbEntity
  8
建具
  6
Continuous
 62
     4
370
     9
100
AcDbLine
 10
-17.55042720485378
 20
-190.8589202620221
 30
0.0
 11
-14.55021935540273
 21
-193.8589425316059
 31
0.0
  0
LINE
  5
129
330
1F
100
AcDbEntity
  8
その他
  6
Continuous
 62
     7
370
     9
100
AcDbLine
 10
307.0478130031279
 20
-188.8587404557507
 30
0.0
 11
305.4161948126717
 21
-176.46571693907
 31
0.0
  0
LINE
  5
12A
330
1F
100
AcDbEntity
  8
その他
  6
Continuous
 62
     7
370
     9
100
AcDbLine
 10
307.0478130031279
 20
-188.8587404557507
 30
0.0
 11
308.6794311935839
 21
-176.46571693907
 31
0.0
  0
LINE
  5
12B
330
1F
100
AcDbEntity
  8
その他
  6
Continuous
 62
     7
370
     9
100
AcDbLine
 10
307.0478130031279
 20
-193.858756951739
 30
0.0
 11
305.4161948126717
 21
-206.2517804684199
 31
0.0
  0
LINE
  5
12C
330
1F
100
AcDbEntity
  8
その他
  6
Continuous
 62
     7
370
     9
100
AcDbLine
 10
307.0478130031279
 20
-193.858756951739
 30
0.0
 11
308.6794311935839
 21
-206.2517804684199
 31
0.0
  0
LINE
  5
12D
330
1F
100
AcDbEntity
  8
その他
  6
Continuous
 62
     7
370
     9
100
AcDbLine
 10
307.0478130031279
 20
-221.3489500867686
 30
0.0
 11
307.0478130031279
 21
533.0443439641183
 31
0.0
  0
LINE
  5
12E
330
1F
100
AcDbEntity
  8
通り芯
  6
Continuous
 62
     3
370
     9
100
AcDbLine
 10
-632.1001362156223
 20
-469.2596507043783
 30
0.0
 11
-97.00069427490234
 21
-469.2596507043783
 31
0.0
  0
LINE
  5
12F
330
1F
100
AcDbEntity
  8
通り芯
  6
Continuous
 62
     3
370
     9
100
AcDbLine
 10
-252.6396622528901
 20
-432.5883266703834
 30
0.0
 11
-250.9612779359558
 21
-433.9310588679129
 31
0.0
  0
LINE
  5
130
330
1F
100
AcDbEntity
  8
通り芯
  6
Continuous
 62
     3
370
     9
100
AcDbLine
 10
-248.1395979185362
 20
-433.9310588679129
 30
0.0
 11
-246.4612136016019
 21
-432.5883266703834
 31
0.0
  0
LINE
  5
131
330
1F
100
AcDbEntity
  8
通り芯
  6
Continuous
 62
     3
370
     9
100
AcDbLine
 10
-76.63961358972472
 20
-433.9310588679129
 30
0.0
 11
-74.96141485265781
 21
-432.5883266703834
 31
0.0
  0
LINE
  5
132
330
1F
100
AcDbEntity
  8
通り芯
  6
Continuous
 62
     3
370
     9
100
AcDbLine
 10
-253.6985809738572
 20
-467.9254551807298
 30
0.0
 11
-255.0562832806561
 21
-443.7075299801386
 31
0.0
  0
LINE
  5
133
330
1F
100
AcDbEntity
  8
通り芯
  6
Continuous
 62
     3
370
     9
100
AcDbLine
 10
-244.0445925738359
 20
-443.7075299801386
 30
0.0
 11
-245.4021711607237
 21
-467.9254551807298
 31
0.0
  0
LINE
  5
134
330
1F
100
AcDbEntity
  8
通り芯
  6
Continuous
 62
     3
370
     9
100
AcDbLine
 10
-77.57666819804399
 20
-434.2596589523725
 30
0.0
 11
-651.5242860123917
 21
-434.2596589523725
 31
0.0
  0
LINE
  5
135
330
1F
100
AcDbEntity
  8
通り芯
  6
Continuous
 62
     3
370
     9
100
AcDbLine
 10
-250.5504041104703
 20
443.6412430482611
 30
0.0
 11
-248.5503480241105
 21
443.6412430482611
 31
0.0
  0
LINE
  5
136
330
1F
100
AcDbEntity
  8
通り芯
  6
Continuous
 62
     3
370
     9
100
AcDbLine
 10
-253.0504123584643
 20
446.1411275763439
 30
0.0
 11
-246.0504634960277
 21
446.1411275763439
 31
0.0
  0
LINE
  5
137
330
1F
100
AcDbEntity
  8
通り芯
  6
Continuous
 62
     3
370
     9
100
AcDbLine
 10
-253.0504123584643
 20
446.1411275763439
 30
0.0
 11
-250.5504041104703
 21
443.6412430482611
 31
0.0
  0
LINE
  5
138
330
1F
100
AcDbEntity
  8
通り芯
  6
Continuous
 62
     3
370
     9
100
AcDbLine
 10
-248.5503480241105
 20
443.6412430482611
 30
0.0
 11
-246.0504634960277
 21
446.1411275763439
 31
0.0
  0
LINE
  5
139
330
1F
100
AcDbEntity
  8
通り芯
  6
Continuous
 62
     3
370
     9
100
AcDbLine
 10
-77.05036369529921
 20
270.1411407731342
 30
0.0
 11
-77.05036369529921
 21
272.1411968594941
 31
0.0
  0
LINE
  5
13A
330
1F
100
AcDbEntity
  8
通り芯
  6
Continuous
 62
     3
370
     9
100
AcDbLine
 10
-74.5504791672164
 20
267.6412562450516
 30
0.0
 11
-74.5504791672164
 21
274.6412051074882
 31
0.0
  0
LINE
  5
13B
330
1F
100
AcDbEntity
  8
通り芯
  6
Continuous
 62
     3
370
     9
100
AcDbLine
 10
-74.5504791672164
 20
267.6412562450516
 30
0.0
 11
-77.05036369529921
 21
270.1411407731342
 31
0.0
  0
LINE
  5
13C
330
1F
100
AcDbEntity
  8
通り芯
  6
Continuous
 62
     3
370
     9
100
AcDbLine
 10
-77.05036369529921
 20
272.1411968594941
 30
0.0
 11
-74.5504791672164
 21
274.6412051074882
 31
0.0
  0
LINE
  5
13D
330
1F
100
AcDbEntity
  8
通り芯
  6
Continuous
 62
     3
370
     9
100
AcDbLine
 10
-259.0504568976324
 20
274.6412051074882
 30
0.0
 11
-470.0504354528479
 21
274.6412051074882
 31
0.0
  0
LINE
  5
13E
330
1F
100
AcDbEntity
  8
通り芯
  6
Continuous
 62
     3
370
     9
100
AcDbLine
 10
-253.0504123584643
 20
280.641125926745
 30
0.0
 11
-253.0504123584643
 21
446.1411275763439
 31
0.0
  0
LINE
  5
13F
330
1F
100
AcDbEntity
  8
通り芯
  6
Continuous
 62
     3
370
     9
100
AcDbLine
 10
-259.0504568976324
 20
267.6412562450516
 30
0.0
 11
-470.0504354528479
 21
267.6412562450516
 31
0.0
  0
LINE
  5
140
330
1F
100
AcDbEntity
  8
通り芯
  6
Continuous
 62
     3
370
     9
100
AcDbLine
 10
-253.0504123584643
 20
261.6412117058835
 30
0.0
 11
-253.0504123584643
 21
50.64110943075682
 31
0.0
  0
LINE
  5
141
330
1F
100
AcDbEntity
  8
通り芯
  6
Continuous
 62
     3
370
     9
100
AcDbLine
 10
-246.0504634960277
 20
261.6412117058835
 30
0.0
 11
-246.0504634960277
 21
50.64110943075682
 31
0.0
  0
LINE
  5
142
330
1F
100
AcDbEntity
  8
通り芯
  6
Continuous
 62
     3
370
     9
100
AcDbLine
 10
-240.0504189568596
 20
267.6412562450516
 30
0.0
 11
-74.5504791672164
 21
267.6412562450516
 31
0.0
  0
LINE
  5
143
330
1F
100
AcDbEntity
  8
通り芯
  6
Continuous
 62
     3
370
     9
100
AcDbLine
 10
-246.0504634960277
 20
280.641125926745
 30
0.0
 11
-246.0504634960277
 21
446.1411275763439
 31
0.0
  0
LINE
  5
144
330
1F
100
AcDbEntity
  8
通り芯
  6
Continuous
 62
     3
370
     9
100
AcDbLine
 10
-240.0504189568596
 20
274.6412051074882
 30
0.0
 11
-74.5504791672164
 21
274.6412051074882
 31
0.0
  0
LINE
  5
145
330
1F
100
AcDbEntity
  8
通り芯
  6
Continuous
 62
     3
370
     9
100
AcDbLine
 10
-470.0504354528479
 20
272.1411968594941
 30
0.0
 11
-259.0504568976324
 21
272.1411968594941
 31
0.0
  0
LINE
  5
146
330
1F
100
AcDbEntity
  8
通り芯
  6
Continuous
 62
     3
370
     9
100
AcDbLine
 10
-250.5504041104703
 20
280.641125926745
 30
0.0
 11
-250.5504041104703
 21
443.6412430482611
 31
0.0
  0
LINE
  5
147
330
1F
100
AcDbEntity
  8
通り芯
  6
Continuous
 62
     3
370
     9
100
AcDbLine
 10
-470.0504354528479
 20
270.1411407731342
 30
0.0
 11
-259.0504568976324
 21
270.1411407731342
 31
0.0
  0
LINE
  5
148
330
1F
100
AcDbEntity
  8
通り芯
  6
Continuous
 62
     3
370
     9
100
AcDbLine
 10
-250.5504041104703
 20
50.64110943075682
 30
0.0
 11
-250.5504041104703
 21
261.6412117058835
 31
0.0
  0
LINE
  5
149
330
1F
100
AcDbEntity
  8
通り芯
  6
Continuous
 62
     3
370
     9
100
AcDbLine
 10
-248.5503480241105
 20
50.64110943075682
 30
0.0
 11
-248.5503480241105
 21
261.6412117058835
 31
0.0
  0
LINE
  5
14A
330
1F
100
AcDbEntity
  8
通り芯
  6
Continuous
 62
     3
370
     9
100
AcDbLine
 10
-240.0504189568596
 20
270.1411407731342
 30
0.0
 11
-77.05036369529921
 21
270.1411407731342
 31
0.0
  0
LINE
  5
14B
330
1F
100
AcDbEntity
  8
通り芯
  6
Continuous
 62
     3
370
     9
100
AcDbLine
 10
-240.0504189568596
 20
272.1411968594941
 30
0.0
 11
-77.05036369529921
 21
272.1411968594941
 31
0.0
  0
LINE
  5
14C
330
1F
100
AcDbEntity
  8
通り芯
  6
Continuous
 62
     3
370
     9
100
AcDbLine
 10
-248.5503480241105
 20
280.641125926745
 30
0.0
 11
-248.5503480241105
 21
443.6412430482611
 31
0.0
  0
LINE
  5
14D
330
1F
100
AcDbEntity
  8
通り芯
  6
Continuous
 62
     3
370
     9
100
AcDbLine
 10
446.0478756878825
 20
495.816898928751
 30
0.0
 11
446.0478756878825
 21
478.7227662218253
 31
0.0
  0
LINE
  5
14E
330
1F
100
AcDbEntity
  8
通り芯
  6
Continuous
 62
     3
370
     9
100
AcDbLine
 10
470.6547762896565
 20
473.2406132314326
 30
0.0
 11
449.7629371849268
 21
474.7329228017451
 31
0.0
  0
LINE
  5
14F
330
1F
100
AcDbEntity
  8
通り芯
  6
Continuous
 62
     3
370
     9
100
AcDbLine
 10
472.0481099309148
 20
468.4420127510694
 30
0.0
 11
472.0481099309148
 21
471.7444683438692
 31
0.0
  0
LINE
  5
150
330
1F
100
AcDbEntity
  8
通り芯
  6
Continuous
 62
     3
370
     9
100
AcDbLine
 10
463.3409500122073
 20
465.7544451175178
 30
0.0
 11
470.7601856540992
 21
466.9572500953473
 31
0.0
  0
LINE
  5
151
330
1F
100
AcDbEntity
  8
通り芯
  6
Continuous
 62
     3
370
     9
100
AcDbLine
 10
432.0479779630097
 20
262.1410401476064
 30
0.0
 11
448.0479317742427
 21
261.1410121044266
 31
0.0
  0
LINE
  5
152
330
1F
100
AcDbEntity
  8
通り芯
  6
Continuous
 62
     3
370
     9
100
AcDbLine
 10
448.0479317742427
 20
261.1410121044266
 30
0.0
 11
432.0479779630097
 21
262.6411160291522
 31
0.0
  0
LINE
  5
153
330
1F
100
AcDbEntity
  8
通り芯
  6
Continuous
 62
     3
370
     9
100
AcDbLine
 10
448.0479317742427
 20
261.1410121044266
 30
0.0
 11
448.0479317742427
 21
245.1411820131048
 31
0.0
  0
LINE
  5
154
330
1F
100
AcDbEntity
  8
通り芯
  6
Continuous
 62
     3
370
     9
100
AcDbLine
 10
452.3766440314219
 20
268.0521300705371
 30
0.0
 11
453.7192525090398
 21
269.7303906675601
 31
0.0
  0
LINE
  5
155
330
1F
100
AcDbEntity
  8
通り芯
  6
Continuous
 62
     3
370
     9
100
AcDbLine
 10
453.7192525090398
 20
272.552194404891
 30
0.0
 11
452.3766440314219
 21
274.2303312820025
 31
0.0
  0
LINE
  5
156
330
1F
100
AcDbEntity
  8
通り芯
  6
Continuous
 62
     3
370
     9
100
AcDbLine
 10
487.713772541768
 20
266.9929639097476
 30
0.0
 11
463.4958473411768
 21
265.6353853228597
 31
0.0
  0
LINE
  5
157
330
1F
100
AcDbEntity
  8
通り芯
  6
Continuous
 62
     3
370
     9
100
AcDbLine
 10
463.4958473411768
 20
276.64707602968
 30
0.0
 11
487.713772541768
 21
275.2894974427923
 31
0.0
  0
LINE
  5
158
330
1F
100
AcDbEntity
  8
通り芯
  6
Continuous
 62
     3
370
     9
100
AcDbLine
 10
-469.0752751118427
 20
-439.2596754483606
 30
0.0
 11
-260.0256172386373
 21
-439.2596754483606
 31
0.0
  0
LINE
  5
159
330
1F
100
AcDbEntity
  8
躯体
  6
Continuous
 62
     2
370
     9
100
AcDbLine
 10
446.8480960742846
 20
480.1410912851699
 30
0.0
 11
446.8480960742846
 21
494.1412364498659
 31
0.0
  0
LINE
  5
15A
330
1F
100
AcDbEntity
  8
躯体
  6
Continuous
 62
     2
370
     9
100
AcDbLine
 10
446.8480960742846
 20
480.1410912851699
 30
0.0
 11
448.4477945276211
 21
481.6162037878092
 31
0.0
  0
LINE
  5
15B
330
1F
100
AcDbEntity
  8
躯体
  6
Continuous
 62
     2
370
     9
100
AcDbLine
 10
446.8480960742846
 20
494.1412364498659
 30
0.0
 11
448.4477945276211
 21
492.6661239472264
 31
0.0
  0
LINE
  5
15C
330
1F
100
AcDbEntity
  8
躯体
  6
Continuous
 62
     2
370
     9
100
AcDbLine
 10
446.8480960742846
 20
484.3787456876192
 30
0.0
 11
452.0480439469623
 21
484.3787456876192
 31
0.0
  0
LINE
  5
15D
330
1F
100
AcDbEntity
  8
躯体
  6
Continuous
 62
     2
370
     9
100
AcDbLine
 10
446.8480960742846
 20
489.9035820474165
 30
0.0
 11
452.0480439469623
 21
489.9035820474165
 31
0.0
  0
LINE
  5
15E
330
1F
100
AcDbEntity
  8
躯体
  6
Continuous
 62
     2
370
     9
100
AcDbLine
 10
446.0478756878825
 20
480.1410912851699
 30
0.0
 11
446.8480960742846
 21
480.1410912851699
 31
0.0
  0
LINE
  5
15F
330
1F
100
AcDbEntity
  8
躯体
  6
Continuous
 62
     2
370
     9
100
AcDbLine
 10
446.0478756878825
 20
494.1412364498659
 30
0.0
 11
446.8480960742846
 21
494.1412364498659
 31
0.0
  0
LINE
  5
160
330
1F
100
AcDbEntity
  8
躯体
  6
Continuous
 62
     2
370
     9
100
AcDbLine
 10
448.4477945276211
 20
481.6162037878092
 30
0.0
 11
452.0480439469623
 21
481.6162037878092
 31
0.0
  0
LINE
  5
161
330
1F
100
AcDbEntity
  8
躯体
  6
Continuous
 62
     2
370
     9
100
AcDbLine
 10
452.0480439469623
 20
481.6162037878092
 30
0.0
 11
452.0480439469623
 21
492.6661239472264
 31
0.0
  0
LINE
  5
162
330
1F
100
AcDbEntity
  8
躯体
  6
Continuous
 62
     2
370
     9
100
AcDbLine
 10
455.0480043565906
 20
484.1410797379781
 30
0.0
 11
455.0480043565906
 21
490.1411242771462
 31
0.0
  0
LINE
  5
163
330
1F
100
AcDbEntity
  8
躯体
  6
Continuous
 62
     2
370
     9
100
AcDbLine
 10
455.0480043565906
 20
484.1410797379781
 30
0.0
 11
456.0479086798594
 21
485.1411077811581
 31
0.0
  0
LINE
  5
164
330
1F
100
AcDbEntity
  8
躯体
  6
Continuous
 62
     2
370
     9
100
AcDbLine
 10
456.0479086798594
 20
489.1412199538777
 30
0.0
 11
455.0480043565906
 21
490.1411242771462
 31
0.0
  0
LINE
  5
165
330
1F
100
AcDbEntity
  8
躯体
  6
Continuous
 62
     2
370
     9
100
AcDbLine
 10
448.4477945276211
 20
492.6661239472264
 30
0.0
 11
452.0480439469623
 21
492.6661239472264
 31
0.0
  0
LINE
  5
166
330
1F
100
AcDbEntity
  8
躯体
  6
Continuous
 62
     2
370
     9
100
AcDbLine
 10
456.0479086798594
 20
485.1411077811581
 30
0.0
 11
456.0479086798594
 21
489.1412199538777
 31
0.0
  0
LINE
  5
167
330
1F
100
AcDbEntity
  8
躯体
  6
Continuous
 62
     2
370
     9
100
AcDbLine
 10
427.0479614670211
 20
477.1411308755415
 30
0.0
 11
427.0479614670211
 21
501.1410615923911
 31
0.0
  0
LINE
  5
168
330
1F
100
AcDbEntity
  8
躯体
  6
Continuous
 62
     2
370
     9
100
AcDbLine
 10
432.0479779630097
 20
473.1410187028218
 30
0.0
 11
432.0479779630097
 21
501.1410615923911
 31
0.0
  0
LINE
  5
169
330
1F
100
AcDbEntity
  8
躯体
  6
Continuous
 62
     2
370
     9
100
AcDbLine
 10
432.0479779630097
 20
477.1411308755415
 30
0.0
 11
412.0479119790573
 21
477.1411308755415
 31
0.0
  0
LINE
  5
16A
330
1F
100
AcDbEntity
  8
躯体
  6
Continuous
 62
     2
370
     9
100
AcDbLine
 10
432.0479779630097
 20
473.1410187028218
 30
0.0
 11
412.0479119790573
 21
473.1410187028218
 31
0.0
  0
LINE
  5
16B
330
1F
100
AcDbEntity
  8
躯体
  6
Continuous
 62
     2
370
     9
100
AcDbLine
 10
432.0479779630097
 20
501.1410615923911
 30
0.0
 11
427.0479614670211
 21
501.1410615923911
 31
0.0
  0
LINE
  5
16C
330
1F
100
AcDbEntity
  8
躯体
  6
Continuous
 62
     2
370
     9
100
AcDbLine
 10
452.0480439469623
 20
490.1411242771462
 30
0.0
 11
455.0480043565906
 21
490.1411242771462
 31
0.0
  0
LINE
  5
16D
330
1F
100
AcDbEntity
  8
躯体
  6
Continuous
 62
     2
370
     9
100
AcDbLine
 10
456.0479086798594
 20
489.1412199538777
 30
0.0
 11
452.0480439469623
 21
489.1412199538777
 31
0.0
  0
LINE
  5
16E
330
1F
100
AcDbEntity
  8
躯体
  6
Continuous
 62
     2
370
     9
100
AcDbLine
 10
452.0480439469623
 20
485.1411077811581
 30
0.0
 11
456.0479086798594
 21
485.1411077811581
 31
0.0
  0
LINE
  5
16F
330
1F
100
AcDbEntity
  8
躯体
  6
Continuous
 62
     2
370
     9
100
AcDbLine
 10
452.0480439469623
 20
484.1410797379781
 30
0.0
 11
455.0480043565906
 21
484.1410797379781
 31
0.0
  0
LINE
  5
170
330
1F
100
AcDbEntity
  8
通り芯
  6
Continuous
 62
     3
370
     9
100
AcDbLine
 10
432.0479779630097
 20
491.6411044819604
 30
0.0
 11
446.0478756878825
 21
491.6411044819604
 31
0.0
  0
LINE
  5
171
330
1F
100
AcDbEntity
  8
通り芯
  6
Continuous
 62
     3
370
     9
100
AcDbLine
 10
432.0479779630097
 20
482.6412232530753
 30
0.0
 11
446.0478756878825
 21
482.6412232530753
 31
0.0
  0
LINE
  5
172
330
1F
100
AcDbEntity
  8
通り芯
  6
Continuous
 62
     3
370
     9
100
AcDbLine
 10
444.7339702296907
 20
497.3053731818126
 30
0.0
 11
432.0479779630097
 21
498.8912150050812
 31
0.0
  0
LINE
  5
173
330
1F
100
AcDbEntity
  8
仕上
  6
Continuous
 62
     4
370
     9
100
AcDbLine
 10
443.0479152782544
 20
255.6411671667154
 30
0.0
 11
443.0479152782544
 21
250.641026950816
 31
0.0
  0
LINE
  5
174
330
1F
100
AcDbEntity
  8
仕上
  6
Continuous
 62
     4
370
     9
100
AcDbLine
 10
429.5480934349268
 20
255.6411671667154
 30
0.0
 11
429.5480934349268
 21
250.641026950816
 31
0.0
  0
LINE
  5
175
330
1F
100
AcDbEntity
  8
仕上
  6
Continuous
 62
     4
370
     9
100
AcDbLine
 10
415.0478723886852
 20
255.6411671667154
 30
0.0
 11
415.0478723886852
 21
250.641026950816
 31
0.0
  0
LINE
  5
176
330
1F
100
AcDbEntity
  8
仕上
  6
Continuous
 62
     2
370
     9
100
AcDbLine
 10
435.5480142541836
 20
256.641071489984
 30
0.0
 11
442.5480868365315
 21
256.641071489984
 31
0.0
  0
LINE
  5
177
330
1F
100
AcDbEntity
  8
仕上
  6
Continuous
 62
     2
370
     9
100
AcDbLine
 10
435.5480142541836
 20
249.6411226275472
 30
0.0
 11
435.5480142541836
 21
256.641071489984
 31
0.0
  0
LINE
  5
178
330
1F
100
AcDbEntity
  8
仕上
  6
Continuous
 62
     2
370
     9
100
AcDbLine
 10
442.5480868365315
 20
256.641071489984
 30
0.0
 11
442.5480868365315
 21
249.6411226275472
 31
0.0
  0
LINE
  5
179
330
1F
100
AcDbEntity
  8
仕上
  6
Continuous
 62
     4
370
     9
100
AcDbLine
 10
415.0478723886852
 20
255.6411671667154
 30
0.0
 11
435.5480142541836
 21
255.6411671667154
 31
0.0
  0
LINE
  5
17A
330
1F
100
AcDbEntity
  8
仕上
  6
Continuous
 62
     4
370
     9
100
AcDbLine
 10
442.5480868365315
 20
255.6411671667154
 30
0.0
 11
443.0479152782544
 21
255.6411671667154
 31
0.0
  0
LINE
  5
17B
330
1F
100
AcDbEntity
  8
通り芯
  6
Continuous
 62
     3
370
     9
100
AcDbLine
 10
-478.5504882400099
 20
443.6412430482611
 30
0.0
 11
-480.5504206064585
 21
443.6412430482611
 31
0.0
  0
LINE
  5
17C
330
1F
100
AcDbEntity
  8
通り芯
  6
Continuous
 62
     3
370
     9
100
AcDbLine
 10
-476.0504799920159
 20
446.1411275763439
 30
0.0
 11
-483.0505525743638
 21
446.1411275763439
 31
0.0
  0
LINE
  5
17D
330
1F
100
AcDbEntity
  8
通り芯
  6
Continuous
 62
     3
370
     9
100
AcDbLine
 10
-476.0504799920159
 20
446.1411275763439
 30
0.0
 11
-478.5504882400099
 21
443.6412430482611
 31
0.0
  0
LINE
  5
17E
330
1F
100
AcDbEntity
  8
通り芯
  6
Continuous
 62
     3
370
     9
100
AcDbLine
 10
-480.5504206064585
 20
443.6412430482611
 30
0.0
 11
-483.0505525743638
 21
446.1411275763439
 31
0.0
  0
LINE
  5
17F
330
1F
100
AcDbEntity
  8
通り芯
  6
Continuous
 62
     3
370
     9
100
AcDbLine
 10
-652.050343075314
 20
270.1411407731342
 30
0.0
 11
-652.050343075314
 21
272.1411968594941
 31
0.0
  0
LINE
  5
180
330
1F
100
AcDbEntity
  8
通り芯
  6
Continuous
 62
     3
370
     9
100
AcDbLine
 10
-654.5503513233081
 20
267.6412562450516
 30
0.0
 11
-654.5503513233081
 21
274.6412051074882
 31
0.0
  0
LINE
  5
181
330
1F
100
AcDbEntity
  8
通り芯
  6
Continuous
 62
     3
370
     9
100
AcDbLine
 10
-654.5503513233081
 20
267.6412562450516
 30
0.0
 11
-652.050343075314
 21
270.1411407731342
 31
0.0
  0
LINE
  5
182
330
1F
100
AcDbEntity
  8
通り芯
  6
Continuous
 62
     3
370
     9
100
AcDbLine
 10
-652.050343075314
 20
272.1411968594941
 30
0.0
 11
-654.5503513233081
 21
274.6412051074882
 31
0.0
  0
LINE
  5
183
330
1F
100
AcDbEntity
  8
通り芯
  6
Continuous
 62
     3
370
     9
100
AcDbLine
 10
-476.0504799920159
 20
280.641125926745
 30
0.0
 11
-476.0504799920159
 21
446.1411275763439
 31
0.0
  0
LINE
  5
184
330
1F
100
AcDbEntity
  8
通り芯
  6
Continuous
 62
     3
370
     9
100
AcDbLine
 10
-476.0504799920159
 20
261.6412117058835
 30
0.0
 11
-476.0504799920159
 21
50.64110943075682
 31
0.0
  0
LINE
  5
185
330
1F
100
AcDbEntity
  8
通り芯
  6
Continuous
 62
     3
370
     9
100
AcDbLine
 10
-483.0505525743638
 20
261.6412117058835
 30
0.0
 11
-483.0505525743638
 21
50.64110943075682
 31
0.0
  0
LINE
  5
186
330
1F
100
AcDbEntity
  8
通り芯
  6
Continuous
 62
     3
370
     9
100
AcDbLine
 10
-489.0504733936206
 20
267.6412562450516
 30
0.0
 11
-654.5503513233081
 21
267.6412562450516
 31
0.0
  0
LINE
  5
187
330
1F
100
AcDbEntity
  8
通り芯
  6
Continuous
 62
     3
370
     9
100
AcDbLine
 10
-483.0505525743638
 20
280.641125926745
 30
0.0
 11
-483.0505525743638
 21
446.1411275763439
 31
0.0
  0
LINE
  5
188
330
1F
100
AcDbEntity
  8
通り芯
  6
Continuous
 62
     3
370
     9
100
AcDbLine
 10
-489.0504733936206
 20
274.6412051074882
 30
0.0
 11
-654.5503513233081
 21
274.6412051074882
 31
0.0
  0
LINE
  5
189
330
1F
100
AcDbEntity
  8
通り芯
  6
Continuous
 62
     3
370
     9
100
AcDbLine
 10
-478.5504882400099
 20
280.641125926745
 30
0.0
 11
-478.5504882400099
 21
443.6412430482611
 31
0.0
  0
LINE
  5
18A
330
1F
100
AcDbEntity
  8
通り芯
  6
Continuous
 62
     3
370
     9
100
AcDbLine
 10
-478.5504882400099
 20
50.64110943075682
 30
0.0
 11
-478.5504882400099
 21
261.6412117058835
 31
0.0
  0
LINE
  5
18B
330
1F
100
AcDbEntity
  8
通り芯
  6
Continuous
 62
     3
370
     9
100
AcDbLine
 10
-480.5504206064585
 20
50.64110943075682
 30
0.0
 11
-480.5504206064585
 21
261.6412117058835
 31
0.0
  0
LINE
  5
18C
330
1F
100
AcDbEntity
  8
通り芯
  6
Continuous
 62
     3
370
     9
100
AcDbLine
 10
-489.0504733936206
 20
270.1411407731342
 30
0.0
 11
-652.050343075314
 21
270.1411407731342
 31
0.0
  0
LINE
  5
18D
330
1F
100
AcDbEntity
  8
通り芯
  6
Continuous
 62
     3
370
     9
100
AcDbLine
 10
-489.0504733936206
 20
272.1411968594941
 30
0.0
 11
-652.050343075314
 21
272.1411968594941
 31
0.0
  0
LINE
  5
18E
330
1F
100
AcDbEntity
  8
通り芯
  6
Continuous
 62
     3
370
     9
100
AcDbLine
 10
-480.5504206064585
 20
280.641125926745
 30
0.0
 11
-480.5504206064585
 21
443.6412430482611
 31
0.0
  0
LINE
  5
18F
330
1F
100
AcDbEntity
  8
通り芯
  6
Continuous
 62
     3
370
     9
100
AcDbLine
 10
459.0478690894878
 20
460.8046589055246
 30
0.0
 11
459.0478690894878
 21
281.6164099876613
 31
0.0
  0
LINE
  5
190
330
1F
100
AcDbEntity
  8
躯体
  6
Continuous
 62
     2
370
     9
100
AcDbLine
 10
446.0478756878825
 20
490.1411242771462
 30
0.0
 11
432.0479779630097
 21
490.1411242771462
 31
0.0
  0
LINE
  5
191
330
1F
100
AcDbEntity
  8
躯体
  6
Continuous
 62
     2
370
     9
100
AcDbLine
 10
446.0478756878825
 20
489.1412199538777
 30
0.0
 11
432.0479779630097
 21
489.1412199538777
 31
0.0
  0
LINE
  5
192
330
1F
100
AcDbEntity
  8
躯体
  6
Continuous
 62
     2
370
     9
100
AcDbLine
 10
446.0478756878825
 20
484.1412034578894
 30
0.0
 11
432.0479779630097
 21
484.1412034578894
 31
0.0
  0
LINE
  5
193
330
1F
100
AcDbEntity
  8
躯体
  6
Continuous
 62
     2
370
     9
100
AcDbLine
 10
446.0478756878825
 20
485.1411077811581
 30
0.0
 11
432.0479779630097
 21
485.1411077811581
 31
0.0
  0
LINE
  5
194
330
1F
100
AcDbEntity
  8
躯体
  6
JWW_CENTER1
 62
     2
370
     9
100
AcDbLine
 10
428.9792292826886
 20
487.1411638675178
 30
0.0
 11
461.2708684560414
 21
487.1411638675178
 31
0.0
  0
LINE
  5
195
330
1F
100
AcDbEntity
  8
通り芯
  6
Continuous
 62
     3
370
     9
100
AcDbLine
 10
431.2188071173594
 20
263.5557773335228
 30
0.0
 11
430.0479218766498
 21
264.1410962339663
 31
0.0
  0
LINE
  5
196
330
1F
100
AcDbEntity
  8
通り芯
  6
Continuous
 62
     3
370
     9
100
AcDbLine
 10
432.0479779630097
 20
255.6411671667154
 30
0.0
 11
432.0479779630097
 21
262.2140348952837
 31
0.0
  0
LINE
  5
197
330
1F
100
AcDbEntity
  8
躯体
  6
Continuous
 62
     2
370
     9
100
AcDbLine
 10
-19.5504832912134
 20
-412.2596606019712
 30
0.0
 11
-19.5504832912134
 21
-392.2595946180185
 31
0.0
  0
LINE
  5
198
330
1F
100
AcDbEntity
  8
躯体
  6
Continuous
 62
     2
370
     9
100
AcDbLine
 10
-709.550532779178
 20
-392.2595946180185
 30
0.0
 11
-19.5504832912134
 21
-392.2595946180185
 31
0.0
  0
LINE
  5
199
330
1F
100
AcDbEntity
  8
躯体
  6
Continuous
 62
     2
370
     9
100
AcDbLine
 10
-23.55034802411026
 20
-412.2596606019712
 30
0.0
 11
-23.55034802411026
 21
-392.2595946180185
 31
0.0
  0
LINE
  5
19A
330
1F
100
AcDbEntity
  8
躯体
  6
Continuous
 62
     2
370
     9
100
AcDbLine
 10
-23.55034802411026
 20
-412.2596606019712
 30
0.0
 11
-19.5504832912134
 21
-412.2596606019712
 31
0.0
  0
LINE
  5
19B
330
1F
100
AcDbEntity
  8
仕上
  6
Continuous
 62
     2
370
     9
100
AcDbLine
 10
-22.94337813918631
 20
-415.759573173234
 30
0.0
 11
-22.94337813918631
 21
-422.7598931954046
 31
0.0
  0
LINE
  5
19C
330
1F
100
AcDbEntity
  8
仕上
  6
Continuous
 62
     2
370
     9
100
AcDbLine
 10
-20.76368074159348
 20
-419.7596853459535
 30
0.0
 11
-20.76368074159348
 21
-418.7596573027737
 31
0.0
  0
LINE
  5
19D
330
1F
100
AcDbEntity
  8
仕上
  6
Continuous
 62
     2
370
     9
100
AcDbLine
 10
-20.36258078910194
 20
-418.7596573027737
 30
0.0
 11
-20.76368074159348
 21
-418.7596573027737
 31
0.0
  0
LINE
  5
19E
330
1F
100
AcDbEntity
  8
仕上
  6
Continuous
 62
     2
370
     9
100
AcDbLine
 10
-33.88491965628944
 20
-417.2598008178709
 30
0.0
 11
-33.88491965628944
 21
-421.2597892706792
 31
0.0
  0
LINE
  5
19F
330
1F
100
AcDbEntity
  8
仕上
  6
Continuous
 62
     2
370
     9
100
AcDbLine
 10
-24.34314521583346
 20
-417.2598008178709
 30
0.0
 11
-24.34314521583346
 21
-421.2597892706792
 31
0.0
  0
LINE
  5
1A0
330
1F
100
AcDbEntity
  8
仕上
  6
Continuous
 62
     2
370
     9
100
AcDbLine
 10
-24.34314521583346
 20
-417.2598008178709
 30
0.0
 11
-23.83242942191444
 21
-417.5545016466292
 31
0.0
  0
LINE
  5
1A1
330
1F
100
AcDbEntity
  8
仕上
  6
Continuous
 62
     2
370
     9
100
AcDbLine
 10
-24.34339265565598
 20
-420.6597477007887
 30
0.0
 11
-23.04062198948202
 21
-421.4380696628876
 31
0.0
  0
LINE
  5
1A2
330
1F
100
AcDbEntity
  8
仕上
  6
Continuous
 62
     2
370
     9
100
AcDbLine
 10
-24.34339265565598
 20
-417.8597186678496
 30
0.0
 11
-23.04062198948202
 21
-417.0813967057508
 31
0.0
  0
LINE
  5
1A3
330
1F
100
AcDbEntity
  8
仕上
  6
Continuous
 62
     2
370
     9
100
AcDbLine
 10
-21.36619670971015
 20
-415.759573173234
 30
0.0
 11
-22.94337813918631
 21
-415.759573173234
 31
0.0
  0
LINE
  5
1A4
330
1F
100
AcDbEntity
  8
仕上
  6
Continuous
 62
     2
370
     9
100
AcDbLine
 10
-22.94337813918631
 20
-422.7598931954046
 30
0.0
 11
-21.36619670971015
 21
-422.7598931954046
 31
0.0
  0
LINE
  5
1A5
330
1F
100
AcDbEntity
  8
仕上
  6
Continuous
 62
     2
370
     9
100
AcDbLine
 10
-20.36258078910194
 20
-419.7596853459535
 30
0.0
 11
-20.76368074159348
 21
-419.7596853459535
 31
0.0
  0
LINE
  5
1A6
330
1F
100
AcDbEntity
  8
仕上
  6
Continuous
 62
     4
370
     9
100
AcDbLine
 10
-30.55042060645846
 20
-423.2597216371275
 30
0.0
 11
-29.05044040164427
 21
-423.2597216371275
 31
0.0
  0
LINE
  5
1A7
330
1F
100
AcDbEntity
  8
仕上
  6
Continuous
 62
     4
370
     9
100
AcDbLine
 10
-25.0503282289246
 20
-395.2596787475584
 30
0.0
 11
-23.55034802411026
 21
-395.2596787475584
 31
0.0
  0
LINE
  5
1A8
330
1F
100
AcDbEntity
  8
仕上
  6
Continuous
 62
     4
370
     9
100
AcDbLine
 10
-25.55040411047031
 20
-409.7596523539771
 30
0.0
 11
-30.05034472491275
 21
-409.7596523539771
 31
0.0
  0
LINE
  5
1A9
330
1F
100
AcDbEntity
  8
仕上
  6
Continuous
 62
     4
370
     9
100
AcDbLine
 10
-25.0503282289246
 20
-409.2597001923428
 30
0.0
 11
-25.0503282289246
 21
-395.2596787475584
 31
0.0
  0
LINE
  5
1AA
330
1F
100
AcDbEntity
  8
仕上
  6
Continuous
 62
     4
370
     9
100
AcDbLine
 10
-28.5503645200987
 20
-411.2596325587913
 30
0.0
 11
-24.05042390565598
 21
-411.2596325587913
 31
0.0
  0
LINE
  5
1AB
330
1F
100
AcDbEntity
  8
仕上
  6
Continuous
 62
     2
370
     9
100
AcDbLine
 10
-24.34314521583346
 20
-421.2597892706792
 30
0.0
 11
-23.83242942191444
 21
-420.964841002098
 31
0.0
  0
LINE
  5
1AC
330
1F
100
AcDbEntity
  8
仕上
  6
Continuous
 62
     4
370
     9
100
AcDbLine
 10
-29.05044040164427
 20
-421.7597414323133
 30
0.0
 11
-30.55042060645846
 21
-421.7597414323133
 31
0.0
  0
LINE
  5
1AD
330
1F
100
AcDbEntity
  8
仕上
  6
Continuous
 62
     4
370
     9
100
AcDbLine
 10
-29.05044040164427
 20
-416.7597249363251
 30
0.0
 11
-30.55042060645846
 21
-416.7597249363251
 31
0.0
  0
LINE
  5
1AE
330
1F
100
AcDbEntity
  8
仕上
  6
Continuous
 62
     4
370
     9
100
AcDbLine
 10
-30.55042060645846
 20
-421.2597892706792
 30
0.0
 11
-30.55042060645846
 21
-423.2597216371275
 31
0.0
  0
LINE
  5
1AF
330
1F
100
AcDbEntity
  8
仕上
  6
Continuous
 62
     4
370
     9
100
AcDbLine
 10
-29.05044040164427
 20
-411.7597084403369
 30
0.0
 11
-29.05044040164427
 21
-417.2598008178709
 31
0.0
  0
LINE
  5
1B0
330
1F
100
AcDbEntity
  8
仕上
  6
Continuous
 62
     4
370
     9
100
AcDbLine
 10
-29.05044040164427
 20
-421.2597892706792
 30
0.0
 11
-29.05044040164427
 21
-423.2597216371275
 31
0.0
  0
LINE
  5
1B1
330
1F
100
AcDbEntity
  8
仕上
  6
Continuous
 62
     4
370
     9
100
AcDbLine
 10
-30.55042060645846
 20
-410.259728235523
 30
0.0
 11
-30.55042060645846
 21
-417.2598008178709
 31
0.0
  0
LINE
  5
1B2
330
1F
100
AcDbEntity
  8
仕上
  6
Continuous
 62
     2
370
     9
100
AcDbLine
 10
-30.55042060645846
 20
-415.7596968931452
 30
0.0
 11
-32.55047669281822
 21
-415.7596968931452
 31
0.0
  0
LINE
  5
1B3
330
1F
100
AcDbEntity
  8
仕上
  6
Continuous
 62
     2
370
     9
100
AcDbLine
 10
-30.55042060645846
 20
-422.7598931954046
 30
0.0
 11
-32.55047669281822
 21
-422.7598931954046
 31
0.0
  0
LINE
  5
1B4
330
1F
100
AcDbEntity
  8
仕上
  6
Continuous
 62
     2
370
     9
100
AcDbLine
 10
-32.55047669281822
 20
-415.7596968931452
 30
0.0
 11
-32.55047669281822
 21
-422.7598931954046
 31
0.0
  0
LINE
  5
1B5
330
1F
100
AcDbEntity
  8
仕上
  6
Continuous
 62
     2
370
     9
100
AcDbLine
 10
-30.55042060645846
 20
-417.2598008178709
 30
0.0
 11
-30.55042060645846
 21
-421.2597892706792
 31
0.0
  0
LINE
  5
1B6
330
1F
100
AcDbEntity
  8
仕上
  6
Continuous
 62
     2
370
     9
100
AcDbLine
 10
-32.55047669281822
 20
-417.8597186678496
 30
0.0
 11
-33.88491965628944
 21
-417.8597186678496
 31
0.0
  0
LINE
  5
1B7
330
1F
100
AcDbEntity
  8
仕上
  6
Continuous
 62
     2
370
     9
100
AcDbLine
 10
-32.55047669281822
 20
-417.2598008178709
 30
0.0
 11
-33.88491965628944
 21
-417.2598008178709
 31
0.0
  0
LINE
  5
1B8
330
1F
100
AcDbEntity
  8
仕上
  6
Continuous
 62
     2
370
     9
100
AcDbLine
 10
-32.55047669281822
 20
-421.2597892706792
 30
0.0
 11
-33.88491965628944
 21
-421.2597892706792
 31
0.0
  0
LINE
  5
1B9
330
1F
100
AcDbEntity
  8
仕上
  6
Continuous
 62
     2
370
     9
100
AcDbLine
 10
-32.55047669281822
 20
-420.6597477007887
 30
0.0
 11
-33.88491965628944
 21
-420.6597477007887
 31
0.0
  0
LINE
  5
1BA
330
1F
100
AcDbEntity
  8
仕上
  6
Continuous
 62
     2
370
     9
100
AcDbLine
 10
-24.34314521583346
 20
-417.2598008178709
 30
0.0
 11
-30.55042060645846
 21
-417.2598008178709
 31
0.0
  0
LINE
  5
1BB
330
1F
100
AcDbEntity
  8
仕上
  6
Continuous
 62
     2
370
     9
100
AcDbLine
 10
-24.34339265565598
 20
-417.8597186678496
 30
0.0
 11
-30.55042060645846
 21
-417.8597186678496
 31
0.0
  0
LINE
  5
1BC
330
1F
100
AcDbEntity
  8
仕上
  6
Continuous
 62
     2
370
     9
100
AcDbLine
 10
-24.34339265565598
 20
-420.6597477007887
 30
0.0
 11
-30.55042060645846
 21
-420.6597477007887
 31
0.0
  0
LINE
  5
1BD
330
1F
100
AcDbEntity
  8
仕上
  6
Continuous
 62
     2
370
     9
100
AcDbLine
 10
-24.34314521583346
 20
-421.2597892706792
 30
0.0
 11
-30.55042060645846
 21
-421.2597892706792
 31
0.0
  0
LINE
  5
1BE
330
1F
100
AcDbEntity
  8
仕上
  6
Continuous
 62
     3
370
     9
100
AcDbLine
 10
-23.01464080810547
 20
-416.7597249363251
 30
0.0
 11
-28.02480233682161
 21
-416.7597249363251
 31
0.0
  0
LINE
  5
1BF
330
1F
100
AcDbEntity
  8
仕上
  6
Continuous
 62
     3
370
     9
100
AcDbLine
 10
-23.37194391199034
 20
-421.7597414323133
 30
0.0
 11
-28.38210544070677
 21
-421.7597414323133
 31
0.0
  0
LINE
  5
1C0
330
1F
100
AcDbEntity
  8
通り芯
  6
Continuous
 62
     3
370
     9
100
AcDbLine
 10
-21.78263793120493
 20
-422.7598931954046
 30
0.0
 11
-24.55049978720169
 21
-439.2596754483606
 31
0.0
  0
LINE
  5
1C1
330
1F
100
AcDbEntity
  8
通り芯
  6
Continuous
 62
     3
370
     9
100
AcDbLine
 10
-25.45093330177096
 20
-450.8665826485296
 30
0.0
 11
-23.33631257753098
 21
-421.2615213494375
 31
0.0
  0
LINE
  5
1C2
330
1F
100
AcDbEntity
  8
通り芯
  6
Continuous
 62
     3
370
     9
100
AcDbLine
 10
-34.86403903445677
 20
-432.259726585924
 30
0.0
 11
-694.2367295961121
 21
-432.259726585924
 31
0.0
  0
LINE
  5
1C3
330
1F
100
AcDbEntity
  8
通り芯
  6
Continuous
 62
     3
370
     9
100
AcDbLine
 10
-29.78014043859531
 20
-428.2597381331157
 30
0.0
 11
-30.85402926883177
 21
-428.2597381331157
 31
0.0
  0
LINE
  5
1C4
330
1F
100
AcDbEntity
  8
通り芯
  6
Continuous
 62
     3
370
     9
100
AcDbLine
 10
452.3766440314219
 20
445.7302537508582
 30
0.0
 11
453.7192525090398
 21
444.0519931538354
 31
0.0
  0
LINE
  5
1C5
330
1F
100
AcDbEntity
  8
通り芯
  6
Continuous
 62
     3
370
     9
100
AcDbLine
 10
-28.78246307373047
 20
-427.3309727588548
 30
0.0
 11
-28.3489485044737
 21
-421.2597892706792
 31
0.0
  0
LINE
  5
1C6
330
1F
100
AcDbEntity
  8
通り芯
  6
Continuous
 62
     3
370
     9
100
AcDbLine
 10
448.3329824499185
 20
467.8171034790043
 30
0.0
 11
430.0479218766498
 21
469.1233383026952
 31
0.0
  0
LINE
  5
1C7
330
1F
100
AcDbEntity
  8
通り芯
  6
Continuous
 62
     3
370
     9
100
AcDbLine
 10
-699.407232129896
 20
263.2443743167365
 30
0.0
 11
-699.532684119972
 21
264.1410962339663
 31
0.0
  0
LINE
  5
1C8
330
1F
100
AcDbEntity
  8
通り芯
  6
Continuous
 62
     3
370
     9
100
AcDbLine
 10
-699.3927569002717
 20
263.036524865723
 30
0.0
 11
-699.3927569002717
 21
262.6411160291522
 31
0.0
  0
LINE
  5
1C9
330
1F
100
AcDbEntity
  8
通り芯
  6
Continuous
 62
     3
370
     9
100
AcDbLine
 10
-705.5504206064585
 20
263.1410681907863
 30
0.0
 11
-699.3963447777002
 21
263.1410681907863
 31
0.0
  0
LINE
  5
1CA
330
1F
100
AcDbEntity
  8
通り芯
  6
Continuous
 62
     3
370
     9
100
AcDbLine
 10
-699.532684119972
 20
264.1410962339663
 30
0.0
 11
-705.5504206064585
 21
264.1410962339663
 31
0.0
  0
LINE
  5
1CB
330
1F
100
AcDbEntity
  8
仕上
  6
Continuous
 62
     4
370
     9
100
AcDbLine
 10
-700.0503282289246
 20
250.641026950816
 30
0.0
 11
-700.0503282289246
 21
255.6411671667154
 31
0.0
  0
LINE
  5
1CC
330
1F
100
AcDbEntity
  8
仕上
  6
Continuous
 62
     4
370
     9
100
AcDbLine
 10
-704.0504404016442
 20
250.641026950816
 30
0.0
 11
-704.0504404016442
 21
255.6411671667154
 31
0.0
  0
LINE
  5
1CD
330
1F
100
AcDbEntity
  8
仕上
  6
Continuous
 62
     4
370
     9
100
AcDbLine
 10
-705.5504206064585
 20
250.641026950816
 30
0.0
 11
-705.5504206064585
 21
255.6411671667154
 31
0.0
  0
LINE
  5
1CE
330
1F
100
AcDbEntity
  8
仕上
  6
Continuous
 62
     2
370
     9
100
AcDbLine
 10
-696.7158291790936
 20
255.1410912851699
 30
0.0
 11
-696.7158291790936
 21
251.1411028323615
 31
0.0
  0
LINE
  5
1CF
330
1F
100
AcDbEntity
  8
仕上
  6
Continuous
 62
     2
370
     9
100
AcDbLine
 10
-698.0503958624762
 20
256.641071489984
 30
0.0
 11
-700.0503282289246
 21
256.641071489984
 31
0.0
  0
LINE
  5
1D0
330
1F
100
AcDbEntity
  8
仕上
  6
Continuous
 62
     2
370
     9
100
AcDbLine
 10
-698.0503958624762
 20
256.641071489984
 30
0.0
 11
-698.0503958624762
 21
249.6411226275472
 31
0.0
  0
LINE
  5
1D1
330
1F
100
AcDbEntity
  8
仕上
  6
Continuous
 62
     2
370
     9
100
AcDbLine
 10
-700.0503282289246
 20
256.641071489984
 30
0.0
 11
-700.0503282289246
 21
249.6411226275472
 31
0.0
  0
LINE
  5
1D2
330
1F
100
AcDbEntity
  8
仕上
  6
Continuous
 62
     2
370
     9
100
AcDbLine
 10
-698.0503958624762
 20
255.1410912851699
 30
0.0
 11
-696.7158291790936
 21
255.1410912851699
 31
0.0
  0
LINE
  5
1D3
330
1F
100
AcDbEntity
  8
仕上
  6
Continuous
 62
     2
370
     9
100
AcDbLine
 10
-698.0503958624762
 20
254.5410497152795
 30
0.0
 11
-696.7158291790936
 21
254.5410497152795
 31
0.0
  0
LINE
  5
1D4
330
1F
100
AcDbEntity
  8
仕上
  6
Continuous
 62
     4
370
     9
100
AcDbLine
 10
-705.5504206064585
 20
255.6411671667154
 30
0.0
 11
-700.0503282289246
 21
255.6411671667154
 31
0.0
  0
LINE
  5
1D5
330
1F
100
AcDbEntity
  8
仕上
  6
Continuous
 62
     2
370
     9
100
AcDbLine
 10
-698.0503958624762
 20
249.6411226275472
 30
0.0
 11
-700.0503282289246
 21
249.6411226275472
 31
0.0
  0
LINE
  5
1D6
330
1F
100
AcDbEntity
  8
仕上
  6
Continuous
 62
     2
370
     9
100
AcDbLine
 10
-698.0503958624762
 20
251.1411028323615
 30
0.0
 11
-696.7158291790936
 21
251.1411028323615
 31
0.0
  0
LINE
  5
1D7
330
1F
100
AcDbEntity
  8
仕上
  6
Continuous
 62
     2
370
     9
100
AcDbLine
 10
-698.0503958624762
 20
251.7410206823404
 30
0.0
 11
-696.7158291790936
 21
251.7410206823404
 31
0.0
  0
LINE
  5
1D8
330
1F
100
AcDbEntity
  8
仕上
  6
Continuous
 62
     4
370
     9
100
AcDbLine
 10
-705.5504206064585
 20
250.641026950816
 30
0.0
 11
-700.0503282289246
 21
250.641026950816
 31
0.0
  0
LINE
  5
1D9
330
1F
100
AcDbEntity
  8
通り芯
  6
Continuous
 62
     3
370
     9
100
AcDbLine
 10
-700.2519916843722
 20
260.141107781158
 30
0.0
 11
-700.2519916843722
 21
255.6411671667154
 31
0.0
  0
LINE
  5
1DA
330
1F
100
AcDbEntity
  8
通り芯
  6
Continuous
 62
     3
370
     9
100
AcDbLine
 10
-698.2469868015597
 20
245.7736381997602
 30
0.0
 11
-698.2469868015597
 21
249.6411226275472
 31
0.0
  0
LINE
  5
1DB
330
1F
100
AcDbEntity
  8
通り芯
  6
Continuous
 62
     3
370
     9
100
AcDbLine
 10
-698.2469868015597
 20
260.6336367481132
 30
0.0
 11
-698.2469868015597
 21
256.641071489984
 31
0.0
  0
LINE
  5
1DC
330
1F
100
AcDbEntity
  8
通り芯
  6
Continuous
 62
     3
370
     9
100
AcDbLine
 10
-701.5376890027845
 20
260.9506071609087
 30
0.0
 11
-701.5376890027845
 21
255.6411671667154
 31
0.0
  0
LINE
  5
1DD
330
1F
100
AcDbEntity
  8
通り芯
  6
Continuous
 62
     3
370
     9
100
AcDbLine
 10
-700.3781859939163
 20
262.4113681538353
 30
0.0
 11
-699.3927569002717
 21
262.6411160291522
 31
0.0
  0
LINE
  5
1DE
330
1F
100
AcDbEntity
  8
通り芯
  6
Continuous
 62
     3
370
     9
100
AcDbLine
 10
-698.554801940918
 20
261.5442152954105
 30
0.0
 11
-699.3927569002717
 21
262.6411160291522
 31
0.0
  0
LINE
  5
1DF
330
1F
100
AcDbEntity
  8
通り芯
  6
Continuous
 62
     3
370
     9
100
AcDbLine
 10
-699.2518399212811
 20
261.1410121044266
 30
0.0
 11
-698.3353228182405
 21
261.1410121044266
 31
0.0
  0
LINE
  5
1E0
330
1F
100
AcDbEntity
  8
通り芯
  6
Continuous
 62
     3
370
     9
100
AcDbLine
 10
-699.407232129896
 20
243.0378198007949
 30
0.0
 11
-699.532684119972
 21
242.141097883565
 31
0.0
  0
LINE
  5
1E1
330
1F
100
AcDbEntity
  8
通り芯
  6
Continuous
 62
     3
370
     9
100
AcDbLine
 10
-699.3927569002717
 20
243.2455455318971
 30
0.0
 11
-699.3927569002717
 21
243.6410780883792
 31
0.0
  0
LINE
  5
1E2
330
1F
100
AcDbEntity
  8
通り芯
  6
Continuous
 62
     3
370
     9
100
AcDbLine
 10
-705.5504206064585
 20
243.1410022068337
 30
0.0
 11
-699.3963447777002
 21
243.1410022068337
 31
0.0
  0
LINE
  5
1E3
330
1F
100
AcDbEntity
  8
通り芯
  6
Continuous
 62
     3
370
     9
100
AcDbLine
 10
-699.532684119972
 20
242.141097883565
 30
0.0
 11
-705.5504206064585
 21
242.141097883565
 31
0.0
  0
LINE
  5
1E4
330
1F
100
AcDbEntity
  8
通り芯
  6
Continuous
 62
     3
370
     9
100
AcDbLine
 10
-700.2519916843722
 20
246.1410863363733
 30
0.0
 11
-700.2519916843722
 21
250.641026950816
 31
0.0
  0
LINE
  5
1E5
330
1F
100
AcDbEntity
  8
通り芯
  6
Continuous
 62
     3
370
     9
100
AcDbLine
 10
-701.5376890027845
 20
245.3315869566225
 30
0.0
 11
-701.5376890027845
 21
250.641026950816
 31
0.0
  0
LINE
  5
1E6
330
1F
100
AcDbEntity
  8
通り芯
  6
Continuous
 62
     3
370
     9
100
AcDbLine
 10
-700.3781859939163
 20
243.8707022437847
 30
0.0
 11
-699.3927569002717
 21
243.6410780883792
 31
0.0
  0
LINE
  5
1E7
330
1F
100
AcDbEntity
  8
通り芯
  6
Continuous
 62
     3
370
     9
100
AcDbLine
 10
-698.554801940918
 20
244.7379788221209
 30
0.0
 11
-699.3927569002717
 21
243.6410780883792
 31
0.0
  0
LINE
  5
1E8
330
1F
100
AcDbEntity
  8
通り芯
  6
Continuous
 62
     3
370
     9
100
AcDbLine
 10
-699.2518399212811
 20
245.1411820131048
 30
0.0
 11
-698.3353228182405
 21
245.1411820131048
 31
0.0
  0
LINE
  5
1E9
330
1F
100
AcDbEntity
  8
通り芯
  6
Continuous
 62
     3
370
     9
100
AcDbLine
 10
-697.9611938064163
 20
463.5517358164199
 30
0.0
 11
-697.9611938064163
 21
255.1410912851699
 31
0.0
  0
LINE
  5
1EA
330
1F
100
AcDbEntity
  8
通り芯
  6
Continuous
 62
     3
370
     9
100
AcDbLine
 10
-699.532684119972
 20
465.1232261299756
 30
0.0
 11
-699.532684119972
 21
264.1410962339663
 31
0.0
  0
LINE
  5
1EB
330
1F
100
AcDbEntity
  8
通り芯
  6
Continuous
 62
     3
370
     9
100
AcDbLine
 10
-695.5325719472524
 20
469.1233383026952
 30
0.0
 11
-33.56819668331639
 21
469.1233383026952
 31
0.0
  0
LINE
  5
1EC
330
1F
100
AcDbEntity
  8
通り芯
  6
Continuous
 62
     3
370
     9
100
AcDbLine
 10
-693.9610816336967
 20
467.5518479891394
 30
0.0
 11
-35.13968699687211
 21
467.5518479891394
 31
0.0
  0
LINE
  5
1ED
330
1F
100
AcDbEntity
  8
通り芯
  6
Continuous
 62
     3
370
     9
100
AcDbLine
 10
432.0479779630097
 20
244.1410302500136
 30
0.0
 11
448.0479317742427
 21
245.1411820131048
 31
0.0
  0
LINE
  5
1EE
330
1F
100
AcDbEntity
  8
通り芯
  6
Continuous
 62
     3
370
     9
100
AcDbLine
 10
448.0479317742427
 20
245.1411820131048
 30
0.0
 11
432.0479779630097
 21
243.6410780883792
 31
0.0
  0
LINE
  5
1EF
330
1F
100
AcDbEntity
  8
仕上
  6
Continuous
 62
     2
370
     9
100
AcDbLine
 10
435.5480142541836
 20
249.6411226275472
 30
0.0
 11
442.5480868365315
 21
249.6411226275472
 31
0.0
  0
LINE
  5
1F0
330
1F
100
AcDbEntity
  8
仕上
  6
Continuous
 62
     4
370
     9
100
AcDbLine
 10
415.0478723886852
 20
250.641026950816
 30
0.0
 11
435.5480142541836
 21
250.641026950816
 31
0.0
  0
LINE
  5
1F1
330
1F
100
AcDbEntity
  8
仕上
  6
Continuous
 62
     4
370
     9
100
AcDbLine
 10
442.5480868365315
 20
250.641026950816
 30
0.0
 11
443.0479152782544
 21
250.641026950816
 31
0.0
  0
LINE
  5
1F2
330
1F
100
AcDbEntity
  8
通り芯
  6
Continuous
 62
     3
370
     9
100
AcDbLine
 10
431.2188071173594
 20
242.7264167840085
 30
0.0
 11
430.0479218766498
 21
242.141097883565
 31
0.0
  0
LINE
  5
1F3
330
1F
100
AcDbEntity
  8
通り芯
  6
Continuous
 62
     3
370
     9
100
AcDbLine
 10
432.0479779630097
 20
250.641026950816
 30
0.0
 11
432.0479779630097
 21
244.0681592222475
 31
0.0
  0
LINE
  5
1F4
330
1F
100
AcDbEntity
  8
通り芯
  6
Continuous
 62
     3
370
     9
100
AcDbLine
 10
-698.5505954639332
 20
-410.259728235523
 30
0.0
 11
-30.55042060645846
 21
-410.259728235523
 31
0.0
  0
LINE
  5
1F5
330
1F
100
AcDbEntity
  8
通り芯
  6
Continuous
 62
     3
370
     9
100
AcDbLine
 10
-30.87431933428775
 20
-428.5446650888799
 30
0.0
 11
-30.49672616494661
 21
-423.2597216371275
 31
0.0
  0
LINE
  5
1F6
330
1F
100
AcDbEntity
  8
通り芯
  6
Continuous
 62
     3
370
     9
100
AcDbLine
 10
-28.06315550932993
 20
-417.2598008178709
 30
0.0
 11
-27.6345897365259
 21
-411.2596325587913
 31
0.0
  0
LINE
  5
1F7
330
1F
100
AcDbEntity
  8
通り芯
  6
Continuous
 62
     3
370
     9
100
AcDbLine
 10
-23.01464080810547
 20
-416.7597249363251
 30
0.0
 11
-22.69321647850234
 21
-412.2596606019712
 31
0.0
  0
LINE
  5
1F8
330
1F
100
AcDbEntity
  8
通り芯
  6
Continuous
 62
     3
370
     9
100
AcDbLine
 10
-19.9075389552759
 20
-412.2596606019712
 30
0.0
 11
-20.75229850975234
 21
-416.9902151311098
 31
0.0
  0
LINE
  5
1F9
330
1F
100
AcDbEntity
  8
躯体
  6
Continuous
 62
     2
370
     9
100
AcDbLine
 10
-705.5504206064585
 20
473.1410187028218
 30
0.0
 11
-23.55034802411026
 21
473.1410187028218
 31
0.0
  0
LINE
  5
1FA
330
1F
100
AcDbEntity
  8
躯体
  6
Continuous
 62
     2
370
     9
100
AcDbLine
 10
-705.5504206064585
 20
477.1411308755415
 30
0.0
 11
-23.55034802411026
 21
477.1411308755415
 31
0.0
  0
LINE
  5
1FB
330
1F
100
AcDbEntity
  8
躯体
  6
Continuous
 62
     2
370
     9
100
AcDbLine
 10
427.0479614670211
 20
492.141180363506
 30
0.0
 11
412.0479119790573
 21
492.141180363506
 31
0.0
  0
LINE
  5
1FC
330
1F
100
AcDbEntity
  8
躯体
  6
Continuous
 62
     2
370
     9
100
AcDbLine
 10
427.0479614670211
 20
488.1410681907864
 30
0.0
 11
412.0479119790573
 21
488.1410681907864
 31
0.0
  0
LINE
  5
1FD
330
1F
100
AcDbEntity
  8
躯体
  6
Continuous
 62
     2
370
     9
100
AcDbLine
 10
-19.5504832912134
 20
492.141180363506
 30
0.0
 11
-709.5504090592668
 21
492.141180363506
 31
0.0
  0
LINE
  5
1FE
330
1F
100
AcDbEntity
  8
躯体
  6
Continuous
 62
     2
370
     9
100
AcDbLine
 10
-23.55034802411026
 20
488.1410681907864
 30
0.0
 11
-705.5504206064585
 21
488.1410681907864
 31
0.0
  0
LINE
  5
1FF
330
1F
100
AcDbEntity
  8
躯体
  6
Continuous
 62
     2
370
     9
100
AcDbLine
 10
-692.0504750432194
 20
501.1411853123025
 30
0.0
 11
-667.0505162831898
 21
501.1411853123025
 31
0.0
  0
LINE
  5
200
330
1F
100
AcDbEntity
  8
躯体
  6
Continuous
 62
     2
370
     9
100
AcDbLine
 10
-534.5504502992371
 20
501.1411853123025
 30
0.0
 11
-509.5504915392075
 21
501.1411853123025
 31
0.0
  0
LINE
  5
201
330
1F
100
AcDbEntity
  8
躯体
  6
Continuous
 62
     2
370
     9
100
AcDbLine
 10
-377.0504255552549
 20
501.1411853123025
 30
0.0
 11
-352.0504667952253
 21
501.1411853123025
 31
0.0
  0
LINE
  5
202
330
1F
100
AcDbEntity
  8
躯体
  6
Continuous
 62
     2
370
     9
100
AcDbLine
 10
-62.05043792724609
 20
501.1411853123025
 30
0.0
 11
-37.05041730726066
 21
501.1411853123025
 31
0.0
  0
LINE
  5
203
330
1F
100
AcDbEntity
  8
躯体
  6
Continuous
 62
     2
370
     9
100
AcDbLine
 10
-219.5504008112727
 20
501.1411853123025
 30
0.0
 11
-194.5503183313318
 21
501.1411853123025
 31
0.0
  0
LINE
  5
204
330
1F
100
AcDbEntity
  8
躯体
  6
Continuous
 62
     2
370
     9
100
AcDbLine
 10
-692.0504750432194
 20
501.1411853123025
 30
0.0
 11
-692.0504750432194
 21
492.141180363506
 31
0.0
  0
LINE
  5
205
330
1F
100
AcDbEntity
  8
躯体
  6
Continuous
 62
     2
370
     9
100
AcDbLine
 10
-692.0504750432194
 20
488.1410681907864
 30
0.0
 11
-692.0504750432194
 21
477.1411308755415
 31
0.0
  0
LINE
  5
206
330
1F
100
AcDbEntity
  8
躯体
  6
Continuous
 62
     2
370
     9
100
AcDbLine
 10
-667.0505162831898
 20
501.1411853123025
 30
0.0
 11
-667.0505162831898
 21
492.141180363506
 31
0.0
  0
LINE
  5
207
330
1F
100
AcDbEntity
  8
躯体
  6
Continuous
 62
     2
370
     9
100
AcDbLine
 10
-667.0505162831898
 20
488.1410681907864
 30
0.0
 11
-667.0505162831898
 21
477.1411308755415
 31
0.0
  0
LINE
  5
208
330
1F
100
AcDbEntity
  8
躯体
  6
Continuous
 62
     2
370
     9
100
AcDbLine
 10
-534.5504502992371
 20
501.1411853123025
 30
0.0
 11
-534.5504502992371
 21
492.141180363506
 31
0.0
  0
LINE
  5
209
330
1F
100
AcDbEntity
  8
躯体
  6
Continuous
 62
     2
370
     9
100
AcDbLine
 10
-534.5504502992371
 20
488.1410681907864
 30
0.0
 11
-534.5504502992371
 21
477.1411308755415
 31
0.0
  0
LINE
  5
20A
330
1F
100
AcDbEntity
  8
躯体
  6
Continuous
 62
     2
370
     9
100
AcDbLine
 10
-509.5504915392075
 20
501.1411853123025
 30
0.0
 11
-509.5504915392075
 21
492.141180363506
 31
0.0
  0
LINE
  5
20B
330
1F
100
AcDbEntity
  8
躯体
  6
Continuous
 62
     2
370
     9
100
AcDbLine
 10
-509.5504915392075
 20
488.1410681907864
 30
0.0
 11
-509.5504915392075
 21
477.1411308755415
 31
0.0
  0
LINE
  5
20C
330
1F
100
AcDbEntity
  8
躯体
  6
Continuous
 62
     2
370
     9
100
AcDbLine
 10
-377.0504255552549
 20
501.1411853123025
 30
0.0
 11
-377.0504255552549
 21
492.141180363506
 31
0.0
  0
LINE
  5
20D
330
1F
100
AcDbEntity
  8
躯体
  6
Continuous
 62
     2
370
     9
100
AcDbLine
 10
-377.0504255552549
 20
488.1410681907864
 30
0.0
 11
-377.0504255552549
 21
477.1411308755415
 31
0.0
  0
LINE
  5
20E
330
1F
100
AcDbEntity
  8
躯体
  6
Continuous
 62
     2
370
     9
100
AcDbLine
 10
-352.0504667952253
 20
501.1411853123025
 30
0.0
 11
-352.0504667952253
 21
492.141180363506
 31
0.0
  0
LINE
  5
20F
330
1F
100
AcDbEntity
  8
躯体
  6
Continuous
 62
     2
370
     9
100
AcDbLine
 10
-352.0504667952253
 20
488.1410681907864
 30
0.0
 11
-352.0504667952253
 21
477.1411308755415
 31
0.0
  0
LINE
  5
210
330
1F
100
AcDbEntity
  8
躯体
  6
Continuous
 62
     2
370
     9
100
AcDbLine
 10
-219.5504008112727
 20
501.1411853123025
 30
0.0
 11
-219.5504008112727
 21
492.141180363506
 31
0.0
  0
LINE
  5
211
330
1F
100
AcDbEntity
  8
躯体
  6
Continuous
 62
     2
370
     9
100
AcDbLine
 10
-219.5504008112727
 20
488.1410681907864
 30
0.0
 11
-219.5504008112727
 21
477.1411308755415
 31
0.0
  0
LINE
  5
212
330
1F
100
AcDbEntity
  8
躯体
  6
Continuous
 62
     2
370
     9
100
AcDbLine
 10
-194.5503183313318
 20
501.1411853123025
 30
0.0
 11
-194.5503183313318
 21
492.141180363506
 31
0.0
  0
LINE
  5
213
330
1F
100
AcDbEntity
  8
躯体
  6
Continuous
 62
     2
370
     9
100
AcDbLine
 10
-194.5503183313318
 20
488.1410681907864
 30
0.0
 11
-194.5503183313318
 21
477.1411308755415
 31
0.0
  0
LINE
  5
214
330
1F
100
AcDbEntity
  8
躯体
  6
Continuous
 62
     2
370
     9
100
AcDbLine
 10
-62.05043792724609
 20
501.1411853123025
 30
0.0
 11
-62.05043792724609
 21
492.141180363506
 31
0.0
  0
LINE
  5
215
330
1F
100
AcDbEntity
  8
躯体
  6
Continuous
 62
     2
370
     9
100
AcDbLine
 10
-62.05043792724609
 20
488.1410681907864
 30
0.0
 11
-62.05043792724609
 21
477.1411308755415
 31
0.0
  0
LINE
  5
216
330
1F
100
AcDbEntity
  8
躯体
  6
Continuous
 62
     2
370
     9
100
AcDbLine
 10
-37.05041730726066
 20
501.1411853123025
 30
0.0
 11
-37.05041730726066
 21
492.141180363506
 31
0.0
  0
LINE
  5
217
330
1F
100
AcDbEntity
  8
躯体
  6
Continuous
 62
     2
370
     9
100
AcDbLine
 10
-37.05041730726066
 20
488.1410681907864
 30
0.0
 11
-37.05041730726066
 21
477.1411308755415
 31
0.0
  0
LINE
  5
218
330
1F
100
AcDbEntity
  8
通り芯
  6
Continuous
 62
     3
370
     9
100
AcDbLine
 10
-250.5504041104703
 20
-131.3589219116209
 30
0.0
 11
-248.5503480241105
 21
-131.3589219116209
 31
0.0
  0
LINE
  5
219
330
1F
100
AcDbEntity
  8
通り芯
  6
Continuous
 62
     3
370
     9
100
AcDbLine
 10
-253.0504123584643
 20
-133.8588064397036
 30
0.0
 11
-246.0504634960277
 21
-133.8588064397036
 31
0.0
  0
LINE
  5
21A
330
1F
100
AcDbEntity
  8
通り芯
  6
Continuous
 62
     3
370
     9
100
AcDbLine
 10
-253.0504123584643
 20
-133.8588064397036
 30
0.0
 11
-250.5504041104703
 21
-131.3589219116209
 31
0.0
  0
LINE
  5
21B
330
1F
100
AcDbEntity
  8
通り芯
  6
Continuous
 62
     3
370
     9
100
AcDbLine
 10
-248.5503480241105
 20
-131.3589219116209
 30
0.0
 11
-246.0504634960277
 21
-133.8588064397036
 31
0.0
  0
LINE
  5
21C
330
1F
100
AcDbEntity
  8
通り芯
  6
Continuous
 62
     3
370
     9
100
AcDbLine
 10
-77.05036369529921
 20
42.1411803635059
 30
0.0
 11
-77.05036369529921
 21
40.14112427714614
 31
0.0
  0
LINE
  5
21D
330
1F
100
AcDbEntity
  8
通り芯
  6
Continuous
 62
     3
370
     9
100
AcDbLine
 10
-74.5504791672164
 20
44.64106489158872
 30
0.0
 11
-74.5504791672164
 21
37.64111602915192
 31
0.0
  0
LINE
  5
21E
330
1F
100
AcDbEntity
  8
通り芯
  6
Continuous
 62
     3
370
     9
100
AcDbLine
 10
-74.5504791672164
 20
44.64106489158872
 30
0.0
 11
-77.05036369529921
 21
42.1411803635059
 31
0.0
  0
LINE
  5
21F
330
1F
100
AcDbEntity
  8
通り芯
  6
Continuous
 62
     3
370
     9
100
AcDbLine
 10
-77.05036369529921
 20
40.14112427714614
 30
0.0
 11
-74.5504791672164
 21
37.64111602915192
 31
0.0
  0
LINE
  5
220
330
1F
100
AcDbEntity
  8
通り芯
  6
Continuous
 62
     3
370
     9
100
AcDbLine
 10
-259.0504568976324
 20
37.64111602915192
 30
0.0
 11
-470.0504354528479
 21
37.64111602915192
 31
0.0
  0
LINE
  5
221
330
1F
100
AcDbEntity
  8
通り芯
  6
Continuous
 62
     3
370
     9
100
AcDbLine
 10
-253.0504123584643
 20
31.64119520989536
 30
0.0
 11
-253.0504123584643
 21
-133.8588064397036
 31
0.0
  0
LINE
  5
222
330
1F
100
AcDbEntity
  8
通り芯
  6
Continuous
 62
     3
370
     9
100
AcDbLine
 10
-259.0504568976324
 20
44.64106489158872
 30
0.0
 11
-470.0504354528479
 21
44.64106489158872
 31
0.0
  0
LINE
  5
223
330
1F
100
AcDbEntity
  8
通り芯
  6
Continuous
 62
     3
370
     9
100
AcDbLine
 10
-240.0504189568596
 20
44.64106489158872
 30
0.0
 11
-74.5504791672164
 21
44.64106489158872
 31
0.0
  0
LINE
  5
224
330
1F
100
AcDbEntity
  8
通り芯
  6
Continuous
 62
     3
370
     9
100
AcDbLine
 10
-246.0504634960277
 20
31.64119520989536
 30
0.0
 11
-246.0504634960277
 21
-133.8588064397036
 31
0.0
  0
LINE
  5
225
330
1F
100
AcDbEntity
  8
通り芯
  6
Continuous
 62
     3
370
     9
100
AcDbLine
 10
-240.0504189568596
 20
37.64111602915192
 30
0.0
 11
-74.5504791672164
 21
37.64111602915192
 31
0.0
  0
LINE
  5
226
330
1F
100
AcDbEntity
  8
通り芯
  6
Continuous
 62
     3
370
     9
100
AcDbLine
 10
-470.0504354528479
 20
40.14112427714614
 30
0.0
 11
-259.0504568976324
 21
40.14112427714614
 31
0.0
  0
LINE
  5
227
330
1F
100
AcDbEntity
  8
通り芯
  6
Continuous
 62
     3
370
     9
100
AcDbLine
 10
-250.5504041104703
 20
31.64119520989536
 30
0.0
 11
-250.5504041104703
 21
-131.3589219116209
 31
0.0
  0
LINE
  5
228
330
1F
100
AcDbEntity
  8
通り芯
  6
Continuous
 62
     3
370
     9
100
AcDbLine
 10
-470.0504354528479
 20
42.1411803635059
 30
0.0
 11
-259.0504568976324
 21
42.1411803635059
 31
0.0
  0
LINE
  5
229
330
1F
100
AcDbEntity
  8
通り芯
  6
Continuous
 62
     3
370
     9
100
AcDbLine
 10
-240.0504189568596
 20
42.1411803635059
 30
0.0
 11
-77.05036369529921
 21
42.1411803635059
 31
0.0
  0
LINE
  5
22A
330
1F
100
AcDbEntity
  8
通り芯
  6
Continuous
 62
     3
370
     9
100
AcDbLine
 10
-240.0504189568596
 20
40.14112427714614
 30
0.0
 11
-77.05036369529921
 21
40.14112427714614
 31
0.0
  0
LINE
  5
22B
330
1F
100
AcDbEntity
  8
通り芯
  6
Continuous
 62
     3
370
     9
100
AcDbLine
 10
-248.5503480241105
 20
31.64119520989536
 30
0.0
 11
-248.5503480241105
 21
-131.3589219116209
 31
0.0
  0
LINE
  5
22C
330
1F
100
AcDbEntity
  8
通り芯
  6
Continuous
 62
     3
370
     9
100
AcDbLine
 10
-478.5504882400099
 20
-131.3589219116209
 30
0.0
 11
-480.5504206064585
 21
-131.3589219116209
 31
0.0
  0
LINE
  5
22D
330
1F
100
AcDbEntity
  8
通り芯
  6
Continuous
 62
     3
370
     9
100
AcDbLine
 10
-476.0504799920159
 20
-133.8588064397036
 30
0.0
 11
-483.0505525743638
 21
-133.8588064397036
 31
0.0
  0
LINE
  5
22E
330
1F
100
AcDbEntity
  8
通り芯
  6
Continuous
 62
     3
370
     9
100
AcDbLine
 10
-476.0504799920159
 20
-133.8588064397036
 30
0.0
 11
-478.5504882400099
 21
-131.3589219116209
 31
0.0
  0
LINE
  5
22F
330
1F
100
AcDbEntity
  8
通り芯
  6
Continuous
 62
     3
370
     9
100
AcDbLine
 10
-480.5504206064585
 20
-131.3589219116209
 30
0.0
 11
-483.0505525743638
 21
-133.8588064397036
 31
0.0
  0
LINE
  5
230
330
1F
100
AcDbEntity
  8
通り芯
  6
Continuous
 62
     3
370
     9
100
AcDbLine
 10
-652.050343075314
 20
42.1411803635059
 30
0.0
 11
-652.050343075314
 21
40.14112427714614
 31
0.0
  0
LINE
  5
231
330
1F
100
AcDbEntity
  8
通り芯
  6
Continuous
 62
     3
370
     9
100
AcDbLine
 10
-654.5503513233081
 20
44.64106489158872
 30
0.0
 11
-654.5503513233081
 21
37.64111602915192
 31
0.0
  0
LINE
  5
232
330
1F
100
AcDbEntity
  8
通り芯
  6
Continuous
 62
     3
370
     9
100
AcDbLine
 10
-654.5503513233081
 20
44.64106489158872
 30
0.0
 11
-652.050343075314
 21
42.1411803635059
 31
0.0
  0
LINE
  5
233
330
1F
100
AcDbEntity
  8
通り芯
  6
Continuous
 62
     3
370
     9
100
AcDbLine
 10
-652.050343075314
 20
40.14112427714614
 30
0.0
 11
-654.5503513233081
 21
37.64111602915192
 31
0.0
  0
LINE
  5
234
330
1F
100
AcDbEntity
  8
通り芯
  6
Continuous
 62
     3
370
     9
100
AcDbLine
 10
-476.0504799920159
 20
31.64119520989536
 30
0.0
 11
-476.0504799920159
 21
-133.8588064397036
 31
0.0
  0
LINE
  5
235
330
1F
100
AcDbEntity
  8
通り芯
  6
Continuous
 62
     3
370
     9
100
AcDbLine
 10
-489.0504733936206
 20
44.64106489158872
 30
0.0
 11
-654.5503513233081
 21
44.64106489158872
 31
0.0
  0
LINE
  5
236
330
1F
100
AcDbEntity
  8
通り芯
  6
Continuous
 62
     3
370
     9
100
AcDbLine
 10
-483.0505525743638
 20
31.64119520989536
 30
0.0
 11
-483.0505525743638
 21
-133.8588064397036
 31
0.0
  0
LINE
  5
237
330
1F
100
AcDbEntity
  8
通り芯
  6
Continuous
 62
     3
370
     9
100
AcDbLine
 10
-489.0504733936206
 20
37.64111602915192
 30
0.0
 11
-654.5503513233081
 21
37.64111602915192
 31
0.0
  0
LINE
  5
238
330
1F
100
AcDbEntity
  8
通り芯
  6
Continuous
 62
     3
370
     9
100
AcDbLine
 10
-478.5504882400099
 20
31.64119520989536
 30
0.0
 11
-478.5504882400099
 21
-131.3589219116209
 31
0.0
  0
LINE
  5
239
330
1F
100
AcDbEntity
  8
通り芯
  6
Continuous
 62
     3
370
     9
100
AcDbLine
 10
-489.0504733936206
 20
42.1411803635059
 30
0.0
 11
-652.050343075314
 21
42.1411803635059
 31
0.0
  0
LINE
  5
23A
330
1F
100
AcDbEntity
  8
通り芯
  6
Continuous
 62
     3
370
     9
100
AcDbLine
 10
-489.0504733936206
 20
40.14112427714614
 30
0.0
 11
-652.050343075314
 21
40.14112427714614
 31
0.0
  0
LINE
  5
23B
330
1F
100
AcDbEntity
  8
通り芯
  6
Continuous
 62
     3
370
     9
100
AcDbLine
 10
-480.5504206064585
 20
31.64119520989536
 30
0.0
 11
-480.5504206064585
 21
-131.3589219116209
 31
0.0
  0
LINE
  5
23C
330
1F
100
AcDbEntity
  8
通り芯
  6
Continuous
 62
     3
370
     9
100
AcDbLine
 10
-699.407232129896
 20
49.03788495994809
 30
0.0
 11
-699.532684119972
 21
48.14116304271841
 31
0.0
  0
LINE
  5
23D
330
1F
100
AcDbEntity
  8
通り芯
  6
Continuous
 62
     3
370
     9
100
AcDbLine
 10
-699.3927569002717
 20
49.24573441096164
 30
0.0
 11
-699.3927569002717
 21
49.6411432475326
 31
0.0
  0
LINE
  5
23E
330
1F
100
AcDbEntity
  8
通り芯
  6
Continuous
 62
     3
370
     9
100
AcDbLine
 10
-705.5504206064585
 20
49.14119108589822
 30
0.0
 11
-699.3963447777002
 21
49.14119108589822
 31
0.0
  0
LINE
  5
23F
330
1F
100
AcDbEntity
  8
通り芯
  6
Continuous
 62
     3
370
     9
100
AcDbLine
 10
-699.532684119972
 20
48.14116304271841
 30
0.0
 11
-705.5504206064585
 21
48.14116304271841
 31
0.0
  0
LINE
  5
240
330
1F
100
AcDbEntity
  8
仕上
  6
Continuous
 62
     4
370
     9
100
AcDbLine
 10
-700.0503282289246
 20
61.64123232586859
 30
0.0
 11
-700.0503282289246
 21
56.64109210996912
 31
0.0
  0
LINE
  5
241
330
1F
100
AcDbEntity
  8
仕上
  6
Continuous
 62
     4
370
     9
100
AcDbLine
 10
-704.0504404016442
 20
61.64123232586859
 30
0.0
 11
-704.0504404016442
 21
56.64109210996912
 31
0.0
  0
LINE
  5
242
330
1F
100
AcDbEntity
  8
仕上
  6
Continuous
 62
     4
370
     9
100
AcDbLine
 10
-705.5504206064585
 20
61.64123232586859
 30
0.0
 11
-705.5504206064585
 21
56.64109210996912
 31
0.0
  0
LINE
  5
243
330
1F
100
AcDbEntity
  8
仕上
  6
Continuous
 62
     2
370
     9
100
AcDbLine
 10
-696.7158291790936
 20
57.14116799151476
 30
0.0
 11
-696.7158291790936
 21
61.14115644432309
 31
0.0
  0
LINE
  5
244
330
1F
100
AcDbEntity
  8
仕上
  6
Continuous
 62
     2
370
     9
100
AcDbLine
 10
-698.0503958624762
 20
55.64118778670056
 30
0.0
 11
-700.0503282289246
 21
55.64118778670056
 31
0.0
  0
LINE
  5
245
330
1F
100
AcDbEntity
  8
仕上
  6
Continuous
 62
     2
370
     9
100
AcDbLine
 10
-698.0503958624762
 20
55.64118778670056
 30
0.0
 11
-698.0503958624762
 21
62.64113664913729
 31
0.0
  0
LINE
  5
246
330
1F
100
AcDbEntity
  8
仕上
  6
Continuous
 62
     2
370
     9
100
AcDbLine
 10
-700.0503282289246
 20
55.64118778670056
 30
0.0
 11
-700.0503282289246
 21
62.64113664913729
 31
0.0
  0
LINE
  5
247
330
1F
100
AcDbEntity
  8
仕上
  6
Continuous
 62
     2
370
     9
100
AcDbLine
 10
-698.0503958624762
 20
57.14116799151476
 30
0.0
 11
-696.7158291790936
 21
57.14116799151476
 31
0.0
  0
LINE
  5
248
330
1F
100
AcDbEntity
  8
仕上
  6
Continuous
 62
     2
370
     9
100
AcDbLine
 10
-698.0503958624762
 20
57.74120956140499
 30
0.0
 11
-696.7158291790936
 21
57.74120956140499
 31
0.0
  0
LINE
  5
249
330
1F
100
AcDbEntity
  8
仕上
  6
Continuous
 62
     4
370
     9
100
AcDbLine
 10
-705.5504206064585
 20
56.64109210996912
 30
0.0
 11
-700.0503282289246
 21
56.64109210996912
 31
0.0
  0
LINE
  5
24A
330
1F
100
AcDbEntity
  8
仕上
  6
Continuous
 62
     2
370
     9
100
AcDbLine
 10
-698.0503958624762
 20
62.64113664913729
 30
0.0
 11
-700.0503282289246
 21
62.64113664913729
 31
0.0
  0
LINE
  5
24B
330
1F
100
AcDbEntity
  8
仕上
  6
Continuous
 62
     2
370
     9
100
AcDbLine
 10
-698.0503958624762
 20
61.14115644432309
 30
0.0
 11
-696.7158291790936
 21
61.14115644432309
 31
0.0
  0
LINE
  5
24C
330
1F
100
AcDbEntity
  8
仕上
  6
Continuous
 62
     2
370
     9
100
AcDbLine
 10
-698.0503958624762
 20
60.54123859434412
 30
0.0
 11
-696.7158291790936
 21
60.54123859434412
 31
0.0
  0
LINE
  5
24D
330
1F
100
AcDbEntity
  8
仕上
  6
Continuous
 62
     4
370
     9
100
AcDbLine
 10
-705.5504206064585
 20
61.64123232586859
 30
0.0
 11
-700.0503282289246
 21
61.64123232586859
 31
0.0
  0
LINE
  5
24E
330
1F
100
AcDbEntity
  8
通り芯
  6
Continuous
 62
     3
370
     9
100
AcDbLine
 10
-700.2519916843722
 20
52.14115149552661
 30
0.0
 11
-700.2519916843722
 21
56.64109210996912
 31
0.0
  0
LINE
  5
24F
330
1F
100
AcDbEntity
  8
通り芯
  6
Continuous
 62
     3
370
     9
100
AcDbLine
 10
-698.2469868015597
 20
66.50862107692431
 30
0.0
 11
-698.2469868015597
 21
62.64113664913729
 31
0.0
  0
LINE
  5
250
330
1F
100
AcDbEntity
  8
通り芯
  6
Continuous
 62
     3
370
     9
100
AcDbLine
 10
-698.2469868015597
 20
51.6486225285714
 30
0.0
 11
-698.2469868015597
 21
55.64118778670056
 31
0.0
  0
LINE
  5
251
330
1F
100
AcDbEntity
  8
通り芯
  6
Continuous
 62
     3
370
     9
100
AcDbLine
 10
-701.5376890027845
 20
51.33165211577583
 30
0.0
 11
-701.5376890027845
 21
56.64109210996912
 31
0.0
  0
LINE
  5
252
330
1F
100
AcDbEntity
  8
通り芯
  6
Continuous
 62
     3
370
     9
100
AcDbLine
 10
-700.3781859939163
 20
49.87089112284927
 30
0.0
 11
-699.3927569002717
 21
49.6411432475326
 31
0.0
  0
LINE
  5
253
330
1F
100
AcDbEntity
  8
通り芯
  6
Continuous
 62
     3
370
     9
100
AcDbLine
 10
-698.554801940918
 20
50.73804398127414
 30
0.0
 11
-699.3927569002717
 21
49.6411432475326
 31
0.0
  0
LINE
  5
254
330
1F
100
AcDbEntity
  8
通り芯
  6
Continuous
 62
     3
370
     9
100
AcDbLine
 10
-699.2518399212811
 20
51.14124717225813
 30
0.0
 11
-698.3353228182405
 21
51.14124717225813
 31
0.0
  0
LINE
  5
255
330
1F
100
AcDbEntity
  8
通り芯
  6
Continuous
 62
     3
370
     9
100
AcDbLine
 10
-699.407232129896
 20
69.24443947588975
 30
0.0
 11
-699.532684119972
 21
70.14116139311957
 31
0.0
  0
LINE
  5
256
330
1F
100
AcDbEntity
  8
通り芯
  6
Continuous
 62
     3
370
     9
100
AcDbLine
 10
-699.3927569002717
 20
69.03671374478768
 30
0.0
 11
-699.3927569002717
 21
68.64118118830538
 31
0.0
  0
LINE
  5
257
330
1F
100
AcDbEntity
  8
通り芯
  6
Continuous
 62
     3
370
     9
100
AcDbLine
 10
-705.5504206064585
 20
69.14125706985088
 30
0.0
 11
-699.3963447777002
 21
69.14125706985088
 31
0.0
  0
LINE
  5
258
330
1F
100
AcDbEntity
  8
通り芯
  6
Continuous
 62
     3
370
     9
100
AcDbLine
 10
-699.532684119972
 20
70.14116139311957
 30
0.0
 11
-705.5504206064585
 21
70.14116139311957
 31
0.0
  0
LINE
  5
259
330
1F
100
AcDbEntity
  8
通り芯
  6
Continuous
 62
     3
370
     9
100
AcDbLine
 10
-700.2519916843722
 20
66.14117294031124
 30
0.0
 11
-700.2519916843722
 21
61.64123232586859
 31
0.0
  0
LINE
  5
25A
330
1F
100
AcDbEntity
  8
通り芯
  6
Continuous
 62
     3
370
     9
100
AcDbLine
 10
-701.5376890027845
 20
66.95067232006215
 30
0.0
 11
-701.5376890027845
 21
61.64123232586859
 31
0.0
  0
LINE
  5
25B
330
1F
100
AcDbEntity
  8
通り芯
  6
Continuous
 62
     3
370
     9
100
AcDbLine
 10
-700.3781859939163
 20
68.41155703289984
 30
0.0
 11
-699.3927569002717
 21
68.64118118830538
 31
0.0
  0
LINE
  5
25C
330
1F
100
AcDbEntity
  8
通り芯
  6
Continuous
 62
     3
370
     9
100
AcDbLine
 10
-698.554801940918
 20
67.54428045456385
 30
0.0
 11
-699.3927569002717
 21
68.64118118830538
 31
0.0
  0
LINE
  5
25D
330
1F
100
AcDbEntity
  8
通り芯
  6
Continuous
 62
     3
370
     9
100
AcDbLine
 10
-699.2518399212811
 20
67.14107726357986
 30
0.0
 11
-698.3353228182405
 21
67.14107726357986
 31
0.0
  0
LINE
  5
25E
330
1F
100
AcDbEntity
  8
通り芯
  6
Continuous
 62
     3
370
     9
100
AcDbLine
 10
-697.9611938064163
 20
-151.2694146797795
 30
0.0
 11
-697.9611938064163
 21
57.14116799151476
 31
0.0
  0
LINE
  5
25F
330
1F
100
AcDbEntity
  8
通り芯
  6
Continuous
 62
     3
370
     9
100
AcDbLine
 10
-699.532684119972
 20
-152.8409049933355
 30
0.0
 11
-699.532684119972
 21
48.14116304271841
 31
0.0
  0
LINE
  5
260
330
1F
100
AcDbEntity
  8
通り芯
  6
Continuous
 62
     3
370
     9
100
AcDbLine
 10
-695.5325719472524
 20
-156.8410171660549
 30
0.0
 11
-33.56819668331639
 21
-156.8410171660549
 31
0.0
  0
LINE
  5
261
330
1F
100
AcDbEntity
  8
通り芯
  6
Continuous
 62
     3
370
     9
100
AcDbLine
 10
-693.9610816336967
 20
-155.2695268524992
 30
0.0
 11
-35.13968699687211
 21
-155.2695268524992
 31
0.0
  0
LINE
  5
262
330
1F
100
AcDbEntity
  8
躯体
  6
Continuous
 62
     2
370
     9
100
AcDbLine
 10
-705.5504206064585
 20
-160.8586975661816
 30
0.0
 11
-23.55034802411026
 21
-160.8586975661816
 31
0.0
  0
LINE
  5
263
330
1F
100
AcDbEntity
  8
躯体
  6
Continuous
 62
     2
370
     9
100
AcDbLine
 10
-705.5504206064585
 20
-164.8588715988568
 30
0.0
 11
-23.55034802411026
 21
-164.8588715988568
 31
0.0
  0
LINE
  5
264
330
1F
100
AcDbEntity
  8
躯体
  6
Continuous
 62
     2
370
     9
100
AcDbLine
 10
-19.5504832912134
 20
-179.8588592268658
 30
0.0
 11
-709.5504090592668
 21
-179.8588592268658
 31
0.0
  0
LINE
  5
265
330
1F
100
AcDbEntity
  8
躯体
  6
Continuous
 62
     2
370
     9
100
AcDbLine
 10
-23.55034802411026
 20
-175.8587470541461
 30
0.0
 11
-705.5504206064585
 21
-175.8587470541461
 31
0.0
  0
LINE
  5
266
330
1F
100
AcDbEntity
  8
躯体
  6
Continuous
 62
     2
370
     9
100
AcDbLine
 10
-692.0504750432194
 20
-188.8588641756622
 30
0.0
 11
-667.0505162831898
 21
-188.8588641756622
 31
0.0
  0
LINE
  5
267
330
1F
100
AcDbEntity
  8
躯体
  6
Continuous
 62
     2
370
     9
100
AcDbLine
 10
-534.5504502992371
 20
-188.8588641756622
 30
0.0
 11
-509.5504915392075
 21
-188.8588641756622
 31
0.0
  0
LINE
  5
268
330
1F
100
AcDbEntity
  8
躯体
  6
Continuous
 62
     2
370
     9
100
AcDbLine
 10
-377.0504255552549
 20
-188.8588641756622
 30
0.0
 11
-352.0504667952253
 21
-188.8588641756622
 31
0.0
  0
LINE
  5
269
330
1F
100
AcDbEntity
  8
躯体
  6
Continuous
 62
     2
370
     9
100
AcDbLine
 10
-62.05043792724609
 20
-188.8588641756622
 30
0.0
 11
-37.05041730726066
 21
-188.8588641756622
 31
0.0
  0
LINE
  5
26A
330
1F
100
AcDbEntity
  8
躯体
  6
Continuous
 62
     2
370
     9
100
AcDbLine
 10
-219.5504008112727
 20
-188.8588641756622
 30
0.0
 11
-194.5503183313318
 21
-188.8588641756622
 31
0.0
  0
LINE
  5
26B
330
1F
100
AcDbEntity
  8
躯体
  6
Continuous
 62
     2
370
     9
100
AcDbLine
 10
-692.0504750432194
 20
-188.8588641756622
 30
0.0
 11
-692.0504750432194
 21
-179.8588592268658
 31
0.0
  0
LINE
  5
26C
330
1F
100
AcDbEntity
  8
躯体
  6
Continuous
 62
     2
370
     9
100
AcDbLine
 10
-692.0504750432194
 20
-175.8587470541461
 30
0.0
 11
-692.0504750432194
 21
-164.8588715988568
 31
0.0
  0
LINE
  5
26D
330
1F
100
AcDbEntity
  8
躯体
  6
Continuous
 62
     2
370
     9
100
AcDbLine
 10
-667.0505162831898
 20
-188.8588641756622
 30
0.0
 11
-667.0505162831898
 21
-179.8588592268658
 31
0.0
  0
LINE
  5
26E
330
1F
100
AcDbEntity
  8
躯体
  6
Continuous
 62
     2
370
     9
100
AcDbLine
 10
-667.0505162831898
 20
-175.8587470541461
 30
0.0
 11
-667.0505162831898
 21
-164.8588715988568
 31
0.0
  0
LINE
  5
26F
330
1F
100
AcDbEntity
  8
躯体
  6
Continuous
 62
     2
370
     9
100
AcDbLine
 10
-534.5504502992371
 20
-188.8588641756622
 30
0.0
 11
-534.5504502992371
 21
-179.8588592268658
 31
0.0
  0
LINE
  5
270
330
1F
100
AcDbEntity
  8
躯体
  6
Continuous
 62
     2
370
     9
100
AcDbLine
 10
-534.5504502992371
 20
-175.8587470541461
 30
0.0
 11
-534.5504502992371
 21
-164.8588715988568
 31
0.0
  0
LINE
  5
271
330
1F
100
AcDbEntity
  8
躯体
  6
Continuous
 62
     2
370
     9
100
AcDbLine
 10
-509.5504915392075
 20
-188.8588641756622
 30
0.0
 11
-509.5504915392075
 21
-179.8588592268658
 31
0.0
  0
LINE
  5
272
330
1F
100
AcDbEntity
  8
躯体
  6
Continuous
 62
     2
370
     9
100
AcDbLine
 10
-509.5504915392075
 20
-175.8587470541461
 30
0.0
 11
-509.5504915392075
 21
-164.8588715988568
 31
0.0
  0
LINE
  5
273
330
1F
100
AcDbEntity
  8
躯体
  6
Continuous
 62
     2
370
     9
100
AcDbLine
 10
-377.0504255552549
 20
-188.8588641756622
 30
0.0
 11
-377.0504255552549
 21
-179.8588592268658
 31
0.0
  0
LINE
  5
274
330
1F
100
AcDbEntity
  8
躯体
  6
Continuous
 62
     2
370
     9
100
AcDbLine
 10
-377.0504255552549
 20
-175.8587470541461
 30
0.0
 11
-377.0504255552549
 21
-164.8588715988568
 31
0.0
  0
LINE
  5
275
330
1F
100
AcDbEntity
  8
躯体
  6
Continuous
 62
     2
370
     9
100
AcDbLine
 10
-352.0504667952253
 20
-188.8588641756622
 30
0.0
 11
-352.0504667952253
 21
-179.8588592268658
 31
0.0
  0
LINE
  5
276
330
1F
100
AcDbEntity
  8
躯体
  6
Continuous
 62
     2
370
     9
100
AcDbLine
 10
-352.0504667952253
 20
-175.8587470541461
 30
0.0
 11
-352.0504667952253
 21
-164.8588715988568
 31
0.0
  0
LINE
  5
277
330
1F
100
AcDbEntity
  8
躯体
  6
Continuous
 62
     2
370
     9
100
AcDbLine
 10
-219.5504008112727
 20
-188.8588641756622
 30
0.0
 11
-219.5504008112727
 21
-179.8588592268658
 31
0.0
  0
LINE
  5
278
330
1F
100
AcDbEntity
  8
躯体
  6
Continuous
 62
     2
370
     9
100
AcDbLine
 10
-219.5504008112727
 20
-175.8587470541461
 30
0.0
 11
-219.5504008112727
 21
-164.8588715988568
 31
0.0
  0
LINE
  5
279
330
1F
100
AcDbEntity
  8
躯体
  6
Continuous
 62
     2
370
     9
100
AcDbLine
 10
-194.5503183313318
 20
-188.8588641756622
 30
0.0
 11
-194.5503183313318
 21
-179.8588592268658
 31
0.0
  0
LINE
  5
27A
330
1F
100
AcDbEntity
  8
躯体
  6
Continuous
 62
     2
370
     9
100
AcDbLine
 10
-194.5503183313318
 20
-175.8587470541461
 30
0.0
 11
-194.5503183313318
 21
-164.8588715988568
 31
0.0
  0
LINE
  5
27B
330
1F
100
AcDbEntity
  8
躯体
  6
Continuous
 62
     2
370
     9
100
AcDbLine
 10
-62.05043792724609
 20
-188.8588641756622
 30
0.0
 11
-62.05043792724609
 21
-179.8588592268658
 31
0.0
  0
LINE
  5
27C
330
1F
100
AcDbEntity
  8
躯体
  6
Continuous
 62
     2
370
     9
100
AcDbLine
 10
-62.05043792724609
 20
-175.8587470541461
 30
0.0
 11
-62.05043792724609
 21
-164.8588715988568
 31
0.0
  0
LINE
  5
27D
330
1F
100
AcDbEntity
  8
躯体
  6
Continuous
 62
     2
370
     9
100
AcDbLine
 10
-37.05041730726066
 20
-188.8588641756622
 30
0.0
 11
-37.05041730726066
 21
-179.8588592268658
 31
0.0
  0
LINE
  5
27E
330
1F
100
AcDbEntity
  8
躯体
  6
Continuous
 62
     2
370
     9
100
AcDbLine
 10
-37.05041730726066
 20
-175.8587470541461
 30
0.0
 11
-37.05041730726066
 21
-164.8588715988568
 31
0.0
  0
LINE
  5
27F
330
1F
100
AcDbEntity
  8
通り芯
  6
JWW_CENTER1
 62
     3
370
     9
100
AcDbLine
 10
392.0478459951039
 20
156.1411605683201
 30
0.0
 11
509.0477866095469
 21
156.1411605683201
 31
0.0
  0
LINE
  5
280
330
1F
100
AcDbEntity
  8
通り芯
  6
JWW_CENTER1
 62
     3
370
     9
100
AcDbLine
 10
-364.5503843152845
 20
-372.2596523539771
 30
0.0
 11
-364.5503843152845
 21
-489.2598404082424
 31
0.0
  0
LINE
  5
281
330
1F
100
AcDbEntity
  8
通り芯
  6
Continuous
 62
     3
370
     9
100
AcDbLine
 10
-476.4613538175016
 20
-432.5883266703834
 30
0.0
 11
-478.1396144145243
 21
-433.9310588679129
 31
0.0
  0
LINE
  5
282
330
1F
100
AcDbEntity
  8
通り芯
  6
Continuous
 62
     3
370
     9
100
AcDbLine
 10
-480.9614181518554
 20
-433.9310588679129
 30
0.0
 11
-482.6395550289669
 21
-432.5883266703834
 31
0.0
  0
LINE
  5
283
330
1F
100
AcDbEntity
  8
通り芯
  6
Continuous
 62
     3
370
     9
100
AcDbLine
 10
-475.4021876567118
 20
-467.9254551807298
 30
0.0
 11
-474.0447327897354
 21
-443.7075299801386
 31
0.0
  0
LINE
  5
284
330
1F
100
AcDbEntity
  8
通り芯
  6
Continuous
 62
     3
370
     9
100
AcDbLine
 10
-485.0562997766443
 20
-443.7075299801386
 30
0.0
 11
-483.6987211897566
 21
-467.9254551807298
 31
0.0
  0
LINE
  5
285
330
1F
100
AcDbEntity
  8
通り芯
  6
Continuous
 62
     3
370
     9
100
AcDbLine
 10
-490.025757454537
 20
-439.2596754483606
 30
0.0
 11
-704.55051628319
 21
-439.2596754483606
 31
0.0
  0
LINE
  5
286
330
1F
100
AcDbEntity
  8
通り芯
  6
Continuous
 62
     3
370
     9
100
AcDbLine
 10
446.0478756878825
 20
-183.5345777921106
 30
0.0
 11
446.0478756878825
 21
-166.4404450851849
 31
0.0
  0
LINE
  5
287
330
1F
100
AcDbEntity
  8
通り芯
  6
Continuous
 62
     3
370
     9
100
AcDbLine
 10
470.6547762896565
 20
-160.9582920947922
 30
0.0
 11
449.7629371849268
 21
-162.4506016651047
 31
0.0
  0
LINE
  5
288
330
1F
100
AcDbEntity
  8
通り芯
  6
Continuous
 62
     3
370
     9
100
AcDbLine
 10
472.0481099309148
 20
-156.1596916144293
 30
0.0
 11
472.0481099309148
 21
-159.4621472072289
 31
0.0
  0
LINE
  5
289
330
1F
100
AcDbEntity
  8
通り芯
  6
Continuous
 62
     3
370
     9
100
AcDbLine
 10
463.3409500122073
 20
-153.4721239808775
 30
0.0
 11
470.7601856540992
 21
-154.674928958707
 31
0.0
  0
LINE
  5
28A
330
1F
100
AcDbEntity
  8
通り芯
  6
Continuous
 62
     3
370
     9
100
AcDbLine
 10
432.0479779630097
 20
50.1412191290781
 30
0.0
 11
448.0479317742427
 21
51.14124717225813
 31
0.0
  0
LINE
  5
28B
330
1F
100
AcDbEntity
  8
通り芯
  6
Continuous
 62
     3
370
     9
100
AcDbLine
 10
448.0479317742427
 20
51.14124717225813
 30
0.0
 11
432.0479779630097
 21
49.6411432475326
 31
0.0
  0
LINE
  5
28C
330
1F
100
AcDbEntity
  8
通り芯
  6
Continuous
 62
     3
370
     9
100
AcDbLine
 10
448.0479317742427
 20
51.14124717225813
 30
0.0
 11
448.0479317742427
 21
67.14107726357986
 31
0.0
  0
LINE
  5
28D
330
1F
100
AcDbEntity
  8
通り芯
  6
Continuous
 62
     3
370
     9
100
AcDbLine
 10
452.3766440314219
 20
44.23019106610297
 30
0.0
 11
453.7192525090398
 21
42.55193046908018
 31
0.0
  0
LINE
  5
28E
330
1F
100
AcDbEntity
  8
通り芯
  6
Continuous
 62
     3
370
     9
100
AcDbLine
 10
453.7192525090398
 20
39.73012673174913
 30
0.0
 11
452.3766440314219
 21
38.05198985463768
 31
0.0
  0
LINE
  5
28F
330
1F
100
AcDbEntity
  8
通り芯
  6
Continuous
 62
     3
370
     9
100
AcDbLine
 10
487.713772541768
 20
45.28935722689268
 30
0.0
 11
463.4958473411768
 21
46.64693581378038
 31
0.0
  0
LINE
  5
290
330
1F
100
AcDbEntity
  8
通り芯
  6
Continuous
 62
     3
370
     9
100
AcDbLine
 10
463.4958473411768
 20
35.63524510696026
 30
0.0
 11
487.713772541768
 21
36.99282369384789
 31
0.0
  0
LINE
  5
291
330
1F
100
AcDbEntity
  8
躯体
  6
Continuous
 62
     2
370
     9
100
AcDbLine
 10
446.8480960742846
 20
-167.8587701485295
 30
0.0
 11
446.8480960742846
 21
-181.8589153132255
 31
0.0
  0
LINE
  5
292
330
1F
100
AcDbEntity
  8
躯体
  6
Continuous
 62
     2
370
     9
100
AcDbLine
 10
446.8480960742846
 20
-167.8587701485295
 30
0.0
 11
448.4477945276211
 21
-169.333882651169
 31
0.0
  0
LINE
  5
293
330
1F
100
AcDbEntity
  8
躯体
  6
Continuous
 62
     2
370
     9
100
AcDbLine
 10
446.8480960742846
 20
-181.8589153132255
 30
0.0
 11
448.4477945276211
 21
-180.3838028105861
 31
0.0
  0
LINE
  5
294
330
1F
100
AcDbEntity
  8
躯体
  6
Continuous
 62
     2
370
     9
100
AcDbLine
 10
446.8480960742846
 20
-172.0964245509789
 30
0.0
 11
452.0480439469623
 21
-172.0964245509789
 31
0.0
  0
LINE
  5
295
330
1F
100
AcDbEntity
  8
躯体
  6
Continuous
 62
     2
370
     9
100
AcDbLine
 10
446.8480960742846
 20
-177.621322770732
 30
0.0
 11
452.0480439469623
 21
-177.621322770732
 31
0.0
  0
LINE
  5
296
330
1F
100
AcDbEntity
  8
躯体
  6
Continuous
 62
     2
370
     9
100
AcDbLine
 10
446.0478756878825
 20
-167.8587701485295
 30
0.0
 11
446.8480960742846
 21
-167.8587701485295
 31
0.0
  0
LINE
  5
297
330
1F
100
AcDbEntity
  8
躯体
  6
Continuous
 62
     2
370
     9
100
AcDbLine
 10
446.0478756878825
 20
-181.8589153132255
 30
0.0
 11
446.8480960742846
 21
-181.8589153132255
 31
0.0
  0
LINE
  5
298
330
1F
100
AcDbEntity
  8
躯体
  6
Continuous
 62
     2
370
     9
100
AcDbLine
 10
448.4477945276211
 20
-169.333882651169
 30
0.0
 11
452.0480439469623
 21
-169.333882651169
 31
0.0
  0
LINE
  5
299
330
1F
100
AcDbEntity
  8
躯体
  6
Continuous
 62
     2
370
     9
100
AcDbLine
 10
452.0480439469623
 20
-169.333882651169
 30
0.0
 11
452.0480439469623
 21
-180.3838028105861
 31
0.0
  0
LINE
  5
29A
330
1F
100
AcDbEntity
  8
躯体
  6
Continuous
 62
     2
370
     9
100
AcDbLine
 10
455.0480043565906
 20
-171.8587586013379
 30
0.0
 11
455.0480043565906
 21
-177.8588031405059
 31
0.0
  0
LINE
  5
29B
330
1F
100
AcDbEntity
  8
躯体
  6
Continuous
 62
     2
370
     9
100
AcDbLine
 10
455.0480043565906
 20
-171.8587586013379
 30
0.0
 11
456.0479086798594
 21
-172.8587866445178
 31
0.0
  0
LINE
  5
29C
330
1F
100
AcDbEntity
  8
躯体
  6
Continuous
 62
     2
370
     9
100
AcDbLine
 10
456.0479086798594
 20
-176.8588988172373
 30
0.0
 11
455.0480043565906
 21
-177.8588031405059
 31
0.0
  0
LINE
  5
29D
330
1F
100
AcDbEntity
  8
躯体
  6
Continuous
 62
     2
370
     9
100
AcDbLine
 10
448.4477945276211
 20
-180.3838028105861
 30
0.0
 11
452.0480439469623
 21
-180.3838028105861
 31
0.0
  0
LINE
  5
29E
330
1F
100
AcDbEntity
  8
躯体
  6
Continuous
 62
     2
370
     9
100
AcDbLine
 10
456.0479086798594
 20
-172.8587866445178
 30
0.0
 11
456.0479086798594
 21
-176.8588988172373
 31
0.0
  0
LINE
  5
29F
330
1F
100
AcDbEntity
  8
躯体
  6
Continuous
 62
     2
370
     9
100
AcDbLine
 10
427.0479614670211
 20
-164.8588715988568
 30
0.0
 11
427.0479614670211
 21
-188.8587404557507
 31
0.0
  0
LINE
  5
2A0
330
1F
100
AcDbEntity
  8
躯体
  6
Continuous
 62
     2
370
     9
100
AcDbLine
 10
432.0479779630097
 20
-160.8586975661816
 30
0.0
 11
432.0479779630097
 21
-188.8587404557507
 31
0.0
  0
LINE
  5
2A1
330
1F
100
AcDbEntity
  8
躯体
  6
Continuous
 62
     2
370
     9
100
AcDbLine
 10
432.0479779630097
 20
-164.8588715988568
 30
0.0
 11
412.0479119790573
 21
-164.8588715988568
 31
0.0
  0
LINE
  5
2A2
330
1F
100
AcDbEntity
  8
躯体
  6
Continuous
 62
     2
370
     9
100
AcDbLine
 10
432.0479779630097
 20
-160.8586975661816
 30
0.0
 11
412.0479119790573
 21
-160.8586975661816
 31
0.0
  0
LINE
  5
2A3
330
1F
100
AcDbEntity
  8
躯体
  6
Continuous
 62
     2
370
     9
100
AcDbLine
 10
432.0479779630097
 20
-188.8587404557507
 30
0.0
 11
427.0479614670211
 21
-188.8587404557507
 31
0.0
  0
LINE
  5
2A4
330
1F
100
AcDbEntity
  8
躯体
  6
Continuous
 62
     2
370
     9
100
AcDbLine
 10
452.0480439469623
 20
-177.8588031405059
 30
0.0
 11
455.0480043565906
 21
-177.8588031405059
 31
0.0
  0
LINE
  5
2A5
330
1F
100
AcDbEntity
  8
躯体
  6
Continuous
 62
     2
370
     9
100
AcDbLine
 10
456.0479086798594
 20
-176.8588988172373
 30
0.0
 11
452.0480439469623
 21
-176.8588988172373
 31
0.0
  0
LINE
  5
2A6
330
1F
100
AcDbEntity
  8
躯体
  6
Continuous
 62
     2
370
     9
100
AcDbLine
 10
452.0480439469623
 20
-172.8587866445178
 30
0.0
 11
456.0479086798594
 21
-172.8587866445178
 31
0.0
  0
LINE
  5
2A7
330
1F
100
AcDbEntity
  8
躯体
  6
Continuous
 62
     2
370
     9
100
AcDbLine
 10
452.0480439469623
 20
-171.8587586013379
 30
0.0
 11
455.0480043565906
 21
-171.8587586013379
 31
0.0
  0
LINE
  5
2A8
330
1F
100
AcDbEntity
  8
通り芯
  6
Continuous
 62
     3
370
     9
100
AcDbLine
 10
432.0479779630097
 20
-179.35878334532
 30
0.0
 11
446.0478756878825
 21
-179.35878334532
 31
0.0
  0
LINE
  5
2A9
330
1F
100
AcDbEntity
  8
通り芯
  6
Continuous
 62
     3
370
     9
100
AcDbLine
 10
432.0479779630097
 20
-170.3589021164349
 30
0.0
 11
446.0478756878825
 21
-170.3589021164349
 31
0.0
  0
LINE
  5
2AA
330
1F
100
AcDbEntity
  8
通り芯
  6
Continuous
 62
     3
370
     9
100
AcDbLine
 10
444.7339702296907
 20
-185.0230520451723
 30
0.0
 11
432.0479779630097
 21
-186.6088938684408
 31
0.0
  0
LINE
  5
2AB
330
1F
100
AcDbEntity
  8
仕上
  6
Continuous
 62
     4
370
     9
100
AcDbLine
 10
443.0479152782544
 20
56.64109210996912
 30
0.0
 11
443.0479152782544
 21
61.64123232586859
 31
0.0
  0
LINE
  5
2AC
330
1F
100
AcDbEntity
  8
仕上
  6
Continuous
 62
     4
370
     9
100
AcDbLine
 10
429.5480934349268
 20
56.64109210996912
 30
0.0
 11
429.5480934349268
 21
61.64123232586859
 31
0.0
  0
LINE
  5
2AD
330
1F
100
AcDbEntity
  8
仕上
  6
Continuous
 62
     4
370
     9
100
AcDbLine
 10
415.0478723886852
 20
56.64109210996912
 30
0.0
 11
415.0478723886852
 21
61.64123232586859
 31
0.0
  0
LINE
  5
2AE
330
1F
100
AcDbEntity
  8
仕上
  6
Continuous
 62
     2
370
     9
100
AcDbLine
 10
435.5480142541836
 20
55.64118778670056
 30
0.0
 11
442.5480868365315
 21
55.64118778670056
 31
0.0
  0
LINE
  5
2AF
330
1F
100
AcDbEntity
  8
仕上
  6
Continuous
 62
     2
370
     9
100
AcDbLine
 10
435.5480142541836
 20
62.64113664913729
 30
0.0
 11
435.5480142541836
 21
55.64118778670056
 31
0.0
  0
LINE
  5
2B0
330
1F
100
AcDbEntity
  8
仕上
  6
Continuous
 62
     2
370
     9
100
AcDbLine
 10
442.5480868365315
 20
55.64118778670056
 30
0.0
 11
442.5480868365315
 21
62.64113664913729
 31
0.0
  0
LINE
  5
2B1
330
1F
100
AcDbEntity
  8
仕上
  6
Continuous
 62
     4
370
     9
100
AcDbLine
 10
415.0478723886852
 20
56.64109210996912
 30
0.0
 11
435.5480142541836
 21
56.64109210996912
 31
0.0
  0
LINE
  5
2B2
330
1F
100
AcDbEntity
  8
仕上
  6
Continuous
 62
     4
370
     9
100
AcDbLine
 10
442.5480868365315
 20
56.64109210996912
 30
0.0
 11
443.0479152782544
 21
56.64109210996912
 31
0.0
  0
LINE
  5
2B3
330
1F
100
AcDbEntity
  8
躯体
  6
Continuous
 62
     2
370
     9
100
AcDbLine
 10
446.0478756878825
 20
-177.8588031405059
 30
0.0
 11
432.0479779630097
 21
-177.8588031405059
 31
0.0
  0
LINE
  5
2B4
330
1F
100
AcDbEntity
  8
躯体
  6
Continuous
 62
     2
370
     9
100
AcDbLine
 10
446.0478756878825
 20
-176.8588988172373
 30
0.0
 11
432.0479779630097
 21
-176.8588988172373
 31
0.0
  0
LINE
  5
2B5
330
1F
100
AcDbEntity
  8
躯体
  6
Continuous
 62
     2
370
     9
100
AcDbLine
 10
446.0478756878825
 20
-171.8588823212492
 30
0.0
 11
432.0479779630097
 21
-171.8588823212492
 31
0.0
  0
LINE
  5
2B6
330
1F
100
AcDbEntity
  8
躯体
  6
Continuous
 62
     2
370
     9
100
AcDbLine
 10
446.0478756878825
 20
-172.8587866445178
 30
0.0
 11
432.0479779630097
 21
-172.8587866445178
 31
0.0
  0
LINE
  5
2B7
330
1F
100
AcDbEntity
  8
躯体
  6
JWW_CENTER1
 62
     2
370
     9
100
AcDbLine
 10
428.9792292826886
 20
-174.8588427308776
 30
0.0
 11
461.2708684560414
 21
-174.8588427308776
 31
0.0
  0
LINE
  5
2B8
330
1F
100
AcDbEntity
  8
通り芯
  6
Continuous
 62
     3
370
     9
100
AcDbLine
 10
431.2188071173594
 20
48.72648194316177
 30
0.0
 11
430.0479218766498
 21
48.14116304271841
 31
0.0
  0
LINE
  5
2B9
330
1F
100
AcDbEntity
  8
通り芯
  6
Continuous
 62
     3
370
     9
100
AcDbLine
 10
432.0479779630097
 20
56.64109210996912
 30
0.0
 11
432.0479779630097
 21
50.06822438140083
 31
0.0
  0
LINE
  5
2BA
330
1F
100
AcDbEntity
  8
通り芯
  6
Continuous
 62
     3
370
     9
100
AcDbLine
 10
452.3766440314219
 20
-133.4479326142179
 30
0.0
 11
453.7192525090398
 21
-131.769672017195
 31
0.0
  0
LINE
  5
2BB
330
1F
100
AcDbEntity
  8
通り芯
  6
Continuous
 62
     3
370
     9
100
AcDbLine
 10
448.3329824499185
 20
-155.5347823423641
 30
0.0
 11
430.0479218766498
 21
-156.8410171660549
 31
0.0
  0
LINE
  5
2BC
330
1F
100
AcDbEntity
  8
通り芯
  6
Continuous
 62
     3
370
     9
100
AcDbLine
 10
432.0479779630097
 20
68.141229026671
 30
0.0
 11
448.0479317742427
 21
67.14107726357986
 31
0.0
  0
LINE
  5
2BD
330
1F
100
AcDbEntity
  8
通り芯
  6
Continuous
 62
     3
370
     9
100
AcDbLine
 10
448.0479317742427
 20
67.14107726357986
 30
0.0
 11
432.0479779630097
 21
68.64118118830538
 31
0.0
  0
LINE
  5
2BE
330
1F
100
AcDbEntity
  8
仕上
  6
Continuous
 62
     2
370
     9
100
AcDbLine
 10
435.5480142541836
 20
62.64113664913729
 30
0.0
 11
442.5480868365315
 21
62.64113664913729
 31
0.0
  0
LINE
  5
2BF
330
1F
100
AcDbEntity
  8
仕上
  6
Continuous
 62
     4
370
     9
100
AcDbLine
 10
415.0478723886852
 20
61.64123232586859
 30
0.0
 11
435.5480142541836
 21
61.64123232586859
 31
0.0
  0
LINE
  5
2C0
330
1F
100
AcDbEntity
  8
仕上
  6
Continuous
 62
     4
370
     9
100
AcDbLine
 10
442.5480868365315
 20
61.64123232586859
 30
0.0
 11
443.0479152782544
 21
61.64123232586859
 31
0.0
  0
LINE
  5
2C1
330
1F
100
AcDbEntity
  8
通り芯
  6
Continuous
 62
     3
370
     9
100
AcDbLine
 10
431.2188071173594
 20
69.555842492676
 30
0.0
 11
430.0479218766498
 21
70.14116139311957
 31
0.0
  0
LINE
  5
2C2
330
1F
100
AcDbEntity
  8
通り芯
  6
Continuous
 62
     3
370
     9
100
AcDbLine
 10
432.0479779630097
 20
61.64123232586859
 30
0.0
 11
432.0479779630097
 21
68.21410005443715
 31
0.0
  0
LINE
  5
2C3
330
1F
100
AcDbEntity
  8
躯体
  6
Continuous
 62
     2
370
     9
100
AcDbLine
 10
427.0479614670211
 20
-179.8588592268658
 30
0.0
 11
412.0479119790573
 21
-179.8588592268658
 31
0.0
  0
LINE
  5
2C4
330
1F
100
AcDbEntity
  8
躯体
  6
Continuous
 62
     2
370
     9
100
AcDbLine
 10
427.0479614670211
 20
-175.8587470541461
 30
0.0
 11
412.0479119790573
 21
-175.8587470541461
 31
0.0
  0
LINE
  5
2C5
330
1F
100
AcDbEntity
  8
通り芯
  6
JWW_CENTER1
 62
     3
370
     9
100
AcDbLine
 10
-364.5503843152845
 20
-214.8589128388273
 30
0.0
 11
-364.5503843152845
 21
527.141172115512
 31
0.0
  0
LINE
  5
2C6
330
1F
100
AcDbEntity
  8
通り芯
  6
JWW_CENTER1
 62
     3
370
     9
100
AcDbLine
 10
-735.5503958624762
 20
156.1411605683201
 30
0.0
 11
6.449503511996113
 21
156.1411605683201
 31
0.0
  0
LINE
  5
2C7
330
1F
100
AcDbEntity
  8
通り芯
  6
Continuous
 62
     3
370
     9
100
AcDbLine
 10
430.0479218766498
 20
473.1410187028218
 30
0.0
 11
430.0479218766498
 21
255.6411671667154
 31
0.0
  0
LINE
  5
2C8
330
1F
100
AcDbEntity
  8
通り芯
  6
Continuous
 62
     3
370
     9
100
AcDbLine
 10
-239.0751348959432
 20
-439.2596754483606
 30
0.0
 11
-24.55049978720169
 21
-439.2596754483606
 31
0.0
  0
LINE
  5
2C9
330
1F
100
AcDbEntity
  8
通り芯
  6
Continuous
 62
     3
370
     9
100
AcDbLine
 10
-86.70991949132969
 20
-464.6917878586225
 30
0.0
 11
-76.19484050853828
 21
-453.8276950060042
 31
0.0
  0
LINE
  5
2CA
330
1F
100
AcDbEntity
  8
通り芯
  6
Continuous
 62
     4
370
     9
100
AcDbLine
 10
-113.8720692815006
 20
-442.6519516967771
 30
0.0
 11
-113.9074531761374
 21
-442.4752796634157
 31
0.0
  0
LINE
  5
2CB
330
1F
100
AcDbEntity
  8
通り芯
  6
Continuous
 62
     3
370
     9
100
AcDbLine
 10
-99.87192411680468
 20
-442.6519516967771
 30
0.0
 11
-99.90730801144139
 21
-442.4752796634157
 31
0.0
  0
LINE
  5
2CC
330
1F
100
AcDbEntity
  8
通り芯
  6
Continuous
 62
     3
370
     9
100
AcDbLine
 10
-26.94720190924556
 20
-452.2596688499654
 30
0.0
 11
-74.41636678334817
 21
-452.2596688499654
 31
0.0
  0
LINE
  5
2CD
330
1F
100
AcDbEntity
  8
通り芯
  6
Continuous
 62
     3
370
     9
100
AcDbLine
 10
-36.21270978772941
 20
-444.2596919443487
 30
0.0
 11
-111.9108612472945
 21
-444.2596919443487
 31
0.0
  0
LINE
  5
2CE
330
1F
100
AcDbEntity
  8
通り芯
  6
Continuous
 62
     3
370
     9
100
AcDbLine
 10
-32.89825336353189
 20
-443.499309369391
 30
0.0
 11
-31.74604982943137
 21
-450.9878281616209
 31
0.0
  0
LINE
  5
2CF
330
1F
100
AcDbEntity
  8
通り芯
  6
Continuous
 62
     3
370
     9
100
AcDbLine
 10
-65.41648555446315
 20
-449.2597084403369
 30
0.0
 11
-32.01192391885286
 21
-449.2597084403369
 31
0.0
  0
LINE
  5
2D0
330
1F
100
AcDbEntity
  8
通り芯
  6
Continuous
 62
     3
370
     9
100
AcDbLine
 10
-652.4612169007997
 20
-433.9310588679129
 30
0.0
 11
-654.1396012177338
 21
-432.5883266703834
 31
0.0
  0
LINE
  5
2D1
330
1F
100
AcDbEntity
  8
躯体
  6
Continuous
 62
     2
370
     9
100
AcDbLine
 10
-709.5504090592668
 20
-412.2596606019712
 30
0.0
 11
-709.5504090592668
 21
-392.2595946180185
 31
0.0
  0
LINE
  5
2D2
330
1F
100
AcDbEntity
  8
躯体
  6
Continuous
 62
     2
370
     9
100
AcDbLine
 10
-705.5505443263698
 20
-412.2596606019712
 30
0.0
 11
-705.5505443263698
 21
-392.2595946180185
 31
0.0
  0
LINE
  5
2D3
330
1F
100
AcDbEntity
  8
躯体
  6
Continuous
 62
     2
370
     9
100
AcDbLine
 10
-705.5505443263698
 20
-412.2596606019712
 30
0.0
 11
-709.5504090592668
 21
-412.2596606019712
 31
0.0
  0
LINE
  5
2D4
330
1F
100
AcDbEntity
  8
仕上
  6
Continuous
 62
     2
370
     9
100
AcDbLine
 10
-706.1575142112939
 20
-415.759573173234
 30
0.0
 11
-706.1575142112939
 21
-422.7598931954046
 31
0.0
  0
LINE
  5
2D5
330
1F
100
AcDbEntity
  8
仕上
  6
Continuous
 62
     2
370
     9
100
AcDbLine
 10
-708.3372116088867
 20
-419.7596853459535
 30
0.0
 11
-708.3372116088867
 21
-418.7596573027737
 31
0.0
  0
LINE
  5
2D6
330
1F
100
AcDbEntity
  8
仕上
  6
Continuous
 62
     2
370
     9
100
AcDbLine
 10
-708.7383115613783
 20
-418.7596573027737
 30
0.0
 11
-708.3372116088867
 21
-418.7596573027737
 31
0.0
  0
LINE
  5
2D7
330
1F
100
AcDbEntity
  8
仕上
  6
Continuous
 62
     2
370
     9
100
AcDbLine
 10
-695.2159726941908
 20
-417.2598008178709
 30
0.0
 11
-695.2159726941908
 21
-421.2597892706792
 31
0.0
  0
LINE
  5
2D8
330
1F
100
AcDbEntity
  8
仕上
  6
Continuous
 62
     2
370
     9
100
AcDbLine
 10
-704.7577471346467
 20
-417.2598008178709
 30
0.0
 11
-704.7577471346467
 21
-421.2597892706792
 31
0.0
  0
LINE
  5
2D9
330
1F
100
AcDbEntity
  8
仕上
  6
Continuous
 62
     2
370
     9
100
AcDbLine
 10
-704.7577471346467
 20
-417.2598008178709
 30
0.0
 11
-705.2684629285658
 21
-417.5545016466292
 31
0.0
  0
LINE
  5
2DA
330
1F
100
AcDbEntity
  8
仕上
  6
Continuous
 62
     2
370
     9
100
AcDbLine
 10
-704.7574996948242
 20
-420.6597477007887
 30
0.0
 11
-706.0602703609982
 21
-421.4380696628876
 31
0.0
  0
LINE
  5
2DB
330
1F
100
AcDbEntity
  8
仕上
  6
Continuous
 62
     2
370
     9
100
AcDbLine
 10
-704.7574996948242
 20
-417.8597186678496
 30
0.0
 11
-706.0602703609982
 21
-417.0813967057508
 31
0.0
  0
LINE
  5
2DC
330
1F
100
AcDbEntity
  8
仕上
  6
Continuous
 62
     2
370
     9
100
AcDbLine
 10
-707.7346956407702
 20
-415.759573173234
 30
0.0
 11
-706.1575142112939
 21
-415.759573173234
 31
0.0
  0
LINE
  5
2DD
330
1F
100
AcDbEntity
  8
仕上
  6
Continuous
 62
     2
370
     9
100
AcDbLine
 10
-706.1575142112939
 20
-422.7598931954046
 30
0.0
 11
-707.7346956407702
 21
-422.7598931954046
 31
0.0
  0
LINE
  5
2DE
330
1F
100
AcDbEntity
  8
仕上
  6
Continuous
 62
     2
370
     9
100
AcDbLine
 10
-708.7383115613783
 20
-419.7596853459535
 30
0.0
 11
-708.3372116088867
 21
-419.7596853459535
 31
0.0
  0
LINE
  5
2DF
330
1F
100
AcDbEntity
  8
仕上
  6
Continuous
 62
     4
370
     9
100
AcDbLine
 10
-698.5504717440217
 20
-423.2597216371275
 30
0.0
 11
-700.0504519488361
 21
-423.2597216371275
 31
0.0
  0
LINE
  5
2E0
330
1F
100
AcDbEntity
  8
仕上
  6
Continuous
 62
     4
370
     9
100
AcDbLine
 10
-704.0505641215556
 20
-395.2596787475584
 30
0.0
 11
-705.5505443263698
 21
-395.2596787475584
 31
0.0
  0
LINE
  5
2E1
330
1F
100
AcDbEntity
  8
仕上
  6
Continuous
 62
     4
370
     9
100
AcDbLine
 10
-703.55048824001
 20
-409.7596523539771
 30
0.0
 11
-699.0505476255674
 21
-409.7596523539771
 31
0.0
  0
LINE
  5
2E2
330
1F
100
AcDbEntity
  8
仕上
  6
Continuous
 62
     4
370
     9
100
AcDbLine
 10
-704.0505641215556
 20
-409.2597001923428
 30
0.0
 11
-704.0505641215556
 21
-395.2596787475584
 31
0.0
  0
LINE
  5
2E3
330
1F
100
AcDbEntity
  8
仕上
  6
Continuous
 62
     4
370
     9
100
AcDbLine
 10
-700.550651550293
 20
-411.2596325587913
 30
0.0
 11
-705.0504684448242
 21
-411.2596325587913
 31
0.0
  0
LINE
  5
2E4
330
1F
100
AcDbEntity
  8
仕上
  6
Continuous
 62
     2
370
     9
100
AcDbLine
 10
-704.7577471346467
 20
-421.2597892706792
 30
0.0
 11
-705.2684629285658
 21
-420.964841002098
 31
0.0
  0
LINE
  5
2E5
330
1F
100
AcDbEntity
  8
仕上
  6
Continuous
 62
     4
370
     9
100
AcDbLine
 10
-700.0504519488361
 20
-421.7597414323133
 30
0.0
 11
-698.5504717440217
 21
-421.7597414323133
 31
0.0
  0
LINE
  5
2E6
330
1F
100
AcDbEntity
  8
仕上
  6
Continuous
 62
     4
370
     9
100
AcDbLine
 10
-700.0504519488361
 20
-416.7597249363251
 30
0.0
 11
-698.5504717440217
 21
-416.7597249363251
 31
0.0
  0
LINE
  5
2E7
330
1F
100
AcDbEntity
  8
仕上
  6
Continuous
 62
     4
370
     9
100
AcDbLine
 10
-698.5504717440217
 20
-421.2597892706792
 30
0.0
 11
-698.5504717440217
 21
-423.2597216371275
 31
0.0
  0
LINE
  5
2E8
330
1F
100
AcDbEntity
  8
仕上
  6
Continuous
 62
     4
370
     9
100
AcDbLine
 10
-700.0504519488361
 20
-411.7597084403369
 30
0.0
 11
-700.0504519488361
 21
-417.2598008178709
 31
0.0
  0
LINE
  5
2E9
330
1F
100
AcDbEntity
  8
仕上
  6
Continuous
 62
     4
370
     9
100
AcDbLine
 10
-700.0504519488361
 20
-421.2597892706792
 30
0.0
 11
-700.0504519488361
 21
-423.2597216371275
 31
0.0
  0
LINE
  5
2EA
330
1F
100
AcDbEntity
  8
仕上
  6
Continuous
 62
     4
370
     9
100
AcDbLine
 10
-698.5504717440217
 20
-410.259728235523
 30
0.0
 11
-698.5504717440217
 21
-417.2598008178709
 31
0.0
  0
LINE
  5
2EB
330
1F
100
AcDbEntity
  8
仕上
  6
Continuous
 62
     2
370
     9
100
AcDbLine
 10
-698.5504717440217
 20
-415.7596968931452
 30
0.0
 11
-696.5504156576621
 21
-415.7596968931452
 31
0.0
  0
LINE
  5
2EC
330
1F
100
AcDbEntity
  8
仕上
  6
Continuous
 62
     2
370
     9
100
AcDbLine
 10
-698.5504717440217
 20
-422.7598931954046
 30
0.0
 11
-696.5504156576621
 21
-422.7598931954046
 31
0.0
  0
LINE
  5
2ED
330
1F
100
AcDbEntity
  8
仕上
  6
Continuous
 62
     2
370
     9
100
AcDbLine
 10
-696.5504156576621
 20
-415.7596968931452
 30
0.0
 11
-696.5504156576621
 21
-422.7598931954046
 31
0.0
  0
LINE
  5
2EE
330
1F
100
AcDbEntity
  8
仕上
  6
Continuous
 62
     2
370
     9
100
AcDbLine
 10
-698.5504717440217
 20
-417.2598008178709
 30
0.0
 11
-698.5504717440217
 21
-421.2597892706792
 31
0.0
  0
LINE
  5
2EF
330
1F
100
AcDbEntity
  8
仕上
  6
Continuous
 62
     2
370
     9
100
AcDbLine
 10
-696.5504156576621
 20
-417.8597186678496
 30
0.0
 11
-695.2159726941908
 21
-417.8597186678496
 31
0.0
  0
LINE
  5
2F0
330
1F
100
AcDbEntity
  8
仕上
  6
Continuous
 62
     2
370
     9
100
AcDbLine
 10
-696.5504156576621
 20
-417.2598008178709
 30
0.0
 11
-695.2159726941908
 21
-417.2598008178709
 31
0.0
  0
LINE
  5
2F1
330
1F
100
AcDbEntity
  8
仕上
  6
Continuous
 62
     2
370
     9
100
AcDbLine
 10
-696.5504156576621
 20
-421.2597892706792
 30
0.0
 11
-695.2159726941908
 21
-421.2597892706792
 31
0.0
  0
LINE
  5
2F2
330
1F
100
AcDbEntity
  8
仕上
  6
Continuous
 62
     2
370
     9
100
AcDbLine
 10
-696.5504156576621
 20
-420.6597477007887
 30
0.0
 11
-695.2159726941908
 21
-420.6597477007887
 31
0.0
  0
LINE
  5
2F3
330
1F
100
AcDbEntity
  8
仕上
  6
Continuous
 62
     2
370
     9
100
AcDbLine
 10
-704.7577471346467
 20
-417.2598008178709
 30
0.0
 11
-698.5504717440217
 21
-417.2598008178709
 31
0.0
  0
LINE
  5
2F4
330
1F
100
AcDbEntity
  8
仕上
  6
Continuous
 62
     2
370
     9
100
AcDbLine
 10
-704.7574996948242
 20
-417.8597186678496
 30
0.0
 11
-698.5504717440217
 21
-417.8597186678496
 31
0.0
  0
LINE
  5
2F5
330
1F
100
AcDbEntity
  8
仕上
  6
Continuous
 62
     2
370
     9
100
AcDbLine
 10
-704.7574996948242
 20
-420.6597477007887
 30
0.0
 11
-698.5504717440217
 21
-420.6597477007887
 31
0.0
  0
LINE
  5
2F6
330
1F
100
AcDbEntity
  8
仕上
  6
Continuous
 62
     2
370
     9
100
AcDbLine
 10
-704.7577471346467
 20
-421.2597892706792
 30
0.0
 11
-698.5504717440217
 21
-421.2597892706792
 31
0.0
  0
LINE
  5
2F7
330
1F
100
AcDbEntity
  8
仕上
  6
Continuous
 62
     3
370
     9
100
AcDbLine
 10
-706.0862515423748
 20
-416.7597249363251
 30
0.0
 11
-701.0760900136587
 21
-416.7597249363251
 31
0.0
  0
LINE
  5
2F8
330
1F
100
AcDbEntity
  8
仕上
  6
Continuous
 62
     3
370
     9
100
AcDbLine
 10
-705.7289484384897
 20
-421.7597414323133
 30
0.0
 11
-700.7187869097736
 21
-421.7597414323133
 31
0.0
  0
LINE
  5
2F9
330
1F
100
AcDbEntity
  8
通り芯
  6
Continuous
 62
     3
370
     9
100
AcDbLine
 10
-707.3182544192751
 20
-422.7598931954046
 30
0.0
 11
-704.5503925632785
 21
-439.2596754483606
 31
0.0
  0
LINE
  5
2FA
330
1F
100
AcDbEntity
  8
通り芯
  6
Continuous
 62
     3
370
     9
100
AcDbLine
 10
-703.6499590487092
 20
-450.8665826485296
 30
0.0
 11
-705.7645797729492
 21
-421.2615213494375
 31
0.0
  0
LINE
  5
2FB
330
1F
100
AcDbEntity
  8
通り芯
  6
Continuous
 62
     3
370
     9
100
AcDbLine
 10
-699.320751911885
 20
-428.2597381331157
 30
0.0
 11
-698.2468630816486
 21
-428.2597381331157
 31
0.0
  0
LINE
  5
2FC
330
1F
100
AcDbEntity
  8
通り芯
  6
Continuous
 62
     3
370
     9
100
AcDbLine
 10
-700.3184292767498
 20
-427.3309727588548
 30
0.0
 11
-700.752067565918
 21
-421.2597892706792
 31
0.0
  0
LINE
  5
2FD
330
1F
100
AcDbEntity
  8
通り芯
  6
Continuous
 62
     3
370
     9
100
AcDbLine
 10
-698.2265730161924
 20
-428.5446650888799
 30
0.0
 11
-698.6041661855337
 21
-423.2597216371275
 31
0.0
  0
LINE
  5
2FE
330
1F
100
AcDbEntity
  8
通り芯
  6
Continuous
 62
     3
370
     9
100
AcDbLine
 10
-701.0377368411501
 20
-417.2598008178709
 30
0.0
 11
-701.4663026139543
 21
-411.2596325587913
 31
0.0
  0
LINE
  5
2FF
330
1F
100
AcDbEntity
  8
通り芯
  6
Continuous
 62
     3
370
     9
100
AcDbLine
 10
-706.0862515423748
 20
-416.7597249363251
 30
0.0
 11
-706.407675871978
 21
-412.2596606019712
 31
0.0
  0
LINE
  5
300
330
1F
100
AcDbEntity
  8
通り芯
  6
Continuous
 62
     3
370
     9
100
AcDbLine
 10
-709.1933533952043
 20
-412.2596606019712
 30
0.0
 11
-708.348593840728
 21
-416.9902151311098
 31
0.0
  0
LINE
  5
301
330
1F
100
AcDbEntity
  8
通り芯
  6
Continuous
 62
     3
370
     9
100
AcDbLine
 10
-642.3909109991951
 20
-464.6917878586225
 30
0.0
 11
-652.9061137018977
 21
-453.8276950060042
 31
0.0
  0
LINE
  5
302
330
1F
100
AcDbEntity
  8
通り芯
  6
Continuous
 62
     4
370
     9
100
AcDbLine
 10
-615.2289467888909
 20
-442.6519516967771
 30
0.0
 11
-615.1935628942541
 21
-442.4752796634157
 31
0.0
  0
LINE
  5
303
330
1F
100
AcDbEntity
  8
通り芯
  6
Continuous
 62
     3
370
     9
100
AcDbLine
 10
-629.2288445137642
 20
-442.6519516967771
 30
0.0
 11
-629.1934606191274
 21
-442.4752796634157
 31
0.0
  0
LINE
  5
304
330
1F
100
AcDbEntity
  8
通り芯
  6
Continuous
 62
     3
370
     9
100
AcDbLine
 10
-702.1536904412346
 20
-452.2596688499654
 30
0.0
 11
-654.6844637071763
 21
-452.2596688499654
 31
0.0
  0
LINE
  5
305
330
1F
100
AcDbEntity
  8
通り芯
  6
Continuous
 62
     3
370
     9
100
AcDbLine
 10
-692.8881825627507
 20
-444.2596919443487
 30
0.0
 11
-617.1899073832743
 21
-444.2596919443487
 31
0.0
  0
LINE
  5
306
330
1F
100
AcDbEntity
  8
通り芯
  6
Continuous
 62
     3
370
     9
100
AcDbLine
 10
-696.2026389869483
 20
-443.499309369391
 30
0.0
 11
-697.3548425210488
 21
-450.9878281616209
 31
0.0
  0
LINE
  5
307
330
1F
100
AcDbEntity
  8
通り芯
  6
Continuous
 62
     3
370
     9
100
AcDbLine
 10
-663.6843449360615
 20
-449.2597084403369
 30
0.0
 11
-697.0889684316274
 21
-449.2597084403369
 31
0.0
  0
LINE
  5
308
330
1F
100
AcDbEntity
  8
通り芯
  6
Continuous
 62
     3
370
     9
100
AcDbLine
 10
462.4401453379039
 20
406.819475602104
 30
0.0
 11
462.263349584631
 21
406.7840917074672
 31
0.0
  0
LINE
  5
309
330
1F
100
AcDbEntity
  8
通り芯
  6
Continuous
 62
     3
370
     9
100
AcDbLine
 10
462.4401453379039
 20
420.8193733269774
 30
0.0
 11
462.263349584631
 21
420.7839894323405
 31
0.0
  0
LINE
  5
30A
330
1F
100
AcDbEntity
  8
通り芯
  6
Continuous
 62
     3
370
     9
100
AcDbLine
 10
469.0132605062951
 20
451.8490694048911
 30
0.0
 11
484.0824694246865
 21
438.2868927262593
 31
0.0
  0
LINE
  5
30B
330
1F
100
AcDbEntity
  8
通り芯
  6
Continuous
 62
     3
370
     9
100
AcDbLine
 10
462.4401453379039
 20
427.4626376850854
 30
0.0
 11
462.263349584631
 21
427.4980215797223
 31
0.0
  0
LINE
  5
30C
330
1F
100
AcDbEntity
  8
通り芯
  6
Continuous
 62
     3
370
     9
100
AcDbLine
 10
464.0478855854761
 20
408.7804361964875
 30
0.0
 11
464.0478855854761
 21
465.8690097553979
 31
0.0
  0
LINE
  5
30D
330
1F
100
AcDbEntity
  8
通り芯
  6
Continuous
 62
     3
370
     9
100
AcDbLine
 10
472.0481099309148
 20
449.1177049227332
 30
0.0
 11
472.0481099309148
 21
468.4280324010905
 31
0.0
  0
LINE
  5
30E
330
1F
100
AcDbEntity
  8
通り芯
  6
Continuous
 62
     3
370
     9
100
AcDbLine
 10
462.4401453379039
 20
-94.53715446546362
 30
0.0
 11
462.263349584631
 21
-94.50177057082676
 31
0.0
  0
LINE
  5
30F
330
1F
100
AcDbEntity
  8
通り芯
  6
Continuous
 62
     3
370
     9
100
AcDbLine
 10
462.4401453379039
 20
-108.5370521903369
 30
0.0
 11
462.263349584631
 21
-108.5016682957002
 31
0.0
  0
LINE
  5
310
330
1F
100
AcDbEntity
  8
通り芯
  6
Continuous
 62
     3
370
     9
100
AcDbLine
 10
469.0132605062951
 20
-139.5667482682507
 30
0.0
 11
484.0824694246865
 21
-126.0045715896191
 31
0.0
  0
LINE
  5
311
330
1F
100
AcDbEntity
  8
通り芯
  6
Continuous
 62
     3
370
     9
100
AcDbLine
 10
462.4401453379039
 20
-115.180316548445
 30
0.0
 11
462.263349584631
 21
-115.215700443082
 31
0.0
  0
LINE
  5
312
330
1F
100
AcDbEntity
  8
通り芯
  6
Continuous
 62
     3
370
     9
100
AcDbLine
 10
464.0478855854761
 20
-96.4981150598471
 30
0.0
 11
464.0478855854761
 21
-153.5866886187575
 31
0.0
  0
LINE
  5
313
330
1F
100
AcDbEntity
  8
通り芯
  6
Continuous
 62
     3
370
     9
100
AcDbLine
 10
489.0479680654164
 20
427.1377491979655
 30
0.0
 11
489.0479680654164
 21
-114.8554280613252
 31
0.0
  0
LINE
  5
314
330
1F
100
AcDbEntity
  8
通り芯
  6
Continuous
 62
     3
370
     9
100
AcDbLine
 10
472.0481099309148
 20
-136.8353837860929
 30
0.0
 11
472.0481099309148
 21
-156.1457112644503
 31
0.0
  0
LINE
  5
315
330
1F
100
AcDbEntity
  8
通り芯
  6
Continuous
 62
     3
370
     9
100
AcDbLine
 10
-699.532684119972
 20
242.141097883565
 30
0.0
 11
-699.532684119972
 21
70.14116139311957
 31
0.0
  0
LINE
  5
316
330
1F
100
AcDbEntity
  8
通り芯
  6
Continuous
 62
     3
370
     9
100
AcDbLine
 10
-697.9611938064163
 20
61.14115644432309
 30
0.0
 11
-697.9611938064163
 21
251.1411028323615
 31
0.0
  0
LINE
  5
317
330
1F
100
AcDbEntity
  8
躯体
  6
Continuous
 62
     2
370
     9
100
AcDbLine
 10
-709.5504090592668
 20
-179.8588592268658
 30
0.0
 11
-709.5504090592668
 21
492.141180363506
 31
0.0
  0
LINE
  5
318
330
1F
100
AcDbEntity
  8
躯体
  6
Continuous
 62
     2
370
     9
100
AcDbLine
 10
-705.5504206064585
 20
-179.8588592268658
 30
0.0
 11
-705.5504206064585
 21
492.141180363506
 31
0.0
  0
LINE
  5
319
330
1F
100
AcDbEntity
  8
躯体
  6
Continuous
 62
     2
370
     9
100
AcDbLine
 10
-19.5504832912134
 20
-179.8588592268658
 30
0.0
 11
-19.5504832912134
 21
492.141180363506
 31
0.0
  0
LINE
  5
31A
330
1F
100
AcDbEntity
  8
躯体
  6
Continuous
 62
     2
370
     9
100
AcDbLine
 10
-23.55034802411026
 20
-179.8588592268658
 30
0.0
 11
-23.55034802411026
 21
492.141180363506
 31
0.0
  0
LINE
  5
31B
330
1F
100
AcDbEntity
  8
通り芯
  6
Continuous
 62
     3
370
     9
100
AcDbLine
 10
459.0478690894878
 20
260.6660513648785
 30
0.0
 11
459.0478690894878
 21
51.61626977176183
 31
0.0
  0
LINE
  5
31C
330
1F
100
AcDbEntity
  8
躯体
  6
Continuous
 62
     2
370
     9
100
AcDbLine
 10
412.0479119790573
 20
492.141180363506
 30
0.0
 11
412.0479119790573
 21
-179.8588592268658
 31
0.0
  0
LINE
  5
31D
330
1F
100
AcDbEntity
  8
通り芯
  6
Continuous
 62
     3
370
     9
100
AcDbLine
 10
-29.69378394049556
 20
263.2443743167365
 30
0.0
 11
-29.56833195041952
 21
264.1410962339663
 31
0.0
  0
LINE
  5
31E
330
1F
100
AcDbEntity
  8
通り芯
  6
Continuous
 62
     3
370
     9
100
AcDbLine
 10
-29.70813545020846
 20
263.036524865723
 30
0.0
 11
-29.70813545020846
 21
262.6411160291522
 31
0.0
  0
LINE
  5
31F
330
1F
100
AcDbEntity
  8
通り芯
  6
Continuous
 62
     3
370
     9
100
AcDbLine
 10
-23.55059546393306
 20
263.1410681907863
 30
0.0
 11
-29.70454757278006
 21
263.1410681907863
 31
0.0
  0
LINE
  5
320
330
1F
100
AcDbEntity
  8
通り芯
  6
Continuous
 62
     3
370
     9
100
AcDbLine
 10
-29.56833195041952
 20
264.1410962339663
 30
0.0
 11
-23.55059546393306
 21
264.1410962339663
 31
0.0
  0
LINE
  5
321
330
1F
100
AcDbEntity
  8
仕上
  6
Continuous
 62
     4
370
     9
100
AcDbLine
 10
-29.05044040164427
 20
250.641026950816
 30
0.0
 11
-29.05044040164427
 21
255.6411671667154
 31
0.0
  0
LINE
  5
322
330
1F
100
AcDbEntity
  8
仕上
  6
Continuous
 62
     4
370
     9
100
AcDbLine
 10
-25.05057566874711
 20
250.641026950816
 30
0.0
 11
-25.05057566874711
 21
255.6411671667154
 31
0.0
  0
LINE
  5
323
330
1F
100
AcDbEntity
  8
仕上
  6
Continuous
 62
     4
370
     9
100
AcDbLine
 10
-23.55059546393306
 20
250.641026950816
 30
0.0
 11
-23.55059546393306
 21
255.6411671667154
 31
0.0
  0
LINE
  5
324
330
1F
100
AcDbEntity
  8
仕上
  6
Continuous
 62
     2
370
     9
100
AcDbLine
 10
-32.38493945147525
 20
255.1410912851699
 30
0.0
 11
-32.38493945147525
 21
251.1411028323615
 31
0.0
  0
LINE
  5
325
330
1F
100
AcDbEntity
  8
仕上
  6
Continuous
 62
     2
370
     9
100
AcDbLine
 10
-31.05049648800389
 20
256.641071489984
 30
0.0
 11
-29.05044040164427
 21
256.641071489984
 31
0.0
  0
LINE
  5
326
330
1F
100
AcDbEntity
  8
仕上
  6
Continuous
 62
     2
370
     9
100
AcDbLine
 10
-31.05049648800389
 20
256.641071489984
 30
0.0
 11
-31.05049648800389
 21
249.6411226275472
 31
0.0
  0
LINE
  5
327
330
1F
100
AcDbEntity
  8
仕上
  6
Continuous
 62
     2
370
     9
100
AcDbLine
 10
-29.05044040164427
 20
256.641071489984
 30
0.0
 11
-29.05044040164427
 21
249.6411226275472
 31
0.0
  0
LINE
  5
328
330
1F
100
AcDbEntity
  8
仕上
  6
Continuous
 62
     2
370
     9
100
AcDbLine
 10
-31.05049648800389
 20
255.1410912851699
 30
0.0
 11
-32.38493945147525
 21
255.1410912851699
 31
0.0
  0
LINE
  5
329
330
1F
100
AcDbEntity
  8
仕上
  6
Continuous
 62
     2
370
     9
100
AcDbLine
 10
-31.05049648800389
 20
254.5410497152795
 30
0.0
 11
-32.38493945147525
 21
254.5410497152795
 31
0.0
  0
LINE
  5
32A
330
1F
100
AcDbEntity
  8
仕上
  6
Continuous
 62
     4
370
     9
100
AcDbLine
 10
-23.55059546393306
 20
255.6411671667154
 30
0.0
 11
-29.05044040164427
 21
255.6411671667154
 31
0.0
  0
LINE
  5
32B
330
1F
100
AcDbEntity
  8
仕上
  6
Continuous
 62
     2
370
     9
100
AcDbLine
 10
-31.05049648800389
 20
249.6411226275472
 30
0.0
 11
-29.05044040164427
 21
249.6411226275472
 31
0.0
  0
LINE
  5
32C
330
1F
100
AcDbEntity
  8
仕上
  6
Continuous
 62
     2
370
     9
100
AcDbLine
 10
-31.05049648800389
 20
251.1411028323615
 30
0.0
 11
-32.38493945147525
 21
251.1411028323615
 31
0.0
  0
LINE
  5
32D
330
1F
100
AcDbEntity
  8
仕上
  6
Continuous
 62
     2
370
     9
100
AcDbLine
 10
-31.05049648800389
 20
251.7410206823404
 30
0.0
 11
-32.38493945147525
 21
251.7410206823404
 31
0.0
  0
LINE
  5
32E
330
1F
100
AcDbEntity
  8
仕上
  6
Continuous
 62
     4
370
     9
100
AcDbLine
 10
-23.55059546393306
 20
250.641026950816
 30
0.0
 11
-29.05044040164427
 21
250.641026950816
 31
0.0
  0
LINE
  5
32F
330
1F
100
AcDbEntity
  8
通り芯
  6
Continuous
 62
     3
370
     9
100
AcDbLine
 10
-28.84902438601927
 20
260.141107781158
 30
0.0
 11
-28.84902438601927
 21
255.6411671667154
 31
0.0
  0
LINE
  5
330
330
1F
100
AcDbEntity
  8
通り芯
  6
Continuous
 62
     3
370
     9
100
AcDbLine
 10
-30.85402926883177
 20
245.7736381997602
 30
0.0
 11
-30.85402926883177
 21
249.6411226275472
 31
0.0
  0
LINE
  5
331
330
1F
100
AcDbEntity
  8
通り芯
  6
Continuous
 62
     3
370
     9
100
AcDbLine
 10
-30.85402926883177
 20
260.6336367481132
 30
0.0
 11
-30.85402926883177
 21
256.641071489984
 31
0.0
  0
LINE
  5
332
330
1F
100
AcDbEntity
  8
通り芯
  6
Continuous
 62
     3
370
     9
100
AcDbLine
 10
-27.56320334769569
 20
260.9506071609087
 30
0.0
 11
-27.56320334769569
 21
255.6411671667154
 31
0.0
  0
LINE
  5
333
330
1F
100
AcDbEntity
  8
通り芯
  6
Continuous
 62
     3
370
     9
100
AcDbLine
 10
-28.72258263665273
 20
262.4113681538353
 30
0.0
 11
-29.70813545020846
 21
262.6411160291522
 31
0.0
  0
LINE
  5
334
330
1F
100
AcDbEntity
  8
通り芯
  6
Continuous
 62
     3
370
     9
100
AcDbLine
 10
-30.5459666896509
 20
261.5442152954105
 30
0.0
 11
-29.70813545020846
 21
262.6411160291522
 31
0.0
  0
LINE
  5
335
330
1F
100
AcDbEntity
  8
通り芯
  6
Continuous
 62
     3
370
     9
100
AcDbLine
 10
-29.84892870928775
 20
261.1410121044266
 30
0.0
 11
-30.76556953223971
 21
261.1410121044266
 31
0.0
  0
LINE
  5
336
330
1F
100
AcDbEntity
  8
通り芯
  6
Continuous
 62
     3
370
     9
100
AcDbLine
 10
-29.69378394049556
 20
243.0378198007949
 30
0.0
 11
-29.56833195041952
 21
242.141097883565
 31
0.0
  0
LINE
  5
337
330
1F
100
AcDbEntity
  8
通り芯
  6
Continuous
 62
     3
370
     9
100
AcDbLine
 10
-29.70813545020846
 20
243.2455455318971
 30
0.0
 11
-29.70813545020846
 21
243.6410780883792
 31
0.0
  0
LINE
  5
338
330
1F
100
AcDbEntity
  8
通り芯
  6
Continuous
 62
     3
370
     9
100
AcDbLine
 10
-23.55059546393306
 20
243.1410022068337
 30
0.0
 11
-29.70454757278006
 21
243.1410022068337
 31
0.0
  0
LINE
  5
339
330
1F
100
AcDbEntity
  8
通り芯
  6
Continuous
 62
     3
370
     9
100
AcDbLine
 10
-29.56833195041952
 20
242.141097883565
 30
0.0
 11
-23.55059546393306
 21
242.141097883565
 31
0.0
  0
LINE
  5
33A
330
1F
100
AcDbEntity
  8
通り芯
  6
Continuous
 62
     3
370
     9
100
AcDbLine
 10
-28.84902438601927
 20
246.1410863363733
 30
0.0
 11
-28.84902438601927
 21
250.641026950816
 31
0.0
  0
LINE
  5
33B
330
1F
100
AcDbEntity
  8
通り芯
  6
Continuous
 62
     3
370
     9
100
AcDbLine
 10
-27.56320334769569
 20
245.3315869566225
 30
0.0
 11
-27.56320334769569
 21
250.641026950816
 31
0.0
  0
LINE
  5
33C
330
1F
100
AcDbEntity
  8
通り芯
  6
Continuous
 62
     3
370
     9
100
AcDbLine
 10
-28.72258263665273
 20
243.8707022437847
 30
0.0
 11
-29.70813545020846
 21
243.6410780883792
 31
0.0
  0
LINE
  5
33D
330
1F
100
AcDbEntity
  8
通り芯
  6
Continuous
 62
     3
370
     9
100
AcDbLine
 10
-30.5459666896509
 20
244.7379788221209
 30
0.0
 11
-29.70813545020846
 21
243.6410780883792
 31
0.0
  0
LINE
  5
33E
330
1F
100
AcDbEntity
  8
通り芯
  6
Continuous
 62
     3
370
     9
100
AcDbLine
 10
-29.84892870928775
 20
245.1411820131048
 30
0.0
 11
-30.76556953223971
 21
245.1411820131048
 31
0.0
  0
LINE
  5
33F
330
1F
100
AcDbEntity
  8
通り芯
  6
Continuous
 62
     3
370
     9
100
AcDbLine
 10
-29.69378394049556
 20
49.03788495994809
 30
0.0
 11
-29.56833195041952
 21
48.14116304271841
 31
0.0
  0
LINE
  5
340
330
1F
100
AcDbEntity
  8
通り芯
  6
Continuous
 62
     3
370
     9
100
AcDbLine
 10
-29.70813545020846
 20
49.24573441096164
 30
0.0
 11
-29.70813545020846
 21
49.6411432475326
 31
0.0
  0
LINE
  5
341
330
1F
100
AcDbEntity
  8
通り芯
  6
Continuous
 62
     3
370
     9
100
AcDbLine
 10
-23.55059546393306
 20
49.14119108589822
 30
0.0
 11
-29.70454757278006
 21
49.14119108589822
 31
0.0
  0
LINE
  5
342
330
1F
100
AcDbEntity
  8
通り芯
  6
Continuous
 62
     3
370
     9
100
AcDbLine
 10
-29.56833195041952
 20
48.14116304271841
 30
0.0
 11
-23.55059546393306
 21
48.14116304271841
 31
0.0
  0
LINE
  5
343
330
1F
100
AcDbEntity
  8
仕上
  6
Continuous
 62
     4
370
     9
100
AcDbLine
 10
-29.05044040164427
 20
61.64123232586859
 30
0.0
 11
-29.05044040164427
 21
56.64109210996912
 31
0.0
  0
LINE
  5
344
330
1F
100
AcDbEntity
  8
仕上
  6
Continuous
 62
     4
370
     9
100
AcDbLine
 10
-25.05057566874711
 20
61.64123232586859
 30
0.0
 11
-25.05057566874711
 21
56.64109210996912
 31
0.0
  0
LINE
  5
345
330
1F
100
AcDbEntity
  8
仕上
  6
Continuous
 62
     4
370
     9
100
AcDbLine
 10
-23.55059546393306
 20
61.64123232586859
 30
0.0
 11
-23.55059546393306
 21
56.64109210996912
 31
0.0
  0
LINE
  5
346
330
1F
100
AcDbEntity
  8
仕上
  6
Continuous
 62
     2
370
     9
100
AcDbLine
 10
-32.38493945147525
 20
57.14116799151476
 30
0.0
 11
-32.38493945147525
 21
61.14115644432309
 31
0.0
  0
LINE
  5
347
330
1F
100
AcDbEntity
  8
仕上
  6
Continuous
 62
     2
370
     9
100
AcDbLine
 10
-31.05049648800389
 20
55.64118778670056
 30
0.0
 11
-29.05044040164427
 21
55.64118778670056
 31
0.0
  0
LINE
  5
348
330
1F
100
AcDbEntity
  8
仕上
  6
Continuous
 62
     2
370
     9
100
AcDbLine
 10
-31.05049648800389
 20
55.64118778670056
 30
0.0
 11
-31.05049648800389
 21
62.64113664913729
 31
0.0
  0
LINE
  5
349
330
1F
100
AcDbEntity
  8
仕上
  6
Continuous
 62
     2
370
     9
100
AcDbLine
 10
-29.05044040164427
 20
55.64118778670056
 30
0.0
 11
-29.05044040164427
 21
62.64113664913729
 31
0.0
  0
LINE
  5
34A
330
1F
100
AcDbEntity
  8
仕上
  6
Continuous
 62
     2
370
     9
100
AcDbLine
 10
-31.05049648800389
 20
57.14116799151476
 30
0.0
 11
-32.38493945147525
 21
57.14116799151476
 31
0.0
  0
LINE
  5
34B
330
1F
100
AcDbEntity
  8
仕上
  6
Continuous
 62
     2
370
     9
100
AcDbLine
 10
-31.05049648800389
 20
57.74120956140499
 30
0.0
 11
-32.38493945147525
 21
57.74120956140499
 31
0.0
  0
LINE
  5
34C
330
1F
100
AcDbEntity
  8
仕上
  6
Continuous
 62
     4
370
     9
100
AcDbLine
 10
-23.55059546393306
 20
56.64109210996912
 30
0.0
 11
-29.05044040164427
 21
56.64109210996912
 31
0.0
  0
LINE
  5
34D
330
1F
100
AcDbEntity
  8
仕上
  6
Continuous
 62
     2
370
     9
100
AcDbLine
 10
-31.05049648800389
 20
62.64113664913729
 30
0.0
 11
-29.05044040164427
 21
62.64113664913729
 31
0.0
  0
LINE
  5
34E
330
1F
100
AcDbEntity
  8
仕上
  6
Continuous
 62
     2
370
     9
100
AcDbLine
 10
-31.05049648800389
 20
61.14115644432309
 30
0.0
 11
-32.38493945147525
 21
61.14115644432309
 31
0.0
  0
LINE
  5
34F
330
1F
100
AcDbEntity
  8
仕上
  6
Continuous
 62
     2
370
     9
100
AcDbLine
 10
-31.05049648800389
 20
60.54123859434412
 30
0.0
 11
-32.38493945147525
 21
60.54123859434412
 31
0.0
  0
LINE
  5
350
330
1F
100
AcDbEntity
  8
仕上
  6
Continuous
 62
     4
370
     9
100
AcDbLine
 10
-23.55059546393306
 20
61.64123232586859
 30
0.0
 11
-29.05044040164427
 21
61.64123232586859
 31
0.0
  0
LINE
  5
351
330
1F
100
AcDbEntity
  8
通り芯
  6
Continuous
 62
     3
370
     9
100
AcDbLine
 10
-28.84902438601927
 20
52.14115149552661
 30
0.0
 11
-28.84902438601927
 21
56.64109210996912
 31
0.0
  0
LINE
  5
352
330
1F
100
AcDbEntity
  8
通り芯
  6
Continuous
 62
     3
370
     9
100
AcDbLine
 10
-30.85402926883177
 20
66.50862107692431
 30
0.0
 11
-30.85402926883177
 21
62.64113664913729
 31
0.0
  0
LINE
  5
353
330
1F
100
AcDbEntity
  8
通り芯
  6
Continuous
 62
     3
370
     9
100
AcDbLine
 10
-30.85402926883177
 20
51.6486225285714
 30
0.0
 11
-30.85402926883177
 21
55.64118778670056
 31
0.0
  0
LINE
  5
354
330
1F
100
AcDbEntity
  8
通り芯
  6
Continuous
 62
     3
370
     9
100
AcDbLine
 10
-27.56320334769569
 20
51.33165211577583
 30
0.0
 11
-27.56320334769569
 21
56.64109210996912
 31
0.0
  0
LINE
  5
355
330
1F
100
AcDbEntity
  8
通り芯
  6
Continuous
 62
     3
370
     9
100
AcDbLine
 10
-28.72258263665273
 20
49.87089112284927
 30
0.0
 11
-29.70813545020846
 21
49.6411432475326
 31
0.0
  0
LINE
  5
356
330
1F
100
AcDbEntity
  8
通り芯
  6
Continuous
 62
     3
370
     9
100
AcDbLine
 10
-30.5459666896509
 20
50.73804398127414
 30
0.0
 11
-29.70813545020846
 21
49.6411432475326
 31
0.0
  0
LINE
  5
357
330
1F
100
AcDbEntity
  8
通り芯
  6
Continuous
 62
     3
370
     9
100
AcDbLine
 10
-29.84892870928775
 20
51.14124717225813
 30
0.0
 11
-30.76556953223971
 21
51.14124717225813
 31
0.0
  0
LINE
  5
358
330
1F
100
AcDbEntity
  8
通り芯
  6
Continuous
 62
     3
370
     9
100
AcDbLine
 10
-29.69378394049556
 20
69.24443947588975
 30
0.0
 11
-29.56833195041952
 21
70.14116139311957
 31
0.0
  0
LINE
  5
359
330
1F
100
AcDbEntity
  8
通り芯
  6
Continuous
 62
     3
370
     9
100
AcDbLine
 10
-29.70813545020846
 20
69.03671374478768
 30
0.0
 11
-29.70813545020846
 21
68.64118118830538
 31
0.0
  0
LINE
  5
35A
330
1F
100
AcDbEntity
  8
通り芯
  6
Continuous
 62
     3
370
     9
100
AcDbLine
 10
-23.55059546393306
 20
69.14125706985088
 30
0.0
 11
-29.70454757278006
 21
69.14125706985088
 31
0.0
  0
LINE
  5
35B
330
1F
100
AcDbEntity
  8
通り芯
  6
Continuous
 62
     3
370
     9
100
AcDbLine
 10
-29.56833195041952
 20
70.14116139311957
 30
0.0
 11
-23.55059546393306
 21
70.14116139311957
 31
0.0
  0
LINE
  5
35C
330
1F
100
AcDbEntity
  8
通り芯
  6
Continuous
 62
     3
370
     9
100
AcDbLine
 10
-28.84902438601927
 20
66.14117294031124
 30
0.0
 11
-28.84902438601927
 21
61.64123232586859
 31
0.0
  0
LINE
  5
35D
330
1F
100
AcDbEntity
  8
通り芯
  6
Continuous
 62
     3
370
     9
100
AcDbLine
 10
-27.56320334769569
 20
66.95067232006215
 30
0.0
 11
-27.56320334769569
 21
61.64123232586859
 31
0.0
  0
LINE
  5
35E
330
1F
100
AcDbEntity
  8
通り芯
  6
Continuous
 62
     3
370
     9
100
AcDbLine
 10
-28.72258263665273
 20
68.41155703289984
 30
0.0
 11
-29.70813545020846
 21
68.64118118830538
 31
0.0
  0
LINE
  5
35F
330
1F
100
AcDbEntity
  8
通り芯
  6
Continuous
 62
     3
370
     9
100
AcDbLine
 10
-30.5459666896509
 20
67.54428045456385
 30
0.0
 11
-29.70813545020846
 21
68.64118118830538
 31
0.0
  0
LINE
  5
360
330
1F
100
AcDbEntity
  8
通り芯
  6
Continuous
 62
     3
370
     9
100
AcDbLine
 10
-29.84892870928775
 20
67.14107726357986
 30
0.0
 11
-30.76556953223971
 21
67.14107726357986
 31
0.0
  0
LINE
  5
361
330
1F
100
AcDbEntity
  8
通り芯
  6
Continuous
 62
     3
370
     9
100
AcDbLine
 10
-29.56833195041952
 20
465.1232261299756
 30
0.0
 11
-29.56833195041952
 21
264.1410962339663
 31
0.0
  0
LINE
  5
362
330
1F
100
AcDbEntity
  8
通り芯
  6
Continuous
 62
     3
370
     9
100
AcDbLine
 10
-31.13982226397525
 20
255.1410912851699
 30
0.0
 11
-31.13982226397525
 21
463.5517358164199
 31
0.0
  0
LINE
  5
363
330
1F
100
AcDbEntity
  8
通り芯
  6
Continuous
 62
     3
370
     9
100
AcDbLine
 10
-31.13982226397525
 20
61.14115644432309
 30
0.0
 11
-31.13982226397525
 21
251.1411028323615
 31
0.0
  0
LINE
  5
364
330
1F
100
AcDbEntity
  8
通り芯
  6
Continuous
 62
     3
370
     9
100
AcDbLine
 10
-31.13982226397525
 20
-151.2694146797795
 30
0.0
 11
-31.13982226397525
 21
57.14116799151476
 31
0.0
  0
LINE
  5
365
330
1F
100
AcDbEntity
  8
通り芯
  6
Continuous
 62
     3
370
     9
100
AcDbLine
 10
-29.56833195041952
 20
48.14116304271841
 30
0.0
 11
-29.56833195041952
 21
-152.8409049933355
 31
0.0
  0
LINE
  5
366
330
1F
100
AcDbEntity
  8
通り芯
  6
Continuous
 62
     3
370
     9
100
AcDbLine
 10
-29.56833195041952
 20
242.141097883565
 30
0.0
 11
-29.56833195041952
 21
70.14116139311957
 31
0.0
  0
LINE
  5
367
330
1F
100
AcDbEntity
  8
その他
  6
Continuous
 62
     7
370
     9
100
AcDbLine
 10
402.0478789870805
 20
473.1410187028218
 30
0.0
 11
355.5477503183727
 21
473.1410187028218
 31
0.0
  0
LINE
  5
368
330
1F
100
AcDbEntity
  8
その他
  6
Continuous
 62
     7
370
     9
100
AcDbLine
 10
402.0478789870805
 20
477.1411308755415
 30
0.0
 11
355.5477503183727
 21
477.1411308755415
 31
0.0
  0
LINE
  5
369
330
1F
100
AcDbEntity
  8
その他
  6
Continuous
 62
     7
370
     9
100
AcDbLine
 10
402.0478789870805
 20
488.1410681907864
 30
0.0
 11
355.5477503183727
 21
488.1410681907864
 31
0.0
  0
LINE
  5
36A
330
1F
100
AcDbEntity
  8
その他
  6
Continuous
 62
     7
370
     9
100
AcDbLine
 10
402.0478789870805
 20
492.141180363506
 30
0.0
 11
355.5477503183727
 21
492.141180363506
 31
0.0
  0
LINE
  5
36B
330
1F
100
AcDbEntity
  8
その他
  6
Continuous
 62
     7
370
     9
100
AcDbLine
 10
357.0477305231867
 20
501.1410615923911
 30
0.0
 11
355.416112332731
 21
513.5340851090718
 31
0.0
  0
LINE
  5
36C
330
1F
100
AcDbEntity
  8
その他
  6
Continuous
 62
     7
370
     9
100
AcDbLine
 10
357.0477305231867
 20
501.1410615923911
 30
0.0
 11
358.679348713643
 21
513.5340851090718
 31
0.0
  0
LINE
  5
36D
330
1F
100
AcDbEntity
  8
その他
  6
Continuous
 62
     7
370
     9
100
AcDbLine
 10
357.0477305231867
 20
473.1410187028218
 30
0.0
 11
355.416112332731
 21
460.7479951861411
 31
0.0
  0
LINE
  5
36E
330
1F
100
AcDbEntity
  8
その他
  6
Continuous
 62
     7
370
     9
100
AcDbLine
 10
357.0477305231867
 20
473.1410187028218
 30
0.0
 11
358.679348713643
 21
460.7479951861411
 31
0.0
  0
LINE
  5
36F
330
1F
100
AcDbEntity
  8
その他
  6
Continuous
 62
     7
370
     9
100
AcDbLine
 10
257.047648043246
 20
-193.8588188116949
 30
0.0
 11
257.047648043246
 21
506.1410780883793
 31
0.0
  0
LINE
  5
370
330
1F
100
AcDbEntity
  8
通り芯
  6
Continuous
 62
     3
370
     9
100
AcDbLine
 10
454.0481000333222
 20
98.50896171908018
 30
0.0
 11
454.0481000333222
 21
443.1149385455161
 31
0.0
  0
LINE
  5
371
330
1F
100
AcDbEntity
  8
通り芯
  6
Continuous
 62
     3
370
     9
100
AcDbLine
 10
430.0479218766498
 20
61.64123232586859
 30
0.0
 11
430.0479218766498
 21
84.57890388414567
 31
0.0
  0
LINE
  5
372
330
1F
100
AcDbEntity
  8
通り芯
  6
Continuous
 62
     3
370
     9
100
AcDbLine
 10
430.0479218766498
 20
122.6931732438373
 30
0.0
 11
430.0479218766498
 21
250.641026950816
 31
0.0
  0
ARC
  5
373
330
1F
100
AcDbEntity
  8
通り芯
  6
Continuous
 62
     3
370
     9
100
AcDbCircle
 10
-77.57666819804399
 20
-432.7596787475584
 30
0.0
 40
1.499999898511011
100
AcDbArc
 50
270.0
 51
308.6595153808594
  0
ARC
  5
374
330
1F
100
AcDbEntity
  8
通り芯
  6
Continuous
 62
     3
370
     9
100
AcDbCircle
 10
-253.576593141298
 20
-433.7597067907383
 30
0.0
 40
1.499999898511011
100
AcDbArc
 50
51.34011840820312
 51
90.0
  0
ARC
  5
375
330
1F
100
AcDbEntity
  8
通り芯
  6
Continuous
 62
     3
370
     9
100
AcDbCircle
 10
-250.0242233276367
 20
-432.7596787475584
 30
0.0
 40
1.499999898511011
100
AcDbArc
 50
231.3401184082032
 51
270.0
  0
ARC
  5
376
330
1F
100
AcDbEntity
  8
通り芯
  6
Continuous
 62
     3
370
     9
100
AcDbCircle
 10
-249.0766525268555
 20
-432.7596787475584
 30
0.0
 40
1.499999898511011
100
AcDbArc
 50
270.0
 51
308.6595153808594
  0
ARC
  5
377
330
1F
100
AcDbEntity
  8
通り芯
  6
Continuous
 62
     3
370
     9
100
AcDbCircle
 10
-245.5241589932828
 20
-433.7597067907383
 30
0.0
 40
1.499999898511011
100
AcDbArc
 50
90.0
 51
128.6595153808594
  0
ARC
  5
378
330
1F
100
AcDbEntity
  8
通り芯
  6
Continuous
 62
     3
370
     9
100
AcDbCircle
 10
-74.0242983843828
 20
-433.7597067907383
 30
0.0
 40
1.499999898511011
100
AcDbArc
 50
90.0
 51
128.6595153808594
  0
ARC
  5
379
330
1F
100
AcDbEntity
  8
通り芯
  6
Continuous
 62
     3
370
     9
100
AcDbCircle
 10
-252.2078797623918
 20
-467.7596704995642
 30
0.0
 40
1.499999898511011
100
AcDbArc
 50
186.3402404785156
 51
270.0
  0
ARC
  5
37A
330
1F
100
AcDbEntity
  8
通り芯
  6
Continuous
 62
     3
370
     9
100
AcDbCircle
 10
-246.8929960921004
 20
-467.7596704995642
 30
0.0
 40
1.499999898511011
100
AcDbArc
 50
270.0
 51
353.6598663330078
  0
ARC
  5
37B
330
1F
100
AcDbEntity
  8
通り芯
  6
Continuous
 62
     3
370
     9
100
AcDbCircle
 10
-30.2636378520242
 20
-450.7596886451512
 30
0.0
 40
1.499999898511011
100
AcDbArc
 50
188.7457733154297
 51
270.0
  0
ARC
  5
37C
330
1F
100
AcDbEntity
  8
通り芯
  6
Continuous
 62
     3
370
     9
100
AcDbCircle
 10
-26.94720190924556
 20
-450.7596886451512
 30
0.0
 40
1.499999898511011
100
AcDbArc
 50
270.0
 51
355.914794921875
  0
ARC
  5
37D
330
1F
100
AcDbEntity
  8
通り芯
  6
Continuous
 62
     3
370
     9
100
AcDbCircle
 10
-260.0256172386373
 20
-444.2596919443487
 30
0.0
 40
4.99999958115655
100
AcDbArc
 50
6.340255737304687
 51
90.0
  0
ARC
  5
37E
330
1F
100
AcDbEntity
  8
通り芯
  6
Continuous
 62
     3
370
     9
100
AcDbCircle
 10
-239.0751348959432
 20
-444.2596919443487
 30
0.0
 40
4.99999958115655
100
AcDbArc
 50
90.0
 51
173.6597595214844
  0
ARC
  5
37F
330
1F
100
AcDbEntity
  8
通り芯
  6
Continuous
 62
     3
370
     9
100
AcDbCircle
 10
-259.0504568976324
 20
280.641125926745
 30
0.0
 40
5.999999594044042
100
AcDbArc
 50
270.0
 51
0.0
  0
ARC
  5
380
330
1F
100
AcDbEntity
  8
通り芯
  6
Continuous
 62
     3
370
     9
100
AcDbCircle
 10
-259.0504568976324
 20
261.6412117058835
 30
0.0
 40
5.999999594044042
100
AcDbArc
 50
0.0
 51
90.0
  0
ARC
  5
381
330
1F
100
AcDbEntity
  8
通り芯
  6
Continuous
 62
     3
370
     9
100
AcDbCircle
 10
-240.0504189568596
 20
261.6412117058835
 30
0.0
 40
5.999999594044042
100
AcDbArc
 50
90.0
 51
180.0
  0
ARC
  5
382
330
1F
100
AcDbEntity
  8
通り芯
  6
Continuous
 62
     3
370
     9
100
AcDbCircle
 10
-259.0504568976324
 20
280.641125926745
 30
0.0
 40
8.499999626262769
100
AcDbArc
 50
270.0
 51
0.0
  0
ARC
  5
383
330
1F
100
AcDbEntity
  8
通り芯
  6
Continuous
 62
     3
370
     9
100
AcDbCircle
 10
-240.0504189568596
 20
280.641125926745
 30
0.0
 40
5.999999594044042
100
AcDbArc
 50
180.0
 51
270.0
  0
ARC
  5
384
330
1F
100
AcDbEntity
  8
通り芯
  6
Continuous
 62
     3
370
     9
100
AcDbCircle
 10
-240.0504189568596
 20
280.641125926745
 30
0.0
 40
8.499999626262769
100
AcDbArc
 50
180.0
 51
270.0
  0
ARC
  5
385
330
1F
100
AcDbEntity
  8
通り芯
  6
Continuous
 62
     3
370
     9
100
AcDbCircle
 10
-240.0504189568596
 20
261.6412117058835
 30
0.0
 40
8.499999626262769
100
AcDbArc
 50
90.0
 51
180.0
  0
ARC
  5
386
330
1F
100
AcDbEntity
  8
通り芯
  6
Continuous
 62
     3
370
     9
100
AcDbCircle
 10
-259.0504568976324
 20
261.6412117058835
 30
0.0
 40
8.499999626262769
100
AcDbArc
 50
0.0
 51
90.0
  0
ARC
  5
387
330
1F
100
AcDbEntity
  8
通り芯
  6
Continuous
 62
     3
370
     9
100
AcDbCircle
 10
444.5478954830685
 20
495.816898928751
 30
0.0
 40
1.499999898511011
100
AcDbArc
 50
0.0
 51
82.87521362304688
  0
ARC
  5
388
330
1F
100
AcDbEntity
  8
通り芯
  6
Continuous
 62
     3
370
     9
100
AcDbCircle
 10
450.0479878606023
 20
478.7227662218253
 30
0.0
 40
3.999999809909511
100
AcDbArc
 50
180.0
 51
265.9143371582032
  0
ARC
  5
389
330
1F
100
AcDbEntity
  8
通り芯
  6
Continuous
 62
     3
370
     9
100
AcDbCircle
 10
470.5478822862781
 20
471.7444683438692
 30
0.0
 40
1.499999898511011
100
AcDbArc
 50
0.0
 51
85.91424560546875
  0
ARC
  5
38A
330
1F
100
AcDbEntity
  8
通り芯
  6
Continuous
 62
     3
370
     9
100
AcDbCircle
 10
470.5478822862781
 20
468.4420127510694
 30
0.0
 40
1.499999898511011
100
AcDbArc
 50
278.1293029785156
 51
0.0
  0
ARC
  5
38B
330
1F
100
AcDbEntity
  8
通り芯
  6
Continuous
 62
     3
370
     9
100
AcDbCircle
 10
464.0478855854761
 20
460.8046589055246
 30
0.0
 40
4.99999958115655
100
AcDbArc
 50
98.13034057617188
 51
180.0
  0
ARC
  5
38C
330
1F
100
AcDbEntity
  8
通り芯
  6
Continuous
 62
     3
370
     9
100
AcDbCircle
 10
453.5480241517763
 20
267.1150754622179
 30
0.0
 40
1.499999898511011
100
AcDbArc
 50
141.3401184082031
 51
180.0
  0
ARC
  5
38D
330
1F
100
AcDbEntity
  8
通り芯
  6
Continuous
 62
     3
370
     9
100
AcDbCircle
 10
452.5481198285075
 20
270.6673215559679
 30
0.0
 40
1.499999898511011
100
AcDbArc
 50
321.3401184082031
 51
0.0000000000000191
  0
ARC
  5
38E
330
1F
100
AcDbEntity
  8
通り芯
  6
Continuous
 62
     3
370
     9
100
AcDbCircle
 10
452.5481198285075
 20
271.6151397965717
 30
0.0
 40
1.499999898511011
100
AcDbArc
 50
0.0
 51
38.65951538085938
  0
ARC
  5
38F
330
1F
100
AcDbEntity
  8
通り芯
  6
Continuous
 62
     3
370
     9
100
AcDbCircle
 10
453.5480241517763
 20
275.1673858903217
 30
0.0
 40
1.499999898511011
100
AcDbArc
 50
180.0
 51
218.6595153808594
  0
ARC
  5
390
330
1F
100
AcDbEntity
  8
通り芯
  6
Continuous
 62
     3
370
     9
100
AcDbCircle
 10
487.5479878606023
 20
268.4837888411241
 30
0.0
 40
1.499999898511011
100
AcDbArc
 50
276.3402404785156
 51
0.0
  0
ARC
  5
391
330
1F
100
AcDbEntity
  8
通り芯
  6
Continuous
 62
     3
370
     9
100
AcDbCircle
 10
487.5479878606023
 20
273.7986725114155
 30
0.0
 40
1.499999898511011
100
AcDbArc
 50
0.0
 51
83.65986633300781
  0
ARC
  5
392
330
1F
100
AcDbEntity
  8
通り芯
  6
Continuous
 62
     3
370
     9
100
AcDbCircle
 10
464.0478855854761
 20
260.6660513648785
 30
0.0
 40
4.99999958115655
100
AcDbArc
 50
96.34025573730467
 51
180.0
  0
ARC
  5
393
330
1F
100
AcDbEntity
  8
通り芯
  6
Continuous
 62
     3
370
     9
100
AcDbCircle
 10
464.0478855854761
 20
281.6164099876613
 30
0.0
 40
4.99999958115655
100
AcDbArc
 50
180.0
 51
263.6597595214844
  0
CIRCLE
  5
394
330
1F
100
AcDbEntity
  8
仕上
  6
Continuous
 62
     2
370
     9
100
AcDbCircle
 10
439.0480505453576
 20
253.14103519881
 30
0.0
 40
1.999999904954756
  0
CIRCLE
  5
395
330
1F
100
AcDbEntity
  8
仕上
  6
Continuous
 62
     2
370
     9
100
AcDbCircle
 10
439.0480505453576
 20
253.14103519881
 30
0.0
 40
1.399999897222261
  0
ARC
  5
396
330
1F
100
AcDbEntity
  8
通り芯
  6
Continuous
 62
     3
370
     9
100
AcDbCircle
 10
-470.0504354528479
 20
280.641125926745
 30
0.0
 40
5.999999594044042
100
AcDbArc
 50
180.0
 51
270.0
  0
ARC
  5
397
330
1F
100
AcDbEntity
  8
通り芯
  6
Continuous
 62
     3
370
     9
100
AcDbCircle
 10
-470.0504354528479
 20
261.6412117058835
 30
0.0
 40
5.999999594044042
100
AcDbArc
 50
90.0
 51
180.0
  0
ARC
  5
398
330
1F
100
AcDbEntity
  8
通り芯
  6
Continuous
 62
     3
370
     9
100
AcDbCircle
 10
-489.0504733936206
 20
261.6412117058835
 30
0.0
 40
5.999999594044042
100
AcDbArc
 50
0.0
 51
90.0
  0
ARC
  5
399
330
1F
100
AcDbEntity
  8
通り芯
  6
Continuous
 62
     3
370
     9
100
AcDbCircle
 10
-470.0504354528479
 20
280.641125926745
 30
0.0
 40
8.499999626262769
100
AcDbArc
 50
180.0
 51
270.0
  0
ARC
  5
39A
330
1F
100
AcDbEntity
  8
通り芯
  6
Continuous
 62
     3
370
     9
100
AcDbCircle
 10
-489.0504733936206
 20
280.641125926745
 30
0.0
 40
5.999999594044042
100
AcDbArc
 50
270.0
 51
0.0
  0
ARC
  5
39B
330
1F
100
AcDbEntity
  8
通り芯
  6
Continuous
 62
     3
370
     9
100
AcDbCircle
 10
-489.0504733936206
 20
280.641125926745
 30
0.0
 40
8.499999626262769
100
AcDbArc
 50
270.0
 51
0.0
  0
ARC
  5
39C
330
1F
100
AcDbEntity
  8
通り芯
  6
Continuous
 62
     3
370
     9
100
AcDbCircle
 10
-489.0504733936206
 20
261.6412117058835
 30
0.0
 40
8.499999626262769
100
AcDbArc
 50
0.0
 51
90.0
  0
ARC
  5
39D
330
1F
100
AcDbEntity
  8
通り芯
  6
Continuous
 62
     3
370
     9
100
AcDbCircle
 10
-470.0504354528479
 20
261.6412117058835
 30
0.0
 40
8.499999626262769
100
AcDbArc
 50
90.0
 51
180.0
  0
ARC
  5
39E
330
1F
100
AcDbEntity
  8
通り芯
  6
Continuous
 62
     3
370
     9
100
AcDbCircle
 10
430.547997758195
 20
262.2140348952837
 30
0.0
 40
1.499999898511011
100
AcDbArc
 50
0.0
 51
63.43748474121094
  0
ARC
  5
39F
330
1F
100
AcDbEntity
  8
通り芯
  6
Continuous
 62
     3
370
     9
100
AcDbCircle
 10
-29.78014043859531
 20
-427.2597100899358
 30
0.0
 40
0.9999999524773778
100
AcDbArc
 50
270.0
 51
355.9143829345704
  0
ARC
  5
3A0
330
1F
100
AcDbEntity
  8
仕上
  6
Continuous
 62
     2
370
     9
100
AcDbCircle
 10
-23.14330951587564
 20
-421.6097928997965
 30
0.0
 40
0.19999998747497
100
AcDbArc
 50
0.0
 51
59.14018249511718
  0
ARC
  5
3A1
330
1F
100
AcDbEntity
  8
仕上
  6
Continuous
 62
     2
370
     9
100
AcDbCircle
 10
-23.14330951587564
 20
-416.9096734688421
 30
0.0
 40
0.19999998747497
100
AcDbArc
 50
300.8598175048828
 51
0.0
  0
ARC
  5
3A2
330
1F
100
AcDbEntity
  8
仕上
  6
Continuous
 62
     2
370
     9
100
AcDbCircle
 10
-26.84327718373879
 20
-419.2597331843191
 30
0.0
 40
6.499998633925981
100
AcDbArc
 50
4.4117431640625
 51
32.57934570312499
  0
ARC
  5
3A3
330
1F
100
AcDbEntity
  8
仕上
  6
Continuous
 62
     2
370
     9
100
AcDbCircle
 10
-26.84327718373879
 20
-419.2597331843191
 30
0.0
 40
6.499998633925981
100
AcDbArc
 50
327.420654296875
 51
355.5884704589844
  0
ARC
  5
3A4
330
1F
100
AcDbEntity
  8
仕上
  6
Continuous
 62
     4
370
     9
100
AcDbCircle
 10
-30.05034472491275
 20
-410.259728235523
 30
0.0
 40
0.4999999762386889
100
AcDbArc
 50
90.0
 51
180.0
  0
ARC
  5
3A5
330
1F
100
AcDbEntity
  8
仕上
  6
Continuous
 62
     4
370
     9
100
AcDbCircle
 10
-25.55040411047031
 20
-409.2597001923428
 30
0.0
 40
0.4999999762386889
100
AcDbArc
 50
270.0
 51
0.0
  0
ARC
  5
3A6
330
1F
100
AcDbEntity
  8
仕上
  6
Continuous
 62
     4
370
     9
100
AcDbCircle
 10
-24.05042390565598
 20
-410.759680397157
 30
0.0
 40
0.4999999762386889
100
AcDbArc
 50
270.0
 51
0.0
  0
ARC
  5
3A7
330
1F
100
AcDbEntity
  8
仕上
  6
Continuous
 62
     4
370
     9
100
AcDbCircle
 10
-28.5503645200987
 20
-411.7597084403369
 30
0.0
 40
0.4999999762386889
100
AcDbArc
 50
90.0
 51
180.0
  0
ARC
  5
3A8
330
1F
100
AcDbEntity
  8
通り芯
  6
Continuous
 62
     3
370
     9
100
AcDbCircle
 10
-34.86403903445677
 20
-428.2597381331157
 30
0.0
 40
3.999999809909511
100
AcDbArc
 50
270.0
 51
355.9143371582032
  0
ARC
  5
3A9
330
1F
100
AcDbEntity
  8
通り芯
  6
Continuous
 62
     3
370
     9
100
AcDbCircle
 10
453.5480241517763
 20
446.6673083591775
 30
0.0
 40
1.499999898511011
100
AcDbArc
 50
180.0
 51
218.6598052978516
  0
ARC
  5
3AA
330
1F
100
AcDbEntity
  8
通り芯
  6
Continuous
 62
     3
370
     9
100
AcDbCircle
 10
452.5481198285075
 20
443.1149385455161
 30
0.0
 40
1.499999898511011
100
AcDbArc
 50
0.0
 51
38.65980529785156
  0
ARC
  5
3AB
330
1F
100
AcDbEntity
  8
通り芯
  6
Continuous
 62
     3
370
     9
100
AcDbCircle
 10
448.0479317742427
 20
463.8273837788354
 30
0.0
 40
3.999999809909511
100
AcDbArc
 50
0.0
 51
85.91427612304688
  0
ARC
  5
3AC
330
1F
100
AcDbEntity
  8
通り芯
  6
Continuous
 62
     3
370
     9
100
AcDbCircle
 10
-35.13968699687211
 20
463.5517358164199
 30
0.0
 40
3.999999809909511
100
AcDbArc
 50
0.0
 51
90.0
  0
ARC
  5
3AD
330
1F
100
AcDbEntity
  8
通り芯
  6
Continuous
 62
     3
370
     9
100
AcDbCircle
 10
-33.56819668331639
 20
465.1232261299756
 30
0.0
 40
3.999999809909511
100
AcDbArc
 50
0.0
 51
90.0
  0
ARC
  5
3AE
330
1F
100
AcDbEntity
  8
通り芯
  6
Continuous
 62
     3
370
     9
100
AcDbCircle
 10
-700.8926133851746
 20
263.0366485856342
 30
0.0
 40
1.499999898511011
100
AcDbArc
 50
0.0
 51
7.962951660156249
  0
ARC
  5
3AF
330
1F
100
AcDbEntity
  8
通り芯
  6
Continuous
 62
     3
370
     9
100
AcDbCircle
 10
-699.2518399212811
 20
260.141107781158
 30
0.0
 40
0.9999999524773778
100
AcDbArc
 50
90.0
 51
180.0
  0
ARC
  5
3B0
330
1F
100
AcDbEntity
  8
通り芯
  6
Continuous
 62
     3
370
     9
100
AcDbCircle
 10
-700.0378325178816
 20
260.9506071609087
 30
0.0
 40
1.499999898511011
100
AcDbArc
 50
103.1218566894531
 51
180.0
  0
ARC
  5
3B1
330
1F
100
AcDbEntity
  8
通り芯
  6
Continuous
 62
     3
370
     9
100
AcDbCircle
 10
-699.7469670063741
 20
260.6336367481132
 30
0.0
 40
1.499999898511011
100
AcDbArc
 50
0.0
 51
37.37484741210938
  0
ARC
  5
3B2
330
1F
100
AcDbEntity
  8
通り芯
  6
Continuous
 62
     3
370
     9
100
AcDbCircle
 10
-700.8926133851746
 20
243.2454218119858
 30
0.0
 40
1.499999898511011
100
AcDbArc
 50
352.0370483398438
 51
0.0000000000000111
  0
ARC
  5
3B3
330
1F
100
AcDbEntity
  8
通り芯
  6
Continuous
 62
     3
370
     9
100
AcDbCircle
 10
-699.2518399212811
 20
246.1410863363733
 30
0.0
 40
0.9999999524773778
100
AcDbArc
 50
180.0
 51
270.0
  0
ARC
  5
3B4
330
1F
100
AcDbEntity
  8
通り芯
  6
Continuous
 62
     3
370
     9
100
AcDbCircle
 10
-700.0378325178816
 20
245.3315869566225
 30
0.0
 40
1.499999898511011
100
AcDbArc
 50
180.0
 51
256.8781433105469
  0
ARC
  5
3B5
330
1F
100
AcDbEntity
  8
通り芯
  6
Continuous
 62
     3
370
     9
100
AcDbCircle
 10
-699.7469670063741
 20
245.6485573694181
 30
0.0
 40
1.499999898511011
100
AcDbArc
 50
322.6251525878906
 51
0.0
  0
ARC
  5
3B6
330
1F
100
AcDbEntity
  8
通り芯
  6
Continuous
 62
     3
370
     9
100
AcDbCircle
 10
-693.9610816336967
 20
463.5517358164199
 30
0.0
 40
3.999999809909511
100
AcDbArc
 50
90.0
 51
180.0
  0
ARC
  5
3B7
330
1F
100
AcDbEntity
  8
通り芯
  6
Continuous
 62
     3
370
     9
100
AcDbCircle
 10
-695.5325719472524
 20
465.1232261299756
 30
0.0
 40
3.999999809909511
100
AcDbArc
 50
90.0
 51
180.0
  0
ARC
  5
3B8
330
1F
100
AcDbEntity
  8
通り芯
  6
Continuous
 62
     3
370
     9
100
AcDbCircle
 10
430.547997758195
 20
244.0681592222475
 30
0.0
 40
1.499999898511011
100
AcDbArc
 50
296.5625152587891
 51
0.0000000000000254
  0
ARC
  5
3B9
330
1F
100
AcDbEntity
  8
通り芯
  6
Continuous
 62
     3
370
     9
100
AcDbCircle
 10
-696.0504634960278
 20
480.1410912851699
 30
0.0
 40
3.999999809909511
100
AcDbArc
 50
311.4092559814453
 51
359.9999999999999
  0
ARC
  5
3BA
330
1F
100
AcDbEntity
  8
通り芯
  6
Continuous
 62
     3
370
     9
100
AcDbCircle
 10
-663.0505278303816
 20
480.1410912851699
 30
0.0
 40
3.999999809909511
100
AcDbArc
 50
180.0
 51
228.5907440185547
  0
ARC
  5
3BB
330
1F
100
AcDbEntity
  8
通り芯
  6
Continuous
 62
     3
370
     9
100
AcDbCircle
 10
-381.0504140080632
 20
480.1410912851699
 30
0.0
 40
3.999999809909511
100
AcDbArc
 50
311.4092559814453
 51
359.9999999999999
  0
ARC
  5
3BC
330
1F
100
AcDbEntity
  8
通り芯
  6
Continuous
 62
     3
370
     9
100
AcDbCircle
 10
-348.0503546225057
 20
480.1410912851699
 30
0.0
 40
3.999999809909511
100
AcDbArc
 50
180.0
 51
228.5907440185547
  0
ARC
  5
3BD
330
1F
100
AcDbEntity
  8
通り芯
  6
Continuous
 62
     3
370
     9
100
AcDbCircle
 10
-66.05042638005429
 20
480.1410912851699
 30
0.0
 40
3.999999809909511
100
AcDbArc
 50
311.4092559814453
 51
359.9999999999999
  0
ARC
  5
3BE
330
1F
100
AcDbEntity
  8
通り芯
  6
Continuous
 62
     3
370
     9
100
AcDbCircle
 10
-33.05030513454128
 20
480.1410912851699
 30
0.0
 40
3.999999809909511
100
AcDbArc
 50
180.0
 51
228.5907440185547
  0
ARC
  5
3BF
330
1F
100
AcDbEntity
  8
通り芯
  6
Continuous
 62
     3
370
     9
100
AcDbCircle
 10
-259.0504568976324
 20
31.64119520989536
 30
0.0
 40
5.999999594044042
100
AcDbArc
 50
0.0
 51
90.0
  0
ARC
  5
3C0
330
1F
100
AcDbEntity
  8
通り芯
  6
Continuous
 62
     3
370
     9
100
AcDbCircle
 10
-259.0504568976324
 20
50.64110943075682
 30
0.0
 40
5.999999594044042
100
AcDbArc
 50
270.0
 51
0.0
  0
ARC
  5
3C1
330
1F
100
AcDbEntity
  8
通り芯
  6
Continuous
 62
     3
370
     9
100
AcDbCircle
 10
-240.0504189568596
 20
50.64110943075682
 30
0.0
 40
5.999999594044042
100
AcDbArc
 50
180.0
 51
270.0
  0
ARC
  5
3C2
330
1F
100
AcDbEntity
  8
通り芯
  6
Continuous
 62
     3
370
     9
100
AcDbCircle
 10
-259.0504568976324
 20
31.64119520989536
 30
0.0
 40
8.499999626262769
100
AcDbArc
 50
0.0
 51
90.0
  0
ARC
  5
3C3
330
1F
100
AcDbEntity
  8
通り芯
  6
Continuous
 62
     3
370
     9
100
AcDbCircle
 10
-240.0504189568596
 20
31.64119520989536
 30
0.0
 40
5.999999594044042
100
AcDbArc
 50
90.0
 51
180.0
  0
ARC
  5
3C4
330
1F
100
AcDbEntity
  8
通り芯
  6
Continuous
 62
     3
370
     9
100
AcDbCircle
 10
-240.0504189568596
 20
31.64119520989536
 30
0.0
 40
8.499999626262769
100
AcDbArc
 50
90.0
 51
180.0
  0
ARC
  5
3C5
330
1F
100
AcDbEntity
  8
通り芯
  6
Continuous
 62
     3
370
     9
100
AcDbCircle
 10
-240.0504189568596
 20
50.64110943075682
 30
0.0
 40
8.499999626262769
100
AcDbArc
 50
180.0
 51
270.0
  0
ARC
  5
3C6
330
1F
100
AcDbEntity
  8
通り芯
  6
Continuous
 62
     3
370
     9
100
AcDbCircle
 10
-259.0504568976324
 20
50.64110943075682
 30
0.0
 40
8.499999626262769
100
AcDbArc
 50
270.0
 51
0.0
  0
ARC
  5
3C7
330
1F
100
AcDbEntity
  8
通り芯
  6
Continuous
 62
     3
370
     9
100
AcDbCircle
 10
-470.0504354528479
 20
31.64119520989536
 30
0.0
 40
5.999999594044042
100
AcDbArc
 50
90.0
 51
180.0
  0
ARC
  5
3C8
330
1F
100
AcDbEntity
  8
通り芯
  6
Continuous
 62
     3
370
     9
100
AcDbCircle
 10
-470.0504354528479
 20
50.64110943075682
 30
0.0
 40
5.999999594044042
100
AcDbArc
 50
180.0
 51
270.0
  0
ARC
  5
3C9
330
1F
100
AcDbEntity
  8
通り芯
  6
Continuous
 62
     3
370
     9
100
AcDbCircle
 10
-489.0504733936206
 20
50.64110943075682
 30
0.0
 40
5.999999594044042
100
AcDbArc
 50
270.0
 51
0.0
  0
ARC
  5
3CA
330
1F
100
AcDbEntity
  8
通り芯
  6
Continuous
 62
     3
370
     9
100
AcDbCircle
 10
-470.0504354528479
 20
31.64119520989536
 30
0.0
 40
8.499999626262769
100
AcDbArc
 50
90.0
 51
180.0
  0
ARC
  5
3CB
330
1F
100
AcDbEntity
  8
通り芯
  6
Continuous
 62
     3
370
     9
100
AcDbCircle
 10
-489.0504733936206
 20
31.64119520989536
 30
0.0
 40
5.999999594044042
100
AcDbArc
 50
0.0
 51
90.0
  0
ARC
  5
3CC
330
1F
100
AcDbEntity
  8
通り芯
  6
Continuous
 62
     3
370
     9
100
AcDbCircle
 10
-489.0504733936206
 20
31.64119520989536
 30
0.0
 40
8.499999626262769
100
AcDbArc
 50
0.0
 51
90.0
  0
ARC
  5
3CD
330
1F
100
AcDbEntity
  8
通り芯
  6
Continuous
 62
     3
370
     9
100
AcDbCircle
 10
-489.0504733936206
 20
50.64110943075682
 30
0.0
 40
8.499999626262769
100
AcDbArc
 50
270.0
 51
0.0
  0
ARC
  5
3CE
330
1F
100
AcDbEntity
  8
通り芯
  6
Continuous
 62
     3
370
     9
100
AcDbCircle
 10
-470.0504354528479
 20
50.64110943075682
 30
0.0
 40
8.499999626262769
100
AcDbArc
 50
180.0
 51
270.0
  0
ARC
  5
3CF
330
1F
100
AcDbEntity
  8
通り芯
  6
Continuous
 62
     3
370
     9
100
AcDbCircle
 10
-35.13968699687211
 20
-151.2694146797795
 30
0.0
 40
3.999999809909511
100
AcDbArc
 50
270.0
 51
0.0
  0
ARC
  5
3D0
330
1F
100
AcDbEntity
  8
通り芯
  6
Continuous
 62
     3
370
     9
100
AcDbCircle
 10
-33.56819668331639
 20
-152.8409049933355
 30
0.0
 40
3.999999809909511
100
AcDbArc
 50
270.0
 51
0.0
  0
ARC
  5
3D1
330
1F
100
AcDbEntity
  8
通り芯
  6
Continuous
 62
     3
370
     9
100
AcDbCircle
 10
-700.8926133851746
 20
49.24554883109457
 30
0.0
 40
1.499999898511011
100
AcDbArc
 50
352.0370483398438
 51
0.0000000000000111
  0
ARC
  5
3D2
330
1F
100
AcDbEntity
  8
通り芯
  6
Continuous
 62
     3
370
     9
100
AcDbCircle
 10
-699.2518399212811
 20
52.14115149552661
 30
0.0
 40
0.9999999524773778
100
AcDbArc
 50
180.0
 51
270.0
  0
ARC
  5
3D3
330
1F
100
AcDbEntity
  8
通り芯
  6
Continuous
 62
     3
370
     9
100
AcDbCircle
 10
-700.0378325178816
 20
51.33165211577583
 30
0.0
 40
1.499999898511011
100
AcDbArc
 50
180.0
 51
256.8781433105469
  0
ARC
  5
3D4
330
1F
100
AcDbEntity
  8
通り芯
  6
Continuous
 62
     3
370
     9
100
AcDbCircle
 10
-699.7469670063741
 20
51.6486225285714
 30
0.0
 40
1.499999898511011
100
AcDbArc
 50
322.6251525878906
 51
0.0
  0
ARC
  5
3D5
330
1F
100
AcDbEntity
  8
通り芯
  6
Continuous
 62
     3
370
     9
100
AcDbCircle
 10
-700.8926133851746
 20
69.03683746469879
 30
0.0
 40
1.499999898511011
100
AcDbArc
 50
0.0
 51
7.962951660156249
  0
ARC
  5
3D6
330
1F
100
AcDbEntity
  8
通り芯
  6
Continuous
 62
     3
370
     9
100
AcDbCircle
 10
-699.2518399212811
 20
66.14117294031124
 30
0.0
 40
0.9999999524773778
100
AcDbArc
 50
90.0
 51
180.0
  0
ARC
  5
3D7
330
1F
100
AcDbEntity
  8
通り芯
  6
Continuous
 62
     3
370
     9
100
AcDbCircle
 10
-700.0378325178816
 20
66.95067232006215
 30
0.0
 40
1.499999898511011
100
AcDbArc
 50
103.1218566894531
 51
180.0
  0
ARC
  5
3D8
330
1F
100
AcDbEntity
  8
通り芯
  6
Continuous
 62
     3
370
     9
100
AcDbCircle
 10
-699.7469670063741
 20
66.63370190726644
 30
0.0
 40
1.499999898511011
100
AcDbArc
 50
0.0
 51
37.37484741210938
  0
ARC
  5
3D9
330
1F
100
AcDbEntity
  8
通り芯
  6
Continuous
 62
     3
370
     9
100
AcDbCircle
 10
-693.9610816336967
 20
-151.2694146797795
 30
0.0
 40
3.999999809909511
100
AcDbArc
 50
180.0
 51
270.0
  0
ARC
  5
3DA
330
1F
100
AcDbEntity
  8
通り芯
  6
Continuous
 62
     3
370
     9
100
AcDbCircle
 10
-695.5325719472524
 20
-152.8409049933355
 30
0.0
 40
3.999999809909511
100
AcDbArc
 50
180.0
 51
270.0
  0
ARC
  5
3DB
330
1F
100
AcDbEntity
  8
通り芯
  6
Continuous
 62
     3
370
     9
100
AcDbCircle
 10
-696.0504634960278
 20
-167.8587701485295
 30
0.0
 40
3.999999809909511
100
AcDbArc
 50
0.0
 51
48.59074401855468
  0
ARC
  5
3DC
330
1F
100
AcDbEntity
  8
通り芯
  6
Continuous
 62
     3
370
     9
100
AcDbCircle
 10
-663.0505278303816
 20
-167.8587701485295
 30
0.0
 40
3.999999809909511
100
AcDbArc
 50
131.4092559814453
 51
180.0
  0
ARC
  5
3DD
330
1F
100
AcDbEntity
  8
通り芯
  6
Continuous
 62
     3
370
     9
100
AcDbCircle
 10
-381.0504140080632
 20
-167.8587701485295
 30
0.0
 40
3.999999809909511
100
AcDbArc
 50
0.0
 51
48.59074401855468
  0
ARC
  5
3DE
330
1F
100
AcDbEntity
  8
通り芯
  6
Continuous
 62
     3
370
     9
100
AcDbCircle
 10
-348.0503546225057
 20
-167.8587701485295
 30
0.0
 40
3.999999809909511
100
AcDbArc
 50
131.4092559814453
 51
180.0
  0
ARC
  5
3DF
330
1F
100
AcDbEntity
  8
通り芯
  6
Continuous
 62
     3
370
     9
100
AcDbCircle
 10
-66.05042638005429
 20
-167.8587701485295
 30
0.0
 40
3.999999809909511
100
AcDbArc
 50
0.0
 51
48.59074401855468
  0
ARC
  5
3E0
330
1F
100
AcDbEntity
  8
通り芯
  6
Continuous
 62
     3
370
     9
100
AcDbCircle
 10
-33.05030513454128
 20
-167.8587701485295
 30
0.0
 40
3.999999809909511
100
AcDbArc
 50
131.4092559814453
 51
180.0
  0
ARC
  5
3E1
330
1F
100
AcDbEntity
  8
通り芯
  6
Continuous
 62
     3
370
     9
100
AcDbCircle
 10
-475.5242992091823
 20
-433.7597067907383
 30
0.0
 40
1.499999898511011
100
AcDbArc
 50
90.0
 51
128.6598815917969
  0
ARC
  5
3E2
330
1F
100
AcDbEntity
  8
通り芯
  6
Continuous
 62
     3
370
     9
100
AcDbCircle
 10
-479.0766690228435
 20
-432.7596787475584
 30
0.0
 40
1.499999898511011
100
AcDbArc
 50
270.0
 51
308.6598815917969
  0
ARC
  5
3E3
330
1F
100
AcDbEntity
  8
通り芯
  6
Continuous
 62
     3
370
     9
100
AcDbCircle
 10
-480.0243635435362
 20
-432.7596787475584
 30
0.0
 40
1.499999898511011
100
AcDbArc
 50
231.3404846191406
 51
270.0
  0
ARC
  5
3E4
330
1F
100
AcDbEntity
  8
通り芯
  6
Continuous
 62
     3
370
     9
100
AcDbCircle
 10
-483.5766096372862
 20
-433.7597067907383
 30
0.0
 40
1.499999898511011
100
AcDbArc
 50
51.34048461914062
 51
90.0
  0
ARC
  5
3E5
330
1F
100
AcDbEntity
  8
通り芯
  6
Continuous
 62
     3
370
     9
100
AcDbCircle
 10
-476.8930125880885
 20
-467.7596704995642
 30
0.0
 40
1.499999898511011
100
AcDbArc
 50
270.0
 51
353.6597595214844
  0
ARC
  5
3E6
330
1F
100
AcDbEntity
  8
通り芯
  6
Continuous
 62
     3
370
     9
100
AcDbCircle
 10
-482.2080199782911
 20
-467.7596704995642
 30
0.0
 40
1.499999898511011
100
AcDbArc
 50
186.3401336669922
 51
270.0
  0
ARC
  5
3E7
330
1F
100
AcDbEntity
  8
通り芯
  6
Continuous
 62
     3
370
     9
100
AcDbCircle
 10
-469.0752751118427
 20
-444.2596919443487
 30
0.0
 40
4.99999958115655
100
AcDbArc
 50
90.0
 51
173.6597442626953
  0
ARC
  5
3E8
330
1F
100
AcDbEntity
  8
通り芯
  6
Continuous
 62
     3
370
     9
100
AcDbCircle
 10
-490.025757454537
 20
-444.2596919443487
 30
0.0
 40
4.99999958115655
100
AcDbArc
 50
6.340240478515625
 51
90.0
  0
ARC
  5
3E9
330
1F
100
AcDbEntity
  8
通り芯
  6
Continuous
 62
     3
370
     9
100
AcDbCircle
 10
444.5478954830685
 20
-183.5345777921106
 30
0.0
 40
1.499999898511011
100
AcDbArc
 50
277.1247863769531
 51
0.0000000000000127
  0
ARC
  5
3EA
330
1F
100
AcDbEntity
  8
通り芯
  6
Continuous
 62
     3
370
     9
100
AcDbCircle
 10
450.0479878606023
 20
-166.4404450851849
 30
0.0
 40
3.999999809909511
100
AcDbArc
 50
94.08566284179688
 51
180.0
  0
ARC
  5
3EB
330
1F
100
AcDbEntity
  8
通り芯
  6
Continuous
 62
     3
370
     9
100
AcDbCircle
 10
470.5478822862781
 20
-159.4621472072289
 30
0.0
 40
1.499999898511011
100
AcDbArc
 50
274.0857543945312
 51
0.0000000000000254
  0
ARC
  5
3EC
330
1F
100
AcDbEntity
  8
通り芯
  6
Continuous
 62
     3
370
     9
100
AcDbCircle
 10
470.5478822862781
 20
-156.1596916144293
 30
0.0
 40
1.499999898511011
100
AcDbArc
 50
0.0
 51
81.87069702148438
  0
ARC
  5
3ED
330
1F
100
AcDbEntity
  8
通り芯
  6
Continuous
 62
     3
370
     9
100
AcDbCircle
 10
464.0478855854761
 20
-148.5223377688845
 30
0.0
 40
4.99999958115655
100
AcDbArc
 50
180.0
 51
261.8696594238281
  0
ARC
  5
3EE
330
1F
100
AcDbEntity
  8
通り芯
  6
Continuous
 62
     3
370
     9
100
AcDbCircle
 10
453.5480241517763
 20
45.16724567442224
 30
0.0
 40
1.499999898511011
100
AcDbArc
 50
180.0
 51
218.6598815917969
  0
ARC
  5
3EF
330
1F
100
AcDbEntity
  8
通り芯
  6
Continuous
 62
     3
370
     9
100
AcDbCircle
 10
452.5481198285075
 20
41.61499958067224
 30
0.0
 40
1.499999898511011
100
AcDbArc
 50
0.0
 51
38.65988159179688
  0
ARC
  5
3F0
330
1F
100
AcDbEntity
  8
通り芯
  6
Continuous
 62
     3
370
     9
100
AcDbCircle
 10
452.5481198285075
 20
40.6671813400684
 30
0.0
 40
1.499999898511011
100
AcDbArc
 50
321.3404846191406
 51
0.0
  0
ARC
  5
3F1
330
1F
100
AcDbEntity
  8
通り芯
  6
Continuous
 62
     3
370
     9
100
AcDbCircle
 10
453.5480241517763
 20
37.1149352463184
 30
0.0
 40
1.499999898511011
100
AcDbArc
 50
141.3404846191406
 51
180.0
  0
ARC
  5
3F2
330
1F
100
AcDbEntity
  8
通り芯
  6
Continuous
 62
     3
370
     9
100
AcDbCircle
 10
487.5479878606023
 20
43.79853229551599
 30
0.0
 40
1.499999898511011
100
AcDbArc
 50
0.0
 51
83.65975952148438
  0
ARC
  5
3F3
330
1F
100
AcDbEntity
  8
通り芯
  6
Continuous
 62
     3
370
     9
100
AcDbCircle
 10
487.5479878606023
 20
38.48364862522465
 30
0.0
 40
1.499999898511011
100
AcDbArc
 50
276.3401336669922
 51
0.0000000000000127
  0
ARC
  5
3F4
330
1F
100
AcDbEntity
  8
通り芯
  6
Continuous
 62
     3
370
     9
100
AcDbCircle
 10
464.0478855854761
 20
51.61626977176183
 30
0.0
 40
4.99999958115655
100
AcDbArc
 50
180.0
 51
263.6597442626953
  0
ARC
  5
3F5
330
1F
100
AcDbEntity
  8
通り芯
  6
Continuous
 62
     3
370
     9
100
AcDbCircle
 10
464.0478855854761
 20
30.66591114897896
 30
0.0
 40
4.99999958115655
100
AcDbArc
 50
96.34024047851562
 51
180.0
  0
CIRCLE
  5
3F6
330
1F
100
AcDbEntity
  8
仕上
  6
Continuous
 62
     2
370
     9
100
AcDbCircle
 10
439.0480505453576
 20
59.14122407787466
 30
0.0
 40
1.999999904954756
  0
CIRCLE
  5
3F7
330
1F
100
AcDbEntity
  8
仕上
  6
Continuous
 62
     2
370
     9
100
AcDbCircle
 10
439.0480505453576
 20
59.14122407787466
 30
0.0
 40
1.399999897222261
  0
ARC
  5
3F8
330
1F
100
AcDbEntity
  8
通り芯
  6
Continuous
 62
     3
370
     9
100
AcDbCircle
 10
430.547997758195
 20
50.06822438140083
 30
0.0
 40
1.499999898511011
100
AcDbArc
 50
296.5625152587891
 51
0.0000000000000254
  0
ARC
  5
3F9
330
1F
100
AcDbEntity
  8
通り芯
  6
Continuous
 62
     3
370
     9
100
AcDbCircle
 10
453.5480241517763
 20
-134.3849872225372
 30
0.0
 40
1.499999898511011
100
AcDbArc
 50
141.3401947021484
 51
180.0
  0
ARC
  5
3FA
330
1F
100
AcDbEntity
  8
通り芯
  6
Continuous
 62
     3
370
     9
100
AcDbCircle
 10
452.5481198285075
 20
-130.8326174088757
 30
0.0
 40
1.499999898511011
100
AcDbArc
 50
321.3401947021484
 51
0.0
  0
ARC
  5
3FB
330
1F
100
AcDbEntity
  8
通り芯
  6
Continuous
 62
     3
370
     9
100
AcDbCircle
 10
448.0479317742427
 20
-151.545062642195
 30
0.0
 40
3.999999809909511
100
AcDbArc
 50
274.0857238769531
 51
0.0000000000000127
  0
ARC
  5
3FC
330
1F
100
AcDbEntity
  8
通り芯
  6
Continuous
 62
     3
370
     9
100
AcDbCircle
 10
430.547997758195
 20
68.21410005443715
 30
0.0
 40
1.499999898511011
100
AcDbArc
 50
0.0
 51
63.43748474121094
  0
ARC
  5
3FD
330
1F
100
AcDbEntity
  8
通り芯
  6
Continuous
 62
     3
370
     9
100
AcDbCircle
 10
-65.41648555446315
 20
-464.2597579283014
 30
0.0
 40
14.99999922675056
100
AcDbArc
 50
90.0
 51
135.9354095458984
  0
ARC
  5
3FE
330
1F
100
AcDbEntity
  8
通り芯
  6
Continuous
 62
     3
370
     9
100
AcDbCircle
 10
-97.48821258544922
 20
-454.2597249363251
 30
0.0
 40
14.99999922675056
100
AcDbArc
 50
270.0
 51
315.9353637695312
  0
ARC
  5
3FF
330
1F
100
AcDbEntity
  8
通り芯
  6
Continuous
 62
     3
370
     9
100
AcDbCircle
 10
-117.8296218047269
 20
-443.2596639011689
 30
0.0
 40
3.999999809909511
100
AcDbArc
 50
11.30989074707031
 51
90.00000000000001
  0
ARC
  5
400
330
1F
100
AcDbEntity
  8
通り芯
  6
Continuous
 62
     3
370
     9
100
AcDbCircle
 10
-111.9108612472945
 20
-442.2597595779004
 30
0.0
 40
1.999999904954756
100
AcDbArc
 50
191.3097229003906
 51
270.0
  0
ARC
  5
401
330
1F
100
AcDbEntity
  8
通り芯
  6
Continuous
 62
     3
370
     9
100
AcDbCircle
 10
-103.8297240798538
 20
-443.2596639011689
 30
0.0
 40
3.999999809909511
100
AcDbArc
 50
11.30989074707031
 51
90.00000000000001
  0
ARC
  5
402
330
1F
100
AcDbEntity
  8
通り芯
  6
Continuous
 62
     3
370
     9
100
AcDbCircle
 10
-97.91096352242107
 20
-442.2597595779004
 30
0.0
 40
1.999999904954756
100
AcDbArc
 50
191.3097229003906
 51
270.0
  0
ARC
  5
403
330
1F
100
AcDbEntity
  8
通り芯
  6
Continuous
 62
     3
370
     9
100
AcDbCircle
 10
-36.21270978772941
 20
-448.2598041170684
 30
0.0
 40
3.999999809909511
100
AcDbArc
 50
8.74615478515625
 51
90.0
  0
ARC
  5
404
330
1F
100
AcDbEntity
  8
通り芯
  6
Continuous
 62
     3
370
     9
100
AcDbCircle
 10
-37.83999778128944
 20
-444.2596919443487
 30
0.0
 40
4.99999958115655
100
AcDbArc
 50
8.746749877929688
 51
90.0
  0
ARC
  5
405
330
1F
100
AcDbEntity
  8
通り芯
  6
Continuous
 62
     3
370
     9
100
AcDbCircle
 10
-651.5242860123917
 20
-432.7596787475584
 30
0.0
 40
1.499999898511011
100
AcDbArc
 50
231.3404846191406
 51
270.0
  0
ARC
  5
406
330
1F
100
AcDbEntity
  8
通り芯
  6
Continuous
 62
     3
370
     9
100
AcDbCircle
 10
-655.0766558260532
 20
-433.7597067907383
 30
0.0
 40
1.499999898511011
100
AcDbArc
 50
51.34048461914062
 51
90.0
  0
ARC
  5
407
330
1F
100
AcDbEntity
  8
通り芯
  6
Continuous
 62
     3
370
     9
100
AcDbCircle
 10
-698.8372544984559
 20
-450.7596886451512
 30
0.0
 40
1.499999898511011
100
AcDbArc
 50
270.0
 51
351.2542266845703
  0
ARC
  5
408
330
1F
100
AcDbEntity
  8
通り芯
  6
Continuous
 62
     3
370
     9
100
AcDbCircle
 10
-702.1536904412346
 20
-450.7596886451512
 30
0.0
 40
1.499999898511011
100
AcDbArc
 50
184.085205078125
 51
270.0
  0
ARC
  5
409
330
1F
100
AcDbEntity
  8
通り芯
  6
Continuous
 62
     3
370
     9
100
AcDbCircle
 10
-699.320751911885
 20
-427.2597100899358
 30
0.0
 40
0.9999999524773778
100
AcDbArc
 50
184.0856170654297
 51
270.0
  0
ARC
  5
40A
330
1F
100
AcDbEntity
  8
仕上
  6
Continuous
 62
     2
370
     9
100
AcDbCircle
 10
-705.9575828346045
 20
-421.6097928997965
 30
0.0
 40
0.19999998747497
100
AcDbArc
 50
120.8598175048828
 51
180.0
  0
ARC
  5
40B
330
1F
100
AcDbEntity
  8
仕上
  6
Continuous
 62
     2
370
     9
100
AcDbCircle
 10
-705.9575828346045
 20
-416.9096734688421
 30
0.0
 40
0.19999998747497
100
AcDbArc
 50
180.0
 51
239.1401824951172
  0
ARC
  5
40C
330
1F
100
AcDbEntity
  8
仕上
  6
Continuous
 62
     2
370
     9
100
AcDbCircle
 10
-702.2576151667414
 20
-419.2597331843191
 30
0.0
 40
6.499998633925981
100
AcDbArc
 50
147.420654296875
 51
175.5882568359375
  0
ARC
  5
40D
330
1F
100
AcDbEntity
  8
仕上
  6
Continuous
 62
     2
370
     9
100
AcDbCircle
 10
-702.2576151667414
 20
-419.2597331843191
 30
0.0
 40
6.499998633925981
100
AcDbArc
 50
184.4115295410156
 51
212.579345703125
  0
ARC
  5
40E
330
1F
100
AcDbEntity
  8
仕上
  6
Continuous
 62
     4
370
     9
100
AcDbCircle
 10
-699.0505476255674
 20
-410.259728235523
 30
0.0
 40
0.4999999762386889
100
AcDbArc
 50
0.0
 51
90.0
  0
ARC
  5
40F
330
1F
100
AcDbEntity
  8
仕上
  6
Continuous
 62
     4
370
     9
100
AcDbCircle
 10
-703.55048824001
 20
-409.2597001923428
 30
0.0
 40
0.4999999762386889
100
AcDbArc
 50
180.0
 51
270.0
  0
ARC
  5
410
330
1F
100
AcDbEntity
  8
仕上
  6
Continuous
 62
     4
370
     9
100
AcDbCircle
 10
-705.0504684448242
 20
-410.759680397157
 30
0.0
 40
0.4999999762386889
100
AcDbArc
 50
180.0
 51
270.0
  0
ARC
  5
411
330
1F
100
AcDbEntity
  8
仕上
  6
Continuous
 62
     4
370
     9
100
AcDbCircle
 10
-700.550651550293
 20
-411.7597084403369
 30
0.0
 40
0.4999999762386889
100
AcDbArc
 50
0.0
 51
90.0
  0
ARC
  5
412
330
1F
100
AcDbEntity
  8
通り芯
  6
Continuous
 62
     3
370
     9
100
AcDbCircle
 10
-694.2368533160236
 20
-428.2597381331157
 30
0.0
 40
3.999999809909511
100
AcDbArc
 50
184.0856628417969
 51
270.0
  0
ARC
  5
413
330
1F
100
AcDbEntity
  8
通り芯
  6
Continuous
 62
     3
370
     9
100
AcDbCircle
 10
-663.6843449360615
 20
-464.2597579283014
 30
0.0
 40
14.99999922675056
100
AcDbArc
 50
44.06459045410156
 51
90.0
  0
ARC
  5
414
330
1F
100
AcDbEntity
  8
通り芯
  6
Continuous
 62
     3
370
     9
100
AcDbCircle
 10
-631.6126797650311
 20
-454.2597249363251
 30
0.0
 40
14.99999922675056
100
AcDbArc
 50
224.0646362304688
 51
270.0
  0
ARC
  5
415
330
1F
100
AcDbEntity
  8
通り芯
  6
Continuous
 62
     3
370
     9
100
AcDbCircle
 10
-611.2711468258419
 20
-443.2596639011689
 30
0.0
 40
3.999999809909511
100
AcDbArc
 50
90.0
 51
168.6901092529297
  0
ARC
  5
416
330
1F
100
AcDbEntity
  8
通り芯
  6
Continuous
 62
     3
370
     9
100
AcDbCircle
 10
-617.1899073832743
 20
-442.2597595779004
 30
0.0
 40
1.999999904954756
100
AcDbArc
 50
270.0
 51
348.6902770996094
  0
ARC
  5
417
330
1F
100
AcDbEntity
  8
通り芯
  6
Continuous
 62
     3
370
     9
100
AcDbCircle
 10
-625.2712919905379
 20
-443.2596639011689
 30
0.0
 40
3.999999809909511
100
AcDbArc
 50
90.0
 51
168.6901092529297
  0
ARC
  5
418
330
1F
100
AcDbEntity
  8
通り芯
  6
Continuous
 62
     3
370
     9
100
AcDbCircle
 10
-631.1900525479703
 20
-442.2597595779004
 30
0.0
 40
1.999999904954756
100
AcDbArc
 50
270.0
 51
348.6902770996094
  0
ARC
  5
419
330
1F
100
AcDbEntity
  8
通り芯
  6
Continuous
 62
     3
370
     9
100
AcDbCircle
 10
-692.8881825627507
 20
-448.2598041170684
 30
0.0
 40
3.999999809909511
100
AcDbArc
 50
90.0
 51
171.2538452148438
  0
ARC
  5
41A
330
1F
100
AcDbEntity
  8
通り芯
  6
Continuous
 62
     3
370
     9
100
AcDbCircle
 10
-691.2608945691908
 20
-444.2596919443487
 30
0.0
 40
4.99999958115655
100
AcDbArc
 50
90.0
 51
171.2532501220703
  0
ARC
  5
41B
330
1F
100
AcDbEntity
  8
通り芯
  6
Continuous
 62
     3
370
     9
100
AcDbCircle
 10
463.0479812622073
 20
402.8616756390551
 30
0.0
 40
3.999999809909511
100
AcDbArc
 50
101.3098907470703
 51
180.0
  0
ARC
  5
41C
330
1F
100
AcDbEntity
  8
通り芯
  6
Continuous
 62
     3
370
     9
100
AcDbCircle
 10
462.0478294991159
 20
408.7804361964875
 30
0.0
 40
1.999999904954756
100
AcDbArc
 50
281.3097229003906
 51
0.0000000000000127
  0
ARC
  5
41D
330
1F
100
AcDbEntity
  8
通り芯
  6
Continuous
 62
     3
370
     9
100
AcDbCircle
 10
463.0479812622073
 20
416.861820803751
 30
0.0
 40
3.999999809909511
100
AcDbArc
 50
101.3098907470703
 51
180.0
  0
ARC
  5
41E
330
1F
100
AcDbEntity
  8
通り芯
  6
Continuous
 62
     3
370
     9
100
AcDbCircle
 10
462.0478294991159
 20
422.7805813611835
 30
0.0
 40
1.999999904954756
100
AcDbArc
 50
281.3097229003906
 51
0.0000000000000127
  0
ARC
  5
41F
330
1F
100
AcDbEntity
  8
通り芯
  6
Continuous
 62
     3
370
     9
100
AcDbCircle
 10
479.0479350734407
 20
462.9984603730077
 30
0.0
 40
14.99999922675056
100
AcDbArc
 50
180.0
 51
228.0124206542969
  0
ARC
  5
420
330
1F
100
AcDbEntity
  8
通り芯
  6
Continuous
 62
     3
370
     9
100
AcDbCircle
 10
463.0479812622073
 20
431.4204376481343
 30
0.0
 40
3.999999809909511
100
AcDbArc
 50
180.0
 51
258.6901092529297
  0
ARC
  5
421
330
1F
100
AcDbEntity
  8
通り芯
  6
Continuous
 62
     3
370
     9
100
AcDbCircle
 10
462.0478294991159
 20
425.5016770907019
 30
0.0
 40
1.999999904954756
100
AcDbArc
 50
0.0
 51
78.69027709960938
  0
ARC
  5
422
330
1F
100
AcDbEntity
  8
通り芯
  6
Continuous
 62
     3
370
     9
100
AcDbCircle
 10
474.0479185774518
 20
427.1377491979655
 30
0.0
 40
14.99999922675056
100
AcDbArc
 50
0.0
 51
48.01242065429688
  0
ARC
  5
423
330
1F
100
AcDbEntity
  8
通り芯
  6
Continuous
 62
     3
370
     9
100
AcDbCircle
 10
463.0479812622073
 20
-90.57935450241466
 30
0.0
 40
3.999999809909511
100
AcDbArc
 50
180.0
 51
258.6901092529297
  0
ARC
  5
424
330
1F
100
AcDbEntity
  8
通り芯
  6
Continuous
 62
     3
370
     9
100
AcDbCircle
 10
462.0478294991159
 20
-96.4981150598471
 30
0.0
 40
1.999999904954756
100
AcDbArc
 50
0.0
 51
78.69027709960938
  0
ARC
  5
425
330
1F
100
AcDbEntity
  8
通り芯
  6
Continuous
 62
     3
370
     9
100
AcDbCircle
 10
463.0479812622073
 20
-104.5794996671106
 30
0.0
 40
3.999999809909511
100
AcDbArc
 50
180.0
 51
258.6901092529297
  0
ARC
  5
426
330
1F
100
AcDbEntity
  8
通り芯
  6
Continuous
 62
     3
370
     9
100
AcDbCircle
 10
462.0478294991159
 20
-110.4982602245431
 30
0.0
 40
1.999999904954756
100
AcDbArc
 50
0.0
 51
78.69027709960938
  0
ARC
  5
427
330
1F
100
AcDbEntity
  8
通り芯
  6
Continuous
 62
     3
370
     9
100
AcDbCircle
 10
479.0479350734407
 20
-150.7161392363674
 30
0.0
 40
14.99999922675056
100
AcDbArc
 50
131.9875793457031
 51
180.0
  0
ARC
  5
428
330
1F
100
AcDbEntity
  8
通り芯
  6
Continuous
 62
     3
370
     9
100
AcDbCircle
 10
463.0479812622073
 20
-119.1381165114941
 30
0.0
 40
3.999999809909511
100
AcDbArc
 50
101.3098907470703
 51
180.0
  0
ARC
  5
429
330
1F
100
AcDbEntity
  8
通り芯
  6
Continuous
 62
     3
370
     9
100
AcDbCircle
 10
462.0478294991159
 20
-113.2193559540617
 30
0.0
 40
1.999999904954756
100
AcDbArc
 50
281.3097229003906
 51
0.0000000000000127
  0
ARC
  5
42A
330
1F
100
AcDbEntity
  8
通り芯
  6
Continuous
 62
     3
370
     9
100
AcDbCircle
 10
474.0479185774518
 20
-114.8554280613252
 30
0.0
 40
14.99999922675056
100
AcDbArc
 50
311.9875793457031
 51
0.0000000000000191
  0
ARC
  5
42B
330
1F
100
AcDbEntity
  8
通り芯
  6
Continuous
 62
     3
370
     9
100
AcDbCircle
 10
-28.20815524539427
 20
263.0366485856342
 30
0.0
 40
1.499999898511011
100
AcDbArc
 50
172.0370483398438
 51
180.0
  0
ARC
  5
42C
330
1F
100
AcDbEntity
  8
通り芯
  6
Continuous
 62
     3
370
     9
100
AcDbCircle
 10
-29.84892870928775
 20
260.141107781158
 30
0.0
 40
0.9999999524773778
100
AcDbArc
 50
0.0
 51
90.0
  0
ARC
  5
42D
330
1F
100
AcDbEntity
  8
通り芯
  6
Continuous
 62
     3
370
     9
100
AcDbCircle
 10
-29.06318355251003
 20
260.9506071609087
 30
0.0
 40
1.499999898511011
100
AcDbArc
 50
0.0
 51
76.87814331054688
  0
ARC
  5
42E
330
1F
100
AcDbEntity
  8
通り芯
  6
Continuous
 62
     3
370
     9
100
AcDbCircle
 10
-29.35404906401743
 20
260.6336367481132
 30
0.0
 40
1.499999898511011
100
AcDbArc
 50
142.6251525878906
 51
180.0
  0
ARC
  5
42F
330
1F
100
AcDbEntity
  8
通り芯
  6
Continuous
 62
     3
370
     9
100
AcDbCircle
 10
-28.20815524539427
 20
243.2454218119858
 30
0.0
 40
1.499999898511011
100
AcDbArc
 50
180.0
 51
187.9629516601562
  0
ARC
  5
430
330
1F
100
AcDbEntity
  8
通り芯
  6
Continuous
 62
     3
370
     9
100
AcDbCircle
 10
-29.84892870928775
 20
246.1410863363733
 30
0.0
 40
0.9999999524773778
100
AcDbArc
 50
270.0
 51
0.0
  0
ARC
  5
431
330
1F
100
AcDbEntity
  8
通り芯
  6
Continuous
 62
     3
370
     9
100
AcDbCircle
 10
-29.06318355251003
 20
245.3315869566225
 30
0.0
 40
1.499999898511011
100
AcDbArc
 50
283.1218566894531
 51
0.0
  0
ARC
  5
432
330
1F
100
AcDbEntity
  8
通り芯
  6
Continuous
 62
     3
370
     9
100
AcDbCircle
 10
-29.35404906401743
 20
245.6485573694181
 30
0.0
 40
1.499999898511011
100
AcDbArc
 50
180.0
 51
217.3748474121094
  0
ARC
  5
433
330
1F
100
AcDbEntity
  8
通り芯
  6
Continuous
 62
     3
370
     9
100
AcDbCircle
 10
-28.20815524539427
 20
49.24554883109457
 30
0.0
 40
1.499999898511011
100
AcDbArc
 50
180.0
 51
187.9629516601562
  0
ARC
  5
434
330
1F
100
AcDbEntity
  8
通り芯
  6
Continuous
 62
     3
370
     9
100
AcDbCircle
 10
-29.84892870928775
 20
52.14115149552661
 30
0.0
 40
0.9999999524773778
100
AcDbArc
 50
270.0
 51
0.0
  0
ARC
  5
435
330
1F
100
AcDbEntity
  8
通り芯
  6
Continuous
 62
     3
370
     9
100
AcDbCircle
 10
-29.06318355251003
 20
51.33165211577583
 30
0.0
 40
1.499999898511011
100
AcDbArc
 50
283.1218566894531
 51
0.0
  0
ARC
  5
436
330
1F
100
AcDbEntity
  8
通り芯
  6
Continuous
 62
     3
370
     9
100
AcDbCircle
 10
-29.35404906401743
 20
51.6486225285714
 30
0.0
 40
1.499999898511011
100
AcDbArc
 50
180.0
 51
217.3748474121094
  0
ARC
  5
437
330
1F
100
AcDbEntity
  8
通り芯
  6
Continuous
 62
     3
370
     9
100
AcDbCircle
 10
-28.20815524539427
 20
69.03683746469879
 30
0.0
 40
1.499999898511011
100
AcDbArc
 50
172.0370483398438
 51
180.0
  0
ARC
  5
438
330
1F
100
AcDbEntity
  8
通り芯
  6
Continuous
 62
     3
370
     9
100
AcDbCircle
 10
-29.84892870928775
 20
66.14117294031124
 30
0.0
 40
0.9999999524773778
100
AcDbArc
 50
0.0
 51
90.0
  0
ARC
  5
439
330
1F
100
AcDbEntity
  8
通り芯
  6
Continuous
 62
     3
370
     9
100
AcDbCircle
 10
-29.06318355251003
 20
66.95067232006215
 30
0.0
 40
1.499999898511011
100
AcDbArc
 50
0.0
 51
76.87814331054688
  0
ARC
  5
43A
330
1F
100
AcDbEntity
  8
通り芯
  6
Continuous
 62
     3
370
     9
100
AcDbCircle
 10
-29.35404906401743
 20
66.63370190726644
 30
0.0
 40
1.499999898511011
100
AcDbArc
 50
142.6251525878906
 51
180.0
  0
TEXT
  5
43B
330
1F
100
AcDbEntity
  8
その他
  6
Continuous
 62
     2
370
     9
100
AcDbText
 10
349.2277147375084
 20
139.8911604450539
 30
0.0
 40
15.24
  1
634
 50
90.00000250447673
 41
1.083333333333335
  7
ＭＳ ゴシック
100
AcDbText
  0
TEXT
  5
43C
330
1F
100
AcDbEntity
  8
その他
  6
Continuous
 62
     2
370
     9
100
AcDbText
 10
299.2275497776269
 20
139.891160445054
 30
0.0
 40
15.24
  1
690
 50
90.00000250447796
 41
1.083333333333335
  7
ＭＳ ゴシック
100
AcDbText
  0
TEXT
  5
43D
330
1F
100
AcDbEntity
  8
その他
  6
Continuous
 62
     2
370
     9
100
AcDbText
 10
299.2275492858737
 20
493.0954484122207
 30
0.0
 40
15.24
  1
2
 50
90.00000250447768
 41
0.9999999999999865
  7
ＭＳ ゴシック
100
AcDbText
  0
TEXT
  5
43E
330
1F
100
AcDbEntity
  8
その他
  6
Continuous
 62
     2
370
     9
100
AcDbText
 10
467.5479383726378
 20
132.3608228954422
 30
0.0
 40
15.24
  1
7
 41
0.9999999999999998
  7
ＭＳ ゴシック
100
AcDbText
  0
TEXT
  5
43F
330
1F
100
AcDbEntity
  8
その他
  6
Continuous
 62
     2
370
     9
100
AcDbText
 10
299.2275492858737
 20
521.05231305274
 30
0.0
 40
15.24
  1
3
 50
90.00000250447768
 41
1.000000000000001
  7
ＭＳ ゴシック
100
AcDbText
  0
TEXT
  5
440
330
1F
100
AcDbEntity
  8
その他
  6
Continuous
 62
     2
370
     9
100
AcDbText
 10
299.2275492858737
 20
-190.8131584520901
 30
0.0
 40
15.24
  1
2
 50
90.00000250447768
 41
0.9999999999999865
  7
ＭＳ ゴシック
100
AcDbText
  0
TEXT
  5
441
330
1F
100
AcDbEntity
  8
その他
  6
Continuous
 62
     2
370
     9
100
AcDbText
 10
299.2275492858737
 20
-218.7700230926094
 30
0.0
 40
15.24
  1
3
 50
90.00000250447768
 41
0.9999999999999865
  7
ＭＳ ゴシック
100
AcDbText
  0
TEXT
  5
442
330
1F
100
AcDbEntity
  8
その他
  6
Continuous
 62
     6
370
     9
100
AcDbText
 10
349.2277141911167
 20
468.9250275335787
 30
0.0
 40
15.24
  1
4
 50
90.00000250448173
 41
0.7500000000000007
  7
ＭＳ ゴシック
100
AcDbText
  0
TEXT
  5
443
330
1F
100
AcDbEntity
  8
その他
  6
Continuous
 62
     6
370
     9
100
AcDbText
 10
328.9842114872104
 20
475.8230155487174
 30
0.0
 40
11.43
  1
11
 50
90.00000250448424
 41
0.8666666666666657
  7
ＭＳ ゴシック
100
AcDbText
  0
TEXT
  5
444
330
1F
100
AcDbEntity
  8
その他
  6
Continuous
 62
     6
370
     9
100
AcDbText
 10
349.2277141911167
 20
486.4771713522019
 30
0.0
 40
15.24
  1
4
 50
90.00000250448173
 41
0.7500000000000007
  7
ＭＳ ゴシック
100
AcDbText
  0
TEXT
  5
445
330
1F
100
AcDbEntity
  8
その他
  6
Continuous
 62
     2
370
     9
100
AcDbText
 10
349.227714245756
 20
515.9216483304009
 30
0.0
 40
15.24
  1
9
 50
90.00000250448173
 41
1.000000000000001
  7
ＭＳ ゴシック
100
AcDbText
  0
TEXT
  5
446
330
1F
100
AcDbEntity
  8
その他
  6
Continuous
 62
     2
370
     9
100
AcDbText
 10
349.2277144916325
 20
-185.4837191342324
 30
0.0
 40
15.24
  1
28
 50
90.00000250447789
 41
1.062499999999999
  7
ＭＳ ゴシック
100
AcDbText
  0
TEXT
  5
447
330
1F
100
AcDbEntity
  8
その他
  6
Continuous
 62
     2
370
     9
100
AcDbText
 10
421.4229243122757
 20
98.53066476487578
 30
0.0
 40
15.24
  1
40
 50
359.9998332087991
 41
1.062500000000011
  7
ＭＳ ゴシック
100
AcDbText
  0
TEXT
  5
448
330
1F
100
AcDbEntity
  8
その他
  6
Continuous
 62
     2
370
     9
100
AcDbText
 10
463.4229722282765
 20
98.53060290494385
 30
0.0
 40
15.24
  1
30
 50
0.0001667912009741
 41
1.062499999999954
  7
ＭＳ ゴシック
100
AcDbText
  0
LWPOLYLINE
  5
449
330
1F
100
AcDbEntity
  8
その他
  6
Continuous
 62
     7
370
     9
100
AcDbPolyline
 90
        4
 70
     1
 43
0.5
 10
307.2978130031279
 20
503.141117678751
 42
0.4142135623731
 10
307.0478130031279
 20
503.391117678751
 42
0.4142135623731
 10
306.7978130031279
 20
503.141117678751
 42
0.4142135623731
 10
307.0478130031279
 20
502.8911176787511
 42
0.4142135623731
  0
LWPOLYLINE
  5
44A
330
1F
100
AcDbEntity
  8
その他
  6
Continuous
 62
     7
370
     9
100
AcDbPolyline
 90
        4
 70
     1
 43
0.5
 10
459.2981165293102
 20
90.71058640895556
 42
0.4142135623731
 10
459.0481165293102
 20
90.96058640895556
 42
0.4142135623731
 10
458.7981165293102
 20
90.71058640895556
 42
0.4142135623731
 10
459.0481165293102
 20
90.46058640895555
 42
0.4142135623731
  0
LWPOLYLINE
  5
44B
330
1F
100
AcDbEntity
  8
その他
  6
Continuous
 62
     7
370
     9
100
AcDbPolyline
 90
        4
 70
     1
 43
0.5
 10
307.2978130031279
 20
-190.8587965421106
 42
0.4142135623731
 10
307.0478130031279
 20
-190.6087965421106
 42
0.4142135623731
 10
306.7978130031279
 20
-190.8587965421106
 42
0.4142135623731
 10
307.0478130031279
 20
-191.1087965421106
 42
0.4142135623731
  0
LWPOLYLINE
  5
44C
330
1F
100
AcDbEntity
  8
その他
  6
Continuous
 62
     7
370
     9
100
AcDbPolyline
 90
        4
 70
     1
 43
0.5
 10
357.2977305231867
 20
488.1410681907864
 42
0.4142135623731
 10
357.0477305231867
 20
488.3910681907864
 42
0.4142135623731
 10
356.7977305231867
 20
488.1410681907864
 42
0.4142135623731
 10
357.0477305231867
 20
487.8910681907865
 42
0.4142135623731
  0
LWPOLYLINE
  5
44D
330
1F
100
AcDbEntity
  8
その他
  6
Continuous
 62
     7
370
     9
100
AcDbPolyline
 90
        4
 70
     1
 43
0.5
 10
357.2977305231867
 20
492.141180363506
 42
0.4142135623731
 10
357.0477305231867
 20
492.391180363506
 42
0.4142135623731
 10
356.7977305231867
 20
492.141180363506
 42
0.4142135623731
 10
357.0477305231867
 20
491.891180363506
 42
0.4142135623731
  0
LWPOLYLINE
  5
44E
330
1F
100
AcDbEntity
  8
その他
  6
Continuous
 62
     7
370
     9
100
AcDbPolyline
 90
        4
 70
     1
 43
0.5
 10
357.2977305231867
 20
477.1411308755415
 42
0.4142135623731
 10
357.0477305231867
 20
477.3911308755415
 42
0.4142135623731
 10
356.7977305231867
 20
477.1411308755415
 42
0.4142135623731
 10
357.0477305231867
 20
476.8911308755415
 42
0.4142135623731
  0
LINE
  5
44F
330
1F
100
AcDbEntity
  8
通り芯
  6
Continuous
 62
     3
370
     9
100
AcDbLine
 10
459.0478690894878
 20
-148.5223377688845
 30
0.0
 11
459.0478690894878
 21
30.66591114897896
 31
0.0
  0
LINE
  5
450
330
1F
100
AcDbEntity
  8
通り芯
  6
Continuous
 62
     3
370
     9
100
AcDbLine
 10
452.0480439469623
 20
463.8273837788354
 30
0.0
 11
452.0480439469623
 21
-151.545062642195
 31
0.0
  0
LINE
  5
451
330
1F
100
AcDbEntity
  8
通り芯
  6
Continuous
 62
     3
370
     9
100
AcDbLine
 10
430.0479218766498
 20
-160.8586975661816
 30
0.0
 11
430.0479218766498
 21
56.64109210996912
 31
0.0
  0
LINE
  5
452
330
1F
100
AcDbEntity
  8
通り芯
  6
Continuous
 62
     3
370
     9
100
AcDbLine
 10
454.0481000333222
 20
-130.8326174088757
 30
0.0
 11
454.0481000333222
 21
84.57890388414567
 31
0.0
  0
LINE
  5
453
330
1F
100
AcDbEntity
  8
建具
  6
Continuous
 62
     4
370
     9
100
AcDbLine
 10
-64.5504461752401
 20
-458.2596292595937
 30
0.0
 11
-64.5504461752401
 21
-455.2596688499654
 31
0.0
  0
LINE
  5
454
330
1F
100
AcDbEntity
  8
建具
  6
Continuous
 62
     4
370
     9
100
AcDbLine
 10
-17.55042720485378
 20
-458.2596292595937
 30
0.0
 11
-64.5504461752401
 21
-458.2596292595937
 31
0.0
  0
LINE
  5
455
330
1F
100
AcDbEntity
  8
建具
  6
Continuous
 62
     4
370
     9
100
AcDbLine
 10
-14.55046679522525
 20
-455.2596688499654
 30
0.0
 11
-14.55046679522525
 21
-392.2595946180185
 31
0.0
  0
LINE
  5
456
330
1F
100
AcDbEntity
  8
建具
  6
Continuous
 62
     4
370
     9
100
AcDbLine
 10
-64.5504461752401
 20
-455.2596688499654
 30
0.0
 11
-17.55042720485378
 21
-455.2596688499654
 31
0.0
  0
LINE
  5
457
330
1F
100
AcDbEntity
  8
建具
  6
Continuous
 62
     4
370
     9
100
AcDbLine
 10
-17.55042720485378
 20
-455.2596688499654
 30
0.0
 11
-17.55042720485378
 21
-392.2595946180185
 31
0.0
  0
LINE
  5
458
330
1F
100
AcDbEntity
  8
建具
  6
Continuous
 62
     4
370
     9
100
AcDbLine
 10
-664.5503843152845
 20
-458.2596292595937
 30
0.0
 11
-664.5503843152845
 21
-455.2596688499654
 31
0.0
  0
LINE
  5
459
330
1F
100
AcDbEntity
  8
建具
  6
Continuous
 62
     4
370
     9
100
AcDbLine
 10
-711.5504651456265
 20
-458.2596292595937
 30
0.0
 11
-664.5503843152845
 21
-458.2596292595937
 31
0.0
  0
LINE
  5
45A
330
1F
100
AcDbEntity
  8
建具
  6
Continuous
 62
     4
370
     9
100
AcDbLine
 10
-714.550425555255
 20
-455.2596688499654
 30
0.0
 11
-714.550425555255
 21
-392.2595946180185
 31
0.0
  0
LINE
  5
45B
330
1F
100
AcDbEntity
  8
建具
  6
Continuous
 62
     4
370
     9
100
AcDbLine
 10
-664.5503843152845
 20
-455.2596688499654
 30
0.0
 11
-711.5504651456265
 21
-455.2596688499654
 31
0.0
  0
LINE
  5
45C
330
1F
100
AcDbEntity
  8
建具
  6
Continuous
 62
     4
370
     9
100
AcDbLine
 10
-711.5504651456265
 20
-455.2596688499654
 30
0.0
 11
-711.5504651456265
 21
-392.2595946180185
 31
0.0
  0
ARC
  5
45D
330
1F
100
AcDbEntity
  8
建具
  6
Continuous
 62
     4
370
     9
100
AcDbCircle
 10
-17.55042720485378
 20
-455.2596688499654
 30
0.0
 40
2.999999797022021
100
AcDbArc
 50
270.0
 51
0.0
  0
ARC
  5
45E
330
1F
100
AcDbEntity
  8
建具
  6
Continuous
 62
     4
370
     9
100
AcDbCircle
 10
-711.5504651456265
 20
-455.2596688499654
 30
0.0
 40
2.999999797022021
100
AcDbArc
 50
180.0
 51
270.0
  0
TEXT
  5
45F
330
1F
100
AcDbEntity
  8
その他
  6
Continuous
 62
     2
370
     9
100
AcDbText
 10
249.2276327493213
 20
139.8911295152964
 30
0.0
 40
15.24
  1
700
 50
90.0000025
 41
1.083333333333334
  7
ＭＳ ゴシック
100
AcDbText
  0
LINE
  5
460
330
1F
100
AcDbEntity
  8
建具
  6
Continuous
 62
     4
370
     9
100
AcDbLine
 10
475.0478624910927
 20
503.141117678751
 30
0.0
 11
412.0479119790573
 21
503.141117678751
 31
0.0
  0
LINE
  5
461
330
1F
100
AcDbEntity
  8
建具
  6
Continuous
 62
     4
370
     9
100
AcDbLine
 10
475.0478624910927
 20
503.141117678751
 30
0.0
 11
475.0478624910927
 21
456.1411605683202
 31
0.0
  0
LINE
  5
462
330
1F
100
AcDbEntity
  8
建具
  6
Continuous
 62
     4
370
     9
100
AcDbLine
 10
475.0478624910927
 20
506.1410780883793
 30
0.0
 11
412.0479119790573
 21
506.1410780883793
 31
0.0
  0
LINE
  5
463
330
1F
100
AcDbEntity
  8
建具
  6
Continuous
 62
     4
370
     9
100
AcDbLine
 10
478.0478229007206
 20
456.1410368484088
 30
0.0
 11
475.0481099309148
 21
456.1410368484088
 31
0.0
  0
LINE
  5
464
330
1F
100
AcDbEntity
  8
建具
  6
Continuous
 62
     4
370
     9
100
AcDbLine
 10
475.0478624910927
 20
-190.8587965421106
 30
0.0
 11
475.0478624910927
 21
-143.8588394316799
 31
0.0
  0
LINE
  5
465
330
1F
100
AcDbEntity
  8
建具
  6
Continuous
 62
     4
370
     9
100
AcDbLine
 10
475.0478624910927
 20
-190.8587965421106
 30
0.0
 11
412.0479119790573
 21
-190.8587965421106
 31
0.0
  0
LINE
  5
466
330
1F
100
AcDbEntity
  8
建具
  6
Continuous
 62
     4
370
     9
100
AcDbLine
 10
478.0478229007206
 20
-143.8588394316799
 30
0.0
 11
475.0478624910927
 21
-143.8588394316799
 31
0.0
  0
LINE
  5
467
330
1F
100
AcDbEntity
  8
建具
  6
Continuous
 62
     4
370
     9
100
AcDbLine
 10
475.0478624910927
 20
-193.8588188116949
 30
0.0
 11
412.0479119790573
 21
-193.8588188116949
 31
0.0
  0
ARC
  5
468
330
1F
100
AcDbEntity
  8
建具
  6
Continuous
 62
     4
370
     9
100
AcDbCircle
 10
475.0478624910927
 20
503.141117678751
 30
0.0
 40
2.999999797022021
100
AcDbArc
 50
0.0
 51
90.0
  0
ARC
  5
469
330
1F
100
AcDbEntity
  8
建具
  6
Continuous
 62
     4
370
     9
100
AcDbCircle
 10
475.0478624910927
 20
-190.8587965421106
 30
0.0
 40
2.999999797022021
100
AcDbArc
 50
270.0
 51
0.0
  0
LINE
  5
46A
330
1F
100
AcDbEntity
  8
建具
  6
Continuous
 62
     4
370
     9
100
AcDbLine
 10
478.0478229007206
 20
-190.8741693361918
 30
0.0
 11
478.0478229007206
 21
-143.8588394316799
 31
0.0
  0
LINE
  5
46B
330
1F
100
AcDbEntity
  8
建具
  6
Continuous
 62
     4
370
     9
100
AcDbLine
 10
478.0478229007206
 20
503.141117678751
 30
0.0
 11
478.0478229007206
 21
456.1410368484088
 31
0.0
  0
TEXT
  5
46C
330
1F
100
AcDbEntity
  8
その他
  6
Continuous
 62
     2
370
   211
100
AcDbText
 10
553.3987510950185
 20
139.8910987083644
 30
0.0
 40
15.24
  1
600
 50
90.0
 41
1.083333333333334
  7
ＭＳ ゴシック
100
AcDbText
  0
LINE
  5
46D
330
1F
100
AcDbEntity
  8
0-E
  6
Continuous
 62
     7
370
     9
100
AcDbLine
 10
367.7984959370386
 20
-291.1337228050437
 30
0.0
 11
412.0479119790573
 21
-173.8585672478753
 31
0.0
  0
LINE
  5
46E
330
1F
100
AcDbEntity
  8
0-E
  6
Continuous
 62
     7
370
     9
100
AcDbLine
 10
613.1046449815907
 20
315.3068264783707
 30
0.0
 11
489.0479680654163
 21
230.0162991346206
 31
0.0
  0
LINE
  5
46F
330
1F
100
AcDbEntity
  8
0-F
  6
Continuous
 62
     7
370
     9
100
AcDbLine
 10
489.0479680654163
 20
230.0162991346206
 30
0.0
 11
498.3359929677601
 21
238.3818683781805
 31
0.0
  0
LINE
  5
470
330
1F
100
AcDbEntity
  8
0-F
  6
Continuous
 62
     7
370
     9
100
AcDbLine
 10
489.0479680654163
 20
230.0162991346206
 30
0.0
 11
500.1846158826677
 21
235.6929398256045
 31
0.0
  0
LINE
  5
471
330
1F
100
AcDbEntity
  8
0-F
  6
Continuous
 62
     7
370
     9
100
AcDbLine
 10
412.0479119790573
 20
-173.8585672478753
 30
0.0
 11
409.199384740881
 21
-186.0296991036078
 31
0.0
  0
LINE
  5
472
330
1F
100
AcDbEntity
  8
0-F
  6
Continuous
 62
     7
370
     9
100
AcDbLine
 10
412.0479119790573
 20
-173.8585672478753
 30
0.0
 11
406.1463484892977
 21
-184.8777430093302
 31
0.0
  0
LINE
  5
473
330
1F
100
AcDbEntity
  8
ハッチ
  6
Continuous
 62
     6
370
     9
100
AcDbLine
 10
472.0474665873763
 20
459.6411176787507
 30
0.0
 11
475.0474665873764
 21
459.6411176787507
 31
0.0
  0
LINE
  5
474
330
1F
100
AcDbEntity
  8
ハッチ
  6
Continuous
 62
     6
370
     9
100
AcDbLine
 10
472.0474665873763
 20
497.3256958607055
 30
0.0
 11
474.3628884054216
 21
499.6411176787507
 31
0.0
  0
LINE
  5
475
330
1F
100
AcDbEntity
  8
ハッチ
  6
Continuous
 62
     6
370
     9
100
AcDbLine
 10
472.0474665873768
 20
491.6688416112126
 30
0.0
 11
475.0474665873768
 21
494.668841611213
 31
0.0
  0
LINE
  5
476
330
1F
100
AcDbEntity
  8
ハッチ
  6
Continuous
 62
     6
370
     9
100
AcDbLine
 10
472.0474665873759
 20
486.0119873617185
 30
0.0
 11
475.0474665873758
 21
489.0119873617186
 31
0.0
  0
LINE
  5
477
330
1F
100
AcDbEntity
  8
ハッチ
  6
Continuous
 62
     6
370
     9
100
AcDbLine
 10
472.0474665873763
 20
480.3551331122259
 30
0.0
 11
475.0474665873764
 21
483.355133112226
 31
0.0
  0
LINE
  5
478
330
1F
100
AcDbEntity
  8
ハッチ
  6
Continuous
 62
     6
370
     9
100
AcDbLine
 10
472.0474665873759
 20
474.6982788627318
 30
0.0
 11
475.0474665873764
 21
477.6982788627322
 31
0.0
  0
LINE
  5
479
330
1F
100
AcDbEntity
  8
ハッチ
  6
Continuous
 62
     6
370
     9
100
AcDbLine
 10
472.0474665873763
 20
469.0414246132391
 30
0.0
 11
475.0474665873745
 21
472.0414246132373
 31
0.0
  0
LINE
  5
47A
330
1F
100
AcDbEntity
  8
ハッチ
  6
Continuous
 62
     6
370
     9
100
AcDbLine
 10
472.0474665873753
 20
463.3845703637519
 30
0.0
 11
475.0474665873754
 21
466.384570363752
 31
0.0
  0
LINE
  5
47B
330
1F
100
AcDbEntity
  8
ハッチ
  6
Continuous
 62
     6
370
     9
100
AcDbLine
 10
473.9608681518681
 20
459.6411176787515
 30
0.0
 11
475.0474665873758
 21
460.7277161142591
 31
0.0
  0
LINE
  5
47C
330
1F
100
AcDbEntity
  8
ハッチ
  6
Continuous
 62
     6
370
     9
100
AcDbLine
 10
472.0474665873763
 20
499.6411176787507
 30
0.0
 11
472.0474665873763
 21
459.6411176787507
 31
0.0
  0
LINE
  5
47D
330
1F
100
AcDbEntity
  8
ハッチ
  6
Continuous
 62
     6
370
     9
100
AcDbLine
 10
475.0474665873764
 20
499.6411176787507
 30
0.0
 11
472.0474665873763
 21
499.6411176787507
 31
0.0
  0
LINE
  5
47E
330
1F
100
AcDbEntity
  8
ハッチ
  6
Continuous
 62
     6
370
     9
100
AcDbLine
 10
475.0474665873764
 20
459.6411176787507
 30
0.0
 11
475.0474665873764
 21
499.6411176787507
 31
0.0
  0
LINE
  5
47F
330
1F
100
AcDbEntity
  8
ハッチ
  6
Continuous
 62
     6
370
     9
100
AcDbLine
 10
472.0474665873763
 20
-187.3588394316801
 30
0.0
 11
475.0474665873764
 21
-187.3588394316801
 31
0.0
  0
LINE
  5
480
330
1F
100
AcDbEntity
  8
ハッチ
  6
Continuous
 62
     6
370
     9
100
AcDbLine
 10
472.0474665873763
 20
-149.6742612497255
 30
0.0
 11
474.3628884054216
 21
-147.3588394316804
 31
0.0
  0
LINE
  5
481
330
1F
100
AcDbEntity
  8
ハッチ
  6
Continuous
 62
     6
370
     9
100
AcDbLine
 10
472.0474665873768
 20
-155.3311154992185
 30
0.0
 11
475.0474665873768
 21
-152.3311154992181
 31
0.0
  0
LINE
  5
482
330
1F
100
AcDbEntity
  8
ハッチ
  6
Continuous
 62
     6
370
     9
100
AcDbLine
 10
472.0474665873759
 20
-160.9879697487126
 30
0.0
 11
475.0474665873758
 21
-157.9879697487125
 31
0.0
  0
LINE
  5
483
330
1F
100
AcDbEntity
  8
ハッチ
  6
Continuous
 62
     6
370
     9
100
AcDbLine
 10
472.0474665873763
 20
-166.6448239982053
 30
0.0
 11
475.0474665873764
 21
-163.6448239982051
 31
0.0
  0
LINE
  5
484
330
1F
100
AcDbEntity
  8
ハッチ
  6
Continuous
 62
     6
370
     9
100
AcDbLine
 10
472.0474665873759
 20
-172.301678247699
 30
0.0
 11
475.0474665873764
 21
-169.3016782476989
 31
0.0
  0
LINE
  5
485
330
1F
100
AcDbEntity
  8
ハッチ
  6
Continuous
 62
     6
370
     9
100
AcDbLine
 10
472.0474665873763
 20
-177.9585324971919
 30
0.0
 11
475.0474665873745
 21
-174.9585324971939
 31
0.0
  0
LINE
  5
486
330
1F
100
AcDbEntity
  8
ハッチ
  6
Continuous
 62
     6
370
     9
100
AcDbLine
 10
472.0474665873753
 20
-183.6153867466792
 30
0.0
 11
475.0474665873754
 21
-180.6153867466788
 31
0.0
  0
LINE
  5
487
330
1F
100
AcDbEntity
  8
ハッチ
  6
Continuous
 62
     6
370
     9
100
AcDbLine
 10
473.9608681518681
 20
-187.3588394316795
 30
0.0
 11
475.0474665873758
 21
-186.2722409961717
 31
0.0
  0
LINE
  5
488
330
1F
100
AcDbEntity
  8
ハッチ
  6
Continuous
 62
     6
370
     9
100
AcDbLine
 10
472.0474665873763
 20
-147.3588394316804
 30
0.0
 11
472.0474665873763
 21
-187.3588394316801
 31
0.0
  0
LINE
  5
489
330
1F
100
AcDbEntity
  8
ハッチ
  6
Continuous
 62
     6
370
     9
100
AcDbLine
 10
475.0474665873764
 20
-147.3588394316804
 30
0.0
 11
472.0474665873763
 21
-147.3588394316804
 31
0.0
  0
LINE
  5
48A
330
1F
100
AcDbEntity
  8
ハッチ
  6
Continuous
 62
     6
370
     9
100
AcDbLine
 10
475.0474665873764
 20
-187.3588394316801
 30
0.0
 11
475.0474665873764
 21
-147.3588394316804
 31
0.0
  0
LINE
  5
48B
330
1F
100
AcDbEntity
  8
躯体
  6
Continuous
 62
     2
370
     9
100
AcDbLine
 10
480.5475616749646
 20
497.1411025967043
 30
0.0
 11
482.5478191891231
 21
497.1411025967043
 31
0.0
  0
LINE
  5
48C
330
1F
100
AcDbEntity
  8
躯体
  6
Continuous
 62
     2
370
     9
100
AcDbLine
 10
478.0478229007205
 20
497.1411025967043
 30
0.0
 11
478.5475523665142
 21
497.1411025967043
 31
0.0
  0
LINE
  5
48D
330
1F
100
AcDbEntity
  8
躯体
  6
Continuous
 62
     2
370
     9
100
AcDbLine
 10
482.5478191891231
 20
497.1411025967043
 30
0.0
 11
482.5478191891231
 21
477.1410366127517
 31
0.0
  0
LINE
  5
48E
330
1F
100
AcDbEntity
  8
躯体
  6
JWW_DASHED1
 62
     2
370
     9
100
AcDbLine
 10
482.547570983415
 20
489.391042916576
 30
0.0
 11
480.347540925368
 21
489.391042916576
 31
0.0
  0
LINE
  5
48F
330
1F
100
AcDbEntity
  8
躯体
  6
JWW_DASHED1
 62
     2
370
     9
100
AcDbLine
 10
480.347540925368
 20
489.391042916576
 30
0.0
 11
478.5475523665142
 21
491.1409891278714
 31
0.0
  0
LINE
  5
490
330
1F
100
AcDbEntity
  8
躯体
  6
JWW_DASHED1
 62
     2
370
     9
100
AcDbLine
 10
480.347540925368
 20
484.8910467460016
 30
0.0
 11
482.547570983415
 21
484.8910467460016
 31
0.0
  0
LINE
  5
491
330
1F
100
AcDbEntity
  8
躯体
  6
JWW_DASHED1
 62
     2
370
     9
100
AcDbLine
 10
480.347540925368
 20
489.391042916576
 30
0.0
 11
480.347540925368
 21
484.8910467460016
 31
0.0
  0
LINE
  5
492
330
1F
100
AcDbEntity
  8
躯体
  6
JWW_DASHED1
 62
     2
370
     9
100
AcDbLine
 10
480.347540925368
 20
484.8910467460016
 30
0.0
 11
478.5475523665142
 21
483.1411500815844
 31
0.0
  0
LINE
  5
493
330
1F
100
AcDbEntity
  8
躯体
  6
Continuous
 62
     2
370
     9
100
AcDbLine
 10
478.5475523665142
 20
477.1410230624758
 30
0.0
 11
480.5475616749646
 21
477.1410230624758
 31
0.0
  0
LINE
  5
494
330
1F
100
AcDbEntity
  8
躯体
  6
Continuous
 62
     2
370
     9
100
AcDbLine
 10
480.5475616749646
 20
507.1460678302307
 30
0.0
 11
480.5475616749646
 21
477.1410230624758
 31
0.0
  0
LINE
  5
495
330
1F
100
AcDbEntity
  8
躯体
  6
Continuous
 62
     2
370
     9
100
AcDbLine
 10
478.5475523665142
 20
536.1410499273702
 30
0.0
 11
478.5475523665142
 21
477.1410230624758
 31
0.0
  0
ARC
  5
496
330
1F
100
AcDbEntity
  8
躯体
  6
Continuous
 62
     2
370
     9
100
AcDbCircle
 10
481.3475455795933
 20
510.1410775581505
 30
0.0
 40
3.000000414701043
100
AcDbArc
 50
270.0
 51
0.0
  0
ARC
  5
497
330
1F
100
AcDbEntity
  8
躯体
  6
Continuous
 62
     2
370
     9
100
AcDbCircle
 10
481.3475455795933
 20
533.1410855115735
 30
0.0
 40
3.000000414701043
100
AcDbArc
 50
0.0
 51
90.0
  0
LINE
  5
498
330
1F
100
AcDbEntity
  8
躯体
  6
Continuous
 62
     2
370
     9
100
AcDbLine
 10
484.3475595422688
 20
510.1410775581505
 30
0.0
 11
484.3475595422688
 21
533.1410855115735
 31
0.0
  0
LINE
  5
499
330
1F
100
AcDbEntity
  8
躯体
  6
Continuous
 62
     2
370
     9
100
AcDbLine
 10
481.3475455795933
 20
507.1410635954751
 30
0.0
 11
478.5475523665142
 21
507.1410635954751
 31
0.0
  0
LINE
  5
49A
330
1F
100
AcDbEntity
  8
躯体
  6
Continuous
 62
     2
370
     9
100
AcDbLine
 10
481.3475455795933
 20
536.1410499273702
 30
0.0
 11
478.5475523665142
 21
536.1410499273702
 31
0.0
  0
LINE
  5
49B
330
1F
100
AcDbEntity
  8
躯体
  6
JWW_DASHED1
 62
     2
370
     9
100
AcDbLine
 10
480.5475616749646
 20
536.1360456926147
 30
0.0
 11
480.5475616749646
 21
507.1460678302307
 31
0.0
  0
LINE
  5
49C
330
1F
100
AcDbEntity
  8
躯体
  6
Continuous
 62
     2
370
     9
100
AcDbLine
 10
480.5475616749646
 20
503.1410449785741
 30
0.0
 11
478.5475523665142
 21
503.1410449785741
 31
0.0
  0
LINE
  5
49D
330
1F
100
AcDbEntity
  8
躯体
  6
JWW_DASHED1
 62
     2
370
     9
100
AcDbLine
 10
480.5475616749646
 20
521.8910703116987
 30
0.0
 11
478.5475523665142
 21
521.8910703116987
 31
0.0
  0
LINE
  5
49E
330
1F
100
AcDbEntity
  8
躯体
  6
JWW_DASHED1
 62
     2
370
     9
100
AcDbLine
 10
480.5475616749646
 20
530.3910355522955
 30
0.0
 11
478.5475523665142
 21
530.3910355522955
 31
0.0
  0
LINE
  5
49F
330
1F
100
AcDbEntity
  8
躯体
  6
JWW_CENTER2
 62
     2
370
     9
100
AcDbLine
 10
486.0956237380565
 20
487.141069604728
 30
0.0
 11
477.0112479957371
 21
487.141069604728
 31
0.0
  0
LINE
  5
4A0
330
1F
100
AcDbEntity
  8
躯体
  6
Continuous
 62
     2
370
     9
100
AcDbLine
 10
480.5478558926966
 20
495.8910613567338
 30
0.0
 11
480.5478558926966
 21
497.1411025967043
 31
0.0
  0
LINE
  5
4A1
330
1F
100
AcDbEntity
  8
躯体
  6
Continuous
 62
     2
370
     9
100
AcDbLine
 10
480.5478558926966
 20
478.391077852722
 30
0.0
 11
480.5478558926966
 21
477.1410366127517
 31
0.0
  0
LINE
  5
4A2
330
1F
100
AcDbEntity
  8
躯体
  6
Continuous
 62
     2
370
     9
100
AcDbLine
 10
478.0478229007205
 20
477.1410366127517
 30
0.0
 11
482.5478191891231
 21
477.1410366127517
 31
0.0
  0
LINE
  5
4A3
330
1F
100
AcDbEntity
  8
躯体
  6
Continuous
 62
     2
370
     9
100
AcDbLine
 10
478.5475523665142
 20
483.1409326880262
 30
0.0
 11
478.3473859219935
 21
483.1409326880262
 31
0.0
  0
LINE
  5
4A4
330
1F
100
AcDbEntity
  8
躯体
  6
Continuous
 62
     2
370
     9
100
AcDbLine
 10
478.5475523665142
 20
491.1408106177137
 30
0.0
 11
478.3473859219935
 21
491.1408106177137
 31
0.0
  0
LINE
  5
4A5
330
1F
100
AcDbEntity
  8
躯体
  6
Continuous
 62
     2
370
     9
100
AcDbLine
 10
478.3473859219935
 20
491.1408106177137
 30
0.0
 11
478.3473859219935
 21
487.141069604728
 31
0.0
  0
LINE
  5
4A6
330
1F
100
AcDbEntity
  8
躯体
  6
Continuous
 62
     2
370
     9
100
AcDbLine
 10
478.3473859219935
 20
483.1409326880262
 30
0.0
 11
478.3473859219935
 21
487.141069604728
 31
0.0
  0
LINE
  5
4A7
330
1F
100
AcDbEntity
  8
躯体
  6
Continuous
 62
     2
370
     9
100
AcDbLine
 10
483.0475486549168
 20
489.8910168175658
 30
0.0
 11
482.5478191891231
 21
489.8910168175658
 31
0.0
  0
LINE
  5
4A8
330
1F
100
AcDbEntity
  8
躯体
  6
Continuous
 62
     2
370
     9
100
AcDbLine
 10
484.5474298838022
 20
488.1408749520676
 30
0.0
 11
483.0475486549168
 21
489.8910168175658
 31
0.0
  0
LINE
  5
4A9
330
1F
100
AcDbEntity
  8
躯体
  6
Continuous
 62
     2
370
     9
100
AcDbLine
 10
484.5474298838022
 20
486.1410910495127
 30
0.0
 11
484.5474298838022
 21
488.1408749520676
 31
0.0
  0
LINE
  5
4AA
330
1F
100
AcDbEntity
  8
躯体
  6
Continuous
 62
     2
370
     9
100
AcDbLine
 10
483.0475486549168
 20
484.3909986719788
 30
0.0
 11
484.5474298838022
 21
486.1410910495127
 31
0.0
  0
LINE
  5
4AB
330
1F
100
AcDbEntity
  8
躯体
  6
Continuous
 62
     2
370
     9
100
AcDbLine
 10
483.0475486549168
 20
484.3909986719788
 30
0.0
 11
482.5478191891231
 21
484.3909986719788
 31
0.0
  0
LINE
  5
4AC
330
1F
100
AcDbEntity
  8
躯体
  6
Continuous
 62
     2
370
     9
100
AcDbLine
 10
483.0475486549168
 20
484.3909986719788
 30
0.0
 11
483.0475486549168
 21
489.8910168175658
 31
0.0
  0
LINE
  5
4AD
330
1F
100
AcDbEntity
  8
躯体
  6
Continuous
 62
     2
370
     9
100
AcDbLine
 10
478.0478229007205
 20
497.1411025967043
 30
0.0
 11
478.0478229007205
 21
477.1410366127517
 31
0.0
  0
LINE
  5
4AE
330
1F
100
AcDbEntity
  8
躯体
  6
JWW_CENTER2
 62
     2
370
     9
100
AcDbLine
 10
482.547570983415
 20
526.1410033851187
 30
0.0
 11
476.5475926049426
 21
526.1410033851187
 31
0.0
  0
LINE
  5
4AF
330
1F
100
AcDbEntity
  8
躯体
  6
Continuous
 62
     2
370
     9
100
AcDbLine
 10
480.5475616749646
 20
-184.8587814600643
 30
0.0
 11
482.5478191891231
 21
-184.8587814600643
 31
0.0
  0
LINE
  5
4B0
330
1F
100
AcDbEntity
  8
躯体
  6
Continuous
 62
     2
370
     9
100
AcDbLine
 10
478.0478229007205
 20
-184.8587814600643
 30
0.0
 11
478.5475523665142
 21
-184.8587814600643
 31
0.0
  0
LINE
  5
4B1
330
1F
100
AcDbEntity
  8
躯体
  6
Continuous
 62
     2
370
     9
100
AcDbLine
 10
482.5478191891231
 20
-184.8587814600643
 30
0.0
 11
482.5478191891231
 21
-164.8587154761118
 31
0.0
  0
LINE
  5
4B2
330
1F
100
AcDbEntity
  8
躯体
  6
JWW_DASHED1
 62
     2
370
     9
100
AcDbLine
 10
482.547570983415
 20
-177.108721779936
 30
0.0
 11
480.347540925368
 21
-177.108721779936
 31
0.0
  0
LINE
  5
4B3
330
1F
100
AcDbEntity
  8
躯体
  6
JWW_DASHED1
 62
     2
370
     9
100
AcDbLine
 10
480.347540925368
 20
-177.108721779936
 30
0.0
 11
478.5475523665142
 21
-178.8586679912314
 31
0.0
  0
LINE
  5
4B4
330
1F
100
AcDbEntity
  8
躯体
  6
JWW_DASHED1
 62
     2
370
     9
100
AcDbLine
 10
480.347540925368
 20
-172.6087256093616
 30
0.0
 11
482.547570983415
 21
-172.6087256093616
 31
0.0
  0
LINE
  5
4B5
330
1F
100
AcDbEntity
  8
躯体
  6
JWW_DASHED1
 62
     2
370
     9
100
AcDbLine
 10
480.347540925368
 20
-177.108721779936
 30
0.0
 11
480.347540925368
 21
-172.6087256093616
 31
0.0
  0
LINE
  5
4B6
330
1F
100
AcDbEntity
  8
躯体
  6
JWW_DASHED1
 62
     2
370
     9
100
AcDbLine
 10
480.347540925368
 20
-172.6087256093616
 30
0.0
 11
478.5475523665142
 21
-170.8588289449444
 31
0.0
  0
LINE
  5
4B7
330
1F
100
AcDbEntity
  8
躯体
  6
Continuous
 62
     2
370
     9
100
AcDbLine
 10
478.5475523665142
 20
-164.8587019258359
 30
0.0
 11
480.5475616749646
 21
-164.8587019258359
 31
0.0
  0
LINE
  5
4B8
330
1F
100
AcDbEntity
  8
躯体
  6
Continuous
 62
     2
370
     9
100
AcDbLine
 10
480.5475616749646
 20
-194.8637466935907
 30
0.0
 11
480.5475616749646
 21
-164.8587019258359
 31
0.0
  0
LINE
  5
4B9
330
1F
100
AcDbEntity
  8
躯体
  6
Continuous
 62
     2
370
     9
100
AcDbLine
 10
478.5475523665142
 20
-223.8587287907303
 30
0.0
 11
478.5475523665142
 21
-164.8587019258359
 31
0.0
  0
ARC
  5
4BA
330
1F
100
AcDbEntity
  8
躯体
  6
Continuous
 62
     2
370
     9
100
AcDbCircle
 10
481.3475455795933
 20
-197.8587564215105
 30
0.0
 40
3.000000414701043
100
AcDbArc
 50
0.0
 51
90.0
  0
ARC
  5
4BB
330
1F
100
AcDbEntity
  8
躯体
  6
Continuous
 62
     2
370
     9
100
AcDbCircle
 10
481.3475455795933
 20
-220.8587643749335
 30
0.0
 40
3.000000414701043
100
AcDbArc
 50
270.0
 51
0.0
  0
LINE
  5
4BC
330
1F
100
AcDbEntity
  8
躯体
  6
Continuous
 62
     2
370
     9
100
AcDbLine
 10
484.3475595422688
 20
-197.8587564215105
 30
0.0
 11
484.3475595422688
 21
-220.8587643749335
 31
0.0
  0
LINE
  5
4BD
330
1F
100
AcDbEntity
  8
躯体
  6
Continuous
 62
     2
370
     9
100
AcDbLine
 10
481.3475455795933
 20
-194.8587424588351
 30
0.0
 11
478.5475523665142
 21
-194.8587424588351
 31
0.0
  0
LINE
  5
4BE
330
1F
100
AcDbEntity
  8
躯体
  6
Continuous
 62
     2
370
     9
100
AcDbLine
 10
481.3475455795933
 20
-223.8587287907303
 30
0.0
 11
478.5475523665142
 21
-223.8587287907303
 31
0.0
  0
LINE
  5
4BF
330
1F
100
AcDbEntity
  8
躯体
  6
JWW_DASHED1
 62
     2
370
     9
100
AcDbLine
 10
480.5475616749646
 20
-223.8537245559747
 30
0.0
 11
480.5475616749646
 21
-194.8637466935907
 31
0.0
  0
LINE
  5
4C0
330
1F
100
AcDbEntity
  8
躯体
  6
Continuous
 62
     2
370
     9
100
AcDbLine
 10
480.5475616749646
 20
-190.8587238419341
 30
0.0
 11
478.5475523665142
 21
-190.8587238419341
 31
0.0
  0
LINE
  5
4C1
330
1F
100
AcDbEntity
  8
躯体
  6
JWW_DASHED1
 62
     2
370
     9
100
AcDbLine
 10
480.5475616749646
 20
-209.6087491750587
 30
0.0
 11
478.5475523665142
 21
-209.6087491750587
 31
0.0
  0
LINE
  5
4C2
330
1F
100
AcDbEntity
  8
躯体
  6
JWW_DASHED1
 62
     2
370
     9
100
AcDbLine
 10
480.5475616749646
 20
-218.1087144156556
 30
0.0
 11
478.5475523665142
 21
-218.1087144156556
 31
0.0
  0
LINE
  5
4C3
330
1F
100
AcDbEntity
  8
躯体
  6
JWW_CENTER2
 62
     2
370
     9
100
AcDbLine
 10
486.0956237380565
 20
-174.8587484680881
 30
0.0
 11
477.0112479957371
 21
-174.8587484680881
 31
0.0
  0
LINE
  5
4C4
330
1F
100
AcDbEntity
  8
躯体
  6
Continuous
 62
     2
370
     9
100
AcDbLine
 10
480.5478558926966
 20
-183.6087402200938
 30
0.0
 11
480.5478558926966
 21
-184.8587814600643
 31
0.0
  0
LINE
  5
4C5
330
1F
100
AcDbEntity
  8
躯体
  6
Continuous
 62
     2
370
     9
100
AcDbLine
 10
480.5478558926966
 20
-166.1087567160821
 30
0.0
 11
480.5478558926966
 21
-164.8587154761118
 31
0.0
  0
LINE
  5
4C6
330
1F
100
AcDbEntity
  8
躯体
  6
Continuous
 62
     2
370
     9
100
AcDbLine
 10
478.0478229007205
 20
-164.8587154761118
 30
0.0
 11
482.5478191891231
 21
-164.8587154761118
 31
0.0
  0
LINE
  5
4C7
330
1F
100
AcDbEntity
  8
躯体
  6
Continuous
 62
     2
370
     9
100
AcDbLine
 10
478.5475523665142
 20
-170.8586115513863
 30
0.0
 11
478.3473859219935
 21
-170.8586115513863
 31
0.0
  0
LINE
  5
4C8
330
1F
100
AcDbEntity
  8
躯体
  6
Continuous
 62
     2
370
     9
100
AcDbLine
 10
478.5475523665142
 20
-178.8584894810737
 30
0.0
 11
478.3473859219935
 21
-178.8584894810737
 31
0.0
  0
LINE
  5
4C9
330
1F
100
AcDbEntity
  8
躯体
  6
Continuous
 62
     2
370
     9
100
AcDbLine
 10
478.3473859219935
 20
-178.8584894810737
 30
0.0
 11
478.3473859219935
 21
-174.8587484680881
 31
0.0
  0
LINE
  5
4CA
330
1F
100
AcDbEntity
  8
躯体
  6
Continuous
 62
     2
370
     9
100
AcDbLine
 10
478.3473859219935
 20
-170.8586115513863
 30
0.0
 11
478.3473859219935
 21
-174.8587484680881
 31
0.0
  0
LINE
  5
4CB
330
1F
100
AcDbEntity
  8
躯体
  6
Continuous
 62
     2
370
     9
100
AcDbLine
 10
483.0475486549168
 20
-177.6086956809258
 30
0.0
 11
482.5478191891231
 21
-177.6086956809258
 31
0.0
  0
LINE
  5
4CC
330
1F
100
AcDbEntity
  8
躯体
  6
Continuous
 62
     2
370
     9
100
AcDbLine
 10
484.5474298838022
 20
-175.8585538154277
 30
0.0
 11
483.0475486549168
 21
-177.6086956809258
 31
0.0
  0
LINE
  5
4CD
330
1F
100
AcDbEntity
  8
躯体
  6
Continuous
 62
     2
370
     9
100
AcDbLine
 10
484.5474298838022
 20
-173.8587699128727
 30
0.0
 11
484.5474298838022
 21
-175.8585538154277
 31
0.0
  0
LINE
  5
4CE
330
1F
100
AcDbEntity
  8
躯体
  6
Continuous
 62
     2
370
     9
100
AcDbLine
 10
483.0475486549168
 20
-172.1086775353389
 30
0.0
 11
484.5474298838022
 21
-173.8587699128727
 31
0.0
  0
LINE
  5
4CF
330
1F
100
AcDbEntity
  8
躯体
  6
Continuous
 62
     2
370
     9
100
AcDbLine
 10
483.0475486549168
 20
-172.1086775353389
 30
0.0
 11
482.5478191891231
 21
-172.1086775353389
 31
0.0
  0
LINE
  5
4D0
330
1F
100
AcDbEntity
  8
躯体
  6
Continuous
 62
     2
370
     9
100
AcDbLine
 10
483.0475486549168
 20
-172.1086775353389
 30
0.0
 11
483.0475486549168
 21
-177.6086956809258
 31
0.0
  0
LINE
  5
4D1
330
1F
100
AcDbEntity
  8
躯体
  6
Continuous
 62
     2
370
     9
100
AcDbLine
 10
478.0478229007205
 20
-184.8587814600643
 30
0.0
 11
478.0478229007205
 21
-164.8587154761118
 31
0.0
  0
LINE
  5
4D2
330
1F
100
AcDbEntity
  8
躯体
  6
JWW_CENTER2
 62
     2
370
     9
100
AcDbLine
 10
482.547570983415
 20
-213.8586822484786
 30
0.0
 11
476.5475926049426
 21
-213.8586822484786
 31
0.0
  0
LINE
  5
4D3
330
1F
100
AcDbEntity
  8
その他
  6
Continuous
 62
     7
370
     9
100
AcDbLine
 10
561.2187510950185
 20
-223.8587287907303
 30
0.0
 11
561.2187510950185
 21
-193.8587963391328
 31
0.0
  0
LINE
  5
4D4
330
1F
100
AcDbEntity
  8
その他
  6
Continuous
 62
     7
370
     9
100
AcDbLine
 10
561.2187510950185
 20
-223.8587287907303
 30
0.0
 11
559.5871736922679
 21
-211.4656680235578
 31
0.0
  0
LINE
  5
4D5
330
1F
100
AcDbEntity
  8
その他
  6
Continuous
 62
     7
370
     9
100
AcDbLine
 10
561.2187510950185
 20
-223.8587287907303
 30
0.0
 11
562.8503284977693
 21
-211.4656680235578
 31
0.0
  0
LINE
  5
4D6
330
1F
100
AcDbEntity
  8
その他
  6
Continuous
 62
     7
370
     9
100
AcDbLine
 10
561.2187510950185
 20
-193.8587963391328
 30
0.0
 11
559.5871736922679
 21
-206.2518571063055
 31
0.0
  0
LINE
  5
4D7
330
1F
100
AcDbEntity
  8
その他
  6
Continuous
 62
     7
370
     9
100
AcDbLine
 10
561.2187510950185
 20
-193.8587963391328
 30
0.0
 11
562.8503284977693
 21
-206.2518571063055
 31
0.0
  0
LINE
  5
4D8
330
1F
100
AcDbEntity
  8
その他
  6
Continuous
 62
     7
370
     9
100
AcDbLine
 10
562.7187510950185
 20
-223.8587287907303
 30
0.0
 11
488.5475523665142
 21
-223.8587287907303
 31
0.0
  0
LINE
  5
4D9
330
1F
100
AcDbEntity
  8
その他
  6
Continuous
 62
     7
370
     9
100
AcDbLine
 10
562.7187510950185
 20
-193.8587963391328
 30
0.0
 11
485.0478624910927
 21
-193.8587963391328
 31
0.0
  0
TEXT
  5
4DA
330
1F
100
AcDbEntity
  8
その他
  6
Continuous
 62
     2
370
   211
100
AcDbText
 10
553.3987510950185
 20
-219.4837625649317
 30
0.0
 40
15.24
  1
30
 50
90.0
 41
1.0625
  7
ＭＳ ゴシック
100
AcDbText
  0
LINE
  5
4DB
330
1F
100
AcDbEntity
  8
その他
  6
Continuous
 62
     7
370
     9
100
AcDbLine
 10
561.2187510950185
 20
-193.8587963391328
 30
0.0
 11
561.2187510950185
 21
-143.8588394316802
 31
0.0
  0
LINE
  5
4DC
330
1F
100
AcDbEntity
  8
その他
  6
Continuous
 62
     7
370
     9
100
AcDbLine
 10
561.2187510950185
 20
-193.8587963391328
 30
0.0
 11
559.5871736922679
 21
-181.4657355719601
 31
0.0
  0
LINE
  5
4DD
330
1F
100
AcDbEntity
  8
その他
  6
Continuous
 62
     7
370
     9
100
AcDbLine
 10
561.2187510950185
 20
-193.8587963391328
 30
0.0
 11
562.8503284977693
 21
-181.4657355719601
 31
0.0
  0
LINE
  5
4DE
330
1F
100
AcDbEntity
  8
その他
  6
Continuous
 62
     7
370
     9
100
AcDbLine
 10
561.2187510950185
 20
-143.8588394316802
 30
0.0
 11
559.5871736922679
 21
-156.2519001988526
 31
0.0
  0
LINE
  5
4DF
330
1F
100
AcDbEntity
  8
その他
  6
Continuous
 62
     7
370
     9
100
AcDbLine
 10
561.2187510950185
 20
-143.8588394316802
 30
0.0
 11
562.8503284977693
 21
-156.2519001988526
 31
0.0
  0
LINE
  5
4E0
330
1F
100
AcDbEntity
  8
その他
  6
Continuous
 62
     7
370
     9
100
AcDbLine
 10
562.7187510950185
 20
-143.8588394316802
 30
0.0
 11
488.0478229007205
 21
-143.8588394316802
 31
0.0
  0
TEXT
  5
4E1
330
1F
100
AcDbEntity
  8
その他
  6
Continuous
 62
     2
370
   211
100
AcDbText
 10
553.3987510950185
 20
-179.4838178854065
 30
0.0
 40
15.24
  1
50
 50
90.0
 41
1.062499999999998
  7
ＭＳ ゴシック
100
AcDbText
  0
LINE
  5
4E2
330
1F
100
AcDbEntity
  8
その他
  6
Continuous
 62
     7
370
     9
100
AcDbLine
 10
561.2187510950185
 20
-143.8588394316802
 30
0.0
 11
561.2187510950187
 21
456.1410368484087
 31
0.0
  0
LINE
  5
4E3
330
1F
100
AcDbEntity
  8
その他
  6
Continuous
 62
     7
370
     9
100
AcDbLine
 10
561.2187510950185
 20
-143.8588394316802
 30
0.0
 11
559.5871736922679
 21
-131.4657786645075
 31
0.0
  0
LINE
  5
4E4
330
1F
100
AcDbEntity
  8
その他
  6
Continuous
 62
     7
370
     9
100
AcDbLine
 10
561.2187510950185
 20
-143.8588394316802
 30
0.0
 11
562.8503284977693
 21
-131.4657786645075
 31
0.0
  0
LINE
  5
4E5
330
1F
100
AcDbEntity
  8
その他
  6
Continuous
 62
     7
370
     9
100
AcDbLine
 10
561.2187510950187
 20
456.1410368484087
 30
0.0
 11
559.5871736922679
 21
443.747976081236
 31
0.0
  0
LINE
  5
4E6
330
1F
100
AcDbEntity
  8
その他
  6
Continuous
 62
     7
370
     9
100
AcDbLine
 10
561.2187510950187
 20
456.1410368484087
 30
0.0
 11
562.8503284977693
 21
443.747976081236
 31
0.0
  0
LINE
  5
4E7
330
1F
100
AcDbEntity
  8
その他
  6
Continuous
 62
     7
370
     9
100
AcDbLine
 10
562.7187510950187
 20
456.1410368484087
 30
0.0
 11
488.0478229007205
 21
456.1410368484087
 31
0.0
  0
LINE
  5
4E8
330
1F
100
AcDbEntity
  8
その他
  6
Continuous
 62
     7
370
     9
100
AcDbLine
 10
561.2187510950187
 20
456.1410368484087
 30
0.0
 11
561.2187510950187
 21
506.1411174757728
 31
0.0
  0
LINE
  5
4E9
330
1F
100
AcDbEntity
  8
その他
  6
Continuous
 62
     7
370
     9
100
AcDbLine
 10
561.2187510950187
 20
456.1410368484087
 30
0.0
 11
559.5871736922679
 21
468.5340976155814
 31
0.0
  0
LINE
  5
4EA
330
1F
100
AcDbEntity
  8
その他
  6
Continuous
 62
     7
370
     9
100
AcDbLine
 10
561.2187510950187
 20
456.1410368484087
 30
0.0
 11
562.8503284977693
 21
468.5340976155814
 31
0.0
  0
LINE
  5
4EB
330
1F
100
AcDbEntity
  8
その他
  6
Continuous
 62
     7
370
     9
100
AcDbLine
 10
561.2187510950187
 20
506.1411174757728
 30
0.0
 11
559.5871736922679
 21
493.7480567086001
 31
0.0
  0
LINE
  5
4EC
330
1F
100
AcDbEntity
  8
その他
  6
Continuous
 62
     7
370
     9
100
AcDbLine
 10
561.2187510950187
 20
506.1411174757728
 30
0.0
 11
562.8503284977693
 21
493.7480567086001
 31
0.0
  0
LINE
  5
4ED
330
1F
100
AcDbEntity
  8
その他
  6
Continuous
 62
     7
370
     9
100
AcDbLine
 10
562.7187510950187
 20
506.1411174757728
 30
0.0
 11
485.0478624910927
 21
506.1411174757728
 31
0.0
  0
TEXT
  5
4EE
330
1F
100
AcDbEntity
  8
その他
  6
Continuous
 62
     2
370
   211
100
AcDbText
 10
553.3987510950186
 20
470.5160771620908
 30
0.0
 40
15.24
  1
50
 50
90.0
 41
1.0625
  7
ＭＳ ゴシック
100
AcDbText
  0
LINE
  5
4EF
330
1F
100
AcDbEntity
  8
その他
  6
Continuous
 62
     7
370
     9
100
AcDbLine
 10
561.2187510950187
 20
506.1411174757728
 30
0.0
 11
561.2187510950187
 21
536.1410499273702
 31
0.0
  0
LINE
  5
4F0
330
1F
100
AcDbEntity
  8
その他
  6
Continuous
 62
     7
370
     9
100
AcDbLine
 10
561.2187510950187
 20
506.1411174757728
 30
0.0
 11
559.5871736922679
 21
518.5341782429455
 31
0.0
  0
LINE
  5
4F1
330
1F
100
AcDbEntity
  8
その他
  6
Continuous
 62
     7
370
     9
100
AcDbLine
 10
561.2187510950187
 20
506.1411174757728
 30
0.0
 11
562.8503284977693
 21
518.5341782429455
 31
0.0
  0
LINE
  5
4F2
330
1F
100
AcDbEntity
  8
その他
  6
Continuous
 62
     7
370
     9
100
AcDbLine
 10
561.2187510950187
 20
536.1410499273702
 30
0.0
 11
559.5871736922679
 21
523.7479891601976
 31
0.0
  0
LINE
  5
4F3
330
1F
100
AcDbEntity
  8
その他
  6
Continuous
 62
     7
370
     9
100
AcDbLine
 10
561.2187510950187
 20
536.1410499273702
 30
0.0
 11
562.8503284977693
 21
523.7479891601976
 31
0.0
  0
LINE
  5
4F4
330
1F
100
AcDbEntity
  8
その他
  6
Continuous
 62
     7
370
     9
100
AcDbLine
 10
562.7187510950187
 20
536.1410499273702
 30
0.0
 11
488.5475523665142
 21
536.1410499273702
 31
0.0
  0
TEXT
  5
4F5
330
1F
100
AcDbEntity
  8
その他
  6
Continuous
 62
     2
370
   211
100
AcDbText
 10
553.3987510950186
 20
510.5160837015714
 30
0.0
 40
15.24
  1
30
 50
90.0
 41
1.0625
  7
ＭＳ ゴシック
100
AcDbText
  0
LINE
  5
4F6
330
1F
100
AcDbEntity
  8
0-F
  6
Continuous
 62
     7
370
     9
100
AcDbLine
 10
481.0475640020773
 20
536.1410499273702
 30
0.0
 11
486.0870471497757
 21
550.2691214803688
 31
0.0
  0
LINE
  5
4F7
330
1F
100
AcDbEntity
  8
0-F
  6
Continuous
 62
     7
370
     9
100
AcDbLine
 10
481.0475640020773
 20
536.1410499273702
 30
0.0
 11
489.5719896117689
 21
548.4835957202336
 31
0.0
  0
LINE
  5
4F8
330
1F
100
AcDbEntity
  8
0-E
  6
Continuous
 62
     7
370
     9
100
AcDbLine
 10
512.2686195730032
 20
597.0704505444619
 30
0.0
 11
481.0475640020773
 21
536.1410499273702
 31
0.0
  0
TEXT
  5
4F9
330
1F
100
AcDbEntity
  8
0-E
  6
Continuous
 62
     2
370
     9
100
AcDbText
 10
578.9531940399933
 20
576.6391178973761
 30
0.0
 40
15.24
  1
ＳＥＣＣ
 50
0.0002100335212918
 41
0.893749999999998
  7
ＭＳ ゴシック
100
AcDbText
  0
LINE
  5
4FA
330
1F
100
AcDbEntity
  8
0-E
  6
Continuous
 62
     7
370
     9
100
AcDbLine
 10
512.2686195730032
 20
597.0704505444619
 30
0.0
 11
717.1377891814823
 21
597.0704505444619
 31
0.0
  0
TEXT
  5
4FB
330
1F
100
AcDbEntity
  8
0-E
  6
Continuous
 62
     2
370
     9
100
AcDbText
 10
514.0975286332687
 20
603.2482842898438
 30
0.0
 40
15.24
  1
回転アンカー：ｔ＝２.０
 50
359.9998356259527
 41
0.8978260869565224
  7
ＭＳ ゴシック
100
AcDbText
  0
TEXT
  5
4FC
330
1F
100
AcDbEntity
  8
寸法
  6
Continuous
 62
     7
370
     9
100
AcDbText
 10
514.0975205430605
 20
633.4535613673735
 30
0.0
 40
11.43
  1
境界部・壁際用として使用いただけます
 41
1.157407407407407
  7
ＭＳ ゴシック
100
AcDbText
  0
TEXT
  5
4FD
330
1F
100
AcDbEntity
  8
寸法
  6
Continuous
 62
     7
370
     9
100
AcDbText
 10
514.0975205430603
 20
652.4292701105843
 30
0.0
 40
11.43
  1
アンカーを回転・変形させることで
 41
1.15625
  7
ＭＳ ゴシック
100
AcDbText
  0
TEXT
  5
4FE
330
1F
100
AcDbEntity
  8
寸法
  6
Continuous
 62
     7
370
     9
100
AcDbText
 10
496.5975205430605
 20
652.4292701105843
 30
0.0
 40
11.43
  1
※
  7
ＭＳ ゴシック
100
AcDbText
  0
TEXT
  5
4FF
330
1F
100
AcDbEntity
  8
0-E
  6
Continuous
 62
     2
370
     9
100
AcDbText
 10
196.1414577780787
 20
583.9267156240011
 30
0.0
 40
15.24
  1
ＳＵＳ３０４
 41
0.8958333333333335
  7
ＭＳ ゴシック
100
AcDbText
  0
LINE
  5
500
330
1F
100
AcDbEntity
  8
0-E
  6
Continuous
 62
     7
370
     9
100
AcDbLine
 10
125.9738588874879
 20
604.5704125742321
 30
0.0
 11
373.8090566686689
 21
604.5704125742321
 31
0.0
  0
TEXT
  5
501
330
1F
100
AcDbEntity
  8
0-E
  6
Continuous
 62
     2
370
     9
100
AcDbText
 10
130.0387387912824
 20
610.9841429825162
 30
0.0
 40
15.24
  1
受枠：ＴＬ６０Ｐ，ｔ＝３.０
 41
0.898148148148148
  7
ＭＳ ゴシック
100
AcDbText
  0
LINE
  5
502
330
1F
100
AcDbEntity
  8
0-E
  6
Continuous
 62
     7
370
     9
100
AcDbLine
 10
373.8090566686689
 20
604.5704125742321
 30
0.0
 11
449.8949463303027
 21
506.141078088379
 31
0.0
  0
LINE
  5
503
330
1F
100
AcDbEntity
  8
0-F
  6
Continuous
 62
     7
370
     9
100
AcDbLine
 10
449.8949463303027
 20
506.141078088379
 30
0.0
 11
439.2505800401844
 21
516.7098515126821
 31
0.0
  0
LINE
  5
504
330
1F
100
AcDbEntity
  8
0-F
  6
Continuous
 62
     7
370
     9
100
AcDbLine
 10
449.8949463303027
 20
506.141078088379
 30
0.0
 11
442.348774059399
 21
519.1046978360564
 31
0.0
  0
LINE
  5
505
330
1F
100
AcDbEntity
  8
0-F
  6
Continuous
 62
     7
370
     9
100
AcDbLine
 10
473.9229614670214
 20
-147.3588394316804
 30
0.0
 11
487.0063420888537
 21
-140.0225579903268
 31
0.0
  0
LINE
  5
506
330
1F
100
AcDbEntity
  8
0-F
  6
Continuous
 62
     7
370
     9
100
AcDbLine
 10
473.9229614670214
 20
-147.3588394316804
 30
0.0
 11
488.4593087273672
 21
-143.6588099038614
 31
0.0
  0
LINE
  5
507
330
1F
100
AcDbEntity
  8
0-E
  6
Continuous
 62
     7
370
     9
100
AcDbLine
 10
596.8452234490062
 20
-98.24219670874592
 30
0.0
 11
473.9229614670214
 21
-147.3588394316804
 31
0.0
  0
TEXT
  5
508
330
1F
100
AcDbEntity
  8
0-E
  6
Continuous
 62
     2
370
     9
100
AcDbText
 10
625.7213187919442
 20
-120.2747907716451
 30
0.0
 40
15.24
  1
クロロプレンゴム
 41
0.8968750000000009
  7
ＭＳ ゴシック
100
AcDbText
  0
LINE
  5
509
330
1F
100
AcDbEntity
  8
0-E
  6
Continuous
 62
     7
370
     9
100
AcDbLine
 10
596.8452234490062
 20
-98.24219670874592
 30
0.0
 11
798.0974141348818
 21
-98.24219670874592
 31
0.0
  0
TEXT
  5
50A
330
1F
100
AcDbEntity
  8
0-E
  6
Continuous
 62
     2
370
     9
100
AcDbText
 10
602.1340374889822
 20
-91.31452546853455
 30
0.0
 40
15.24
  1
クッション：ｔ＝３．０
 41
0.8977272727272728
  7
ＭＳ ゴシック
100
AcDbText
  0
LINE
  5
50B
330
1F
100
AcDbEntity
  8
その他
  6
Continuous
 62
     7
370
     9
100
AcDbLine
 10
412.0479119790573
 20
-293.858818811695
 30
0.0
 11
478.0478229007205
 21
-293.858818811695
 31
0.0
  0
LINE
  5
50C
330
1F
100
AcDbEntity
  8
その他
  6
Continuous
 62
     7
370
     9
100
AcDbLine
 10
412.0479119790573
 20
-293.858818811695
 30
0.0
 11
424.44097274623
 21
-292.2272414089443
 31
0.0
  0
LINE
  5
50D
330
1F
100
AcDbEntity
  8
その他
  6
Continuous
 62
     7
370
     9
100
AcDbLine
 10
412.0479119790573
 20
-293.858818811695
 30
0.0
 11
424.44097274623
 21
-295.4903962144457
 31
0.0
  0
LINE
  5
50E
330
1F
100
AcDbEntity
  8
その他
  6
Continuous
 62
     7
370
     9
100
AcDbLine
 10
412.0479119790573
 20
-295.3588188116951
 30
0.0
 11
412.0479119790573
 21
-203.858818811695
 31
0.0
  0
LINE
  5
50F
330
1F
100
AcDbEntity
  8
その他
  6
Continuous
 62
     7
370
     9
100
AcDbLine
 10
478.0478229007205
 20
-295.3588188116951
 30
0.0
 11
478.0478229007205
 21
-200.8587965421109
 31
0.0
  0
TEXT
  5
510
330
1F
100
AcDbEntity
  8
その他
  6
Continuous
 62
     2
370
   211
100
AcDbText
 10
434.4228674398889
 20
-286.038818811695
 30
0.0
 40
15.24
  1
66
 41
1.0625
  7
ＭＳ ゴシック
100
AcDbText
  0
LINE
  5
511
330
1F
100
AcDbEntity
  8
その他
  6
Continuous
 62
     7
370
     9
100
AcDbLine
 10
484.5474298838022
 20
-293.858818811695
 30
0.0
 11
496.9404906509748
 21
-292.2272414089443
 31
0.0
  0
LINE
  5
512
330
1F
100
AcDbEntity
  8
その他
  6
Continuous
 62
     7
370
     9
100
AcDbLine
 10
484.5474298838022
 20
-293.858818811695
 30
0.0
 11
496.9404906509748
 21
-295.4903962144457
 31
0.0
  0
LINE
  5
513
330
1F
100
AcDbEntity
  8
その他
  6
Continuous
 62
     7
370
     9
100
AcDbLine
 10
478.0478229007205
 20
-293.858818811695
 30
0.0
 11
465.6547621335478
 21
-292.2272414089443
 31
0.0
  0
LINE
  5
514
330
1F
100
AcDbEntity
  8
その他
  6
Continuous
 62
     7
370
     9
100
AcDbLine
 10
478.0478229007205
 20
-293.858818811695
 30
0.0
 11
465.6547621335478
 21
-295.4903962144457
 31
0.0
  0
LINE
  5
515
330
1F
100
AcDbEntity
  8
その他
  6
Continuous
 62
     7
370
     9
100
AcDbLine
 10
484.5474298838022
 20
-295.3588188116951
 30
0.0
 11
484.5474298838022
 21
-185.8585538154276
 31
0.0
  0
TEXT
  5
516
330
1F
100
AcDbEntity
  8
その他
  6
Continuous
 62
     2
370
   211
100
AcDbText
 10
496.5302533550265
 20
-286.038818811695
 30
0.0
 40
15.24
  1
6.5
 41
1.083333333333333
  7
ＭＳ ゴシック
100
AcDbText
  0
LINE
  5
517
330
1F
100
AcDbEntity
  8
その他
  6
Continuous
 62
     7
370
     9
100
AcDbLine
 10
526.0572388860174
 20
-293.858818811695
 30
0.0
 11
478.0478229007205
 21
-293.858818811695
 31
0.0
  0
LINE
  5
518
330
1F
100
AcDbEntity
  8
その他
  6
Continuous
 62
     7
370
     9
100
AcDbLine
 10
412.0479119790573
 20
-253.858818811695
 30
0.0
 11
472.0474665873763
 21
-253.858818811695
 31
0.0
  0
LINE
  5
519
330
1F
100
AcDbEntity
  8
その他
  6
Continuous
 62
     7
370
     9
100
AcDbLine
 10
412.0479119790573
 20
-253.858818811695
 30
0.0
 11
424.44097274623
 21
-252.2272414089443
 31
0.0
  0
LINE
  5
51A
330
1F
100
AcDbEntity
  8
その他
  6
Continuous
 62
     7
370
     9
100
AcDbLine
 10
412.0479119790573
 20
-253.858818811695
 30
0.0
 11
424.44097274623
 21
-255.4903962144457
 31
0.0
  0
LINE
  5
51B
330
1F
100
AcDbEntity
  8
その他
  6
Continuous
 62
     7
370
     9
100
AcDbLine
 10
472.0474665873763
 20
-253.858818811695
 30
0.0
 11
459.6544058202036
 21
-252.2272414089443
 31
0.0
  0
LINE
  5
51C
330
1F
100
AcDbEntity
  8
その他
  6
Continuous
 62
     7
370
     9
100
AcDbLine
 10
472.0474665873763
 20
-253.858818811695
 30
0.0
 11
459.6544058202036
 21
-255.4903962144457
 31
0.0
  0
LINE
  5
51D
330
1F
100
AcDbEntity
  8
その他
  6
Continuous
 62
     7
370
     9
100
AcDbLine
 10
472.0474665873763
 20
-255.3588188116951
 30
0.0
 11
472.0474665873763
 21
-197.3588394316801
 31
0.0
  0
TEXT
  5
51E
330
1F
100
AcDbEntity
  8
その他
  6
Continuous
 62
     2
370
   211
100
AcDbText
 10
431.4226892832168
 20
-246.038818811695
 30
0.0
 40
15.24
  1
60
 41
1.0625
  7
ＭＳ ゴシック
100
AcDbText
  0
TEXT
  5
51F
330
1F
100
AcDbEntity
  8
0-E
  6
Continuous
 62
     2
370
     9
100
AcDbText
 10
161.9147257971127
 20
-314.7899127844543
 30
0.0
 40
15.24
  1
ＳＵＳ３０４
 41
0.8958333333333333
  7
ＭＳ ゴシック
100
AcDbText
  0
LINE
  5
520
330
1F
100
AcDbEntity
  8
0-E
  6
Continuous
 62
     7
370
     9
100
AcDbLine
 10
96.16622164315187
 20
-291.1337228050437
 30
0.0
 11
367.7984959370386
 21
-291.1337228050437
 31
0.0
  0
TEXT
  5
521
330
1F
100
AcDbEntity
  8
0-E
  6
Continuous
 62
     2
370
     9
100
AcDbText
 10
98.60235221977462
 20
-283.836566544796
 30
0.0
 40
15.24
  1
排水口グレーチング（Ｐ＝１５）
 41
0.8983333333333332
  7
ＭＳ ゴシック
100
AcDbText
  0
TEXT
  5
522
330
1F
100
AcDbEntity
  8
F-5ﾚｲﾔ
  6
Continuous
 62
     2
370
     9
100
AcDbText
 10
463.1249917520059
 20
-673.7341303479993
 30
0.0
 40
15.24
  1
1：5
 41
1.09375
  7
ＭＳ ゴシック
100
AcDbText
  0
TEXT
  5
523
330
1F
100
AcDbEntity
  8
F-5ﾚｲﾔ
  6
Continuous
 62
     2
370
     9
100
AcDbText
 10
-394.4414177981523
 20
-660.5610938817294
 30
0.0
 40
15.24
  1
タイル用　充填深さ４０ｍｍ　ステンレス目地　集水桝用　カラー舗装用みぞ蓋　
 41
0.7743243243243241
  7
ＭＳ ゴシック
100
AcDbText
  0
TEXT
  5
524
330
1F
100
AcDbEntity
  8
0-E
  6
Continuous
 62
     2
370
     9
100
AcDbText
 10
616.1341911974545
 20
322.4932045270945
 30
0.0
 40
15.24
  1
蓋本体：ＦＣＤ５００
 41
0.8974999999999996
  7
ＭＳ ゴシック
100
AcDbText
  0
LINE
  5
525
330
1F
100
AcDbEntity
  8
0-E
  6
Continuous
 62
     7
370
     9
100
AcDbLine
 10
613.1046449815907
 20
315.3068264783707
 30
0.0
 11
797.6870588235294
 21
315.3068264783707
 31
0.0
  0
TEXT
  5
526
330
1F
100
AcDbEntity
  8
0-E
  6
Continuous
 62
     2
370
     9
100
AcDbText
 10
660.6458519025601
 20
294.2058941068287
 30
0.0
 40
15.24
  1
樹脂系塗装
 41
0.8949999999999987
  7
ＭＳ ゴシック
100
AcDbText
  0
TEXT
  5
527
330
1F
100
AcDbEntity
  8
F-5ﾚｲﾔ
  6
Continuous
 62
     2
370
     9
100
AcDbText
 10
-394.4414177981523
 20
-685.1390260514926
 30
0.0
 40
15.24
  1
　　　　　　　　　　　　　　ＳＥＷ－１４－６００（Ｐ＝１５）＋ＴＬ６０Ｐ
 41
0.7743055555555556
  7
ＭＳ ゴシック
100
AcDbText
  0
TEXT
  5
528
330
1F
100
AcDbEntity
  8
F-Fﾚｲﾔ
  6
Continuous
 62
     2
370
     9
100
AcDbText
 10
375.6974371551971
 20
-417.7938021329938
 30
0.0
 40
15.24
  1
仕様
 41
1.0625
  7
ＭＳ ゴシック
100
AcDbText
  0
TEXT
  5
529
330
1F
100
AcDbEntity
  8
F-Fﾚｲﾔ
  6
Continuous
 62
     2
370
     9
100
AcDbText
 10
375.6974495271882
 20
-447.7937773890116
 30
0.0
 40
15.24
  1
適用荷重：Ｔ－１４
 41
1.111111111111111
  7
ＭＳ ゴシック
100
AcDbText
  0
TEXT
  5
52A
330
1F
100
AcDbEntity
  8
F-Fﾚｲﾔ
  6
Continuous
 62
     2
370
     9
100
AcDbText
 10
375.6974495271882
 20
-507.7937897610028
 30
0.0
 40
15.24
  1
接触圧子：２００×５００ｍｍ
 41
1.116071428571428
  7
ＭＳ ゴシック
100
AcDbText
  0
TEXT
  5
52B
330
1F
100
AcDbEntity
  8
F-Fﾚｲﾔ
  6
Continuous
 62
     2
370
     9
100
AcDbText
 10
375.6974124112148
 20
-477.7938145049849
 30
0.0
 40
15.24
  1
破壊荷重：２４２ｋＮ（２４，７００ｋｇｆ）以上
 41
1.119565217391304
  7
ＭＳ ゴシック
100
AcDbText
  0
TEXT
  5
52C
330
1F
100
AcDbEntity
  8
F-Fﾚｲﾔ
  6
Continuous
 62
     2
370
     9
100
AcDbText
 10
375.6977093390019
 20
-537.7938268769759
 30
0.0
 40
15.24
  1
蓋 質 量：４０．０ｋｇ
 41
1.113636363636364
  7
ＭＳ ゴシック
100
AcDbText
  0
ENDSEC
  0
SECTION
  2
OBJECTS
  0
DICTIONARY
  5
C
330
0
100
AcDbDictionary
281
     1
  3
ACAD_GROUP
350
D
  3
ACAD_LAYOUT
350
1A
  3
ACAD_MLEADERSTYLE
350
52E
  3
ACAD_MLINESTYLE
350
17
  3
ACAD_PLOTSETTINGS
350
19
  3
ACAD_PLOTSTYLENAME
350
E
  3
ACAD_TABLESTYLE
350
52D
  3
ACAD_VISUALSTYLE
350
2A
  0
DICTIONARY
  5
D
102
{ACAD_REACTORS
330
C
102
}
330
C
100
AcDbDictionary
281
     1
  0
DICTIONARY
  5
1A
102
{ACAD_REACTORS
330
C
102
}
330
C
100
AcDbDictionary
281
     1
  3
Layout1
350
1E
  3
Layout2
350
26
  3
Model
350
22
  0
DICTIONARY
  5
52E
102
{ACAD_REACTORS
330
C
102
}
330
C
100
AcDbDictionary
281
     1
  0
DICTIONARY
  5
17
102
{ACAD_REACTORS
330
C
102
}
330
C
100
AcDbDictionary
281
     1
  3
Standard
350
18
  0
DICTIONARY
  5
19
102
{ACAD_REACTORS
330
C
102
}
330
C
100
AcDbDictionary
281
     1
  0
ACDBDICTIONARYWDFLT
  5
E
102
{ACAD_REACTORS
330
C
102
}
330
C
100
AcDbDictionary
281
     1
  3
Normal
350
F
100
AcDbDictionaryWithDefault
340
F
  0
DICTIONARY
  5
52D
102
{ACAD_REACTORS
330
C
102
}
330
C
100
AcDbDictionary
281
     1
  0
DICTIONARY
  5
2A
102
{ACAD_REACTORS
330
C
102
}
330
C
100
AcDbDictionary
281
     1
  3
2dWireframe
350
2F
  3
3D Hidden
350
31
  3
3dWireframe
350
30
  3
Basic
350
32
  3
Brighten
350
36
  3
ColorChange
350
3A
  3
Conceptual
350
34
  3
Dim
350
35
  3
Facepattern
350
39
  3
Flat
350
2B
  3
FlatWithEdges
350
2C
  3
Gouraud
350
2D
  3
GouraudWithEdges
350
2E
  3
Linepattern
350
38
  3
Realistic
350
33
  3
Thicken
350
37
  0
LAYOUT
  5
1E
102
{ACAD_REACTORS
330
1A
102
}
330
1A
100
AcDbPlotSettings
  1

  2
none_device
  4

  6

 40
0.0
 41
0.0
 42
0.0
 43
0.0
 44
0.0
 45
0.0
 46
0.0
 47
0.0
 48
0.0
 49
0.0
140
0.0
141
0.0
142
1.0
143
1.0
 70
   688
 72
     0
 73
     0
 74
     5
  7

 75
    16
 76
     0
 77
     5
 78
   300
147
1.0
148
0.0
149
0.0
100
AcDbLayout
  1
Layout1
 70
     1
 71
     1
 10
0.0
 20
0.0
 11
420.0
 21
297.0
 12
0.0
 22
0.0
 32
0.0
 14
1.000000000000000E+20
 24
1.000000000000000E+20
 34
1.000000000000000E+20
 15
-1.000000000000000E+20
 25
-1.000000000000000E+20
 35
-1.000000000000000E+20
146
0.0
 13
0.0
 23
0.0
 33
0.0
 16
1.0
 26
0.0
 36
0.0
 17
0.0
 27
1.0
 37
0.0
 76
     0
330
1B
  0
LAYOUT
  5
26
102
{ACAD_REACTORS
330
1A
102
}
330
1A
100
AcDbPlotSettings
  1

  2
none_device
  4

  6

 40
0.0
 41
0.0
 42
0.0
 43
0.0
 44
0.0
 45
0.0
 46
0.0
 47
0.0
 48
0.0
 49
0.0
140
0.0
141
0.0
142
1.0
143
1.0
 70
   688
 72
     0
 73
     0
 74
     5
  7

 75
    16
 76
     0
 77
     5
 78
   300
147
1.0
148
0.0
149
0.0
100
AcDbLayout
  1
Layout2
 70
     1
 71
     2
 10
0.0
 20
0.0
 11
0.0
 21
0.0
 12
0.0
 22
0.0
 32
0.0
 14
0.0
 24
0.0
 34
0.0
 15
0.0
 25
0.0
 35
0.0
146
0.0
 13
0.0
 23
0.0
 33
0.0
 16
1.0
 26
0.0
 36
0.0
 17
0.0
 27
1.0
 37
0.0
 76
     0
330
23
  0
LAYOUT
  5
22
102
{ACAD_REACTORS
330
1A
102
}
330
1A
100
AcDbPlotSettings
  1

  2
none_device
  4

  6

 40
0.0
 41
0.0
 42
0.0
 43
0.0
 44
0.0
 45
0.0
 46
0.0
 47
0.0
 48
0.0
 49
0.0
140
0.0
141
0.0
142
1.0
143
1.0
 70
  1712
 72
     0
 73
     0
 74
     0
  7

 75
     0
 76
     0
 77
     5
 78
   300
147
1.0
148
0.0
149
0.0
100
AcDbLayout
  1
Model
 70
     1
 71
     0
 10
-1050.0
 20
-742.5
 11
1050.0
 21
742.5
 12
0.0
 22
0.0
 32
0.0
 14
-1050.0
 24
-742.5
 34
0.0
 15
1050.0
 25
742.5
 35
0.0
146
0.0
 13
0.0
 23
0.0
 33
0.0
 16
1.0
 26
0.0
 36
0.0
 17
0.0
 27
1.0
 37
0.0
 76
     0
330
1F
331
29
  0
MLINESTYLE
  5
18
102
{ACAD_REACTORS
330
17
102
}
330
17
100
AcDbMlineStyle
  2
Standard
 70
     0
  3

 62
   256
 51
90.0
 52
90.0
 71
     2
 49
0.5
 62
   256
  6
BYLAYER
 49
-0.5
 62
   256
  6
BYLAYER
  0
ACDBPLACEHOLDER
  5
F
102
{ACAD_REACTORS
330
E
102
}
330
E
  0
VISUALSTYLE
  5
2F
102
{ACAD_REACTORS
330
2A
102
}
330
2A
100
AcDbVisualStyle
  2
2dWireframe
 70
     4
 71
     0
 72
     2
 73
     0
 90
        0
 40
-0.6
 41
-30.0
 62
     5
 63
     7
421
 16777215
 74
     1
 91
        4
 64
     7
 65
   257
 75
     1
175
     1
 42
1.0
 92
        0
 66
   257
 43
1.0
 76
     1
 77
     6
 78
     2
 67
     7
 79
     5
170
     0
171
     0
290
     0
174
     0
 93
        1
 44
0.0
173
     0
291
     0
 45
0.0
  0
VISUALSTYLE
  5
31
102
{ACAD_REACTORS
330
2A
102
}
330
2A
100
AcDbVisualStyle
  2
3D Hidden
 70
     6
 71
     1
 72
     2
 73
     2
 90
        0
 40
-0.6
 41
-30.0
 62
     5
 63
     7
421
 16777215
 74
     2
 91
        2
 64
     7
 65
   257
 75
     2
175
     1
 42
40.0
 92
        0
 66
   257
 43
1.0
 76
     1
 77
     6
 78
     2
 67
     7
 79
     3
170
     0
171
     0
290
     0
174
     0
 93
        1
 44
0.0
173
     0
291
     0
 45
0.0
  0
VISUALSTYLE
  5
30
102
{ACAD_REACTORS
330
2A
102
}
330
2A
100
AcDbVisualStyle
  2
3dWireframe
 70
     5
 71
     0
 72
     2
 73
     0
 90
        0
 40
-0.6
 41
-30.0
 62
     5
 63
     7
421
 16777215
 74
     1
 91
        4
 64
     7
 65
   257
 75
     1
175
     1
 42
1.0
 92
        0
 66
   257
 43
1.0
 76
     1
 77
     6
 78
     2
 67
     7
 79
     5
170
     0
171
     0
290
     0
174
     0
 93
        1
 44
0.0
173
     0
291
     0
 45
0.0
  0
VISUALSTYLE
  5
32
102
{ACAD_REACTORS
330
2A
102
}
330
2A
100
AcDbVisualStyle
  2
Basic
 70
     7
 71
     1
 72
     0
 73
     1
 90
        0
 40
-0.6
 41
-30.0
 62
     5
 63
     7
421
 16777215
 74
     0
 91
        4
 64
     7
 65
   257
 75
     1
175
     1
 42
1.0
 92
        8
 66
     7
 43
1.0
 76
     1
 77
     6
 78
     2
 67
     7
 79
     5
170
     0
171
     0
290
     0
174
     0
 93
        1
 44
0.0
173
     0
291
     1
 45
0.0
  0
VISUALSTYLE
  5
36
102
{ACAD_REACTORS
330
2A
102
}
330
2A
100
AcDbVisualStyle
  2
Brighten
 70
    12
 71
     2
 72
     2
 73
     0
 90
        0
 40
-0.6
 41
-30.0
 62
     5
 63
     7
421
 16777215
 74
     1
 91
        4
 64
     7
 65
   257
 75
     1
175
     1
 42
1.0
 92
        8
 66
     7
 43
1.0
 76
     1
 77
     6
 78
     2
 67
     7
 79
     5
170
     0
171
     0
290
     0
174
     0
 93
        1
 44
50.0
173
     0
291
     1
 45
0.0
  0
VISUALSTYLE
  5
3A
102
{ACAD_REACTORS
330
2A
102
}
330
2A
100
AcDbVisualStyle
  2
ColorChange
 70
    16
 71
     2
 72
     2
 73
     3
 90
        0
 40
-0.6
 41
-30.0
 62
     5
 63
     8
421
  8421504
 74
     1
 91
        4
 64
     7
 65
   257
 75
     1
175
     1
 42
1.0
 92
        8
 66
     8
424
  8421504
 43
1.0
 76
     1
 77
     6
 78
     2
 67
     7
 79
     5
170
     0
171
     0
290
     0
174
     0
 93
        1
 44
0.0
173
     0
291
     1
 45
0.0
  0
VISUALSTYLE
  5
34
102
{ACAD_REACTORS
330
2A
102
}
330
2A
100
AcDbVisualStyle
  2
Conceptual
 70
     9
 71
     3
 72
     2
 73
     0
 90
        0
 40
-0.6
 41
-30.0
 62
     5
 63
     7
421
 16777215
 74
     2
 91
        2
 64
     7
 65
   257
 75
     1
175
     1
 42
40.0
 92
        8
 66
     7
 43
1.0
 76
     1
 77
     6
 78
     2
 67
     7
 79
     3
170
     0
171
     0
290
     0
174
     0
 93
        1
 44
0.0
173
     0
291
     0
 45
0.0
  0
VISUALSTYLE
  5
35
102
{ACAD_REACTORS
330
2A
102
}
330
2A
100
AcDbVisualStyle
  2
Dim
 70
    11
 71
     2
 72
     2
 73
     0
 90
        0
 40
-0.6
 41
-30.0
 62
     5
 63
     7
421
 16777215
 74
     1
 91
        4
 64
     7
 65
   257
 75
     1
175
     1
 42
1.0
 92
        8
 66
     7
 43
1.0
 76
     1
 77
     6
 78
     2
 67
     7
 79
     5
170
     0
171
     0
290
     0
174
     0
 93
        1
 44
-50.0
173
     0
291
     1
 45
0.0
  0
VISUALSTYLE
  5
39
102
{ACAD_REACTORS
330
2A
102
}
330
2A
100
AcDbVisualStyle
  2
Facepattern
 70
    15
 71
     2
 72
     2
 73
     0
 90
        0
 40
-0.6
 41
-30.0
 62
     5
 63
     7
421
 16777215
 74
     1
 91
        4
 64
     7
 65
   257
 75
     1
175
     1
 42
1.0
 92
        8
 66
     7
 43
1.0
 76
     1
 77
     6
 78
     2
 67
     7
 79
     5
170
     0
171
     0
290
     0
174
     0
 93
        1
 44
0.0
173
     0
291
     1
 45
0.0
  0
VISUALSTYLE
  5
2B
102
{ACAD_REACTORS
330
2A
102
}
330
2A
100
AcDbVisualStyle
  2
Flat
 70
     0
 71
     2
 72
     1
 73
     1
 90
        2
 40
-0.6
 41
30.0
 62
     5
 63
     7
421
 16777215
 74
     0
 91
        4
 64
     7
 65
   257
 75
     1
175
     1
 42
1.0
 92
        8
 66
     7
 43
1.0
 76
     1
 77
     6
 78
     2
 67
     7
 79
     5
170
     0
171
     0
290
     0
174
     0
 93
       13
 44
0.0
173
     0
291
     1
 45
0.0
  0
VISUALSTYLE
  5
2C
102
{ACAD_REACTORS
330
2A
102
}
330
2A
100
AcDbVisualStyle
  2
FlatWithEdges
 70
     1
 71
     2
 72
     1
 73
     1
 90
        2
 40
-0.6
 41
30.0
 62
     5
 63
     7
421
 16777215
 74
     1
 91
        4
 64
     7
 65
   257
 75
     1
175
     1
 42
1.0
 92
        0
 66
   257
 43
1.0
 76
     1
 77
     6
 78
     2
 67
     7
 79
     5
170
     0
171
     0
290
     0
174
     0
 93
       13
 44
0.0
173
     0
291
     1
 45
0.0
  0
VISUALSTYLE
  5
2D
102
{ACAD_REACTORS
330
2A
102
}
330
2A
100
AcDbVisualStyle
  2
Gouraud
 70
     2
 71
     2
 72
     2
 73
     1
 90
        2
 40
-0.6
 41
30.0
 62
     5
 63
     7
421
 16777215
 74
     0
 91
        4
 64
     7
 65
   257
 75
     1
175
     1
 42
1.0
 92
        0
 66
     7
 43
1.0
 76
     1
 77
     6
 78
     2
 67
     7
 79
     5
170
     0
171
     0
290
     0
174
     0
 93
       13
 44
0.0
173
     0
291
     1
 45
0.0
  0
VISUALSTYLE
  5
2E
102
{ACAD_REACTORS
330
2A
102
}
330
2A
100
AcDbVisualStyle
  2
GouraudWithEdges
 70
     3
 71
     2
 72
     2
 73
     1
 90
        2
 40
-0.6
 41
30.0
 62
     5
 63
     7
421
 16777215
 74
     1
 91
        4
 64
     7
 65
   257
 75
     1
175
     1
 42
1.0
 92
        0
 66
   257
 43
1.0
 76
     1
 77
     6
 78
     2
 67
     7
 79
     5
170
     0
171
     0
290
     0
174
     0
 93
       13
 44
0.0
173
     0
291
     1
 45
0.0
  0
VISUALSTYLE
  5
38
102
{ACAD_REACTORS
330
2A
102
}
330
2A
100
AcDbVisualStyle
  2
Linepattern
 70
    14
 71
     2
 72
     2
 73
     0
 90
        0
 40
-0.6
 41
-30.0
 62
     5
 63
     7
421
 16777215
 74
     1
 91
        4
 64
     7
 65
   257
 75
     7
175
     7
 42
1.0
 92
        8
 66
     7
 43
1.0
 76
     1
 77
     6
 78
     2
 67
     7
 79
     5
170
     0
171
     0
290
     0
174
     0
 93
        1
 44
0.0
173
     0
291
     1
 45
0.0
  0
VISUALSTYLE
  5
33
102
{ACAD_REACTORS
330
2A
102
}
330
2A
100
AcDbVisualStyle
  2
Realistic
 70
     8
 71
     2
 72
     2
 73
     0
 90
        0
 40
-0.6
 41
-30.0
 62
     5
 63
     7
421
 16777215
 74
     1
 91
        0
 64
     7
 65
   257
 75
     1
175
     1
 42
1.0
 92
        8
 66
     8
424
  7895160
 43
1.0
 76
     1
 77
     6
 78
     2
 67
     7
 79
     5
170
     0
171
     0
290
     0
174
     0
 93
       13
 44
0.0
173
     0
291
     0
 45
0.0
  0
VISUALSTYLE
  5
37
102
{ACAD_REACTORS
330
2A
102
}
330
2A
100
AcDbVisualStyle
  2
Thicken
 70
    13
 71
     2
 72
     2
 73
     0
 90
        0
 40
-0.6
 41
-30.0
 62
     5
 63
     7
421
 16777215
 74
     1
 91
        4
 64
     7
 65
   257
 75
     1
175
     1
 42
1.0
 92
       12
 66
     7
 43
1.0
 76
     1
 77
     6
 78
     2
 67
     7
 79
     5
170
     0
171
     0
290
     0
174
     0
 93
        1
 44
0.0
173
     0
291
     1
 45
0.0
  0
ENDSEC
  0
EOF
