  0
SECTION
  2
HEADER
  9
$ACADVER
  1
AC1015
  9
$ACADMAINTVER
 70
     6
  9
$DWGCODEPAGE
  3
ANSI_932
  9
$INSBASE
 10
0.0
 20
0.0
 30
0.0
  9
$EXTMIN
 10
-2100.0
 20
-1485.0
 30
0.0
  9
$EXTMAX
 10
2100.0
 20
1485.0
 30
0.0
  9
$LIMMIN
 10
-2100.0
 20
-1485.0
  9
$LIMMAX
 10
2100.0
 20
1485.0
  9
$ORTHOMODE
 70
     0
  9
$REGENMODE
 70
     1
  9
$FILLMODE
 70
     1
  9
$QTEXTMODE
 70
     0
  9
$MIRRTEXT
 70
     1
  9
$LTSCALE
 40
10.0
  9
$ATTMODE
 70
     1
  9
$TEXTSIZE
 40
2.5
  9
$TRACEWID
 40
1.0
  9
$TEXTSTYLE
  7
Standard
  9
$CLAYER
  8
0
  9
$CELTYPE
  6
ByLayer
  9
$CECOLOR
 62
   256
  9
$CELTSCALE
 40
1.0
  9
$DISPSILH
 70
     0
  9
$DIMSCALE
 40
1.0
  9
$DIMASZ
 40
2.5
  9
$DIMEXO
 40
0.625
  9
$DIMDLI
 40
3.75
  9
$DIMRND
 40
0.0
  9
$DIMDLE
 40
0.0
  9
$DIMEXE
 40
1.25
  9
$DIMTP
 40
0.0
  9
$DIMTM
 40
0.0
  9
$DIMTXT
 40
2.5
  9
$DIMCEN
 40
2.5
  9
$DIMTSZ
 40
0.0
  9
$DIMTOL
 70
     0
  9
$DIMLIM
 70
     0
  9
$DIMTIH
 70
     0
  9
$DIMTOH
 70
     0
  9
$DIMSE1
 70
     0
  9
$DIMSE2
 70
     0
  9
$DIMTAD
 70
     1
  9
$DIMZIN
 70
     8
  9
$DIMBLK
  1

  9
$DIMASO
 70
     1
  9
$DIMSHO
 70
     1
  9
$DIMPOST
  1

  9
$DIMAPOST
  1

  9
$DIMALT
 70
     0
  9
$DIMALTD
 70
     3
  9
$DIMALTF
 40
0.03937007874016
  9
$DIMLFAC
 40
1.0
  9
$DIMTOFL
 70
     1
  9
$DIMTVP
 40
0.0
  9
$DIMTIX
 70
     0
  9
$DIMSOXD
 70
     0
  9
$DIMSAH
 70
     0
  9
$DIMBLK1
  1

  9
$DIMBLK2
  1

  9
$DIMSTYLE
  2
ISO-25
  9
$DIMCLRD
 70
     0
  9
$DIMCLRE
 70
     0
  9
$DIMCLRT
 70
     0
  9
$DIMTFAC
 40
1.0
  9
$DIMGAP
 40
0.625
  9
$DIMJUST
 70
     0
  9
$DIMSD1
 70
     0
  9
$DIMSD2
 70
     0
  9
$DIMTOLJ
 70
     0
  9
$DIMTZIN
 70
     8
  9
$DIMALTZ
 70
     0
  9
$DIMALTTZ
 70
     0
  9
$DIMUPT
 70
     0
  9
$DIMDEC
 70
     2
  9
$DIMTDEC
 70
     2
  9
$DIMALTU
 70
     2
  9
$DIMALTTD
 70
     3
  9
$DIMTXSTY
  7
Standard
  9
$DIMAUNIT
 70
     0
  9
$DIMADEC
 70
     0
  9
$DIMALTRND
 40
0.0
  9
$DIMAZIN
 70
     0
  9
$DIMDSEP
 70
    44
  9
$DIMATFIT
 70
     3
  9
$DIMFRAC
 70
     0
  9
$DIMLDRBLK
  1

  9
$DIMLUNIT
 70
     2
  9
$DIMLWD
 70
    -2
  9
$DIMLWE
 70
    -2
  9
$DIMTMOVE
 70
     0
  9
$LUNITS
 70
     2
  9
$LUPREC
 70
     4
  9
$SKETCHINC
 40
1.0
  9
$FILLETRAD
 40
10.0
  9
$AUNITS
 70
     0
  9
$AUPREC
 70
     0
  9
$MENU
  1
.
  9
$ELEVATION
 40
0.0
  9
$PELEVATION
 40
0.0
  9
$THICKNESS
 40
0.0
  9
$LIMCHECK
 70
     0
  9
$CHAMFERA
 40
10.0
  9
$CHAMFERB
 40
10.0
  9
$CHAMFERC
 40
20.0
  9
$CHAMFERD
 40
0.0
  9
$SKPOLY
 70
     0
  9
$TDCREATE
 40
2456898.573123982
  9
$TDUCREATE
 40
2456898.198123982
  9
$TDUPDATE
 40
2456898.573123993
  9
$TDUUPDATE
 40
2456898.198123993
  9
$TDINDWG
 40
0.0000000116
  9
$TDUSRTIMER
 40
0.0000000116
  9
$USRTIMER
 70
     1
  9
$ANGBASE
 50
0.0
  9
$ANGDIR
 70
     0
  9
$PDMODE
 70
     0
  9
$PDSIZE
 40
0.0
  9
$PLINEWID
 40
0.0
  9
$SPLFRAME
 70
     0
  9
$SPLINETYPE
 70
     6
  9
$SPLINESEGS
 70
     8
  9
$HANDSEED
  5
40B
  9
$SURFTAB1
 70
     6
  9
$SURFTAB2
 70
     6
  9
$SURFTYPE
 70
     6
  9
$SURFU
 70
     6
  9
$SURFV
 70
     6
  9
$UCSBASE
  2

  9
$UCSNAME
  2

  9
$UCSORG
 10
0.0
 20
0.0
 30
0.0
  9
$UCSXDIR
 10
1.0
 20
0.0
 30
0.0
  9
$UCSYDIR
 10
0.0
 20
1.0
 30
0.0
  9
$UCSORTHOREF
  2

  9
$UCSORTHOVIEW
 70
     0
  9
$UCSORGTOP
 10
0.0
 20
0.0
 30
0.0
  9
$UCSORGBOTTOM
 10
0.0
 20
0.0
 30
0.0
  9
$UCSORGLEFT
 10
0.0
 20
0.0
 30
0.0
  9
$UCSORGRIGHT
 10
0.0
 20
0.0
 30
0.0
  9
$UCSORGFRONT
 10
0.0
 20
0.0
 30
0.0
  9
$UCSORGBACK
 10
0.0
 20
0.0
 30
0.0
  9
$PUCSBASE
  2

  9
$PUCSNAME
  2

  9
$PUCSORG
 10
0.0
 20
0.0
 30
0.0
  9
$PUCSXDIR
 10
1.0
 20
0.0
 30
0.0
  9
$PUCSYDIR
 10
0.0
 20
1.0
 30
0.0
  9
$PUCSORTHOREF
  2

  9
$PUCSORTHOVIEW
 70
     0
  9
$PUCSORGTOP
 10
0.0
 20
0.0
 30
0.0
  9
$PUCSORGBOTTOM
 10
0.0
 20
0.0
 30
0.0
  9
$PUCSORGLEFT
 10
0.0
 20
0.0
 30
0.0
  9
$PUCSORGRIGHT
 10
0.0
 20
0.0
 30
0.0
  9
$PUCSORGFRONT
 10
0.0
 20
0.0
 30
0.0
  9
$PUCSORGBACK
 10
0.0
 20
0.0
 30
0.0
  9
$USERI1
 70
     0
  9
$USERI2
 70
     0
  9
$USERI3
 70
     0
  9
$USERI4
 70
     0
  9
$USERI5
 70
     0
  9
$USERR1
 40
0.0
  9
$USERR2
 40
0.0
  9
$USERR3
 40
0.0
  9
$USERR4
 40
0.0
  9
$USERR5
 40
0.0
  9
$WORLDVIEW
 70
     1
  9
$SHADEDGE
 70
     3
  9
$SHADEDIF
 70
    70
  9
$TILEMODE
 70
     1
  9
$MAXACTVP
 70
    64
  9
$PINSBASE
 10
0.0
 20
0.0
 30
0.0
  9
$PLIMCHECK
 70
     0
  9
$PEXTMIN
 10
1.000000000000000E+20
 20
1.000000000000000E+20
 30
1.000000000000000E+20
  9
$PEXTMAX
 10
-1.000000000000000E+20
 20
-1.000000000000000E+20
 30
-1.000000000000000E+20
  9
$PLIMMIN
 10
0.0
 20
0.0
  9
$PLIMMAX
 10
420.0
 20
297.0
  9
$UNITMODE
 70
     0
  9
$VISRETAIN
 70
     1
  9
$PLINEGEN
 70
     0
  9
$PSLTSCALE
 70
     1
  9
$TREEDEPTH
 70
  3020
  9
$CMLSTYLE
  2
Standard
  9
$CMLJUST
 70
     0
  9
$CMLSCALE
 40
20.0
  9
$PROXYGRAPHICS
 70
     1
  9
$MEASUREMENT
 70
     1
  9
$CELWEIGHT
370
    -1
  9
$ENDCAPS
280
     0
  9
$JOINSTYLE
280
     0
  9
$LWDISPLAY
290
     0
  9
$INSUNITS
 70
     4
  9
$HYPERLINKBASE
  1

  9
$STYLESHEET
  1

  9
$XEDIT
290
     1
  9
$CEPSNTYPE
380
     0
  9
$PSTYLEMODE
290
     1
  9
$FINGERPRINTGUID
  2
{C30C1972-9279-476E-9A2D-5743C73C9289}
  9
$VERSIONGUID
  2
{FAEB1C32-E019-11D5-929B-00C0DF256EC4}
  9
$EXTNAMES
290
     1
  9
$PSVPSCALE
 40
0.0
  9
$OLESTARTUP
290
     0
  0
ENDSEC
  0
SECTION
  2
CLASSES
  0
CLASS
  1
ACDBDICTIONARYWDFLT
  2
AcDbDictionaryWithDefault
  3
ObjectDBX Classes
 90
        0
280
     0
281
     0
  0
CLASS
  1
VISUALSTYLE
  2
AcDbVisualStyle
  3
ObjectDBX Classes
 90
     4095
280
     0
281
     0
  0
CLASS
  1
DICTIONARYVAR
  2
AcDbDictionaryVar
  3
ObjectDBX Classes
 90
        0
280
     0
281
     0
  0
CLASS
  1
ACDBPLACEHOLDER
  2
AcDbPlaceHolder
  3
ObjectDBX Classes
 90
        0
280
     0
281
     0
  0
CLASS
  1
LAYOUT
  2
AcDbLayout
  3
ObjectDBX Classes
 90
        0
280
     0
281
     0
  0
ENDSEC
  0
SECTION
  2
TABLES
  0
TABLE
  2
VPORT
  5
8
330
0
100
AcDbSymbolTable
 70
     1
  0
VPORT
  5
29
330
8
100
AcDbSymbolTableRecord
100
AcDbViewportTableRecord
  2
*Active
 70
     0
 10
0.0
 20
0.0
 11
1.0
 21
1.0
 12
0.0
 22
0.0
 13
0.0
 23
0.0
 14
10.0
 24
10.0
 15
10.0
 25
10.0
 16
0.0
 26
0.0
 36
1.0
 17
0.0
 27
0.0
 37
0.0
 40
3267.0
 41
1.414141414141414
 42
50.0
 43
0.0
 44
0.0
 50
0.0
 51
0.0
 71
     0
 72
 10000
 73
     1
 74
     3
 75
     0
 76
     0
 77
     0
 78
     0
281
     0
 65
     1
110
0.0
120
0.0
130
0.0
111
1.0
121
0.0
131
0.0
112
0.0
122
1.0
132
0.0
 79
     0
146
0.0
  0
ENDTAB
  0
TABLE
  2
LTYPE
  5
5
330
0
100
AcDbSymbolTable
 70
     5
  0
LTYPE
  5
14
330
5
100
AcDbSymbolTableRecord
100
AcDbLinetypeTableRecord
  2
ByBlock
 70
     0
  3

 72
    65
 73
     0
 40
0.0
  0
LTYPE
  5
15
330
5
100
AcDbSymbolTableRecord
100
AcDbLinetypeTableRecord
  2
ByLayer
 70
     0
  3

 72
    65
 73
     0
 40
0.0
  0
LTYPE
  5
16
330
5
100
AcDbSymbolTableRecord
100
AcDbLinetypeTableRecord
  2
Continuous
 70
     0
  3
Solid line
 72
    65
 73
     0
 40
0.0
  0
LTYPE
  5
3C
330
5
100
AcDbSymbolTableRecord
100
AcDbLinetypeTableRecord
  2
JWW_CENTER1
 70
     0
  3
-----  --  ----------  --  -----
 72
    65
 73
     4
 40
6.773333333333333
 49
4.233333333333333
 74
     0
 49
-0.8466666666666667
 74
     0
 49
0.8466666666666667
 74
     0
 49
-0.8466666666666667
 74
     0
  0
LTYPE
  5
3D
330
5
100
AcDbSymbolTableRecord
100
AcDbLinetypeTableRecord
  2
JWW_DASHED3
 70
     0
  3
---  ------  ------  ------  ---
 72
    65
 73
     2
 40
3.386666666666667
 49
2.54
 74
     0
 49
-0.8466666666666667
 74
     0
  0
LTYPE
  5
3E
330
5
100
AcDbSymbolTableRecord
100
AcDbLinetypeTableRecord
  2
JWW_CENTER2
 70
     0
  3
-------------  --  -------------
 72
    65
 73
     4
 40
13.54666666666667
 49
11.00666666666667
 74
     0
 49
-0.8466666666666667
 74
     0
 49
0.8466666666666667
 74
     0
 49
-0.8466666666666667
 74
     0
  0
LTYPE
  5
3F
330
5
100
AcDbSymbolTableRecord
100
AcDbLinetypeTableRecord
  2
JWW_DASHED2
 70
     0
  3
--    ----    ----    ----    --
 72
    65
 73
     2
 40
3.386666666666667
 49
1.693333333333333
 74
     0
 49
-1.693333333333333
 74
     0
  0
ENDTAB
  0
TABLE
  2
LAYER
  5
2
330
0
100
AcDbSymbolTable
 70
    18
  0
LAYER
  5
10
330
2
100
AcDbSymbolTableRecord
100
AcDbLayerTableRecord
  2
0
 70
     0
 62
     7
  6
Continuous
370
    -3
390
F
  0
LAYER
  5
40
330
2
100
AcDbSymbolTableRecord
100
AcDbLayerTableRecord
  2
C-5
 70
     0
 62
     7
  6
Continuous
370
    -3
390
F
  0
LAYER
  5
41
330
2
100
AcDbSymbolTableRecord
100
AcDbLayerTableRecord
  2
C-2
 70
     0
 62
     7
  6
Continuous
370
    -3
390
F
  0
LAYER
  5
42
330
2
100
AcDbSymbolTableRecord
100
AcDbLayerTableRecord
  2
C-4
 70
     0
 62
     7
  6
Continuous
370
    -3
390
F
  0
LAYER
  5
43
330
2
100
AcDbSymbolTableRecord
100
AcDbLayerTableRecord
  2
C-1
 70
     0
 62
     7
  6
Continuous
370
    -3
390
F
  0
LAYER
  5
44
330
2
100
AcDbSymbolTableRecord
100
AcDbLayerTableRecord
  2
C-9
 70
     0
 62
     7
  6
Continuous
370
    -3
390
F
  0
LAYER
  5
45
330
2
100
AcDbSymbolTableRecord
100
AcDbLayerTableRecord
  2
C-B
 70
     0
 62
     7
  6
Continuous
370
    -3
390
F
  0
LAYER
  5
46
330
2
100
AcDbSymbolTableRecord
100
AcDbLayerTableRecord
  2
C-A
 70
     0
 62
     7
  6
Continuous
370
    -3
390
F
  0
LAYER
  5
47
330
2
100
AcDbSymbolTableRecord
100
AcDbLayerTableRecord
  2
D-4
 70
     0
 62
     7
  6
Continuous
370
    -3
390
F
  0
LAYER
  5
48
330
2
100
AcDbSymbolTableRecord
100
AcDbLayerTableRecord
  2
D-6
 70
     0
 62
     7
  6
Continuous
370
    -3
390
F
  0
LAYER
  5
49
330
2
100
AcDbSymbolTableRecord
100
AcDbLayerTableRecord
  2
D-5
 70
     0
 62
     7
  6
Continuous
370
    -3
390
F
  0
LAYER
  5
4A
330
2
100
AcDbSymbolTableRecord
100
AcDbLayerTableRecord
  2
D-0
 70
     0
 62
     7
  6
Continuous
370
    -3
390
F
  0
LAYER
  5
4B
330
2
100
AcDbSymbolTableRecord
100
AcDbLayerTableRecord
  2
D-9
 70
     0
 62
     7
  6
Continuous
370
    -3
390
F
  0
LAYER
  5
4C
330
2
100
AcDbSymbolTableRecord
100
AcDbLayerTableRecord
  2
D-1
 70
     0
 62
     7
  6
Continuous
370
    -3
390
F
  0
LAYER
  5
4D
330
2
100
AcDbSymbolTableRecord
100
AcDbLayerTableRecord
  2
D-3
 70
     0
 62
     7
  6
Continuous
370
    -3
390
F
  0
LAYER
  5
4E
330
2
100
AcDbSymbolTableRecord
100
AcDbLayerTableRecord
  2
D-A
 70
     0
 62
     7
  6
Continuous
370
    -3
390
F
  0
LAYER
  5
4F
330
2
100
AcDbSymbolTableRecord
100
AcDbLayerTableRecord
  2
D-2
 70
     0
 62
     7
  6
Continuous
370
    -3
390
F
  0
LAYER
  5
50
330
2
100
AcDbSymbolTableRecord
100
AcDbLayerTableRecord
  2
F-5ﾚｲﾔ
 70
     0
 62
     7
  6
Continuous
370
    -3
390
F
  0
ENDTAB
  0
TABLE
  2
STYLE
  5
3
330
0
100
AcDbSymbolTable
 70
     2
  0
STYLE
  5
11
330
3
100
AcDbSymbolTableRecord
100
AcDbTextStyleTableRecord
  2
Standard
 70
     0
 40
0.0
 41
1.0
 50
0.0
 71
     0
 42
2.5
  3
txt
  4

1001
ACAD
1000

1071
        0
  0
STYLE
  5
3B
330
3
100
AcDbSymbolTableRecord
100
AcDbTextStyleTableRecord
  2
ＭＳ ゴシック
 70
     0
 40
1.0
 41
1.0
 50
0.0
 71
     0
 42
10.0
  3

  4

1001
ACAD
1000
MS Gothic
1071
    32817
  0
ENDTAB
  0
TABLE
  2
VIEW
  5
6
330
0
100
AcDbSymbolTable
 70
     0
  0
ENDTAB
  0
TABLE
  2
UCS
  5
7
330
0
100
AcDbSymbolTable
 70
     0
  0
ENDTAB
  0
TABLE
  2
APPID
  5
9
330
0
100
AcDbSymbolTable
 70
     1
  0
APPID
  5
12
330
9
100
AcDbSymbolTableRecord
100
AcDbRegAppTableRecord
  2
ACAD
 70
     0
  0
ENDTAB
  0
TABLE
  2
DIMSTYLE
  5
A
330
0
100
AcDbSymbolTable
 70
     1
100
AcDbDimStyleTable
  0
DIMSTYLE
105
27
330
A
100
AcDbSymbolTableRecord
100
AcDbDimStyleTableRecord
  2
ISO-25
 70
     0
 41
2.5
 42
0.625
 43
3.75
 44
1.25
 73
     0
 74
     0
 77
     1
 78
     8
140
2.5
141
2.5
143
0.03937007874016
147
0.625
171
     3
172
     1
271
     2
272
     2
274
     3
278
    44
283
     0
284
     8
340
11
  0
ENDTAB
  0
TABLE
  2
BLOCK_RECORD
  5
1
330
0
100
AcDbSymbolTable
 70
     1
  0
BLOCK_RECORD
  5
1F
330
1
100
AcDbSymbolTableRecord
100
AcDbBlockTableRecord
  2
*Model_Space
340
22
  0
BLOCK_RECORD
  5
1B
330
1
100
AcDbSymbolTableRecord
100
AcDbBlockTableRecord
  2
*Paper_Space
340
1E
  0
BLOCK_RECORD
  5
23
330
1
100
AcDbSymbolTableRecord
100
AcDbBlockTableRecord
  2
*Paper_Space0
340
26
  0
ENDTAB
  0
ENDSEC
  0
SECTION
  2
BLOCKS
  0
BLOCK
  5
20
330
1F
100
AcDbEntity
  8
0
100
AcDbBlockBegin
  2
*Model_Space
 70
     0
 10
0.0
 20
0.0
 30
0.0
  3
*Model_Space
  1

  0
ENDBLK
  5
21
330
1F
100
AcDbEntity
  8
0
100
AcDbBlockEnd
  0
BLOCK
  5
1C
330
1B
100
AcDbEntity
 67
     1
  8
0
100
AcDbBlockBegin
  2
*Paper_Space
 70
     0
 10
0.0
 20
0.0
 30
0.0
  3
*Paper_Space
  1

  0
ENDBLK
  5
1D
330
1B
100
AcDbEntity
 67
     1
  8
0
100
AcDbBlockEnd
  0
BLOCK
  5
24
330
23
100
AcDbEntity
  8
0
100
AcDbBlockBegin
  2
*Paper_Space0
 70
     0
 10
0.0
 20
0.0
 30
0.0
  3
*Paper_Space0
  1

  0
ENDBLK
  5
25
330
23
100
AcDbEntity
  8
0
100
AcDbBlockEnd
  0
ENDSEC
  0
SECTION
  2
ENTITIES
  0
LINE
  5
51
330
1F
100
AcDbEntity
  8
C-5
  6
Continuous
 62
     7
370
     9
100
AcDbLine
 10
749.9999694824219
 20
413.5522551972446
 30
0.0
 11
749.9999694824219
 21
478.5518126923618
 31
0.0
  0
LINE
  5
52
330
1F
100
AcDbEntity
  8
C-5
  6
Continuous
 62
     7
370
     9
100
AcDbLine
 10
749.9999694824219
 20
478.5518126923618
 30
0.0
 11
1325.000946044922
 21
478.5518126923618
 31
0.0
  0
LINE
  5
53
330
1F
100
AcDbEntity
  8
C-5
  6
Continuous
 62
     7
370
     9
100
AcDbLine
 10
1325.000946044922
 20
478.5518126923618
 30
0.0
 11
1325.000946044922
 21
413.5522551972446
 31
0.0
  0
LINE
  5
54
330
1F
100
AcDbEntity
  8
C-5
  6
Continuous
 62
     7
370
     9
100
AcDbLine
 10
1325.000946044922
 20
413.5522551972446
 30
0.0
 11
749.9999694824219
 21
413.5522551972446
 31
0.0
  0
LINE
  5
55
330
1F
100
AcDbEntity
  8
C-2
  6
Continuous
 62
     3
370
     9
100
AcDbLine
 10
1022.500213623047
 20
534.3817306000766
 30
0.0
 11
1022.500213623047
 21
654.3817992646274
 31
0.0
  0
LINE
  5
56
330
1F
100
AcDbEntity
  8
C-2
  6
Continuous
 62
     3
370
     9
100
AcDbLine
 10
1052.500335693359
 20
534.3817306000766
 30
0.0
 11
1052.500335693359
 21
654.3817992646274
 31
0.0
  0
LINE
  5
57
330
1F
100
AcDbEntity
  8
C-2
  6
JWW_CENTER1
 62
     3
370
     9
100
AcDbLine
 10
1037.500457763672
 20
507.1963515717563
 30
0.0
 11
1037.500457763672
 21
684.2194304902134
 31
0.0
  0
LINE
  5
58
330
1F
100
AcDbEntity
  8
C-2
  6
JWW_CENTER1
 62
     3
370
     9
100
AcDbLine
 10
1065.987030029297
 20
594.3815246064243
 30
0.0
 11
1010.677825927734
 21
594.3815246064243
 31
0.0
  0
LINE
  5
59
330
1F
100
AcDbEntity
  8
C-4
  6
Continuous
 62
     7
370
     9
100
AcDbLine
 10
1139.502899169922
 20
519.3819137055453
 30
0.0
 11
1139.502899169922
 21
669.3816161591586
 31
0.0
  0
LINE
  5
5A
330
1F
100
AcDbEntity
  8
C-4
  6
Continuous
 62
     7
370
     9
100
AcDbLine
 10
1059.641571044922
 20
519.3819137055453
 30
0.0
 11
1142.503021240234
 21
519.3819137055453
 31
0.0
  0
LINE
  5
5B
330
1F
100
AcDbEntity
  8
C-4
  6
Continuous
 62
     7
370
     9
100
AcDbLine
 10
1059.641571044922
 20
669.3816161591586
 30
0.0
 11
1142.503021240234
 21
669.3816161591586
 31
0.0
  0
LINE
  5
5C
330
1F
100
AcDbEntity
  8
C-4
  6
Continuous
 62
     7
370
     9
100
AcDbLine
 10
1022.500213623047
 20
715.3165374238072
 30
0.0
 11
1052.500579833984
 21
715.3165374238072
 31
0.0
  0
LINE
  5
5D
330
1F
100
AcDbEntity
  8
C-4
  6
Continuous
 62
     7
370
     9
100
AcDbLine
 10
1022.500213623047
 20
673.2324004609164
 30
0.0
 11
1022.500213623047
 21
718.3165984589632
 31
0.0
  0
LINE
  5
5E
330
1F
100
AcDbEntity
  8
C-4
  6
Continuous
 62
     7
370
     9
100
AcDbLine
 10
1052.500579833984
 20
673.2324004609164
 30
0.0
 11
1052.500579833984
 21
718.3165984589632
 31
0.0
  0
ARC
  5
5F
330
1F
100
AcDbEntity
  8
C-2
  6
Continuous
 62
     3
370
     9
100
AcDbCircle
 10
1037.500457763672
 20
534.3817306000766
 30
0.0
 40
14.99999809265137
100
AcDbArc
 50
180.0
 51
0.0
  0
ARC
  5
60
330
1F
100
AcDbEntity
  8
C-2
  6
Continuous
 62
     3
370
     9
100
AcDbCircle
 10
1037.500457763672
 20
654.3817992646274
 30
0.0
 40
14.99999809265137
100
AcDbArc
 50
0.0
 51
180.0
  0
LWPOLYLINE
  5
61
330
1F
100
AcDbEntity
  8
C-4
  6
Continuous
 62
     7
370
     9
100
AcDbPolyline
 90
        4
 70
     1
 43
1.0
 10
1140.002899169922
 20
519.3819137055453
 42
0.4142135623731
 10
1139.502899169922
 20
519.8819137055453
 42
0.4142135623731
 10
1139.002899169922
 20
519.3819137055453
 42
0.4142135623731
 10
1139.502899169922
 20
518.8819137055453
 42
0.4142135623731
  0
LWPOLYLINE
  5
62
330
1F
100
AcDbEntity
  8
C-4
  6
Continuous
 62
     7
370
     9
100
AcDbPolyline
 90
        4
 70
     1
 43
1.0
 10
1140.002899169922
 20
669.3816161591586
 42
0.4142135623731
 10
1139.502899169922
 20
669.8816161591585
 42
0.4142135623731
 10
1139.002899169922
 20
669.3816161591586
 42
0.4142135623731
 10
1139.502899169922
 20
668.8816161591586
 42
0.4142135623731
  0
LWPOLYLINE
  5
63
330
1F
100
AcDbEntity
  8
C-4
  6
Continuous
 62
     7
370
     9
100
AcDbPolyline
 90
        4
 70
     1
 43
1.0
 10
1023.000213623047
 20
715.3165374238072
 42
0.4142135623731
 10
1022.500213623047
 20
715.8165374238071
 42
0.4142135623731
 10
1022.000213623047
 20
715.3165374238072
 42
0.4142135623731
 10
1022.500213623047
 20
714.8165374238072
 42
0.4142135623731
  0
LWPOLYLINE
  5
64
330
1F
100
AcDbEntity
  8
C-4
  6
Continuous
 62
     7
370
     9
100
AcDbPolyline
 90
        4
 70
     1
 43
1.0
 10
1053.000579833984
 20
715.3165374238072
 42
0.4142135623731
 10
1052.500579833984
 20
715.8165374238071
 42
0.4142135623731
 10
1052.000579833985
 20
715.3165374238072
 42
0.4142135623731
 10
1052.500579833984
 20
714.8165374238072
 42
0.4142135623731
  0
TEXT
  5
65
330
1F
100
AcDbEntity
  8
C-5
  6
Continuous
 62
     2
370
     9
100
AcDbText
 10
792.5008239746094
 20
431.6919414383945
 30
0.0
 40
30.48
  1
排水穴詳細　Ｓ＝１：２
 41
1.113636363636364
  7
ＭＳ ゴシック
100
AcDbText
  0
TEXT
  5
66
330
1F
100
AcDbEntity
  8
C-4
  6
Continuous
 62
     2
370
     9
100
AcDbText
 10
1128.862899169922
 20
573.1318450409946
 30
0.0
 40
30.48
  1
30
 50
90.0
 41
1.0625
  7
ＭＳ ゴシック
100
AcDbText
  0
TEXT
  5
67
330
1F
100
AcDbEntity
  8
C-4
  6
Continuous
 62
     2
370
     9
100
AcDbText
 10
1027.500457763672
 20
725.956293283182
 30
0.0
 40
30.48
  1
6
 41
0.9999999999999998
  7
ＭＳ ゴシック
100
AcDbText
  0
LINE
  5
68
330
1F
100
AcDbEntity
  8
C-1
  6
Continuous
 62
     2
370
     9
100
AcDbLine
 10
-751.0001220703127
 20
722.5524535615023
 30
0.0
 11
749.9999694824219
 21
722.5524535615023
 31
0.0
  0
LINE
  5
69
330
1F
100
AcDbEntity
  8
C-4
  6
Continuous
 62
     7
370
     9
100
AcDbLine
 10
-200.9004516601563
 20
649.0520415741978
 30
0.0
 11
-306.111391067505
 21
649.0520415741978
 31
0.0
  0
LINE
  5
6A
330
1F
100
AcDbEntity
  8
C-4
  6
Continuous
 62
     7
370
     9
100
AcDbLine
 10
-175.8448410034181
 20
674.0519195038851
 30
0.0
 11
-306.111391067505
 21
674.0519195038851
 31
0.0
  0
LWPOLYLINE
  5
6B
330
1F
100
AcDbEntity
  8
C-4
  6
Continuous
 62
     7
370
     9
100
AcDbPolyline
 90
        4
 70
     1
 43
1.0
 10
-302.6114511489869
 20
649.0520415741978
 42
0.4142135623731
 10
-303.1114511489869
 20
649.5520415741977
 42
0.4142135623731
 10
-303.6114511489869
 20
649.0520415741978
 42
0.4142135623731
 10
-303.1114511489869
 20
648.5520415741978
 42
0.4142135623731
  0
LWPOLYLINE
  5
6C
330
1F
100
AcDbEntity
  8
C-4
  6
Continuous
 62
     7
370
     9
100
AcDbPolyline
 90
        4
 70
     1
 43
1.0
 10
-302.6114511489869
 20
674.0519195038851
 42
0.4142135623731
 10
-303.1114511489869
 20
674.5519195038851
 42
0.4142135623731
 10
-303.6114511489869
 20
674.0519195038851
 42
0.4142135623731
 10
-303.1114511489869
 20
673.5519195038852
 42
0.4142135623731
  0
LINE
  5
6D
330
1F
100
AcDbEntity
  8
C-9
  6
Continuous
 62
     6
370
     9
100
AcDbLine
 10
0.0
 20
687.1117034394321
 30
0.0
 11
21.49999999999949
 21
687.1117034394321
 31
0.0
  0
LINE
  5
6E
330
1F
100
AcDbEntity
  8
C-9
  6
Continuous
 62
     6
370
     9
100
AcDbLine
 10
-1.000091552734403
 20
686.5515838105259
 30
0.0
 11
-22.50009155273531
 21
686.5515838105259
 31
0.0
  0
LINE
  5
6F
330
1F
100
AcDbEntity
  8
C-9
  6
Continuous
 62
     6
370
     9
100
AcDbLine
 10
-78.50009155273497
 20
680.5519500214633
 30
0.0
 11
-122.5000915527353
 21
680.5519500214633
 31
0.0
  0
LINE
  5
70
330
1F
100
AcDbEntity
  8
C-9
  6
Continuous
 62
     6
370
     9
100
AcDbLine
 10
-78.50009155273497
 20
686.5515838105259
 30
0.0
 11
-122.5000915527353
 21
686.5515838105259
 31
0.0
  0
LINE
  5
71
330
1F
100
AcDbEntity
  8
C-9
  6
Continuous
 62
     6
370
     9
100
AcDbLine
 10
-128.500091552735
 20
686.5515838105259
 30
0.0
 11
-172.5000915527353
 21
686.5515838105259
 31
0.0
  0
LINE
  5
72
330
1F
100
AcDbEntity
  8
C-9
  6
Continuous
 62
     6
370
     9
100
AcDbLine
 10
-128.500091552735
 20
680.5519500214633
 30
0.0
 11
-172.5000915527353
 21
680.5519500214633
 31
0.0
  0
LINE
  5
73
330
1F
100
AcDbEntity
  8
C-9
  6
Continuous
 62
     6
370
     9
100
AcDbLine
 10
-203.9998550415039
 20
650.5518279511509
 30
0.0
 11
-246.5785752860671
 21
650.5518279511509
 31
0.0
  0
LINE
  5
74
330
1F
100
AcDbEntity
  8
C-9
  6
Continuous
 62
     6
370
     9
100
AcDbLine
 10
-1.000091552734403
 20
704.5519805390414
 30
0.0
 11
-192.5785226051592
 21
704.5519805390414
 31
0.0
  0
LINE
  5
75
330
1F
100
AcDbEntity
  8
C-9
  6
Continuous
 62
     6
370
     9
100
AcDbLine
 10
-1.000091552734403
 20
710.5521026093539
 30
0.0
 11
-186.5784116358169
 21
710.5521026093539
 31
0.0
  0
LINE
  5
76
330
1F
100
AcDbEntity
  8
C-9
  6
Continuous
 62
     6
370
     9
100
AcDbLine
 10
-1.000091552734403
 20
632.5519347626743
 30
0.0
 11
-264.5784351725076
 21
632.5519347626743
 31
0.0
  0
LINE
  5
77
330
1F
100
AcDbEntity
  8
C-9
  6
Continuous
 62
     6
370
     9
100
AcDbLine
 10
-1.000091552734403
 20
614.5520568329868
 30
0.0
 11
-282.5782798001877
 21
614.5520568329868
 31
0.0
  0
LINE
  5
78
330
1F
100
AcDbEntity
  8
C-9
  6
Continuous
 62
     6
370
     9
100
AcDbLine
 10
-1.000091552734403
 20
620.5521789032993
 30
0.0
 11
-276.5781688308454
 21
620.5521789032993
 31
0.0
  0
LINE
  5
79
330
1F
100
AcDbEntity
  8
C-9
  6
Continuous
 62
     6
370
     9
100
AcDbLine
 10
-1.000091552734403
 20
626.5523009736118
 30
0.0
 11
-270.5780578615032
 21
626.5523009736118
 31
0.0
  0
LINE
  5
7A
330
1F
100
AcDbEntity
  8
C-9
  6
Continuous
 62
     6
370
     9
100
AcDbLine
 10
-203.9998550415039
 20
656.5519500214633
 30
0.0
 11
-240.578464316725
 21
656.5519500214633
 31
0.0
  0
LINE
  5
7B
330
1F
100
AcDbEntity
  8
C-9
  6
Continuous
 62
     6
370
     9
100
AcDbLine
 10
-178.500091552735
 20
680.5519500214633
 30
0.0
 11
-216.5785087197027
 21
680.5519500214633
 31
0.0
  0
LINE
  5
7C
330
1F
100
AcDbEntity
  8
C-9
  6
Continuous
 62
     6
370
     9
100
AcDbLine
 10
-178.500091552735
 20
686.5515838105259
 30
0.0
 11
-210.5788860307071
 21
686.5515838105259
 31
0.0
  0
ARC
  5
7D
330
1F
100
AcDbEntity
  8
C-B
  6
Continuous
 62
     3
370
     9
100
AcDbCircle
 10
-250.5000915527354
 20
637.0521178681428
 30
0.0
 40
3.0
100
AcDbArc
 50
180.0
 51
0.0
  0
ARC
  5
7E
330
1F
100
AcDbEntity
  8
C-B
  6
Continuous
 62
     3
370
     9
100
AcDbCircle
 10
-200.5000915527354
 20
637.0521178681428
 30
0.0
 40
3.0
100
AcDbArc
 50
180.0
 51
0.0
  0
ARC
  5
7F
330
1F
100
AcDbEntity
  8
C-B
  6
Continuous
 62
     3
370
     9
100
AcDbCircle
 10
-200.5000915527354
 20
661.0521178681428
 30
0.0
 40
3.0
100
AcDbArc
 50
0.0
 51
180.0
  0
LINE
  5
80
330
1F
100
AcDbEntity
  8
C-B
  6
Continuous
 62
     3
370
     9
100
AcDbLine
 10
-203.500091552735
 20
637.0521178681428
 30
0.0
 11
-203.500091552735
 21
661.0521178681428
 31
0.0
  0
LINE
  5
81
330
1F
100
AcDbEntity
  8
C-B
  6
Continuous
 62
     3
370
     9
100
AcDbLine
 10
-197.5000915527353
 20
637.0521178681428
 30
0.0
 11
-197.5000915527353
 21
661.0521178681428
 31
0.0
  0
ARC
  5
82
330
1F
100
AcDbEntity
  8
C-B
  6
Continuous
 62
     3
370
     9
100
AcDbCircle
 10
-225.5000915527354
 20
662.0521178681428
 30
0.0
 40
3.0
100
AcDbArc
 50
180.0
 51
0.0
  0
ARC
  5
83
330
1F
100
AcDbEntity
  8
C-B
  6
Continuous
 62
     3
370
     9
100
AcDbCircle
 10
-150.5000915527354
 20
637.0521178681428
 30
0.0
 40
3.0
100
AcDbArc
 50
180.0
 51
0.0
  0
ARC
  5
84
330
1F
100
AcDbEntity
  8
C-B
  6
Continuous
 62
     3
370
     9
100
AcDbCircle
 10
-150.5000915527354
 20
661.0521178681428
 30
0.0
 40
3.0
100
AcDbArc
 50
0.0
 51
180.0
  0
LINE
  5
85
330
1F
100
AcDbEntity
  8
C-B
  6
Continuous
 62
     3
370
     9
100
AcDbLine
 10
-153.500091552735
 20
637.0521178681428
 30
0.0
 11
-153.500091552735
 21
661.0521178681428
 31
0.0
  0
LINE
  5
86
330
1F
100
AcDbEntity
  8
C-B
  6
Continuous
 62
     3
370
     9
100
AcDbLine
 10
-147.5000915527353
 20
637.0521178681428
 30
0.0
 11
-147.5000915527353
 21
661.0521178681428
 31
0.0
  0
LINE
  5
87
330
1F
100
AcDbEntity
  8
C-B
  6
Continuous
 62
     3
370
     9
100
AcDbLine
 10
-172.5000915527353
 20
662.0521178681428
 30
0.0
 11
-172.5000915527353
 21
686.0521178681428
 31
0.0
  0
LINE
  5
88
330
1F
100
AcDbEntity
  8
C-B
  6
Continuous
 62
     3
370
     9
100
AcDbLine
 10
-178.500091552735
 20
662.0521178681428
 30
0.0
 11
-178.500091552735
 21
686.0521178681428
 31
0.0
  0
ARC
  5
89
330
1F
100
AcDbEntity
  8
C-B
  6
Continuous
 62
     3
370
     9
100
AcDbCircle
 10
-175.5000915527354
 20
686.0521178681428
 30
0.0
 40
3.0
100
AcDbArc
 50
0.0
 51
180.0
  0
ARC
  5
8A
330
1F
100
AcDbEntity
  8
C-B
  6
Continuous
 62
     3
370
     9
100
AcDbCircle
 10
-175.5000915527354
 20
662.0521178681428
 30
0.0
 40
3.0
100
AcDbArc
 50
180.0
 51
0.0
  0
ARC
  5
8B
330
1F
100
AcDbEntity
  8
C-B
  6
Continuous
 62
     3
370
     9
100
AcDbCircle
 10
-100.5000915527354
 20
637.0521178681428
 30
0.0
 40
3.0
100
AcDbArc
 50
180.0
 51
0.0
  0
ARC
  5
8C
330
1F
100
AcDbEntity
  8
C-B
  6
Continuous
 62
     3
370
     9
100
AcDbCircle
 10
-100.5000915527354
 20
661.0521178681428
 30
0.0
 40
3.0
100
AcDbArc
 50
0.0
 51
180.0
  0
LINE
  5
8D
330
1F
100
AcDbEntity
  8
C-B
  6
Continuous
 62
     3
370
     9
100
AcDbLine
 10
-103.500091552735
 20
637.0521178681428
 30
0.0
 11
-103.500091552735
 21
661.0521178681428
 31
0.0
  0
LINE
  5
8E
330
1F
100
AcDbEntity
  8
C-B
  6
Continuous
 62
     3
370
     9
100
AcDbLine
 10
-97.50009155273531
 20
637.0521178681428
 30
0.0
 11
-97.50009155273531
 21
661.0521178681428
 31
0.0
  0
LINE
  5
8F
330
1F
100
AcDbEntity
  8
C-B
  6
Continuous
 62
     3
370
     9
100
AcDbLine
 10
-122.5000915527353
 20
662.0521178681428
 30
0.0
 11
-122.5000915527353
 21
686.0521178681428
 31
0.0
  0
LINE
  5
90
330
1F
100
AcDbEntity
  8
C-B
  6
Continuous
 62
     3
370
     9
100
AcDbLine
 10
-128.500091552735
 20
662.0521178681428
 30
0.0
 11
-128.500091552735
 21
686.0521178681428
 31
0.0
  0
ARC
  5
91
330
1F
100
AcDbEntity
  8
C-B
  6
Continuous
 62
     3
370
     9
100
AcDbCircle
 10
-125.5000915527354
 20
686.0521178681428
 30
0.0
 40
3.0
100
AcDbArc
 50
0.0
 51
180.0
  0
ARC
  5
92
330
1F
100
AcDbEntity
  8
C-B
  6
Continuous
 62
     3
370
     9
100
AcDbCircle
 10
-125.5000915527354
 20
662.0521178681428
 30
0.0
 40
3.0
100
AcDbArc
 50
180.0
 51
0.0
  0
ARC
  5
93
330
1F
100
AcDbEntity
  8
C-B
  6
Continuous
 62
     3
370
     9
100
AcDbCircle
 10
-50.50009155273543
 20
637.0521178681428
 30
0.0
 40
3.0
100
AcDbArc
 50
180.0
 51
0.0
  0
ARC
  5
94
330
1F
100
AcDbEntity
  8
C-B
  6
Continuous
 62
     3
370
     9
100
AcDbCircle
 10
-50.50009155273543
 20
661.0521178681428
 30
0.0
 40
3.0
100
AcDbArc
 50
0.0
 51
180.0
  0
LINE
  5
95
330
1F
100
AcDbEntity
  8
C-B
  6
Continuous
 62
     3
370
     9
100
AcDbLine
 10
-53.50009155273497
 20
637.0521178681428
 30
0.0
 11
-53.50009155273497
 21
661.0521178681428
 31
0.0
  0
LINE
  5
96
330
1F
100
AcDbEntity
  8
C-B
  6
Continuous
 62
     3
370
     9
100
AcDbLine
 10
-47.50009155273531
 20
637.0521178681428
 30
0.0
 11
-47.50009155273531
 21
661.0521178681428
 31
0.0
  0
LINE
  5
97
330
1F
100
AcDbEntity
  8
C-B
  6
Continuous
 62
     3
370
     9
100
AcDbLine
 10
-72.50009155273531
 20
662.0521178681428
 30
0.0
 11
-72.50009155273531
 21
686.0521178681428
 31
0.0
  0
LINE
  5
98
330
1F
100
AcDbEntity
  8
C-B
  6
Continuous
 62
     3
370
     9
100
AcDbLine
 10
-78.50009155273497
 20
662.0521178681428
 30
0.0
 11
-78.50009155273497
 21
686.0521178681428
 31
0.0
  0
ARC
  5
99
330
1F
100
AcDbEntity
  8
C-B
  6
Continuous
 62
     3
370
     9
100
AcDbCircle
 10
-75.50009155273543
 20
686.0521178681428
 30
0.0
 40
3.0
100
AcDbArc
 50
0.0
 51
180.0
  0
ARC
  5
9A
330
1F
100
AcDbEntity
  8
C-B
  6
Continuous
 62
     3
370
     9
100
AcDbCircle
 10
-75.50009155273543
 20
662.0521178681428
 30
0.0
 40
3.0
100
AcDbArc
 50
180.0
 51
0.0
  0
LINE
  5
9B
330
1F
100
AcDbEntity
  8
C-B
  6
Continuous
 62
     3
370
     9
100
AcDbLine
 10
-22.50009155273531
 20
662.0521178681428
 30
0.0
 11
-22.50009155273531
 21
686.0521178681428
 31
0.0
  0
LINE
  5
9C
330
1F
100
AcDbEntity
  8
C-B
  6
Continuous
 62
     3
370
     9
100
AcDbLine
 10
-28.50009155273497
 20
662.0521178681428
 30
0.0
 11
-28.50009155273497
 21
686.0521178681428
 31
0.0
  0
ARC
  5
9D
330
1F
100
AcDbEntity
  8
C-B
  6
Continuous
 62
     3
370
     9
100
AcDbCircle
 10
-25.50009155273543
 20
686.0521178681428
 30
0.0
 40
3.0
100
AcDbArc
 50
0.0
 51
180.0
  0
ARC
  5
9E
330
1F
100
AcDbEntity
  8
C-B
  6
Continuous
 62
     3
370
     9
100
AcDbCircle
 10
-25.50009155273543
 20
662.0521178681428
 30
0.0
 40
3.0
100
AcDbArc
 50
180.0
 51
0.0
  0
ARC
  5
9F
330
1F
100
AcDbEntity
  8
C-B
  6
Continuous
 62
     3
370
     9
100
AcDbCircle
 10
49.49999999999903
 20
637.0521178681428
 30
0.0
 40
3.0
100
AcDbArc
 50
180.0
 51
0.0
  0
ARC
  5
A0
330
1F
100
AcDbEntity
  8
C-B
  6
Continuous
 62
     3
370
     9
100
AcDbCircle
 10
49.49999999999903
 20
661.0521178681428
 30
0.0
 40
3.0
100
AcDbArc
 50
0.0
 51
180.0
  0
LINE
  5
A1
330
1F
100
AcDbEntity
  8
C-B
  6
Continuous
 62
     3
370
     9
100
AcDbLine
 10
46.49999999999949
 20
637.0521178681428
 30
0.0
 11
46.49999999999949
 21
661.0521178681428
 31
0.0
  0
LINE
  5
A2
330
1F
100
AcDbEntity
  8
C-B
  6
Continuous
 62
     3
370
     9
100
AcDbLine
 10
52.49999999999915
 20
637.0521178681428
 30
0.0
 11
52.49999999999915
 21
661.0521178681428
 31
0.0
  0
LINE
  5
A3
330
1F
100
AcDbEntity
  8
C-B
  6
Continuous
 62
     3
370
     9
100
AcDbLine
 10
27.49999999999915
 20
662.0521178681428
 30
0.0
 11
27.49999999999915
 21
686.0521178681428
 31
0.0
  0
LINE
  5
A4
330
1F
100
AcDbEntity
  8
C-B
  6
Continuous
 62
     3
370
     9
100
AcDbLine
 10
21.49999999999949
 20
662.0521178681428
 30
0.0
 11
21.49999999999949
 21
686.0521178681428
 31
0.0
  0
ARC
  5
A5
330
1F
100
AcDbEntity
  8
C-B
  6
Continuous
 62
     3
370
     9
100
AcDbCircle
 10
24.49999999999903
 20
686.0521178681428
 30
0.0
 40
3.0
100
AcDbArc
 50
0.0
 51
180.0
  0
ARC
  5
A6
330
1F
100
AcDbEntity
  8
C-B
  6
Continuous
 62
     3
370
     9
100
AcDbCircle
 10
24.49999999999903
 20
662.0521178681428
 30
0.0
 40
3.0
100
AcDbArc
 50
180.0
 51
0.0
  0
ARC
  5
A7
330
1F
100
AcDbEntity
  8
C-B
  6
Continuous
 62
     3
370
     9
100
AcDbCircle
 10
99.49999999999903
 20
637.0521178681428
 30
0.0
 40
3.0
100
AcDbArc
 50
180.0
 51
0.0
  0
ARC
  5
A8
330
1F
100
AcDbEntity
  8
C-B
  6
Continuous
 62
     3
370
     9
100
AcDbCircle
 10
99.49999999999903
 20
661.0521178681428
 30
0.0
 40
3.0
100
AcDbArc
 50
0.0
 51
180.0
  0
LINE
  5
A9
330
1F
100
AcDbEntity
  8
C-B
  6
Continuous
 62
     3
370
     9
100
AcDbLine
 10
96.49999999999949
 20
637.0521178681428
 30
0.0
 11
96.49999999999949
 21
661.0521178681428
 31
0.0
  0
LINE
  5
AA
330
1F
100
AcDbEntity
  8
C-B
  6
Continuous
 62
     3
370
     9
100
AcDbLine
 10
102.4999999999991
 20
637.0521178681428
 30
0.0
 11
102.4999999999991
 21
661.0521178681428
 31
0.0
  0
LINE
  5
AB
330
1F
100
AcDbEntity
  8
C-B
  6
Continuous
 62
     3
370
     9
100
AcDbLine
 10
77.49999999999915
 20
662.0521178681428
 30
0.0
 11
77.49999999999915
 21
686.0521178681428
 31
0.0
  0
LINE
  5
AC
330
1F
100
AcDbEntity
  8
C-B
  6
Continuous
 62
     3
370
     9
100
AcDbLine
 10
71.49999999999949
 20
662.0521178681428
 30
0.0
 11
71.49999999999949
 21
686.0521178681428
 31
0.0
  0
ARC
  5
AD
330
1F
100
AcDbEntity
  8
C-B
  6
Continuous
 62
     3
370
     9
100
AcDbCircle
 10
74.49999999999903
 20
686.0521178681428
 30
0.0
 40
3.0
100
AcDbArc
 50
0.0
 51
180.0
  0
ARC
  5
AE
330
1F
100
AcDbEntity
  8
C-B
  6
Continuous
 62
     3
370
     9
100
AcDbCircle
 10
74.49999999999903
 20
662.0521178681428
 30
0.0
 40
3.0
100
AcDbArc
 50
180.0
 51
0.0
  0
ARC
  5
AF
330
1F
100
AcDbEntity
  8
C-B
  6
Continuous
 62
     3
370
     9
100
AcDbCircle
 10
149.499999999999
 20
637.0521178681428
 30
0.0
 40
3.0
100
AcDbArc
 50
180.0
 51
0.0
  0
ARC
  5
B0
330
1F
100
AcDbEntity
  8
C-B
  6
Continuous
 62
     3
370
     9
100
AcDbCircle
 10
149.499999999999
 20
661.0521178681428
 30
0.0
 40
3.0
100
AcDbArc
 50
0.0
 51
180.0
  0
LINE
  5
B1
330
1F
100
AcDbEntity
  8
C-B
  6
Continuous
 62
     3
370
     9
100
AcDbLine
 10
146.4999999999995
 20
637.0521178681428
 30
0.0
 11
146.4999999999995
 21
661.0521178681428
 31
0.0
  0
LINE
  5
B2
330
1F
100
AcDbEntity
  8
C-B
  6
Continuous
 62
     3
370
     9
100
AcDbLine
 10
152.4999999999991
 20
637.0521178681428
 30
0.0
 11
152.4999999999991
 21
661.0521178681428
 31
0.0
  0
LINE
  5
B3
330
1F
100
AcDbEntity
  8
C-B
  6
Continuous
 62
     3
370
     9
100
AcDbLine
 10
127.4999999999991
 20
662.0521178681428
 30
0.0
 11
127.4999999999991
 21
686.0521178681428
 31
0.0
  0
LINE
  5
B4
330
1F
100
AcDbEntity
  8
C-B
  6
Continuous
 62
     3
370
     9
100
AcDbLine
 10
121.4999999999995
 20
662.0521178681428
 30
0.0
 11
121.4999999999995
 21
686.0521178681428
 31
0.0
  0
ARC
  5
B5
330
1F
100
AcDbEntity
  8
C-B
  6
Continuous
 62
     3
370
     9
100
AcDbCircle
 10
124.499999999999
 20
686.0521178681428
 30
0.0
 40
3.0
100
AcDbArc
 50
0.0
 51
180.0
  0
ARC
  5
B6
330
1F
100
AcDbEntity
  8
C-B
  6
Continuous
 62
     3
370
     9
100
AcDbCircle
 10
124.499999999999
 20
662.0521178681428
 30
0.0
 40
3.0
100
AcDbArc
 50
180.0
 51
0.0
  0
LINE
  5
B7
330
1F
100
AcDbEntity
  8
C-B
  6
Continuous
 62
     3
370
     9
100
AcDbLine
 10
177.4999999999991
 20
662.0521178681428
 30
0.0
 11
177.4999999999991
 21
686.0521178681428
 31
0.0
  0
LINE
  5
B8
330
1F
100
AcDbEntity
  8
C-B
  6
Continuous
 62
     3
370
     9
100
AcDbLine
 10
171.4999999999995
 20
662.0521178681428
 30
0.0
 11
171.4999999999995
 21
686.0521178681428
 31
0.0
  0
ARC
  5
B9
330
1F
100
AcDbEntity
  8
C-B
  6
Continuous
 62
     3
370
     9
100
AcDbCircle
 10
174.499999999999
 20
686.0521178681428
 30
0.0
 40
3.0
100
AcDbArc
 50
0.0
 51
180.0
  0
ARC
  5
BA
330
1F
100
AcDbEntity
  8
C-B
  6
Continuous
 62
     3
370
     9
100
AcDbCircle
 10
174.499999999999
 20
662.0521178681428
 30
0.0
 40
3.0
100
AcDbArc
 50
180.0
 51
0.0
  0
LINE
  5
BB
330
1F
100
AcDbEntity
  8
C-9
  6
Continuous
 62
     6
370
     9
100
AcDbLine
 10
0.0
 20
682.1117034394321
 30
0.0
 11
21.49999999999949
 21
682.1117034394321
 31
0.0
  0
LINE
  5
BC
330
1F
100
AcDbEntity
  8
C-9
  6
Continuous
 62
     6
370
     9
100
AcDbLine
 10
0.0
 20
662.1117186982211
 30
0.0
 11
21.49999999999949
 21
662.1117186982211
 31
0.0
  0
LINE
  5
BD
330
1F
100
AcDbEntity
  8
C-9
  6
Continuous
 62
     6
370
     9
100
AcDbLine
 10
0.0
 20
667.1117186982211
 30
0.0
 11
21.49999999999949
 21
667.1117186982211
 31
0.0
  0
LINE
  5
BE
330
1F
100
AcDbEntity
  8
C-9
  6
Continuous
 62
     6
370
     9
100
AcDbLine
 10
0.0
 20
672.1117034394321
 30
0.0
 11
21.49999999999949
 21
672.1117034394321
 31
0.0
  0
LINE
  5
BF
330
1F
100
AcDbEntity
  8
C-9
  6
Continuous
 62
     6
370
     9
100
AcDbLine
 10
0.0
 20
677.1117034394321
 30
0.0
 11
21.49999999999949
 21
677.1117034394321
 31
0.0
  0
LINE
  5
C0
330
1F
100
AcDbEntity
  8
C-9
  6
Continuous
 62
   211
370
     9
100
AcDbLine
 10
27.49999999999915
 20
662.1117186982211
 30
0.0
 11
46.68595556280877
 21
662.1117186982211
 31
0.0
  0
LINE
  5
C1
330
1F
100
AcDbEntity
  8
C-9
  6
Continuous
 62
     6
370
     9
100
AcDbLine
 10
27.99993896484366
 20
687.1117034394321
 30
0.0
 11
71.9997863769531
 21
687.1117034394321
 31
0.0
  0
LINE
  5
C2
330
1F
100
AcDbEntity
  8
C-9
  6
Continuous
 62
     6
370
     9
100
AcDbLine
 10
27.49999999999915
 20
682.1117034394321
 30
0.0
 11
71.49999999999949
 21
682.1117034394321
 31
0.0
  0
LINE
  5
C3
330
1F
100
AcDbEntity
  8
C-9
  6
Continuous
 62
     6
370
     9
100
AcDbLine
 10
77.49999999999915
 20
682.1117034394321
 30
0.0
 11
121.4999999999995
 21
682.1117034394321
 31
0.0
  0
LINE
  5
C4
330
1F
100
AcDbEntity
  8
C-9
  6
Continuous
 62
     6
370
     9
100
AcDbLine
 10
127.4999999999991
 20
682.1117034394321
 30
0.0
 11
171.4999999999995
 21
682.1117034394321
 31
0.0
  0
LINE
  5
C5
330
1F
100
AcDbEntity
  8
C-9
  6
Continuous
 62
   211
370
     9
100
AcDbLine
 10
152.3066432051282
 20
662.1117186982211
 30
0.0
 11
171.4999999999995
 21
662.1117186982211
 31
0.0
  0
LINE
  5
C6
330
1F
100
AcDbEntity
  8
C-9
  6
Continuous
 62
     6
370
     9
100
AcDbLine
 10
77.99990844726551
 20
687.1117034394321
 30
0.0
 11
121.6933510342187
 21
687.1117034394321
 31
0.0
  0
LINE
  5
C7
330
1F
100
AcDbEntity
  8
C-9
  6
Continuous
 62
     6
370
     9
100
AcDbLine
 10
127.3066489657793
 20
687.1117034394321
 30
0.0
 11
171.6933510342187
 21
687.1117034394321
 31
0.0
  0
LINE
  5
C8
330
1F
100
AcDbEntity
  8
C-9
  6
Continuous
 62
     6
370
     9
100
AcDbLine
 10
127.4999999999991
 20
677.1117034394321
 30
0.0
 11
171.4999999999995
 21
677.1117034394321
 31
0.0
  0
LINE
  5
C9
330
1F
100
AcDbEntity
  8
C-9
  6
Continuous
 62
     6
370
     9
100
AcDbLine
 10
127.4999999999991
 20
662.1117186982211
 30
0.0
 11
146.6933567948699
 21
662.1117186982211
 31
0.0
  0
LINE
  5
CA
330
1F
100
AcDbEntity
  8
C-9
  6
Continuous
 62
     6
370
     9
100
AcDbLine
 10
127.4999999999991
 20
667.1117186982211
 30
0.0
 11
171.4999999999995
 21
667.1117186982211
 31
0.0
  0
LINE
  5
CB
330
1F
100
AcDbEntity
  8
C-9
  6
Continuous
 62
     6
370
     9
100
AcDbLine
 10
127.4999999999991
 20
672.1117034394321
 30
0.0
 11
171.4999999999995
 21
672.1117034394321
 31
0.0
  0
LINE
  5
CC
330
1F
100
AcDbEntity
  8
C-9
  6
Continuous
 62
   211
370
     9
100
AcDbLine
 10
102.3066432051282
 20
662.1117186982211
 30
0.0
 11
121.4999999999991
 21
662.1117186982211
 31
0.0
  0
LINE
  5
CD
330
1F
100
AcDbEntity
  8
C-9
  6
Continuous
 62
     6
370
     9
100
AcDbLine
 10
0.0
 20
657.1117186982211
 30
0.0
 11
46.49999999999949
 21
657.1117186982211
 31
0.0
  0
LINE
  5
CE
330
1F
100
AcDbEntity
  8
C-9
  6
Continuous
 62
     6
370
     9
100
AcDbLine
 10
0.0
 20
652.1117186982211
 30
0.0
 11
46.49999999999949
 21
652.1117186982211
 31
0.0
  0
LINE
  5
CF
330
1F
100
AcDbEntity
  8
C-9
  6
Continuous
 62
     6
370
     9
100
AcDbLine
 10
46.49999999999949
 20
647.1117186982211
 30
0.0
 11
0.0
 21
647.1117186982211
 31
0.0
  0
LINE
  5
D0
330
1F
100
AcDbEntity
  8
C-9
  6
Continuous
 62
     6
370
     9
100
AcDbLine
 10
46.49999999999949
 20
642.1117186982211
 30
0.0
 11
0.0
 21
642.1117186982211
 31
0.0
  0
LINE
  5
D1
330
1F
100
AcDbEntity
  8
C-9
  6
Continuous
 62
     6
370
     9
100
AcDbLine
 10
52.49999999999915
 20
657.1117186982211
 30
0.0
 11
96.49999999999949
 21
657.1117186982211
 31
0.0
  0
LINE
  5
D2
330
1F
100
AcDbEntity
  8
C-9
  6
Continuous
 62
     6
370
     9
100
AcDbLine
 10
52.49999999999915
 20
652.1117186982211
 30
0.0
 11
96.49999999999949
 21
652.1117186982211
 31
0.0
  0
LINE
  5
D3
330
1F
100
AcDbEntity
  8
C-9
  6
Continuous
 62
     6
370
     9
100
AcDbLine
 10
96.49999999999949
 20
647.1117186982211
 30
0.0
 11
52.49999999999915
 21
647.1117186982211
 31
0.0
  0
LINE
  5
D4
330
1F
100
AcDbEntity
  8
C-9
  6
Continuous
 62
     6
370
     9
100
AcDbLine
 10
96.49999999999949
 20
642.1117186982211
 30
0.0
 11
52.49999999999915
 21
642.1117186982211
 31
0.0
  0
LINE
  5
D5
330
1F
100
AcDbEntity
  8
C-9
  6
Continuous
 62
     6
370
     9
100
AcDbLine
 10
96.49999999999906
 20
637.1117186982211
 30
0.0
 11
0.0
 21
637.1117186982211
 31
0.0
  0
LINE
  5
D6
330
1F
100
AcDbEntity
  8
C-9
  6
Continuous
 62
     6
370
     9
100
AcDbLine
 10
102.4999999999991
 20
657.1117186982211
 30
0.0
 11
146.4999999999995
 21
657.1117186982211
 31
0.0
  0
LINE
  5
D7
330
1F
100
AcDbEntity
  8
C-9
  6
Continuous
 62
     6
370
     9
100
AcDbLine
 10
102.4999999999991
 20
652.1117186982211
 30
0.0
 11
146.4999999999995
 21
652.1117186982211
 31
0.0
  0
LINE
  5
D8
330
1F
100
AcDbEntity
  8
C-9
  6
Continuous
 62
     6
370
     9
100
AcDbLine
 10
146.4999999999995
 20
647.1117186982211
 30
0.0
 11
102.4999999999991
 21
647.1117186982211
 31
0.0
  0
LINE
  5
D9
330
1F
100
AcDbEntity
  8
C-9
  6
Continuous
 62
     6
370
     9
100
AcDbLine
 10
146.4999999999995
 20
642.1117186982211
 30
0.0
 11
102.4999999999991
 21
642.1117186982211
 31
0.0
  0
LINE
  5
DA
330
1F
100
AcDbEntity
  8
C-9
  6
Continuous
 62
     6
370
     9
100
AcDbLine
 10
146.4999999999991
 20
637.1117186982211
 30
0.0
 11
102.499999999999
 21
637.1117186982211
 31
0.0
  0
LINE
  5
DB
330
1F
100
AcDbEntity
  8
C-9
  6
Continuous
 62
     6
370
     9
100
AcDbLine
 10
135.1375589088806
 20
612.1117186982211
 30
0.0
 11
0.0
 21
612.1117186982211
 31
0.0
  0
LINE
  5
DC
330
1F
100
AcDbEntity
  8
C-9
  6
Continuous
 62
     6
370
     9
100
AcDbLine
 10
155.1375238137434
 20
632.1117186982211
 30
0.0
 11
0.0
 21
632.1117186982211
 31
0.0
  0
LINE
  5
DD
330
1F
100
AcDbEntity
  8
C-9
  6
Continuous
 62
     6
370
     9
100
AcDbLine
 10
140.1375501350963
 20
617.1117186982211
 30
0.0
 11
0.0
 21
617.1117186982211
 31
0.0
  0
LINE
  5
DE
330
1F
100
AcDbEntity
  8
C-9
  6
Continuous
 62
     6
370
     9
100
AcDbLine
 10
145.137541361312
 20
622.1117186982211
 30
0.0
 11
0.0
 21
622.1117186982211
 31
0.0
  0
LINE
  5
DF
330
1F
100
AcDbEntity
  8
C-9
  6
Continuous
 62
     6
370
     9
100
AcDbLine
 10
177.4999999999991
 20
682.1117034394321
 30
0.0
 11
205.1374208171382
 21
682.1117034394321
 31
0.0
  0
LINE
  5
E0
330
1F
100
AcDbEntity
  8
C-9
  6
Continuous
 62
     6
370
     9
100
AcDbLine
 10
177.4999999999991
 20
662.1117186982211
 30
0.0
 11
185.1374711710376
 21
662.1117186982211
 31
0.0
  0
LINE
  5
E1
330
1F
100
AcDbEntity
  8
C-9
  6
Continuous
 62
     6
370
     9
100
AcDbLine
 10
177.4999999999991
 20
667.1117186982211
 30
0.0
 11
190.1374623972533
 21
667.1117186982211
 31
0.0
  0
LINE
  5
E2
330
1F
100
AcDbEntity
  8
C-9
  6
Continuous
 62
     6
370
     9
100
AcDbLine
 10
177.4999999999991
 20
672.1117034394321
 30
0.0
 11
195.1374383647068
 21
672.1117034394321
 31
0.0
  0
LINE
  5
E3
330
1F
100
AcDbEntity
  8
C-9
  6
Continuous
 62
     6
370
     9
100
AcDbLine
 10
0.0
 20
692.1117034394321
 30
0.0
 11
215.1374032695696
 21
692.1117034394321
 31
0.0
  0
LINE
  5
E4
330
1F
100
AcDbEntity
  8
C-9
  6
Continuous
 62
     6
370
     9
100
AcDbLine
 10
0.0
 20
697.1117034394321
 30
0.0
 11
220.1373944957854
 21
697.1117034394321
 31
0.0
  0
LINE
  5
E5
330
1F
100
AcDbEntity
  8
C-9
  6
Continuous
 62
     6
370
     9
100
AcDbLine
 10
177.3066489657793
 20
687.1117034394321
 30
0.0
 11
210.1374120433539
 21
687.1117034394321
 31
0.0
  0
LINE
  5
E6
330
1F
100
AcDbEntity
  8
C-9
  6
Continuous
 62
     6
370
     9
100
AcDbLine
 10
152.4999999999991
 20
657.1117186982211
 30
0.0
 11
180.1374799448219
 21
657.1117186982211
 31
0.0
  0
LINE
  5
E7
330
1F
100
AcDbEntity
  8
C-9
  6
Continuous
 62
     6
370
     9
100
AcDbLine
 10
170.1374974923905
 20
647.1117186982211
 30
0.0
 11
152.4999999999991
 21
647.1117186982211
 31
0.0
  0
LINE
  5
E8
330
1F
100
AcDbEntity
  8
C-9
  6
Continuous
 62
     6
370
     9
100
AcDbLine
 10
165.1375062661747
 20
642.1117186982211
 30
0.0
 11
152.4999999999991
 21
642.1117186982211
 31
0.0
  0
LINE
  5
E9
330
1F
100
AcDbEntity
  8
C-9
  6
Continuous
 62
     6
370
     9
100
AcDbLine
 10
160.1375150399592
 20
637.1117186982211
 30
0.0
 11
152.4999999999991
 21
637.1117186982211
 31
0.0
  0
LINE
  5
EA
330
1F
100
AcDbEntity
  8
C-9
  6
Continuous
 62
     6
370
     9
100
AcDbLine
 10
150.1375325875277
 20
627.1117186982211
 30
0.0
 11
0.0
 21
627.1117186982211
 31
0.0
  0
LINE
  5
EB
330
1F
100
AcDbEntity
  8
C-9
  6
Continuous
 62
     6
370
     9
100
AcDbLine
 10
177.4999999999991
 20
677.1117034394321
 30
0.0
 11
200.1374295909226
 21
677.1117034394321
 31
0.0
  0
LINE
  5
EC
330
1F
100
AcDbEntity
  8
C-9
  6
Continuous
 62
     6
370
     9
100
AcDbLine
 10
152.4999999999991
 20
652.1117186982211
 30
0.0
 11
175.1374887186062
 21
652.1117186982211
 31
0.0
  0
LINE
  5
ED
330
1F
100
AcDbEntity
  8
C-9
  6
Continuous
 62
     6
370
     9
100
AcDbLine
 10
0.0
 20
702.1117034394321
 30
0.0
 11
225.1373857220011
 21
702.1117034394321
 31
0.0
  0
LINE
  5
EE
330
1F
100
AcDbEntity
  8
C-9
  6
Continuous
 62
     6
370
     9
100
AcDbLine
 10
27.49999999999915
 20
677.1117034394321
 30
0.0
 11
71.49999999999949
 21
677.1117034394321
 31
0.0
  0
LINE
  5
EF
330
1F
100
AcDbEntity
  8
C-9
  6
Continuous
 62
     6
370
     9
100
AcDbLine
 10
77.49999999999915
 20
677.1117034394321
 30
0.0
 11
121.4999999999995
 21
677.1117034394321
 31
0.0
  0
LINE
  5
F0
330
1F
100
AcDbEntity
  8
C-9
  6
Continuous
 62
     6
370
     9
100
AcDbLine
 10
27.49999999999915
 20
672.1117034394321
 30
0.0
 11
71.49999999999949
 21
672.1117034394321
 31
0.0
  0
LINE
  5
F1
330
1F
100
AcDbEntity
  8
C-9
  6
Continuous
 62
     6
370
     9
100
AcDbLine
 10
77.49999999999915
 20
672.1117034394321
 30
0.0
 11
121.4999999999995
 21
672.1117034394321
 31
0.0
  0
LINE
  5
F2
330
1F
100
AcDbEntity
  8
C-9
  6
Continuous
 62
     6
370
     9
100
AcDbLine
 10
27.49999999999915
 20
667.1117186982211
 30
0.0
 11
71.49999999999949
 21
667.1117186982211
 31
0.0
  0
LINE
  5
F3
330
1F
100
AcDbEntity
  8
C-9
  6
Continuous
 62
     6
370
     9
100
AcDbLine
 10
77.49999999999915
 20
667.1117186982211
 30
0.0
 11
121.4999999999995
 21
667.1117186982211
 31
0.0
  0
LINE
  5
F4
330
1F
100
AcDbEntity
  8
C-9
  6
Continuous
 62
     6
370
     9
100
AcDbLine
 10
52.30664320512815
 20
662.1117186982211
 30
0.0
 11
71.49999999999949
 21
662.1117186982211
 31
0.0
  0
LINE
  5
F5
330
1F
100
AcDbEntity
  8
C-9
  6
Continuous
 62
     6
370
     9
100
AcDbLine
 10
77.49999999999915
 20
662.1117186982211
 30
0.0
 11
97.00015258789051
 21
662.1117186982211
 31
0.0
  0
LINE
  5
F6
330
1F
100
AcDbEntity
  8
C-9
  6
Continuous
 62
     6
370
     9
100
AcDbLine
 10
-1.000091552734403
 20
680.5519500214633
 30
0.0
 11
-22.50009155273531
 21
680.5519500214633
 31
0.0
  0
LINE
  5
F7
330
1F
100
AcDbEntity
  8
C-9
  6
Continuous
 62
     6
370
     9
100
AcDbLine
 10
-1.000091552734403
 20
674.5518279511508
 30
0.0
 11
-22.50009155273531
 21
674.5518279511508
 31
0.0
  0
LINE
  5
F8
330
1F
100
AcDbEntity
  8
C-9
  6
Continuous
 62
     6
370
     9
100
AcDbLine
 10
-1.000091552734403
 20
668.5522094208774
 30
0.0
 11
-22.50009155273531
 21
668.5522094208774
 31
0.0
  0
LINE
  5
F9
330
1F
100
AcDbEntity
  8
C-9
  6
Continuous
 62
     6
370
     9
100
AcDbLine
 10
-28.50009155273497
 20
680.5519500214633
 30
0.0
 11
-72.50009155273531
 21
680.5519500214633
 31
0.0
  0
LINE
  5
FA
330
1F
100
AcDbEntity
  8
C-9
  6
Continuous
 62
     6
370
     9
100
AcDbLine
 10
-1.000091552734403
 20
656.5519500214633
 30
0.0
 11
-47.50009155273531
 21
656.5519500214633
 31
0.0
  0
LINE
  5
FB
330
1F
100
AcDbEntity
  8
C-9
  6
Continuous
 62
     6
370
     9
100
AcDbLine
 10
-1.000091552734403
 20
650.5518279511509
 30
0.0
 11
-47.50009155273531
 21
650.5518279511509
 31
0.0
  0
LINE
  5
FC
330
1F
100
AcDbEntity
  8
C-9
  6
Continuous
 62
     6
370
     9
100
AcDbLine
 10
-1.000091552734403
 20
644.5516906220494
 30
0.0
 11
-47.50009155273531
 21
644.5516906220494
 31
0.0
  0
LINE
  5
FD
330
1F
100
AcDbEntity
  8
C-9
  6
Continuous
 62
     6
370
     9
100
AcDbLine
 10
-1.000091552734403
 20
638.5520720917758
 30
0.0
 11
-47.50009155273531
 21
638.5520720917758
 31
0.0
  0
LINE
  5
FE
330
1F
100
AcDbEntity
  8
C-9
  6
Continuous
 62
     6
370
     9
100
AcDbLine
 10
-53.50009155273497
 20
656.5519500214633
 30
0.0
 11
-97.50009155273531
 21
656.5519500214633
 31
0.0
  0
LINE
  5
FF
330
1F
100
AcDbEntity
  8
C-9
  6
Continuous
 62
     6
370
     9
100
AcDbLine
 10
-53.50009155273497
 20
644.5516906220494
 30
0.0
 11
-97.50009155273531
 21
644.5516906220494
 31
0.0
  0
LINE
  5
100
330
1F
100
AcDbEntity
  8
C-9
  6
Continuous
 62
     6
370
     9
100
AcDbLine
 10
-53.50009155273497
 20
638.5520720917758
 30
0.0
 11
-97.50009155273531
 21
638.5520720917758
 31
0.0
  0
LINE
  5
101
330
1F
100
AcDbEntity
  8
C-9
  6
Continuous
 62
     6
370
     9
100
AcDbLine
 10
-28.50009155273497
 20
674.5518279511508
 30
0.0
 11
-72.50009155273531
 21
674.5518279511508
 31
0.0
  0
LINE
  5
102
330
1F
100
AcDbEntity
  8
C-9
  6
Continuous
 62
     6
370
     9
100
AcDbLine
 10
-28.50009155273497
 20
668.5522094208774
 30
0.0
 11
-72.50009155273531
 21
668.5522094208774
 31
0.0
  0
LINE
  5
103
330
1F
100
AcDbEntity
  8
C-9
  6
Continuous
 62
     6
370
     9
100
AcDbLine
 10
-78.50009155273497
 20
668.5522094208774
 30
0.0
 11
-122.5000915527353
 21
668.5522094208774
 31
0.0
  0
LINE
  5
104
330
1F
100
AcDbEntity
  8
C-9
  6
Continuous
 62
     6
370
     9
100
AcDbLine
 10
-78.50009155273497
 20
674.5518279511508
 30
0.0
 11
-122.5000915527353
 21
674.5518279511508
 31
0.0
  0
LINE
  5
105
330
1F
100
AcDbEntity
  8
C-9
  6
Continuous
 62
     6
370
     9
100
AcDbLine
 10
-103.500091552735
 20
656.5519500214633
 30
0.0
 11
-147.5000915527353
 21
656.5519500214633
 31
0.0
  0
LINE
  5
106
330
1F
100
AcDbEntity
  8
C-9
  6
Continuous
 62
     6
370
     9
100
AcDbLine
 10
-103.500091552735
 20
650.5518279511509
 30
0.0
 11
-147.5000915527353
 21
650.5518279511509
 31
0.0
  0
LINE
  5
107
330
1F
100
AcDbEntity
  8
C-9
  6
Continuous
 62
     6
370
     9
100
AcDbLine
 10
-153.500091552735
 20
656.5519500214633
 30
0.0
 11
-198.0002288818361
 21
656.5519500214633
 31
0.0
  0
LINE
  5
108
330
1F
100
AcDbEntity
  8
C-9
  6
Continuous
 62
     6
370
     9
100
AcDbLine
 10
-103.500091552735
 20
644.5516906220494
 30
0.0
 11
-147.5000915527353
 21
644.5516906220494
 31
0.0
  0
LINE
  5
109
330
1F
100
AcDbEntity
  8
C-9
  6
Continuous
 62
     6
370
     9
100
AcDbLine
 10
-103.500091552735
 20
638.5520720917758
 30
0.0
 11
-147.5000915527353
 21
638.5520720917758
 31
0.0
  0
LINE
  5
10A
330
1F
100
AcDbEntity
  8
C-9
  6
Continuous
 62
     6
370
     9
100
AcDbLine
 10
-153.500091552735
 20
650.5518279511509
 30
0.0
 11
-198.0002288818361
 21
650.5518279511509
 31
0.0
  0
LINE
  5
10B
330
1F
100
AcDbEntity
  8
C-9
  6
Continuous
 62
     6
370
     9
100
AcDbLine
 10
-128.500091552735
 20
662.5520720917758
 30
0.0
 11
-147.9019889129219
 21
662.5520720917758
 31
0.0
  0
LINE
  5
10C
330
1F
100
AcDbEntity
  8
C-9
  6
Continuous
 62
     6
370
     9
100
AcDbLine
 10
-103.0981941925489
 20
662.5520720917758
 30
0.0
 11
-122.5000915527353
 21
662.5520720917758
 31
0.0
  0
LINE
  5
10D
330
1F
100
AcDbEntity
  8
C-9
  6
Continuous
 62
     6
370
     9
100
AcDbLine
 10
-78.50009155273497
 20
662.5520720917758
 30
0.0
 11
-97.90198891292192
 21
662.5520720917758
 31
0.0
  0
LINE
  5
10E
330
1F
100
AcDbEntity
  8
C-9
  6
Continuous
 62
     6
370
     9
100
AcDbLine
 10
-53.09819419254893
 20
662.5520720917758
 30
0.0
 11
-72.50009155273531
 21
662.5520720917758
 31
0.0
  0
LINE
  5
10F
330
1F
100
AcDbEntity
  8
C-9
  6
Continuous
 62
     6
370
     9
100
AcDbLine
 10
-28.45822166691221
 20
686.5515838105259
 30
0.0
 11
-72.50009155273531
 21
686.5515838105259
 31
0.0
  0
LINE
  5
110
330
1F
100
AcDbEntity
  8
C-9
  6
Continuous
 62
     6
370
     9
100
AcDbLine
 10
-1.000091552734403
 20
662.5520720917758
 30
0.0
 11
-22.50009155273531
 21
662.5520720917758
 31
0.0
  0
LINE
  5
111
330
1F
100
AcDbEntity
  8
C-9
  6
Continuous
 62
     6
370
     9
100
AcDbLine
 10
-28.50009155273497
 20
662.5520720917758
 30
0.0
 11
-47.90198891292192
 21
662.5520720917758
 31
0.0
  0
LINE
  5
112
330
1F
100
AcDbEntity
  8
C-9
  6
Continuous
 62
     6
370
     9
100
AcDbLine
 10
-128.500091552735
 20
674.5518279511508
 30
0.0
 11
-172.5000915527353
 21
674.5518279511508
 31
0.0
  0
LINE
  5
113
330
1F
100
AcDbEntity
  8
C-9
  6
Continuous
 62
     6
370
     9
100
AcDbLine
 10
-128.500091552735
 20
668.5522094208774
 30
0.0
 11
-172.5000915527353
 21
668.5522094208774
 31
0.0
  0
LINE
  5
114
330
1F
100
AcDbEntity
  8
C-9
  6
Continuous
 62
     6
370
     9
100
AcDbLine
 10
-153.0981941925489
 20
662.5520720917758
 30
0.0
 11
-172.5000915527353
 21
662.5520720917758
 31
0.0
  0
LINE
  5
115
330
1F
100
AcDbEntity
  8
C-9
  6
Continuous
 62
     6
370
     9
100
AcDbLine
 10
-178.500091552735
 20
662.5520720917758
 30
0.0
 11
-198.4020538330078
 21
662.5520720917758
 31
0.0
  0
LINE
  5
116
330
1F
100
AcDbEntity
  8
C-9
  6
Continuous
 62
     6
370
     9
100
AcDbLine
 10
-153.500091552735
 20
644.5516906220494
 30
0.0
 11
-197.5000915527353
 21
644.5516906220494
 31
0.0
  0
LINE
  5
117
330
1F
100
AcDbEntity
  8
C-9
  6
Continuous
 62
     6
370
     9
100
AcDbLine
 10
-203.500091552735
 20
644.5516906220494
 30
0.0
 11
-252.5787015141699
 21
644.5516906220494
 31
0.0
  0
LINE
  5
118
330
1F
100
AcDbEntity
  8
C-9
  6
Continuous
 62
     6
370
     9
100
AcDbLine
 10
-153.500091552735
 20
638.5520720917758
 30
0.0
 11
-197.5000915527353
 21
638.5520720917758
 31
0.0
  0
LINE
  5
119
330
1F
100
AcDbEntity
  8
C-9
  6
Continuous
 62
     6
370
     9
100
AcDbLine
 10
-203.500091552735
 20
638.5520720917758
 30
0.0
 11
-258.5783089444047
 21
638.5520720917758
 31
0.0
  0
LINE
  5
11A
330
1F
100
AcDbEntity
  8
C-9
  6
Continuous
 62
     6
370
     9
100
AcDbLine
 10
-203.5975341796876
 20
662.5520720917758
 30
0.0
 11
-222.5000915527353
 21
662.5520720917758
 31
0.0
  0
LINE
  5
11B
330
1F
100
AcDbEntity
  8
C-9
  6
Continuous
 62
     6
370
     9
100
AcDbLine
 10
-228.500091552735
 20
662.5520720917758
 30
0.0
 11
-234.5783533473828
 21
662.5520720917758
 31
0.0
  0
LINE
  5
11C
330
1F
100
AcDbEntity
  8
C-9
  6
Continuous
 62
     6
370
     9
100
AcDbLine
 10
-178.500091552735
 20
668.5522094208774
 30
0.0
 11
-222.5000915527353
 21
668.5522094208774
 31
0.0
  0
LINE
  5
11D
330
1F
100
AcDbEntity
  8
C-9
  6
Continuous
 62
     6
370
     9
100
AcDbLine
 10
-178.500091552735
 20
674.5518279511508
 30
0.0
 11
-222.5786196890449
 21
674.5518279511508
 31
0.0
  0
LINE
  5
11E
330
1F
100
AcDbEntity
  8
C-9
  6
Continuous
 62
     6
370
     9
100
AcDbLine
 10
-1.000091552734403
 20
692.5517363984164
 30
0.0
 11
-204.5787445438435
 21
692.5517363984164
 31
0.0
  0
LINE
  5
11F
330
1F
100
AcDbEntity
  8
C-9
  6
Continuous
 62
     6
370
     9
100
AcDbLine
 10
-1.000091552734403
 20
698.551858468729
 30
0.0
 11
-198.5786335745011
 21
698.551858468729
 31
0.0
  0
LINE
  5
120
330
1F
100
AcDbEntity
  8
C-B
  6
Continuous
 62
     3
370
     9
100
AcDbLine
 10
-253.500091552735
 20
637.0521178681428
 30
0.0
 11
-253.500091552735
 21
643.6302988787953
 31
0.0
  0
LINE
  5
121
330
1F
100
AcDbEntity
  8
C-B
  6
Continuous
 62
     3
370
     9
100
AcDbLine
 10
-247.5000915527353
 20
637.0521178681428
 30
0.0
 11
-247.5000915527353
 21
649.63030997956
 31
0.0
  0
LINE
  5
122
330
1F
100
AcDbEntity
  8
C-B
  6
Continuous
 62
     3
370
     9
100
AcDbLine
 10
-228.500091552735
 20
662.0521178681428
 30
0.0
 11
-228.500091552735
 21
668.6303451319828
 31
0.0
  0
LINE
  5
123
330
1F
100
AcDbEntity
  8
C-B
  6
Continuous
 62
     3
370
     9
100
AcDbLine
 10
-222.5000915527353
 20
662.0521178681428
 30
0.0
 11
-222.5000915527353
 21
674.6303562327475
 31
0.0
  0
LINE
  5
124
330
1F
100
AcDbEntity
  8
C-9
  6
Continuous
 62
     6
370
     9
100
AcDbLine
 10
-53.50009155273497
 20
650.5518279511509
 30
0.0
 11
-97.50009155273531
 21
650.5518279511509
 31
0.0
  0
TEXT
  5
125
330
1F
100
AcDbEntity
  8
C-4
  6
Continuous
 62
     2
370
     9
100
AcDbText
 10
-317.9969849648317
 20
637.7567394352865
 30
0.0
 40
30.48
  1
25
 50
90.0
 41
1.0625
  7
ＭＳ ゴシック
100
AcDbText
  0
LINE
  5
126
330
1F
100
AcDbEntity
  8
C-4
  6
Continuous
 62
     7
370
     9
100
AcDbLine
 10
-303.1114511489869
 20
649.0520415741978
 30
0.0
 11
-303.1114511489869
 21
674.0519195038851
 31
0.0
  0
LINE
  5
127
330
1F
100
AcDbEntity
  8
C-2
  6
Continuous
 62
     3
370
     9
100
AcDbLine
 10
-771.000213623047
 20
646.5517974335727
 30
0.0
 11
-731.0000305175784
 21
676.5524383027133
 31
0.0
  0
LINE
  5
128
330
1F
100
AcDbEntity
  8
C-2
  6
Continuous
 62
     3
370
     9
100
AcDbLine
 10
-771.000213623047
 20
646.5517974335727
 30
0.0
 11
-751.0001220703127
 21
646.5517974335727
 31
0.0
  0
LINE
  5
129
330
1F
100
AcDbEntity
  8
C-2
  6
Continuous
 62
     3
370
     9
100
AcDbLine
 10
-751.0001220703127
 20
676.5524383027133
 30
0.0
 11
-731.0000305175784
 21
676.5524383027133
 31
0.0
  0
LINE
  5
12A
330
1F
100
AcDbEntity
  8
C-2
  6
Continuous
 62
     3
370
     9
100
AcDbLine
 10
729.9999084472656
 20
646.5517974335727
 30
0.0
 11
770.0000915527344
 21
676.5524383027133
 31
0.0
  0
LINE
  5
12B
330
1F
100
AcDbEntity
  8
C-2
  6
Continuous
 62
     3
370
     9
100
AcDbLine
 10
729.9999084472656
 20
646.5517974335727
 30
0.0
 11
749.9999694824219
 21
646.5517974335727
 31
0.0
  0
LINE
  5
12C
330
1F
100
AcDbEntity
  8
C-2
  6
Continuous
 62
     3
370
     9
100
AcDbLine
 10
749.9999694824219
 20
676.5524383027133
 30
0.0
 11
770.0000915527344
 21
676.5524383027133
 31
0.0
  0
LINE
  5
12D
330
1F
100
AcDbEntity
  8
C-4
  6
Continuous
 62
     7
370
     9
100
AcDbLine
 10
-175.9998016357423
 20
662.7066969702885
 30
0.0
 11
-175.9998016357423
 21
524.176744027811
 31
0.0
  0
LINE
  5
12E
330
1F
100
AcDbEntity
  8
C-2
  6
Continuous
 62
     3
370
     9
100
AcDbLine
 10
-1.000091552734403
 20
601.5521178681431
 30
0.0
 11
-500.0000915527345
 21
601.5521178681431
 31
0.0
  0
LINE
  5
12F
330
1F
100
AcDbEntity
  8
C-2
  6
Continuous
 62
     3
370
     9
100
AcDbLine
 10
498.9999694824219
 20
601.5521178681431
 30
0.0
 11
0.0
 21
601.5521178681431
 31
0.0
  0
LINE
  5
130
330
1F
100
AcDbEntity
  8
C-2
  6
Continuous
 62
     3
370
     9
100
AcDbLine
 10
-751.0001220703127
 20
601.5521178681431
 30
0.0
 11
-501.0000762939454
 21
601.5521178681431
 31
0.0
  0
LINE
  5
131
330
1F
100
AcDbEntity
  8
C-2
  6
Continuous
 62
     3
370
     9
100
AcDbLine
 10
500.0000915527343
 20
601.5521178681431
 30
0.0
 11
749.9999694824219
 21
601.5521178681431
 31
0.0
  0
LINE
  5
132
330
1F
100
AcDbEntity
  8
C-1
  6
JWW_DASHED3
 62
     2
370
     9
100
AcDbLine
 10
749.9999694824219
 20
626.5519957978305
 30
0.0
 11
-751.0001220703127
 21
626.5519957978305
 31
0.0
  0
LINE
  5
133
330
1F
100
AcDbEntity
  8
C-1
  6
Continuous
 62
     2
370
     9
100
AcDbLine
 10
749.9999694824219
 20
600.5517669159946
 30
0.0
 11
-751.0001220703127
 21
600.5517669159946
 31
0.0
  0
LINE
  5
134
330
1F
100
AcDbEntity
  8
C-5
  6
Continuous
 62
     7
370
     9
100
AcDbLine
 10
287.000030517578
 20
493.5518126923618
 30
0.0
 11
287.000030517578
 21
428.5522551972446
 31
0.0
  0
LINE
  5
135
330
1F
100
AcDbEntity
  8
C-5
  6
Continuous
 62
     7
370
     9
100
AcDbLine
 10
287.000030517578
 20
428.5522551972446
 30
0.0
 11
-288.0003967285157
 21
428.5522551972446
 31
0.0
  0
LINE
  5
136
330
1F
100
AcDbEntity
  8
C-5
  6
Continuous
 62
     7
370
     9
100
AcDbLine
 10
-288.0003967285157
 20
493.5518126923618
 30
0.0
 11
287.000030517578
 21
493.5518126923618
 31
0.0
  0
LINE
  5
137
330
1F
100
AcDbEntity
  8
C-5
  6
Continuous
 62
     7
370
     9
100
AcDbLine
 10
-288.0003967285157
 20
428.5522551972446
 30
0.0
 11
-288.0003967285157
 21
493.5518126923618
 31
0.0
  0
LINE
  5
138
330
1F
100
AcDbEntity
  8
C-5
  6
Continuous
 62
     7
370
     9
100
AcDbLine
 10
31.92752075195301
 20
605.809686227518
 30
0.0
 11
46.16876220703119
 21
585.2620940644321
 31
0.0
  0
LINE
  5
139
330
1F
100
AcDbEntity
  8
C-5
  6
Continuous
 62
     7
370
     9
100
AcDbLine
 10
31.92752075195301
 20
605.809686227518
 30
0.0
 11
40.36535644531241
 21
582.2764068085727
 31
0.0
  0
LINE
  5
13A
330
1F
100
AcDbEntity
  8
C-5
  6
Continuous
 62
     7
370
     9
100
AcDbLine
 10
68.53002929687491
 20
534.6663070160922
 30
0.0
 11
31.92752075195301
 21
605.809686227518
 31
0.0
  0
LINE
  5
13B
330
1F
100
AcDbEntity
  8
C-4
  6
Continuous
 62
     7
370
     9
100
AcDbLine
 10
-254.3907661437989
 20
527.1768050629672
 30
0.0
 11
-175.9998016357423
 21
527.1768050629672
 31
0.0
  0
LINE
  5
13C
330
1F
100
AcDbEntity
  8
C-4
  6
Continuous
 62
     7
370
     9
100
AcDbLine
 10
-175.9998016357423
 20
527.1768050629672
 30
0.0
 11
-97.01489257812511
 21
527.1768050629672
 31
0.0
  0
LINE
  5
13D
330
1F
100
AcDbEntity
  8
C-4
  6
Continuous
 62
     7
370
     9
100
AcDbLine
 10
-200.9997940063478
 20
641.7978759247836
 30
0.0
 11
-200.9997940063478
 21
524.176744027811
 31
0.0
  0
LINE
  5
13E
330
1F
100
AcDbEntity
  8
C-4
  6
Continuous
 62
     7
370
     9
100
AcDbLine
 10
-150.9998016357423
 20
641.7978759247836
 30
0.0
 11
-150.9998016357423
 21
524.176744027811
 31
0.0
  0
LINE
  5
13F
330
1F
100
AcDbEntity
  8
C-5
  6
Continuous
 62
     7
370
     9
100
AcDbLine
 10
225.2925720214843
 20
534.6663070160922
 30
0.0
 11
68.53002929687491
 21
534.6663070160922
 31
0.0
  0
LWPOLYLINE
  5
140
330
1F
100
AcDbEntity
  8
C-4
  6
Continuous
 62
     7
370
     9
100
AcDbPolyline
 90
        4
 70
     1
 43
1.0
 10
-200.4997940063478
 20
527.1768050629672
 42
0.4142135623731
 10
-200.9997940063478
 20
527.6768050629672
 42
0.4142135623731
 10
-201.4997940063478
 20
527.1768050629672
 42
0.4142135623731
 10
-200.9997940063478
 20
526.6768050629672
 42
0.4142135623731
  0
LWPOLYLINE
  5
141
330
1F
100
AcDbEntity
  8
C-4
  6
Continuous
 62
     7
370
     9
100
AcDbPolyline
 90
        4
 70
     1
 43
1.0
 10
-175.4998016357423
 20
527.1768050629672
 42
0.4142135623731
 10
-175.9998016357423
 20
527.6768050629672
 42
0.4142135623731
 10
-176.4998016357423
 20
527.1768050629672
 42
0.4142135623731
 10
-175.9998016357423
 20
526.6768050629672
 42
0.4142135623731
  0
LWPOLYLINE
  5
142
330
1F
100
AcDbEntity
  8
C-4
  6
Continuous
 62
     7
370
     9
100
AcDbPolyline
 90
        4
 70
     1
 43
1.0
 10
-150.4998016357423
 20
527.1768050629672
 42
0.4142135623731
 10
-150.9998016357423
 20
527.6768050629672
 42
0.4142135623731
 10
-151.4998016357423
 20
527.1768050629672
 42
0.4142135623731
 10
-150.9998016357423
 20
526.6768050629672
 42
0.4142135623731
  0
TEXT
  5
143
330
1F
100
AcDbEntity
  8
C-5
  6
Continuous
 62
     2
370
     9
100
AcDbText
 10
-268.0003032684327
 20
446.6919414383945
 30
0.0
 40
30.48
  1
平面詳細図　Ｓ＝１：１０
 41
1.114583333333333
  7
ＭＳ ゴシック
100
AcDbText
  0
TEXT
  5
144
330
1F
100
AcDbEntity
  8
C-4
  6
Continuous
 62
     2
370
     9
100
AcDbText
 10
-250.9487457275391
 20
537.8165761811313
 30
0.0
 40
30.48
  1
25
 41
1.0625
  7
ＭＳ ゴシック
100
AcDbText
  0
TEXT
  5
145
330
1F
100
AcDbEntity
  8
C-4
  6
Continuous
 62
     2
370
     9
100
AcDbText
 10
-141.0059509277345
 20
537.8165761811313
 30
0.0
 40
30.48
  1
25
 41
1.0625
  7
ＭＳ ゴシック
100
AcDbText
  0
TEXT
  5
146
330
1F
100
AcDbEntity
  8
C-5
  6
Continuous
 62
     2
370
     9
100
AcDbText
 10
-740.0000000000001
 20
366.4422551972445
 30
0.0
 40
30.48
  1
※表面の凹凸模様の線は蓋により異なるため、隣り合う蓋とは揃いません
 41
1.121212121212121
  7
ＭＳ ゴシック
100
AcDbText
  0
TEXT
  5
147
330
1F
100
AcDbEntity
  8
C-5
  6
Continuous
 62
     7
370
     9
100
AcDbText
 10
79.00882842508983
 20
544.907209420868
 30
0.0
 40
22.86
  1
凹凸模様
 50
359.9998801934225
 41
1.124999999999996
  7
ＭＳ ゴシック
100
AcDbText
  0
LINE
  5
148
330
1F
100
AcDbEntity
  8
C-2
  6
Continuous
 62
     3
370
     9
100
AcDbLine
 10
-751.0001220703127
 20
578.5519652802524
 30
0.0
 11
-751.0001220703127
 21
646.5517974335727
 31
0.0
  0
LINE
  5
149
330
1F
100
AcDbEntity
  8
C-2
  6
Continuous
 62
     3
370
     9
100
AcDbLine
 10
749.9999694824219
 20
646.5517974335727
 30
0.0
 11
749.9999694824219
 21
578.5519652802524
 31
0.0
  0
LINE
  5
14A
330
1F
100
AcDbEntity
  8
C-1
  6
JWW_DASHED3
 62
     2
370
     9
100
AcDbLine
 10
-751.0001220703127
 20
696.5522399384554
 30
0.0
 11
749.9999694824219
 21
696.5522399384554
 31
0.0
  0
LINE
  5
14B
330
1F
100
AcDbEntity
  8
C-2
  6
Continuous
 62
     3
370
     9
100
AcDbLine
 10
-500.0000915527345
 20
721.5521178681431
 30
0.0
 11
-1.000091552734403
 21
721.5521178681431
 31
0.0
  0
LINE
  5
14C
330
1F
100
AcDbEntity
  8
C-2
  6
Continuous
 62
     3
370
     9
100
AcDbLine
 10
0.0
 20
721.5521178681431
 30
0.0
 11
498.9999694824219
 21
721.5521178681431
 31
0.0
  0
LINE
  5
14D
330
1F
100
AcDbEntity
  8
C-2
  6
Continuous
 62
     3
370
     9
100
AcDbLine
 10
-501.0000762939454
 20
721.5521178681431
 30
0.0
 11
-751.0001220703127
 21
721.5521178681431
 31
0.0
  0
LINE
  5
14E
330
1F
100
AcDbEntity
  8
C-2
  6
Continuous
 62
     3
370
     9
100
AcDbLine
 10
500.0000915527343
 20
721.5521178681431
 30
0.0
 11
749.9999694824219
 21
721.5521178681431
 31
0.0
  0
LINE
  5
14F
330
1F
100
AcDbEntity
  8
C-4
  6
Continuous
 62
     7
370
     9
100
AcDbLine
 10
-501.0000762939454
 20
821.5520873505648
 30
0.0
 11
-500.0000915527345
 21
821.5520873505648
 31
0.0
  0
LINE
  5
150
330
1F
100
AcDbEntity
  8
C-4
  6
Continuous
 62
     7
370
     9
100
AcDbLine
 10
-501.0000762939454
 20
741.5522094208774
 30
0.0
 11
-501.0000762939454
 21
824.5521483857212
 31
0.0
  0
LINE
  5
151
330
1F
100
AcDbEntity
  8
C-4
  6
Continuous
 62
     7
370
     9
100
AcDbLine
 10
-500.0000915527345
 20
741.5522094208774
 30
0.0
 11
-500.0000915527345
 21
824.5521483857212
 31
0.0
  0
LINE
  5
152
330
1F
100
AcDbEntity
  8
C-4
  6
Continuous
 62
     7
370
     9
100
AcDbLine
 10
-1.000091552734403
 20
741.5522094208774
 30
0.0
 11
-1.000091552734403
 21
824.5521483857212
 31
0.0
  0
LINE
  5
153
330
1F
100
AcDbEntity
  8
C-4
  6
Continuous
 62
     7
370
     9
100
AcDbLine
 10
-1.000091552734403
 20
821.5520873505648
 30
0.0
 11
0.0
 21
821.5520873505648
 31
0.0
  0
LINE
  5
154
330
1F
100
AcDbEntity
  8
C-4
  6
Continuous
 62
     7
370
     9
100
AcDbLine
 10
0.0
 20
741.5522094208774
 30
0.0
 11
0.0
 21
824.5521483857212
 31
0.0
  0
LINE
  5
155
330
1F
100
AcDbEntity
  8
C-4
  6
Continuous
 62
     7
370
     9
100
AcDbLine
 10
498.9999694824219
 20
741.5522094208774
 30
0.0
 11
498.9999694824219
 21
824.5521483857212
 31
0.0
  0
LINE
  5
156
330
1F
100
AcDbEntity
  8
C-4
  6
Continuous
 62
     7
370
     9
100
AcDbLine
 10
498.9999694824219
 20
821.5520873505648
 30
0.0
 11
500.0000915527343
 21
821.5520873505648
 31
0.0
  0
LINE
  5
157
330
1F
100
AcDbEntity
  8
C-4
  6
Continuous
 62
     7
370
     9
100
AcDbLine
 10
500.0000915527343
 20
741.5522094208774
 30
0.0
 11
500.0000915527343
 21
824.5521483857212
 31
0.0
  0
LINE
  5
158
330
1F
100
AcDbEntity
  8
C-4
  6
Continuous
 62
     7
370
     9
100
AcDbLine
 10
-751.0001220703127
 20
821.5520873505648
 30
0.0
 11
-1.000091552734403
 21
821.5520873505648
 31
0.0
  0
LINE
  5
159
330
1F
100
AcDbEntity
  8
C-4
  6
Continuous
 62
     7
370
     9
100
AcDbLine
 10
0.0
 20
821.5520873505648
 30
0.0
 11
749.9999694824219
 21
821.5520873505648
 31
0.0
  0
LINE
  5
15A
330
1F
100
AcDbEntity
  8
C-4
  6
Continuous
 62
     7
370
     9
100
AcDbLine
 10
-500.0000915527345
 20
821.5520873505648
 30
0.0
 11
-500.0000915527345
 21
904.5519957978306
 31
0.0
  0
LINE
  5
15B
330
1F
100
AcDbEntity
  8
C-4
  6
Continuous
 62
     7
370
     9
100
AcDbLine
 10
0.0
 20
821.5520873505648
 30
0.0
 11
0.0
 21
904.5519957978306
 31
0.0
  0
LINE
  5
15C
330
1F
100
AcDbEntity
  8
C-4
  6
Continuous
 62
     7
370
     9
100
AcDbLine
 10
500.0000915527343
 20
821.5520873505648
 30
0.0
 11
500.0000915527343
 21
904.5519957978306
 31
0.0
  0
LINE
  5
15D
330
1F
100
AcDbEntity
  8
C-4
  6
Continuous
 62
     7
370
     9
100
AcDbLine
 10
0.0
 20
901.5519347626741
 30
0.0
 11
749.9999694824219
 21
901.5519347626741
 31
0.0
  0
LINE
  5
15E
330
1F
100
AcDbEntity
  8
C-4
  6
Continuous
 62
     7
370
     9
100
AcDbLine
 10
-751.0001220703127
 20
901.5519347626741
 30
0.0
 11
0.0
 21
901.5519347626741
 31
0.0
  0
LWPOLYLINE
  5
15F
330
1F
100
AcDbEntity
  8
C-4
  6
Continuous
 62
     7
370
     9
100
AcDbPolyline
 90
        4
 70
     1
 43
1.0
 10
-500.5000762939454
 20
821.5520873505648
 42
0.4142135623731
 10
-501.0000762939454
 20
822.0520873505648
 42
0.4142135623731
 10
-501.5000762939454
 20
821.5520873505648
 42
0.4142135623731
 10
-501.0000762939454
 20
821.0520873505648
 42
0.4142135623731
  0
LWPOLYLINE
  5
160
330
1F
100
AcDbEntity
  8
C-4
  6
Continuous
 62
     7
370
     9
100
AcDbPolyline
 90
        4
 70
     1
 43
1.0
 10
-499.5000915527345
 20
821.5520873505648
 42
0.4142135623731
 10
-500.0000915527345
 20
822.0520873505648
 42
0.4142135623731
 10
-500.5000915527344
 20
821.5520873505648
 42
0.4142135623731
 10
-500.0000915527345
 20
821.0520873505648
 42
0.4142135623731
  0
LWPOLYLINE
  5
161
330
1F
100
AcDbEntity
  8
C-4
  6
Continuous
 62
     7
370
     9
100
AcDbPolyline
 90
        4
 70
     1
 43
1.0
 10
-0.5000915527344034
 20
821.5520873505648
 42
0.4142135623731
 10
-1.000091552734403
 20
822.0520873505648
 42
0.4142135623731
 10
-1.500091552734403
 20
821.5520873505648
 42
0.4142135623731
 10
-1.000091552734403
 20
821.0520873505648
 42
0.4142135623731
  0
LWPOLYLINE
  5
162
330
1F
100
AcDbEntity
  8
C-4
  6
Continuous
 62
     7
370
     9
100
AcDbPolyline
 90
        4
 70
     1
 43
1.0
 10
0.5
 20
821.5520873505648
 42
0.4142135623731
 10
0.0
 20
822.0520873505648
 42
0.4142135623731
 10
-0.5
 20
821.5520873505648
 42
0.4142135623731
 10
0.0
 20
821.0520873505648
 42
0.4142135623731
  0
LWPOLYLINE
  5
163
330
1F
100
AcDbEntity
  8
C-4
  6
Continuous
 62
     7
370
     9
100
AcDbPolyline
 90
        4
 70
     1
 43
1.0
 10
499.4999694824219
 20
821.5520873505648
 42
0.4142135623731
 10
498.9999694824219
 20
822.0520873505648
 42
0.4142135623731
 10
498.4999694824219
 20
821.5520873505648
 42
0.4142135623731
 10
498.9999694824219
 20
821.0520873505648
 42
0.4142135623731
  0
LWPOLYLINE
  5
164
330
1F
100
AcDbEntity
  8
C-4
  6
Continuous
 62
     7
370
     9
100
AcDbPolyline
 90
        4
 70
     1
 43
1.0
 10
500.5000915527343
 20
821.5520873505648
 42
0.4142135623731
 10
500.0000915527343
 20
822.0520873505648
 42
0.4142135623731
 10
499.5000915527344
 20
821.5520873505648
 42
0.4142135623731
 10
500.0000915527343
 20
821.0520873505648
 42
0.4142135623731
  0
LWPOLYLINE
  5
165
330
1F
100
AcDbEntity
  8
C-4
  6
Continuous
 62
     7
370
     9
100
AcDbPolyline
 90
        4
 70
     1
 43
1.0
 10
-499.5000915527345
 20
901.5519347626741
 42
0.4142135623731
 10
-500.0000915527345
 20
902.0519347626741
 42
0.4142135623731
 10
-500.5000915527344
 20
901.5519347626741
 42
0.4142135623731
 10
-500.0000915527345
 20
901.0519347626741
 42
0.4142135623731
  0
LWPOLYLINE
  5
166
330
1F
100
AcDbEntity
  8
C-4
  6
Continuous
 62
     7
370
     9
100
AcDbPolyline
 90
        4
 70
     1
 43
1.0
 10
0.5
 20
901.5519347626741
 42
0.4142135623731
 10
0.0
 20
902.0519347626741
 42
0.4142135623731
 10
-0.5
 20
901.5519347626741
 42
0.4142135623731
 10
0.0
 20
901.0519347626741
 42
0.4142135623731
  0
LWPOLYLINE
  5
167
330
1F
100
AcDbEntity
  8
C-4
  6
Continuous
 62
     7
370
     9
100
AcDbPolyline
 90
        4
 70
     1
 43
1.0
 10
500.5000915527343
 20
901.5519347626741
 42
0.4142135623731
 10
500.0000915527343
 20
902.0519347626741
 42
0.4142135623731
 10
499.5000915527344
 20
901.5519347626741
 42
0.4142135623731
 10
500.0000915527343
 20
901.0519347626741
 42
0.4142135623731
  0
TEXT
  5
168
330
1F
100
AcDbEntity
  8
C-4
  6
Continuous
 62
     2
370
     9
100
AcDbText
 10
-532.0051574707032
 20
832.191873727518
 30
0.0
 40
30.48
  1
1
 41
0.9999999999999998
  7
ＭＳ ゴシック
100
AcDbText
  0
TEXT
  5
169
330
1F
100
AcDbEntity
  8
C-4
  6
Continuous
 62
     2
370
     9
100
AcDbText
 10
-283.0001258850099
 20
832.191873727518
 30
0.0
 40
30.48
  1
499
 41
1.083333333333333
  7
ＭＳ ゴシック
100
AcDbText
  0
TEXT
  5
16A
330
1F
100
AcDbEntity
  8
C-4
  6
Continuous
 62
     2
370
     9
100
AcDbText
 10
-32.00505065917966
 20
832.191873727518
 30
0.0
 40
30.48
  1
1
 41
0.9999999999999998
  7
ＭＳ ゴシック
100
AcDbText
  0
TEXT
  5
16B
330
1F
100
AcDbEntity
  8
C-4
  6
Continuous
 62
     2
370
     9
100
AcDbText
 10
216.9999694824219
 20
832.191873727518
 30
0.0
 40
30.48
  1
499
 41
1.083333333333333
  7
ＭＳ ゴシック
100
AcDbText
  0
TEXT
  5
16C
330
1F
100
AcDbEntity
  8
C-4
  6
Continuous
 62
     2
370
     9
100
AcDbText
 10
467.9950256347656
 20
832.191873727518
 30
0.0
 40
30.48
  1
1
 41
0.9999999999999998
  7
ＭＳ ゴシック
100
AcDbText
  0
TEXT
  5
16D
330
1F
100
AcDbEntity
  8
C-4
  6
Continuous
 62
     2
370
     9
100
AcDbText
 10
-282.5000739097596
 20
912.1917516572055
 30
0.0
 40
30.48
  1
500
 41
1.083333333333333
  7
ＭＳ ゴシック
100
AcDbText
  0
TEXT
  5
16E
330
1F
100
AcDbEntity
  8
C-4
  6
Continuous
 62
     2
370
     9
100
AcDbText
 10
217.5001525878906
 20
912.1917516572055
 30
0.0
 40
30.48
  1
500
 41
1.083333333333333
  7
ＭＳ ゴシック
100
AcDbText
  0
LINE
  5
16F
330
1F
100
AcDbEntity
  8
C-2
  6
Continuous
 62
     3
370
     9
100
AcDbLine
 10
-751.0001220703127
 20
676.5524383027133
 30
0.0
 11
-751.0001220703127
 21
744.5522704560335
 31
0.0
  0
LINE
  5
170
330
1F
100
AcDbEntity
  8
C-2
  6
Continuous
 62
     3
370
     9
100
AcDbLine
 10
749.9999694824219
 20
744.5522704560335
 30
0.0
 11
749.9999694824219
 21
676.5524383027133
 31
0.0
  0
LINE
  5
171
330
1F
100
AcDbEntity
  8
C-2
  6
Continuous
 62
     3
370
     9
100
AcDbLine
 10
-1.000091552734403
 20
721.5521178681431
 30
0.0
 11
-1.000091552734403
 21
601.5521178681431
 31
0.0
  0
LINE
  5
172
330
1F
100
AcDbEntity
  8
C-2
  6
Continuous
 62
     3
370
     9
100
AcDbLine
 10
0.0
 20
721.5521178681431
 30
0.0
 11
0.0
 21
601.5521178681431
 31
0.0
  0
LINE
  5
173
330
1F
100
AcDbEntity
  8
C-2
  6
Continuous
 62
     3
370
     9
100
AcDbLine
 10
-501.0000762939454
 20
601.5521178681431
 30
0.0
 11
-501.0000762939454
 21
721.5521178681431
 31
0.0
  0
LINE
  5
174
330
1F
100
AcDbEntity
  8
C-2
  6
Continuous
 62
     3
370
     9
100
AcDbLine
 10
498.9999694824219
 20
721.5521178681431
 30
0.0
 11
498.9999694824219
 21
601.5521178681431
 31
0.0
  0
LINE
  5
175
330
1F
100
AcDbEntity
  8
C-2
  6
Continuous
 62
     3
370
     9
100
AcDbLine
 10
500.0000915527343
 20
721.5521178681431
 30
0.0
 11
500.0000915527343
 21
601.5521178681431
 31
0.0
  0
LINE
  5
176
330
1F
100
AcDbEntity
  8
C-2
  6
Continuous
 62
     3
370
     9
100
AcDbLine
 10
-500.0000915527345
 20
601.5521178681431
 30
0.0
 11
-500.0000915527345
 21
721.5521178681431
 31
0.0
  0
LINE
  5
177
330
1F
100
AcDbEntity
  8
C-9
  6
Continuous
 62
     6
370
     9
100
AcDbLine
 10
230.1373769482167
 20
707.1117034394321
 30
0.0
 11
0.0
 21
707.1117034394321
 31
0.0
  0
LINE
  5
178
330
1F
100
AcDbEntity
  8
C-9
  6
Continuous
 62
     6
370
     9
100
AcDbLine
 10
235.1373681744325
 20
712.1117034394321
 30
0.0
 11
0.0
 21
712.1117034394321
 31
0.0
  0
LINE
  5
179
330
1F
100
AcDbEntity
  8
C-9
  6
Continuous
 62
     6
370
     9
100
AcDbLine
 10
240.1373594006481
 20
717.1117034394321
 30
0.0
 11
0.0
 21
717.1117034394321
 31
0.0
  0
LINE
  5
17A
330
1F
100
AcDbEntity
  8
C-9
  6
Continuous
 62
     6
370
     9
100
AcDbLine
 10
130.1375676826648
 20
607.1117186982211
 30
0.0
 11
0.0
 21
607.1117186982211
 31
0.0
  0
LINE
  5
17B
330
1F
100
AcDbEntity
  8
C-A
  6
Continuous
 62
     3
370
     9
100
AcDbLine
 10
244.5777660375114
 20
721.5521178681431
 30
0.0
 11
124.5779766083346
 21
601.5521178681431
 31
0.0
  0
LINE
  5
17C
330
1F
100
AcDbEntity
  8
C-9
  6
Continuous
 62
     6
370
     9
100
AcDbLine
 10
-1.000091552734403
 20
716.5522246796666
 30
0.0
 11
-180.5783006664747
 21
716.5522246796666
 31
0.0
  0
LINE
  5
17D
330
1F
100
AcDbEntity
  8
C-9
  6
Continuous
 62
     6
370
     9
100
AcDbLine
 10
-1.000091552734403
 20
608.5519347626741
 30
0.0
 11
-288.5783907695298
 21
608.5519347626741
 31
0.0
  0
LINE
  5
17E
330
1F
100
AcDbEntity
  8
C-9
  6
Continuous
 62
     6
370
     9
100
AcDbLine
 10
-1.000091552734403
 20
602.5518126923616
 30
0.0
 11
-294.5785017388722
 21
602.5518126923616
 31
0.0
  0
LINE
  5
17F
330
1F
100
AcDbEntity
  8
C-A
  6
Continuous
 62
     3
370
     9
100
AcDbLine
 10
-294.5785017388722
 20
602.5518126923616
 30
0.0
 11
-174.5780828858069
 21
722.5524535615023
 31
0.0
  0
LINE
  5
180
330
1F
100
AcDbEntity
  8
C-1
  6
Continuous
 62
     2
370
     9
100
AcDbLine
 10
-751.0001220703127
 20
727.5524535615023
 30
0.0
 11
749.9999694824219
 21
727.5524535615023
 31
0.0
  0
LINE
  5
181
330
1F
100
AcDbEntity
  8
C-1
  6
Continuous
 62
     2
370
     9
100
AcDbLine
 10
749.9999694824219
 20
595.5517669159946
 30
0.0
 11
-751.0001220703127
 21
595.5517669159946
 31
0.0
  0
LINE
  5
182
330
1F
100
AcDbEntity
  8
D-4
  6
Continuous
 62
     7
370
     9
100
AcDbLine
 10
-1096.948952038977
 20
-197.8382626914754
 30
0.0
 11
-524.2811721164919
 21
-197.8382626914754
 31
0.0
  0
LINE
  5
183
330
1F
100
AcDbEntity
  8
D-4
  6
Continuous
 62
     7
370
     9
100
AcDbLine
 10
-524.2811721164919
 20
-303.3017615222707
 30
0.0
 11
-524.2811721164919
 21
-194.8376981162801
 31
0.0
  0
LINE
  5
184
330
1F
100
AcDbEntity
  8
D-4
  6
Continuous
 62
     7
370
     9
100
AcDbLine
 10
-524.2811721164919
 20
-197.8382626914754
 30
0.0
 11
-399.2813342411256
 21
-197.8382626914754
 31
0.0
  0
LINE
  5
185
330
1F
100
AcDbEntity
  8
D-4
  6
Continuous
 62
     7
370
     9
100
AcDbLine
 10
-399.2813342411256
 20
-303.3017615222707
 30
0.0
 11
-399.2813342411256
 21
-86.08626760480547
 31
0.0
  0
LINE
  5
186
330
1F
100
AcDbEntity
  8
D-4
  6
Continuous
 62
     7
370
     9
100
AcDbLine
 10
-394.2810636360384
 20
-303.3017615222707
 30
0.0
 11
-394.2810636360384
 21
-86.08626760480547
 31
0.0
  0
LINE
  5
187
330
1F
100
AcDbEntity
  8
D-4
  6
Continuous
 62
     7
370
     9
100
AcDbLine
 10
-369.282185395453
 20
-303.3017615222707
 30
0.0
 11
-369.282185395453
 21
24.61039148332929
 31
0.0
  0
LINE
  5
188
330
1F
100
AcDbEntity
  8
D-4
  6
Continuous
 62
     7
370
     9
100
AcDbLine
 10
-524.2811721164919
 20
-878.8402692222371
 30
0.0
 11
-124.2803042728639
 21
-878.8402692222371
 31
0.0
  0
LINE
  5
189
330
1F
100
AcDbEntity
  8
D-4
  6
Continuous
 62
     7
370
     9
100
AcDbLine
 10
-124.2803042728639
 20
-638.6310712241902
 30
0.0
 11
-124.2803042728639
 21
-881.8398419761434
 31
0.0
  0
LINE
  5
18A
330
1F
100
AcDbEntity
  8
D-4
  6
Continuous
 62
     7
370
     9
100
AcDbLine
 10
-524.2811721164919
 20
-724.3758908653035
 30
0.0
 11
-374.2819612819887
 21
-724.3758908653035
 31
0.0
  0
LINE
  5
18B
330
1F
100
AcDbEntity
  8
D-4
  6
Continuous
 62
     7
370
     9
100
AcDbLine
 10
147.4040371578001
 20
-568.7570897483602
 30
0.0
 11
147.4040371578001
 21
-318.7574139976277
 31
0.0
  0
LINE
  5
18C
330
1F
100
AcDbEntity
  8
D-4
  6
Continuous
 62
     7
370
     9
100
AcDbLine
 10
51.74886290242902
 20
-318.7574139976277
 30
0.0
 11
150.4036099117064
 21
-318.7574139976277
 31
0.0
  0
LINE
  5
18D
330
1F
100
AcDbEntity
  8
D-6
  6
Continuous
 62
     6
370
     9
100
AcDbLine
 10
-374.2819612819887
 20
-568.7570897483602
 30
0.0
 11
-374.2819612819887
 21
-818.7567654990926
 31
0.0
  0
LINE
  5
18E
330
1F
100
AcDbEntity
  8
D-6
  6
JWW_DASHED3
 62
     6
370
     9
100
AcDbLine
 10
-280.7800715763307
 20
-696.2570706748738
 30
0.0
 11
-280.7800715763307
 21
-568.7570897483602
 31
0.0
  0
LINE
  5
18F
330
1F
100
AcDbEntity
  8
D-6
  6
JWW_DASHED3
 62
     6
370
     9
100
AcDbLine
 10
-235.7796138126589
 20
-568.7570897483602
 30
0.0
 11
-235.7796138126589
 21
-696.2570706748738
 31
0.0
  0
LINE
  5
190
330
1F
100
AcDbEntity
  8
D-6
  6
Continuous
 62
     6
370
     9
100
AcDbLine
 10
-124.281296094153
 20
-468.7576142692342
 30
0.0
 11
40.71969572713606
 21
-468.7576142692342
 31
0.0
  0
LINE
  5
191
330
1F
100
AcDbEntity
  8
D-6
  6
Continuous
 62
     6
370
     9
100
AcDbLine
 10
-124.281296094153
 20
-468.7576142692342
 30
0.0
 11
-124.281296094153
 21
-568.7570897483602
 31
0.0
  0
LINE
  5
192
330
1F
100
AcDbEntity
  8
D-4
  6
Continuous
 62
     7
370
     9
100
AcDbLine
 10
-68.5024112064577
 20
-568.7570897483602
 30
0.0
 11
150.4036099117064
 21
-568.7570897483602
 31
0.0
  0
LINE
  5
193
330
1F
100
AcDbEntity
  8
D-6
  6
Continuous
 62
     6
370
     9
100
AcDbLine
 10
-374.2819612819887
 20
-568.7570897483602
 30
0.0
 11
-124.281296094153
 21
-568.7570897483602
 31
0.0
  0
LINE
  5
194
330
1F
100
AcDbEntity
  8
D-6
  6
Continuous
 62
     6
370
     9
100
AcDbLine
 10
-280.7800715763307
 20
-371.257285251595
 30
0.0
 11
-235.7796138126589
 21
-371.257285251595
 31
0.0
  0
LINE
  5
195
330
1F
100
AcDbEntity
  8
D-6
  6
JWW_CENTER2
 62
     6
370
     9
100
AcDbLine
 10
-258.2798426944948
 20
-367.1780911826863
 30
0.0
 11
-258.2798426944948
 21
-696.2570706748738
 31
0.0
  0
LINE
  5
196
330
1F
100
AcDbEntity
  8
D-4
  6
Continuous
 62
     7
370
     9
100
AcDbLine
 10
-369.282185395453
 20
-456.7246571922078
 30
0.0
 11
-369.282185395453
 21
-528.0672017478719
 31
0.0
  0
LINE
  5
197
330
1F
100
AcDbEntity
  8
D-6
  6
Continuous
 62
     6
370
     9
100
AcDbLine
 10
-280.7800715763307
 20
-403.7570611381307
 30
0.0
 11
-280.7800715763307
 21
-371.257285251595
 31
0.0
  0
LINE
  5
198
330
1F
100
AcDbEntity
  8
D-6
  6
Continuous
 62
     6
370
     9
100
AcDbLine
 10
-235.7796138126589
 20
-403.7570611381307
 30
0.0
 11
-235.7796138126589
 21
-371.257285251595
 31
0.0
  0
LINE
  5
199
330
1F
100
AcDbEntity
  8
D-6
  6
Continuous
 62
     6
370
     9
100
AcDbLine
 10
-280.7800715763307
 20
-568.7570897483602
 30
0.0
 11
-280.7800715763307
 21
-453.7568036460652
 31
0.0
  0
LINE
  5
19A
330
1F
100
AcDbEntity
  8
D-6
  6
Continuous
 62
     6
370
     9
100
AcDbLine
 10
-235.7796138126589
 20
-568.7570897483602
 30
0.0
 11
-235.7796138126589
 21
-453.7568036460652
 31
0.0
  0
LINE
  5
19B
330
1F
100
AcDbEntity
  8
D-4
  6
Continuous
 62
     7
370
     9
100
AcDbLine
 10
-669.7636836368775
 20
-443.7572518729939
 30
0.0
 11
-669.7636836368775
 21
-318.7574139976277
 31
0.0
  0
LINE
  5
19C
330
1F
100
AcDbEntity
  8
D-4
  6
Continuous
 62
     7
370
     9
100
AcDbLine
 10
-397.4262991149164
 20
-318.7574139976277
 30
0.0
 11
-672.7642482120729
 21
-318.7574139976277
 31
0.0
  0
LINE
  5
19D
330
1F
100
AcDbEntity
  8
D-4
  6
Continuous
 62
     7
370
     9
100
AcDbLine
 10
-1096.948952038977
 20
21.60982690813398
 30
0.0
 11
-369.282185395453
 21
21.60982690813398
 31
0.0
  0
LINE
  5
19E
330
1F
100
AcDbEntity
  8
D-4
  6
Continuous
 62
     7
370
     9
100
AcDbLine
 10
-1096.948952038977
 20
-89.08584035871172
 30
0.0
 11
-333.1957095463014
 21
-89.08584035871172
 31
0.0
  0
LINE
  5
19F
330
1F
100
AcDbEntity
  8
D-4
  6
Continuous
 62
     7
370
     9
100
AcDbLine
 10
-369.282185395453
 20
-525.0666562461629
 30
0.0
 11
-224.2817538578249
 21
-525.0666562461629
 31
0.0
  0
LINE
  5
1A0
330
1F
100
AcDbEntity
  8
D-5
  6
Continuous
 62
     2
370
     9
100
AcDbLine
 10
-866.2764972049929
 20
-1014.699567928292
 30
0.0
 11
-866.2764972049929
 21
-949.699987544991
 31
0.0
  0
LINE
  5
1A1
330
1F
100
AcDbEntity
  8
D-5
  6
Continuous
 62
     2
370
     9
100
AcDbLine
 10
-866.2764972049929
 20
-949.699987544991
 30
0.0
 11
-291.2760775882936
 21
-949.699987544991
 31
0.0
  0
LINE
  5
1A2
330
1F
100
AcDbEntity
  8
D-5
  6
Continuous
 62
     2
370
     9
100
AcDbLine
 10
-291.2760775882936
 20
-949.699987544991
 30
0.0
 11
-291.2760775882936
 21
-1014.699567928292
 31
0.0
  0
LINE
  5
1A3
330
1F
100
AcDbEntity
  8
D-5
  6
Continuous
 62
     2
370
     9
100
AcDbLine
 10
-291.2760775882936
 20
-1014.699567928292
 30
0.0
 11
-866.2764972049929
 21
-1014.699567928292
 31
0.0
  0
LINE
  5
1A4
330
1F
100
AcDbEntity
  8
D-4
  6
Continuous
 62
     7
370
     9
100
AcDbLine
 10
-524.2811721164919
 20
-843.7571088218465
 30
0.0
 11
-524.2811721164919
 21
-881.8398419761434
 31
0.0
  0
LINE
  5
1A5
330
1F
100
AcDbEntity
  8
D-5
  6
Continuous
 62
     7
370
     9
100
AcDbLine
 10
-184.9365847904421
 20
-210.7085553550496
 30
0.0
 11
74.44627348592512
 21
-210.7085553550496
 31
0.0
  0
LINE
  5
1A6
330
1F
100
AcDbEntity
  8
D-5
  6
Continuous
 62
     7
370
     9
100
AcDbLine
 10
-376.2242000896669
 20
-318.7574139976277
 30
0.0
 11
-362.4135034877992
 21
-297.9189888381734
 31
0.0
  0
LINE
  5
1A7
330
1F
100
AcDbEntity
  8
D-5
  6
Continuous
 62
     7
370
     9
100
AcDbLine
 10
-376.2242000896669
 20
-318.7574139976277
 30
0.0
 11
-357.490524609778
 21
-302.2033063316121
 31
0.0
  0
LINE
  5
1A8
330
1F
100
AcDbEntity
  8
D-5
  6
Continuous
 62
     7
370
     9
100
AcDbLine
 10
-234.4319384891725
 20
-155.846284999825
 30
0.0
 11
-376.2242000896669
 21
-318.7574139976277
 31
0.0
  0
LINE
  5
1A9
330
1F
100
AcDbEntity
  8
D-5
  6
Continuous
 62
     7
370
     9
100
AcDbLine
 10
-184.9365847904421
 20
-210.7085553550496
 30
0.0
 11
-399.7649117533303
 21
-457.5342503928914
 31
0.0
  0
LINE
  5
1AA
330
1F
100
AcDbEntity
  8
D-5
  6
Continuous
 62
     7
370
     9
100
AcDbLine
 10
-234.4319384891725
 20
-155.846284999825
 30
0.0
 11
216.3584286372923
 21
-155.846284999825
 31
0.0
  0
LINE
  5
1AB
330
1F
100
AcDbEntity
  8
D-6
  6
Continuous
 62
     6
370
     9
100
AcDbLine
 10
-124.281296094153
 20
-516.0971776389852
 30
0.0
 11
-76.94124635050066
 21
-468.7571183585897
 31
0.0
  0
LINE
  5
1AC
330
1F
100
AcDbEntity
  8
D-6
  6
Continuous
 62
     6
370
     9
100
AcDbLine
 10
-374.2809718448854
 20
-766.0948697471395
 30
0.0
 11
-176.9417041141725
 21
-568.7570897483602
 31
0.0
  0
LINE
  5
1AD
330
1F
100
AcDbEntity
  8
D-6
  6
Continuous
 62
     6
370
     9
100
AcDbLine
 10
-374.2809718448854
 20
-780.2355328941121
 30
0.0
 11
-162.8010218937135
 21
-568.7570897483602
 31
0.0
  0
LINE
  5
1AE
330
1F
100
AcDbEntity
  8
D-6
  6
Continuous
 62
     6
370
     9
100
AcDbLine
 10
-124.281296094153
 20
-530.2378598594441
 30
0.0
 11
-62.80054505655535
 21
-468.7571183585897
 31
0.0
  0
LINE
  5
1AF
330
1F
100
AcDbEntity
  8
D-6
  6
Continuous
 62
     6
370
     9
100
AcDbLine
 10
-374.2809718448854
 20
-794.3762341880574
 30
0.0
 11
-148.6603396732546
 21
-568.7570897483602
 31
0.0
  0
LINE
  5
1B0
330
1F
100
AcDbEntity
  8
D-6
  6
Continuous
 62
     6
370
     9
100
AcDbLine
 10
-124.281296094153
 20
-544.3785420799031
 30
0.0
 11
-48.65988190958269
 21
-468.7571183585897
 31
0.0
  0
LINE
  5
1B1
330
1F
100
AcDbEntity
  8
D-6
  6
Continuous
 62
     6
370
     9
100
AcDbLine
 10
-35.10881837198504
 20
-818.7567654990926
 30
0.0
 11
40.71969572713606
 21
-742.928747310616
 31
0.0
  0
LINE
  5
1B2
330
1F
100
AcDbEntity
  8
D-6
  6
Continuous
 62
     6
370
     9
100
AcDbLine
 10
-49.24948151895769
 20
-818.7567654990926
 30
0.0
 11
40.71969572713606
 21
-728.7880460166707
 31
0.0
  0
LINE
  5
1B3
330
1F
100
AcDbEntity
  8
D-6
  6
Continuous
 62
     6
370
     9
100
AcDbLine
 10
-20.96811707803973
 20
-818.7567654990926
 30
0.0
 11
40.71969572713606
 21
-757.0694104575887
 31
0.0
  0
LINE
  5
1B4
330
1F
100
AcDbEntity
  8
D-0
  6
Continuous
 62
     7
370
     9
100
AcDbLine
 10
-97.43580277750262
 20
-339.7068253898397
 30
0.0
 11
-97.43580277750262
 21
-338.2065454864278
 31
0.0
  0
LINE
  5
1B5
330
1F
100
AcDbEntity
  8
D-0
  6
Continuous
 62
     7
370
     9
100
AcDbLine
 10
-97.43580277750262
 20
-338.2065454864278
 30
0.0
 11
-95.93603547403582
 21
-338.2065454864278
 31
0.0
  0
LINE
  5
1B6
330
1F
100
AcDbEntity
  8
D-0
  6
Continuous
 62
     7
370
     9
100
AcDbLine
 10
-95.93603547403582
 20
-338.2065454864278
 30
0.0
 11
-95.93603547403582
 21
-339.7068253898397
 31
0.0
  0
LINE
  5
1B7
330
1F
100
AcDbEntity
  8
D-0
  6
Continuous
 62
     7
370
     9
100
AcDbLine
 10
-95.93603547403582
 20
-339.7068253898397
 30
0.0
 11
-97.43580277750262
 21
-339.7068253898397
 31
0.0
  0
LINE
  5
1B8
330
1F
100
AcDbEntity
  8
D-0
  6
Continuous
 62
     7
370
     9
100
AcDbLine
 10
-46.67997773477801
 20
-342.4140659713521
 30
0.0
 11
-46.67997773477801
 21
-340.9137860679402
 31
0.0
  0
LINE
  5
1B9
330
1F
100
AcDbEntity
  8
D-0
  6
Continuous
 62
     7
370
     9
100
AcDbLine
 10
-46.67997773477801
 20
-340.9137860679402
 30
0.0
 11
-45.17969544718035
 21
-340.9137860679402
 31
0.0
  0
LINE
  5
1BA
330
1F
100
AcDbEntity
  8
D-0
  6
Continuous
 62
     7
370
     9
100
AcDbLine
 10
-45.17969544718035
 20
-340.9137860679402
 30
0.0
 11
-45.17969544718035
 21
-342.4140659713521
 31
0.0
  0
LINE
  5
1BB
330
1F
100
AcDbEntity
  8
D-0
  6
Continuous
 62
     7
370
     9
100
AcDbLine
 10
-45.17969544718035
 20
-342.4140659713521
 30
0.0
 11
-46.67997773477801
 21
-342.4140659713521
 31
0.0
  0
LINE
  5
1BC
330
1F
100
AcDbEntity
  8
D-0
  6
Continuous
 62
     7
370
     9
100
AcDbLine
 10
18.28786436727277
 20
-340.3836361312642
 30
0.0
 11
18.28786436727277
 21
-338.8833562278523
 31
0.0
  0
LINE
  5
1BD
330
1F
100
AcDbEntity
  8
D-0
  6
Continuous
 62
     7
370
     9
100
AcDbLine
 10
18.28786436727277
 20
-338.8833562278523
 30
0.0
 11
19.7876507442259
 21
-338.8833562278523
 31
0.0
  0
LINE
  5
1BE
330
1F
100
AcDbEntity
  8
D-0
  6
Continuous
 62
     7
370
     9
100
AcDbLine
 10
19.7876507442259
 20
-338.8833562278523
 30
0.0
 11
19.7876507442259
 21
-340.3836361312642
 31
0.0
  0
LINE
  5
1BF
330
1F
100
AcDbEntity
  8
D-0
  6
Continuous
 62
     7
370
     9
100
AcDbLine
 10
19.7876507442259
 20
-340.3836361312642
 30
0.0
 11
18.28786436727277
 21
-340.3836361312642
 31
0.0
  0
LINE
  5
1C0
330
1F
100
AcDbEntity
  8
D-0
  6
Continuous
 62
     7
370
     9
100
AcDbLine
 10
-6.075348218176444
 20
-372.8675595664754
 30
0.0
 11
-6.075348218176444
 21
-371.3672772788777
 31
0.0
  0
LINE
  5
1C1
330
1F
100
AcDbEntity
  8
D-0
  6
Continuous
 62
     7
370
     9
100
AcDbLine
 10
-6.075348218176444
 20
-371.3672772788777
 30
0.0
 11
-4.575065930578788
 21
-371.3672772788777
 31
0.0
  0
LINE
  5
1C2
330
1F
100
AcDbEntity
  8
D-0
  6
Continuous
 62
     7
370
     9
100
AcDbLine
 10
-4.575065930578788
 20
-371.3672772788777
 30
0.0
 11
-4.575065930578788
 21
-372.8675595664754
 31
0.0
  0
LINE
  5
1C3
330
1F
100
AcDbEntity
  8
D-0
  6
Continuous
 62
     7
370
     9
100
AcDbLine
 10
-4.575065930578788
 20
-372.8675595664754
 30
0.0
 11
-6.075348218176444
 21
-372.8675595664754
 31
0.0
  0
LINE
  5
1C4
330
1F
100
AcDbEntity
  8
D-0
  6
Continuous
 62
     7
370
     9
100
AcDbLine
 10
-56.64038117716082
 20
-376.7986098670735
 30
0.0
 11
-56.64038117716082
 21
-375.2983275794759
 31
0.0
  0
LINE
  5
1C5
330
1F
100
AcDbEntity
  8
D-0
  6
Continuous
 62
     7
370
     9
100
AcDbLine
 10
-56.64038117716082
 20
-375.2983275794759
 30
0.0
 11
-55.14063294718035
 21
-375.2983275794759
 31
0.0
  0
LINE
  5
1C6
330
1F
100
AcDbEntity
  8
D-0
  6
Continuous
 62
     7
370
     9
100
AcDbLine
 10
-55.14063294718035
 20
-375.2983275794759
 30
0.0
 11
-55.14063294718035
 21
-376.7986098670735
 31
0.0
  0
LINE
  5
1C7
330
1F
100
AcDbEntity
  8
D-0
  6
Continuous
 62
     7
370
     9
100
AcDbLine
 10
-55.14063294718035
 20
-376.7986098670735
 30
0.0
 11
-56.64038117716082
 21
-376.7986098670735
 31
0.0
  0
LINE
  5
1C8
330
1F
100
AcDbEntity
  8
D-0
  6
Continuous
 62
     7
370
     9
100
AcDbLine
 10
-73.74990876505144
 20
-410.7654706382527
 30
0.0
 11
-73.74990876505144
 21
-409.2651883506551
 31
0.0
  0
LINE
  5
1C9
330
1F
100
AcDbEntity
  8
D-0
  6
Continuous
 62
     7
370
     9
100
AcDbLine
 10
-73.74990876505144
 20
-409.2651883506551
 30
0.0
 11
-72.24966462442644
 21
-409.2651883506551
 31
0.0
  0
LINE
  5
1CA
330
1F
100
AcDbEntity
  8
D-0
  6
Continuous
 62
     7
370
     9
100
AcDbLine
 10
-72.24966462442644
 20
-409.2651883506551
 30
0.0
 11
-72.24966462442644
 21
-410.7654706382527
 31
0.0
  0
LINE
  5
1CB
330
1F
100
AcDbEntity
  8
D-0
  6
Continuous
 62
     7
370
     9
100
AcDbLine
 10
-72.24966462442644
 20
-410.7654706382527
 30
0.0
 11
-73.74990876505144
 21
-410.7654706382527
 31
0.0
  0
LINE
  5
1CC
330
1F
100
AcDbEntity
  8
D-0
  6
Continuous
 62
     7
370
     9
100
AcDbLine
 10
-105.1061671573854
 20
-396.1937323951497
 30
0.0
 11
-105.1061671573854
 21
-394.6934548759236
 31
0.0
  0
LINE
  5
1CD
330
1F
100
AcDbEntity
  8
D-0
  6
Continuous
 62
     7
370
     9
100
AcDbLine
 10
-105.1061671573854
 20
-394.6934548759236
 30
0.0
 11
-103.6063807804323
 21
-394.6934548759236
 31
0.0
  0
LINE
  5
1CE
330
1F
100
AcDbEntity
  8
D-0
  6
Continuous
 62
     7
370
     9
100
AcDbLine
 10
-103.6063807804323
 20
-394.6934548759236
 30
0.0
 11
-103.6063807804323
 21
-396.1937323951497
 31
0.0
  0
LINE
  5
1CF
330
1F
100
AcDbEntity
  8
D-0
  6
Continuous
 62
     7
370
     9
100
AcDbLine
 10
-103.6063807804323
 20
-396.1937323951497
 30
0.0
 11
-105.1061671573854
 21
-396.1937323951497
 31
0.0
  0
LINE
  5
1D0
330
1F
100
AcDbEntity
  8
D-0
  6
Continuous
 62
     7
370
     9
100
AcDbLine
 10
-115.8305781681276
 20
-437.4137631797566
 30
0.0
 11
-115.8305781681276
 21
-435.913480892159
 31
0.0
  0
LINE
  5
1D1
330
1F
100
AcDbEntity
  8
D-0
  6
Continuous
 62
     7
370
     9
100
AcDbLine
 10
-115.8305781681276
 20
-435.913480892159
 30
0.0
 11
-114.33029588053
 21
-435.913480892159
 31
0.0
  0
LINE
  5
1D2
330
1F
100
AcDbEntity
  8
D-0
  6
Continuous
 62
     7
370
     9
100
AcDbLine
 10
-114.33029588053
 20
-435.913480892159
 30
0.0
 11
-114.33029588053
 21
-437.4137631797566
 31
0.0
  0
LINE
  5
1D3
330
1F
100
AcDbEntity
  8
D-0
  6
Continuous
 62
     7
370
     9
100
AcDbLine
 10
-114.33029588053
 20
-437.4137631797566
 30
0.0
 11
-115.8305781681276
 21
-437.4137631797566
 31
0.0
  0
LINE
  5
1D4
330
1F
100
AcDbEntity
  8
D-0
  6
Continuous
 62
     7
370
     9
100
AcDbLine
 10
-78.48711427042254
 20
-445.9561387443318
 30
0.0
 11
-78.48711427042254
 21
-444.4558564567342
 31
0.0
  0
LINE
  5
1D5
330
1F
100
AcDbEntity
  8
D-0
  6
Continuous
 62
     7
370
     9
100
AcDbLine
 10
-78.48711427042254
 20
-444.4558564567342
 30
0.0
 11
-76.98683198282488
 21
-444.4558564567342
 31
0.0
  0
LINE
  5
1D6
330
1F
100
AcDbEntity
  8
D-0
  6
Continuous
 62
     7
370
     9
100
AcDbLine
 10
-76.98683198282488
 20
-444.4558564567342
 30
0.0
 11
-76.98683198282488
 21
-445.9561387443318
 31
0.0
  0
LINE
  5
1D7
330
1F
100
AcDbEntity
  8
D-0
  6
Continuous
 62
     7
370
     9
100
AcDbLine
 10
-76.98683198282488
 20
-445.9561387443318
 30
0.0
 11
-78.48711427042254
 21
-445.9561387443318
 31
0.0
  0
LINE
  5
1D8
330
1F
100
AcDbEntity
  8
D-0
  6
Continuous
 62
     7
370
     9
100
AcDbLine
 10
-26.28202851602801
 20
-450.6809274101033
 30
0.0
 11
-26.28202851602801
 21
-449.1806546592488
 31
0.0
  0
LINE
  5
1D9
330
1F
100
AcDbEntity
  8
D-0
  6
Continuous
 62
     7
370
     9
100
AcDbLine
 10
-26.28202851602801
 20
-449.1806546592488
 30
0.0
 11
-24.78224213907488
 21
-449.1806546592488
 31
0.0
  0
LINE
  5
1DA
330
1F
100
AcDbEntity
  8
D-0
  6
Continuous
 62
     7
370
     9
100
AcDbLine
 10
-24.78224213907488
 20
-449.1806546592488
 30
0.0
 11
-24.78224213907488
 21
-450.6809274101033
 31
0.0
  0
LINE
  5
1DB
330
1F
100
AcDbEntity
  8
D-0
  6
Continuous
 62
     7
370
     9
100
AcDbLine
 10
-24.78224213907488
 20
-450.6809274101033
 30
0.0
 11
-26.28202851602801
 21
-450.6809274101033
 31
0.0
  0
LINE
  5
1DC
330
1F
100
AcDbEntity
  8
D-0
  6
Continuous
 62
     7
370
     9
100
AcDbLine
 10
28.43904081990949
 20
-443.9257089042439
 30
0.0
 11
28.43904081990949
 21
-442.4254266166463
 31
0.0
  0
LINE
  5
1DD
330
1F
100
AcDbEntity
  8
D-0
  6
Continuous
 62
     7
370
     9
100
AcDbLine
 10
28.43904081990949
 20
-442.4254266166463
 30
0.0
 11
29.93878904988996
 21
-442.4254266166463
 31
0.0
  0
LINE
  5
1DE
330
1F
100
AcDbEntity
  8
D-0
  6
Continuous
 62
     7
370
     9
100
AcDbLine
 10
29.93878904988996
 20
-442.4254266166463
 30
0.0
 11
29.93878904988996
 21
-443.9257089042439
 31
0.0
  0
LINE
  5
1DF
330
1F
100
AcDbEntity
  8
D-0
  6
Continuous
 62
     7
370
     9
100
AcDbLine
 10
29.93878904988996
 20
-443.9257089042439
 30
0.0
 11
28.43904081990949
 21
-443.9257089042439
 31
0.0
  0
LINE
  5
1E0
330
1F
100
AcDbEntity
  8
D-0
  6
Continuous
 62
     7
370
     9
100
AcDbLine
 10
16.25741545369856
 20
-403.9978639030232
 30
0.0
 11
16.25741545369856
 21
-402.4975816154256
 31
0.0
  0
LINE
  5
1E1
330
1F
100
AcDbEntity
  8
D-0
  6
Continuous
 62
     7
370
     9
100
AcDbLine
 10
16.25741545369856
 20
-402.4975816154256
 30
0.0
 11
17.75769774129621
 21
-402.4975816154256
 31
0.0
  0
LINE
  5
1E2
330
1F
100
AcDbEntity
  8
D-0
  6
Continuous
 62
     7
370
     9
100
AcDbLine
 10
17.75769774129621
 20
-402.4975816154256
 30
0.0
 11
17.75769774129621
 21
-403.9978639030232
 31
0.0
  0
LINE
  5
1E3
330
1F
100
AcDbEntity
  8
D-0
  6
Continuous
 62
     7
370
     9
100
AcDbLine
 10
17.75769774129621
 20
-403.9978639030232
 30
0.0
 11
16.25741545369856
 21
-403.9978639030232
 31
0.0
  0
LINE
  5
1E4
330
1F
100
AcDbEntity
  8
D-0
  6
Continuous
 62
     7
370
     9
100
AcDbLine
 10
-24.77133210489519
 20
-413.1154767417684
 30
0.0
 11
-24.77133210489519
 21
-411.6151944541707
 31
0.0
  0
LINE
  5
1E5
330
1F
100
AcDbEntity
  8
D-0
  6
Continuous
 62
     7
370
     9
100
AcDbLine
 10
-24.77133210489519
 20
-411.6151944541707
 30
0.0
 11
-23.27158387491473
 21
-411.6151944541707
 31
0.0
  0
LINE
  5
1E6
330
1F
100
AcDbEntity
  8
D-0
  6
Continuous
 62
     7
370
     9
100
AcDbLine
 10
-23.27158387491473
 20
-411.6151944541707
 30
0.0
 11
-23.27158387491473
 21
-413.1154767417684
 31
0.0
  0
LINE
  5
1E7
330
1F
100
AcDbEntity
  8
D-0
  6
Continuous
 62
     7
370
     9
100
AcDbLine
 10
-23.27158387491473
 20
-413.1154767417684
 30
0.0
 11
-24.77133210489519
 21
-413.1154767417684
 31
0.0
  0
LINE
  5
1E8
330
1F
100
AcDbEntity
  8
D-0
  6
Continuous
 62
     7
370
     9
100
AcDbLine
 10
35.71347777059309
 20
-373.6271134757772
 30
0.0
 11
35.71347777059309
 21
-372.1268311881795
 31
0.0
  0
LINE
  5
1E9
330
1F
100
AcDbEntity
  8
D-0
  6
Continuous
 62
     7
370
     9
100
AcDbLine
 10
35.71347777059309
 20
-372.1268311881795
 30
0.0
 11
37.21376005819074
 21
-372.1268311881795
 31
0.0
  0
LINE
  5
1EA
330
1F
100
AcDbEntity
  8
D-0
  6
Continuous
 62
     7
370
     9
100
AcDbLine
 10
37.21376005819074
 20
-372.1268311881795
 30
0.0
 11
37.21376005819074
 21
-373.6271134757772
 31
0.0
  0
LINE
  5
1EB
330
1F
100
AcDbEntity
  8
D-0
  6
Continuous
 62
     7
370
     9
100
AcDbLine
 10
37.21376005819074
 20
-373.6271134757772
 30
0.0
 11
35.71347777059309
 21
-373.6271134757772
 31
0.0
  0
LINE
  5
1EC
330
1F
100
AcDbEntity
  8
D-0
  6
Continuous
 62
     7
370
     9
100
AcDbLine
 10
-118.2871096927858
 20
-362.7342311286702
 30
0.0
 11
-118.2871096927858
 21
-361.2339536094441
 31
0.0
  0
LINE
  5
1ED
330
1F
100
AcDbEntity
  8
D-0
  6
Continuous
 62
     7
370
     9
100
AcDbLine
 10
-118.2871096927858
 20
-361.2339536094441
 30
0.0
 11
-116.7868464786745
 21
-361.2339536094441
 31
0.0
  0
LINE
  5
1EE
330
1F
100
AcDbEntity
  8
D-0
  6
Continuous
 62
     7
370
     9
100
AcDbLine
 10
-116.7868464786745
 20
-361.2339536094441
 30
0.0
 11
-116.7868464786745
 21
-362.7342311286702
 31
0.0
  0
LINE
  5
1EF
330
1F
100
AcDbEntity
  8
D-0
  6
Continuous
 62
     7
370
     9
100
AcDbLine
 10
-116.7868464786745
 20
-362.7342311286702
 30
0.0
 11
-118.2871096927858
 21
-362.7342311286702
 31
0.0
  0
LINE
  5
1F0
330
1F
100
AcDbEntity
  8
D-0
  6
Continuous
 62
     7
370
     9
100
AcDbLine
 10
-201.6368525821901
 20
-485.9845677757039
 30
0.0
 11
-201.6368525821901
 21
-484.4842854881063
 31
0.0
  0
LINE
  5
1F1
330
1F
100
AcDbEntity
  8
D-0
  6
Continuous
 62
     7
370
     9
100
AcDbLine
 10
-201.6368525821901
 20
-484.4842854881063
 30
0.0
 11
-200.1365702945924
 21
-484.4842854881063
 31
0.0
  0
LINE
  5
1F2
330
1F
100
AcDbEntity
  8
D-0
  6
Continuous
 62
     7
370
     9
100
AcDbLine
 10
-200.1365702945924
 20
-484.4842854881063
 30
0.0
 11
-200.1365702945924
 21
-485.9845677757039
 31
0.0
  0
LINE
  5
1F3
330
1F
100
AcDbEntity
  8
D-0
  6
Continuous
 62
     7
370
     9
100
AcDbLine
 10
-200.1365702945924
 20
-485.9845677757039
 30
0.0
 11
-201.6368525821901
 21
-485.9845677757039
 31
0.0
  0
LINE
  5
1F4
330
1F
100
AcDbEntity
  8
D-0
  6
Continuous
 62
     7
370
     9
100
AcDbLine
 10
-152.2723048526979
 20
-493.8828412437215
 30
0.0
 11
-152.2723048526979
 21
-492.3825589561238
 31
0.0
  0
LINE
  5
1F5
330
1F
100
AcDbEntity
  8
D-0
  6
Continuous
 62
     7
370
     9
100
AcDbLine
 10
-152.2723048526979
 20
-492.3825589561238
 30
0.0
 11
-150.7720416385866
 21
-492.3825589561238
 31
0.0
  0
LINE
  5
1F6
330
1F
100
AcDbEntity
  8
D-0
  6
Continuous
 62
     7
370
     9
100
AcDbLine
 10
-150.7720416385866
 20
-492.3825589561238
 30
0.0
 11
-150.7720416385866
 21
-493.8828412437215
 31
0.0
  0
LINE
  5
1F7
330
1F
100
AcDbEntity
  8
D-0
  6
Continuous
 62
     7
370
     9
100
AcDbLine
 10
-150.7720416385866
 20
-493.8828412437215
 30
0.0
 11
-152.2723048526979
 21
-493.8828412437215
 31
0.0
  0
LINE
  5
1F8
330
1F
100
AcDbEntity
  8
D-0
  6
Continuous
 62
     7
370
     9
100
AcDbLine
 10
-169.1534274418092
 20
-514.4636098289266
 30
0.0
 11
-169.1534274418092
 21
-512.9633466148152
 31
0.0
  0
LINE
  5
1F9
330
1F
100
AcDbEntity
  8
D-0
  6
Continuous
 62
     7
370
     9
100
AcDbLine
 10
-169.1534274418092
 20
-512.9633466148152
 30
0.0
 11
-167.6536410648561
 21
-512.9633466148152
 31
0.0
  0
LINE
  5
1FA
330
1F
100
AcDbEntity
  8
D-0
  6
Continuous
 62
     7
370
     9
100
AcDbLine
 10
-167.6536410648561
 20
-512.9633466148152
 30
0.0
 11
-167.6536410648561
 21
-514.4636098289266
 31
0.0
  0
LINE
  5
1FB
330
1F
100
AcDbEntity
  8
D-0
  6
Continuous
 62
     7
370
     9
100
AcDbLine
 10
-167.6536410648561
 20
-514.4636098289266
 30
0.0
 11
-169.1534274418092
 21
-514.4636098289266
 31
0.0
  0
LINE
  5
1FC
330
1F
100
AcDbEntity
  8
D-0
  6
Continuous
 62
     7
370
     9
100
AcDbLine
 10
-217.4333995182253
 20
-549.1717091941609
 30
0.0
 11
-217.4333995182253
 21
-547.6714269065633
 31
0.0
  0
LINE
  5
1FD
330
1F
100
AcDbEntity
  8
D-0
  6
Continuous
 62
     7
370
     9
100
AcDbLine
 10
-217.4333995182253
 20
-547.6714269065633
 30
0.0
 11
-215.9336131412721
 21
-547.6714269065633
 31
0.0
  0
LINE
  5
1FE
330
1F
100
AcDbEntity
  8
D-0
  6
Continuous
 62
     7
370
     9
100
AcDbLine
 10
-215.9336131412721
 20
-547.6714269065633
 30
0.0
 11
-215.9336131412721
 21
-549.1717091941609
 31
0.0
  0
LINE
  5
1FF
330
1F
100
AcDbEntity
  8
D-0
  6
Continuous
 62
     7
370
     9
100
AcDbLine
 10
-215.9336131412721
 20
-549.1717091941609
 30
0.0
 11
-217.4333995182253
 21
-549.1717091941609
 31
0.0
  0
LINE
  5
200
330
1F
100
AcDbEntity
  8
D-0
  6
Continuous
 62
     7
370
     9
100
AcDbLine
 10
-146.3484805423952
 20
-547.1967641258016
 30
0.0
 11
-146.3484805423952
 21
-545.6964818382039
 31
0.0
  0
LINE
  5
201
330
1F
100
AcDbEntity
  8
D-0
  6
Continuous
 62
     7
370
     9
100
AcDbLine
 10
-146.3484805423952
 20
-545.6964818382039
 30
0.0
 11
-144.8482173282839
 21
-545.6964818382039
 31
0.0
  0
LINE
  5
202
330
1F
100
AcDbEntity
  8
D-0
  6
Continuous
 62
     7
370
     9
100
AcDbLine
 10
-144.8482173282839
 20
-545.6964818382039
 30
0.0
 11
-144.8482173282839
 21
-547.1967641258016
 31
0.0
  0
LINE
  5
203
330
1F
100
AcDbEntity
  8
D-0
  6
Continuous
 62
     7
370
     9
100
AcDbLine
 10
-144.8482173282839
 20
-547.1967641258016
 30
0.0
 11
-146.3484805423952
 21
-547.1967641258016
 31
0.0
  0
LINE
  5
204
330
1F
100
AcDbEntity
  8
D-0
  6
Continuous
 62
     7
370
     9
100
AcDbLine
 10
-203.6113017399049
 20
-515.6036893272176
 30
0.0
 11
-203.6113017399049
 21
-514.1034070396199
 31
0.0
  0
LINE
  5
205
330
1F
100
AcDbEntity
  8
D-0
  6
Continuous
 62
     7
370
     9
100
AcDbLine
 10
-203.6113017399049
 20
-514.1034070396199
 30
0.0
 11
-202.1115153629518
 21
-514.1034070396199
 31
0.0
  0
LINE
  5
206
330
1F
100
AcDbEntity
  8
D-0
  6
Continuous
 62
     7
370
     9
100
AcDbLine
 10
-202.1115153629518
 20
-514.1034070396199
 30
0.0
 11
-202.1115153629518
 21
-515.6036893272176
 31
0.0
  0
LINE
  5
207
330
1F
100
AcDbEntity
  8
D-0
  6
Continuous
 62
     7
370
     9
100
AcDbLine
 10
-202.1115153629518
 20
-515.6036893272176
 30
0.0
 11
-203.6113017399049
 21
-515.6036893272176
 31
0.0
  0
LINE
  5
208
330
1F
100
AcDbEntity
  8
D-0
  6
Continuous
 62
     7
370
     9
100
AcDbLine
 10
-171.7442363102174
 20
-471.7249719047322
 30
0.0
 11
-171.7442363102174
 21
-470.2246991538777
 31
0.0
  0
LINE
  5
209
330
1F
100
AcDbEntity
  8
D-0
  6
Continuous
 62
     7
370
     9
100
AcDbLine
 10
-171.7442363102174
 20
-470.2246991538777
 30
0.0
 11
-170.2439540226198
 21
-470.2246991538777
 31
0.0
  0
LINE
  5
20A
330
1F
100
AcDbEntity
  8
D-0
  6
Continuous
 62
     7
370
     9
100
AcDbLine
 10
-170.2439540226198
 20
-470.2246991538777
 30
0.0
 11
-170.2439540226198
 21
-471.7249719047322
 31
0.0
  0
LINE
  5
20B
330
1F
100
AcDbEntity
  8
D-0
  6
Continuous
 62
     7
370
     9
100
AcDbLine
 10
-170.2439540226198
 20
-471.7249719047322
 30
0.0
 11
-171.7442363102174
 21
-471.7249719047322
 31
0.0
  0
LINE
  5
20C
330
1F
100
AcDbEntity
  8
D-0
  6
Continuous
 62
     7
370
     9
100
AcDbLine
 10
-181.0278361637331
 20
-543.1646291160359
 30
0.0
 11
-181.0278361637331
 21
-541.6643659019246
 31
0.0
  0
LINE
  5
20D
330
1F
100
AcDbEntity
  8
D-0
  6
Continuous
 62
     7
370
     9
100
AcDbLine
 10
-181.0278361637331
 20
-541.6643659019246
 30
0.0
 11
-179.5275538761354
 21
-541.6643659019246
 31
0.0
  0
LINE
  5
20E
330
1F
100
AcDbEntity
  8
D-0
  6
Continuous
 62
     7
370
     9
100
AcDbLine
 10
-179.5275538761354
 20
-541.6643659019246
 30
0.0
 11
-179.5275538761354
 21
-543.1646291160359
 31
0.0
  0
LINE
  5
20F
330
1F
100
AcDbEntity
  8
D-0
  6
Continuous
 62
     7
370
     9
100
AcDbLine
 10
-179.5275538761354
 20
-543.1646291160359
 30
0.0
 11
-181.0278361637331
 21
-543.1646291160359
 31
0.0
  0
LINE
  5
210
330
1F
100
AcDbEntity
  8
D-0
  6
Continuous
 62
     7
370
     9
100
AcDbLine
 10
-344.1534941990114
 20
-333.2885221385732
 30
0.0
 11
-344.1534941990114
 21
-331.7882422351613
 31
0.0
  0
LINE
  5
211
330
1F
100
AcDbEntity
  8
D-0
  6
Continuous
 62
     7
370
     9
100
AcDbLine
 10
-344.1534941990114
 20
-331.7882422351613
 30
0.0
 11
-342.6532166797853
 21
-331.7882422351613
 31
0.0
  0
LINE
  5
212
330
1F
100
AcDbEntity
  8
D-0
  6
Continuous
 62
     7
370
     9
100
AcDbLine
 10
-342.6532166797853
 20
-331.7882422351613
 30
0.0
 11
-342.6532166797853
 21
-333.2885221385732
 31
0.0
  0
LINE
  5
213
330
1F
100
AcDbEntity
  8
D-0
  6
Continuous
 62
     7
370
     9
100
AcDbLine
 10
-342.6532166797853
 20
-333.2885221385732
 30
0.0
 11
-344.1534941990114
 21
-333.2885221385732
 31
0.0
  0
LINE
  5
214
330
1F
100
AcDbEntity
  8
D-0
  6
Continuous
 62
     7
370
     9
100
AcDbLine
 10
-322.9087870914674
 20
-349.0870396041646
 30
0.0
 11
-322.9087870914674
 21
-347.5867597007527
 31
0.0
  0
LINE
  5
215
330
1F
100
AcDbEntity
  8
D-0
  6
Continuous
 62
     7
370
     9
100
AcDbLine
 10
-322.9087870914674
 20
-347.5867597007527
 30
0.0
 11
-321.4085048038698
 21
-347.5867597007527
 31
0.0
  0
LINE
  5
216
330
1F
100
AcDbEntity
  8
D-0
  6
Continuous
 62
     7
370
     9
100
AcDbLine
 10
-321.4085048038698
 20
-347.5867597007527
 30
0.0
 11
-321.4085048038698
 21
-349.0870396041646
 31
0.0
  0
LINE
  5
217
330
1F
100
AcDbEntity
  8
D-0
  6
Continuous
 62
     7
370
     9
100
AcDbLine
 10
-321.4085048038698
 20
-349.0870396041646
 30
0.0
 11
-322.9087870914674
 21
-349.0870396041646
 31
0.0
  0
LINE
  5
218
330
1F
100
AcDbEntity
  8
D-0
  6
Continuous
 62
     7
370
     9
100
AcDbLine
 10
-299.0425532657839
 20
-390.1673451804891
 30
0.0
 11
-299.0425532657839
 21
-388.667067661263
 31
0.0
  0
LINE
  5
219
330
1F
100
AcDbEntity
  8
D-0
  6
Continuous
 62
     7
370
     9
100
AcDbLine
 10
-299.0425532657839
 20
-388.667067661263
 30
0.0
 11
-297.5427668888307
 21
-388.667067661263
 31
0.0
  0
LINE
  5
21A
330
1F
100
AcDbEntity
  8
D-0
  6
Continuous
 62
     7
370
     9
100
AcDbLine
 10
-297.5427668888307
 20
-388.667067661263
 30
0.0
 11
-297.5427668888307
 21
-390.1673451804891
 31
0.0
  0
LINE
  5
21B
330
1F
100
AcDbEntity
  8
D-0
  6
Continuous
 62
     7
370
     9
100
AcDbLine
 10
-297.5427668888307
 20
-390.1673451804891
 30
0.0
 11
-299.0425532657839
 21
-390.1673451804891
 31
0.0
  0
LINE
  5
21C
330
1F
100
AcDbEntity
  8
D-0
  6
Continuous
 62
     7
370
     9
100
AcDbLine
 10
-253.2780783970094
 20
-337.2111491107717
 30
0.0
 11
-253.2780783970094
 21
-335.7108692073598
 31
0.0
  0
LINE
  5
21D
330
1F
100
AcDbEntity
  8
D-0
  6
Continuous
 62
     7
370
     9
100
AcDbLine
 10
-253.2780783970094
 20
-335.7108692073598
 30
0.0
 11
-251.7783015567995
 21
-335.7108692073598
 31
0.0
  0
LINE
  5
21E
330
1F
100
AcDbEntity
  8
D-0
  6
Continuous
 62
     7
370
     9
100
AcDbLine
 10
-251.7783015567995
 20
-335.7108692073598
 30
0.0
 11
-251.7783015567995
 21
-337.2111491107717
 31
0.0
  0
LINE
  5
21F
330
1F
100
AcDbEntity
  8
D-0
  6
Continuous
 62
     7
370
     9
100
AcDbLine
 10
-251.7783015567995
 20
-337.2111491107717
 30
0.0
 11
-253.2780783970094
 21
-337.2111491107717
 31
0.0
  0
LINE
  5
220
330
1F
100
AcDbEntity
  8
D-0
  6
Continuous
 62
     7
370
     9
100
AcDbLine
 10
-205.7200091678835
 20
-331.8130163097157
 30
0.0
 11
-205.7200091678835
 21
-330.3127364063039
 31
0.0
  0
LINE
  5
221
330
1F
100
AcDbEntity
  8
D-0
  6
Continuous
 62
     7
370
     9
100
AcDbLine
 10
-205.7200091678835
 20
-330.3127364063039
 30
0.0
 11
-204.2202227909303
 21
-330.3127364063039
 31
0.0
  0
LINE
  5
222
330
1F
100
AcDbEntity
  8
D-0
  6
Continuous
 62
     7
370
     9
100
AcDbLine
 10
-204.2202227909303
 20
-330.3127364063039
 30
0.0
 11
-204.2202227909303
 21
-331.8130163097157
 31
0.0
  0
LINE
  5
223
330
1F
100
AcDbEntity
  8
D-0
  6
Continuous
 62
     7
370
     9
100
AcDbLine
 10
-204.2202227909303
 20
-331.8130163097157
 30
0.0
 11
-205.7200091678835
 21
-331.8130163097157
 31
0.0
  0
LINE
  5
224
330
1F
100
AcDbEntity
  8
D-0
  6
Continuous
 62
     7
370
     9
100
AcDbLine
 10
-225.3336375553346
 20
-353.3877078437581
 30
0.0
 11
-225.3336375553346
 21
-351.887430324532
 31
0.0
  0
LINE
  5
225
330
1F
100
AcDbEntity
  8
D-0
  6
Continuous
 62
     7
370
     9
100
AcDbLine
 10
-225.3336375553346
 20
-351.887430324532
 30
0.0
 11
-223.833355267737
 21
-351.887430324532
 31
0.0
  0
LINE
  5
226
330
1F
100
AcDbEntity
  8
D-0
  6
Continuous
 62
     7
370
     9
100
AcDbLine
 10
-223.833355267737
 20
-351.887430324532
 30
0.0
 11
-223.833355267737
 21
-353.3877078437581
 31
0.0
  0
LINE
  5
227
330
1F
100
AcDbEntity
  8
D-0
  6
Continuous
 62
     7
370
     9
100
AcDbLine
 10
-223.833355267737
 20
-353.3877078437581
 30
0.0
 11
-225.3336375553346
 21
-353.3877078437581
 31
0.0
  0
LINE
  5
228
330
1F
100
AcDbEntity
  8
D-0
  6
Continuous
 62
     7
370
     9
100
AcDbLine
 10
-200.9758990604616
 20
-389.5138255500569
 30
0.0
 11
-200.9758990604616
 21
-388.0135432624593
 31
0.0
  0
LINE
  5
229
330
1F
100
AcDbEntity
  8
D-0
  6
Continuous
 62
     7
370
     9
100
AcDbLine
 10
-200.9758990604616
 20
-388.0135432624593
 30
0.0
 11
-199.4756167728639
 21
-388.0135432624593
 31
0.0
  0
LINE
  5
22A
330
1F
100
AcDbEntity
  8
D-0
  6
Continuous
 62
     7
370
     9
100
AcDbLine
 10
-199.4756167728639
 20
-388.0135432624593
 30
0.0
 11
-199.4756167728639
 21
-389.5138255500569
 31
0.0
  0
LINE
  5
22B
330
1F
100
AcDbEntity
  8
D-0
  6
Continuous
 62
     7
370
     9
100
AcDbLine
 10
-199.4756167728639
 20
-389.5138255500569
 30
0.0
 11
-200.9758990604616
 21
-389.5138255500569
 31
0.0
  0
LINE
  5
22C
330
1F
100
AcDbEntity
  8
D-0
  6
Continuous
 62
     7
370
     9
100
AcDbLine
 10
-197.0527880985475
 20
-428.0865613364949
 30
0.0
 11
-197.0527880985475
 21
-426.5862790488973
 31
0.0
  0
LINE
  5
22D
330
1F
100
AcDbEntity
  8
D-0
  6
Continuous
 62
     7
370
     9
100
AcDbLine
 10
-197.0527880985475
 20
-426.5862790488973
 30
0.0
 11
-195.5530017215944
 21
-426.5862790488973
 31
0.0
  0
LINE
  5
22E
330
1F
100
AcDbEntity
  8
D-0
  6
Continuous
 62
     7
370
     9
100
AcDbLine
 10
-195.5530017215944
 20
-426.5862790488973
 30
0.0
 11
-195.5530017215944
 21
-428.0865613364949
 31
0.0
  0
LINE
  5
22F
330
1F
100
AcDbEntity
  8
D-0
  6
Continuous
 62
     7
370
     9
100
AcDbLine
 10
-195.5530017215944
 20
-428.0865613364949
 30
0.0
 11
-197.0527880985475
 21
-428.0865613364949
 31
0.0
  0
LINE
  5
230
330
1F
100
AcDbEntity
  8
D-0
  6
Continuous
 62
     7
370
     9
100
AcDbLine
 10
-272.721762021277
 20
-351.7125288390889
 30
0.0
 11
-272.721762021277
 21
-350.2122489356771
 31
0.0
  0
LINE
  5
231
330
1F
100
AcDbEntity
  8
D-0
  6
Continuous
 62
     7
370
     9
100
AcDbLine
 10
-272.721762021277
 20
-350.2122489356771
 30
0.0
 11
-271.2214797336794
 21
-350.2122489356771
 31
0.0
  0
LINE
  5
232
330
1F
100
AcDbEntity
  8
D-0
  6
Continuous
 62
     7
370
     9
100
AcDbLine
 10
-271.2214797336794
 20
-350.2122489356771
 30
0.0
 11
-271.2214797336794
 21
-351.7125288390889
 31
0.0
  0
LINE
  5
233
330
1F
100
AcDbEntity
  8
D-0
  6
Continuous
 62
     7
370
     9
100
AcDbLine
 10
-271.2214797336794
 20
-351.7125288390889
 30
0.0
 11
-272.721762021277
 21
-351.7125288390889
 31
0.0
  0
LINE
  5
234
330
1F
100
AcDbEntity
  8
D-0
  6
Continuous
 62
     7
370
     9
100
AcDbLine
 10
-351.0038464863039
 20
-479.1515485191121
 30
0.0
 11
-351.0038464863039
 21
-477.6512757682576
 31
0.0
  0
LINE
  5
235
330
1F
100
AcDbEntity
  8
D-0
  6
Continuous
 62
     7
370
     9
100
AcDbLine
 10
-351.0038464863039
 20
-477.6512757682576
 30
0.0
 11
-349.5035689670778
 21
-477.6512757682576
 31
0.0
  0
LINE
  5
236
330
1F
100
AcDbEntity
  8
D-0
  6
Continuous
 62
     7
370
     9
100
AcDbLine
 10
-349.5035689670778
 20
-477.6512757682576
 30
0.0
 11
-349.5035689670778
 21
-479.1515485191121
 31
0.0
  0
LINE
  5
237
330
1F
100
AcDbEntity
  8
D-0
  6
Continuous
 62
     7
370
     9
100
AcDbLine
 10
-349.5035689670778
 20
-479.1515485191121
 30
0.0
 11
-351.0038464863039
 21
-479.1515485191121
 31
0.0
  0
LINE
  5
238
330
1F
100
AcDbEntity
  8
D-0
  6
Continuous
 62
     7
370
     9
100
AcDbLine
 10
-501.7749923069215
 20
-468.2130948447957
 30
0.0
 11
-501.7749923069215
 21
-466.712812557198
 31
0.0
  0
LINE
  5
239
330
1F
100
AcDbEntity
  8
D-0
  6
Continuous
 62
     7
370
     9
100
AcDbLine
 10
-501.7749923069215
 20
-466.712812557198
 30
0.0
 11
-500.2747195560671
 21
-466.712812557198
 31
0.0
  0
LINE
  5
23A
330
1F
100
AcDbEntity
  8
D-0
  6
Continuous
 62
     7
370
     9
100
AcDbLine
 10
-500.2747195560671
 20
-466.712812557198
 30
0.0
 11
-500.2747195560671
 21
-468.2130948447957
 31
0.0
  0
LINE
  5
23B
330
1F
100
AcDbEntity
  8
D-0
  6
Continuous
 62
     7
370
     9
100
AcDbLine
 10
-500.2747195560671
 20
-468.2130948447957
 30
0.0
 11
-501.7749923069215
 21
-468.2130948447957
 31
0.0
  0
LINE
  5
23C
330
1F
100
AcDbEntity
  8
D-0
  6
Continuous
 62
     7
370
     9
100
AcDbLine
 10
-442.5367492038942
 20
-572.8665105247273
 30
0.0
 11
-442.5367492038942
 21
-571.3662282371297
 31
0.0
  0
LINE
  5
23D
330
1F
100
AcDbEntity
  8
D-0
  6
Continuous
 62
     7
370
     9
100
AcDbLine
 10
-442.5367492038942
 20
-571.3662282371297
 30
0.0
 11
-441.0369675953127
 21
-571.3662282371297
 31
0.0
  0
LINE
  5
23E
330
1F
100
AcDbEntity
  8
D-0
  6
Continuous
 62
     7
370
     9
100
AcDbLine
 10
-441.0369675953127
 20
-571.3662282371297
 30
0.0
 11
-441.0369675953127
 21
-572.8665105247273
 31
0.0
  0
LINE
  5
23F
330
1F
100
AcDbEntity
  8
D-0
  6
Continuous
 62
     7
370
     9
100
AcDbLine
 10
-441.0369675953127
 20
-572.8665105247273
 30
0.0
 11
-442.5367492038942
 21
-572.8665105247273
 31
0.0
  0
LINE
  5
240
330
1F
100
AcDbEntity
  8
D-0
  6
Continuous
 62
     7
370
     9
100
AcDbLine
 10
-456.3593381244875
 20
-632.1042577171102
 30
0.0
 11
-456.3593381244875
 21
-630.6039754295125
 31
0.0
  0
LINE
  5
241
330
1F
100
AcDbEntity
  8
D-0
  6
Continuous
 62
     7
370
     9
100
AcDbLine
 10
-456.3593381244875
 20
-630.6039754295125
 30
0.0
 11
-454.8590558368898
 21
-630.6039754295125
 31
0.0
  0
LINE
  5
242
330
1F
100
AcDbEntity
  8
D-0
  6
Continuous
 62
     7
370
     9
100
AcDbLine
 10
-454.8590558368898
 20
-630.6039754295125
 30
0.0
 11
-454.8590558368898
 21
-632.1042577171102
 31
0.0
  0
LINE
  5
243
330
1F
100
AcDbEntity
  8
D-0
  6
Continuous
 62
     7
370
     9
100
AcDbLine
 10
-454.8590558368898
 20
-632.1042577171102
 30
0.0
 11
-456.3593381244875
 21
-632.1042577171102
 31
0.0
  0
LINE
  5
244
330
1F
100
AcDbEntity
  8
D-0
  6
Continuous
 62
     7
370
     9
100
AcDbLine
 10
-486.9654315311647
 20
-642.9644528770223
 30
0.0
 11
-486.9654315311647
 21
-641.4641705894246
 31
0.0
  0
LINE
  5
245
330
1F
100
AcDbEntity
  8
D-0
  6
Continuous
 62
     7
370
     9
100
AcDbLine
 10
-486.9654315311647
 20
-641.4641705894246
 30
0.0
 11
-485.4651587803102
 21
-641.4641705894246
 31
0.0
  0
LINE
  5
246
330
1F
100
AcDbEntity
  8
D-0
  6
Continuous
 62
     7
370
     9
100
AcDbLine
 10
-485.4651587803102
 20
-641.4641705894246
 30
0.0
 11
-485.4651587803102
 21
-642.9644528770223
 31
0.0
  0
LINE
  5
247
330
1F
100
AcDbEntity
  8
D-0
  6
Continuous
 62
     7
370
     9
100
AcDbLine
 10
-485.4651587803102
 20
-642.9644528770223
 30
0.0
 11
-486.9654315311647
 21
-642.9644528770223
 31
0.0
  0
LINE
  5
248
330
1F
100
AcDbEntity
  8
D-0
  6
Continuous
 62
     7
370
     9
100
AcDbLine
 10
-509.818929990027
 20
-576.8158856773152
 30
0.0
 11
-509.818929990027
 21
-575.3156033897176
 31
0.0
  0
LINE
  5
249
330
1F
100
AcDbEntity
  8
D-0
  6
Continuous
 62
     7
370
     9
100
AcDbLine
 10
-509.818929990027
 20
-575.3156033897176
 30
0.0
 11
-508.3191436130739
 21
-575.3156033897176
 31
0.0
  0
LINE
  5
24A
330
1F
100
AcDbEntity
  8
D-0
  6
Continuous
 62
     7
370
     9
100
AcDbLine
 10
-508.3191436130739
 20
-575.3156033897176
 30
0.0
 11
-508.3191436130739
 21
-576.8158856773152
 31
0.0
  0
LINE
  5
24B
330
1F
100
AcDbEntity
  8
D-0
  6
Continuous
 62
     7
370
     9
100
AcDbLine
 10
-508.3191436130739
 20
-576.8158856773152
 30
0.0
 11
-509.818929990027
 21
-576.8158856773152
 31
0.0
  0
LINE
  5
24C
330
1F
100
AcDbEntity
  8
D-0
  6
Continuous
 62
     7
370
     9
100
AcDbLine
 10
-484.0035193760133
 20
-555.0955335044637
 30
0.0
 11
-484.0035193760133
 21
-553.595251216866
 31
0.0
  0
LINE
  5
24D
330
1F
100
AcDbEntity
  8
D-0
  6
Continuous
 62
     7
370
     9
100
AcDbLine
 10
-484.0035193760133
 20
-553.595251216866
 30
0.0
 11
-482.5032466251589
 21
-553.595251216866
 31
0.0
  0
LINE
  5
24E
330
1F
100
AcDbEntity
  8
D-0
  6
Continuous
 62
     7
370
     9
100
AcDbLine
 10
-482.5032466251589
 20
-553.595251216866
 30
0.0
 11
-482.5032466251589
 21
-555.0955335044637
 31
0.0
  0
LINE
  5
24F
330
1F
100
AcDbEntity
  8
D-0
  6
Continuous
 62
     7
370
     9
100
AcDbLine
 10
-482.5032466251589
 20
-555.0955335044637
 30
0.0
 11
-484.0035193760133
 21
-555.0955335044637
 31
0.0
  0
LINE
  5
250
330
1F
100
AcDbEntity
  8
D-0
  6
Continuous
 62
     7
370
     9
100
AcDbLine
 10
-420.8163898784853
 20
-607.5884572410359
 30
0.0
 11
-420.8163898784853
 21
-606.0881749534383
 31
0.0
  0
LINE
  5
251
330
1F
100
AcDbEntity
  8
D-0
  6
Continuous
 62
     7
370
     9
100
AcDbLine
 10
-420.8163898784853
 20
-606.0881749534383
 30
0.0
 11
-419.3166058857179
 21
-606.0881749534383
 31
0.0
  0
LINE
  5
252
330
1F
100
AcDbEntity
  8
D-0
  6
Continuous
 62
     7
370
     9
100
AcDbLine
 10
-419.3166058857179
 20
-606.0881749534383
 30
0.0
 11
-419.3166058857179
 21
-607.5884572410359
 31
0.0
  0
LINE
  5
253
330
1F
100
AcDbEntity
  8
D-0
  6
Continuous
 62
     7
370
     9
100
AcDbLine
 10
-419.3166058857179
 20
-607.5884572410359
 30
0.0
 11
-420.8163898784853
 21
-607.5884572410359
 31
0.0
  0
LINE
  5
254
330
1F
100
AcDbEntity
  8
D-0
  6
Continuous
 62
     7
370
     9
100
AcDbLine
 10
-497.8256171543337
 20
-745.4675046348348
 30
0.0
 11
-497.8256171543337
 21
-743.9672223472371
 31
0.0
  0
LINE
  5
255
330
1F
100
AcDbEntity
  8
D-0
  6
Continuous
 62
     7
370
     9
100
AcDbLine
 10
-497.8256171543337
 20
-743.9672223472371
 30
0.0
 11
-496.3258307773805
 21
-743.9672223472371
 31
0.0
  0
LINE
  5
256
330
1F
100
AcDbEntity
  8
D-0
  6
Continuous
 62
     7
370
     9
100
AcDbLine
 10
-496.3258307773805
 20
-743.9672223472371
 30
0.0
 11
-496.3258307773805
 21
-745.4675046348348
 31
0.0
  0
LINE
  5
257
330
1F
100
AcDbEntity
  8
D-0
  6
Continuous
 62
     7
370
     9
100
AcDbLine
 10
-496.3258307773805
 20
-745.4675046348348
 30
0.0
 11
-497.8256171543337
 21
-745.4675046348348
 31
0.0
  0
LINE
  5
258
330
1F
100
AcDbEntity
  8
D-0
  6
Continuous
 62
     7
370
     9
100
AcDbLine
 10
-427.4353569347597
 20
-749.1795483970418
 30
0.0
 11
-427.4353569347597
 21
-747.6792661094441
 31
0.0
  0
LINE
  5
259
330
1F
100
AcDbEntity
  8
D-0
  6
Continuous
 62
     7
370
     9
100
AcDbLine
 10
-427.4353569347597
 20
-747.6792661094441
 30
0.0
 11
-425.9355729419923
 21
-747.6792661094441
 31
0.0
  0
LINE
  5
25A
330
1F
100
AcDbEntity
  8
D-0
  6
Continuous
 62
     7
370
     9
100
AcDbLine
 10
-425.9355729419923
 20
-747.6792661094441
 30
0.0
 11
-425.9355729419923
 21
-749.1795483970418
 31
0.0
  0
LINE
  5
25B
330
1F
100
AcDbEntity
  8
D-0
  6
Continuous
 62
     7
370
     9
100
AcDbLine
 10
-425.9355729419923
 20
-749.1795483970418
 30
0.0
 11
-427.4353569347597
 21
-749.1795483970418
 31
0.0
  0
LINE
  5
25C
330
1F
100
AcDbEntity
  8
D-0
  6
Continuous
 62
     7
370
     9
100
AcDbLine
 10
-403.0449151594377
 20
-775.0861493491902
 30
0.0
 11
-403.0449151594377
 21
-773.5858670615926
 31
0.0
  0
LINE
  5
25D
330
1F
100
AcDbEntity
  8
D-0
  6
Continuous
 62
     7
370
     9
100
AcDbLine
 10
-403.0449151594377
 20
-773.5858670615926
 30
0.0
 11
-401.5451310176588
 21
-773.5858670615926
 31
0.0
  0
LINE
  5
25E
330
1F
100
AcDbEntity
  8
D-0
  6
Continuous
 62
     7
370
     9
100
AcDbLine
 10
-401.5451310176588
 20
-773.5858670615926
 30
0.0
 11
-401.5451310176588
 21
-775.0861493491902
 31
0.0
  0
LINE
  5
25F
330
1F
100
AcDbEntity
  8
D-0
  6
Continuous
 62
     7
370
     9
100
AcDbLine
 10
-401.5451310176588
 20
-775.0861493491902
 30
0.0
 11
-403.0449151594377
 21
-775.0861493491902
 31
0.0
  0
LINE
  5
260
330
1F
100
AcDbEntity
  8
D-0
  6
Continuous
 62
     7
370
     9
100
AcDbLine
 10
-396.7663347322679
 20
-813.2981625938191
 30
0.0
 11
-396.7663347322679
 21
-811.7978803062215
 31
0.0
  0
LINE
  5
261
330
1F
100
AcDbEntity
  8
D-0
  6
Continuous
 62
     7
370
     9
100
AcDbLine
 10
-396.7663347322679
 20
-811.7978803062215
 30
0.0
 11
-395.2660554249025
 21
-811.7978803062215
 31
0.0
  0
LINE
  5
262
330
1F
100
AcDbEntity
  8
D-0
  6
Continuous
 62
     7
370
     9
100
AcDbLine
 10
-395.2660554249025
 20
-811.7978803062215
 30
0.0
 11
-395.2660554249025
 21
-813.2981625938191
 31
0.0
  0
LINE
  5
263
330
1F
100
AcDbEntity
  8
D-0
  6
Continuous
 62
     7
370
     9
100
AcDbLine
 10
-395.2660554249025
 20
-813.2981625938191
 30
0.0
 11
-396.7663347322679
 21
-813.2981625938191
 31
0.0
  0
LINE
  5
264
330
1F
100
AcDbEntity
  8
D-0
  6
Continuous
 62
     7
370
     9
100
AcDbLine
 10
-470.994991620276
 20
-818.7567654990926
 30
0.0
 11
-470.994991620276
 21
-817.2564832114949
 31
0.0
  0
LINE
  5
265
330
1F
100
AcDbEntity
  8
D-0
  6
Continuous
 62
     7
370
     9
100
AcDbLine
 10
-470.994991620276
 20
-817.2564832114949
 30
0.0
 11
-469.4947093326784
 21
-817.2564832114949
 31
0.0
  0
LINE
  5
266
330
1F
100
AcDbEntity
  8
D-0
  6
Continuous
 62
     7
370
     9
100
AcDbLine
 10
-469.4947093326784
 20
-817.2564832114949
 30
0.0
 11
-469.4947093326784
 21
-818.7567654990926
 31
0.0
  0
LINE
  5
267
330
1F
100
AcDbEntity
  8
D-0
  6
Continuous
 62
     7
370
     9
100
AcDbLine
 10
-469.4947093326784
 20
-818.7567654990926
 30
0.0
 11
-470.994991620276
 21
-818.7567654990926
 31
0.0
  0
LINE
  5
268
330
1F
100
AcDbEntity
  8
D-0
  6
Continuous
 62
     7
370
     9
100
AcDbLine
 10
-505.7238810856081
 20
-809.4602719688191
 30
0.0
 11
-505.7238810856081
 21
-807.9599896812215
 31
0.0
  0
LINE
  5
269
330
1F
100
AcDbEntity
  8
D-0
  6
Continuous
 62
     7
370
     9
100
AcDbLine
 10
-505.7238810856081
 20
-807.9599896812215
 30
0.0
 11
-504.2235987980104
 21
-807.9599896812215
 31
0.0
  0
LINE
  5
26A
330
1F
100
AcDbEntity
  8
D-0
  6
Continuous
 62
     7
370
     9
100
AcDbLine
 10
-504.2235987980104
 20
-807.9599896812215
 30
0.0
 11
-504.2235987980104
 21
-809.4602719688191
 31
0.0
  0
LINE
  5
26B
330
1F
100
AcDbEntity
  8
D-0
  6
Continuous
 62
     7
370
     9
100
AcDbLine
 10
-504.2235987980104
 20
-809.4602719688191
 30
0.0
 11
-505.7238810856081
 21
-809.4602719688191
 31
0.0
  0
LINE
  5
26C
330
1F
100
AcDbEntity
  8
D-0
  6
Continuous
 62
     7
370
     9
100
AcDbLine
 10
-507.9351561863161
 20
-769.1623059654012
 30
0.0
 11
-507.9351561863161
 21
-767.6620236778035
 31
0.0
  0
LINE
  5
26D
330
1F
100
AcDbEntity
  8
D-0
  6
Continuous
 62
     7
370
     9
100
AcDbLine
 10
-507.9351561863161
 20
-767.6620236778035
 30
0.0
 11
-506.4353793461061
 21
-767.6620236778035
 31
0.0
  0
LINE
  5
26E
330
1F
100
AcDbEntity
  8
D-0
  6
Continuous
 62
     7
370
     9
100
AcDbLine
 10
-506.4353793461061
 20
-767.6620236778035
 30
0.0
 11
-506.4353793461061
 21
-769.1623059654012
 31
0.0
  0
LINE
  5
26F
330
1F
100
AcDbEntity
  8
D-0
  6
Continuous
 62
     7
370
     9
100
AcDbLine
 10
-506.4353793461061
 20
-769.1623059654012
 30
0.0
 11
-507.9351561863161
 21
-769.1623059654012
 31
0.0
  0
LINE
  5
270
330
1F
100
AcDbEntity
  8
D-0
  6
Continuous
 62
     7
370
     9
100
AcDbLine
 10
-450.4355138141847
 20
-788.9082471275105
 30
0.0
 11
-450.4355138141847
 21
-787.4079648399129
 31
0.0
  0
LINE
  5
271
330
1F
100
AcDbEntity
  8
D-0
  6
Continuous
 62
     7
370
     9
100
AcDbLine
 10
-450.4355138141847
 20
-787.4079648399129
 30
0.0
 11
-448.9352315265871
 21
-787.4079648399129
 31
0.0
  0
LINE
  5
272
330
1F
100
AcDbEntity
  8
D-0
  6
Continuous
 62
     7
370
     9
100
AcDbLine
 10
-448.9352315265871
 20
-787.4079648399129
 30
0.0
 11
-448.9352315265871
 21
-788.9082471275105
 31
0.0
  0
LINE
  5
273
330
1F
100
AcDbEntity
  8
D-0
  6
Continuous
 62
     7
370
     9
100
AcDbLine
 10
-448.9352315265871
 20
-788.9082471275105
 30
0.0
 11
-450.4355138141847
 21
-788.9082471275105
 31
0.0
  0
LINE
  5
274
330
1F
100
AcDbEntity
  8
D-0
  6
Continuous
 62
     7
370
     9
100
AcDbLine
 10
-462.2831624347902
 20
-755.3402081870809
 30
0.0
 11
-462.2831624347902
 21
-753.8399258994832
 31
0.0
  0
LINE
  5
275
330
1F
100
AcDbEntity
  8
D-0
  6
Continuous
 62
     7
370
     9
100
AcDbLine
 10
-462.2831624347902
 20
-753.8399258994832
 30
0.0
 11
-460.7828801471925
 21
-753.8399258994832
 31
0.0
  0
LINE
  5
276
330
1F
100
AcDbEntity
  8
D-0
  6
Continuous
 62
     7
370
     9
100
AcDbLine
 10
-460.7828801471925
 20
-753.8399258994832
 30
0.0
 11
-460.7828801471925
 21
-755.3402081870809
 31
0.0
  0
LINE
  5
277
330
1F
100
AcDbEntity
  8
D-0
  6
Continuous
 62
     7
370
     9
100
AcDbLine
 10
-460.7828801471925
 20
-755.3402081870809
 30
0.0
 11
-462.2831624347902
 21
-755.3402081870809
 31
0.0
  0
LINE
  5
278
330
1F
100
AcDbEntity
  8
D-0
  6
Continuous
 62
     7
370
     9
100
AcDbLine
 10
-406.9942968685365
 20
-641.1564771079793
 30
0.0
 11
-406.9942968685365
 21
-639.6561948203816
 31
0.0
  0
LINE
  5
279
330
1F
100
AcDbEntity
  8
D-0
  6
Continuous
 62
     7
370
     9
100
AcDbLine
 10
-406.9942968685365
 20
-639.6561948203816
 30
0.0
 11
-405.4945128757692
 21
-639.6561948203816
 31
0.0
  0
LINE
  5
27A
330
1F
100
AcDbEntity
  8
D-0
  6
Continuous
 62
     7
370
     9
100
AcDbLine
 10
-405.4945128757692
 20
-639.6561948203816
 30
0.0
 11
-405.4945128757692
 21
-641.1564771079793
 31
0.0
  0
LINE
  5
27B
330
1F
100
AcDbEntity
  8
D-0
  6
Continuous
 62
     7
370
     9
100
AcDbLine
 10
-405.4945128757692
 20
-641.1564771079793
 30
0.0
 11
-406.9942968685365
 21
-641.1564771079793
 31
0.0
  0
LINE
  5
27C
330
1F
100
AcDbEntity
  8
D-0
  6
Continuous
 62
     7
370
     9
100
AcDbLine
 10
-395.1471426684595
 20
-541.2729398154988
 30
0.0
 11
-395.1471426684595
 21
-539.7726575279012
 31
0.0
  0
LINE
  5
27D
330
1F
100
AcDbEntity
  8
D-0
  6
Continuous
 62
     7
370
     9
100
AcDbLine
 10
-395.1471426684595
 20
-539.7726575279012
 30
0.0
 11
-393.6468630630708
 21
-539.7726575279012
 31
0.0
  0
LINE
  5
27E
330
1F
100
AcDbEntity
  8
D-0
  6
Continuous
 62
     7
370
     9
100
AcDbLine
 10
-393.6468630630708
 20
-539.7726575279012
 30
0.0
 11
-393.6468630630708
 21
-541.2729398154988
 31
0.0
  0
LINE
  5
27F
330
1F
100
AcDbEntity
  8
D-0
  6
Continuous
 62
     7
370
     9
100
AcDbLine
 10
-393.6468630630708
 20
-541.2729398154988
 30
0.0
 11
-395.1471426684595
 21
-541.2729398154988
 31
0.0
  0
LINE
  5
280
330
1F
100
AcDbEntity
  8
D-0
  6
Continuous
 62
     7
370
     9
100
AcDbLine
 10
-299.0361064274049
 20
-552.4972859763875
 30
0.0
 11
-299.0361064274049
 21
-550.9970036887898
 31
0.0
  0
LINE
  5
281
330
1F
100
AcDbEntity
  8
D-0
  6
Continuous
 62
     7
370
     9
100
AcDbLine
 10
-299.0361064274049
 20
-550.9970036887898
 30
0.0
 11
-297.536329587195
 21
-550.9970036887898
 31
0.0
  0
LINE
  5
282
330
1F
100
AcDbEntity
  8
D-0
  6
Continuous
 62
     7
370
     9
100
AcDbLine
 10
-297.536329587195
 20
-550.9970036887898
 30
0.0
 11
-297.536329587195
 21
-552.4972859763875
 31
0.0
  0
LINE
  5
283
330
1F
100
AcDbEntity
  8
D-0
  6
Continuous
 62
     7
370
     9
100
AcDbLine
 10
-297.536329587195
 20
-552.4972859763875
 30
0.0
 11
-299.0361064274049
 21
-552.4972859763875
 31
0.0
  0
LINE
  5
284
330
1F
100
AcDbEntity
  8
D-0
  6
Continuous
 62
     7
370
     9
100
AcDbLine
 10
-351.5706628162599
 20
-543.8721600913777
 30
0.0
 11
-351.5706628162599
 21
-542.3718778037801
 31
0.0
  0
LINE
  5
285
330
1F
100
AcDbEntity
  8
D-0
  6
Continuous
 62
     7
370
     9
100
AcDbLine
 10
-351.5706628162599
 20
-542.3718778037801
 30
0.0
 11
-350.0708812076784
 21
-542.3718778037801
 31
0.0
  0
LINE
  5
286
330
1F
100
AcDbEntity
  8
D-0
  6
Continuous
 62
     7
370
     9
100
AcDbLine
 10
-350.0708812076784
 20
-542.3718778037801
 30
0.0
 11
-350.0708812076784
 21
-543.8721600913777
 31
0.0
  0
LINE
  5
287
330
1F
100
AcDbEntity
  8
D-0
  6
Continuous
 62
     7
370
     9
100
AcDbLine
 10
-350.0708812076784
 20
-543.8721600913777
 30
0.0
 11
-351.5706628162599
 21
-543.8721600913777
 31
0.0
  0
LINE
  5
288
330
1F
100
AcDbEntity
  8
D-0
  6
Continuous
 62
     7
370
     9
100
AcDbLine
 10
-487.9524081546999
 20
-604.4600621604695
 30
0.0
 11
-487.9524081546999
 21
-602.9597989463582
 31
0.0
  0
LINE
  5
289
330
1F
100
AcDbEntity
  8
D-0
  6
Continuous
 62
     7
370
     9
100
AcDbLine
 10
-487.9524081546999
 20
-602.9597989463582
 30
0.0
 11
-486.4526217777467
 21
-602.9597989463582
 31
0.0
  0
LINE
  5
28A
330
1F
100
AcDbEntity
  8
D-0
  6
Continuous
 62
     7
370
     9
100
AcDbLine
 10
-486.4526217777467
 20
-602.9597989463582
 30
0.0
 11
-486.4526217777467
 21
-604.4600621604695
 31
0.0
  0
LINE
  5
28B
330
1F
100
AcDbEntity
  8
D-0
  6
Continuous
 62
     7
370
     9
100
AcDbLine
 10
-486.4526217777467
 20
-604.4600621604695
 30
0.0
 11
-487.9524081546999
 21
-604.4600621604695
 31
0.0
  0
LINE
  5
28C
330
1F
100
AcDbEntity
  8
D-0
  6
Continuous
 62
     7
370
     9
100
AcDbLine
 10
-456.8320124942995
 20
-462.6891080283895
 30
0.0
 11
-456.8320124942995
 21
-461.188835277535
 31
0.0
  0
LINE
  5
28D
330
1F
100
AcDbEntity
  8
D-0
  6
Continuous
 62
     7
370
     9
100
AcDbLine
 10
-456.8320124942995
 20
-461.188835277535
 30
0.0
 11
-455.3317349750734
 21
-461.188835277535
 31
0.0
  0
LINE
  5
28E
330
1F
100
AcDbEntity
  8
D-0
  6
Continuous
 62
     7
370
     9
100
AcDbLine
 10
-455.3317349750734
 20
-461.188835277535
 30
0.0
 11
-455.3317349750734
 21
-462.6891080283895
 31
0.0
  0
LINE
  5
28F
330
1F
100
AcDbEntity
  8
D-0
  6
Continuous
 62
     7
370
     9
100
AcDbLine
 10
-455.3317349750734
 20
-462.6891080283895
 30
0.0
 11
-456.8320124942995
 21
-462.6891080283895
 31
0.0
  0
LINE
  5
290
330
1F
100
AcDbEntity
  8
D-0
  6
Continuous
 62
     7
370
     9
100
AcDbLine
 10
-401.0709674257971
 20
-574.0204564475789
 30
0.0
 11
-401.0709674257971
 21
-572.5201741599813
 31
0.0
  0
LINE
  5
291
330
1F
100
AcDbEntity
  8
D-0
  6
Continuous
 62
     7
370
     9
100
AcDbLine
 10
-401.0709674257971
 20
-572.5201741599813
 30
0.0
 11
-399.5706880066729
 21
-572.5201741599813
 31
0.0
  0
LINE
  5
292
330
1F
100
AcDbEntity
  8
D-0
  6
Continuous
 62
     7
370
     9
100
AcDbLine
 10
-399.5706880066729
 20
-572.5201741599813
 30
0.0
 11
-399.5706880066729
 21
-574.0204564475789
 31
0.0
  0
LINE
  5
293
330
1F
100
AcDbEntity
  8
D-0
  6
Continuous
 62
     7
370
     9
100
AcDbLine
 10
-399.5706880066729
 20
-574.0204564475789
 30
0.0
 11
-401.0709674257971
 21
-574.0204564475789
 31
0.0
  0
LINE
  5
294
330
1F
100
AcDbEntity
  8
D-0
  6
Continuous
 62
     7
370
     9
100
AcDbLine
 10
-460.3082221348024
 20
-596.5618077659383
 30
0.0
 11
-460.3082221348024
 21
-595.0615254783406
 31
0.0
  0
LINE
  5
295
330
1F
100
AcDbEntity
  8
D-0
  6
Continuous
 62
     7
370
     9
100
AcDbLine
 10
-460.3082221348024
 20
-595.0615254783406
 30
0.0
 11
-458.8084405262209
 21
-595.0615254783406
 31
0.0
  0
LINE
  5
296
330
1F
100
AcDbEntity
  8
D-0
  6
Continuous
 62
     7
370
     9
100
AcDbLine
 10
-458.8084405262209
 20
-595.0615254783406
 30
0.0
 11
-458.8084405262209
 21
-596.5618077659383
 31
0.0
  0
LINE
  5
297
330
1F
100
AcDbEntity
  8
D-0
  6
Continuous
 62
     7
370
     9
100
AcDbLine
 10
-458.8084405262209
 20
-596.5618077659383
 30
0.0
 11
-460.3082221348024
 21
-596.5618077659383
 31
0.0
  0
LINE
  5
298
330
1F
100
AcDbEntity
  8
D-0
  6
Continuous
 62
     7
370
     9
100
AcDbLine
 10
-448.4605735141969
 20
-669.6216336631551
 30
0.0
 11
-448.4605735141969
 21
-668.1213513755574
 31
0.0
  0
LINE
  5
299
330
1F
100
AcDbEntity
  8
D-0
  6
Continuous
 62
     7
370
     9
100
AcDbLine
 10
-448.4605735141969
 20
-668.1213513755574
 30
0.0
 11
-446.9607919056154
 21
-668.1213513755574
 31
0.0
  0
LINE
  5
29A
330
1F
100
AcDbEntity
  8
D-0
  6
Continuous
 62
     7
370
     9
100
AcDbLine
 10
-446.9607919056154
 20
-668.1213513755574
 30
0.0
 11
-446.9607919056154
 21
-669.6216336631551
 31
0.0
  0
LINE
  5
29B
330
1F
100
AcDbEntity
  8
D-0
  6
Continuous
 62
     7
370
     9
100
AcDbLine
 10
-446.9607919056154
 20
-669.6216336631551
 30
0.0
 11
-448.4605735141969
 21
-669.6216336631551
 31
0.0
  0
LINE
  5
29C
330
1F
100
AcDbEntity
  8
D-0
  6
Continuous
 62
     7
370
     9
100
AcDbLine
 10
-496.838144620154
 20
-668.6341611289754
 30
0.0
 11
-496.838144620154
 21
-667.1338788413777
 31
0.0
  0
LINE
  5
29D
330
1F
100
AcDbEntity
  8
D-0
  6
Continuous
 62
     7
370
     9
100
AcDbLine
 10
-496.838144620154
 20
-667.1338788413777
 30
0.0
 11
-495.3378623325563
 21
-667.1338788413777
 31
0.0
  0
LINE
  5
29E
330
1F
100
AcDbEntity
  8
D-0
  6
Continuous
 62
     7
370
     9
100
AcDbLine
 10
-495.3378623325563
 20
-667.1338788413777
 30
0.0
 11
-495.3378623325563
 21
-668.6341611289754
 31
0.0
  0
LINE
  5
29F
330
1F
100
AcDbEntity
  8
D-0
  6
Continuous
 62
     7
370
     9
100
AcDbLine
 10
-495.3378623325563
 20
-668.6341611289754
 30
0.0
 11
-496.838144620154
 21
-668.6341611289754
 31
0.0
  0
LINE
  5
2A0
330
1F
100
AcDbEntity
  8
D-0
  6
Continuous
 62
     7
370
     9
100
AcDbLine
 10
-483.8851016361452
 20
-787.7399197959676
 30
0.0
 11
-483.8851016361452
 21
-786.2396375083699
 31
0.0
  0
LINE
  5
2A1
330
1F
100
AcDbEntity
  8
D-0
  6
Continuous
 62
     7
370
     9
100
AcDbLine
 10
-483.8851016361452
 20
-786.2396375083699
 30
0.0
 11
-482.3853247959352
 21
-786.2396375083699
 31
0.0
  0
LINE
  5
2A2
330
1F
100
AcDbEntity
  8
D-0
  6
Continuous
 62
     7
370
     9
100
AcDbLine
 10
-482.3853247959352
 20
-786.2396375083699
 30
0.0
 11
-482.3853247959352
 21
-787.7399197959676
 31
0.0
  0
LINE
  5
2A3
330
1F
100
AcDbEntity
  8
D-0
  6
Continuous
 62
     7
370
     9
100
AcDbLine
 10
-482.3853247959352
 20
-787.7399197959676
 30
0.0
 11
-483.8851016361452
 21
-787.7399197959676
 31
0.0
  0
LINE
  5
2A4
330
1F
100
AcDbEntity
  8
D-0
  6
Continuous
 62
     7
370
     9
100
AcDbLine
 10
-433.3591812450624
 20
-817.2475568198934
 30
0.0
 11
-433.3591812450624
 21
-815.7472745322957
 31
0.0
  0
LINE
  5
2A5
330
1F
100
AcDbEntity
  8
D-0
  6
Continuous
 62
     7
370
     9
100
AcDbLine
 10
-433.3591812450624
 20
-815.7472745322957
 30
0.0
 11
-431.8593972522951
 21
-815.7472745322957
 31
0.0
  0
LINE
  5
2A6
330
1F
100
AcDbEntity
  8
D-0
  6
Continuous
 62
     7
370
     9
100
AcDbLine
 10
-431.8593972522951
 20
-815.7472745322957
 30
0.0
 11
-431.8593972522951
 21
-817.2475568198934
 31
0.0
  0
LINE
  5
2A7
330
1F
100
AcDbEntity
  8
D-0
  6
Continuous
 62
     7
370
     9
100
AcDbLine
 10
-431.8593972522951
 20
-817.2475568198934
 30
0.0
 11
-433.3591812450624
 21
-817.2475568198934
 31
0.0
  0
LINE
  5
2A8
330
1F
100
AcDbEntity
  8
D-0
  6
Continuous
 62
     7
370
     9
100
AcDbLine
 10
-397.1215858657098
 20
-741.5181104087605
 30
0.0
 11
-397.1215858657098
 21
-740.0178662681355
 31
0.0
  0
LINE
  5
2A9
330
1F
100
AcDbEntity
  8
D-0
  6
Continuous
 62
     7
370
     9
100
AcDbLine
 10
-397.1215858657098
 20
-740.0178662681355
 30
0.0
 11
-395.6213062603212
 21
-740.0178662681355
 31
0.0
  0
LINE
  5
2AA
330
1F
100
AcDbEntity
  8
D-0
  6
Continuous
 62
     7
370
     9
100
AcDbLine
 10
-395.6213062603212
 20
-740.0178662681355
 30
0.0
 11
-395.6213062603212
 21
-741.5181104087605
 31
0.0
  0
LINE
  5
2AB
330
1F
100
AcDbEntity
  8
D-0
  6
Continuous
 62
     7
370
     9
100
AcDbLine
 10
-395.6213062603212
 20
-741.5181104087605
 30
0.0
 11
-397.1215858657098
 21
-741.5181104087605
 31
0.0
  0
LINE
  5
2AC
330
1F
100
AcDbEntity
  8
D-0
  6
Continuous
 62
     7
370
     9
100
AcDbLine
 10
-514.1542857486941
 20
-623.4548512840047
 30
0.0
 11
-514.1542857486941
 21
-621.954568996407
 31
0.0
  0
LINE
  5
2AD
330
1F
100
AcDbEntity
  8
D-0
  6
Continuous
 62
     7
370
     9
100
AcDbLine
 10
-514.1542857486941
 20
-621.954568996407
 30
0.0
 11
-512.6540034610964
 21
-621.954568996407
 31
0.0
  0
LINE
  5
2AE
330
1F
100
AcDbEntity
  8
D-0
  6
Continuous
 62
     7
370
     9
100
AcDbLine
 10
-512.6540034610964
 20
-621.954568996407
 30
0.0
 11
-512.6540034610964
 21
-623.4548512840047
 31
0.0
  0
LINE
  5
2AF
330
1F
100
AcDbEntity
  8
D-0
  6
Continuous
 62
     7
370
     9
100
AcDbLine
 10
-512.6540034610964
 20
-623.4548512840047
 30
0.0
 11
-514.1542857486941
 21
-623.4548512840047
 31
0.0
  0
LINE
  5
2B0
330
1F
100
AcDbEntity
  8
D-0
  6
Continuous
 62
     7
370
     9
100
AcDbLine
 10
-397.2325709063745
 20
-667.188886775948
 30
0.0
 11
-397.2325709063745
 21
-665.6886044883504
 31
0.0
  0
LINE
  5
2B1
330
1F
100
AcDbEntity
  8
D-0
  6
Continuous
 62
     7
370
     9
100
AcDbLine
 10
-397.2325709063745
 20
-665.6886044883504
 30
0.0
 11
-395.7322913009859
 21
-665.6886044883504
 31
0.0
  0
LINE
  5
2B2
330
1F
100
AcDbEntity
  8
D-0
  6
Continuous
 62
     7
370
     9
100
AcDbLine
 10
-395.7322913009859
 20
-665.6886044883504
 30
0.0
 11
-395.7322913009859
 21
-667.188886775948
 31
0.0
  0
LINE
  5
2B3
330
1F
100
AcDbEntity
  8
D-0
  6
Continuous
 62
     7
370
     9
100
AcDbLine
 10
-395.7322913009859
 20
-667.188886775948
 30
0.0
 11
-397.2325709063745
 21
-667.188886775948
 31
0.0
  0
LINE
  5
2B4
330
1F
100
AcDbEntity
  8
D-0
  6
Continuous
 62
     7
370
     9
100
AcDbLine
 10
-421.9629042942262
 20
-790.5348721885457
 30
0.0
 11
-421.9629042942262
 21
-789.034589900948
 31
0.0
  0
LINE
  5
2B5
330
1F
100
AcDbEntity
  8
D-0
  6
Continuous
 62
     7
370
     9
100
AcDbLine
 10
-421.9629042942262
 20
-789.034589900948
 30
0.0
 11
-420.4626243908144
 21
-789.034589900948
 31
0.0
  0
LINE
  5
2B6
330
1F
100
AcDbEntity
  8
D-0
  6
Continuous
 62
     7
370
     9
100
AcDbLine
 10
-420.4626243908144
 20
-789.034589900948
 30
0.0
 11
-420.4626243908144
 21
-790.5348721885457
 31
0.0
  0
LINE
  5
2B7
330
1F
100
AcDbEntity
  8
D-0
  6
Continuous
 62
     7
370
     9
100
AcDbLine
 10
-420.4626243908144
 20
-790.5348721885457
 30
0.0
 11
-421.9629042942262
 21
-790.5348721885457
 31
0.0
  0
LINE
  5
2B8
330
1F
100
AcDbEntity
  8
D-0
  6
Continuous
 62
     7
370
     9
100
AcDbLine
 10
-390.119125803206
 20
-478.0729237937703
 30
0.0
 11
-390.119125803206
 21
-476.5726415061727
 31
0.0
  0
LINE
  5
2B9
330
1F
100
AcDbEntity
  8
D-0
  6
Continuous
 62
     7
370
     9
100
AcDbLine
 10
-390.119125803206
 20
-476.5726415061727
 30
0.0
 11
-388.6188464958406
 21
-476.5726415061727
 31
0.0
  0
LINE
  5
2BA
330
1F
100
AcDbEntity
  8
D-0
  6
Continuous
 62
     7
370
     9
100
AcDbLine
 10
-388.6188464958406
 20
-476.5726415061727
 30
0.0
 11
-388.6188464958406
 21
-478.0729237937703
 31
0.0
  0
LINE
  5
2BB
330
1F
100
AcDbEntity
  8
D-0
  6
Continuous
 62
     7
370
     9
100
AcDbLine
 10
-388.6188464958406
 20
-478.0729237937703
 30
0.0
 11
-390.119125803206
 21
-478.0729237937703
 31
0.0
  0
LINE
  5
2BC
330
1F
100
AcDbEntity
  8
D-4
  6
Continuous
 62
     7
370
     9
100
AcDbLine
 10
-224.2817538578249
 20
-465.5836430930867
 30
0.0
 11
-224.2817538578249
 21
-528.0672017478719
 31
0.0
  0
LINE
  5
2BD
330
1F
100
AcDbEntity
  8
D-5
  6
Continuous
 62
     7
370
     9
100
AcDbLine
 10
-234.2823069889284
 20
-403.757604732491
 30
0.0
 11
-220.4706233341432
 21
-382.9181901359334
 31
0.0
  0
LINE
  5
2BE
330
1F
100
AcDbEntity
  8
D-5
  6
Continuous
 62
     7
370
     9
100
AcDbLine
 10
-234.2823069889284
 20
-403.757604732491
 30
0.0
 11
-215.5476420719362
 21
-387.203501834847
 31
0.0
  0
LINE
  5
2BF
330
1F
100
AcDbEntity
  8
D-5
  6
Continuous
 62
     7
370
     9
100
AcDbLine
 10
-234.2823069889284
 20
-403.757604732491
 30
0.0
 11
-112.5357096988893
 21
-263.8768617057576
 31
0.0
  0
LINE
  5
2C0
330
1F
100
AcDbEntity
  8
D-5
  6
Continuous
 62
     7
370
     9
100
AcDbLine
 10
-112.5357096988893
 20
-263.8768617057576
 30
0.0
 11
274.1677624385619
 21
-263.8768617057576
 31
0.0
  0
LINE
  5
2C1
330
1F
100
AcDbEntity
  8
D-4
  6
Continuous
 62
     7
370
     9
100
AcDbLine
 10
-212.4549144108034
 20
-453.7577954673543
 30
0.0
 11
-122.707866986487
 21
-453.7577954673543
 31
0.0
  0
LINE
  5
2C2
330
1F
100
AcDbEntity
  8
D-4
  6
Continuous
 62
     7
370
     9
100
AcDbLine
 10
-212.4549144108034
 20
-403.7575570487752
 30
0.0
 11
-122.707866986487
 21
-403.7575570487752
 31
0.0
  0
LINE
  5
2C3
330
1F
100
AcDbEntity
  8
D-4
  6
Continuous
 62
     7
370
     9
100
AcDbLine
 10
-125.708412488196
 20
-403.7575570487752
 30
0.0
 11
-125.708412488196
 21
-318.7574139976277
 31
0.0
  0
LINE
  5
2C4
330
1F
100
AcDbEntity
  8
D-4
  6
Continuous
 62
     7
370
     9
100
AcDbLine
 10
-125.708412488196
 20
-453.7577954673543
 30
0.0
 11
-125.708412488196
 21
-403.7575570487752
 31
0.0
  0
LINE
  5
2C5
330
1F
100
AcDbEntity
  8
D-4
  6
Continuous
 62
     7
370
     9
100
AcDbLine
 10
-369.282185395453
 20
-525.0666562461629
 30
0.0
 11
-524.2811721164919
 21
-525.0666562461629
 31
0.0
  0
LINE
  5
2C6
330
1F
100
AcDbEntity
  8
D-9
  6
Continuous
 62
     4
370
     9
100
AcDbLine
 10
-509.2818110782839
 20
-396.2580815696492
 30
0.0
 11
-394.2820542652345
 21
-396.2580815696492
 31
0.0
  0
LINE
  5
2C7
330
1F
100
AcDbEntity
  8
D-1
  6
Continuous
 62
     2
370
     9
100
AcDbLine
 10
-369.2822187740541
 20
-321.757414116837
 30
0.0
 11
-369.2822187740541
 21
-346.257297172524
 31
0.0
  0
LINE
  5
2C8
330
1F
100
AcDbEntity
  8
D-1
  6
Continuous
 62
     2
370
     9
100
AcDbLine
 10
-369.2822187740541
 20
-440.7570401572957
 30
0.0
 11
-369.2822187740541
 21
-416.2571565055623
 31
0.0
  0
LINE
  5
2C9
330
1F
100
AcDbEntity
  8
D-1
  6
Continuous
 62
     2
370
     9
100
AcDbLine
 10
-391.2819701034761
 20
-318.7578247864076
 30
0.0
 11
-372.2816842395998
 21
-318.7578247864076
 31
0.0
  0
LINE
  5
2CA
330
1F
100
AcDbEntity
  8
D-1
  6
Continuous
 62
     2
370
     9
100
AcDbLine
 10
-519.2818492252566
 20
-413.7573377036824
 30
0.0
 11
-519.2818492252566
 21
-406.2574330711141
 31
0.0
  0
LINE
  5
2CB
330
1F
100
AcDbEntity
  8
D-1
  6
Continuous
 62
     2
370
     9
100
AcDbLine
 10
-524.2822402317263
 20
-413.7573377036824
 30
0.0
 11
-524.2822402317263
 21
-406.2574330711141
 31
0.0
  0
LINE
  5
2CC
330
1F
100
AcDbEntity
  8
D-1
  6
Continuous
 62
     2
370
     9
100
AcDbLine
 10
-389.2822849352098
 20
-438.7573567771688
 30
0.0
 11
-374.2819875080324
 21
-438.7573567771688
 31
0.0
  0
LINE
  5
2CD
330
1F
100
AcDbEntity
  8
D-1
  6
Continuous
 62
     2
370
     9
100
AcDbLine
 10
-389.282037575934
 20
-443.7576142692342
 30
0.0
 11
-372.2816842395998
 21
-443.7576142692342
 31
0.0
  0
LINE
  5
2CE
330
1F
100
AcDbEntity
  8
D-1
  6
Continuous
 62
     2
370
     9
100
AcDbLine
 10
-394.2820542652345
 20
-408.7570706748738
 30
0.0
 11
-394.2820542652345
 21
-321.757414116837
 31
0.0
  0
LINE
  5
2CF
330
1F
100
AcDbEntity
  8
D-1
  6
Continuous
 62
     2
370
     9
100
AcDbLine
 10
-394.2820542652345
 20
-408.7570706748738
 30
0.0
 11
-444.2817252475954
 21
-408.7570706748738
 31
0.0
  0
LINE
  5
2D0
330
1F
100
AcDbEntity
  8
D-1
  6
Continuous
 62
     2
370
     9
100
AcDbLine
 10
-519.2818492252566
 20
-418.7575951957479
 30
0.0
 11
-394.2820542652345
 21
-418.7575951957479
 31
0.0
  0
LINE
  5
2D1
330
1F
100
AcDbEntity
  8
D-1
  6
Continuous
 62
     2
370
     9
100
AcDbLine
 10
-394.2820542652345
 20
-438.757604732491
 30
0.0
 11
-394.2820542652345
 21
-418.7575951957479
 31
0.0
  0
LINE
  5
2D2
330
1F
100
AcDbEntity
  8
D-1
  6
Continuous
 62
     2
370
     9
100
AcDbLine
 10
-389.2822849352098
 20
-418.7573472404256
 30
0.0
 11
-389.2822849352098
 21
-438.7573567771688
 31
0.0
  0
LINE
  5
2D3
330
1F
100
AcDbEntity
  8
D-1
  6
Continuous
 62
     2
370
     9
100
AcDbLine
 10
-394.2823016245104
 20
-413.7573377036824
 30
0.0
 11
-519.2818492252566
 21
-413.7573377036824
 31
0.0
  0
LINE
  5
2D4
330
1F
100
AcDbEntity
  8
D-1
  6
Continuous
 62
     2
370
     9
100
AcDbLine
 10
-389.2822849352098
 20
-408.7573186301961
 30
0.0
 11
-389.2822849352098
 21
-323.7570989870801
 31
0.0
  0
LINE
  5
2D5
330
1F
100
AcDbEntity
  8
D-9
  6
Continuous
 62
     4
370
     9
100
AcDbLine
 10
-394.2820542652345
 20
-401.8484918021932
 30
0.0
 11
-401.1906359691358
 21
-408.7570706748738
 31
0.0
  0
LINE
  5
2D6
330
1F
100
AcDbEntity
  8
D-9
  6
Continuous
 62
     4
370
     9
100
AcDbLine
 10
-395.761991699431
 20
-396.2580815696492
 30
0.0
 11
-408.2611667711473
 21
-408.7570706748738
 31
0.0
  0
LINE
  5
2D7
330
1F
100
AcDbEntity
  8
D-9
  6
Continuous
 62
     4
370
     9
100
AcDbLine
 10
-402.8333270151354
 20
-396.2580815696492
 30
0.0
 11
-415.3325026828981
 21
-408.7570706748738
 31
0.0
  0
LINE
  5
2D8
330
1F
100
AcDbEntity
  8
D-9
  6
Continuous
 62
     4
370
     9
100
AcDbLine
 10
-409.9041670162416
 20
-396.2580815696492
 30
0.0
 11
-422.4033420879579
 21
-408.7570706748738
 31
0.0
  0
LINE
  5
2D9
330
1F
100
AcDbEntity
  8
D-9
  6
Continuous
 62
     4
370
     9
100
AcDbLine
 10
-416.975502331946
 20
-396.2580815696492
 30
0.0
 11
-429.4746774036623
 21
-408.7570706748738
 31
0.0
  0
LINE
  5
2DA
330
1F
100
AcDbEntity
  8
D-9
  6
Continuous
 62
     4
370
     9
100
AcDbLine
 10
-424.0463441211916
 20
-396.2580815696492
 30
0.0
 11
-436.5457027752138
 21
-408.7570706748738
 31
0.0
  0
LINE
  5
2DB
330
1F
100
AcDbEntity
  8
D-9
  6
Continuous
 62
     4
370
     9
100
AcDbLine
 10
-431.1176794368959
 20
-396.2580815696492
 30
0.0
 11
-443.6170380909181
 21
-408.7570706748738
 31
0.0
  0
LINE
  5
2DC
330
1F
100
AcDbEntity
  8
D-9
  6
Continuous
 62
     4
370
     9
100
AcDbLine
 10
-466.4733641941286
 20
-396.2580815696492
 30
0.0
 11
-471.4724534351564
 21
-401.2571660423055
 31
0.0
  0
LINE
  5
2DD
330
1F
100
AcDbEntity
  8
D-9
  6
Continuous
 62
     4
370
     9
100
AcDbLine
 10
-473.5442059833742
 20
-396.2580815696492
 30
0.0
 11
-478.5433572132326
 21
-401.2571660423055
 31
0.0
  0
LINE
  5
2DE
330
1F
100
AcDbEntity
  8
D-9
  6
Continuous
 62
     4
370
     9
100
AcDbLine
 10
-508.8998931247926
 20
-396.2580815696492
 30
0.0
 11
-513.8993495304323
 21
-401.2571660423055
 31
0.0
  0
LINE
  5
2DF
330
1F
100
AcDbEntity
  8
D-9
  6
Continuous
 62
     4
370
     9
100
AcDbLine
 10
-459.40203126261
 20
-396.2580815696492
 30
0.0
 11
-464.4012969333864
 21
-401.2571660423055
 31
0.0
  0
LINE
  5
2E0
330
1F
100
AcDbEntity
  8
D-9
  6
Continuous
 62
     4
370
     9
100
AcDbLine
 10
-445.2598517734743
 20
-396.2580815696492
 30
0.0
 11
-450.2590459186769
 21
-401.2571660423055
 31
0.0
  0
LINE
  5
2E1
330
1F
100
AcDbEntity
  8
D-9
  6
Continuous
 62
     4
370
     9
100
AcDbLine
 10
-452.3311894733644
 20
-396.2580815696492
 30
0.0
 11
-457.3303645450807
 21
-401.2571660423055
 31
0.0
  0
LINE
  5
2E2
330
1F
100
AcDbEntity
  8
D-9
  6
Continuous
 62
     4
370
     9
100
AcDbLine
 10
-480.6155436832643
 20
-396.2580815696492
 30
0.0
 11
-485.6146281559206
 21
-401.2571660423055
 31
0.0
  0
LINE
  5
2E3
330
1F
100
AcDbEntity
  8
D-9
  6
Continuous
 62
     4
370
     9
100
AcDbLine
 10
-487.6863807041383
 20
-396.2580815696492
 30
0.0
 11
-492.6855605442262
 21
-401.2571660423055
 31
0.0
  0
LINE
  5
2E4
330
1F
100
AcDbEntity
  8
D-9
  6
Continuous
 62
     4
370
     9
100
AcDbLine
 10
-494.7572177250124
 20
-396.2580815696492
 30
0.0
 11
-499.7564261753298
 21
-401.2571660423055
 31
0.0
  0
LINE
  5
2E5
330
1F
100
AcDbEntity
  8
D-9
  6
Continuous
 62
     4
370
     9
100
AcDbLine
 10
-501.8285601932741
 20
-396.2580815696492
 30
0.0
 11
-506.8278258640505
 21
-401.2571660423055
 31
0.0
  0
LINE
  5
2E6
330
1F
100
AcDbEntity
  8
D-1
  6
Continuous
 62
     2
370
     9
100
AcDbLine
 10
-449.2820542652345
 20
-406.2574330711141
 30
0.0
 11
-519.2818492252566
 21
-406.2574330711141
 31
0.0
  0
LINE
  5
2E7
330
1F
100
AcDbEntity
  8
D-1
  6
Continuous
 62
     2
370
     9
100
AcDbLine
 10
-449.2820542652345
 20
-408.7573377036824
 30
0.0
 11
-449.2820542652345
 21
-406.2574330711141
 31
0.0
  0
LINE
  5
2E8
330
1F
100
AcDbEntity
  8
D-1
  6
Continuous
 62
     2
370
     9
100
AcDbLine
 10
-449.2820542652345
 20
-401.2571660423055
 30
0.0
 11
-519.2818492252566
 21
-401.2571660423055
 31
0.0
  0
LINE
  5
2E9
330
1F
100
AcDbEntity
  8
D-1
  6
Continuous
 62
     2
370
     9
100
AcDbLine
 10
-444.2820542652345
 20
-406.2571660423055
 30
0.0
 11
-444.2820542652345
 21
-408.7570706748738
 31
0.0
  0
LINE
  5
2EA
330
1F
100
AcDbEntity
  8
D-9
  6
Continuous
 62
     4
370
     9
100
AcDbLine
 10
-438.1890147526003
 20
-396.2580815696492
 30
0.0
 11
-445.2421134311891
 21
-403.3111802482381
 31
0.0
  0
LINE
  5
2EB
330
1F
100
AcDbEntity
  8
D-3
  6
Continuous
 62
     3
370
     9
100
AcDbLine
 10
-385.7820015747286
 20
-323.7570989870801
 30
0.0
 11
-385.7820015747286
 21
-436.2570992851033
 31
0.0
  0
LINE
  5
2EC
330
1F
100
AcDbEntity
  8
D-3
  6
Continuous
 62
     3
370
     9
100
AcDbLine
 10
-224.2821162540651
 20
-413.757022991158
 30
0.0
 11
-224.2821162540651
 21
-453.7570325279012
 31
0.0
  0
LINE
  5
2ED
330
1F
100
AcDbEntity
  8
D-3
  6
Continuous
 62
     3
370
     9
100
AcDbLine
 10
-349.2820304233766
 20
-435.5767671012654
 30
0.0
 11
-349.2820304233766
 21
-453.7570325279012
 31
0.0
  0
LINE
  5
2EE
330
1F
100
AcDbEntity
  8
D-3
  6
Continuous
 62
     3
370
     9
100
AcDbLine
 10
-352.2109740574098
 20
-428.505672588326
 30
0.0
 11
-374.2819875080324
 21
-406.434663906075
 31
0.0
  0
LINE
  5
2EF
330
1F
100
AcDbEntity
  8
D-3
  6
JWW_CENTER1
 62
     3
370
     9
100
AcDbLine
 10
-324.3435614902712
 20
-375.2569953346028
 30
0.0
 11
-393.0145436126924
 21
-375.2569953346028
 31
0.0
  0
LINE
  5
2F0
330
1F
100
AcDbEntity
  8
D-3
  6
Continuous
 62
     3
370
     9
100
AcDbLine
 10
-331.6044324238039
 20
-396.4346305274739
 30
0.0
 11
-334.7818082172609
 21
-393.2572547340169
 31
0.0
  0
LINE
  5
2F1
330
1F
100
AcDbEntity
  8
D-3
  6
Continuous
 62
     3
370
     9
100
AcDbLine
 10
-362.7824705440736
 20
-365.2564708137288
 30
0.0
 11
-374.2819875080324
 21
-353.7569514655843
 31
0.0
  0
LINE
  5
2F2
330
1F
100
AcDbEntity
  8
D-A
  6
Continuous
 62
     7
370
     9
100
AcDbLine
 10
-388.0327146846986
 20
-385.2565328025594
 30
0.0
 11
-388.0327146846986
 21
-365.2564708137288
 31
0.0
  0
LINE
  5
2F3
330
1F
100
AcDbEntity
  8
D-A
  6
Continuous
 62
     7
370
     9
100
AcDbLine
 10
-388.0327146846986
 20
-365.2564708137288
 30
0.0
 11
-389.2822849352098
 21
-366.5065328025594
 31
0.0
  0
LINE
  5
2F4
330
1F
100
AcDbEntity
  8
D-A
  6
Continuous
 62
     7
370
     9
100
AcDbLine
 10
-388.0327146846986
 20
-385.2565328025594
 30
0.0
 11
-389.2822849352098
 21
-384.0069619560018
 31
0.0
  0
LINE
  5
2F5
330
1F
100
AcDbEntity
  8
D-A
  6
Continuous
 62
     7
370
     9
100
AcDbLine
 10
-326.2822526294923
 20
-386.7572585487142
 30
0.0
 11
-326.2822526294923
 21
-363.7567368888631
 31
0.0
  0
LINE
  5
2F6
330
1F
100
AcDbEntity
  8
D-A
  6
Continuous
 62
     7
370
     9
100
AcDbLine
 10
-332.7822488147951
 20
-393.2572547340169
 30
0.0
 11
-339.2822450000978
 21
-393.2572547340169
 31
0.0
  0
LINE
  5
2F7
330
1F
100
AcDbEntity
  8
D-A
  6
Continuous
 62
     7
370
     9
100
AcDbLine
 10
-332.7822488147951
 20
-357.2567383193746
 30
0.0
 11
-339.2822450000978
 21
-357.2567383193746
 31
0.0
  0
LINE
  5
2F8
330
1F
100
AcDbEntity
  8
D-A
  6
Continuous
 62
     7
370
     9
100
AcDbLine
 10
-339.2822450000978
 20
-357.2567383193746
 30
0.0
 11
-339.2822450000978
 21
-393.2572547340169
 31
0.0
  0
LINE
  5
2F9
330
1F
100
AcDbEntity
  8
D-A
  6
Continuous
 62
     7
370
     9
100
AcDbLine
 10
-339.2822450000978
 20
-365.2564708137288
 30
0.0
 11
-374.2819875080324
 21
-365.2564708137288
 31
0.0
  0
LINE
  5
2FA
330
1F
100
AcDbEntity
  8
D-A
  6
Continuous
 62
     7
370
     9
100
AcDbLine
 10
-339.2822450000978
 20
-366.5065328025594
 30
0.0
 11
-374.2819875080324
 21
-366.5065328025594
 31
0.0
  0
LINE
  5
2FB
330
1F
100
AcDbEntity
  8
D-A
  6
Continuous
 62
     7
370
     9
100
AcDbLine
 10
-339.2822450000978
 20
-384.0069619560018
 30
0.0
 11
-374.2819875080324
 21
-384.0069619560018
 31
0.0
  0
LINE
  5
2FC
330
1F
100
AcDbEntity
  8
D-A
  6
Continuous
 62
     7
370
     9
100
AcDbLine
 10
-339.2822450000978
 20
-385.2565328025594
 30
0.0
 11
-374.2819875080324
 21
-385.2565328025594
 31
0.0
  0
LINE
  5
2FD
330
1F
100
AcDbEntity
  8
D-A
  6
Continuous
 62
     7
370
     9
100
AcDbLine
 10
-385.7820015747286
 20
-384.0069619560018
 30
0.0
 11
-389.2822849352098
 21
-384.0069619560018
 31
0.0
  0
LINE
  5
2FE
330
1F
100
AcDbEntity
  8
D-A
  6
Continuous
 62
     7
370
     9
100
AcDbLine
 10
-385.7820015747286
 20
-385.2565328025594
 30
0.0
 11
-388.0327146846986
 21
-385.2565328025594
 31
0.0
  0
LINE
  5
2FF
330
1F
100
AcDbEntity
  8
D-A
  6
Continuous
 62
     7
370
     9
100
AcDbLine
 10
-385.7820015747286
 20
-366.5065328025594
 30
0.0
 11
-389.2822849352098
 21
-366.5065328025594
 31
0.0
  0
LINE
  5
300
330
1F
100
AcDbEntity
  8
D-A
  6
Continuous
 62
     7
370
     9
100
AcDbLine
 10
-385.7820015747286
 20
-365.2564708137288
 30
0.0
 11
-388.0327146846986
 21
-365.2564708137288
 31
0.0
  0
LINE
  5
301
330
1F
100
AcDbEntity
  8
D-3
  6
JWW_DASHED2
 62
     3
370
     9
100
AcDbLine
 10
-349.2820304233766
 20
-442.2570172691121
 30
0.0
 11
-224.2821162540651
 21
-442.2570172691121
 31
0.0
  0
LINE
  5
302
330
1F
100
AcDbEntity
  8
D-3
  6
Continuous
 62
     3
370
     9
100
AcDbLine
 10
-234.2820208866335
 20
-403.7571183585897
 30
0.0
 11
-313.92671044657
 21
-403.7571183585897
 31
0.0
  0
LINE
  5
303
330
1F
100
AcDbEntity
  8
D-3
  6
Continuous
 62
     3
370
     9
100
AcDbLine
 10
-349.2820304233766
 20
-453.7570325279012
 30
0.0
 11
-224.2821162540651
 21
-453.7570325279012
 31
0.0
  0
LINE
  5
304
330
1F
100
AcDbEntity
  8
D-1
  6
Continuous
 62
     2
370
     9
100
AcDbLine
 10
-389.2822849352098
 20
-323.7570989870801
 30
0.0
 11
-374.2819875080324
 21
-323.7570989870801
 31
0.0
  0
LINE
  5
305
330
1F
100
AcDbEntity
  8
D-1
  6
Continuous
 62
     2
370
     9
100
AcDbLine
 10
-369.2822187740541
 20
-346.257297172524
 30
0.0
 11
-374.2819875080324
 21
-346.257297172524
 31
0.0
  0
LINE
  5
306
330
1F
100
AcDbEntity
  8
D-1
  6
Continuous
 62
     2
370
     9
100
AcDbLine
 10
-374.2819875080324
 20
-346.257297172524
 30
0.0
 11
-374.2819875080324
 21
-323.7570989870801
 31
0.0
  0
LINE
  5
307
330
1F
100
AcDbEntity
  8
D-3
  6
Continuous
 62
     3
370
     9
100
AcDbLine
 10
-385.7820015747286
 20
-323.7570989870801
 30
0.0
 11
-374.2819875080324
 21
-323.7570989870801
 31
0.0
  0
LINE
  5
308
330
1F
100
AcDbEntity
  8
D-1
  6
Continuous
 62
     2
370
     9
100
AcDbLine
 10
-369.2822187740541
 20
-416.2571565055623
 30
0.0
 11
-374.2819875080324
 21
-416.2571565055623
 31
0.0
  0
LINE
  5
309
330
1F
100
AcDbEntity
  8
D-1
  6
Continuous
 62
     2
370
     9
100
AcDbLine
 10
-374.2819875080324
 20
-438.7573567771688
 30
0.0
 11
-374.2819875080324
 21
-416.2571565055623
 31
0.0
  0
LINE
  5
30A
330
1F
100
AcDbEntity
  8
D-3
  6
Continuous
 62
     3
370
     9
100
AcDbLine
 10
-385.7820015747286
 20
-436.2570992851033
 30
0.0
 11
-374.2819875080324
 21
-436.2570992851033
 31
0.0
  0
LINE
  5
30B
330
1F
100
AcDbEntity
  8
D-3
  6
Continuous
 62
     3
370
     9
100
AcDbLine
 10
-374.2819875080324
 20
-323.7570989870801
 30
0.0
 11
-374.2819875080324
 21
-436.2570992851033
 31
0.0
  0
LINE
  5
30C
330
1F
100
AcDbEntity
  8
D-6
  6
Continuous
 62
     6
370
     9
100
AcDbLine
 10
-372.2816842395998
 20
-318.7574139976277
 30
0.0
 11
40.71969572713606
 21
-318.7574139976277
 31
0.0
  0
LINE
  5
30D
330
1F
100
AcDbEntity
  8
D-6
  6
Continuous
 62
     6
370
     9
100
AcDbLine
 10
-524.2811721164919
 20
-413.7573377036824
 30
0.0
 11
-524.2811721164919
 21
-818.7567654990926
 31
0.0
  0
LINE
  5
30E
330
1F
100
AcDbEntity
  8
D-4
  6
Continuous
 62
     7
370
     9
100
AcDbLine
 10
-441.1360495884157
 20
-443.7572518729939
 30
0.0
 11
-672.7642482120729
 21
-443.7572518729939
 31
0.0
  0
LINE
  5
30F
330
1F
100
AcDbEntity
  8
D-5
  6
Continuous
 62
     7
370
     9
100
AcDbLine
 10
-399.7649117533303
 20
-457.5342503928914
 30
0.0
 11
-464.8134034473634
 21
-400.9172479057088
 31
0.0
  0
LINE
  5
310
330
1F
100
AcDbEntity
  8
D-5
  6
Continuous
 62
     7
370
     9
100
AcDbLine
 10
-464.8134034473634
 20
-400.9172479057088
 30
0.0
 11
-448.2597916919923
 21
-419.6514169120564
 31
0.0
  0
LINE
  5
311
330
1F
100
AcDbEntity
  8
D-5
  6
Continuous
 62
     7
370
     9
100
AcDbLine
 10
-464.8134034473634
 20
-400.9172479057088
 30
0.0
 11
-443.9749806720949
 21
-414.7289410972371
 31
0.0
  0
ARC
  5
312
330
1F
100
AcDbEntity
  8
D-9
  6
Continuous
 62
     4
370
     9
100
AcDbCircle
 10
-509.2818110782839
 20
-401.2573567771688
 30
0.0
 40
5.0
100
AcDbArc
 50
90.0
 51
180.0
  0
ARC
  5
313
330
1F
100
AcDbEntity
  8
D-1
  6
Continuous
 62
     2
370
     9
100
AcDbCircle
 10
-519.2818492252566
 20
-406.2574330711141
 30
0.0
 40
5.0
100
AcDbArc
 50
90.0
 51
180.0
  0
ARC
  5
314
330
1F
100
AcDbEntity
  8
D-1
  6
Continuous
 62
     2
370
     9
100
AcDbCircle
 10
-372.2816842395998
 20
-321.757414116837
 30
0.0
 40
3.00000011920929
100
AcDbArc
 50
0.0
 51
90.0
  0
ARC
  5
315
330
1F
100
AcDbEntity
  8
D-1
  6
Continuous
 62
     2
370
     9
100
AcDbCircle
 10
-391.2819701034761
 20
-321.757414116837
 30
0.0
 40
3.00000011920929
100
AcDbArc
 50
90.0
 51
180.0
  0
ARC
  5
316
330
1F
100
AcDbEntity
  8
D-1
  6
Continuous
 62
     2
370
     9
100
AcDbCircle
 10
-372.2816842395998
 20
-440.7570401572957
 30
0.0
 40
3.00000011920929
100
AcDbArc
 50
270.0
 51
0.0
  0
ARC
  5
317
330
1F
100
AcDbEntity
  8
D-1
  6
Continuous
 62
     2
370
     9
100
AcDbCircle
 10
-519.2818492252566
 20
-413.7573377036824
 30
0.0
 40
5.0
100
AcDbArc
 50
180.0
 51
270.0
  0
ARC
  5
318
330
1F
100
AcDbEntity
  8
D-1
  6
Continuous
 62
     2
370
     9
100
AcDbCircle
 10
-389.282037575934
 20
-438.757604732491
 30
0.0
 40
5.0
100
AcDbArc
 50
180.0
 51
270.0
  0
ARC
  5
319
330
1F
100
AcDbEntity
  8
D-1
  6
Continuous
 62
     2
370
     9
100
AcDbCircle
 10
-394.2823016245104
 20
-418.7573472404256
 30
0.0
 40
5.0
100
AcDbArc
 50
0.0
 51
90.0
  0
ARC
  5
31A
330
1F
100
AcDbEntity
  8
D-1
  6
Continuous
 62
     2
370
     9
100
AcDbCircle
 10
-394.2823016245104
 20
-408.7573186301961
 30
0.0
 40
5.0
100
AcDbArc
 50
270.0
 51
0.0
  0
ARC
  5
31B
330
1F
100
AcDbEntity
  8
D-1
  6
Continuous
 62
     2
370
     9
100
AcDbCircle
 10
-444.2820542652345
 20
-408.7573377036824
 30
0.0
 40
5.0
100
AcDbArc
 50
180.0
 51
270.0
  0
ARC
  5
31C
330
1F
100
AcDbEntity
  8
D-1
  6
Continuous
 62
     2
370
     9
100
AcDbCircle
 10
-449.2820542652345
 20
-406.2571660423055
 30
0.0
 40
5.0
100
AcDbArc
 50
0.0
 51
90.0
  0
ARC
  5
31D
330
1F
100
AcDbEntity
  8
D-3
  6
Continuous
 62
     3
370
     9
100
AcDbCircle
 10
-313.92671044657
 20
-378.7570325279012
 30
0.0
 40
25.0
100
AcDbArc
 50
225.0
 51
270.0
  0
ARC
  5
31E
330
1F
100
AcDbEntity
  8
D-3
  6
Continuous
 62
     3
370
     9
100
AcDbCircle
 10
-234.2820208866335
 20
-413.757022991158
 30
0.0
 40
10.0
100
AcDbArc
 50
0.0
 51
90.0
  0
ARC
  5
31F
330
1F
100
AcDbEntity
  8
D-3
  6
Continuous
 62
     3
370
     9
100
AcDbCircle
 10
-359.2820614177919
 20
-435.5767671012654
 30
0.0
 40
10.0
100
AcDbArc
 50
0.0
 51
45.000244140625
  0
ARC
  5
320
330
1F
100
AcDbEntity
  8
D-A
  6
Continuous
 62
     7
370
     9
100
AcDbCircle
 10
-332.7822488147951
 20
-363.7567368888631
 30
0.0
 40
6.499999761581421
100
AcDbArc
 50
0.0
 51
90.0
  0
ARC
  5
321
330
1F
100
AcDbEntity
  8
D-A
  6
Continuous
 62
     7
370
     9
100
AcDbCircle
 10
-332.7822488147951
 20
-386.7572585487142
 30
0.0
 40
6.499999761581421
100
AcDbArc
 50
270.0
 51
0.0
  0
LWPOLYLINE
  5
322
330
1F
100
AcDbEntity
  8
D-4
  6
Continuous
 62
     7
370
     9
100
AcDbPolyline
 90
        4
 70
     1
 43
1.0
 10
-368.7821853954531
 20
21.60982690813398
 42
0.4142135623731
 10
-369.282185395453
 20
22.10982690813398
 42
0.4142135623731
 10
-369.782185395453
 20
21.60982690813398
 42
0.4142135623731
 10
-369.282185395453
 20
21.10982690813398
 42
0.4142135623731
  0
LWPOLYLINE
  5
323
330
1F
100
AcDbEntity
  8
D-4
  6
Continuous
 62
     7
370
     9
100
AcDbPolyline
 90
        4
 70
     1
 43
1.0
 10
-523.7811721164919
 20
-197.8382626914754
 42
0.4142135623731
 10
-524.2811721164919
 20
-197.3382626914754
 42
0.4142135623731
 10
-524.7811721164918
 20
-197.8382626914754
 42
0.4142135623731
 10
-524.2811721164919
 20
-198.3382626914754
 42
0.4142135623731
  0
LWPOLYLINE
  5
324
330
1F
100
AcDbEntity
  8
D-4
  6
Continuous
 62
     7
370
     9
100
AcDbPolyline
 90
        4
 70
     1
 43
1.0
 10
-398.7813342411257
 20
-197.8382626914754
 42
0.4142135623731
 10
-399.2813342411256
 20
-197.3382626914754
 42
0.4142135623731
 10
-399.7813342411256
 20
-197.8382626914754
 42
0.4142135623731
 10
-399.2813342411256
 20
-198.3382626914754
 42
0.4142135623731
  0
LWPOLYLINE
  5
325
330
1F
100
AcDbEntity
  8
D-4
  6
Continuous
 62
     7
370
     9
100
AcDbPolyline
 90
        4
 70
     1
 43
1.0
 10
-398.7813342411257
 20
-89.08584035871172
 42
0.4142135623731
 10
-399.2813342411256
 20
-88.58584035871172
 42
0.4142135623731
 10
-399.7813342411256
 20
-89.08584035871172
 42
0.4142135623731
 10
-399.2813342411256
 20
-89.58584035871172
 42
0.4142135623731
  0
LWPOLYLINE
  5
326
330
1F
100
AcDbEntity
  8
D-4
  6
Continuous
 62
     7
370
     9
100
AcDbPolyline
 90
        4
 70
     1
 43
1.0
 10
-393.7810636360384
 20
-89.08584035871172
 42
0.4142135623731
 10
-394.2810636360384
 20
-88.58584035871172
 42
0.4142135623731
 10
-394.7810636360384
 20
-89.08584035871172
 42
0.4142135623731
 10
-394.2810636360384
 20
-89.58584035871172
 42
0.4142135623731
  0
LWPOLYLINE
  5
327
330
1F
100
AcDbEntity
  8
D-4
  6
Continuous
 62
     7
370
     9
100
AcDbPolyline
 90
        4
 70
     1
 43
1.0
 10
-368.7821853954531
 20
-89.08584035871172
 42
0.4142135623731
 10
-369.282185395453
 20
-88.58584035871172
 42
0.4142135623731
 10
-369.782185395453
 20
-89.08584035871172
 42
0.4142135623731
 10
-369.282185395453
 20
-89.58584035871172
 42
0.4142135623731
  0
LWPOLYLINE
  5
328
330
1F
100
AcDbEntity
  8
D-4
  6
Continuous
 62
     7
370
     9
100
AcDbPolyline
 90
        4
 70
     1
 43
1.0
 10
-669.2636836368775
 20
-443.7572518729939
 42
0.4142135623731
 10
-669.7636836368775
 20
-443.2572518729939
 42
0.4142135623731
 10
-670.2636836368775
 20
-443.7572518729939
 42
0.4142135623731
 10
-669.7636836368775
 20
-444.2572518729939
 42
0.4142135623731
  0
LWPOLYLINE
  5
329
330
1F
100
AcDbEntity
  8
D-4
  6
Continuous
 62
     7
370
     9
100
AcDbPolyline
 90
        4
 70
     1
 43
1.0
 10
-669.2636836368775
 20
-318.7574139976277
 42
0.4142135623731
 10
-669.7636836368775
 20
-318.2574139976277
 42
0.4142135623731
 10
-670.2636836368775
 20
-318.7574139976277
 42
0.4142135623731
 10
-669.7636836368775
 20
-319.2574139976277
 42
0.4142135623731
  0
LWPOLYLINE
  5
32A
330
1F
100
AcDbEntity
  8
D-4
  6
Continuous
 62
     7
370
     9
100
AcDbPolyline
 90
        4
 70
     1
 43
1.0
 10
-368.7821853954531
 20
-525.0666562461629
 42
0.4142135623731
 10
-369.282185395453
 20
-524.5666562461629
 42
0.4142135623731
 10
-369.782185395453
 20
-525.0666562461629
 42
0.4142135623731
 10
-369.282185395453
 20
-525.5666562461629
 42
0.4142135623731
  0
LWPOLYLINE
  5
32B
330
1F
100
AcDbEntity
  8
D-4
  6
Continuous
 62
     7
370
     9
100
AcDbPolyline
 90
        4
 70
     1
 43
1.0
 10
-223.7817538578249
 20
-525.0666562461629
 42
0.4142135623731
 10
-224.2817538578249
 20
-524.5666562461629
 42
0.4142135623731
 10
-224.7817538578249
 20
-525.0666562461629
 42
0.4142135623731
 10
-224.2817538578249
 20
-525.5666562461629
 42
0.4142135623731
  0
LWPOLYLINE
  5
32C
330
1F
100
AcDbEntity
  8
D-4
  6
Continuous
 62
     7
370
     9
100
AcDbPolyline
 90
        4
 70
     1
 43
1.0
 10
-523.7811721164919
 20
-724.3758908653035
 42
0.4142135623731
 10
-524.2811721164919
 20
-723.8758908653035
 42
0.4142135623731
 10
-524.7811721164918
 20
-724.3758908653035
 42
0.4142135623731
 10
-524.2811721164919
 20
-724.8758908653035
 42
0.4142135623731
  0
LWPOLYLINE
  5
32D
330
1F
100
AcDbEntity
  8
D-4
  6
Continuous
 62
     7
370
     9
100
AcDbPolyline
 90
        4
 70
     1
 43
1.0
 10
-373.7819612819887
 20
-724.3758908653035
 42
0.4142135623731
 10
-374.2819612819887
 20
-723.8758908653035
 42
0.4142135623731
 10
-374.7819612819887
 20
-724.3758908653035
 42
0.4142135623731
 10
-374.2819612819887
 20
-724.8758908653035
 42
0.4142135623731
  0
LWPOLYLINE
  5
32E
330
1F
100
AcDbEntity
  8
D-4
  6
Continuous
 62
     7
370
     9
100
AcDbPolyline
 90
        4
 70
     1
 43
1.0
 10
-523.7811721164919
 20
-878.8402692222371
 42
0.4142135623731
 10
-524.2811721164919
 20
-878.3402692222371
 42
0.4142135623731
 10
-524.7811721164918
 20
-878.8402692222371
 42
0.4142135623731
 10
-524.2811721164919
 20
-879.3402692222371
 42
0.4142135623731
  0
LWPOLYLINE
  5
32F
330
1F
100
AcDbEntity
  8
D-4
  6
Continuous
 62
     7
370
     9
100
AcDbPolyline
 90
        4
 70
     1
 43
1.0
 10
-123.7803042728639
 20
-878.8402692222371
 42
0.4142135623731
 10
-124.2803042728639
 20
-878.3402692222371
 42
0.4142135623731
 10
-124.780304272864
 20
-878.8402692222371
 42
0.4142135623731
 10
-124.2803042728639
 20
-879.3402692222371
 42
0.4142135623731
  0
LWPOLYLINE
  5
330
330
1F
100
AcDbEntity
  8
D-4
  6
Continuous
 62
     7
370
     9
100
AcDbPolyline
 90
        4
 70
     1
 43
1.0
 10
147.9040371578001
 20
-318.7574139976277
 42
0.4142135623731
 10
147.4040371578001
 20
-318.2574139976277
 42
0.4142135623731
 10
146.9040371578001
 20
-318.7574139976277
 42
0.4142135623731
 10
147.4040371578001
 20
-319.2574139976277
 42
0.4142135623731
  0
LWPOLYLINE
  5
331
330
1F
100
AcDbEntity
  8
D-4
  6
Continuous
 62
     7
370
     9
100
AcDbPolyline
 90
        4
 70
     1
 43
1.0
 10
147.9040371578001
 20
-568.7570897483602
 42
0.4142135623731
 10
147.4040371578001
 20
-568.2570897483602
 42
0.4142135623731
 10
146.9040371578001
 20
-568.7570897483602
 42
0.4142135623731
 10
147.4040371578001
 20
-569.2570897483602
 42
0.4142135623731
  0
LWPOLYLINE
  5
332
330
1F
100
AcDbEntity
  8
D-4
  6
Continuous
 62
     7
370
     9
100
AcDbPolyline
 90
        4
 70
     1
 43
1.0
 10
-125.208412488196
 20
-318.7574139976277
 42
0.4142135623731
 10
-125.708412488196
 20
-318.2574139976277
 42
0.4142135623731
 10
-126.208412488196
 20
-318.7574139976277
 42
0.4142135623731
 10
-125.708412488196
 20
-319.2574139976277
 42
0.4142135623731
  0
LWPOLYLINE
  5
333
330
1F
100
AcDbEntity
  8
D-4
  6
Continuous
 62
     7
370
     9
100
AcDbPolyline
 90
        4
 70
     1
 43
1.0
 10
-125.208412488196
 20
-403.7575570487752
 42
0.4142135623731
 10
-125.708412488196
 20
-403.2575570487752
 42
0.4142135623731
 10
-126.208412488196
 20
-403.7575570487752
 42
0.4142135623731
 10
-125.708412488196
 20
-404.2575570487752
 42
0.4142135623731
  0
LWPOLYLINE
  5
334
330
1F
100
AcDbEntity
  8
D-4
  6
Continuous
 62
     7
370
     9
100
AcDbPolyline
 90
        4
 70
     1
 43
1.0
 10
-125.208412488196
 20
-453.7577954673543
 42
0.4142135623731
 10
-125.708412488196
 20
-453.2577954673543
 42
0.4142135623731
 10
-126.208412488196
 20
-453.7577954673543
 42
0.4142135623731
 10
-125.708412488196
 20
-454.2577954673543
 42
0.4142135623731
  0
LWPOLYLINE
  5
335
330
1F
100
AcDbEntity
  8
D-4
  6
Continuous
 62
     7
370
     9
100
AcDbPolyline
 90
        4
 70
     1
 43
1.0
 10
-368.7821853954531
 20
-525.0666562461629
 42
0.4142135623731
 10
-369.282185395453
 20
-524.5666562461629
 42
0.4142135623731
 10
-369.782185395453
 20
-525.0666562461629
 42
0.4142135623731
 10
-369.282185395453
 20
-525.5666562461629
 42
0.4142135623731
  0
LWPOLYLINE
  5
336
330
1F
100
AcDbEntity
  8
D-4
  6
Continuous
 62
     7
370
     9
100
AcDbPolyline
 90
        4
 70
     1
 43
1.0
 10
-523.7811721164919
 20
-525.0666562461629
 42
0.4142135623731
 10
-524.2811721164919
 20
-524.5666562461629
 42
0.4142135623731
 10
-524.7811721164918
 20
-525.0666562461629
 42
0.4142135623731
 10
-524.2811721164919
 20
-525.5666562461629
 42
0.4142135623731
  0
TEXT
  5
337
330
1F
100
AcDbEntity
  8
D-4
  6
Continuous
 62
     2
370
     9
100
AcDbText
 10
-432.2260444957948
 20
-78.44656515119219
 30
0.0
 40
30.48
  1
1
 41
0.9999999999999998
  7
ＭＳ ゴシック
100
AcDbText
  0
TEXT
  5
338
330
1F
100
AcDbEntity
  8
D-4
  6
Continuous
 62
     2
370
     9
100
AcDbText
 10
-483.0304187137819
 20
-187.1979861259236
 30
0.0
 40
30.48
  1
25
 41
1.0625
  7
ＭＳ ゴシック
100
AcDbText
  0
TEXT
  5
339
330
1F
100
AcDbEntity
  8
D-4
  6
Continuous
 62
     2
370
     9
100
AcDbText
 10
-515.5311911899782
 20
-713.736615657784
 30
0.0
 40
30.48
  1
25～30
 41
1.104166666666667
  7
ＭＳ ゴシック
100
AcDbText
  0
TEXT
  5
33A
330
1F
100
AcDbEntity
  8
D-4
  6
Continuous
 62
     2
370
     9
100
AcDbText
 10
-392.1495357264353
 20
-868.200002193468
 30
0.0
 40
30.48
  1
75～80
 50
359.9997855578312
 41
1.104166666666666
  7
ＭＳ ゴシック
100
AcDbText
  0
TEXT
  5
33B
330
1F
100
AcDbEntity
  8
D-4
  6
Continuous
 62
     2
370
     9
100
AcDbText
 10
136.7647619502806
 20
-510.0073760971873
 30
0.0
 40
30.48
  1
40～50
 50
90.00000250447816
 41
1.104166666666666
  7
ＭＳ ゴシック
100
AcDbText
  0
TEXT
  5
33C
330
1F
100
AcDbEntity
  8
D-4
  6
Continuous
 62
     2
370
     9
100
AcDbText
 10
-333.6981805231883
 20
-514.427361965541
 30
0.0
 40
30.48
  1
29
 50
0.0006685549992706
 41
1.0625
  7
ＭＳ ゴシック
100
AcDbText
  0
TEXT
  5
33D
330
1F
100
AcDbEntity
  8
D-4
  6
Continuous
 62
     2
370
     9
100
AcDbText
 10
-360.3687041599489
 20
-78.44656515119219
 30
0.0
 40
30.48
  1
5
 41
0.9999999999999998
  7
ＭＳ ゴシック
100
AcDbText
  0
TEXT
  5
33E
330
1F
100
AcDbEntity
  8
D-5
  6
Continuous
 62
     2
370
     9
100
AcDbText
 10
-823.7752028423993
 20
-996.5598731040736
 30
0.0
 40
30.48
  1
断面詳細図　Ｓ＝１：２
 50
0.0000267631904831
 41
1.113636363636364
  7
ＭＳ ゴシック
100
AcDbText
  0
TEXT
  5
33F
330
1F
100
AcDbEntity
  8
D-5
  6
Continuous
 62
     2
370
     9
100
AcDbText
 10
537.1922881707866
 20
-890.8005576133525
 30
0.0
 40
30.48
  1
定尺：３０００
 50
359.9999506463765
 41
1.107142857142856
  7
ＭＳ ゴシック
100
AcDbText
  0
TEXT
  5
340
330
1F
100
AcDbEntity
  8
D-5
  6
Continuous
 62
     2
370
     9
100
AcDbText
 10
477.4803692500853
 20
-760.8002142905965
 30
0.0
 40
30.48
  1
ステンレス製受枠　ＳＦ１５Ｂ
 41
1.116071428571428
  7
ＭＳ ゴシック
100
AcDbText
  0
TEXT
  5
341
330
1F
100
AcDbEntity
  8
D-5
  6
Continuous
 62
     7
370
     9
100
AcDbText
 10
-175.3046649296022
 20
-202.9567600822225
 30
0.0
 40
22.86
  1
塩ビクッション
 41
1.142857142857143
  7
ＭＳ ゴシック
100
AcDbText
  0
TEXT
  5
342
330
1F
100
AcDbEntity
  8
D-5
  6
Continuous
 62
     7
370
     9
100
AcDbText
 10
-234.7926371891237
 20
-146.8578125571981
 30
0.0
 40
22.86
  1
ステンレス製受枠ＳＦ１５Ｂ
 41
1.153846153846154
  7
ＭＳ ゴシック
100
AcDbText
  0
TEXT
  5
343
330
1F
100
AcDbEntity
  8
D-5
  6
Continuous
 62
     2
370
     9
100
AcDbText
 10
537.1922833125852
 20
-825.7997565269246
 30
0.0
 40
30.48
  1
材質：冷間圧延ステンレス鋼板（ＳＵＳ３０４－２Ｂ）
 41
1.12
  7
ＭＳ ゴシック
100
AcDbText
  0
TEXT
  5
344
330
1F
100
AcDbEntity
  8
D-5
  6
Continuous
 62
     7
370
     9
100
AcDbText
 10
-112.0937579471804
 20
-252.1831204032674
 30
0.0
 40
22.86
  1
溶接用アンカー＠５００
 41
1.151515151515152
  7
ＭＳ ゴシック
100
AcDbText
  0
TEXT
  5
345
330
1F
100
AcDbEntity
  8
D-5
  6
Continuous
 62
     7
370
     9
100
AcDbText
 10
-112.0937579471804
 20
-293.4066177940144
 30
0.0
 40
22.86
  1
ｔ＝２．３（ＳＰＨＣ）
 41
1.151515151515152
  7
ＭＳ ゴシック
100
AcDbText
  0
TEXT
  5
346
330
1F
100
AcDbEntity
  8
D-4
  6
Continuous
 62
     2
370
     9
100
AcDbText
 10
-136.3486985904909
 20
-450.0070899948924
 30
0.0
 40
30.48
  1
10
 50
90.00000250447819
 41
1.062500000000001
  7
ＭＳ ゴシック
100
AcDbText
  0
TEXT
  5
347
330
1F
100
AcDbEntity
  8
D-4
  6
Continuous
 62
     2
370
     9
100
AcDbText
 10
-136.3486985904909
 20
-382.5073999390452
 30
0.0
 40
30.48
  1
17
 50
90.00000250447819
 41
1.062500000000001
  7
ＭＳ ゴシック
100
AcDbText
  0
TEXT
  5
348
330
1F
100
AcDbEntity
  8
D-4
  6
Continuous
 62
     2
370
     9
100
AcDbText
 10
-468.0316775638796
 20
-513.4266524314656
 30
0.0
 40
30.48
  1
31
 41
1.0625
  7
ＭＳ ゴシック
100
AcDbText
  0
TEXT
  5
349
330
1F
100
AcDbEntity
  8
D-4
  6
Continuous
 62
     2
370
     9
100
AcDbText
 10
-680.2228368113115
 20
-455.6296957779226
 30
0.0
 40
30.48
  1
25
 50
90.0000025
 41
1.062499999999999
  7
ＭＳ ゴシック
100
AcDbText
  0
LINE
  5
34A
330
1F
100
AcDbEntity
  8
D-2
  6
Continuous
 62
     3
370
     9
100
AcDbLine
 10
-1071.950783093665
 20
-336.2573758506551
 30
0.0
 11
-429.281136353705
 21
-336.2573758506551
 31
0.0
  0
LINE
  5
34B
330
1F
100
AcDbEntity
  8
D-5
  6
Continuous
 62
     7
370
     9
100
AcDbLine
 10
-1184.403709729407
 20
-660.7708112144248
 30
0.0
 11
-1184.403709729407
 21
-489.9154416465535
 31
0.0
  0
LINE
  5
34C
330
1F
100
AcDbEntity
  8
D-5
  6
Continuous
 62
     7
370
     9
100
AcDbLine
 10
-1443.037666638586
 20
-518.7999478721397
 30
0.0
 11
-1281.037620862219
 21
-518.7999478721397
 31
0.0
  0
LINE
  5
34D
330
1F
100
AcDbEntity
  8
D-2
  6
Continuous
 62
     3
370
     9
100
AcDbLine
 10
-399.281136353705
 20
-396.2573758506551
 30
0.0
 11
-414.281136353705
 21
-396.2573758506551
 31
0.0
  0
LINE
  5
34E
330
1F
100
AcDbEntity
  8
D-2
  6
Continuous
 62
     3
370
     9
100
AcDbLine
 10
-414.281136353705
 20
-351.2573758506551
 30
0.0
 11
-414.281136353705
 21
-396.2573758506551
 31
0.0
  0
LINE
  5
34F
330
1F
100
AcDbEntity
  8
D-4
  6
Continuous
 62
     7
370
     9
100
AcDbLine
 10
-586.7812579471804
 20
-321.2573758506551
 30
0.0
 11
-586.7812579471804
 21
-396.2573758506551
 31
0.0
  0
LINE
  5
350
330
1F
100
AcDbEntity
  8
D-4
  6
Continuous
 62
     7
370
     9
100
AcDbLine
 10
-589.7812503177859
 20
-396.2573758506551
 30
0.0
 11
-444.2811339695192
 21
-396.2573758506551
 31
0.0
  0
LINE
  5
351
330
1F
100
AcDbEntity
  8
D-4
  6
Continuous
 62
     7
370
     9
100
AcDbLine
 10
-725.0203555423952
 20
-336.2573758506551
 30
0.0
 11
-725.0203555423952
 21
-277.0730010413899
 31
0.0
  0
LINE
  5
352
330
1F
100
AcDbEntity
  8
D-5
  6
Continuous
 62
     2
370
     9
100
AcDbLine
 10
600.3903729121946
 20
-346.2577000999227
 30
0.0
 11
375.3903729121947
 21
-346.2577000999227
 31
0.0
  0
LINE
  5
353
330
1F
100
AcDbEntity
  8
D-5
  6
Continuous
 62
     2
370
     9
100
AcDbLine
 10
600.3903729121946
 20
-296.2574139976277
 30
0.0
 11
600.3903729121946
 21
-346.2577000999227
 31
0.0
  0
LINE
  5
354
330
1F
100
AcDbEntity
  8
D-5
  6
Continuous
 62
     2
370
     9
100
AcDbLine
 10
375.3903729121947
 20
-296.2574139976277
 30
0.0
 11
600.3903729121946
 21
-296.2574139976277
 31
0.0
  0
LINE
  5
355
330
1F
100
AcDbEntity
  8
D-5
  6
Continuous
 62
     2
370
     9
100
AcDbLine
 10
375.3903729121947
 20
-346.2577000999227
 30
0.0
 11
375.3903729121947
 21
-296.2574139976277
 31
0.0
  0
LINE
  5
356
330
1F
100
AcDbEntity
  8
D-5
  6
Continuous
 62
     7
370
     9
100
AcDbLine
 10
-271.018356641028
 20
-92.51138128278399
 30
0.0
 11
-468.5311358768678
 21
-321.2573758506551
 31
0.0
  0
LINE
  5
357
330
1F
100
AcDbEntity
  8
D-5
  6
Continuous
 62
     7
370
     9
100
AcDbLine
 10
-468.5311358768678
 20
-321.2573758506551
 30
0.0
 11
-454.8026793796755
 21
-300.3644231700673
 31
0.0
  0
LINE
  5
358
330
1F
100
AcDbEntity
  8
D-5
  6
Continuous
 62
     7
370
     9
100
AcDbLine
 10
-468.5311358768678
 20
-321.2573758506551
 30
0.0
 11
-449.8627894718385
 21
-304.6294192218556
 31
0.0
  0
LINE
  5
359
330
1F
100
AcDbEntity
  8
D-5
  6
Continuous
 62
     7
370
     9
100
AcDbLine
 10
-1184.403709729407
 20
-600.7708302879112
 30
0.0
 11
-1181.140617688391
 21
-575.9847012901084
 31
0.0
  0
LINE
  5
35A
330
1F
100
AcDbEntity
  8
D-5
  6
Continuous
 62
     7
370
     9
100
AcDbLine
 10
-1184.403709729407
 20
-600.7708302879112
 30
0.0
 11
-1187.666878064368
 21
-575.9847012901084
 31
0.0
  0
LINE
  5
35B
330
1F
100
AcDbEntity
  8
D-5
  6
Continuous
 62
     7
370
     9
100
AcDbLine
 10
-1181.403755505774
 20
-600.7708302879112
 30
0.0
 11
-1254.037651379797
 21
-600.7708302879112
 31
0.0
  0
LINE
  5
35C
330
1F
100
AcDbEntity
  8
D-5
  6
Continuous
 62
     7
370
     9
100
AcDbLine
 10
-1184.403709729407
 20
-606.7708150291221
 30
0.0
 11
-1181.140617688391
 21
-631.5569440269248
 31
0.0
  0
LINE
  5
35D
330
1F
100
AcDbEntity
  8
D-5
  6
Continuous
 62
     7
370
     9
100
AcDbLine
 10
-1184.403709729407
 20
-606.7708150291221
 30
0.0
 11
-1187.666878064368
 21
-631.5569440269248
 31
0.0
  0
LINE
  5
35E
330
1F
100
AcDbEntity
  8
D-5
  6
Continuous
 62
     7
370
     9
100
AcDbLine
 10
-1443.037666638586
 20
-518.7999478721397
 30
0.0
 11
-1418.251518567297
 21
-515.5367795371787
 31
0.0
  0
LINE
  5
35F
330
1F
100
AcDbEntity
  8
D-5
  6
Continuous
 62
     7
370
     9
100
AcDbLine
 10
-1443.037666638586
 20
-518.7999478721397
 30
0.0
 11
-1418.251518567297
 21
-522.0630971336143
 31
0.0
  0
LINE
  5
360
330
1F
100
AcDbEntity
  8
D-5
  6
Continuous
 62
     7
370
     9
100
AcDbLine
 10
-1443.037666638586
 20
-515.7999364280479
 30
0.0
 11
-1443.037666638586
 21
-590.7708302879112
 31
0.0
  0
LINE
  5
361
330
1F
100
AcDbEntity
  8
D-5
  6
Continuous
 62
     7
370
     9
100
AcDbLine
 10
-1383.037666638586
 20
-518.7999478721397
 30
0.0
 11
-1407.82373841593
 21
-515.5367795371787
 31
0.0
  0
LINE
  5
362
330
1F
100
AcDbEntity
  8
D-5
  6
Continuous
 62
     7
370
     9
100
AcDbLine
 10
-1383.037666638586
 20
-518.7999478721397
 30
0.0
 11
-1407.82373841593
 21
-522.0630971336143
 31
0.0
  0
LINE
  5
363
330
1F
100
AcDbEntity
  8
D-5
  6
Continuous
 62
     7
370
     9
100
AcDbLine
 10
-1383.037666638586
 20
-515.7999364280479
 30
0.0
 11
-1383.037666638586
 21
-590.7708302879112
 31
0.0
  0
LINE
  5
364
330
1F
100
AcDbEntity
  8
D-5
  6
Continuous
 62
     7
370
     9
100
AcDbLine
 10
-1323.037666638586
 20
-518.7999478721397
 30
0.0
 11
-1298.251518567297
 21
-522.0630971336143
 31
0.0
  0
LINE
  5
365
330
1F
100
AcDbEntity
  8
D-5
  6
Continuous
 62
     7
370
     9
100
AcDbLine
 10
-1323.037666638586
 20
-518.7999478721397
 30
0.0
 11
-1298.251518567297
 21
-515.5367795371787
 31
0.0
  0
LINE
  5
366
330
1F
100
AcDbEntity
  8
D-5
  6
Continuous
 62
     7
370
     9
100
AcDbLine
 10
-1323.037666638586
 20
-515.7999364280479
 30
0.0
 11
-1323.037666638586
 21
-590.7708302879112
 31
0.0
  0
LINE
  5
367
330
1F
100
AcDbEntity
  8
D-5
  6
Continuous
 62
     3
370
     9
100
AcDbLine
 10
-1596.87143739054
 20
-660.7708112144248
 30
0.0
 11
-1288.369545300696
 21
-660.7708112144248
 31
0.0
  0
LINE
  5
368
330
1F
100
AcDbEntity
  8
D-5
  6
Continuous
 62
     7
370
     9
100
AcDbLine
 10
-1181.403755505774
 20
-606.7708150291221
 30
0.0
 11
-1299.647926648352
 21
-606.7708150291221
 31
0.0
  0
LINE
  5
369
330
1F
100
AcDbEntity
  8
D-5
  6
Continuous
 62
     7
370
     9
100
AcDbLine
 10
-1712.703575452063
 20
-660.7708112144248
 30
0.0
 11
-1712.703575452063
 21
-600.7708302879112
 31
0.0
  0
LINE
  5
36A
330
1F
100
AcDbEntity
  8
D-5
  6
Continuous
 62
     7
370
     9
100
AcDbLine
 10
-1712.703575452063
 20
-660.7708112144248
 30
0.0
 11
-1715.966820080969
 21
-635.9847012901084
 31
0.0
  0
LINE
  5
36B
330
1F
100
AcDbEntity
  8
D-5
  6
Continuous
 62
     7
370
     9
100
AcDbLine
 10
-1712.703575452063
 20
-660.7708112144248
 30
0.0
 11
-1709.440483411047
 21
-635.9847012901084
 31
0.0
  0
LINE
  5
36C
330
1F
100
AcDbEntity
  8
D-5
  6
Continuous
 62
     7
370
     9
100
AcDbLine
 10
-1712.703575452063
 20
-600.7708302879112
 30
0.0
 11
-1715.966820080969
 21
-625.5569402122276
 31
0.0
  0
LINE
  5
36D
330
1F
100
AcDbEntity
  8
D-5
  6
Continuous
 62
     7
370
     9
100
AcDbLine
 10
-1712.703575452063
 20
-600.7708302879112
 30
0.0
 11
-1709.440483411047
 21
-625.5569402122276
 31
0.0
  0
LINE
  5
36E
330
1F
100
AcDbEntity
  8
D-5
  6
Continuous
 62
     7
370
     9
100
AcDbLine
 10
-1715.703605969641
 20
-660.7708112144248
 30
0.0
 11
-1616.87143739054
 21
-660.7708112144248
 31
0.0
  0
LINE
  5
36F
330
1F
100
AcDbEntity
  8
D-5
  6
Continuous
 62
     7
370
     9
100
AcDbLine
 10
-1715.703605969641
 20
-600.7708302879112
 30
0.0
 11
-1583.037666638586
 21
-600.7708302879112
 31
0.0
  0
LINE
  5
370
330
1F
100
AcDbEntity
  8
D-5
  6
Continuous
 62
     3
370
     9
100
AcDbLine
 10
-1438.037666638586
 20
-600.7708302879112
 30
0.0
 11
-1443.037666638586
 21
-606.7708150291221
 31
0.0
  0
LINE
  5
371
330
1F
100
AcDbEntity
  8
D-5
  6
Continuous
 62
     3
370
     9
100
AcDbLine
 10
-1388.037666638586
 20
-600.7708302879112
 30
0.0
 11
-1383.037666638586
 21
-606.7708150291221
 31
0.0
  0
LINE
  5
372
330
1F
100
AcDbEntity
  8
D-5
  6
Continuous
 62
     3
370
     9
100
AcDbLine
 10
-1438.037666638586
 20
-600.7708302879112
 30
0.0
 11
-1388.037666638586
 21
-600.7708302879112
 31
0.0
  0
LINE
  5
373
330
1F
100
AcDbEntity
  8
D-5
  6
Continuous
 62
     3
370
     9
100
AcDbLine
 10
-1318.037666638586
 20
-600.7708302879112
 30
0.0
 11
-1323.037666638586
 21
-606.7708150291221
 31
0.0
  0
LINE
  5
374
330
1F
100
AcDbEntity
  8
D-5
  6
Continuous
 62
     3
370
     9
100
AcDbLine
 10
-1318.037666638586
 20
-600.7708302879112
 30
0.0
 11
-1288.369545300696
 21
-600.7708302879112
 31
0.0
  0
LINE
  5
375
330
1F
100
AcDbEntity
  8
D-5
  6
Continuous
 62
     3
370
     9
100
AcDbLine
 10
-1323.037666638586
 20
-606.7708150291221
 30
0.0
 11
-1383.037666638586
 21
-606.7708150291221
 31
0.0
  0
LINE
  5
376
330
1F
100
AcDbEntity
  8
D-5
  6
Continuous
 62
     3
370
     9
100
AcDbLine
 10
-1508.037666638586
 20
-600.7708302879112
 30
0.0
 11
-1503.037666638586
 21
-606.7708150291221
 31
0.0
  0
LINE
  5
377
330
1F
100
AcDbEntity
  8
D-5
  6
Continuous
 62
     3
370
     9
100
AcDbLine
 10
-1443.037666638586
 20
-606.7708150291221
 30
0.0
 11
-1503.037666638586
 21
-606.7708150291221
 31
0.0
  0
LINE
  5
378
330
1F
100
AcDbEntity
  8
D-5
  6
Continuous
 62
     3
370
     9
100
AcDbLine
 10
-1558.037666638586
 20
-600.7708302879112
 30
0.0
 11
-1563.037666638586
 21
-606.7708150291221
 31
0.0
  0
LINE
  5
379
330
1F
100
AcDbEntity
  8
D-5
  6
Continuous
 62
     3
370
     9
100
AcDbLine
 10
-1563.037666638586
 20
-606.7708150291221
 30
0.0
 11
-1596.87143739054
 21
-606.7708150291221
 31
0.0
  0
LINE
  5
37A
330
1F
100
AcDbEntity
  8
D-5
  6
Continuous
 62
     3
370
     9
100
AcDbLine
 10
-1558.037666638586
 20
-600.7708302879112
 30
0.0
 11
-1508.037666638586
 21
-600.7708302879112
 31
0.0
  0
LINE
  5
37B
330
1F
100
AcDbEntity
  8
D-5
  6
Continuous
 62
     7
370
     9
100
AcDbLine
 10
-1705.62044556925
 20
-696.6004697227256
 30
0.0
 11
-1179.620537121985
 21
-696.6004697227256
 31
0.0
  0
LINE
  5
37C
330
1F
100
AcDbEntity
  8
D-5
  6
Continuous
 62
     7
370
     9
100
AcDbLine
 10
-1705.62044556925
 20
-766.6004697227256
 30
0.0
 11
-1179.620537121985
 21
-766.6004697227256
 31
0.0
  0
LINE
  5
37D
330
1F
100
AcDbEntity
  8
D-5
  6
Continuous
 62
     7
370
     9
100
AcDbLine
 10
-1705.62044556925
 20
-696.6004697227256
 30
0.0
 11
-1705.62044556925
 21
-766.6004697227256
 31
0.0
  0
LINE
  5
37E
330
1F
100
AcDbEntity
  8
D-5
  6
Continuous
 62
     7
370
     9
100
AcDbLine
 10
-1179.620537121985
 20
-696.6004697227256
 30
0.0
 11
-1179.620537121985
 21
-766.6004697227256
 31
0.0
  0
LINE
  5
37F
330
1F
100
AcDbEntity
  8
D-5
  6
Continuous
 62
     7
370
     9
100
AcDbLine
 10
-271.018356641028
 20
-92.51138128278399
 30
0.0
 11
497.9235607784056
 21
-92.51138128278399
 31
0.0
  0
LINE
  5
380
330
1F
100
AcDbEntity
  8
D-2
  6
Continuous
 62
     3
370
     9
100
AcDbLine
 10
-1044.781135876868
 20
-321.2573758506551
 30
0.0
 11
-1032.281135876868
 21
-321.2573758506551
 31
0.0
  0
LINE
  5
381
330
1F
100
AcDbEntity
  8
D-2
  6
Continuous
 62
     3
370
     9
100
AcDbLine
 10
-1003.781151135657
 20
-321.2573758506551
 30
0.0
 11
-1016.281151135657
 21
-321.2573758506551
 31
0.0
  0
LINE
  5
382
330
1F
100
AcDbEntity
  8
D-2
  6
Continuous
 62
     3
370
     9
100
AcDbLine
 10
-975.2811282474734
 20
-321.2573758506551
 30
0.0
 11
-987.7811282474734
 21
-321.2573758506551
 31
0.0
  0
LINE
  5
383
330
1F
100
AcDbEntity
  8
D-2
  6
Continuous
 62
     3
370
     9
100
AcDbLine
 10
-946.7811435062624
 20
-321.2573758506551
 30
0.0
 11
-959.2811435062624
 21
-321.2573758506551
 31
0.0
  0
LINE
  5
384
330
1F
100
AcDbEntity
  8
D-2
  6
Continuous
 62
     3
370
     9
100
AcDbLine
 10
-918.2811206180788
 20
-321.2573758506551
 30
0.0
 11
-930.7811206180788
 21
-321.2573758506551
 31
0.0
  0
LINE
  5
385
330
1F
100
AcDbEntity
  8
D-2
  6
Continuous
 62
     3
370
     9
100
AcDbLine
 10
-889.7811358768679
 20
-321.2573758506551
 30
0.0
 11
-902.2811358768679
 21
-321.2573758506551
 31
0.0
  0
LINE
  5
386
330
1F
100
AcDbEntity
  8
D-2
  6
Continuous
 62
     3
370
     9
100
AcDbLine
 10
-861.281151135657
 20
-321.2573758506551
 30
0.0
 11
-873.781151135657
 21
-321.2573758506551
 31
0.0
  0
LINE
  5
387
330
1F
100
AcDbEntity
  8
D-2
  6
Continuous
 62
     3
370
     9
100
AcDbLine
 10
-832.7811282474734
 20
-321.2573758506551
 30
0.0
 11
-845.2811282474734
 21
-321.2573758506551
 31
0.0
  0
LINE
  5
388
330
1F
100
AcDbEntity
  8
D-2
  6
Continuous
 62
     3
370
     9
100
AcDbLine
 10
-804.2811435062624
 20
-321.2573758506551
 30
0.0
 11
-816.7811435062624
 21
-321.2573758506551
 31
0.0
  0
LINE
  5
389
330
1F
100
AcDbEntity
  8
D-2
  6
Continuous
 62
     3
370
     9
100
AcDbLine
 10
-775.7811206180788
 20
-321.2573758506551
 30
0.0
 11
-788.2811206180788
 21
-321.2573758506551
 31
0.0
  0
LINE
  5
38A
330
1F
100
AcDbEntity
  8
D-2
  6
Continuous
 62
     3
370
     9
100
AcDbLine
 10
-747.2811358768679
 20
-321.2573758506551
 30
0.0
 11
-759.7811358768679
 21
-321.2573758506551
 31
0.0
  0
LINE
  5
38B
330
1F
100
AcDbEntity
  8
D-2
  6
Continuous
 62
     3
370
     9
100
AcDbLine
 10
-718.7811320621706
 20
-321.2573758506551
 30
0.0
 11
-731.281151135657
 21
-321.2573758506551
 31
0.0
  0
LINE
  5
38C
330
1F
100
AcDbEntity
  8
D-2
  6
Continuous
 62
     3
370
     9
100
AcDbLine
 10
-690.2811282474732
 20
-321.2573758506551
 30
0.0
 11
-702.7811282474734
 21
-321.2573758506551
 31
0.0
  0
LINE
  5
38D
330
1F
100
AcDbEntity
  8
D-2
  6
Continuous
 62
     3
370
     9
100
AcDbLine
 10
-661.7811435062623
 20
-321.2573758506551
 30
0.0
 11
-674.2811435062623
 21
-321.2573758506551
 31
0.0
  0
LINE
  5
38E
330
1F
100
AcDbEntity
  8
D-2
  6
Continuous
 62
     3
370
     9
100
AcDbLine
 10
-633.2811396915652
 20
-321.2573758506551
 30
0.0
 11
-645.781139691565
 21
-321.2573758506551
 31
0.0
  0
LINE
  5
38F
330
1F
100
AcDbEntity
  8
D-2
  6
Continuous
 62
     3
370
     9
100
AcDbLine
 10
-604.7811358768679
 20
-321.2573758506551
 30
0.0
 11
-617.2811358768679
 21
-321.2573758506551
 31
0.0
  0
LINE
  5
390
330
1F
100
AcDbEntity
  8
D-2
  6
Continuous
 62
     3
370
     9
100
AcDbLine
 10
-576.2811320621706
 20
-321.2573758506551
 30
0.0
 11
-588.7811320621706
 21
-321.2573758506551
 31
0.0
  0
LINE
  5
391
330
1F
100
AcDbEntity
  8
D-2
  6
Continuous
 62
     3
370
     9
100
AcDbLine
 10
-547.7811377842165
 20
-321.2573758506551
 30
0.0
 11
-560.2811282474734
 21
-321.2573758506551
 31
0.0
  0
LINE
  5
392
330
1F
100
AcDbEntity
  8
D-2
  6
Continuous
 62
     3
370
     9
100
AcDbLine
 10
-519.2811339695193
 20
-321.2573758506551
 30
0.0
 11
-531.7811339695193
 21
-321.2573758506551
 31
0.0
  0
LINE
  5
393
330
1F
100
AcDbEntity
  8
D-2
  6
Continuous
 62
     3
370
     9
100
AcDbLine
 10
-490.7811396915651
 20
-321.2573758506551
 30
0.0
 11
-503.2811396915651
 21
-321.2573758506551
 31
0.0
  0
LINE
  5
394
330
1F
100
AcDbEntity
  8
D-2
  6
Continuous
 62
     3
370
     9
100
AcDbLine
 10
-462.2811358768678
 20
-321.2573758506551
 30
0.0
 11
-474.7811358768678
 21
-321.2573758506551
 31
0.0
  0
LINE
  5
395
330
1F
100
AcDbEntity
  8
D-2
  6
Continuous
 62
     3
370
     9
100
AcDbLine
 10
-433.7811368305422
 20
-321.2573758506551
 30
0.0
 11
-446.2811368305422
 21
-321.2573758506551
 31
0.0
  0
LINE
  5
396
330
1F
100
AcDbEntity
  8
D-2
  6
Continuous
 62
     3
370
     9
100
AcDbLine
 10
-1071.950783093665
 20
-321.2573758506551
 30
0.0
 11
-1060.781120618079
 21
-321.2573758506551
 31
0.0
  0
LINE
  5
397
330
1F
100
AcDbEntity
  8
D-2
  6
Continuous
 62
     3
370
     9
100
AcDbLine
 10
-1030.531143506262
 20
-322.7573759102597
 30
0.0
 11
-1018.031143506262
 21
-322.7573759102597
 31
0.0
  0
LINE
  5
398
330
1F
100
AcDbEntity
  8
D-2
  6
Continuous
 62
     3
370
     9
100
AcDbLine
 10
-1032.281135876868
 20
-321.2573758506551
 30
0.0
 11
-1030.531143506262
 21
-322.7573759102597
 31
0.0
  0
LINE
  5
399
330
1F
100
AcDbEntity
  8
D-2
  6
Continuous
 62
     3
370
     9
100
AcDbLine
 10
-1060.781120618079
 20
-321.2573758506551
 30
0.0
 11
-1059.031166394446
 21
-322.7573759102597
 31
0.0
  0
LINE
  5
39A
330
1F
100
AcDbEntity
  8
D-2
  6
Continuous
 62
     3
370
     9
100
AcDbLine
 10
-1046.531166394446
 20
-322.7573759102597
 30
0.0
 11
-1044.781135876868
 21
-321.2573758506551
 31
0.0
  0
LINE
  5
39B
330
1F
100
AcDbEntity
  8
D-2
  6
Continuous
 62
     3
370
     9
100
AcDbLine
 10
-1046.531166394446
 20
-322.7573759102597
 30
0.0
 11
-1059.031166394446
 21
-322.7573759102597
 31
0.0
  0
LINE
  5
39C
330
1F
100
AcDbEntity
  8
D-2
  6
Continuous
 62
     3
370
     9
100
AcDbLine
 10
-1016.281151135657
 20
-321.2573758506551
 30
0.0
 11
-1018.031143506262
 21
-322.7573759102597
 31
0.0
  0
LINE
  5
39D
330
1F
100
AcDbEntity
  8
D-2
  6
Continuous
 62
     3
370
     9
100
AcDbLine
 10
-973.5311358768679
 20
-322.7573759102597
 30
0.0
 11
-975.2811282474734
 21
-321.2573758506551
 31
0.0
  0
LINE
  5
39E
330
1F
100
AcDbEntity
  8
D-2
  6
Continuous
 62
     3
370
     9
100
AcDbLine
 10
-987.7811282474734
 20
-321.2573758506551
 30
0.0
 11
-989.5311206180788
 21
-322.7573759102597
 31
0.0
  0
LINE
  5
39F
330
1F
100
AcDbEntity
  8
D-2
  6
Continuous
 62
     3
370
     9
100
AcDbLine
 10
-1002.031120618079
 20
-322.7573759102597
 30
0.0
 11
-1003.781151135657
 21
-321.2573758506551
 31
0.0
  0
LINE
  5
3A0
330
1F
100
AcDbEntity
  8
D-2
  6
Continuous
 62
     3
370
     9
100
AcDbLine
 10
-1002.031120618079
 20
-322.7573759102597
 30
0.0
 11
-989.5311206180788
 21
-322.7573759102597
 31
0.0
  0
LINE
  5
3A1
330
1F
100
AcDbEntity
  8
D-2
  6
Continuous
 62
     3
370
     9
100
AcDbLine
 10
-945.031151135657
 20
-322.7573759102597
 30
0.0
 11
-946.7811435062624
 21
-321.2573758506551
 31
0.0
  0
LINE
  5
3A2
330
1F
100
AcDbEntity
  8
D-2
  6
Continuous
 62
     3
370
     9
100
AcDbLine
 10
-959.2811435062624
 20
-321.2573758506551
 30
0.0
 11
-961.0311358768679
 21
-322.7573759102597
 31
0.0
  0
LINE
  5
3A3
330
1F
100
AcDbEntity
  8
D-2
  6
Continuous
 62
     3
370
     9
100
AcDbLine
 10
-973.5311358768679
 20
-322.7573759102597
 30
0.0
 11
-961.0311358768679
 21
-322.7573759102597
 31
0.0
  0
LINE
  5
3A4
330
1F
100
AcDbEntity
  8
D-2
  6
Continuous
 62
     3
370
     9
100
AcDbLine
 10
-916.5311282474734
 20
-322.7573759102597
 30
0.0
 11
-918.2811206180788
 21
-321.2573758506551
 31
0.0
  0
LINE
  5
3A5
330
1F
100
AcDbEntity
  8
D-2
  6
Continuous
 62
     3
370
     9
100
AcDbLine
 10
-930.7811206180788
 20
-321.2573758506551
 30
0.0
 11
-932.531151135657
 21
-322.7573759102597
 31
0.0
  0
LINE
  5
3A6
330
1F
100
AcDbEntity
  8
D-2
  6
Continuous
 62
     3
370
     9
100
AcDbLine
 10
-945.031151135657
 20
-322.7573759102597
 30
0.0
 11
-932.531151135657
 21
-322.7573759102597
 31
0.0
  0
LINE
  5
3A7
330
1F
100
AcDbEntity
  8
D-2
  6
Continuous
 62
     3
370
     9
100
AcDbLine
 10
-888.0311435062624
 20
-322.7573759102597
 30
0.0
 11
-889.7811358768679
 21
-321.2573758506551
 31
0.0
  0
LINE
  5
3A8
330
1F
100
AcDbEntity
  8
D-2
  6
Continuous
 62
     3
370
     9
100
AcDbLine
 10
-902.2811358768679
 20
-321.2573758506551
 30
0.0
 11
-904.0311282474734
 21
-322.7573759102597
 31
0.0
  0
LINE
  5
3A9
330
1F
100
AcDbEntity
  8
D-2
  6
Continuous
 62
     3
370
     9
100
AcDbLine
 10
-916.5311282474734
 20
-322.7573759102597
 30
0.0
 11
-904.0311282474734
 21
-322.7573759102597
 31
0.0
  0
LINE
  5
3AA
330
1F
100
AcDbEntity
  8
D-2
  6
Continuous
 62
     3
370
     9
100
AcDbLine
 10
-859.5311206180788
 20
-322.7573759102597
 30
0.0
 11
-861.281151135657
 21
-321.2573758506551
 31
0.0
  0
LINE
  5
3AB
330
1F
100
AcDbEntity
  8
D-2
  6
Continuous
 62
     3
370
     9
100
AcDbLine
 10
-873.781151135657
 20
-321.2573758506551
 30
0.0
 11
-875.5311435062624
 21
-322.7573759102597
 31
0.0
  0
LINE
  5
3AC
330
1F
100
AcDbEntity
  8
D-2
  6
Continuous
 62
     3
370
     9
100
AcDbLine
 10
-888.0311435062624
 20
-322.7573759102597
 30
0.0
 11
-875.5311435062624
 21
-322.7573759102597
 31
0.0
  0
LINE
  5
3AD
330
1F
100
AcDbEntity
  8
D-2
  6
Continuous
 62
     3
370
     9
100
AcDbLine
 10
-831.0311358768679
 20
-322.7573759102597
 30
0.0
 11
-832.7811282474734
 21
-321.2573758506551
 31
0.0
  0
LINE
  5
3AE
330
1F
100
AcDbEntity
  8
D-2
  6
Continuous
 62
     3
370
     9
100
AcDbLine
 10
-845.2811282474734
 20
-321.2573758506551
 30
0.0
 11
-847.0311206180788
 21
-322.7573759102597
 31
0.0
  0
LINE
  5
3AF
330
1F
100
AcDbEntity
  8
D-2
  6
Continuous
 62
     3
370
     9
100
AcDbLine
 10
-859.5311206180788
 20
-322.7573759102597
 30
0.0
 11
-847.0311206180788
 21
-322.7573759102597
 31
0.0
  0
LINE
  5
3B0
330
1F
100
AcDbEntity
  8
D-2
  6
Continuous
 62
     3
370
     9
100
AcDbLine
 10
-802.531151135657
 20
-322.7573759102597
 30
0.0
 11
-804.2811435062624
 21
-321.2573758506551
 31
0.0
  0
LINE
  5
3B1
330
1F
100
AcDbEntity
  8
D-2
  6
Continuous
 62
     3
370
     9
100
AcDbLine
 10
-816.7811435062624
 20
-321.2573758506551
 30
0.0
 11
-818.5311358768679
 21
-322.7573759102597
 31
0.0
  0
LINE
  5
3B2
330
1F
100
AcDbEntity
  8
D-2
  6
Continuous
 62
     3
370
     9
100
AcDbLine
 10
-831.0311358768679
 20
-322.7573759102597
 30
0.0
 11
-818.5311358768679
 21
-322.7573759102597
 31
0.0
  0
LINE
  5
3B3
330
1F
100
AcDbEntity
  8
D-2
  6
Continuous
 62
     3
370
     9
100
AcDbLine
 10
-774.0311282474734
 20
-322.7573759102597
 30
0.0
 11
-775.7811206180788
 21
-321.2573758506551
 31
0.0
  0
LINE
  5
3B4
330
1F
100
AcDbEntity
  8
D-2
  6
Continuous
 62
     3
370
     9
100
AcDbLine
 10
-788.2811206180788
 20
-321.2573758506551
 30
0.0
 11
-790.031151135657
 21
-322.7573759102597
 31
0.0
  0
LINE
  5
3B5
330
1F
100
AcDbEntity
  8
D-2
  6
Continuous
 62
     3
370
     9
100
AcDbLine
 10
-802.531151135657
 20
-322.7573759102597
 30
0.0
 11
-790.031151135657
 21
-322.7573759102597
 31
0.0
  0
LINE
  5
3B6
330
1F
100
AcDbEntity
  8
D-2
  6
Continuous
 62
     3
370
     9
100
AcDbLine
 10
-745.5311435062624
 20
-322.7573759102597
 30
0.0
 11
-747.2811358768679
 21
-321.2573758506551
 31
0.0
  0
LINE
  5
3B7
330
1F
100
AcDbEntity
  8
D-2
  6
Continuous
 62
     3
370
     9
100
AcDbLine
 10
-759.7811358768679
 20
-321.2573758506551
 30
0.0
 11
-761.5311282474734
 21
-322.7573759102597
 31
0.0
  0
LINE
  5
3B8
330
1F
100
AcDbEntity
  8
D-2
  6
Continuous
 62
     3
370
     9
100
AcDbLine
 10
-774.0311282474734
 20
-322.7573759102597
 30
0.0
 11
-761.5311282474734
 21
-322.7573759102597
 31
0.0
  0
LINE
  5
3B9
330
1F
100
AcDbEntity
  8
D-2
  6
Continuous
 62
     3
370
     9
100
AcDbLine
 10
-717.0311396915652
 20
-322.7573759102597
 30
0.0
 11
-718.7811320621706
 21
-321.2573758506551
 31
0.0
  0
LINE
  5
3BA
330
1F
100
AcDbEntity
  8
D-2
  6
Continuous
 62
     3
370
     9
100
AcDbLine
 10
-731.281151135657
 20
-321.2573758506551
 30
0.0
 11
-733.0311435062624
 21
-322.7573759102597
 31
0.0
  0
LINE
  5
3BB
330
1F
100
AcDbEntity
  8
D-2
  6
Continuous
 62
     3
370
     9
100
AcDbLine
 10
-745.5311435062624
 20
-322.7573759102597
 30
0.0
 11
-733.0311435062624
 21
-322.7573759102597
 31
0.0
  0
LINE
  5
3BC
330
1F
100
AcDbEntity
  8
D-2
  6
Continuous
 62
     3
370
     9
100
AcDbLine
 10
-688.5311358768678
 20
-322.7573759102597
 30
0.0
 11
-690.2811282474732
 21
-321.2573758506551
 31
0.0
  0
LINE
  5
3BD
330
1F
100
AcDbEntity
  8
D-2
  6
Continuous
 62
     3
370
     9
100
AcDbLine
 10
-702.7811282474734
 20
-321.2573758506551
 30
0.0
 11
-704.5311396915652
 21
-322.7573759102597
 31
0.0
  0
LINE
  5
3BE
330
1F
100
AcDbEntity
  8
D-2
  6
Continuous
 62
     3
370
     9
100
AcDbLine
 10
-717.0311396915652
 20
-322.7573759102597
 30
0.0
 11
-704.5311396915652
 21
-322.7573759102597
 31
0.0
  0
LINE
  5
3BF
330
1F
100
AcDbEntity
  8
D-2
  6
Continuous
 62
     3
370
     9
100
AcDbLine
 10
-660.0311320621705
 20
-322.7573759102597
 30
0.0
 11
-661.7811435062623
 21
-321.2573758506551
 31
0.0
  0
LINE
  5
3C0
330
1F
100
AcDbEntity
  8
D-2
  6
Continuous
 62
     3
370
     9
100
AcDbLine
 10
-674.2811435062623
 20
-321.2573758506551
 30
0.0
 11
-676.0311358768678
 21
-322.7573759102597
 31
0.0
  0
LINE
  5
3C1
330
1F
100
AcDbEntity
  8
D-2
  6
Continuous
 62
     3
370
     9
100
AcDbLine
 10
-688.5311358768678
 20
-322.7573759102597
 30
0.0
 11
-676.0311358768678
 21
-322.7573759102597
 31
0.0
  0
LINE
  5
3C2
330
1F
100
AcDbEntity
  8
D-2
  6
Continuous
 62
     3
370
     9
100
AcDbLine
 10
-631.5311282474734
 20
-322.7573759102597
 30
0.0
 11
-633.2811396915652
 21
-321.2573758506551
 31
0.0
  0
LINE
  5
3C3
330
1F
100
AcDbEntity
  8
D-2
  6
Continuous
 62
     3
370
     9
100
AcDbLine
 10
-645.781139691565
 20
-321.2573758506551
 30
0.0
 11
-647.5311320621705
 21
-322.7573759102597
 31
0.0
  0
LINE
  5
3C4
330
1F
100
AcDbEntity
  8
D-2
  6
Continuous
 62
     3
370
     9
100
AcDbLine
 10
-660.0311320621705
 20
-322.7573759102597
 30
0.0
 11
-647.5311320621705
 21
-322.7573759102597
 31
0.0
  0
LINE
  5
3C5
330
1F
100
AcDbEntity
  8
D-2
  6
Continuous
 62
     3
370
     9
100
AcDbLine
 10
-603.0311435062624
 20
-322.7573759102597
 30
0.0
 11
-604.7811358768679
 21
-321.2573758506551
 31
0.0
  0
LINE
  5
3C6
330
1F
100
AcDbEntity
  8
D-2
  6
Continuous
 62
     3
370
     9
100
AcDbLine
 10
-617.2811358768679
 20
-321.2573758506551
 30
0.0
 11
-619.0311282474734
 21
-322.7573759102597
 31
0.0
  0
LINE
  5
3C7
330
1F
100
AcDbEntity
  8
D-2
  6
Continuous
 62
     3
370
     9
100
AcDbLine
 10
-631.5311282474734
 20
-322.7573759102597
 30
0.0
 11
-619.0311282474734
 21
-322.7573759102597
 31
0.0
  0
LINE
  5
3C8
330
1F
100
AcDbEntity
  8
D-2
  6
Continuous
 62
     3
370
     9
100
AcDbLine
 10
-574.5311396915652
 20
-322.7573759102597
 30
0.0
 11
-576.2811320621706
 21
-321.2573758506551
 31
0.0
  0
LINE
  5
3C9
330
1F
100
AcDbEntity
  8
D-2
  6
Continuous
 62
     3
370
     9
100
AcDbLine
 10
-588.7811320621706
 20
-321.2573758506551
 30
0.0
 11
-590.5311435062624
 21
-322.7573759102597
 31
0.0
  0
LINE
  5
3CA
330
1F
100
AcDbEntity
  8
D-2
  6
Continuous
 62
     3
370
     9
100
AcDbLine
 10
-603.0311435062624
 20
-322.7573759102597
 30
0.0
 11
-590.5311435062624
 21
-322.7573759102597
 31
0.0
  0
LINE
  5
3CB
330
1F
100
AcDbEntity
  8
D-2
  6
Continuous
 62
     3
370
     9
100
AcDbLine
 10
-546.0311358768679
 20
-322.7573759102597
 30
0.0
 11
-547.7811377842165
 21
-321.2573758506551
 31
0.0
  0
LINE
  5
3CC
330
1F
100
AcDbEntity
  8
D-2
  6
Continuous
 62
     3
370
     9
100
AcDbLine
 10
-560.2811282474734
 20
-321.2573758506551
 30
0.0
 11
-562.0311396915652
 21
-322.7573759102597
 31
0.0
  0
LINE
  5
3CD
330
1F
100
AcDbEntity
  8
D-2
  6
Continuous
 62
     3
370
     9
100
AcDbLine
 10
-574.5311396915652
 20
-322.7573759102597
 30
0.0
 11
-562.0311396915652
 21
-322.7573759102597
 31
0.0
  0
LINE
  5
3CE
330
1F
100
AcDbEntity
  8
D-2
  6
Continuous
 62
     3
370
     9
100
AcDbLine
 10
-517.5311320621706
 20
-322.7573759102597
 30
0.0
 11
-519.2811339695193
 21
-321.2573758506551
 31
0.0
  0
LINE
  5
3CF
330
1F
100
AcDbEntity
  8
D-2
  6
Continuous
 62
     3
370
     9
100
AcDbLine
 10
-531.7811339695193
 20
-321.2573758506551
 30
0.0
 11
-533.5311358768679
 21
-322.7573759102597
 31
0.0
  0
LINE
  5
3D0
330
1F
100
AcDbEntity
  8
D-2
  6
Continuous
 62
     3
370
     9
100
AcDbLine
 10
-546.0311358768679
 20
-322.7573759102597
 30
0.0
 11
-533.5311358768679
 21
-322.7573759102597
 31
0.0
  0
LINE
  5
3D1
330
1F
100
AcDbEntity
  8
D-2
  6
Continuous
 62
     3
370
     9
100
AcDbLine
 10
-489.0311377842165
 20
-322.7573759102597
 30
0.0
 11
-490.7811396915651
 21
-321.2573758506551
 31
0.0
  0
LINE
  5
3D2
330
1F
100
AcDbEntity
  8
D-2
  6
Continuous
 62
     3
370
     9
100
AcDbLine
 10
-503.2811396915651
 20
-321.2573758506551
 30
0.0
 11
-505.0311320621706
 21
-322.7573759102597
 31
0.0
  0
LINE
  5
3D3
330
1F
100
AcDbEntity
  8
D-2
  6
Continuous
 62
     3
370
     9
100
AcDbLine
 10
-517.5311320621706
 20
-322.7573759102597
 30
0.0
 11
-505.0311320621706
 21
-322.7573759102597
 31
0.0
  0
LINE
  5
3D4
330
1F
100
AcDbEntity
  8
D-2
  6
Continuous
 62
     3
370
     9
100
AcDbLine
 10
-460.5311339695192
 20
-322.7573759102597
 30
0.0
 11
-462.2811358768678
 21
-321.2573758506551
 31
0.0
  0
LINE
  5
3D5
330
1F
100
AcDbEntity
  8
D-2
  6
Continuous
 62
     3
370
     9
100
AcDbLine
 10
-474.7811358768678
 20
-321.2573758506551
 30
0.0
 11
-476.5311377842165
 21
-322.7573759102597
 31
0.0
  0
LINE
  5
3D6
330
1F
100
AcDbEntity
  8
D-2
  6
Continuous
 62
     3
370
     9
100
AcDbLine
 10
-489.0311377842165
 20
-322.7573759102597
 30
0.0
 11
-476.5311377842165
 21
-322.7573759102597
 31
0.0
  0
LINE
  5
3D7
330
1F
100
AcDbEntity
  8
D-2
  6
Continuous
 62
     3
370
     9
100
AcDbLine
 10
-432.0311373073793
 20
-322.7573759102597
 30
0.0
 11
-433.7811368305422
 21
-321.2573758506551
 31
0.0
  0
LINE
  5
3D8
330
1F
100
AcDbEntity
  8
D-2
  6
Continuous
 62
     3
370
     9
100
AcDbLine
 10
-446.2811368305422
 20
-321.2573758506551
 30
0.0
 11
-448.0311339695192
 21
-322.7573759102597
 31
0.0
  0
LINE
  5
3D9
330
1F
100
AcDbEntity
  8
D-2
  6
Continuous
 62
     3
370
     9
100
AcDbLine
 10
-460.5311339695192
 20
-322.7573759102597
 30
0.0
 11
-448.0311339695192
 21
-322.7573759102597
 31
0.0
  0
LINE
  5
3DA
330
1F
100
AcDbEntity
  8
D-2
  6
Continuous
 62
     3
370
     9
100
AcDbLine
 10
-400.7734067339636
 20
-343.765842094399
 30
0.0
 11
-399.3698716789669
 21
-341.9375649833455
 31
0.0
  0
LINE
  5
3DB
330
1F
100
AcDbEntity
  8
D-2
  6
Continuous
 62
     3
370
     9
100
AcDbLine
 10
-432.0311373073793
 20
-322.7573759102597
 30
0.0
 11
-421.5229934055544
 21
-323.782560601212
 31
0.0
  0
LINE
  5
3DC
330
1F
100
AcDbEntity
  8
D-2
  6
Continuous
 62
     3
370
     9
100
AcDbLine
 10
-419.974381287787
 20
-322.7374825620427
 30
0.0
 11
-421.5229934055544
 21
-323.782560601212
 31
0.0
  0
LINE
  5
3DD
330
1F
100
AcDbEntity
  8
D-2
  6
Continuous
 62
     3
370
     9
100
AcDbLine
 10
-400.7811364133096
 20
-343.7573758506551
 30
0.0
 11
-400.7811364133096
 21
-359.5073739433064
 31
0.0
  0
LINE
  5
3DE
330
1F
100
AcDbEntity
  8
D-2
  6
Continuous
 62
     3
370
     9
100
AcDbLine
 10
-399.281136353705
 20
-373.7573758506551
 30
0.0
 11
-399.281136353705
 21
-361.2573758506551
 31
0.0
  0
LINE
  5
3DF
330
1F
100
AcDbEntity
  8
D-2
  6
Continuous
 62
     3
370
     9
100
AcDbLine
 10
-399.281136353705
 20
-361.2573758506551
 30
0.0
 11
-400.7811364133096
 21
-359.5073739433064
 31
0.0
  0
LINE
  5
3E0
330
1F
100
AcDbEntity
  8
D-2
  6
Continuous
 62
     3
370
     9
100
AcDbLine
 10
-400.7811364133096
 20
-375.5073777580037
 30
0.0
 11
-399.281136353705
 21
-373.7573758506551
 31
0.0
  0
LINE
  5
3E1
330
1F
100
AcDbEntity
  8
D-2
  6
Continuous
 62
     3
370
     9
100
AcDbLine
 10
-400.7811364133096
 20
-375.5073777580037
 30
0.0
 11
-400.7811364133096
 21
-388.0073777580037
 31
0.0
  0
LINE
  5
3E2
330
1F
100
AcDbEntity
  8
D-2
  6
Continuous
 62
     3
370
     9
100
AcDbLine
 10
-399.281136353705
 20
-389.7573748969808
 30
0.0
 11
-400.7811364133096
 21
-388.0073777580037
 31
0.0
  0
LINE
  5
3E3
330
1F
100
AcDbEntity
  8
D-2
  6
Continuous
 62
     3
370
     9
100
AcDbLine
 10
-399.281136353705
 20
-396.2573758506551
 30
0.0
 11
-399.281136353705
 21
-389.7573748969808
 31
0.0
  0
ARC
  5
3E4
330
1F
100
AcDbEntity
  8
D-2
  6
Continuous
 62
     3
370
     9
100
AcDbCircle
 10
-429.281136353705
 20
-351.2573758506551
 30
0.0
 40
15.0
100
AcDbArc
 50
0.0
 51
90.0
  0
CIRCLE
  5
3E5
330
1F
100
AcDbEntity
  8
D-5
  6
Continuous
 62
     7
370
     9
100
AcDbCircle
 10
-982.0359652836062
 20
-311.7091927671208
 30
0.0
 40
60.0
  0
ARC
  5
3E6
330
1F
100
AcDbEntity
  8
D-2
  6
Continuous
 62
     3
370
     9
100
AcDbCircle
 10
-427.7310293514467
 20
-351.7173806571736
 30
0.0
 40
30.0
100
AcDbArc
 50
19.02577209472656
 51
75.01564025878906
  0
LWPOLYLINE
  5
3E7
330
1F
100
AcDbEntity
  8
D-4
  6
Continuous
 62
     7
370
     9
100
AcDbPolyline
 90
        4
 70
     1
 43
1.0
 10
-586.2812579471804
 20
-321.2573758506551
 42
0.4142135623731
 10
-586.7812579471804
 20
-320.7573758506551
 42
0.4142135623731
 10
-587.2812579471803
 20
-321.2573758506551
 42
0.4142135623731
 10
-586.7812579471804
 20
-321.7573758506551
 42
0.4142135623731
  0
LWPOLYLINE
  5
3E8
330
1F
100
AcDbEntity
  8
D-4
  6
Continuous
 62
     7
370
     9
100
AcDbPolyline
 90
        4
 70
     1
 43
1.0
 10
-586.2812579471804
 20
-396.2573758506551
 42
0.4142135623731
 10
-586.7812579471804
 20
-395.7573758506551
 42
0.4142135623731
 10
-587.2812579471803
 20
-396.2573758506551
 42
0.4142135623731
 10
-586.7812579471804
 20
-396.7573758506551
 42
0.4142135623731
  0
LWPOLYLINE
  5
3E9
330
1F
100
AcDbEntity
  8
D-4
  6
Continuous
 62
     7
370
     9
100
AcDbPolyline
 90
        4
 70
     1
 43
1.0
 10
-724.5203555423952
 20
-336.2573758506551
 42
0.4142135623731
 10
-725.0203555423952
 20
-335.7573758506551
 42
0.4142135623731
 10
-725.5203555423952
 20
-336.2573758506551
 42
0.4142135623731
 10
-725.0203555423952
 20
-336.7573758506551
 42
0.4142135623731
  0
LWPOLYLINE
  5
3EA
330
1F
100
AcDbEntity
  8
D-4
  6
Continuous
 62
     7
370
     9
100
AcDbPolyline
 90
        4
 70
     1
 43
1.0
 10
-724.5203555423952
 20
-321.2573758506551
 42
0.4142135623731
 10
-725.0203555423952
 20
-320.7573758506551
 42
0.4142135623731
 10
-725.5203555423952
 20
-321.2573758506551
 42
0.4142135623731
 10
-725.0203555423952
 20
-321.7573758506551
 42
0.4142135623731
  0
TEXT
  5
3EB
330
1F
100
AcDbEntity
  8
D-4
  6
Continuous
 62
     2
370
     9
100
AcDbText
 10
-736.6603784305788
 20
-307.3998981938212
 30
0.0
 40
30.48
  1
3
 50
90.00000250447808
 41
1.000000000000001
  7
ＭＳ ゴシック
100
AcDbText
  0
TEXT
  5
3EC
330
1F
100
AcDbEntity
  8
D-5
  6
Continuous
 62
     2
370
     9
100
AcDbText
 10
422.8906780879759
 20
-335.6173138618245
 30
0.0
 40
30.48
  1
仕　様
 41
1.083333333333333
  7
ＭＳ ゴシック
100
AcDbText
  0
TEXT
  5
3ED
330
1F
100
AcDbEntity
  8
D-5
  6
Continuous
 62
     7
370
     9
100
AcDbText
 10
-265.8714907963014
 20
-48.6600853538289
 30
0.0
 40
22.86
  1
ノンスリップタイプ
 41
1.148148148148148
  7
ＭＳ ゴシック
100
AcDbText
  0
TEXT
  5
3EE
330
1F
100
AcDbEntity
  8
D-5
  6
Continuous
 62
     2
370
     9
100
AcDbText
 10
537.1932751338743
 20
-528.5380988120811
 30
0.0
 40
30.48
  1
材質：ＳＵＳ３０４
 41
1.111111111111111
  7
ＭＳ ゴシック
100
AcDbText
  0
TEXT
  5
3EF
330
1F
100
AcDbEntity
  8
D-5
  6
Continuous
 62
     2
370
     9
100
AcDbText
 10
-1063.533119519446
 20
-255.6028275489583
 30
0.0
 40
30.48
  1
Ａ
 41
0.9999999999999927
  7
ＭＳ ゴシック
100
AcDbText
  0
TEXT
  5
3F0
330
1F
100
AcDbEntity
  8
D-5
  6
Continuous
 62
     2
370
     9
100
AcDbText
 10
-1362.382530530188
 20
-508.5139517783897
 30
0.0
 40
30.48
  1
3
 41
0.9999999999999998
  7
ＭＳ ゴシック
100
AcDbText
  0
TEXT
  5
3F1
330
1F
100
AcDbEntity
  8
D-5
  6
Continuous
 62
     2
370
     9
100
AcDbText
 10
-1423.037666638586
 20
-510.8874373435752
 30
0.0
 40
30.48
  1
3
 41
0.9999999999999998
  7
ＭＳ ゴシック
100
AcDbText
  0
TEXT
  5
3F2
330
1F
100
AcDbEntity
  8
D-5
  6
Continuous
 62
     2
370
     9
100
AcDbText
 10
-1723.343575452063
 20
-640.7708114609571
 30
0.0
 40
30.48
  1
3
 50
90.00000250447847
 41
1.000000000000001
  7
ＭＳ ゴシック
100
AcDbText
  0
TEXT
  5
3F3
330
1F
100
AcDbEntity
  8
D-5
  6
Continuous
 62
     2
370
     9
100
AcDbText
 10
-1687.620567639563
 20
-745.9604697227256
 30
0.0
 40
30.48
  1
Ａ部詳細図　Ｓ＝２：１
 41
1.113636363636364
  7
ＭＳ ゴシック
100
AcDbText
  0
TEXT
  5
3F4
330
1F
100
AcDbEntity
  8
D-5
  6
Continuous
 62
     7
370
     9
100
AcDbText
 10
-267.0764010746217
 20
-83.2875610923543
 30
0.0
 40
22.86
  1
ステンレス製排水用蓋ＳＧ－Ｂ－１５（ｔ＝３）
 41
1.159090909090909
  7
ＭＳ ゴシック
100
AcDbText
  0
TEXT
  5
3F5
330
1F
100
AcDbEntity
  8
D-5
  6
Continuous
 62
     2
370
     9
100
AcDbText
 10
537.1932751338743
 20
-587.7129797935264
 30
0.0
 40
30.48
  1
定尺：４９９
 41
1.104166666666666
  7
ＭＳ ゴシック
100
AcDbText
  0
TEXT
  5
3F6
330
1F
100
AcDbEntity
  8
D-5
  6
Continuous
 62
     2
370
     9
100
AcDbText
 10
-1204.348443005774
 20
-552.3073142990919
 30
0.0
 40
30.48
  1
0.3
 50
90.00000250447822
 41
1.083333333333339
  7
ＭＳ ゴシック
100
AcDbText
  0
TEXT
  5
3F7
330
1F
100
AcDbEntity
  8
D-4
  6
Continuous
 62
     2
370
     9
100
AcDbText
 10
-598.1391637968796
 20
-382.691743107094
 30
0.0
 40
30.48
  1
15
 50
90.0000025
 41
1.062499999999999
  7
ＭＳ ゴシック
100
AcDbText
  0
TEXT
  5
3F8
330
1F
100
AcDbEntity
  8
D-5
  6
Continuous
 62
     2
370
     9
100
AcDbText
 10
477.4808270137572
 20
-463.5380034446492
 30
0.0
 40
30.48
  1
ステンレス製排水用蓋　ＳＧ－Ｂ－１５　１２０×５００×１５
 41
1.120689655172413
  7
ＭＳ ゴシック
100
AcDbText
  0
TEXT
  5
3F9
330
1F
100
AcDbEntity
  8
F-5ﾚｲﾔ
  6
Continuous
 62
     2
370
     0
100
AcDbText
 10
-457.6092912469903
 20
-1372.468307252066
 30
0.0
 40
30.48
  1
ＳＧ－Ｂ－１５　１２０×５００×１５＋ＳＦ１５Ｂ
 41
0.8989583333333333
  7
ＭＳ ゴシック
100
AcDbText
  0
TEXT
  5
3FA
330
1F
100
AcDbEntity
  8
D-4
  6
Continuous
 62
     2
370
     9
100
AcDbText
 10
-1086.948952038977
 20
-187.1982626914754
 30
0.0
 40
30.48
  1
70
 41
1.0625
  7
ＭＳ ゴシック
100
AcDbText
  0
TEXT
  5
3FB
330
1F
100
AcDbEntity
  8
D-4
  6
Continuous
 62
     2
370
     9
100
AcDbText
 10
-1086.948952038977
 20
-78.39826269147537
 30
0.0
 40
30.48
  1
120
 41
1.083333333333333
  7
ＭＳ ゴシック
100
AcDbText
  0
TEXT
  5
3FC
330
1F
100
AcDbEntity
  8
D-4
  6
Continuous
 62
     2
370
     9
100
AcDbText
 10
-1086.948952038977
 20
32.3017373085246
 30
0.0
 40
30.48
  1
132
 41
1.083333333333333
  7
ＭＳ ゴシック
100
AcDbText
  0
TEXT
  5
3FD
330
1F
100
AcDbEntity
  8
F-5ﾚｲﾔ
  6
Continuous
 62
     2
370
     0
100
AcDbText
 10
-832.5003505397488
 20
-1322.468341437855
 30
0.0
 40
30.48
  1
ステンレス製　かさあげノンスリップタイプ排水ピット蓋（板厚３ｍｍ、高さ１５ｍｍ）
 41
0.7743749999999999
  7
ＭＳ ゴシック
100
AcDbText
  0
TEXT
  5
3FE
330
1F
100
AcDbEntity
  8
D-5
  6
Continuous
 62
     2
370
     9
100
AcDbText
 10
477.4808270137572
 20
-398.5379176139608
 30
0.0
 40
30.48
  1
かさあげノンスリップタイプ
 41
1.115384615384615
  7
ＭＳ ゴシック
100
AcDbText
  0
LINE
  5
3FF
330
1F
100
AcDbEntity
  8
D-2
  6
Continuous
 62
     3
370
     9
100
AcDbLine
 10
-1071.950783093665
 20
-302.4843815707936
 30
0.0
 11
-1071.950783093665
 21
-362.8082278481013
 31
0.0
  0
ENDSEC
  0
SECTION
  2
OBJECTS
  0
DICTIONARY
  5
C
330
0
100
AcDbDictionary
281
     1
  3
ACAD_GROUP
350
D
  3
ACAD_LAYOUT
350
1A
  3
ACAD_MLEADERSTYLE
350
401
  3
ACAD_MLINESTYLE
350
17
  3
ACAD_PLOTSETTINGS
350
19
  3
ACAD_PLOTSTYLENAME
350
E
  3
ACAD_TABLESTYLE
350
400
  3
ACAD_VISUALSTYLE
350
2A
  3
AcDbVariableDictionary
350
402
  0
DICTIONARY
  5
D
102
{ACAD_REACTORS
330
C
102
}
330
C
100
AcDbDictionary
281
     1
  0
DICTIONARY
  5
1A
102
{ACAD_REACTORS
330
C
102
}
330
C
100
AcDbDictionary
281
     1
  3
Layout1
350
1E
  3
Layout2
350
26
  3
Model
350
22
  0
DICTIONARY
  5
401
102
{ACAD_REACTORS
330
C
102
}
330
C
100
AcDbDictionary
281
     1
  0
DICTIONARY
  5
17
102
{ACAD_REACTORS
330
C
102
}
330
C
100
AcDbDictionary
281
     1
  3
Standard
350
18
  0
DICTIONARY
  5
19
102
{ACAD_REACTORS
330
C
102
}
330
C
100
AcDbDictionary
281
     1
  0
ACDBDICTIONARYWDFLT
  5
E
102
{ACAD_REACTORS
330
C
102
}
330
C
100
AcDbDictionary
281
     1
  3
Normal
350
F
100
AcDbDictionaryWithDefault
340
F
  0
DICTIONARY
  5
400
102
{ACAD_REACTORS
330
C
102
}
330
C
100
AcDbDictionary
281
     1
  0
DICTIONARY
  5
2A
102
{ACAD_REACTORS
330
C
102
}
330
C
100
AcDbDictionary
281
     1
  3
2dWireframe
350
2F
  3
3D Hidden
350
31
  3
3dWireframe
350
30
  3
Basic
350
32
  3
Brighten
350
36
  3
ColorChange
350
3A
  3
Conceptual
350
34
  3
Dim
350
35
  3
Facepattern
350
39
  3
Flat
350
2B
  3
FlatWithEdges
350
2C
  3
Gouraud
350
2D
  3
GouraudWithEdges
350
2E
  3
Linepattern
350
38
  3
Realistic
350
33
  3
Thicken
350
37
  0
DICTIONARY
  5
402
102
{ACAD_REACTORS
330
C
102
}
330
C
100
AcDbDictionary
281
     1
  3
PSOLHEIGHT
350
404
  3
PSOLWIDTH
350
403
  0
LAYOUT
  5
1E
102
{ACAD_REACTORS
330
1A
102
}
102
{ACAD_XDICTIONARY
360
405
102
}
330
1A
100
AcDbPlotSettings
  1

  2
none_device
  4

  6

 40
0.0
 41
0.0
 42
0.0
 43
0.0
 44
0.0
 45
0.0
 46
0.0
 47
0.0
 48
0.0
 49
0.0
140
0.0
141
0.0
142
1.0
143
1.0
 70
   688
 72
     0
 73
     0
 74
     5
  7

 75
    16
147
1.0
148
0.0
149
0.0
100
AcDbLayout
  1
Layout1
 70
     1
 71
     1
 10
0.0
 20
0.0
 11
420.0
 21
297.0
 12
0.0
 22
0.0
 32
0.0
 14
1.000000000000000E+20
 24
1.000000000000000E+20
 34
1.000000000000000E+20
 15
-1.000000000000000E+20
 25
-1.000000000000000E+20
 35
-1.000000000000000E+20
146
0.0
 13
0.0
 23
0.0
 33
0.0
 16
1.0
 26
0.0
 36
0.0
 17
0.0
 27
1.0
 37
0.0
 76
     0
330
1B
  0
LAYOUT
  5
26
102
{ACAD_REACTORS
330
1A
102
}
102
{ACAD_XDICTIONARY
360
409
102
}
330
1A
100
AcDbPlotSettings
  1

  2
none_device
  4

  6

 40
0.0
 41
0.0
 42
0.0
 43
0.0
 44
0.0
 45
0.0
 46
0.0
 47
0.0
 48
0.0
 49
0.0
140
0.0
141
0.0
142
1.0
143
1.0
 70
   688
 72
     0
 73
     0
 74
     5
  7

 75
    16
147
1.0
148
0.0
149
0.0
100
AcDbLayout
  1
Layout2
 70
     1
 71
     2
 10
0.0
 20
0.0
 11
0.0
 21
0.0
 12
0.0
 22
0.0
 32
0.0
 14
0.0
 24
0.0
 34
0.0
 15
0.0
 25
0.0
 35
0.0
146
0.0
 13
0.0
 23
0.0
 33
0.0
 16
1.0
 26
0.0
 36
0.0
 17
0.0
 27
1.0
 37
0.0
 76
     0
330
23
  0
LAYOUT
  5
22
102
{ACAD_REACTORS
330
1A
102
}
102
{ACAD_XDICTIONARY
360
407
102
}
330
1A
100
AcDbPlotSettings
  1

  2
none_device
  4

  6

 40
0.0
 41
0.0
 42
0.0
 43
0.0
 44
0.0
 45
0.0
 46
0.0
 47
0.0
 48
0.0
 49
0.0
140
0.0
141
0.0
142
1.0
143
1.0
 70
  1712
 72
     0
 73
     0
 74
     0
  7

 75
     0
147
1.0
148
0.0
149
0.0
100
AcDbLayout
  1
Model
 70
     1
 71
     0
 10
-2100.0
 20
-1485.0
 11
2100.0
 21
1485.0
 12
0.0
 22
0.0
 32
0.0
 14
-2100.0
 24
-1485.0
 34
0.0
 15
2100.0
 25
1485.0
 35
0.0
146
0.0
 13
0.0
 23
0.0
 33
0.0
 16
1.0
 26
0.0
 36
0.0
 17
0.0
 27
1.0
 37
0.0
 76
     0
330
1F
331
29
  0
MLINESTYLE
  5
18
102
{ACAD_REACTORS
330
17
102
}
330
17
100
AcDbMlineStyle
  2
Standard
 70
     0
  3

 62
   256
 51
90.0
 52
90.0
 71
     2
 49
0.5
 62
   256
  6
BYLAYER
 49
-0.5
 62
   256
  6
BYLAYER
  0
ACDBPLACEHOLDER
  5
F
102
{ACAD_REACTORS
330
E
102
}
330
E
  0
VISUALSTYLE
  5
2F
102
{ACAD_REACTORS
330
2A
102
}
330
2A
100
AcDbVisualStyle
  2
2dWireframe
 70
     4
 71
     0
 72
     2
 73
     0
 90
        0
 40
-0.6
 41
-30.0
 62
     5
 63
     7
 74
     1
 91
        4
 64
     7
 65
   257
 75
     1
175
     1
 42
1.0
 92
        0
 66
   257
 43
1.0
 76
     1
 77
     6
 78
     2
 67
     7
 79
     5
170
     0
171
     0
290
     0
174
     0
 93
        1
 44
0.0
173
     0
291
     0
 45
0.0
1001
ACAD
1000
AcDbSavedByObjectVersion
1070
     0
  0
VISUALSTYLE
  5
31
102
{ACAD_REACTORS
330
2A
102
}
330
2A
100
AcDbVisualStyle
  2
3D Hidden
 70
     6
 71
     1
 72
     2
 73
     2
 90
        0
 40
-0.6
 41
-30.0
 62
     5
 63
     7
 74
     2
 91
        2
 64
     7
 65
   257
 75
     2
175
     1
 42
40.0
 92
        0
 66
   257
 43
1.0
 76
     1
 77
     6
 78
     2
 67
     7
 79
     3
170
     0
171
     0
290
     0
174
     0
 93
        1
 44
0.0
173
     0
291
     0
 45
0.0
1001
ACAD
1000
AcDbSavedByObjectVersion
1070
     0
  0
VISUALSTYLE
  5
30
102
{ACAD_REACTORS
330
2A
102
}
330
2A
100
AcDbVisualStyle
  2
3dWireframe
 70
     5
 71
     0
 72
     2
 73
     0
 90
        0
 40
-0.6
 41
-30.0
 62
     5
 63
     7
 74
     1
 91
        4
 64
     7
 65
   257
 75
     1
175
     1
 42
1.0
 92
        0
 66
   257
 43
1.0
 76
     1
 77
     6
 78
     2
 67
     7
 79
     5
170
     0
171
     0
290
     0
174
     0
 93
        1
 44
0.0
173
     0
291
     0
 45
0.0
1001
ACAD
1000
AcDbSavedByObjectVersion
1070
     0
  0
VISUALSTYLE
  5
32
102
{ACAD_REACTORS
330
2A
102
}
330
2A
100
AcDbVisualStyle
  2
Basic
 70
     7
 71
     1
 72
     0
 73
     1
 90
        0
 40
-0.6
 41
-30.0
 62
     5
 63
     7
 74
     0
 91
        4
 64
     7
 65
   257
 75
     1
175
     1
 42
1.0
 92
        8
 66
     7
 43
1.0
 76
     1
 77
     6
 78
     2
 67
     7
 79
     5
170
     0
171
     0
290
     0
174
     0
 93
        1
 44
0.0
173
     0
291
     1
 45
0.0
1001
ACAD
1000
AcDbSavedByObjectVersion
1070
     0
  0
VISUALSTYLE
  5
36
102
{ACAD_REACTORS
330
2A
102
}
330
2A
100
AcDbVisualStyle
  2
Brighten
 70
    12
 71
     2
 72
     2
 73
     0
 90
        0
 40
-0.6
 41
-30.0
 62
     5
 63
     7
 74
     1
 91
        4
 64
     7
 65
   257
 75
     1
175
     1
 42
1.0
 92
        8
 66
     7
 43
1.0
 76
     1
 77
     6
 78
     2
 67
     7
 79
     5
170
     0
171
     0
290
     0
174
     0
 93
        1
 44
50.0
173
     0
291
     1
 45
0.0
1001
ACAD
1000
AcDbSavedByObjectVersion
1070
     0
  0
VISUALSTYLE
  5
3A
102
{ACAD_REACTORS
330
2A
102
}
330
2A
100
AcDbVisualStyle
  2
ColorChange
 70
    16
 71
     2
 72
     2
 73
     3
 90
        0
 40
-0.6
 41
-30.0
 62
     5
 63
     8
 74
     1
 91
        4
 64
     7
 65
   257
 75
     1
175
     1
 42
1.0
 92
        8
 66
     8
 43
1.0
 76
     1
 77
     6
 78
     2
 67
     7
 79
     5
170
     0
171
     0
290
     0
174
     0
 93
        1
 44
0.0
173
     0
291
     1
 45
0.0
1001
ACAD
1000
AcDbSavedByObjectVersion
1070
     0
  0
VISUALSTYLE
  5
34
102
{ACAD_REACTORS
330
2A
102
}
330
2A
100
AcDbVisualStyle
  2
Conceptual
 70
     9
 71
     3
 72
     2
 73
     0
 90
        0
 40
-0.6
 41
-30.0
 62
     5
 63
     7
 74
     2
 91
        2
 64
     7
 65
   257
 75
     1
175
     1
 42
40.0
 92
        8
 66
     7
 43
1.0
 76
     1
 77
     6
 78
     2
 67
     7
 79
     3
170
     0
171
     0
290
     0
174
     0
 93
        1
 44
0.0
173
     0
291
     0
 45
0.0
1001
ACAD
1000
AcDbSavedByObjectVersion
1070
     0
  0
VISUALSTYLE
  5
35
102
{ACAD_REACTORS
330
2A
102
}
330
2A
100
AcDbVisualStyle
  2
Dim
 70
    11
 71
     2
 72
     2
 73
     0
 90
        0
 40
-0.6
 41
-30.0
 62
     5
 63
     7
 74
     1
 91
        4
 64
     7
 65
   257
 75
     1
175
     1
 42
1.0
 92
        8
 66
     7
 43
1.0
 76
     1
 77
     6
 78
     2
 67
     7
 79
     5
170
     0
171
     0
290
     0
174
     0
 93
        1
 44
-50.0
173
     0
291
     1
 45
0.0
1001
ACAD
1000
AcDbSavedByObjectVersion
1070
     0
  0
VISUALSTYLE
  5
39
102
{ACAD_REACTORS
330
2A
102
}
330
2A
100
AcDbVisualStyle
  2
Facepattern
 70
    15
 71
     2
 72
     2
 73
     0
 90
        0
 40
-0.6
 41
-30.0
 62
     5
 63
     7
 74
     1
 91
        4
 64
     7
 65
   257
 75
     1
175
     1
 42
1.0
 92
        8
 66
     7
 43
1.0
 76
     1
 77
     6
 78
     2
 67
     7
 79
     5
170
     0
171
     0
290
     0
174
     0
 93
        1
 44
0.0
173
     0
291
     1
 45
0.0
1001
ACAD
1000
AcDbSavedByObjectVersion
1070
     0
  0
VISUALSTYLE
  5
2B
102
{ACAD_REACTORS
330
2A
102
}
330
2A
100
AcDbVisualStyle
  2
Flat
 70
     0
 71
     2
 72
     1
 73
     1
 90
        2
 40
-0.6
 41
30.0
 62
     5
 63
     7
 74
     0
 91
        4
 64
     7
 65
   257
 75
     1
175
     1
 42
1.0
 92
        8
 66
     7
 43
1.0
 76
     1
 77
     6
 78
     2
 67
     7
 79
     5
170
     0
171
     0
290
     0
174
     0
 93
       13
 44
0.0
173
     0
291
     1
 45
0.0
1001
ACAD
1000
AcDbSavedByObjectVersion
1070
     0
  0
VISUALSTYLE
  5
2C
102
{ACAD_REACTORS
330
2A
102
}
330
2A
100
AcDbVisualStyle
  2
FlatWithEdges
 70
     1
 71
     2
 72
     1
 73
     1
 90
        2
 40
-0.6
 41
30.0
 62
     5
 63
     7
 74
     1
 91
        4
 64
     7
 65
   257
 75
     1
175
     1
 42
1.0
 92
        0
 66
   257
 43
1.0
 76
     1
 77
     6
 78
     2
 67
     7
 79
     5
170
     0
171
     0
290
     0
174
     0
 93
       13
 44
0.0
173
     0
291
     1
 45
0.0
1001
ACAD
1000
AcDbSavedByObjectVersion
1070
     0
  0
VISUALSTYLE
  5
2D
102
{ACAD_REACTORS
330
2A
102
}
330
2A
100
AcDbVisualStyle
  2
Gouraud
 70
     2
 71
     2
 72
     2
 73
     1
 90
        2
 40
-0.6
 41
30.0
 62
     5
 63
     7
 74
     0
 91
        4
 64
     7
 65
   257
 75
     1
175
     1
 42
1.0
 92
        0
 66
     7
 43
1.0
 76
     1
 77
     6
 78
     2
 67
     7
 79
     5
170
     0
171
     0
290
     0
174
     0
 93
       13
 44
0.0
173
     0
291
     1
 45
0.0
1001
ACAD
1000
AcDbSavedByObjectVersion
1070
     0
  0
VISUALSTYLE
  5
2E
102
{ACAD_REACTORS
330
2A
102
}
330
2A
100
AcDbVisualStyle
  2
GouraudWithEdges
 70
     3
 71
     2
 72
     2
 73
     1
 90
        2
 40
-0.6
 41
30.0
 62
     5
 63
     7
 74
     1
 91
        4
 64
     7
 65
   257
 75
     1
175
     1
 42
1.0
 92
        0
 66
   257
 43
1.0
 76
     1
 77
     6
 78
     2
 67
     7
 79
     5
170
     0
171
     0
290
     0
174
     0
 93
       13
 44
0.0
173
     0
291
     1
 45
0.0
1001
ACAD
1000
AcDbSavedByObjectVersion
1070
     0
  0
VISUALSTYLE
  5
38
102
{ACAD_REACTORS
330
2A
102
}
330
2A
100
AcDbVisualStyle
  2
Linepattern
 70
    14
 71
     2
 72
     2
 73
     0
 90
        0
 40
-0.6
 41
-30.0
 62
     5
 63
     7
 74
     1
 91
        4
 64
     7
 65
   257
 75
     7
175
     7
 42
1.0
 92
        8
 66
     7
 43
1.0
 76
     1
 77
     6
 78
     2
 67
     7
 79
     5
170
     0
171
     0
290
     0
174
     0
 93
        1
 44
0.0
173
     0
291
     1
 45
0.0
1001
ACAD
1000
AcDbSavedByObjectVersion
1070
     0
  0
VISUALSTYLE
  5
33
102
{ACAD_REACTORS
330
2A
102
}
330
2A
100
AcDbVisualStyle
  2
Realistic
 70
     8
 71
     2
 72
     2
 73
     0
 90
        0
 40
-0.6
 41
-30.0
 62
     5
 63
     7
 74
     1
 91
        0
 64
     7
 65
   257
 75
     1
175
     1
 42
1.0
 92
        8
 66
     8
 43
1.0
 76
     1
 77
     6
 78
     2
 67
     7
 79
     5
170
     0
171
     0
290
     0
174
     0
 93
       13
 44
0.0
173
     0
291
     0
 45
0.0
1001
ACAD
1000
AcDbSavedByObjectVersion
1070
     0
  0
VISUALSTYLE
  5
37
102
{ACAD_REACTORS
330
2A
102
}
330
2A
100
AcDbVisualStyle
  2
Thicken
 70
    13
 71
     2
 72
     2
 73
     0
 90
        0
 40
-0.6
 41
-30.0
 62
     5
 63
     7
 74
     1
 91
        4
 64
     7
 65
   257
 75
     1
175
     1
 42
1.0
 92
       12
 66
     7
 43
1.0
 76
     1
 77
     6
 78
     2
 67
     7
 79
     5
170
     0
171
     0
290
     0
174
     0
 93
        1
 44
0.0
173
     0
291
     1
 45
0.0
1001
ACAD
1000
AcDbSavedByObjectVersion
1070
     0
  0
DICTIONARYVAR
  5
404
102
{ACAD_REACTORS
330
402
102
}
330
402
100
DictionaryVariables
280
     0
  1
80.000000
  0
DICTIONARYVAR
  5
403
102
{ACAD_REACTORS
330
402
102
}
330
402
100
DictionaryVariables
280
     0
  1
5.000000
  0
DICTIONARY
  5
405
330
1E
100
AcDbDictionary
280
     1
281
     1
  3
ACAD_XREC_ROUNDTRIP
360
406
  0
DICTIONARY
  5
409
330
26
100
AcDbDictionary
280
     1
281
     1
  3
ACAD_XREC_ROUNDTRIP
360
40A
  0
DICTIONARY
  5
407
330
22
100
AcDbDictionary
280
     1
281
     1
  3
ACAD_XREC_ROUNDTRIP
360
408
  0
XRECORD
  5
406
102
{ACAD_REACTORS
330
405
102
}
330
405
100
AcDbXrecord
280
     1
102
SHADEPLOT
 70
     0
102
SHADEPLOTRESLEVEL
 70
     5
102
SHADEPLOTCUSTOMDPI
 70
   300
  0
XRECORD
  5
40A
102
{ACAD_REACTORS
330
409
102
}
330
409
100
AcDbXrecord
280
     1
102
SHADEPLOT
 70
     0
102
SHADEPLOTRESLEVEL
 70
     5
102
SHADEPLOTCUSTOMDPI
 70
   300
  0
XRECORD
  5
408
102
{ACAD_REACTORS
330
407
102
}
330
407
100
AcDbXrecord
280
     1
102
SHADEPLOT
 70
     0
102
SHADEPLOTRESLEVEL
 70
     5
102
SHADEPLOTCUSTOMDPI
 70
   300
  0
ENDSEC
  0
EOF
