  0
SECTION
  2
HEADER
  9
$ACADVER
  1
AC1018
  9
$ACADMAINTVER
 70
     0
  9
$DWGCODEPAGE
  3
ANSI_932
  9
$INSBASE
 10
0.0
 20
0.0
 30
0.0
  9
$EXTMIN
 10
-2970.0
 20
-2100.0
 30
0.0
  9
$EXTMAX
 10
2970.0
 20
2100.0
 30
0.0
  9
$LIMMIN
 10
-2970.0
 20
-2100.0
  9
$LIMMAX
 10
2970.0
 20
2100.0
  9
$ORTHOMODE
 70
     0
  9
$REGENMODE
 70
     1
  9
$FILLMODE
 70
     1
  9
$QTEXTMODE
 70
     0
  9
$MIRRTEXT
 70
     1
  9
$LTSCALE
 40
10.0
  9
$ATTMODE
 70
     1
  9
$TEXTSIZE
 40
2.5
  9
$TRACEWID
 40
1.0
  9
$TEXTSTYLE
  7
Standard
  9
$CLAYER
  8
0
  9
$CELTYPE
  6
ByLayer
  9
$CECOLOR
 62
   256
  9
$CELTSCALE
 40
1.0
  9
$DISPSILH
 70
     0
  9
$DIMSCALE
 40
1.0
  9
$DIMASZ
 40
2.5
  9
$DIMEXO
 40
0.625
  9
$DIMDLI
 40
3.75
  9
$DIMRND
 40
0.0
  9
$DIMDLE
 40
0.0
  9
$DIMEXE
 40
1.25
  9
$DIMTP
 40
0.0
  9
$DIMTM
 40
0.0
  9
$DIMTXT
 40
2.5
  9
$DIMCEN
 40
2.5
  9
$DIMTSZ
 40
0.0
  9
$DIMTOL
 70
     0
  9
$DIMLIM
 70
     0
  9
$DIMTIH
 70
     0
  9
$DIMTOH
 70
     0
  9
$DIMSE1
 70
     0
  9
$DIMSE2
 70
     0
  9
$DIMTAD
 70
     1
  9
$DIMZIN
 70
     8
  9
$DIMBLK
  1

  9
$DIMASO
 70
     1
  9
$DIMSHO
 70
     1
  9
$DIMPOST
  1

  9
$DIMAPOST
  1

  9
$DIMALT
 70
     0
  9
$DIMALTD
 70
     3
  9
$DIMALTF
 40
0.03937007874016
  9
$DIMLFAC
 40
1.0
  9
$DIMTOFL
 70
     1
  9
$DIMTVP
 40
0.0
  9
$DIMTIX
 70
     0
  9
$DIMSOXD
 70
     0
  9
$DIMSAH
 70
     0
  9
$DIMBLK1
  1

  9
$DIMBLK2
  1

  9
$DIMSTYLE
  2
ISO-25
  9
$DIMCLRD
 70
     0
  9
$DIMCLRE
 70
     0
  9
$DIMCLRT
 70
     0
  9
$DIMTFAC
 40
1.0
  9
$DIMGAP
 40
0.625
  9
$DIMJUST
 70
     0
  9
$DIMSD1
 70
     0
  9
$DIMSD2
 70
     0
  9
$DIMTOLJ
 70
     0
  9
$DIMTZIN
 70
     8
  9
$DIMALTZ
 70
     0
  9
$DIMALTTZ
 70
     0
  9
$DIMUPT
 70
     0
  9
$DIMDEC
 70
     2
  9
$DIMTDEC
 70
     2
  9
$DIMALTU
 70
     2
  9
$DIMALTTD
 70
     3
  9
$DIMTXSTY
  7
Standard
  9
$DIMAUNIT
 70
     0
  9
$DIMADEC
 70
     0
  9
$DIMALTRND
 40
0.0
  9
$DIMAZIN
 70
     0
  9
$DIMDSEP
 70
    44
  9
$DIMATFIT
 70
     3
  9
$DIMFRAC
 70
     0
  9
$DIMLDRBLK
  1

  9
$DIMLUNIT
 70
     2
  9
$DIMLWD
 70
    -2
  9
$DIMLWE
 70
    -2
  9
$DIMTMOVE
 70
     0
  9
$LUNITS
 70
     2
  9
$LUPREC
 70
     4
  9
$SKETCHINC
 40
1.0
  9
$FILLETRAD
 40
10.0
  9
$AUNITS
 70
     0
  9
$AUPREC
 70
     0
  9
$MENU
  1
.
  9
$ELEVATION
 40
0.0
  9
$PELEVATION
 40
0.0
  9
$THICKNESS
 40
0.0
  9
$LIMCHECK
 70
     0
  9
$CHAMFERA
 40
0.0
  9
$CHAMFERB
 40
0.0
  9
$CHAMFERC
 40
0.0
  9
$CHAMFERD
 40
0.0
  9
$SKPOLY
 70
     0
  9
$TDCREATE
 40
2459919.594711632
  9
$TDUCREATE
 40
2459919.219711632
  9
$TDUPDATE
 40
2459919.594711852
  9
$TDUUPDATE
 40
2459919.219711852
  9
$TDINDWG
 40
0.0000000116
  9
$TDUSRTIMER
 40
0.0000000116
  9
$USRTIMER
 70
     1
  9
$ANGBASE
 50
0.0
  9
$ANGDIR
 70
     0
  9
$PDMODE
 70
     0
  9
$PDSIZE
 40
0.0
  9
$PLINEWID
 40
0.0
  9
$SPLFRAME
 70
     0
  9
$SPLINETYPE
 70
     6
  9
$SPLINESEGS
 70
     8
  9
$HANDSEED
  5
3A8
  9
$SURFTAB1
 70
     6
  9
$SURFTAB2
 70
     6
  9
$SURFTYPE
 70
     6
  9
$SURFU
 70
     6
  9
$SURFV
 70
     6
  9
$UCSBASE
  2

  9
$UCSNAME
  2

  9
$UCSORG
 10
0.0
 20
0.0
 30
0.0
  9
$UCSXDIR
 10
1.0
 20
0.0
 30
0.0
  9
$UCSYDIR
 10
0.0
 20
1.0
 30
0.0
  9
$UCSORTHOREF
  2

  9
$UCSORTHOVIEW
 70
     0
  9
$UCSORGTOP
 10
0.0
 20
0.0
 30
0.0
  9
$UCSORGBOTTOM
 10
0.0
 20
0.0
 30
0.0
  9
$UCSORGLEFT
 10
0.0
 20
0.0
 30
0.0
  9
$UCSORGRIGHT
 10
0.0
 20
0.0
 30
0.0
  9
$UCSORGFRONT
 10
0.0
 20
0.0
 30
0.0
  9
$UCSORGBACK
 10
0.0
 20
0.0
 30
0.0
  9
$PUCSBASE
  2

  9
$PUCSNAME
  2

  9
$PUCSORG
 10
0.0
 20
0.0
 30
0.0
  9
$PUCSXDIR
 10
1.0
 20
0.0
 30
0.0
  9
$PUCSYDIR
 10
0.0
 20
1.0
 30
0.0
  9
$PUCSORTHOREF
  2

  9
$PUCSORTHOVIEW
 70
     0
  9
$PUCSORGTOP
 10
0.0
 20
0.0
 30
0.0
  9
$PUCSORGBOTTOM
 10
0.0
 20
0.0
 30
0.0
  9
$PUCSORGLEFT
 10
0.0
 20
0.0
 30
0.0
  9
$PUCSORGRIGHT
 10
0.0
 20
0.0
 30
0.0
  9
$PUCSORGFRONT
 10
0.0
 20
0.0
 30
0.0
  9
$PUCSORGBACK
 10
0.0
 20
0.0
 30
0.0
  9
$USERI1
 70
     0
  9
$USERI2
 70
     0
  9
$USERI3
 70
     0
  9
$USERI4
 70
     0
  9
$USERI5
 70
     0
  9
$USERR1
 40
0.0
  9
$USERR2
 40
0.0
  9
$USERR3
 40
0.0
  9
$USERR4
 40
0.0
  9
$USERR5
 40
0.0
  9
$WORLDVIEW
 70
     1
  9
$SHADEDGE
 70
     3
  9
$SHADEDIF
 70
    70
  9
$TILEMODE
 70
     1
  9
$MAXACTVP
 70
    64
  9
$PINSBASE
 10
0.0
 20
0.0
 30
0.0
  9
$PLIMCHECK
 70
     0
  9
$PEXTMIN
 10
1.000000000000000E+20
 20
1.000000000000000E+20
 30
1.000000000000000E+20
  9
$PEXTMAX
 10
-1.000000000000000E+20
 20
-1.000000000000000E+20
 30
-1.000000000000000E+20
  9
$PLIMMIN
 10
0.0
 20
0.0
  9
$PLIMMAX
 10
420.0
 20
297.0
  9
$UNITMODE
 70
     0
  9
$VISRETAIN
 70
     1
  9
$PLINEGEN
 70
     0
  9
$PSLTSCALE
 70
     1
  9
$TREEDEPTH
 70
  3020
  9
$CMLSTYLE
  2
Standard
  9
$CMLJUST
 70
     0
  9
$CMLSCALE
 40
20.0
  9
$PROXYGRAPHICS
 70
     1
  9
$MEASUREMENT
 70
     1
  9
$CELWEIGHT
370
    -1
  9
$ENDCAPS
280
     0
  9
$JOINSTYLE
280
     0
  9
$LWDISPLAY
290
     0
  9
$INSUNITS
 70
     4
  9
$HYPERLINKBASE
  1

  9
$STYLESHEET
  1

  9
$XEDIT
290
     1
  9
$CEPSNTYPE
380
     0
  9
$PSTYLEMODE
290
     1
  9
$FINGERPRINTGUID
  2
{A761A4B7-B463-4158-879C-C0F60A582872}
  9
$VERSIONGUID
  2
{FAEB1C32-E019-11D5-929B-00C0DF256EC4}
  9
$EXTNAMES
290
     1
  9
$PSVPSCALE
 40
0.0
  9
$OLESTARTUP
290
     0
  9
$SORTENTS
280
   127
  9
$INDEXCTL
280
     0
  9
$HIDETEXT
280
     1
  9
$XCLIPFRAME
290
     0
  9
$HALOGAP
280
     0
  9
$OBSCOLOR
 70
   257
  9
$OBSLTYPE
280
     0
  9
$INTERSECTIONDISPLAY
280
     0
  9
$INTERSECTIONCOLOR
 70
   257
  9
$DIMASSOC
280
     2
  9
$PROJECTNAME
  1

  0
ENDSEC
  0
SECTION
  2
CLASSES
  0
CLASS
  1
ACDBDICTIONARYWDFLT
  2
AcDbDictionaryWithDefault
  3
ObjectDBX Classes
 90
        0
 91
        4
280
     0
281
     0
  0
CLASS
  1
VISUALSTYLE
  2
AcDbVisualStyle
  3
ObjectDBX Classes
 90
     4095
 91
        4
280
     0
281
     0
  0
CLASS
  1
MATERIAL
  2
AcDbMaterial
  3
ObjectDBX Classes
 90
     1153
 91
        4
280
     0
281
     0
  0
CLASS
  1
SCALE
  2
AcDbScale
  3
ObjectDBX Classes
 90
     1153
 91
        4
280
     0
281
     0
  0
CLASS
  1
TABLESTYLE
  2
AcDbTableStyle
  3
ObjectDBX Classes
 90
     4095
 91
        4
280
     0
281
     0
  0
CLASS
  1
MLEADERSTYLE
  2
AcDbMLeaderStyle
  3
ACDB_MLEADERSTYLE_CLASS
 90
     4095
 91
        4
280
     0
281
     0
  0
CLASS
  1
SUN
  2
AcDbSun
  3
SCENEOE
 90
     1153
 91
        4
280
     0
281
     0
  0
CLASS
  1
DICTIONARYVAR
  2
AcDbDictionaryVar
  3
ObjectDBX Classes
 90
        0
 91
        4
280
     0
281
     0
  0
CLASS
  1
CELLSTYLEMAP
  2
AcDbCellStyleMap
  3
ObjectDBX Classes
 90
     1152
 91
        4
280
     0
281
     0
  0
ENDSEC
  0
SECTION
  2
TABLES
  0
TABLE
  2
VPORT
  5
8
102
{ACAD_XDICTIONARY
360
35F
102
}
330
0
100
AcDbSymbolTable
 70
     1
  0
VPORT
  5
29
330
8
100
AcDbSymbolTableRecord
100
AcDbViewportTableRecord
  2
*Active
 70
     0
 10
0.0
 20
0.0
 11
1.0
 21
1.0
 12
0.0
 22
0.0
 13
0.0
 23
0.0
 14
10.0
 24
10.0
 15
10.0
 25
10.0
 16
0.0
 26
0.0
 36
1.0
 17
0.0
 27
0.0
 37
0.0
 40
4620.0
 41
1.414285714285715
 42
50.0
 43
0.0
 44
0.0
 50
0.0
 51
0.0
 71
     0
 72
 10000
 73
     1
 74
     3
 75
     0
 76
     0
 77
     0
 78
     0
281
     0
 65
     1
110
0.0
120
0.0
130
0.0
111
1.0
121
0.0
131
0.0
112
0.0
122
1.0
132
0.0
 79
     0
146
0.0
  0
ENDTAB
  0
TABLE
  2
LTYPE
  5
5
330
0
100
AcDbSymbolTable
 70
     6
  0
LTYPE
  5
14
330
5
100
AcDbSymbolTableRecord
100
AcDbLinetypeTableRecord
  2
ByBlock
 70
     0
  3

 72
    65
 73
     0
 40
0.0
  0
LTYPE
  5
15
330
5
100
AcDbSymbolTableRecord
100
AcDbLinetypeTableRecord
  2
ByLayer
 70
     0
  3

 72
    65
 73
     0
 40
0.0
  0
LTYPE
  5
16
330
5
100
AcDbSymbolTableRecord
100
AcDbLinetypeTableRecord
  2
Continuous
 70
     0
  3
Solid line
 72
    65
 73
     0
 40
0.0
  0
LTYPE
  5
6F
330
5
100
AcDbSymbolTableRecord
100
AcDbLinetypeTableRecord
  2
JWW_DASHED1
 70
     0
  3
-  --  --  --  --  --  --  --  -
 72
    65
 73
     2
 40
1.693333333333333
 49
0.8466666666666667
 74
     0
 49
-0.8466666666666667
 74
     0
  0
LTYPE
  5
70
330
5
100
AcDbSymbolTableRecord
100
AcDbLinetypeTableRecord
  2
JWW_CENTER1
 70
     0
  3
-----  --  ----------  --  -----
 72
    65
 73
     4
 40
6.773333333333333
 49
4.233333333333333
 74
     0
 49
-0.8466666666666667
 74
     0
 49
0.8466666666666667
 74
     0
 49
-0.8466666666666667
 74
     0
  0
LTYPE
  5
71
330
5
100
AcDbSymbolTableRecord
100
AcDbLinetypeTableRecord
  2
JWW_HOJO
 70
     0
  3
  -   -   -   -   -   -   -   - 
 72
    65
 73
     2
 40
1.693333333333333
 49
-1.27
 74
     0
 49
0.4233333333333333
 74
     0
  0
LTYPE
  5
72
330
5
100
AcDbSymbolTableRecord
100
AcDbLinetypeTableRecord
  2
JWW_DASHED3
 70
     0
  3
---  ------  ------  ------  ---
 72
    65
 73
     2
 40
3.386666666666667
 49
2.54
 74
     0
 49
-0.8466666666666667
 74
     0
  0
LTYPE
  5
73
330
5
100
AcDbSymbolTableRecord
100
AcDbLinetypeTableRecord
  2
JWW_DASHED2
 70
     0
  3
--    ----    ----    ----    --
 72
    65
 73
     2
 40
3.386666666666667
 49
1.693333333333333
 74
     0
 49
-1.693333333333333
 74
     0
  0
ENDTAB
  0
TABLE
  2
LAYER
  5
2
330
0
100
AcDbSymbolTable
 70
    15
  0
LAYER
  5
10
330
2
100
AcDbSymbolTableRecord
100
AcDbLayerTableRecord
  2
0
 70
     0
 62
     7
  6
Continuous
370
    -3
390
F
  0
LAYER
  5
74
330
2
100
AcDbSymbolTableRecord
100
AcDbLayerTableRecord
  2
F-5ﾚｲﾔ
 70
     0
 62
     7
  6
Continuous
370
    -3
390
F
  0
LAYER
  5
75
330
2
100
AcDbSymbolTableRecord
100
AcDbLayerTableRecord
  2
F-0ﾚｲﾔ
 70
     0
 62
     7
  6
Continuous
370
    -3
390
F
  0
LAYER
  5
76
330
2
100
AcDbSymbolTableRecord
100
AcDbLayerTableRecord
  2
D-6
 70
     0
 62
     7
  6
Continuous
370
    -3
390
F
  0
LAYER
  5
77
330
2
100
AcDbSymbolTableRecord
100
AcDbLayerTableRecord
  2
D-8
 70
     0
 62
     7
  6
Continuous
370
    -3
390
F
  0
LAYER
  5
78
330
2
100
AcDbSymbolTableRecord
100
AcDbLayerTableRecord
  2
D-B
 70
     0
 62
     7
  6
Continuous
370
    -3
390
F
  0
LAYER
  5
79
330
2
100
AcDbSymbolTableRecord
100
AcDbLayerTableRecord
  2
D-5
 70
     0
 62
     7
  6
Continuous
370
    -3
390
F
  0
LAYER
  5
7A
330
2
100
AcDbSymbolTableRecord
100
AcDbLayerTableRecord
  2
D-4
 70
     0
 62
     7
  6
Continuous
370
    -3
390
F
  0
LAYER
  5
7B
330
2
100
AcDbSymbolTableRecord
100
AcDbLayerTableRecord
  2
D-1
 70
     0
 62
     7
  6
Continuous
370
    -3
390
F
  0
LAYER
  5
7C
330
2
100
AcDbSymbolTableRecord
100
AcDbLayerTableRecord
  2
D-2
 70
     0
 62
     7
  6
Continuous
370
    -3
390
F
  0
LAYER
  5
7D
330
2
100
AcDbSymbolTableRecord
100
AcDbLayerTableRecord
  2
C-2
 70
     0
 62
     7
  6
Continuous
370
    -3
390
F
  0
LAYER
  5
7E
330
2
100
AcDbSymbolTableRecord
100
AcDbLayerTableRecord
  2
C-4
 70
     0
 62
     7
  6
Continuous
370
    -3
390
F
  0
LAYER
  5
7F
330
2
100
AcDbSymbolTableRecord
100
AcDbLayerTableRecord
  2
C-5
 70
     0
 62
     7
  6
Continuous
370
    -3
390
F
  0
LAYER
  5
80
330
2
100
AcDbSymbolTableRecord
100
AcDbLayerTableRecord
  2
C-1
 70
     0
 62
     7
  6
Continuous
370
    -3
390
F
  0
LAYER
  5
81
330
2
100
AcDbSymbolTableRecord
100
AcDbLayerTableRecord
  2
C-9
 70
     0
 62
     7
  6
Continuous
370
    -3
390
F
  0
ENDTAB
  0
TABLE
  2
STYLE
  5
3
330
0
100
AcDbSymbolTable
 70
     2
  0
STYLE
  5
11
330
3
100
AcDbSymbolTableRecord
100
AcDbTextStyleTableRecord
  2
Standard
 70
     0
 40
0.0
 41
1.0
 50
0.0
 71
     0
 42
2.5
  3
txt
  4

  0
STYLE
  5
6E
330
3
100
AcDbSymbolTableRecord
100
AcDbTextStyleTableRecord
  2
ＭＳ ゴシック
 70
     0
 40
1.0
 41
1.0
 50
0.0
 71
     0
 42
2.5
  3

  4

1001
ACAD
1000
MS Gothic
1071
    32817
  0
ENDTAB
  0
TABLE
  2
VIEW
  5
6
330
0
100
AcDbSymbolTable
 70
     0
  0
ENDTAB
  0
TABLE
  2
UCS
  5
7
330
0
100
AcDbSymbolTable
 70
     0
  0
ENDTAB
  0
TABLE
  2
APPID
  5
9
330
0
100
AcDbSymbolTable
 70
     2
  0
APPID
  5
12
330
9
100
AcDbSymbolTableRecord
100
AcDbRegAppTableRecord
  2
ACAD
 70
     0
  0
APPID
  5
39E
330
9
100
AcDbSymbolTableRecord
100
AcDbRegAppTableRecord
  2
ACAD_MLEADERVER
 70
     0
  0
ENDTAB
  0
TABLE
  2
DIMSTYLE
  5
A
330
0
100
AcDbSymbolTable
 70
     1
100
AcDbDimStyleTable
  0
DIMSTYLE
105
27
330
A
100
AcDbSymbolTableRecord
100
AcDbDimStyleTableRecord
  2
ISO-25
 70
     0
 41
2.5
 42
0.625
 43
3.75
 44
1.25
 73
     0
 74
     0
 77
     1
 78
     8
140
2.5
141
2.5
143
0.03937007874016
147
0.625
171
     3
172
     1
178
     0
271
     2
272
     2
274
     3
278
    44
283
     0
284
     8
340
11
  0
ENDTAB
  0
TABLE
  2
BLOCK_RECORD
  5
1
330
0
100
AcDbSymbolTable
 70
     1
  0
BLOCK_RECORD
  5
1F
330
1
100
AcDbSymbolTableRecord
100
AcDbBlockTableRecord
  2
*Model_Space
340
22
  0
BLOCK_RECORD
  5
1B
330
1
100
AcDbSymbolTableRecord
100
AcDbBlockTableRecord
  2
*Paper_Space
340
1E
  0
BLOCK_RECORD
  5
23
330
1
100
AcDbSymbolTableRecord
100
AcDbBlockTableRecord
  2
*Paper_Space0
340
26
  0
ENDTAB
  0
ENDSEC
  0
SECTION
  2
BLOCKS
  0
BLOCK
  5
20
330
1F
100
AcDbEntity
  8
0
100
AcDbBlockBegin
  2
*Model_Space
 70
     0
 10
0.0
 20
0.0
 30
0.0
  3
*Model_Space
  1

  0
ENDBLK
  5
21
330
1F
100
AcDbEntity
  8
0
100
AcDbBlockEnd
  0
BLOCK
  5
1C
330
1B
100
AcDbEntity
 67
     1
  8
0
100
AcDbBlockBegin
  2
*Paper_Space
 70
     0
 10
0.0
 20
0.0
 30
0.0
  3
*Paper_Space
  1

  0
ENDBLK
  5
1D
330
1B
100
AcDbEntity
 67
     1
  8
0
100
AcDbBlockEnd
  0
BLOCK
  5
24
330
23
100
AcDbEntity
  8
0
100
AcDbBlockBegin
  2
*Paper_Space0
 70
     0
 10
0.0
 20
0.0
 30
0.0
  3
*Paper_Space0
  1

  0
ENDBLK
  5
25
330
23
100
AcDbEntity
  8
0
100
AcDbBlockEnd
  0
ENDSEC
  0
SECTION
  2
ENTITIES
  0
TEXT
  5
82
330
1F
100
AcDbEntity
  8
F-5ﾚｲﾔ
  6
Continuous
 62
     2
370
     9
100
AcDbText
 10
-461.7958881530036
 20
-1890.046783627329
 30
0.0
 40
30.48
  1
ステンレス製グレーチング　プレーンタイプ　側溝用　ＳＭＧ　１２５２０（Ｐ＝２２）
 41
0.8993749999999997
  7
ＭＳ ゴシック
100
AcDbText
  0
TEXT
  5
83
330
1F
100
AcDbEntity
  8
F-0ﾚｲﾔ
  6
Continuous
 62
     2
370
     9
100
AcDbText
 10
-461.7958881530035
 20
-1938.505340756235
 30
0.0
 40
30.48
  1
Ｕ字溝用固定金具付ステンレス製受枠　ＳＬ－２０Ｃ－Ｕ１８
 41
0.8991071428571427
  7
ＭＳ ゴシック
100
AcDbText
  0
LINE
  5
84
330
1F
100
AcDbEntity
  8
D-6
  6
Continuous
 62
     6
370
     9
100
AcDbLine
 10
608.5397580907113
 20
-217.2282037140315
 30
0.0
 11
268.5391477391488
 21
-217.2282037140315
 31
0.0
  0
LINE
  5
85
330
1F
100
AcDbEntity
  8
D-6
  6
Continuous
 62
     6
370
     9
100
AcDbLine
 10
258.5397199437386
 20
-465.0116357208674
 30
0.0
 11
360.7562879369027
 21
-567.2282037140315
 31
0.0
  0
LINE
  5
86
330
1F
100
AcDbEntity
  8
D-6
  6
Continuous
 62
     6
370
     9
100
AcDbLine
 10
258.5397199437386
 20
-479.1537865997736
 30
0.0
 11
346.6141370579965
 21
-567.2282037140315
 31
0.0
  0
LINE
  5
87
330
1F
100
AcDbEntity
  8
D-6
  6
Continuous
 62
     6
370
     9
100
AcDbLine
 10
258.5397199437386
 20
-493.2958993317072
 30
0.0
 11
332.4720243260629
 21
-567.2282037140315
 31
0.0
  0
LINE
  5
88
330
1F
100
AcDbEntity
  8
D-6
  6
Continuous
 62
     6
370
     9
100
AcDbLine
 10
258.5397199437386
 20
-237.2282037140315
 30
0.0
 11
258.5397199437386
 21
-887.228208482403
 31
0.0
  0
LINE
  5
89
330
1F
100
AcDbEntity
  8
D-8
  6
Continuous
 62
     3
370
     9
100
AcDbLine
 10
-1036.46054708507
 20
-472.2282037140315
 30
0.0
 11
-1016.46054708507
 21
-472.2282037140315
 31
0.0
  0
LINE
  5
8A
330
1F
100
AcDbEntity
  8
D-8
  6
Continuous
 62
     3
370
     9
100
AcDbLine
 10
303.5397199437386
 20
-472.2282037140315
 30
0.0
 11
283.5397199437386
 21
-472.2282037140315
 31
0.0
  0
LINE
  5
8B
330
1F
100
AcDbEntity
  8
D-8
  6
JWW_DASHED1
 62
     3
370
     9
100
AcDbLine
 10
-1016.46054708507
 20
-362.2282037140315
 30
0.0
 11
-1036.46054708507
 21
-362.2282037140315
 31
0.0
  0
LINE
  5
8C
330
1F
100
AcDbEntity
  8
D-8
  6
JWW_DASHED1
 62
     3
370
     9
100
AcDbLine
 10
-1016.46054708507
 20
-302.2282037140315
 30
0.0
 11
-1036.46054708507
 21
-302.2282037140315
 31
0.0
  0
LINE
  5
8D
330
1F
100
AcDbEntity
  8
D-8
  6
JWW_DASHED1
 62
     3
370
     9
100
AcDbLine
 10
-736.46054708507
 20
-347.2282037140315
 30
0.0
 11
-756.46054708507
 21
-347.2282037140315
 31
0.0
  0
LINE
  5
8E
330
1F
100
AcDbEntity
  8
D-8
  6
JWW_DASHED1
 62
     3
370
     9
100
AcDbLine
 10
-736.46054708507
 20
-317.2282037140315
 30
0.0
 11
-756.46054708507
 21
-317.2282037140315
 31
0.0
  0
LINE
  5
8F
330
1F
100
AcDbEntity
  8
D-8
  6
Continuous
 62
     3
370
     9
100
AcDbLine
 10
-761.46054708507
 20
-237.2282037140315
 30
0.0
 11
-1011.46054708507
 21
-237.2282037140315
 31
0.0
  0
LINE
  5
90
330
1F
100
AcDbEntity
  8
D-8
  6
Continuous
 62
     3
370
     9
100
AcDbLine
 10
31.53968370411462
 20
-217.2282037140315
 30
0.0
 11
275.5397275731332
 21
-217.2282037140315
 31
0.0
  0
LINE
  5
91
330
1F
100
AcDbEntity
  8
D-8
  6
JWW_DASHED1
 62
     3
370
     9
100
AcDbLine
 10
283.5397199437386
 20
-362.2282037140315
 30
0.0
 11
303.5397199437386
 21
-362.2282037140315
 31
0.0
  0
LINE
  5
92
330
1F
100
AcDbEntity
  8
D-8
  6
JWW_DASHED1
 62
     3
370
     9
100
AcDbLine
 10
283.5397199437386
 20
-302.2282037140315
 30
0.0
 11
303.5397199437386
 21
-302.2282037140315
 31
0.0
  0
LINE
  5
93
330
1F
100
AcDbEntity
  8
D-8
  6
JWW_DASHED1
 62
     3
370
     9
100
AcDbLine
 10
3.53968179676599
 20
-347.2282037140315
 30
0.0
 11
23.53968179676599
 21
-347.2282037140315
 31
0.0
  0
LINE
  5
94
330
1F
100
AcDbEntity
  8
D-8
  6
JWW_DASHED1
 62
     3
370
     9
100
AcDbLine
 10
3.53968179676599
 20
-317.2282037140315
 30
0.0
 11
23.53968179676599
 21
-317.2282037140315
 31
0.0
  0
LINE
  5
95
330
1F
100
AcDbEntity
  8
D-8
  6
Continuous
 62
     3
370
     9
100
AcDbLine
 10
28.53968179676599
 20
-237.2282037140315
 30
0.0
 11
278.5397199437386
 21
-237.2282037140315
 31
0.0
  0
LINE
  5
96
330
1F
100
AcDbEntity
  8
D-8
  6
Continuous
 62
     3
370
     9
100
AcDbLine
 10
-764.4605776026481
 20
-217.2282037140315
 30
0.0
 11
-1008.460592861437
 21
-217.2282037140315
 31
0.0
  0
LINE
  5
97
330
1F
100
AcDbEntity
  8
D-8
  6
Continuous
 62
     3
370
     9
100
AcDbLine
 10
-1036.46054708507
 20
-245.2282342316096
 30
0.0
 11
-1036.46054708507
 21
-472.2282037140315
 31
0.0
  0
LINE
  5
98
330
1F
100
AcDbEntity
  8
D-8
  6
Continuous
 62
     3
370
     9
100
AcDbLine
 10
-1016.46054708507
 20
-242.2282037140315
 30
0.0
 11
-1016.46054708507
 21
-472.2282037140315
 31
0.0
  0
LINE
  5
99
330
1F
100
AcDbEntity
  8
D-8
  6
Continuous
 62
     3
370
     9
100
AcDbLine
 10
303.5397199437386
 20
-245.2282342316096
 30
0.0
 11
303.5397199437386
 21
-472.2282037140315
 31
0.0
  0
LINE
  5
9A
330
1F
100
AcDbEntity
  8
D-8
  6
Continuous
 62
     3
370
     9
100
AcDbLine
 10
283.5397199437386
 20
-242.2282037140315
 30
0.0
 11
283.5397199437386
 21
-472.2282037140315
 31
0.0
  0
LINE
  5
9B
330
1F
100
AcDbEntity
  8
D-8
  6
Continuous
 62
     3
370
     9
100
AcDbLine
 10
-4.460310573839479
 20
-447.2282037140315
 30
0.0
 11
-728.4605547144645
 21
-447.2282037140315
 31
0.0
  0
LINE
  5
9C
330
1F
100
AcDbEntity
  8
D-8
  6
Continuous
 62
     3
370
     9
100
AcDbLine
 10
-1.46031820323401
 20
-427.2282037140315
 30
0.0
 11
-731.46054708507
 21
-427.2282037140315
 31
0.0
  0
LINE
  5
9D
330
1F
100
AcDbEntity
  8
D-8
  6
JWW_CENTER1
 62
     3
370
     9
100
AcDbLine
 10
-1055.550741787218
 20
-332.2282037140315
 30
0.0
 11
-1003.039221401476
 21
-332.2282037140315
 31
0.0
  0
LINE
  5
9E
330
1F
100
AcDbEntity
  8
D-8
  6
Continuous
 62
     3
370
     9
100
AcDbLine
 10
3.53968179676599
 20
-422.2282037140315
 30
0.0
 11
3.53968179676599
 21
-347.2282037140315
 31
0.0
  0
LINE
  5
9F
330
1F
100
AcDbEntity
  8
D-8
  6
Continuous
 62
     3
370
     9
100
AcDbLine
 10
3.53968179676599
 20
-317.2282037140315
 30
0.0
 11
3.53968179676599
 21
-245.2282342316096
 31
0.0
  0
LINE
  5
A0
330
1F
100
AcDbEntity
  8
D-8
  6
Continuous
 62
     3
370
     9
100
AcDbLine
 10
23.53968179676599
 20
-419.228211343426
 30
0.0
 11
23.53968179676599
 21
-347.2282037140315
 31
0.0
  0
LINE
  5
A1
330
1F
100
AcDbEntity
  8
D-8
  6
Continuous
 62
     3
370
     9
100
AcDbLine
 10
23.53968179676599
 20
-317.2282037140315
 30
0.0
 11
23.53968179676599
 21
-242.2282037140315
 31
0.0
  0
LINE
  5
A2
330
1F
100
AcDbEntity
  8
D-8
  6
Continuous
 62
     3
370
     9
100
AcDbLine
 10
-756.46054708507
 20
-419.228211343426
 30
0.0
 11
-756.46054708507
 21
-347.235909402508
 31
0.0
  0
LINE
  5
A3
330
1F
100
AcDbEntity
  8
D-8
  6
Continuous
 62
     3
370
     9
100
AcDbLine
 10
-756.46054708507
 20
-317.2282037140315
 30
0.0
 11
-756.46054708507
 21
-242.2282037140315
 31
0.0
  0
LINE
  5
A4
330
1F
100
AcDbEntity
  8
D-8
  6
Continuous
 62
     3
370
     9
100
AcDbLine
 10
-736.46054708507
 20
-422.2282037140315
 30
0.0
 11
-736.46054708507
 21
-347.235909402508
 31
0.0
  0
LINE
  5
A5
330
1F
100
AcDbEntity
  8
D-8
  6
Continuous
 62
     3
370
     9
100
AcDbLine
 10
-736.46054708507
 20
-317.2282037140315
 30
0.0
 11
-736.46054708507
 21
-245.2282342316096
 31
0.0
  0
LINE
  5
A6
330
1F
100
AcDbEntity
  8
D-B
  6
JWW_CENTER1
 62
     2
370
     9
100
AcDbLine
 10
-651.6771074488395
 20
-332.235909402508
 30
0.0
 11
-831.1469789698356
 21
-332.235909402508
 31
0.0
  0
LINE
  5
A7
330
1F
100
AcDbEntity
  8
D-B
  6
Continuous
 62
     2
370
     9
100
AcDbLine
 10
-688.4819933130973
 20
-303.3684167267268
 30
0.0
 11
-688.4819933130973
 21
-361.1034020782893
 31
0.0
  0
LINE
  5
A8
330
1F
100
AcDbEntity
  8
D-B
  6
Continuous
 62
     2
370
     9
100
AcDbLine
 10
-670.7149263575309
 20
-361.1034020782893
 30
0.0
 11
-688.4819933130973
 21
-361.1034020782893
 31
0.0
  0
LINE
  5
A9
330
1F
100
AcDbEntity
  8
D-B
  6
Continuous
 62
     2
370
     9
100
AcDbLine
 10
-670.7149263575309
 20
-303.3684167267268
 30
0.0
 11
-688.4819933130973
 21
-303.3684167267268
 31
0.0
  0
LINE
  5
AA
330
1F
100
AcDbEntity
  8
D-B
  6
Continuous
 62
     2
370
     9
100
AcDbLine
 10
-670.7149263575309
 20
-317.8021630646174
 30
0.0
 11
-688.4819933130973
 21
-317.8021630646174
 31
0.0
  0
LINE
  5
AB
330
1F
100
AcDbEntity
  8
D-B
  6
Continuous
 62
     2
370
     9
100
AcDbLine
 10
-670.7149263575309
 20
-346.6696557403986
 30
0.0
 11
-688.4819933130973
 21
-346.6696557403986
 31
0.0
  0
LINE
  5
AC
330
1F
100
AcDbEntity
  8
D-B
  6
Continuous
 62
     2
370
     9
100
AcDbLine
 10
-813.48203146007
 20
-344.5282372833674
 30
0.0
 11
-813.48203146007
 21
-319.94331449284
 31
0.0
  0
LINE
  5
AD
330
1F
100
AcDbEntity
  8
D-B
  6
Continuous
 62
     2
370
     9
100
AcDbLine
 10
-810.77451192882
 20
-317.235909402508
 30
0.0
 11
-810.77451192882
 21
-347.235909402508
 31
0.0
  0
LINE
  5
AE
330
1F
100
AcDbEntity
  8
D-B
  6
Continuous
 62
     2
370
     9
100
AcDbLine
 10
-813.48203146007
 20
-344.5282372833674
 30
0.0
 11
-810.7743593409293
 21
-347.235909402508
 31
0.0
  0
LINE
  5
AF
330
1F
100
AcDbEntity
  8
D-B
  6
Continuous
 62
     2
370
     9
100
AcDbLine
 10
-688.4819933130973
 20
-347.235909402508
 30
0.0
 11
-810.7743593409293
 21
-347.235909402508
 31
0.0
  0
LINE
  5
B0
330
1F
100
AcDbEntity
  8
D-B
  6
Continuous
 62
     2
370
     9
100
AcDbLine
 10
-813.48203146007
 20
-319.9433907867854
 30
0.0
 11
-810.77451192882
 21
-317.235909402508
 31
0.0
  0
LINE
  5
B1
330
1F
100
AcDbEntity
  8
D-B
  6
Continuous
 62
     2
370
     9
100
AcDbLine
 10
-688.4819933130973
 20
-317.235909402508
 30
0.0
 11
-810.77451192882
 21
-317.235909402508
 31
0.0
  0
LINE
  5
B2
330
1F
100
AcDbEntity
  8
D-B
  6
Continuous
 62
     2
370
     9
100
AcDbLine
 10
-688.4819933130973
 20
-319.9433907867854
 30
0.0
 11
-813.48203146007
 21
-319.9433907867854
 31
0.0
  0
LINE
  5
B3
330
1F
100
AcDbEntity
  8
D-B
  6
Continuous
 62
     2
370
     9
100
AcDbLine
 10
-688.4819933130973
 20
-344.528389871258
 30
0.0
 11
-813.48203146007
 21
-344.528389871258
 31
0.0
  0
LINE
  5
B4
330
1F
100
AcDbEntity
  8
D-B
  6
Continuous
 62
     2
370
     9
100
AcDbLine
 10
-668.4819933130973
 20
-357.235909402508
 30
0.0
 11
-670.7149263575309
 21
-361.1034020782893
 31
0.0
  0
LINE
  5
B5
330
1F
100
AcDbEntity
  8
D-B
  6
Continuous
 62
     2
370
     9
100
AcDbLine
 10
-668.4819933130973
 20
-357.235909402508
 30
0.0
 11
-668.4819933130973
 21
-307.235909402508
 31
0.0
  0
LINE
  5
B6
330
1F
100
AcDbEntity
  8
D-B
  6
Continuous
 62
     2
370
     9
100
AcDbLine
 10
-670.7149263575309
 20
-303.3684167267268
 30
0.0
 11
-668.4819933130973
 21
-307.235909402508
 31
0.0
  0
LINE
  5
B7
330
1F
100
AcDbEntity
  8
D-B
  6
JWW_CENTER1
 62
     2
370
     9
100
AcDbLine
 10
-81.24376260783606
 20
-332.235909402508
 30
0.0
 11
98.22609460804529
 21
-332.235909402508
 31
0.0
  0
LINE
  5
B8
330
1F
100
AcDbEntity
  8
D-B
  6
Continuous
 62
     2
370
     9
100
AcDbLine
 10
-44.43885767009192
 20
-303.3684167267268
 30
0.0
 11
-44.43885767009192
 21
-361.1034020782893
 31
0.0
  0
LINE
  5
B9
330
1F
100
AcDbEntity
  8
D-B
  6
Continuous
 62
     2
370
     9
100
AcDbLine
 10
-62.20594608333045
 20
-361.1034020782893
 30
0.0
 11
-44.43885767009192
 21
-361.1034020782893
 31
0.0
  0
LINE
  5
BA
330
1F
100
AcDbEntity
  8
D-B
  6
Continuous
 62
     2
370
     9
100
AcDbLine
 10
-62.20594608333045
 20
-303.3684167267268
 30
0.0
 11
-44.43885767009192
 21
-303.3684167267268
 31
0.0
  0
LINE
  5
BB
330
1F
100
AcDbEntity
  8
D-B
  6
Continuous
 62
     2
370
     9
100
AcDbLine
 10
-62.20594608333045
 20
-317.8021630646174
 30
0.0
 11
-44.43885767009192
 21
-317.8021630646174
 31
0.0
  0
LINE
  5
BC
330
1F
100
AcDbEntity
  8
D-B
  6
Continuous
 62
     2
370
     9
100
AcDbLine
 10
-62.20594608333045
 20
-346.6696557403986
 30
0.0
 11
-44.43885767009192
 21
-346.6696557403986
 31
0.0
  0
LINE
  5
BD
330
1F
100
AcDbEntity
  8
D-B
  6
Continuous
 62
     2
370
     9
100
AcDbLine
 10
80.56114709827966
 20
-344.5282372833674
 30
0.0
 11
80.56114709827966
 21
-319.94331449284
 31
0.0
  0
LINE
  5
BE
330
1F
100
AcDbEntity
  8
D-B
  6
Continuous
 62
     2
370
     9
100
AcDbLine
 10
77.85364664051599
 20
-317.235909402508
 30
0.0
 11
77.85364664051599
 21
-347.235909402508
 31
0.0
  0
LINE
  5
BF
330
1F
100
AcDbEntity
  8
D-B
  6
Continuous
 62
     2
370
     9
100
AcDbLine
 10
80.56114709827966
 20
-344.5282372833674
 30
0.0
 11
77.85347497913904
 21
-347.235909402508
 31
0.0
  0
LINE
  5
C0
330
1F
100
AcDbEntity
  8
D-B
  6
Continuous
 62
     2
370
     9
100
AcDbLine
 10
-44.43885767009192
 20
-347.235909402508
 30
0.0
 11
77.85347497913904
 21
-347.235909402508
 31
0.0
  0
LINE
  5
C1
330
1F
100
AcDbEntity
  8
D-B
  6
Continuous
 62
     2
370
     9
100
AcDbLine
 10
80.56114709827966
 20
-319.9433907867854
 30
0.0
 11
77.85364664051599
 21
-317.235909402508
 31
0.0
  0
LINE
  5
C2
330
1F
100
AcDbEntity
  8
D-B
  6
Continuous
 62
     2
370
     9
100
AcDbLine
 10
-44.43885767009192
 20
-317.235909402508
 30
0.0
 11
77.85364664051599
 21
-317.235909402508
 31
0.0
  0
LINE
  5
C3
330
1F
100
AcDbEntity
  8
D-B
  6
Continuous
 62
     2
370
     9
100
AcDbLine
 10
-44.43885767009192
 20
-319.9433907867854
 30
0.0
 11
80.56114709827966
 21
-319.9433907867854
 31
0.0
  0
LINE
  5
C4
330
1F
100
AcDbEntity
  8
D-B
  6
Continuous
 62
     2
370
     9
100
AcDbLine
 10
-44.43885767009192
 20
-344.528389871258
 30
0.0
 11
80.56114709827966
 21
-344.528389871258
 31
0.0
  0
LINE
  5
C5
330
1F
100
AcDbEntity
  8
D-B
  6
Continuous
 62
     2
370
     9
100
AcDbLine
 10
-64.43885528590613
 20
-357.235909402508
 30
0.0
 11
-62.20594608333045
 21
-361.1034020782893
 31
0.0
  0
LINE
  5
C6
330
1F
100
AcDbEntity
  8
D-B
  6
Continuous
 62
     2
370
     9
100
AcDbLine
 10
-64.43885528590613
 20
-357.235909402508
 30
0.0
 11
-64.43885528590613
 21
-307.235909402508
 31
0.0
  0
LINE
  5
C7
330
1F
100
AcDbEntity
  8
D-B
  6
Continuous
 62
     2
370
     9
100
AcDbLine
 10
-62.20594608333045
 20
-303.3684167267268
 30
0.0
 11
-64.43885528590613
 21
-307.235909402508
 31
0.0
  0
LINE
  5
C8
330
1F
100
AcDbEntity
  8
D-6
  6
Continuous
 62
     6
370
     9
100
AcDbLine
 10
-991.46054708507
 20
-237.2282037140315
 30
0.0
 11
-816.46054708507
 21
-237.2282037140315
 31
0.0
  0
LINE
  5
C9
330
1F
100
AcDbEntity
  8
D-6
  6
Continuous
 62
     6
370
     9
100
AcDbLine
 10
83.53968179676599
 20
-237.2282037140315
 30
0.0
 11
258.5397199437386
 21
-237.2282037140315
 31
0.0
  0
LINE
  5
CA
330
1F
100
AcDbEntity
  8
D-6
  6
Continuous
 62
     6
370
     9
100
AcDbLine
 10
-991.46054708507
 20
-237.2282037140315
 30
0.0
 11
-991.46054708507
 21
-887.228208482403
 31
0.0
  0
LINE
  5
CB
330
1F
100
AcDbEntity
  8
D-6
  6
Continuous
 62
     6
370
     9
100
AcDbLine
 10
-798.4047456934684
 20
-887.228208482403
 30
0.0
 11
-816.46054708507
 21
-237.2282037140315
 31
0.0
  0
LINE
  5
CC
330
1F
100
AcDbEntity
  8
D-6
  6
Continuous
 62
     6
370
     9
100
AcDbLine
 10
65.48388040516443
 20
-887.228208482403
 30
0.0
 11
83.53968179676599
 21
-237.2282037140315
 31
0.0
  0
LINE
  5
CD
330
1F
100
AcDbEntity
  8
D-6
  6
Continuous
 62
     6
370
     9
100
AcDbLine
 10
231.6756299779183
 20
-887.228208482403
 30
0.0
 11
258.5397199437386
 21
-860.3641328216975
 31
0.0
  0
LINE
  5
CE
330
1F
100
AcDbEntity
  8
D-6
  6
Continuous
 62
     6
370
     9
100
AcDbLine
 10
217.5335172459847
 20
-887.228208482403
 30
0.0
 11
258.5397199437386
 21
-846.2219914795344
 31
0.0
  0
LINE
  5
CF
330
1F
100
AcDbEntity
  8
D-6
  6
Continuous
 62
     6
370
     9
100
AcDbLine
 10
203.3913663670785
 20
-887.228208482403
 30
0.0
 11
258.5397199437386
 21
-832.0798596741145
 31
0.0
  0
LINE
  5
D0
330
1F
100
AcDbEntity
  8
D-6
  6
Continuous
 62
     6
370
     9
100
AcDbLine
 10
76.89814126942224
 20
-476.32026761784
 30
0.0
 11
258.5397199437386
 21
-294.6786889435236
 31
0.0
  0
LINE
  5
D1
330
1F
100
AcDbEntity
  8
D-6
  6
Continuous
 62
     6
370
     9
100
AcDbLine
 10
77.30221307728357
 20
-461.7740640045588
 30
0.0
 11
258.5397199437386
 21
-280.5365380646174
 31
0.0
  0
LINE
  5
D2
330
1F
100
AcDbEntity
  8
D-6
  6
Continuous
 62
     6
370
     9
100
AcDbLine
 10
77.7062848851449
 20
-447.2278603912775
 30
0.0
 11
258.5397199437386
 21
-266.3944634796565
 31
0.0
  0
LINE
  5
D3
330
1F
100
AcDbEntity
  8
D-6
  6
Continuous
 62
     6
370
     9
100
AcDbLine
 10
-991.46054708507
 20
-413.3081445099299
 30
0.0
 11
-816.4313265040153
 21
-238.2789239288752
 31
0.0
  0
LINE
  5
D4
330
1F
100
AcDbEntity
  8
D-6
  6
Continuous
 62
     6
370
     9
100
AcDbLine
 10
-991.46054708507
 20
-399.1660317779963
 30
0.0
 11
-829.5227571680778
 21
-237.2282037140315
 31
0.0
  0
LINE
  5
D5
330
1F
100
AcDbEntity
  8
D-6
  6
Continuous
 62
     6
370
     9
100
AcDbLine
 10
-991.46054708507
 20
-385.02388089909
 30
0.0
 11
-843.664908046984
 21
-237.2282037140315
 31
0.0
  0
LINE
  5
D6
330
1F
100
AcDbEntity
  8
D-6
  6
Continuous
 62
     6
370
     9
100
AcDbLine
 10
-1341.46054708507
 20
-567.2282037140315
 30
0.0
 11
-991.46054708507
 21
-567.2282037140315
 31
0.0
  0
LINE
  5
D7
330
1F
100
AcDbEntity
  8
D-6
  6
Continuous
 62
     6
370
     9
100
AcDbLine
 10
-1341.46054708507
 20
-217.2282037140315
 30
0.0
 11
-1341.46054708507
 21
-567.2282037140315
 31
0.0
  0
LINE
  5
D8
330
1F
100
AcDbEntity
  8
D-6
  6
Continuous
 62
     6
370
     9
100
AcDbLine
 10
608.5397580907113
 20
-567.2282037140315
 30
0.0
 11
258.5397199437386
 21
-567.2282037140315
 31
0.0
  0
LINE
  5
D9
330
1F
100
AcDbEntity
  8
D-6
  6
Continuous
 62
     6
370
     9
100
AcDbLine
 10
608.5397580907113
 20
-217.2282037140315
 30
0.0
 11
608.5397580907113
 21
-567.2282037140315
 31
0.0
  0
LINE
  5
DA
330
1F
100
AcDbEntity
  8
D-6
  6
Continuous
 62
     6
370
     9
100
AcDbLine
 10
-1341.46054708507
 20
-505.9168633820002
 30
0.0
 11
-1280.149206753039
 21
-567.2282037140315
 31
0.0
  0
LINE
  5
DB
330
1F
100
AcDbEntity
  8
D-6
  6
Continuous
 62
     6
370
     9
100
AcDbLine
 10
-1341.46054708507
 20
-491.774712503094
 30
0.0
 11
-1266.007055874132
 21
-567.2282037140315
 31
0.0
  0
LINE
  5
DC
330
1F
100
AcDbEntity
  8
D-6
  6
Continuous
 62
     6
370
     9
100
AcDbLine
 10
-1341.46054708507
 20
-477.6325616241877
 30
0.0
 11
-1251.864981289172
 21
-567.2282037140315
 31
0.0
  0
LINE
  5
DD
330
1F
100
AcDbEntity
  8
D-6
  6
Continuous
 62
     6
370
     9
100
AcDbLine
 10
-1016.46054708507
 20
-378.3684930206721
 30
0.0
 11
-991.46054708507
 21
-403.3684930206721
 31
0.0
  0
LINE
  5
DE
330
1F
100
AcDbEntity
  8
D-6
  6
Continuous
 62
     6
370
     9
100
AcDbLine
 10
-1016.46054708507
 20
-406.6527947784846
 30
0.0
 11
-991.46054708507
 21
-431.6527947784846
 31
0.0
  0
LINE
  5
DF
330
1F
100
AcDbEntity
  8
D-6
  6
Continuous
 62
     6
370
     9
100
AcDbLine
 10
-1016.46054708507
 20
-392.5106438995783
 30
0.0
 11
-991.46054708507
 21
-417.5106438995783
 31
0.0
  0
LINE
  5
E0
330
1F
100
AcDbEntity
  8
D-5
  6
Continuous
 62
     7
370
     9
100
AcDbLine
 10
303.5397199437386
 20
-472.2282037140315
 30
0.0
 11
323.373551730848
 21
-487.4472436310236
 31
0.0
  0
LINE
  5
E1
330
1F
100
AcDbEntity
  8
D-5
  6
Continuous
 62
     7
370
     9
100
AcDbLine
 10
303.5397199437386
 20
-472.2282037140315
 30
0.0
 11
318.7587598607308
 21
-492.0620355011408
 31
0.0
  0
LINE
  5
E2
330
1F
100
AcDbEntity
  8
D-6
  6
Continuous
 62
     6
370
     9
100
AcDbLine
 10
401.3980726048715
 20
-217.2282037140315
 30
0.0
 11
608.5397580907113
 21
-424.3698510528986
 31
0.0
  0
LINE
  5
E3
330
1F
100
AcDbEntity
  8
D-6
  6
Continuous
 62
     6
370
     9
100
AcDbLine
 10
415.5402234837777
 20
-217.2282037140315
 30
0.0
 11
608.5397580907113
 21
-410.227738320965
 31
0.0
  0
LINE
  5
E4
330
1F
100
AcDbEntity
  8
D-6
  6
Continuous
 62
     6
370
     9
100
AcDbLine
 10
429.6823362157113
 20
-217.2282037140315
 30
0.0
 11
608.5397580907113
 21
-396.0855874420588
 31
0.0
  0
LINE
  5
E5
330
1F
100
AcDbEntity
  8
D-6
  6
Continuous
 62
     6
370
     9
100
AcDbLine
 10
-1124.946798916125
 20
-269.8822411896174
 30
0.0
 11
-1036.46054708507
 21
-358.3684930206721
 31
0.0
  0
LINE
  5
E6
330
1F
100
AcDbEntity
  8
D-6
  6
Continuous
 62
     6
370
     9
100
AcDbLine
 10
-1139.088949795031
 20
-269.8822411896174
 30
0.0
 11
-1036.46054708507
 21
-372.5106438995783
 31
0.0
  0
LINE
  5
E7
330
1F
100
AcDbEntity
  8
D-6
  6
Continuous
 62
     6
370
     9
100
AcDbLine
 10
-1153.231100673937
 20
-269.8822411896174
 30
0.0
 11
-1036.46054708507
 21
-386.6527947784846
 31
0.0
  0
LINE
  5
E8
330
1F
100
AcDbEntity
  8
D-6
  6
Continuous
 62
     6
370
     9
100
AcDbLine
 10
-1341.46054708507
 20
-217.2282037140315
 30
0.0
 11
-1226.581930752062
 21
-217.2282037140315
 31
0.0
  0
LINE
  5
E9
330
1F
100
AcDbEntity
  8
D-6
  6
Continuous
 62
     6
370
     9
100
AcDbLine
 10
-1162.076239223742
 20
-217.2282037140315
 30
0.0
 11
-1001.460013027453
 21
-217.2282037140315
 31
0.0
  0
LINE
  5
EA
330
1F
100
AcDbEntity
  8
D-6
  6
Continuous
 62
     6
370
     9
100
AcDbLine
 10
-899.695181484484
 20
-887.228208482403
 30
0.0
 11
-801.1424013331168
 21
-788.6753663422053
 31
0.0
  0
LINE
  5
EB
330
1F
100
AcDbEntity
  8
D-6
  6
Continuous
 62
     6
370
     9
100
AcDbLine
 10
-913.8373323633903
 20
-887.228208482403
 30
0.0
 11
-801.5245577051871
 21
-774.9154481293147
 31
0.0
  0
LINE
  5
EC
330
1F
100
AcDbEntity
  8
D-6
  6
Continuous
 62
     6
370
     9
100
AcDbLine
 10
-927.9794832422965
 20
-887.228208482403
 30
0.0
 11
-801.9067903712028
 21
-761.1555489899104
 31
0.0
  0
LINE
  5
ED
330
1F
100
AcDbEntity
  8
D-5
  6
Continuous
 62
     7
370
     9
100
AcDbLine
 10
-1063.751120205187
 20
-1109.486962258953
 30
0.0
 11
-987.6687380030387
 21
-1109.486962258953
 31
0.0
  0
LINE
  5
EE
330
1F
100
AcDbEntity
  8
D-5
  6
Continuous
 62
     7
370
     9
100
AcDbLine
 10
-1063.751120205187
 20
-1284.097672402996
 30
0.0
 11
-1063.751120205187
 21
-1109.486962258953
 31
0.0
  0
LINE
  5
EF
330
1F
100
AcDbEntity
  8
D-5
  6
Continuous
 62
     7
370
     9
100
AcDbLine
 10
330.8302930638558
 20
-1284.097672402996
 30
0.0
 11
-1063.751120205187
 21
-1284.097672402996
 31
0.0
  0
LINE
  5
F0
330
1F
100
AcDbEntity
  8
D-5
  6
Continuous
 62
     7
370
     9
100
AcDbLine
 10
330.8302930638558
 20
-1109.486962258953
 30
0.0
 11
330.8302930638558
 21
-1284.097672402996
 31
0.0
  0
LINE
  5
F1
330
1F
100
AcDbEntity
  8
D-5
  6
Continuous
 62
     7
370
     9
100
AcDbLine
 10
-514.1003175928824
 20
-1109.486962258953
 30
0.0
 11
330.8302930638558
 21
-1109.486962258953
 31
0.0
  0
LINE
  5
F2
330
1F
100
AcDbEntity
  8
D-5
  6
Continuous
 62
     7
370
     9
100
AcDbLine
 10
-621.8095918848746
 20
-888.7765130402033
 30
0.0
 11
-95.8096071436637
 21
-888.7765130402033
 31
0.0
  0
LINE
  5
F3
330
1F
100
AcDbEntity
  8
D-5
  6
Continuous
 62
     7
370
     9
100
AcDbLine
 10
-621.8095918848746
 20
-958.7765130402033
 30
0.0
 11
-95.8096071436637
 21
-958.7765130402033
 31
0.0
  0
LINE
  5
F4
330
1F
100
AcDbEntity
  8
D-5
  6
Continuous
 62
     7
370
     9
100
AcDbLine
 10
-621.8095918848746
 20
-888.7765130402033
 30
0.0
 11
-621.8095918848746
 21
-958.7765130402033
 31
0.0
  0
LINE
  5
F5
330
1F
100
AcDbEntity
  8
D-5
  6
Continuous
 62
     7
370
     9
100
AcDbLine
 10
-95.8096071436637
 20
-888.7765130402033
 30
0.0
 11
-95.8096071436637
 21
-958.7765130402033
 31
0.0
  0
LINE
  5
F6
330
1F
100
AcDbEntity
  8
D-4
  6
Continuous
 62
     7
370
     9
100
AcDbLine
 10
303.5397199437386
 20
-775.2282151581232
 30
0.0
 11
303.5397199437386
 21
-492.2282037140315
 31
0.0
  0
LINE
  5
F7
330
1F
100
AcDbEntity
  8
D-4
  6
Continuous
 62
     7
370
     9
100
AcDbLine
 10
-1036.46054708507
 20
-775.2282151581232
 30
0.0
 11
-1036.46054708507
 21
-492.2282037140315
 31
0.0
  0
LINE
  5
F8
330
1F
100
AcDbEntity
  8
D-4
  6
Continuous
 62
     7
370
     9
100
AcDbLine
 10
-1036.46054708507
 20
-772.2282037140315
 30
0.0
 11
-991.46054708507
 21
-772.2282037140315
 31
0.0
  0
LINE
  5
F9
330
1F
100
AcDbEntity
  8
D-4
  6
Continuous
 62
     7
370
     9
100
AcDbLine
 10
-991.46054708507
 20
-772.2282037140315
 30
0.0
 11
-816.46054708507
 21
-772.2282037140315
 31
0.0
  0
LINE
  5
FA
330
1F
100
AcDbEntity
  8
D-4
  6
Continuous
 62
     7
370
     9
100
AcDbLine
 10
-816.46054708507
 20
-775.2282151581232
 30
0.0
 11
-816.46054708507
 21
-257.2282037140315
 31
0.0
  0
LINE
  5
FB
330
1F
100
AcDbEntity
  8
D-4
  6
Continuous
 62
     7
370
     9
100
AcDbLine
 10
-816.46054708507
 20
-772.2282037140315
 30
0.0
 11
83.53968179676599
 21
-772.2282037140315
 31
0.0
  0
LINE
  5
FC
330
1F
100
AcDbEntity
  8
D-4
  6
Continuous
 62
     7
370
     9
100
AcDbLine
 10
83.53968179676599
 20
-775.2282151581232
 30
0.0
 11
83.53968179676599
 21
-257.2282037140315
 31
0.0
  0
LINE
  5
FD
330
1F
100
AcDbEntity
  8
D-4
  6
Continuous
 62
     7
370
     9
100
AcDbLine
 10
83.53968179676599
 20
-772.2282037140315
 30
0.0
 11
258.5397199437386
 21
-772.2282037140315
 31
0.0
  0
LINE
  5
FE
330
1F
100
AcDbEntity
  8
D-4
  6
Continuous
 62
     7
370
     9
100
AcDbLine
 10
258.5397199437386
 20
-772.2282037140315
 30
0.0
 11
303.5397199437386
 21
-772.2282037140315
 31
0.0
  0
LINE
  5
FF
330
1F
100
AcDbEntity
  8
D-4
  6
Continuous
 62
     7
370
     9
100
AcDbLine
 10
3.53968179676599
 20
-675.2335175873225
 30
0.0
 11
3.53968179676599
 21
-469.82368558659
 31
0.0
  0
LINE
  5
100
330
1F
100
AcDbEntity
  8
D-4
  6
Continuous
 62
     7
370
     9
100
AcDbLine
 10
-1036.46054708507
 20
-672.233525216717
 30
0.0
 11
-736.46054708507
 21
-672.233525216717
 31
0.0
  0
LINE
  5
101
330
1F
100
AcDbEntity
  8
D-4
  6
Continuous
 62
     7
370
     9
100
AcDbLine
 10
-736.46054708507
 20
-672.233525216717
 30
0.0
 11
3.53968179676599
 21
-672.233525216717
 31
0.0
  0
LINE
  5
102
330
1F
100
AcDbEntity
  8
D-4
  6
Continuous
 62
     7
370
     9
100
AcDbLine
 10
3.53968179676599
 20
-672.233525216717
 30
0.0
 11
303.5397199437386
 21
-672.233525216717
 31
0.0
  0
LINE
  5
103
330
1F
100
AcDbEntity
  8
D-4
  6
Continuous
 62
     7
370
     9
100
AcDbLine
 10
-736.46054708507
 20
-675.2335175873225
 30
0.0
 11
-736.46054708507
 21
-469.82368558659
 31
0.0
  0
LINE
  5
104
330
1F
100
AcDbEntity
  8
D-4
  6
Continuous
 62
     7
370
     9
100
AcDbLine
 10
-1114.460577602648
 20
-237.2282037140315
 30
0.0
 11
-1057.562460537218
 21
-237.2282037140315
 31
0.0
  0
LINE
  5
105
330
1F
100
AcDbEntity
  8
D-4
  6
Continuous
 62
     7
370
     9
100
AcDbLine
 10
431.5397123143441
 20
-332.235909402508
 30
0.0
 11
118.2260946080453
 21
-332.235909402508
 31
0.0
  0
LINE
  5
106
330
1F
100
AcDbEntity
  8
D-4
  6
Continuous
 62
     7
370
     9
100
AcDbLine
 10
428.5397199437386
 20
-472.2282037140315
 30
0.0
 11
428.5397199437386
 21
-332.235909402508
 31
0.0
  0
LINE
  5
107
330
1F
100
AcDbEntity
  8
D-4
  6
Continuous
 62
     7
370
     9
100
AcDbLine
 10
503.5397199437386
 20
-217.2282037140315
 30
0.0
 11
503.5397199437386
 21
-472.2282037140315
 31
0.0
  0
LINE
  5
108
330
1F
100
AcDbEntity
  8
D-4
  6
Continuous
 62
     7
370
     9
100
AcDbLine
 10
581.5397123143441
 20
-472.2282037140315
 30
0.0
 11
323.5397199437386
 21
-472.2282037140315
 31
0.0
  0
LINE
  5
109
330
1F
100
AcDbEntity
  8
D-4
  6
Continuous
 62
     7
370
     9
100
AcDbLine
 10
-121.4603158190482
 20
-447.2282037140315
 30
0.0
 11
-121.4603158190482
 21
-427.2282037140315
 31
0.0
  0
LINE
  5
10A
330
1F
100
AcDbEntity
  8
D-4
  6
Continuous
 62
     7
370
     9
100
AcDbLine
 10
-121.4603158190482
 20
-427.2282037140315
 30
0.0
 11
-121.4603158190482
 21
-217.2282037140315
 31
0.0
  0
LINE
  5
10B
330
1F
100
AcDbEntity
  8
D-4
  6
Continuous
 62
     7
370
     9
100
AcDbLine
 10
-124.4603153422111
 20
-217.2282037140315
 30
0.0
 11
11.53968370411462
 21
-217.2282037140315
 31
0.0
  0
LINE
  5
10C
330
1F
100
AcDbEntity
  8
D-5
  6
Continuous
 62
     7
370
     9
100
AcDbLine
 10
303.5397199437386
 20
-472.2282037140315
 30
0.0
 11
559.3760923192269
 21
-716.3372620941584
 31
0.0
  0
LINE
  5
10D
330
1F
100
AcDbEntity
  8
D-5
  6
Continuous
 62
     7
370
     9
100
AcDbLine
 10
963.23671853993
 20
-716.3372620941584
 30
0.0
 11
559.3760923192269
 21
-716.3372620941584
 31
0.0
  0
LINE
  5
10E
330
1F
100
AcDbEntity
  8
D-5
  6
Continuous
 62
     7
370
     9
100
AcDbLine
 10
562.3074582860238
 20
-834.3952950836604
 30
0.0
 11
961.1606839940316
 21
-834.3952950836604
 31
0.0
  0
LINE
  5
10F
330
1F
100
AcDbEntity
  8
D-4
  6
Continuous
 62
     7
370
     9
100
AcDbLine
 10
-991.4603944971793
 20
-2.228432595867389
 30
0.0
 11
-866.4600893213981
 21
-2.228432595867389
 31
0.0
  0
LINE
  5
110
330
1F
100
AcDbEntity
  8
D-4
  6
Continuous
 62
     7
370
     9
100
AcDbLine
 10
-866.4600893213981
 20
-2.228432595867389
 30
0.0
 11
133.5392621800668
 21
-2.228432595867389
 31
0.0
  0
LINE
  5
111
330
1F
100
AcDbEntity
  8
D-4
  6
Continuous
 62
     7
370
     9
100
AcDbLine
 10
133.5392621800668
 20
-2.228432595867389
 30
0.0
 11
258.539567355848
 21
-2.228432595867389
 31
0.0
  0
LINE
  5
112
330
1F
100
AcDbEntity
  8
D-4
  6
Continuous
 62
     7
370
     9
100
AcDbLine
 10
133.5392621800668
 20
0.771597921710736
 30
0.0
 11
133.5392621800668
 21
-89.72805112614083
 31
0.0
  0
LINE
  5
113
330
1F
100
AcDbEntity
  8
D-4
  6
Continuous
 62
     7
370
     9
100
AcDbLine
 10
-866.4600893213981
 20
0.771597921710736
 30
0.0
 11
-866.4600893213981
 21
-89.72805112614083
 31
0.0
  0
LINE
  5
114
330
1F
100
AcDbEntity
  8
D-4
  6
Continuous
 62
     7
370
     9
100
AcDbLine
 10
-1016.459784145617
 20
106.5240088103826
 30
0.0
 11
-1001.460013027453
 21
106.5240088103826
 31
0.0
  0
LINE
  5
115
330
1F
100
AcDbEntity
  8
D-4
  6
Continuous
 62
     7
370
     9
100
AcDbLine
 10
-1001.460013027453
 20
106.5240088103826
 30
0.0
 11
-991.4603944971793
 21
106.5240088103826
 31
0.0
  0
LINE
  5
116
330
1F
100
AcDbEntity
  8
D-4
  6
Continuous
 62
     7
370
     9
100
AcDbLine
 10
-991.4603944971793
 20
106.5240088103826
 30
0.0
 11
258.539567355848
 21
106.5240088103826
 31
0.0
  0
LINE
  5
117
330
1F
100
AcDbEntity
  8
D-4
  6
Continuous
 62
     7
370
     9
100
AcDbLine
 10
258.539567355848
 20
106.5240088103826
 30
0.0
 11
268.5391477391488
 21
106.5240088103826
 31
0.0
  0
LINE
  5
118
330
1F
100
AcDbEntity
  8
D-4
  6
Continuous
 62
     7
370
     9
100
AcDbLine
 10
268.5391477391488
 20
106.5240088103826
 30
0.0
 11
283.5389570042855
 21
106.5240088103826
 31
0.0
  0
LINE
  5
119
330
1F
100
AcDbEntity
  8
D-4
  6
Continuous
 62
     7
370
     9
100
AcDbLine
 10
258.539567355848
 20
109.5240393279607
 30
0.0
 11
258.539567355848
 21
-89.72805112614083
 31
0.0
  0
LINE
  5
11A
330
1F
100
AcDbEntity
  8
D-4
  6
Continuous
 62
     7
370
     9
100
AcDbLine
 10
268.5391477391488
 20
109.5240393279607
 30
0.0
 11
268.5391477391488
 21
-89.72805112614083
 31
0.0
  0
LINE
  5
11B
330
1F
100
AcDbEntity
  8
D-4
  6
Continuous
 62
     7
370
     9
100
AcDbLine
 10
-991.4603944971793
 20
109.5240393279607
 30
0.0
 11
-991.4603944971793
 21
-89.72805112614083
 31
0.0
  0
LINE
  5
11C
330
1F
100
AcDbEntity
  8
D-4
  6
Continuous
 62
     7
370
     9
100
AcDbLine
 10
-1001.460013027453
 20
109.5240393279607
 30
0.0
 11
-1001.460013027453
 21
-89.72805112614083
 31
0.0
  0
LINE
  5
11D
330
1F
100
AcDbEntity
  8
D-4
  6
Continuous
 62
     7
370
     9
100
AcDbLine
 10
-1016.459784145617
 20
217.219657003742
 30
0.0
 11
283.5389570042855
 21
217.219657003742
 31
0.0
  0
LINE
  5
11E
330
1F
100
AcDbEntity
  8
D-4
  6
Continuous
 62
     7
370
     9
100
AcDbLine
 10
-1016.459784145617
 20
217.219657003742
 30
0.0
 11
-1036.46054708507
 21
217.219657003742
 31
0.0
  0
LINE
  5
11F
330
1F
100
AcDbEntity
  8
D-4
  6
Continuous
 62
     7
370
     9
100
AcDbLine
 10
283.5389570042855
 20
217.219657003742
 30
0.0
 11
303.5397199437386
 21
217.219657003742
 31
0.0
  0
LINE
  5
120
330
1F
100
AcDbEntity
  8
D-4
  6
Continuous
 62
     7
370
     9
100
AcDbLine
 10
-1036.46054708507
 20
220.2196875213201
 30
0.0
 11
-1036.46054708507
 21
-190.1423272491877
 31
0.0
  0
LINE
  5
121
330
1F
100
AcDbEntity
  8
D-4
  6
Continuous
 62
     7
370
     9
100
AcDbLine
 10
303.5397199437386
 20
220.2196875213201
 30
0.0
 11
303.5397199437386
 21
-192.7197656036799
 31
0.0
  0
LINE
  5
122
330
1F
100
AcDbEntity
  8
D-4
  6
Continuous
 62
     7
370
     9
100
AcDbLine
 10
283.5389570042855
 20
220.2196875213201
 30
0.0
 11
283.5389570042855
 21
-89.72805112614083
 31
0.0
  0
LINE
  5
123
330
1F
100
AcDbEntity
  8
D-4
  6
Continuous
 62
     7
370
     9
100
AcDbLine
 10
-1016.459784145617
 20
220.2196875213201
 30
0.0
 11
-1016.459784145617
 21
-89.72805112614083
 31
0.0
  0
LINE
  5
124
330
1F
100
AcDbEntity
  8
D-4
  6
Continuous
 62
     7
370
     9
100
AcDbLine
 10
-1114.460577602648
 20
-102.2280511261408
 30
0.0
 11
-1057.562460537218
 21
-102.2280511261408
 31
0.0
  0
LINE
  5
125
330
1F
100
AcDbEntity
  8
D-4
  6
Continuous
 62
     7
370
     9
100
AcDbLine
 10
581.5397123143441
 20
-102.2280511261408
 30
0.0
 11
322.0775083348519
 21
-102.2280511261408
 31
0.0
  0
LINE
  5
126
330
1F
100
AcDbEntity
  8
D-5
  6
Continuous
 62
     7
370
     9
100
AcDbLine
 10
283.5389570042855
 20
-163.3346948028986
 30
0.0
 11
293.106446628309
 21
-140.2379235626643
 31
0.0
  0
LINE
  5
127
330
1F
100
AcDbEntity
  8
D-5
  6
Continuous
 62
     7
370
     9
100
AcDbLine
 10
283.5389570042855
 20
-163.3346948028986
 30
0.0
 11
298.7577680394418
 21
-143.5010918976252
 31
0.0
  0
LINE
  5
128
330
1F
100
AcDbEntity
  8
D-5
  6
Continuous
 62
     7
370
     9
100
AcDbLine
 10
283.5389570042855
 20
-163.3346948028986
 30
0.0
 11
385.5895093724496
 21
13.42235475764824
 31
0.0
  0
LINE
  5
129
330
1F
100
AcDbEntity
  8
D-5
  6
Continuous
 62
     7
370
     9
100
AcDbLine
 10
1025.401177768446
 20
13.42235475764824
 30
0.0
 11
385.5895093724496
 21
13.42235475764824
 31
0.0
  0
LINE
  5
12A
330
1F
100
AcDbEntity
  8
D-4
  6
Continuous
 62
     7
370
     9
100
AcDbLine
 10
-1111.46054708507
 20
-237.2282037140315
 30
0.0
 11
-1111.46054708507
 21
-102.2280511261408
 31
0.0
  0
LINE
  5
12B
330
1F
100
AcDbEntity
  8
D-4
  6
Continuous
 62
     7
370
     9
100
AcDbLine
 10
503.5397199437386
 20
-102.2280511261408
 30
0.0
 11
503.5397199437386
 21
-217.2282037140315
 31
0.0
  0
LINE
  5
12C
330
1F
100
AcDbEntity
  8
D-4
  6
Continuous
 62
     7
370
     9
100
AcDbLine
 10
578.5397580907113
 20
-102.2280511261408
 30
0.0
 11
578.5397580907113
 21
-472.2282037140315
 31
0.0
  0
LINE
  5
12D
330
1F
100
AcDbEntity
  8
D-5
  6
Continuous
 62
     7
370
     9
100
AcDbLine
 10
562.3074582860238
 20
-834.3952950836604
 30
0.0
 11
65.3738645360238
 21
-347.235909402508
 31
0.0
  0
LINE
  5
12E
330
1F
100
AcDbEntity
  8
D-5
  6
Continuous
 62
     7
370
     9
100
AcDbLine
 10
65.3738645360238
 20
-347.235909402508
 30
0.0
 11
85.35788095448083
 21
-362.2571954132502
 31
0.0
  0
LINE
  5
12F
330
1F
100
AcDbEntity
  8
D-5
  6
Continuous
 62
     7
370
     9
100
AcDbLine
 10
65.3738645360238
 20
-347.235909402508
 30
0.0
 11
80.78913248035974
 21
-366.9176110626643
 31
0.0
  0
LINE
  5
130
330
1F
100
AcDbEntity
  8
D-1
  6
Continuous
 62
     2
370
     9
100
AcDbLine
 10
263.5406736180551
 20
-217.2282037140315
 30
0.0
 11
268.5409406468636
 21
-217.2282037140315
 31
0.0
  0
LINE
  5
131
330
1F
100
AcDbEntity
  8
D-1
  6
Continuous
 62
     2
370
     9
100
AcDbLine
 10
133.539567355848
 20
-217.2282037140315
 30
0.0
 11
263.5406736180551
 21
-217.2282037140315
 31
0.0
  0
LINE
  5
132
330
1F
100
AcDbEntity
  8
D-1
  6
Continuous
 62
     2
370
     9
100
AcDbLine
 10
263.539567355848
 20
-202.2282037140315
 30
0.0
 11
133.539567355848
 21
-202.2282037140315
 31
0.0
  0
LINE
  5
133
330
1F
100
AcDbEntity
  8
D-1
  6
Continuous
 62
     2
370
     9
100
AcDbLine
 10
133.539567355848
 20
-217.2282037140315
 30
0.0
 11
133.539567355848
 21
-202.2282037140315
 31
0.0
  0
LINE
  5
134
330
1F
100
AcDbEntity
  8
D-1
  6
Continuous
 62
     2
370
     9
100
AcDbLine
 10
268.539567355848
 20
-197.2282037140315
 30
0.0
 11
268.539567355848
 21
-102.2288903595393
 31
0.0
  0
LINE
  5
135
330
1F
100
AcDbEntity
  8
D-1
  6
Continuous
 62
     2
370
     9
100
AcDbLine
 10
283.539567355848
 20
-197.2282037140315
 30
0.0
 11
283.539567355848
 21
-102.2288903595393
 31
0.0
  0
LINE
  5
136
330
1F
100
AcDbEntity
  8
D-1
  6
Continuous
 62
     2
370
     9
100
AcDbLine
 10
268.539567355848
 20
-102.2288903595393
 30
0.0
 11
283.539567355848
 21
-102.2288903595393
 31
0.0
  0
LINE
  5
137
330
1F
100
AcDbEntity
  8
D-4
  6
JWW_HOJO
 62
     7
370
     9
100
AcDbLine
 10
-366.460432644152
 20
-120.8325585724299
 30
0.0
 11
-366.460432644152
 21
-263.4804925323908
 31
0.0
  0
LINE
  5
138
330
1F
100
AcDbEntity
  8
D-1
  6
Continuous
 62
     2
370
     9
100
AcDbLine
 10
-996.461538906359
 20
-217.2282037140315
 30
0.0
 11
-1001.461767788195
 21
-217.2282037140315
 31
0.0
  0
LINE
  5
139
330
1F
100
AcDbEntity
  8
D-1
  6
Continuous
 62
     2
370
     9
100
AcDbLine
 10
-866.4603944971793
 20
-217.2282037140315
 30
0.0
 11
-996.461538906359
 21
-217.2282037140315
 31
0.0
  0
LINE
  5
13A
330
1F
100
AcDbEntity
  8
D-1
  6
Continuous
 62
     2
370
     9
100
AcDbLine
 10
-996.4603944971793
 20
-202.2282037140315
 30
0.0
 11
-866.4603944971793
 21
-202.2282037140315
 31
0.0
  0
LINE
  5
13B
330
1F
100
AcDbEntity
  8
D-1
  6
Continuous
 62
     2
370
     9
100
AcDbLine
 10
-866.4603944971793
 20
-217.2282037140315
 30
0.0
 11
-866.4603944971793
 21
-202.2282037140315
 31
0.0
  0
LINE
  5
13C
330
1F
100
AcDbEntity
  8
D-1
  6
Continuous
 62
     2
370
     9
100
AcDbLine
 10
-1001.460394497179
 20
-197.2282037140315
 30
0.0
 11
-1001.460394497179
 21
-102.2288903595393
 31
0.0
  0
LINE
  5
13D
330
1F
100
AcDbEntity
  8
D-1
  6
Continuous
 62
     2
370
     9
100
AcDbLine
 10
-1016.460394497179
 20
-197.2282037140315
 30
0.0
 11
-1016.460394497179
 21
-102.2288903595393
 31
0.0
  0
LINE
  5
13E
330
1F
100
AcDbEntity
  8
D-1
  6
Continuous
 62
     2
370
     9
100
AcDbLine
 10
-1001.460394497179
 20
-102.2288903595393
 30
0.0
 11
-1016.460394497179
 21
-102.2288903595393
 31
0.0
  0
ARC
  5
13F
330
1F
100
AcDbEntity
  8
D-8
  6
Continuous
 62
     3
370
     9
100
AcDbCircle
 10
-1008.460592861437
 20
-245.2282342316096
 30
0.0
 40
27.99999952316284
100
AcDbArc
 50
90.0
 51
180.0
  0
ARC
  5
140
330
1F
100
AcDbEntity
  8
D-8
  6
Continuous
 62
     3
370
     9
100
AcDbCircle
 10
-764.4605776026481
 20
-245.2282342316096
 30
0.0
 40
27.99999952316284
100
AcDbArc
 50
0.0
 51
90.0
  0
ARC
  5
141
330
1F
100
AcDbEntity
  8
D-8
  6
Continuous
 62
     3
370
     9
100
AcDbCircle
 10
-1011.46054708507
 20
-242.2282037140315
 30
0.0
 40
5.0
100
AcDbArc
 50
90.0
 51
180.0
  0
ARC
  5
142
330
1F
100
AcDbEntity
  8
D-8
  6
Continuous
 62
     3
370
     9
100
AcDbCircle
 10
-761.46054708507
 20
-242.2282037140315
 30
0.0
 40
5.0
100
AcDbArc
 50
0.0
 51
90.0
  0
ARC
  5
143
330
1F
100
AcDbEntity
  8
D-8
  6
Continuous
 62
     3
370
     9
100
AcDbCircle
 10
275.5397275731332
 20
-245.2282342316096
 30
0.0
 40
27.99999952316284
100
AcDbArc
 50
0.0
 51
90.0
  0
ARC
  5
144
330
1F
100
AcDbEntity
  8
D-8
  6
Continuous
 62
     3
370
     9
100
AcDbCircle
 10
31.53968370411462
 20
-245.2282342316096
 30
0.0
 40
27.99999952316284
100
AcDbArc
 50
90.0
 51
180.0
  0
ARC
  5
145
330
1F
100
AcDbEntity
  8
D-8
  6
Continuous
 62
     3
370
     9
100
AcDbCircle
 10
278.5397199437386
 20
-242.2282037140315
 30
0.0
 40
5.0
100
AcDbArc
 50
0.0
 51
90.0
  0
ARC
  5
146
330
1F
100
AcDbEntity
  8
D-8
  6
Continuous
 62
     3
370
     9
100
AcDbCircle
 10
28.53968179676599
 20
-242.2282037140315
 30
0.0
 40
5.0
100
AcDbArc
 50
90.0
 51
180.0
  0
ARC
  5
147
330
1F
100
AcDbEntity
  8
D-8
  6
Continuous
 62
     3
370
     9
100
AcDbCircle
 10
-728.4605547144645
 20
-419.228211343426
 30
0.0
 40
27.99999952316284
100
AcDbArc
 50
180.0
 51
270.0
  0
ARC
  5
148
330
1F
100
AcDbEntity
  8
D-8
  6
Continuous
 62
     3
370
     9
100
AcDbCircle
 10
-4.460310573839479
 20
-419.228211343426
 30
0.0
 40
27.99999952316284
100
AcDbArc
 50
270.0
 51
0.0
  0
ARC
  5
149
330
1F
100
AcDbEntity
  8
D-8
  6
Continuous
 62
     3
370
     9
100
AcDbCircle
 10
-731.46054708507
 20
-422.2282037140315
 30
0.0
 40
5.0
100
AcDbArc
 50
180.0
 51
270.0
  0
ARC
  5
14A
330
1F
100
AcDbEntity
  8
D-8
  6
Continuous
 62
     3
370
     9
100
AcDbCircle
 10
-1.46031820323401
 20
-422.2282037140315
 30
0.0
 40
5.0
100
AcDbArc
 50
270.0
 51
0.0
  0
ARC
  5
14B
330
1F
100
AcDbEntity
  8
D-B
  6
Continuous
 62
     2
370
     9
100
AcDbCircle
 10
-716.2490984156364
 20
-332.235909402508
 30
0.0
 40
47.76709079742432
100
AcDbArc
 50
342.4120330810547
 51
17.58795166015625
  0
ARC
  5
14C
330
1F
100
AcDbEntity
  8
D-B
  6
Continuous
 62
     2
370
     9
100
AcDbCircle
 10
-685.4709764673942
 20
-352.5840005279963
 30
0.0
 40
17.03881859779358
100
AcDbArc
 50
329.9999847412109
 51
355.6157379150391
  0
ARC
  5
14D
330
1F
100
AcDbEntity
  8
D-B
  6
Continuous
 62
     2
370
     9
100
AcDbCircle
 10
-682.7136369898551
 20
-354.3359383942072
 30
0.0
 40
14.23871994018555
100
AcDbArc
 50
1.808685302734373
 51
32.57554626464843
  0
ARC
  5
14E
330
1F
100
AcDbEntity
  8
D-B
  6
Continuous
 62
     2
370
     9
100
AcDbCircle
 10
-685.4709764673942
 20
-311.8877801300471
 30
0.0
 40
17.03881859779358
100
AcDbArc
 50
4.384246826171875
 51
29.99998474121094
  0
ARC
  5
14F
330
1F
100
AcDbEntity
  8
D-B
  6
Continuous
 62
     2
370
     9
100
AcDbCircle
 10
-682.7136369898551
 20
-310.1358422638361
 30
0.0
 40
14.23871994018555
100
AcDbArc
 50
327.4244384765626
 51
358.1912994384766
  0
ARC
  5
150
330
1F
100
AcDbEntity
  8
D-B
  6
Continuous
 62
     2
370
     9
100
AcDbCircle
 10
-16.6717668726676
 20
-332.235909402508
 30
0.0
 40
47.76709079742432
100
AcDbArc
 50
162.4120330810547
 51
197.5879516601562
  0
ARC
  5
151
330
1F
100
AcDbEntity
  8
D-B
  6
Continuous
 62
     2
370
     9
100
AcDbCircle
 10
-47.44989835765296
 20
-352.5840005279963
 30
0.0
 40
17.03881859779358
100
AcDbArc
 50
184.384262084961
 51
210.0
  0
ARC
  5
152
330
1F
100
AcDbEntity
  8
D-B
  6
Continuous
 62
     2
370
     9
100
AcDbCircle
 10
-50.20722829844885
 20
-354.3359383942072
 30
0.0
 40
14.23871994018555
100
AcDbArc
 50
147.4244537353516
 51
178.1913146972656
  0
ARC
  5
153
330
1F
100
AcDbEntity
  8
D-B
  6
Continuous
 62
     2
370
     9
100
AcDbCircle
 10
-47.44989835765296
 20
-311.8877801300471
 30
0.0
 40
17.03881859779358
100
AcDbArc
 50
150.0
 51
175.6157531738281
  0
ARC
  5
154
330
1F
100
AcDbEntity
  8
D-B
  6
Continuous
 62
     2
370
     9
100
AcDbCircle
 10
-50.20722829844885
 20
-310.1358422638361
 30
0.0
 40
14.23871994018555
100
AcDbArc
 50
181.8086853027344
 51
212.5755462646484
  0
ARC
  5
155
330
1F
100
AcDbEntity
  8
D-1
  6
Continuous
 62
     2
370
     9
100
AcDbCircle
 10
263.539567355848
 20
-197.2282037140315
 30
0.0
 40
5.0
100
AcDbArc
 50
270.0
 51
0.0
  0
ARC
  5
156
330
1F
100
AcDbEntity
  8
D-1
  6
Continuous
 62
     2
370
     9
100
AcDbCircle
 10
263.539567355848
 20
-197.2282037140315
 30
0.0
 40
20.0
100
AcDbArc
 50
270.0
 51
0.0
  0
ARC
  5
157
330
1F
100
AcDbEntity
  8
D-1
  6
Continuous
 62
     2
370
     9
100
AcDbCircle
 10
-996.4603944971793
 20
-197.2282037140315
 30
0.0
 40
5.0
100
AcDbArc
 50
180.0
 51
270.0
  0
ARC
  5
158
330
1F
100
AcDbEntity
  8
D-1
  6
Continuous
 62
     2
370
     9
100
AcDbCircle
 10
-996.4603944971793
 20
-197.2282037140315
 30
0.0
 40
20.0
100
AcDbArc
 50
180.0
 51
270.0
  0
LWPOLYLINE
  5
159
330
1F
100
AcDbEntity
  8
D-4
  6
Continuous
 62
     7
370
     9
100
AcDbPolyline
 90
        4
 70
     1
 43
2.0
 10
-1035.46054708507
 20
-772.2282037140315
 42
0.4142135623731
 10
-1036.46054708507
 20
-771.2282037140315
 42
0.4142135623731
 10
-1037.46054708507
 20
-772.2282037140315
 42
0.4142135623731
 10
-1036.46054708507
 20
-773.2282037140315
 42
0.4142135623731
  0
LWPOLYLINE
  5
15A
330
1F
100
AcDbEntity
  8
D-4
  6
Continuous
 62
     7
370
     9
100
AcDbPolyline
 90
        4
 70
     1
 43
2.0
 10
-990.46054708507
 20
-772.2282037140315
 42
0.4142135623731
 10
-991.46054708507
 20
-771.2282037140315
 42
0.4142135623731
 10
-992.46054708507
 20
-772.2282037140315
 42
0.4142135623731
 10
-991.46054708507
 20
-773.2282037140315
 42
0.4142135623731
  0
LWPOLYLINE
  5
15B
330
1F
100
AcDbEntity
  8
D-4
  6
Continuous
 62
     7
370
     9
100
AcDbPolyline
 90
        4
 70
     1
 43
2.0
 10
-815.46054708507
 20
-772.2282037140315
 42
0.4142135623731
 10
-816.46054708507
 20
-771.2282037140315
 42
0.4142135623731
 10
-817.46054708507
 20
-772.2282037140315
 42
0.4142135623731
 10
-816.46054708507
 20
-773.2282037140315
 42
0.4142135623731
  0
LWPOLYLINE
  5
15C
330
1F
100
AcDbEntity
  8
D-4
  6
Continuous
 62
     7
370
     9
100
AcDbPolyline
 90
        4
 70
     1
 43
2.0
 10
84.53968179676599
 20
-772.2282037140315
 42
0.4142135623731
 10
83.53968179676599
 20
-771.2282037140315
 42
0.4142135623731
 10
82.53968179676599
 20
-772.2282037140315
 42
0.4142135623731
 10
83.53968179676599
 20
-773.2282037140315
 42
0.4142135623731
  0
LWPOLYLINE
  5
15D
330
1F
100
AcDbEntity
  8
D-4
  6
Continuous
 62
     7
370
     9
100
AcDbPolyline
 90
        4
 70
     1
 43
2.0
 10
259.5397199437386
 20
-772.2282037140315
 42
0.4142135623731
 10
258.5397199437386
 20
-771.2282037140315
 42
0.4142135623731
 10
257.5397199437386
 20
-772.2282037140315
 42
0.4142135623731
 10
258.5397199437386
 20
-773.2282037140315
 42
0.4142135623731
  0
LWPOLYLINE
  5
15E
330
1F
100
AcDbEntity
  8
D-4
  6
Continuous
 62
     7
370
     9
100
AcDbPolyline
 90
        4
 70
     1
 43
2.0
 10
304.5397199437386
 20
-772.2282037140315
 42
0.4142135623731
 10
303.5397199437386
 20
-771.2282037140315
 42
0.4142135623731
 10
302.5397199437386
 20
-772.2282037140315
 42
0.4142135623731
 10
303.5397199437386
 20
-773.2282037140315
 42
0.4142135623731
  0
LWPOLYLINE
  5
15F
330
1F
100
AcDbEntity
  8
D-4
  6
Continuous
 62
     7
370
     9
100
AcDbPolyline
 90
        4
 70
     1
 43
2.0
 10
-1035.46054708507
 20
-672.233525216717
 42
0.4142135623731
 10
-1036.46054708507
 20
-671.233525216717
 42
0.4142135623731
 10
-1037.46054708507
 20
-672.233525216717
 42
0.4142135623731
 10
-1036.46054708507
 20
-673.233525216717
 42
0.4142135623731
  0
LWPOLYLINE
  5
160
330
1F
100
AcDbEntity
  8
D-4
  6
Continuous
 62
     7
370
     9
100
AcDbPolyline
 90
        4
 70
     1
 43
2.0
 10
-735.46054708507
 20
-672.233525216717
 42
0.4142135623731
 10
-736.46054708507
 20
-671.233525216717
 42
0.4142135623731
 10
-737.46054708507
 20
-672.233525216717
 42
0.4142135623731
 10
-736.46054708507
 20
-673.233525216717
 42
0.4142135623731
  0
LWPOLYLINE
  5
161
330
1F
100
AcDbEntity
  8
D-4
  6
Continuous
 62
     7
370
     9
100
AcDbPolyline
 90
        4
 70
     1
 43
2.0
 10
4.53968179676599
 20
-672.233525216717
 42
0.4142135623731
 10
3.53968179676599
 20
-671.233525216717
 42
0.4142135623731
 10
2.53968179676599
 20
-672.233525216717
 42
0.4142135623731
 10
3.53968179676599
 20
-673.233525216717
 42
0.4142135623731
  0
LWPOLYLINE
  5
162
330
1F
100
AcDbEntity
  8
D-4
  6
Continuous
 62
     7
370
     9
100
AcDbPolyline
 90
        4
 70
     1
 43
2.0
 10
304.5397199437386
 20
-672.233525216717
 42
0.4142135623731
 10
303.5397199437386
 20
-671.233525216717
 42
0.4142135623731
 10
302.5397199437386
 20
-672.233525216717
 42
0.4142135623731
 10
303.5397199437386
 20
-673.233525216717
 42
0.4142135623731
  0
LWPOLYLINE
  5
163
330
1F
100
AcDbEntity
  8
D-4
  6
Continuous
 62
     7
370
     9
100
AcDbPolyline
 90
        4
 70
     1
 43
2.0
 10
-1110.46054708507
 20
-237.2282037140315
 42
0.4142135623731
 10
-1111.46054708507
 20
-236.2282037140315
 42
0.4142135623731
 10
-1112.46054708507
 20
-237.2282037140315
 42
0.4142135623731
 10
-1111.46054708507
 20
-238.2282037140315
 42
0.4142135623731
  0
LWPOLYLINE
  5
164
330
1F
100
AcDbEntity
  8
D-4
  6
Continuous
 62
     7
370
     9
100
AcDbPolyline
 90
        4
 70
     1
 43
2.0
 10
429.5397199437386
 20
-332.235909402508
 42
0.4142135623731
 10
428.5397199437386
 20
-331.235909402508
 42
0.4142135623731
 10
427.5397199437386
 20
-332.235909402508
 42
0.4142135623731
 10
428.5397199437386
 20
-333.235909402508
 42
0.4142135623731
  0
LWPOLYLINE
  5
165
330
1F
100
AcDbEntity
  8
D-4
  6
Continuous
 62
     7
370
     9
100
AcDbPolyline
 90
        4
 70
     1
 43
2.0
 10
429.5397199437386
 20
-472.2282037140315
 42
0.4142135623731
 10
428.5397199437386
 20
-471.2282037140315
 42
0.4142135623731
 10
427.5397199437386
 20
-472.2282037140315
 42
0.4142135623731
 10
428.5397199437386
 20
-473.2282037140315
 42
0.4142135623731
  0
LWPOLYLINE
  5
166
330
1F
100
AcDbEntity
  8
D-4
  6
Continuous
 62
     7
370
     9
100
AcDbPolyline
 90
        4
 70
     1
 43
2.0
 10
504.5397199437386
 20
-472.2282037140315
 42
0.4142135623731
 10
503.5397199437386
 20
-471.2282037140315
 42
0.4142135623731
 10
502.5397199437386
 20
-472.2282037140315
 42
0.4142135623731
 10
503.5397199437386
 20
-473.2282037140315
 42
0.4142135623731
  0
LWPOLYLINE
  5
167
330
1F
100
AcDbEntity
  8
D-4
  6
Continuous
 62
     7
370
     9
100
AcDbPolyline
 90
        4
 70
     1
 43
2.0
 10
504.5397199437386
 20
-217.2282037140315
 42
0.4142135623731
 10
503.5397199437386
 20
-216.2282037140315
 42
0.4142135623731
 10
502.5397199437386
 20
-217.2282037140315
 42
0.4142135623731
 10
503.5397199437386
 20
-218.2282037140315
 42
0.4142135623731
  0
LWPOLYLINE
  5
168
330
1F
100
AcDbEntity
  8
D-4
  6
Continuous
 62
     7
370
     9
100
AcDbPolyline
 90
        4
 70
     1
 43
2.0
 10
579.5397580907113
 20
-472.2282037140315
 42
0.4142135623731
 10
578.5397580907113
 20
-471.2282037140315
 42
0.4142135623731
 10
577.5397580907113
 20
-472.2282037140315
 42
0.4142135623731
 10
578.5397580907113
 20
-473.2282037140315
 42
0.4142135623731
  0
LWPOLYLINE
  5
169
330
1F
100
AcDbEntity
  8
D-4
  6
Continuous
 62
     7
370
     9
100
AcDbPolyline
 90
        4
 70
     1
 43
2.0
 10
-120.4603158190482
 20
-447.2282037140315
 42
0.4142135623731
 10
-121.4603158190482
 20
-446.2282037140315
 42
0.4142135623731
 10
-122.4603158190482
 20
-447.2282037140315
 42
0.4142135623731
 10
-121.4603158190482
 20
-448.2282037140315
 42
0.4142135623731
  0
LWPOLYLINE
  5
16A
330
1F
100
AcDbEntity
  8
D-4
  6
Continuous
 62
     7
370
     9
100
AcDbPolyline
 90
        4
 70
     1
 43
2.0
 10
-120.4603158190482
 20
-427.2282037140315
 42
0.4142135623731
 10
-121.4603158190482
 20
-426.2282037140315
 42
0.4142135623731
 10
-122.4603158190482
 20
-427.2282037140315
 42
0.4142135623731
 10
-121.4603158190482
 20
-428.2282037140315
 42
0.4142135623731
  0
LWPOLYLINE
  5
16B
330
1F
100
AcDbEntity
  8
D-4
  6
Continuous
 62
     7
370
     9
100
AcDbPolyline
 90
        4
 70
     1
 43
2.0
 10
-120.4603158190482
 20
-217.2282037140315
 42
0.4142135623731
 10
-121.4603158190482
 20
-216.2282037140315
 42
0.4142135623731
 10
-122.4603158190482
 20
-217.2282037140315
 42
0.4142135623731
 10
-121.4603158190482
 20
-218.2282037140315
 42
0.4142135623731
  0
LWPOLYLINE
  5
16C
330
1F
100
AcDbEntity
  8
D-4
  6
Continuous
 62
     7
370
     9
100
AcDbPolyline
 90
        4
 70
     1
 43
2.0
 10
-990.4603944971793
 20
-2.228432595867389
 42
0.4142135623731
 10
-991.4603944971793
 20
-1.228432595867389
 42
0.4142135623731
 10
-992.4603944971793
 20
-2.228432595867389
 42
0.4142135623731
 10
-991.4603944971793
 20
-3.228432595867389
 42
0.4142135623731
  0
LWPOLYLINE
  5
16D
330
1F
100
AcDbEntity
  8
D-4
  6
Continuous
 62
     7
370
     9
100
AcDbPolyline
 90
        4
 70
     1
 43
2.0
 10
-865.4600893213981
 20
-2.228432595867389
 42
0.4142135623731
 10
-866.4600893213981
 20
-1.228432595867389
 42
0.4142135623731
 10
-867.4600893213981
 20
-2.228432595867389
 42
0.4142135623731
 10
-866.4600893213981
 20
-3.228432595867389
 42
0.4142135623731
  0
LWPOLYLINE
  5
16E
330
1F
100
AcDbEntity
  8
D-4
  6
Continuous
 62
     7
370
     9
100
AcDbPolyline
 90
        4
 70
     1
 43
2.0
 10
134.5392621800668
 20
-2.228432595867389
 42
0.4142135623731
 10
133.5392621800668
 20
-1.228432595867389
 42
0.4142135623731
 10
132.5392621800668
 20
-2.228432595867389
 42
0.4142135623731
 10
133.5392621800668
 20
-3.228432595867389
 42
0.4142135623731
  0
LWPOLYLINE
  5
16F
330
1F
100
AcDbEntity
  8
D-4
  6
Continuous
 62
     7
370
     9
100
AcDbPolyline
 90
        4
 70
     1
 43
2.0
 10
259.539567355848
 20
-2.228432595867389
 42
0.4142135623731
 10
258.539567355848
 20
-1.228432595867389
 42
0.4142135623731
 10
257.539567355848
 20
-2.228432595867389
 42
0.4142135623731
 10
258.539567355848
 20
-3.228432595867389
 42
0.4142135623731
  0
LWPOLYLINE
  5
170
330
1F
100
AcDbEntity
  8
D-4
  6
Continuous
 62
     7
370
     9
100
AcDbPolyline
 90
        4
 70
     1
 43
2.0
 10
-1015.459784145617
 20
106.5240088103826
 42
0.4142135623731
 10
-1016.459784145617
 20
107.5240088103826
 42
0.4142135623731
 10
-1017.459784145617
 20
106.5240088103826
 42
0.4142135623731
 10
-1016.459784145617
 20
105.5240088103826
 42
0.4142135623731
  0
LWPOLYLINE
  5
171
330
1F
100
AcDbEntity
  8
D-4
  6
Continuous
 62
     7
370
     9
100
AcDbPolyline
 90
        4
 70
     1
 43
2.0
 10
-1000.460013027453
 20
106.5240088103826
 42
0.4142135623731
 10
-1001.460013027453
 20
107.5240088103826
 42
0.4142135623731
 10
-1002.460013027453
 20
106.5240088103826
 42
0.4142135623731
 10
-1001.460013027453
 20
105.5240088103826
 42
0.4142135623731
  0
LWPOLYLINE
  5
172
330
1F
100
AcDbEntity
  8
D-4
  6
Continuous
 62
     7
370
     9
100
AcDbPolyline
 90
        4
 70
     1
 43
2.0
 10
-990.4603944971793
 20
106.5240088103826
 42
0.4142135623731
 10
-991.4603944971793
 20
107.5240088103826
 42
0.4142135623731
 10
-992.4603944971793
 20
106.5240088103826
 42
0.4142135623731
 10
-991.4603944971793
 20
105.5240088103826
 42
0.4142135623731
  0
LWPOLYLINE
  5
173
330
1F
100
AcDbEntity
  8
D-4
  6
Continuous
 62
     7
370
     9
100
AcDbPolyline
 90
        4
 70
     1
 43
2.0
 10
259.539567355848
 20
106.5240088103826
 42
0.4142135623731
 10
258.539567355848
 20
107.5240088103826
 42
0.4142135623731
 10
257.539567355848
 20
106.5240088103826
 42
0.4142135623731
 10
258.539567355848
 20
105.5240088103826
 42
0.4142135623731
  0
LWPOLYLINE
  5
174
330
1F
100
AcDbEntity
  8
D-4
  6
Continuous
 62
     7
370
     9
100
AcDbPolyline
 90
        4
 70
     1
 43
2.0
 10
269.5391477391488
 20
106.5240088103826
 42
0.4142135623731
 10
268.5391477391488
 20
107.5240088103826
 42
0.4142135623731
 10
267.5391477391488
 20
106.5240088103826
 42
0.4142135623731
 10
268.5391477391488
 20
105.5240088103826
 42
0.4142135623731
  0
LWPOLYLINE
  5
175
330
1F
100
AcDbEntity
  8
D-4
  6
Continuous
 62
     7
370
     9
100
AcDbPolyline
 90
        4
 70
     1
 43
2.0
 10
284.5389570042855
 20
106.5240088103826
 42
0.4142135623731
 10
283.5389570042855
 20
107.5240088103826
 42
0.4142135623731
 10
282.5389570042855
 20
106.5240088103826
 42
0.4142135623731
 10
283.5389570042855
 20
105.5240088103826
 42
0.4142135623731
  0
LWPOLYLINE
  5
176
330
1F
100
AcDbEntity
  8
D-4
  6
Continuous
 62
     7
370
     9
100
AcDbPolyline
 90
        4
 70
     1
 43
2.0
 10
-1015.459784145617
 20
217.219657003742
 42
0.4142135623731
 10
-1016.459784145617
 20
218.219657003742
 42
0.4142135623731
 10
-1017.459784145617
 20
217.219657003742
 42
0.4142135623731
 10
-1016.459784145617
 20
216.219657003742
 42
0.4142135623731
  0
LWPOLYLINE
  5
177
330
1F
100
AcDbEntity
  8
D-4
  6
Continuous
 62
     7
370
     9
100
AcDbPolyline
 90
        4
 70
     1
 43
2.0
 10
284.5389570042855
 20
217.219657003742
 42
0.4142135623731
 10
283.5389570042855
 20
218.219657003742
 42
0.4142135623731
 10
282.5389570042855
 20
217.219657003742
 42
0.4142135623731
 10
283.5389570042855
 20
216.219657003742
 42
0.4142135623731
  0
LWPOLYLINE
  5
178
330
1F
100
AcDbEntity
  8
D-4
  6
Continuous
 62
     7
370
     9
100
AcDbPolyline
 90
        4
 70
     1
 43
2.0
 10
-1035.46054708507
 20
217.219657003742
 42
0.4142135623731
 10
-1036.46054708507
 20
218.219657003742
 42
0.4142135623731
 10
-1037.46054708507
 20
217.219657003742
 42
0.4142135623731
 10
-1036.46054708507
 20
216.219657003742
 42
0.4142135623731
  0
LWPOLYLINE
  5
179
330
1F
100
AcDbEntity
  8
D-4
  6
Continuous
 62
     7
370
     9
100
AcDbPolyline
 90
        4
 70
     1
 43
2.0
 10
304.5397199437386
 20
217.219657003742
 42
0.4142135623731
 10
303.5397199437386
 20
218.219657003742
 42
0.4142135623731
 10
302.5397199437386
 20
217.219657003742
 42
0.4142135623731
 10
303.5397199437386
 20
216.219657003742
 42
0.4142135623731
  0
LWPOLYLINE
  5
17A
330
1F
100
AcDbEntity
  8
D-4
  6
Continuous
 62
     7
370
     9
100
AcDbPolyline
 90
        4
 70
     1
 43
2.0
 10
-1110.46054708507
 20
-102.2280511261408
 42
0.4142135623731
 10
-1111.46054708507
 20
-101.2280511261408
 42
0.4142135623731
 10
-1112.46054708507
 20
-102.2280511261408
 42
0.4142135623731
 10
-1111.46054708507
 20
-103.2280511261408
 42
0.4142135623731
  0
LWPOLYLINE
  5
17B
330
1F
100
AcDbEntity
  8
D-4
  6
Continuous
 62
     7
370
     9
100
AcDbPolyline
 90
        4
 70
     1
 43
2.0
 10
504.5397199437386
 20
-102.2280511261408
 42
0.4142135623731
 10
503.5397199437386
 20
-101.2280511261408
 42
0.4142135623731
 10
502.5397199437386
 20
-102.2280511261408
 42
0.4142135623731
 10
503.5397199437386
 20
-103.2280511261408
 42
0.4142135623731
  0
LWPOLYLINE
  5
17C
330
1F
100
AcDbEntity
  8
D-4
  6
Continuous
 62
     7
370
     9
100
AcDbPolyline
 90
        4
 70
     1
 43
2.0
 10
579.5397580907113
 20
-102.2280511261408
 42
0.4142135623731
 10
578.5397580907113
 20
-101.2280511261408
 42
0.4142135623731
 10
577.5397580907113
 20
-102.2280511261408
 42
0.4142135623731
 10
578.5397580907113
 20
-103.2280511261408
 42
0.4142135623731
  0
TEXT
  5
17D
330
1F
100
AcDbEntity
  8
D-5
  6
Continuous
 62
     2
370
     9
100
AcDbText
 10
-1018.781561489367
 20
-1189.395553872723
 30
0.0
 40
30.48
  1
Ｕ字溝上端部と受枠下部とのすきまはモルタル等で埋めて下さい。
 41
1.120833333333333
  7
ＭＳ ゴシック
100
AcDbText
  0
TEXT
  5
17E
330
1F
100
AcDbEntity
  8
D-5
  6
Continuous
 62
     2
370
     9
100
AcDbText
 10
-1018.781561489367
 20
-1247.6965067841
 30
0.0
 40
30.48
  1
固定金具は必ずコンクリート等で固定して下さい。
 41
1.119565217391304
  7
ＭＳ ゴシック
100
AcDbText
  0
TEXT
  5
17F
330
1F
100
AcDbEntity
  8
D-5
  6
Continuous
 62
     2
370
     9
100
AcDbText
 10
-973.7815614893668
 20
-1123.693496987957
 30
0.0
 40
30.48
  1
受枠施工時の注意事項
 41
1.1125
  7
ＭＳ ゴシック
100
AcDbText
  0
TEXT
  5
180
330
1F
100
AcDbEntity
  8
D-5
  6
Continuous
 62
     2
370
     9
100
AcDbText
 10
-603.8095995142692
 20
-938.1365130402033
 30
0.0
 40
30.48
  1
断面詳細図　Ｓ＝１：２
 41
1.113636363636364
  7
ＭＳ ゴシック
100
AcDbText
  0
TEXT
  5
181
330
1F
100
AcDbEntity
  8
D-4
  6
Continuous
 62
     2
370
     9
100
AcDbText
 10
-1023.96054708507
 20
-760.5881998993342
 30
0.0
 40
30.48
  1
9
 41
0.9999999999999998
  7
ＭＳ ゴシック
100
AcDbText
  0
TEXT
  5
182
330
1F
100
AcDbEntity
  8
D-4
  6
Continuous
 62
     2
370
     9
100
AcDbText
 10
-925.21054708507
 20
-760.5881998993342
 30
0.0
 40
30.48
  1
35
 41
1.0625
  7
ＭＳ ゴシック
100
AcDbText
  0
TEXT
  5
183
330
1F
100
AcDbEntity
  8
D-4
  6
Continuous
 62
     2
370
     9
100
AcDbText
 10
149.7897008702523
 20
-760.5881998993342
 30
0.0
 40
30.48
  1
35
 41
1.0625
  7
ＭＳ ゴシック
100
AcDbText
  0
TEXT
  5
184
330
1F
100
AcDbEntity
  8
D-4
  6
Continuous
 62
     2
370
     9
100
AcDbText
 10
271.0397199437386
 20
-760.5881998993342
 30
0.0
 40
30.48
  1
9
 41
0.9999999999999998
  7
ＭＳ ゴシック
100
AcDbText
  0
TEXT
  5
185
330
1F
100
AcDbEntity
  8
D-4
  6
Continuous
 62
     2
370
     9
100
AcDbText
 10
-421.460432644152
 20
-760.5881998993342
 30
0.0
 40
30.48
  1
U-180
 41
1.1
  7
ＭＳ ゴシック
100
AcDbText
  0
TEXT
  5
186
330
1F
100
AcDbEntity
  8
D-4
  6
Continuous
 62
     2
370
     9
100
AcDbText
 10
-907.71054708507
 20
-660.5935214020197
 30
0.0
 40
30.48
  1
60
 41
1.0625
  7
ＭＳ ゴシック
100
AcDbText
  0
TEXT
  5
187
330
1F
100
AcDbEntity
  8
D-4
  6
Continuous
 62
     2
370
     9
100
AcDbText
 10
-398.960432644152
 20
-660.5935214020197
 30
0.0
 40
30.48
  1
148
 41
1.083333333333333
  7
ＭＳ ゴシック
100
AcDbText
  0
TEXT
  5
188
330
1F
100
AcDbEntity
  8
D-4
  6
Continuous
 62
     2
370
     9
100
AcDbText
 10
132.2897008702523
 20
-660.5935214020197
 30
0.0
 40
30.48
  1
60
 41
1.0625
  7
ＭＳ ゴシック
100
AcDbText
  0
TEXT
  5
189
330
1F
100
AcDbEntity
  8
D-4
  6
Continuous
 62
     2
370
     9
100
AcDbText
 10
416.8997352025277
 20
-423.482056804802
 30
0.0
 40
30.48
  1
28
 50
90.00000250447809
 41
1.062500000000001
  7
ＭＳ ゴシック
100
AcDbText
  0
TEXT
  5
18A
330
1F
100
AcDbEntity
  8
D-4
  6
Continuous
 62
     2
370
     9
100
AcDbText
 10
491.8997352025277
 20
-365.9782039605637
 30
0.0
 40
30.48
  1
51
 50
90.00000250447809
 41
1.062500000000001
  7
ＭＳ ゴシック
100
AcDbText
  0
TEXT
  5
18B
330
1F
100
AcDbEntity
  8
D-4
  6
Continuous
 62
     2
370
     9
100
AcDbText
 10
-133.1003148653739
 20
-343.4782039605637
 30
0.0
 40
30.48
  1
42
 50
90.00000250447816
 41
1.062500000000001
  7
ＭＳ ゴシック
100
AcDbText
  0
TEXT
  5
18C
330
1F
100
AcDbEntity
  8
D-4
  6
Continuous
 62
     2
370
     9
100
AcDbText
 10
-133.1003148653739
 20
-418.0881511651535
 30
0.0
 40
30.48
  1
4
 50
90.00000250447816
 41
1.000000000000001
  7
ＭＳ ゴシック
100
AcDbText
  0
TEXT
  5
18D
330
1F
100
AcDbEntity
  8
D-5
  6
Continuous
 62
     7
370
     9
100
AcDbText
 10
583.23671853993
 20
-753.2109684540217
 30
0.0
 40
22.86
  1
ＳＵＳ３０４
 41
1.138888888888889
  7
ＭＳ ゴシック
100
AcDbText
  0
TEXT
  5
18E
330
1F
100
AcDbEntity
  8
D-5
  6
Continuous
 62
     7
370
     9
100
AcDbText
 10
583.23671853993
 20
-703.7739224029963
 30
0.0
 40
22.86
  1
Ｍ６タップ加工付
 41
1.145833333333333
  7
ＭＳ ゴシック
100
AcDbText
  0
TEXT
  5
18F
330
1F
100
AcDbEntity
  8
D-5
  6
Continuous
 62
     7
370
     9
100
AcDbText
 10
569.445443515516
 20
-870.8276600433771
 30
0.0
 40
22.86
  1
ＳＵＳ３０４
 41
1.138888888888889
  7
ＭＳ ゴシック
100
AcDbText
  0
TEXT
  5
190
330
1F
100
AcDbEntity
  8
D-5
  6
Continuous
 62
     7
370
     9
100
AcDbText
 10
572.0506528661019
 20
-820.1652950836603
 30
0.0
 40
22.86
  1
六角ボルト：Ｍ６×２５
 41
1.151515151515152
  7
ＭＳ ゴシック
100
AcDbText
  0
TEXT
  5
191
330
1F
100
AcDbEntity
  8
D-4
  6
Continuous
 62
     2
370
     9
100
AcDbText
 10
-950.2102419092887
 20
9.411628439288862
 30
0.0
 40
30.48
  1
25
 41
1.0625
  7
ＭＳ ゴシック
100
AcDbText
  0
TEXT
  5
192
330
1F
100
AcDbEntity
  8
D-4
  6
Continuous
 62
     2
370
     9
100
AcDbText
 10
-398.960432644152
 20
9.411628439288862
 30
0.0
 40
30.48
  1
200
 41
1.083333333333333
  7
ＭＳ ゴシック
100
AcDbText
  0
TEXT
  5
193
330
1F
100
AcDbEntity
  8
D-4
  6
Continuous
 62
     2
370
     9
100
AcDbText
 10
174.7894147679574
 20
9.411628439288862
 30
0.0
 40
30.48
  1
25
 41
1.0625
  7
ＭＳ ゴシック
100
AcDbText
  0
TEXT
  5
194
330
1F
100
AcDbEntity
  8
D-4
  6
Continuous
 62
     2
370
     9
100
AcDbText
 10
217.7151922032601
 20
118.1639935515935
 30
0.0
 40
30.48
  1
2
 41
0.9999999999999998
  7
ＭＳ ゴシック
100
AcDbText
  0
TEXT
  5
195
330
1F
100
AcDbEntity
  8
D-4
  6
Continuous
 62
     2
370
     9
100
AcDbText
 10
259.7340635106332
 20
118.1639935515935
 30
0.0
 40
30.48
  1
3
 41
0.9999999999999998
  7
ＭＳ ゴシック
100
AcDbText
  0
TEXT
  5
196
330
1F
100
AcDbEntity
  8
D-4
  6
Continuous
 62
     2
370
     9
100
AcDbText
 10
-398.960432644152
 20
118.1639935515935
 30
0.0
 40
30.48
  1
250
 41
1.083333333333333
  7
ＭＳ ゴシック
100
AcDbText
  0
TEXT
  5
197
330
1F
100
AcDbEntity
  8
D-4
  6
Continuous
 62
     2
370
     9
100
AcDbText
 10
-1013.115439052843
 20
118.1639935515935
 30
0.0
 40
30.48
  1
3
 41
0.9999999999999998
  7
ＭＳ ゴシック
100
AcDbText
  0
TEXT
  5
198
330
1F
100
AcDbEntity
  8
D-4
  6
Continuous
 62
     2
370
     9
100
AcDbText
 10
-971.7820497706168
 20
118.1639935515935
 30
0.0
 40
30.48
  1
2
 41
0.9999999999999998
  7
ＭＳ ゴシック
100
AcDbText
  0
TEXT
  5
199
330
1F
100
AcDbEntity
  8
D-4
  6
Continuous
 62
     2
370
     9
100
AcDbText
 10
-398.960432644152
 20
228.8596417449529
 30
0.0
 40
30.48
  1
260
 41
1.083333333333333
  7
ＭＳ ゴシック
100
AcDbText
  0
TEXT
  5
19A
330
1F
100
AcDbEntity
  8
D-4
  6
Continuous
 62
     2
370
     9
100
AcDbText
 10
-1036.460165615343
 20
228.8596417449529
 30
0.0
 40
30.48
  1
4
 41
0.9999999999999998
  7
ＭＳ ゴシック
100
AcDbText
  0
TEXT
  5
19B
330
1F
100
AcDbEntity
  8
D-4
  6
Continuous
 62
     2
370
     9
100
AcDbText
 10
283.5393384740121
 20
228.8596417449529
 30
0.0
 40
30.48
  1
4
 41
0.9999999999999998
  7
ＭＳ ゴシック
100
AcDbText
  0
TEXT
  5
19C
330
1F
100
AcDbEntity
  8
D-4
  6
Continuous
 62
     2
370
     9
100
AcDbText
 10
-1170.617774257922
 20
-314.7281276666184
 30
0.0
 40
30.48
  1
Ｕ字溝天端ﾏﾃﾞ
 50
90.0000025044782
 41
1.115384615384615
  7
ＭＳ ゴシック
100
AcDbText
  0
TEXT
  5
19D
330
1F
100
AcDbEntity
  8
D-4
  6
Continuous
 62
     2
370
     9
100
AcDbText
 10
-1123.100608120226
 20
-190.9781276666184
 30
0.0
 40
30.48
  1
27
 50
90.00000250447829
 41
1.062500000000001
  7
ＭＳ ゴシック
100
AcDbText
  0
TEXT
  5
19E
330
1F
100
AcDbEntity
  8
D-4
  6
Continuous
 62
     2
370
     9
100
AcDbText
 10
491.8997352025277
 20
-180.9781276666184
 30
0.0
 40
30.48
  1
23
 50
90.00000250447809
 41
1.062500000000001
  7
ＭＳ ゴシック
100
AcDbText
  0
TEXT
  5
19F
330
1F
100
AcDbEntity
  8
D-4
  6
Continuous
 62
     2
370
     9
100
AcDbText
 10
566.8996970555551
 20
-308.4781276666184
 30
0.0
 40
30.48
  1
74
 50
90.00000250447829
 41
1.062500000000001
  7
ＭＳ ゴシック
100
AcDbText
  0
LINE
  5
1A0
330
1F
100
AcDbEntity
  8
D-2
  6
Continuous
 62
     3
370
     9
100
AcDbLine
 10
238.539966706968
 20
-202.2289761902277
 30
0.0
 11
238.539966706968
 21
-102.2291955353205
 31
0.0
  0
LINE
  5
1A1
330
1F
100
AcDbEntity
  8
D-2
  6
Continuous
 62
     3
370
     9
100
AcDbLine
 10
258.5399936003989
 20
-102.2291955353205
 30
0.0
 11
258.5399936003989
 21
-202.2289761902277
 31
0.0
  0
LINE
  5
1A2
330
1F
100
AcDbEntity
  8
D-4
  6
Continuous
 62
     7
370
     9
100
AcDbLine
 10
-499.5296617701285
 20
-202.2289761902277
 30
0.0
 11
-499.5296617701285
 21
-102.2291955353205
 31
0.0
  0
LINE
  5
1A3
330
1F
100
AcDbEntity
  8
D-5
  6
Continuous
 62
     7
370
     9
100
AcDbLine
 10
240.2382770821816
 20
-102.2291955353205
 30
0.0
 11
249.8052266881234
 21
-79.13210481419014
 31
0.0
  0
LINE
  5
1A4
330
1F
100
AcDbEntity
  8
D-5
  6
Continuous
 62
     7
370
     9
100
AcDbLine
 10
240.2382770821816
 20
-102.2291955353205
 30
0.0
 11
255.4572788522012
 21
-82.39539474262642
 31
0.0
  0
LWPOLYLINE
  5
1A5
330
1F
100
AcDbEntity
  8
D-4
  6
Continuous
 62
     7
370
     9
100
AcDbPolyline
 90
        4
 70
     1
 43
2.0
 10
-498.5296617701285
 20
-102.2291955353205
 42
0.4142135623731
 10
-499.5296617701285
 20
-101.2291955353205
 42
0.4142135623731
 10
-500.5296617701285
 20
-102.2291955353205
 42
0.4142135623731
 10
-499.5296617701285
 20
-103.2291955353205
 42
0.4142135623731
  0
LWPOLYLINE
  5
1A6
330
1F
100
AcDbEntity
  8
D-4
  6
Continuous
 62
     7
370
     9
100
AcDbPolyline
 90
        4
 70
     1
 43
2.0
 10
-498.5296617701285
 20
-202.2289761902277
 42
0.4142135623731
 10
-499.5296617701285
 20
-201.2289761902277
 42
0.4142135623731
 10
-500.5296617701285
 20
-202.2289761902277
 42
0.4142135623731
 10
-499.5296617701285
 20
-203.2289761902277
 42
0.4142135623731
  0
TEXT
  5
1A7
330
1F
100
AcDbEntity
  8
D-4
  6
Continuous
 62
     2
370
     9
100
AcDbText
 10
-510.1697380640738
 20
-173.4791385613938
 30
0.0
 40
30.48
  1
20
 50
90.00000250447829
 41
1.062500000000001
  7
ＭＳ ゴシック
100
AcDbText
  0
LINE
  5
1A8
330
1F
100
AcDbEntity
  8
D-5
  6
Continuous
 62
     7
370
     9
100
AcDbLine
 10
867.9577878758676
 20
-152.2287377716486
 30
0.0
 11
867.9577878758676
 21
-102.2284956341093
 31
0.0
  0
LINE
  5
1A9
330
1F
100
AcDbEntity
  8
D-5
  6
Continuous
 62
     7
370
     9
100
AcDbLine
 10
867.9577878758676
 20
-102.2284956341093
 30
0.0
 11
1092.957482700086
 21
-102.2284956341093
 31
0.0
  0
LINE
  5
1AA
330
1F
100
AcDbEntity
  8
D-5
  6
Continuous
 62
     7
370
     9
100
AcDbLine
 10
1092.957482700086
 20
-102.2284956341093
 30
0.0
 11
1092.957482700086
 21
-152.2287377716486
 31
0.0
  0
LINE
  5
1AB
330
1F
100
AcDbEntity
  8
D-5
  6
Continuous
 62
     7
370
     9
100
AcDbLine
 10
1092.957482700086
 20
-152.2287377716486
 30
0.0
 11
867.9577878758676
 21
-152.2287377716486
 31
0.0
  0
TEXT
  5
1AC
330
1F
100
AcDbEntity
  8
D-5
  6
Continuous
 62
     2
370
     9
100
AcDbText
 10
915.4576352879769
 20
-141.588642404217
 30
0.0
 40
30.48
  1
仕　様
 41
1.083333333333333
  7
ＭＳ ゴシック
100
AcDbText
  0
LINE
  5
1AD
330
1F
100
AcDbEntity
  8
D-5
  6
Continuous
 62
     7
370
     9
100
AcDbLine
 10
240.2382770821816
 20
-102.2291955353205
 30
0.0
 11
372.4211744934439
 21
126.7186041521678
 31
0.0
  0
TEXT
  5
1AE
330
1F
100
AcDbEntity
  8
D-5
  6
Continuous
 62
     7
370
     9
100
AcDbText
 10
388.7070372176777
 20
22.41134218440349
 30
0.0
 40
22.86
  1
ステンレス製受枠ＳＬ－２０Ｃ－Ｕ１８
 50
359.999936989965
 41
1.157407407407408
  7
ＭＳ ゴシック
100
AcDbText
  0
LINE
  5
1AF
330
1F
100
AcDbEntity
  8
D-2
  6
Continuous
 62
     3
370
     9
100
AcDbLine
 10
-971.460831995272
 20
-202.2289761902277
 30
0.0
 11
-971.460831995272
 21
-102.2291955353205
 31
0.0
  0
LINE
  5
1B0
330
1F
100
AcDbEntity
  8
D-2
  6
Continuous
 62
     3
370
     9
100
AcDbLine
 10
-991.4608588887029
 20
-102.2291955353205
 30
0.0
 11
-991.4608588887029
 21
-202.2289761902277
 31
0.0
  0
LINE
  5
1B1
330
1F
100
AcDbEntity
  8
D-2
  6
Continuous
 62
     3
370
     9
100
AcDbLine
 10
-991.4608588887029
 20
-202.2289761902277
 30
0.0
 11
258.5399936003989
 21
-202.2289761902277
 31
0.0
  0
LINE
  5
1B2
330
1F
100
AcDbEntity
  8
D-2
  6
Continuous
 62
     3
370
     9
100
AcDbLine
 10
258.5399936003989
 20
-102.2291955353205
 30
0.0
 11
-991.4608588887029
 21
-102.2291955353205
 31
0.0
  0
LINE
  5
1B3
330
1F
100
AcDbEntity
  8
D-2
  6
Continuous
 62
     3
370
     9
100
AcDbLine
 10
-123.9605661585563
 20
-102.2291955353205
 30
0.0
 11
-123.9605661585563
 21
-177.2292098404353
 31
0.0
  0
LINE
  5
1B4
330
1F
100
AcDbEntity
  8
D-2
  6
Continuous
 62
     3
370
     9
100
AcDbLine
 10
-108.9602991297477
 20
-102.2291955353205
 30
0.0
 11
-108.9602991297477
 21
-177.2292098404353
 31
0.0
  0
LINE
  5
1B5
330
1F
100
AcDbEntity
  8
D-2
  6
Continuous
 62
     3
370
     9
100
AcDbLine
 10
-103.9601846888297
 20
-129.7290143372004
 30
0.0
 11
-73.96033727672034
 21
-139.7292026878779
 31
0.0
  0
LINE
  5
1B6
330
1F
100
AcDbEntity
  8
D-2
  6
Continuous
 62
     3
370
     9
100
AcDbLine
 10
-73.96033727672034
 20
-139.7292026878779
 30
0.0
 11
-73.96033727672034
 21
-167.229019105572
 31
0.0
  0
LINE
  5
1B7
330
1F
100
AcDbEntity
  8
D-2
  6
Continuous
 62
     3
370
     9
100
AcDbLine
 10
-103.9601846888297
 20
-167.229019105572
 30
0.0
 11
-73.96033727672034
 21
-167.229019105572
 31
0.0
  0
LINE
  5
1B8
330
1F
100
AcDbEntity
  8
D-2
  6
Continuous
 62
     3
370
     9
100
AcDbLine
 10
-103.9601846888297
 20
-167.229019105572
 30
0.0
 11
-103.9601846888297
 21
-177.2292098404353
 31
0.0
  0
LINE
  5
1B9
330
1F
100
AcDbEntity
  8
D-2
  6
Continuous
 62
     3
370
     9
100
AcDbLine
 10
-103.9601846888297
 20
-177.2292098404353
 30
0.0
 11
-128.9599176600211
 21
-177.2292098404353
 31
0.0
  0
LINE
  5
1BA
330
1F
100
AcDbEntity
  8
D-2
  6
Continuous
 62
     3
370
     9
100
AcDbLine
 10
-128.9599176600211
 20
-177.2292098404353
 30
0.0
 11
-158.9601846888297
 21
-167.229019105572
 31
0.0
  0
LINE
  5
1BB
330
1F
100
AcDbEntity
  8
D-2
  6
Continuous
 62
     3
370
     9
100
AcDbLine
 10
-158.9601846888297
 20
-139.7292026878779
 30
0.0
 11
-158.9601846888297
 21
-167.229019105572
 31
0.0
  0
LINE
  5
1BC
330
1F
100
AcDbEntity
  8
D-2
  6
Continuous
 62
     3
370
     9
100
AcDbLine
 10
-158.9601846888297
 20
-139.7292026878779
 30
0.0
 11
-128.9599176600211
 21
-139.7292026878779
 31
0.0
  0
LINE
  5
1BD
330
1F
100
AcDbEntity
  8
D-2
  6
Continuous
 62
     3
370
     9
100
AcDbLine
 10
-128.9599176600211
 20
-129.7290143372004
 30
0.0
 11
-128.9599176600211
 21
-139.7292026878779
 31
0.0
  0
LINE
  5
1BE
330
1F
100
AcDbEntity
  8
D-2
  6
Continuous
 62
     3
370
     9
100
AcDbLine
 10
-123.9605661585563
 20
-129.7290143372004
 30
0.0
 11
-128.9599176600211
 21
-129.7290143372004
 31
0.0
  0
LINE
  5
1BF
330
1F
100
AcDbEntity
  8
D-2
  6
Continuous
 62
     3
370
     9
100
AcDbLine
 10
-103.9601846888297
 20
-129.7290143372004
 30
0.0
 11
-108.9602991297477
 21
-129.7290143372004
 31
0.0
  0
LINE
  5
1C0
330
1F
100
AcDbEntity
  8
D-2
  6
Continuous
 62
     3
370
     9
100
AcDbLine
 10
-623.9605661585563
 20
-102.2291955353205
 30
0.0
 11
-623.9605661585563
 21
-177.2292098404353
 31
0.0
  0
LINE
  5
1C1
330
1F
100
AcDbEntity
  8
D-2
  6
Continuous
 62
     3
370
     9
100
AcDbLine
 10
-608.9602991297477
 20
-102.2291955353205
 30
0.0
 11
-608.9602991297477
 21
-177.2292098404353
 31
0.0
  0
LINE
  5
1C2
330
1F
100
AcDbEntity
  8
D-2
  6
Continuous
 62
     3
370
     9
100
AcDbLine
 10
-603.9601846888297
 20
-129.7290143372004
 30
0.0
 11
-573.9603372767203
 21
-139.7292026878779
 31
0.0
  0
LINE
  5
1C3
330
1F
100
AcDbEntity
  8
D-2
  6
Continuous
 62
     3
370
     9
100
AcDbLine
 10
-573.9603372767203
 20
-139.7292026878779
 30
0.0
 11
-573.9603372767203
 21
-167.229019105572
 31
0.0
  0
LINE
  5
1C4
330
1F
100
AcDbEntity
  8
D-2
  6
Continuous
 62
     3
370
     9
100
AcDbLine
 10
-603.9601846888297
 20
-167.229019105572
 30
0.0
 11
-573.9603372767203
 21
-167.229019105572
 31
0.0
  0
LINE
  5
1C5
330
1F
100
AcDbEntity
  8
D-2
  6
Continuous
 62
     3
370
     9
100
AcDbLine
 10
-603.9601846888297
 20
-167.229019105572
 30
0.0
 11
-603.9601846888297
 21
-177.2292098404353
 31
0.0
  0
LINE
  5
1C6
330
1F
100
AcDbEntity
  8
D-2
  6
Continuous
 62
     3
370
     9
100
AcDbLine
 10
-603.9601846888297
 20
-177.2292098404353
 30
0.0
 11
-628.9599176600211
 21
-177.2292098404353
 31
0.0
  0
LINE
  5
1C7
330
1F
100
AcDbEntity
  8
D-2
  6
Continuous
 62
     3
370
     9
100
AcDbLine
 10
-628.9599176600211
 20
-177.2292098404353
 30
0.0
 11
-658.9601846888297
 21
-167.229019105572
 31
0.0
  0
LINE
  5
1C8
330
1F
100
AcDbEntity
  8
D-2
  6
Continuous
 62
     3
370
     9
100
AcDbLine
 10
-658.9601846888297
 20
-139.7292026878779
 30
0.0
 11
-658.9601846888297
 21
-167.229019105572
 31
0.0
  0
LINE
  5
1C9
330
1F
100
AcDbEntity
  8
D-2
  6
Continuous
 62
     3
370
     9
100
AcDbLine
 10
-658.9601846888297
 20
-139.7292026878779
 30
0.0
 11
-628.9599176600211
 21
-139.7292026878779
 31
0.0
  0
LINE
  5
1CA
330
1F
100
AcDbEntity
  8
D-2
  6
Continuous
 62
     3
370
     9
100
AcDbLine
 10
-628.9599176600211
 20
-129.7290143372004
 30
0.0
 11
-628.9599176600211
 21
-139.7292026878779
 31
0.0
  0
LINE
  5
1CB
330
1F
100
AcDbEntity
  8
D-2
  6
Continuous
 62
     3
370
     9
100
AcDbLine
 10
-623.9605661585563
 20
-129.7290143372004
 30
0.0
 11
-628.9599176600211
 21
-129.7290143372004
 31
0.0
  0
LINE
  5
1CC
330
1F
100
AcDbEntity
  8
D-2
  6
Continuous
 62
     3
370
     9
100
AcDbLine
 10
-603.9601846888297
 20
-129.7290143372004
 30
0.0
 11
-608.9602991297477
 21
-129.7290143372004
 31
0.0
  0
LINE
  5
1CD
330
1F
100
AcDbEntity
  8
C-2
  6
Continuous
 62
     3
370
     9
100
AcDbLine
 10
-366.21237691266
 20
1237.411391875788
 30
0.0
 11
-366.21237691266
 21
987.4124447322331
 31
0.0
  0
LINE
  5
1CE
330
1F
100
AcDbEntity
  8
C-2
  6
Continuous
 62
     3
370
     9
100
AcDbLine
 10
631.7875925697621
 20
1237.412368438288
 30
0.0
 11
631.7875925697621
 21
987.4124447322331
 31
0.0
  0
LINE
  5
1CF
330
1F
100
AcDbEntity
  8
C-2
  6
Continuous
 62
     3
370
     9
100
AcDbLine
 10
-366.21237691266
 20
1237.411391875788
 30
0.0
 11
-515.2122243247692
 21
1237.411391875788
 31
0.0
  0
LINE
  5
1D0
330
1F
100
AcDbEntity
  8
C-2
  6
Continuous
 62
     3
370
     9
100
AcDbLine
 10
-366.21237691266
 20
987.4124447322331
 30
0.0
 11
-515.2122243247692
 21
987.4124447322331
 31
0.0
  0
LINE
  5
1D1
330
1F
100
AcDbEntity
  8
C-2
  6
Continuous
 62
     3
370
     9
100
AcDbLine
 10
789.7871653236683
 20
1237.412368438288
 30
0.0
 11
631.7875925697621
 21
1237.412368438288
 31
0.0
  0
LINE
  5
1D2
330
1F
100
AcDbEntity
  8
C-2
  6
Continuous
 62
     3
370
     9
100
AcDbLine
 10
789.7871653236683
 20
987.4124447322331
 30
0.0
 11
631.7875925697621
 21
987.4124447322331
 31
0.0
  0
LINE
  5
1D3
330
1F
100
AcDbEntity
  8
C-2
  6
Continuous
 62
     3
370
     9
100
AcDbLine
 10
-535.2118275962539
 20
1097.411971709772
 30
0.0
 11
-495.2116444907847
 21
1127.412612578913
 31
0.0
  0
LINE
  5
1D4
330
1F
100
AcDbEntity
  8
C-2
  6
Continuous
 62
     3
370
     9
100
AcDbLine
 10
-535.2118275962539
 20
1097.411971709772
 30
0.0
 11
-515.2122243247692
 21
1097.411971709772
 31
0.0
  0
LINE
  5
1D5
330
1F
100
AcDbEntity
  8
C-2
  6
Continuous
 62
     3
370
     9
100
AcDbLine
 10
-515.2122243247692
 20
1127.412612578913
 30
0.0
 11
-495.2116444907847
 21
1127.412612578913
 31
0.0
  0
LINE
  5
1D6
330
1F
100
AcDbEntity
  8
C-2
  6
Continuous
 62
     3
370
     9
100
AcDbLine
 10
-515.2122243247692
 20
1097.411971709772
 30
0.0
 11
-515.2122243247692
 21
967.4123531794985
 31
0.0
  0
LINE
  5
1D7
330
1F
100
AcDbEntity
  8
C-2
  6
Continuous
 62
     3
370
     9
100
AcDbLine
 10
-515.2122243247692
 20
1257.412459991022
 30
0.0
 11
-515.2122243247692
 21
1127.412612578913
 31
0.0
  0
LINE
  5
1D8
330
1F
100
AcDbEntity
  8
C-2
  6
Continuous
 62
     3
370
     9
100
AcDbLine
 10
769.7875925697622
 20
1097.411971709772
 30
0.0
 11
809.7877756752308
 21
1127.412612578913
 31
0.0
  0
LINE
  5
1D9
330
1F
100
AcDbEntity
  8
C-2
  6
Continuous
 62
     3
370
     9
100
AcDbLine
 10
769.7875925697622
 20
1097.411971709772
 30
0.0
 11
789.7871653236683
 21
1097.411971709772
 31
0.0
  0
LINE
  5
1DA
330
1F
100
AcDbEntity
  8
C-2
  6
Continuous
 62
     3
370
     9
100
AcDbLine
 10
789.7871653236683
 20
1127.412612578913
 30
0.0
 11
809.7877756752308
 21
1127.412612578913
 31
0.0
  0
LINE
  5
1DB
330
1F
100
AcDbEntity
  8
C-2
  6
Continuous
 62
     3
370
     9
100
AcDbLine
 10
789.7871653236683
 20
1097.411971709772
 30
0.0
 11
789.7871653236683
 21
967.4123531794985
 31
0.0
  0
LINE
  5
1DC
330
1F
100
AcDbEntity
  8
C-2
  6
Continuous
 62
     3
370
     9
100
AcDbLine
 10
789.7871653236683
 20
1257.412459991022
 30
0.0
 11
789.7871653236683
 21
1127.412612578913
 31
0.0
  0
LINE
  5
1DD
330
1F
100
AcDbEntity
  8
C-4
  6
Continuous
 62
     7
370
     9
100
AcDbLine
 10
-366.21237691266
 20
1254.411910674616
 30
0.0
 11
-366.21237691266
 21
1337.411819121881
 31
0.0
  0
LINE
  5
1DE
330
1F
100
AcDbEntity
  8
C-4
  6
Continuous
 62
     7
370
     9
100
AcDbLine
 10
-364.2121632896129
 20
1254.411910674616
 30
0.0
 11
-364.2121632896129
 21
1417.412246367975
 31
0.0
  0
LINE
  5
1DF
330
1F
100
AcDbEntity
  8
C-4
  6
Continuous
 62
     7
370
     9
100
AcDbLine
 10
629.7878977455434
 20
1254.411910674616
 30
0.0
 11
629.7878977455434
 21
1337.411819121881
 31
0.0
  0
LINE
  5
1E0
330
1F
100
AcDbEntity
  8
C-4
  6
Continuous
 62
     7
370
     9
100
AcDbLine
 10
631.7875925697621
 20
1254.411910674616
 30
0.0
 11
631.7875925697621
 21
1417.412246367975
 31
0.0
  0
LINE
  5
1E1
330
1F
100
AcDbEntity
  8
C-4
  6
Continuous
 62
     7
370
     9
100
AcDbLine
 10
-515.2122243247692
 20
1414.411636016413
 30
0.0
 11
789.7871653236683
 21
1414.411636016413
 31
0.0
  0
LINE
  5
1E2
330
1F
100
AcDbEntity
  8
C-4
  6
Continuous
 62
     7
370
     9
100
AcDbLine
 10
-515.2122243247692
 20
1334.412307403131
 30
0.0
 11
789.7871653236683
 21
1334.412307403131
 31
0.0
  0
LINE
  5
1E3
330
1F
100
AcDbEntity
  8
C-5
  6
Continuous
 62
     7
370
     9
100
AcDbLine
 10
-152.2124684653943
 20
797.4125515437563
 30
0.0
 11
-152.2124684653943
 21
862.4121090388735
 31
0.0
  0
LINE
  5
1E4
330
1F
100
AcDbEntity
  8
C-5
  6
Continuous
 62
     7
370
     9
100
AcDbLine
 10
-152.2124684653943
 20
862.4121090388735
 30
0.0
 11
422.7874704994497
 21
862.4121090388735
 31
0.0
  0
LINE
  5
1E5
330
1F
100
AcDbEntity
  8
C-5
  6
Continuous
 62
     7
370
     9
100
AcDbLine
 10
422.7874704994497
 20
862.4121090388735
 30
0.0
 11
422.7874704994497
 21
797.4125515437563
 31
0.0
  0
LINE
  5
1E6
330
1F
100
AcDbEntity
  8
C-5
  6
Continuous
 62
     7
370
     9
100
AcDbLine
 10
422.7874704994497
 20
797.4125515437563
 30
0.0
 11
-152.2124684653943
 21
797.4125515437563
 31
0.0
  0
LWPOLYLINE
  5
1E7
330
1F
100
AcDbEntity
  8
C-4
  6
Continuous
 62
     7
370
     9
100
AcDbPolyline
 90
        4
 70
     1
 43
2.0
 10
-365.21237691266
 20
1334.412307403131
 42
0.4142135623731
 10
-366.21237691266
 20
1335.412307403131
 42
0.4142135623731
 10
-367.21237691266
 20
1334.412307403131
 42
0.4142135623731
 10
-366.21237691266
 20
1333.412307403131
 42
0.4142135623731
  0
LWPOLYLINE
  5
1E8
330
1F
100
AcDbEntity
  8
C-4
  6
Continuous
 62
     7
370
     9
100
AcDbPolyline
 90
        4
 70
     1
 43
2.0
 10
-363.2121632896129
 20
1334.412307403131
 42
0.4142135623731
 10
-364.2121632896129
 20
1335.412307403131
 42
0.4142135623731
 10
-365.2121632896129
 20
1334.412307403131
 42
0.4142135623731
 10
-364.2121632896129
 20
1333.412307403131
 42
0.4142135623731
  0
LWPOLYLINE
  5
1E9
330
1F
100
AcDbEntity
  8
C-4
  6
Continuous
 62
     7
370
     9
100
AcDbPolyline
 90
        4
 70
     1
 43
2.0
 10
630.7878977455434
 20
1334.412307403131
 42
0.4142135623731
 10
629.7878977455434
 20
1335.412307403131
 42
0.4142135623731
 10
628.7878977455434
 20
1334.412307403131
 42
0.4142135623731
 10
629.7878977455434
 20
1333.412307403131
 42
0.4142135623731
  0
LWPOLYLINE
  5
1EA
330
1F
100
AcDbEntity
  8
C-4
  6
Continuous
 62
     7
370
     9
100
AcDbPolyline
 90
        4
 70
     1
 43
2.0
 10
632.7875925697621
 20
1334.412307403131
 42
0.4142135623731
 10
631.7875925697621
 20
1335.412307403131
 42
0.4142135623731
 10
630.7875925697621
 20
1334.412307403131
 42
0.4142135623731
 10
631.7875925697621
 20
1333.412307403131
 42
0.4142135623731
  0
LWPOLYLINE
  5
1EB
330
1F
100
AcDbEntity
  8
C-4
  6
Continuous
 62
     7
370
     9
100
AcDbPolyline
 90
        4
 70
     1
 43
2.0
 10
-363.2121632896129
 20
1414.411636016413
 42
0.4142135623731
 10
-364.2121632896129
 20
1415.411636016413
 42
0.4142135623731
 10
-365.2121632896129
 20
1414.411636016413
 42
0.4142135623731
 10
-364.2121632896129
 20
1413.411636016413
 42
0.4142135623731
  0
LWPOLYLINE
  5
1EC
330
1F
100
AcDbEntity
  8
C-4
  6
Continuous
 62
     7
370
     9
100
AcDbPolyline
 90
        4
 70
     1
 43
2.0
 10
632.7875925697621
 20
1414.411636016413
 42
0.4142135623731
 10
631.7875925697621
 20
1415.411636016413
 42
0.4142135623731
 10
630.7875925697621
 20
1414.411636016413
 42
0.4142135623731
 10
631.7875925697621
 20
1413.411636016413
 42
0.4142135623731
  0
TEXT
  5
1ED
330
1F
100
AcDbEntity
  8
C-4
  6
Continuous
 62
     2
370
     9
100
AcDbText
 10
-392.1734517417616
 20
1345.051574981257
 30
0.0
 40
30.48
  1
2
 41
0.9999999999999998
  7
ＭＳ ゴシック
100
AcDbText
  0
TEXT
  5
1EE
330
1F
100
AcDbEntity
  8
C-4
  6
Continuous
 62
     2
370
     9
100
AcDbText
 10
100.287836710387
 20
1345.051574981257
 30
0.0
 40
30.48
  1
994
 41
1.083333333333333
  7
ＭＳ ゴシック
100
AcDbText
  0
TEXT
  5
1EF
330
1F
100
AcDbEntity
  8
C-4
  6
Continuous
 62
     2
370
     9
100
AcDbText
 10
603.8263498939807
 20
1345.051574981257
 30
0.0
 40
30.48
  1
2
 41
0.9999999999999998
  7
ＭＳ ゴシック
100
AcDbText
  0
TEXT
  5
1F0
330
1F
100
AcDbEntity
  8
C-4
  6
Continuous
 62
     2
370
     9
100
AcDbText
 10
101.2876993812853
 20
1425.051941192194
 30
0.0
 40
30.48
  1
996
 41
1.083333333333333
  7
ＭＳ ゴシック
100
AcDbText
  0
TEXT
  5
1F1
330
1F
100
AcDbEntity
  8
C-5
  6
Continuous
 62
     2
370
     9
100
AcDbText
 10
-132.2123750053112
 20
815.5522377849062
 30
0.0
 40
30.48
  1
平面詳細図　Ｓ＝１：１０
 41
1.114583333333333
  7
ＭＳ ゴシック
100
AcDbText
  0
LINE
  5
1F2
330
1F
100
AcDbEntity
  8
C-1
  6
JWW_DASHED3
 62
     2
370
     9
100
AcDbLine
 10
788.7872416176134
 20
1012.41184963946
 30
0.0
 11
-516.2120717368788
 21
1012.411361358209
 31
0.0
  0
LINE
  5
1F3
330
1F
100
AcDbEntity
  8
C-1
  6
JWW_DASHED3
 62
     2
370
     9
100
AcDbLine
 10
788.7872416176134
 20
1212.411300323053
 30
0.0
 11
-516.2120717368788
 21
1212.411300323053
 31
0.0
  0
LINE
  5
1F4
330
1F
100
AcDbEntity
  8
C-1
  6
Continuous
 62
     2
370
     9
100
AcDbLine
 10
788.7872416176134
 20
1239.411391875788
 30
0.0
 11
-516.2120717368788
 21
1239.411391875788
 31
0.0
  0
LINE
  5
1F5
330
1F
100
AcDbEntity
  8
C-1
  6
Continuous
 62
     2
370
     9
100
AcDbLine
 10
788.7872416176134
 20
1242.411941192194
 30
0.0
 11
-516.2120717368788
 21
1242.411941192194
 31
0.0
  0
LINE
  5
1F6
330
1F
100
AcDbEntity
  8
C-1
  6
Continuous
 62
     2
370
     9
100
AcDbLine
 10
788.7872416176134
 20
982.4117123103579
 30
0.0
 11
-516.2120717368788
 21
982.4112240291081
 31
0.0
  0
LINE
  5
1F7
330
1F
100
AcDbEntity
  8
C-1
  6
Continuous
 62
     2
370
     9
100
AcDbLine
 10
788.7872416176134
 20
985.4117733455141
 30
0.0
 11
-516.2120717368788
 21
985.4112850642641
 31
0.0
  0
LINE
  5
1F8
330
1F
100
AcDbEntity
  8
C-4
  6
Continuous
 62
     7
370
     9
100
AcDbLine
 10
634.7877298988635
 20
894.410751006647
 30
0.0
 11
634.7877298988635
 21
958.4119106746158
 31
0.0
  0
LINE
  5
1F9
330
1F
100
AcDbEntity
  8
C-4
  6
Continuous
 62
     7
370
     9
100
AcDbLine
 10
-265.2122701011365
 20
894.410751006647
 30
0.0
 11
-265.2122701011365
 21
958.4119106746158
 31
0.0
  0
LINE
  5
1FA
330
1F
100
AcDbEntity
  8
C-4
  6
Continuous
 62
     7
370
     9
100
AcDbLine
 10
-265.2122701011365
 20
897.4107510066469
 30
0.0
 11
634.7877298988635
 21
897.4107510066469
 31
0.0
  0
LINE
  5
1FB
330
1F
100
AcDbEntity
  8
C-9
  6
JWW_DASHED2
 62
     3
370
     9
100
AcDbLine
 10
-281.2122701011367
 20
1012.411941192194
 30
0.0
 11
-281.2122701011367
 21
1212.411941192194
 31
0.0
  0
LINE
  5
1FC
330
1F
100
AcDbEntity
  8
C-9
  6
JWW_DASHED2
 62
     3
370
     9
100
AcDbLine
 10
-249.2122701011363
 20
1012.411941192194
 30
0.0
 11
-249.2122701011363
 21
1212.411941192194
 31
0.0
  0
LINE
  5
1FD
330
1F
100
AcDbEntity
  8
C-9
  6
JWW_DASHED2
 62
     3
370
     9
100
AcDbLine
 10
-281.2122701011367
 20
1242.411941192194
 30
0.0
 11
-281.2122701011367
 21
1212.411941192194
 31
0.0
  0
LINE
  5
1FE
330
1F
100
AcDbEntity
  8
C-9
  6
JWW_DASHED2
 62
     3
370
     9
100
AcDbLine
 10
-249.2122701011363
 20
1242.411941192194
 30
0.0
 11
-249.2122701011363
 21
1212.411941192194
 31
0.0
  0
LINE
  5
1FF
330
1F
100
AcDbEntity
  8
C-9
  6
JWW_DASHED2
 62
     3
370
     9
100
AcDbLine
 10
-249.2122701011363
 20
1186.411964080378
 30
0.0
 11
-281.2122701011367
 21
1186.411964080378
 31
0.0
  0
LINE
  5
200
330
1F
100
AcDbEntity
  8
C-9
  6
JWW_DASHED2
 62
     3
370
     9
100
AcDbLine
 10
-249.2122701011363
 20
1190.411964080377
 30
0.0
 11
-281.2122701011367
 21
1190.411964080377
 31
0.0
  0
LINE
  5
201
330
1F
100
AcDbEntity
  8
C-9
  6
JWW_DASHED2
 62
     3
370
     9
100
AcDbLine
 10
-281.2122701011367
 20
982.4119411921938
 30
0.0
 11
-281.2122701011367
 21
1012.411941192194
 31
0.0
  0
LINE
  5
202
330
1F
100
AcDbEntity
  8
C-9
  6
JWW_DASHED2
 62
     3
370
     9
100
AcDbLine
 10
-249.2122701011363
 20
982.4119411921938
 30
0.0
 11
-249.2122701011363
 21
1012.411941192194
 31
0.0
  0
LINE
  5
203
330
1F
100
AcDbEntity
  8
C-9
  6
JWW_DASHED2
 62
     3
370
     9
100
AcDbLine
 10
-249.2122701011363
 20
1038.411910674616
 30
0.0
 11
-281.2122701011367
 21
1038.411910674616
 31
0.0
  0
LINE
  5
204
330
1F
100
AcDbEntity
  8
C-9
  6
JWW_DASHED2
 62
     3
370
     9
100
AcDbLine
 10
-249.2122701011363
 20
1034.411910674616
 30
0.0
 11
-281.2122701011367
 21
1034.411910674616
 31
0.0
  0
LINE
  5
205
330
1F
100
AcDbEntity
  8
C-9
  6
JWW_DASHED2
 62
     3
370
     9
100
AcDbLine
 10
650.7877298988637
 20
1034.411910674616
 30
0.0
 11
618.7877298988639
 21
1034.411910674616
 31
0.0
  0
LINE
  5
206
330
1F
100
AcDbEntity
  8
C-9
  6
JWW_DASHED2
 62
     3
370
     9
100
AcDbLine
 10
650.7877298988637
 20
1038.411910674616
 30
0.0
 11
618.7877298988639
 21
1038.411910674616
 31
0.0
  0
LINE
  5
207
330
1F
100
AcDbEntity
  8
C-9
  6
JWW_DASHED2
 62
     3
370
     9
100
AcDbLine
 10
618.7877298988639
 20
982.4119411921938
 30
0.0
 11
618.7877298988639
 21
1012.411941192194
 31
0.0
  0
LINE
  5
208
330
1F
100
AcDbEntity
  8
C-9
  6
JWW_DASHED2
 62
     3
370
     9
100
AcDbLine
 10
650.7877298988637
 20
1190.411964080377
 30
0.0
 11
618.7877298988639
 21
1190.411964080377
 31
0.0
  0
LINE
  5
209
330
1F
100
AcDbEntity
  8
C-9
  6
JWW_DASHED2
 62
     3
370
     9
100
AcDbLine
 10
650.7877298988637
 20
1186.411964080378
 30
0.0
 11
618.7877298988639
 21
1186.411964080378
 31
0.0
  0
LINE
  5
20A
330
1F
100
AcDbEntity
  8
C-9
  6
JWW_DASHED2
 62
     3
370
     9
100
AcDbLine
 10
618.7877298988639
 20
1242.411941192194
 30
0.0
 11
618.7877298988639
 21
1212.411941192194
 31
0.0
  0
LINE
  5
20B
330
1F
100
AcDbEntity
  8
C-9
  6
JWW_DASHED2
 62
     3
370
     9
100
AcDbLine
 10
650.7877298988637
 20
1012.411941192194
 30
0.0
 11
650.7877298988637
 21
1212.411941192194
 31
0.0
  0
LINE
  5
20C
330
1F
100
AcDbEntity
  8
C-9
  6
JWW_DASHED2
 62
     3
370
     9
100
AcDbLine
 10
618.7877298988639
 20
1012.411941192194
 30
0.0
 11
618.7877298988639
 21
1212.411941192194
 31
0.0
  0
LINE
  5
20D
330
1F
100
AcDbEntity
  8
C-9
  6
Continuous
 62
     3
370
     9
100
AcDbLine
 10
-249.2122701011363
 20
1246.411971709772
 30
0.0
 11
-281.2122701011367
 21
1246.411971709772
 31
0.0
  0
LINE
  5
20E
330
1F
100
AcDbEntity
  8
C-9
  6
Continuous
 62
     3
370
     9
100
AcDbLine
 10
-281.2122701011367
 20
1242.411941192194
 30
0.0
 11
-281.2122701011367
 21
1246.411971709772
 31
0.0
  0
LINE
  5
20F
330
1F
100
AcDbEntity
  8
C-9
  6
Continuous
 62
     3
370
     9
100
AcDbLine
 10
-249.2122701011363
 20
1242.411941192194
 30
0.0
 11
-249.2122701011363
 21
1246.411971709772
 31
0.0
  0
LINE
  5
210
330
1F
100
AcDbEntity
  8
C-9
  6
Continuous
 62
     3
370
     9
100
AcDbLine
 10
-249.2122701011363
 20
1242.411971709772
 30
0.0
 11
-281.2122701011367
 21
1242.411971709772
 31
0.0
  0
LINE
  5
211
330
1F
100
AcDbEntity
  8
C-9
  6
Continuous
 62
     3
370
     9
100
AcDbLine
 10
-249.2122701011363
 20
978.4119106746158
 30
0.0
 11
-281.2122701011367
 21
978.4119106746158
 31
0.0
  0
LINE
  5
212
330
1F
100
AcDbEntity
  8
C-9
  6
Continuous
 62
     3
370
     9
100
AcDbLine
 10
-281.2122701011367
 20
982.4119411921938
 30
0.0
 11
-281.2122701011367
 21
978.4119106746158
 31
0.0
  0
LINE
  5
213
330
1F
100
AcDbEntity
  8
C-9
  6
Continuous
 62
     3
370
     9
100
AcDbLine
 10
-249.2122701011363
 20
982.4119411921938
 30
0.0
 11
-249.2122701011363
 21
978.4119106746158
 31
0.0
  0
LINE
  5
214
330
1F
100
AcDbEntity
  8
C-9
  6
Continuous
 62
     3
370
     9
100
AcDbLine
 10
-249.2122701011363
 20
982.4119106746159
 30
0.0
 11
-281.2122701011367
 21
982.4119106746159
 31
0.0
  0
LINE
  5
215
330
1F
100
AcDbEntity
  8
C-9
  6
Continuous
 62
     3
370
     9
100
AcDbLine
 10
650.7877298988637
 20
982.4119106746159
 30
0.0
 11
618.7877298988639
 21
982.4119106746159
 31
0.0
  0
LINE
  5
216
330
1F
100
AcDbEntity
  8
C-9
  6
Continuous
 62
     3
370
     9
100
AcDbLine
 10
650.7877298988637
 20
982.4119411921938
 30
0.0
 11
650.7877298988637
 21
978.4119106746158
 31
0.0
  0
LINE
  5
217
330
1F
100
AcDbEntity
  8
C-9
  6
Continuous
 62
     3
370
     9
100
AcDbLine
 10
618.7877298988639
 20
982.4119411921938
 30
0.0
 11
618.7877298988639
 21
978.4119106746158
 31
0.0
  0
LINE
  5
218
330
1F
100
AcDbEntity
  8
C-9
  6
Continuous
 62
     3
370
     9
100
AcDbLine
 10
650.7877298988637
 20
978.4119106746158
 30
0.0
 11
618.7877298988639
 21
978.4119106746158
 31
0.0
  0
LINE
  5
219
330
1F
100
AcDbEntity
  8
C-9
  6
Continuous
 62
     3
370
     9
100
AcDbLine
 10
650.7877298988637
 20
1242.411971709772
 30
0.0
 11
618.7877298988639
 21
1242.411971709772
 31
0.0
  0
LINE
  5
21A
330
1F
100
AcDbEntity
  8
C-9
  6
Continuous
 62
     3
370
     9
100
AcDbLine
 10
650.7877298988637
 20
1242.411941192194
 30
0.0
 11
650.7877298988637
 21
1246.411971709772
 31
0.0
  0
LINE
  5
21B
330
1F
100
AcDbEntity
  8
C-9
  6
Continuous
 62
     3
370
     9
100
AcDbLine
 10
618.7877298988639
 20
1242.411941192194
 30
0.0
 11
618.7877298988639
 21
1246.411971709772
 31
0.0
  0
LINE
  5
21C
330
1F
100
AcDbEntity
  8
C-9
  6
Continuous
 62
     3
370
     9
100
AcDbLine
 10
650.7877298988637
 20
1246.411971709772
 30
0.0
 11
618.7877298988639
 21
1246.411971709772
 31
0.0
  0
LINE
  5
21D
330
1F
100
AcDbEntity
  8
C-9
  6
JWW_DASHED2
 62
     3
370
     9
100
AcDbLine
 10
-481.2122701011367
 20
1012.411941192194
 30
0.0
 11
-481.2122701011367
 21
1212.411941192194
 31
0.0
  0
LINE
  5
21E
330
1F
100
AcDbEntity
  8
C-9
  6
JWW_DASHED2
 62
     3
370
     9
100
AcDbLine
 10
-449.2122701011363
 20
1012.411941192194
 30
0.0
 11
-449.2122701011363
 21
1212.411941192194
 31
0.0
  0
LINE
  5
21F
330
1F
100
AcDbEntity
  8
C-9
  6
JWW_DASHED2
 62
     3
370
     9
100
AcDbLine
 10
-481.2122701011367
 20
1242.411941192194
 30
0.0
 11
-481.2122701011367
 21
1212.411941192194
 31
0.0
  0
LINE
  5
220
330
1F
100
AcDbEntity
  8
C-9
  6
JWW_DASHED2
 62
     3
370
     9
100
AcDbLine
 10
-449.2122701011363
 20
1242.411941192194
 30
0.0
 11
-449.2122701011363
 21
1212.411941192194
 31
0.0
  0
LINE
  5
221
330
1F
100
AcDbEntity
  8
C-9
  6
JWW_DASHED2
 62
     3
370
     9
100
AcDbLine
 10
-449.2122701011363
 20
1186.411964080378
 30
0.0
 11
-481.2122701011367
 21
1186.411964080378
 31
0.0
  0
LINE
  5
222
330
1F
100
AcDbEntity
  8
C-9
  6
JWW_DASHED2
 62
     3
370
     9
100
AcDbLine
 10
-449.2122701011363
 20
1190.411964080377
 30
0.0
 11
-481.2122701011367
 21
1190.411964080377
 31
0.0
  0
LINE
  5
223
330
1F
100
AcDbEntity
  8
C-9
  6
JWW_DASHED2
 62
     3
370
     9
100
AcDbLine
 10
-481.2122701011367
 20
982.4119411921938
 30
0.0
 11
-481.2122701011367
 21
1012.411941192194
 31
0.0
  0
LINE
  5
224
330
1F
100
AcDbEntity
  8
C-9
  6
JWW_DASHED2
 62
     3
370
     9
100
AcDbLine
 10
-449.2122701011363
 20
982.4119411921938
 30
0.0
 11
-449.2122701011363
 21
1012.411941192194
 31
0.0
  0
LINE
  5
225
330
1F
100
AcDbEntity
  8
C-9
  6
JWW_DASHED2
 62
     3
370
     9
100
AcDbLine
 10
-449.2122701011363
 20
1038.411910674616
 30
0.0
 11
-481.2122701011367
 21
1038.411910674616
 31
0.0
  0
LINE
  5
226
330
1F
100
AcDbEntity
  8
C-9
  6
JWW_DASHED2
 62
     3
370
     9
100
AcDbLine
 10
-449.2122701011363
 20
1034.411910674616
 30
0.0
 11
-481.2122701011367
 21
1034.411910674616
 31
0.0
  0
LINE
  5
227
330
1F
100
AcDbEntity
  8
C-9
  6
Continuous
 62
     3
370
     9
100
AcDbLine
 10
-449.2122701011363
 20
1246.411971709772
 30
0.0
 11
-481.2122701011367
 21
1246.411971709772
 31
0.0
  0
LINE
  5
228
330
1F
100
AcDbEntity
  8
C-9
  6
Continuous
 62
     3
370
     9
100
AcDbLine
 10
-481.2122701011367
 20
1242.411941192194
 30
0.0
 11
-481.2122701011367
 21
1246.411971709772
 31
0.0
  0
LINE
  5
229
330
1F
100
AcDbEntity
  8
C-9
  6
Continuous
 62
     3
370
     9
100
AcDbLine
 10
-449.2122701011363
 20
1242.411941192194
 30
0.0
 11
-449.2122701011363
 21
1246.411971709772
 31
0.0
  0
LINE
  5
22A
330
1F
100
AcDbEntity
  8
C-9
  6
Continuous
 62
     3
370
     9
100
AcDbLine
 10
-449.2122701011363
 20
1242.411971709772
 30
0.0
 11
-481.2122701011367
 21
1242.411971709772
 31
0.0
  0
LINE
  5
22B
330
1F
100
AcDbEntity
  8
C-9
  6
Continuous
 62
     3
370
     9
100
AcDbLine
 10
-449.2122701011363
 20
978.4119106746158
 30
0.0
 11
-481.2122701011367
 21
978.4119106746158
 31
0.0
  0
LINE
  5
22C
330
1F
100
AcDbEntity
  8
C-9
  6
Continuous
 62
     3
370
     9
100
AcDbLine
 10
-481.2122701011367
 20
982.4119411921938
 30
0.0
 11
-481.2122701011367
 21
978.4119106746158
 31
0.0
  0
LINE
  5
22D
330
1F
100
AcDbEntity
  8
C-9
  6
Continuous
 62
     3
370
     9
100
AcDbLine
 10
-449.2122701011363
 20
982.4119411921938
 30
0.0
 11
-449.2122701011363
 21
978.4119106746158
 31
0.0
  0
LINE
  5
22E
330
1F
100
AcDbEntity
  8
C-9
  6
Continuous
 62
     3
370
     9
100
AcDbLine
 10
-449.2122701011363
 20
982.4119106746159
 30
0.0
 11
-481.2122701011367
 21
982.4119106746159
 31
0.0
  0
LINE
  5
22F
330
1F
100
AcDbEntity
  8
C-9
  6
JWW_DASHED2
 62
     3
370
     9
100
AcDbLine
 10
650.7877298988637
 20
1242.411941192194
 30
0.0
 11
650.7877298988637
 21
1212.411941192194
 31
0.0
  0
LINE
  5
230
330
1F
100
AcDbEntity
  8
C-9
  6
JWW_DASHED2
 62
     3
370
     9
100
AcDbLine
 10
650.7877298988637
 20
982.4119411921938
 30
0.0
 11
650.7877298988637
 21
1012.411941192194
 31
0.0
  0
LWPOLYLINE
  5
231
330
1F
100
AcDbEntity
  8
C-4
  6
Continuous
 62
     7
370
     9
100
AcDbPolyline
 90
        4
 70
     1
 43
2.0
 10
635.7877298988635
 20
897.4107510066469
 42
0.4142135623731
 10
634.7877298988635
 20
898.4107510066468
 42
0.4142135623731
 10
633.7877298988635
 20
897.4107510066469
 42
0.4142135623731
 10
634.7877298988635
 20
896.4107510066469
 42
0.4142135623731
  0
LWPOLYLINE
  5
232
330
1F
100
AcDbEntity
  8
C-4
  6
Continuous
 62
     7
370
     9
100
AcDbPolyline
 90
        4
 70
     1
 43
2.0
 10
-264.2122701011365
 20
897.4107510066469
 42
0.4142135623731
 10
-265.2122701011365
 20
898.4107510066468
 42
0.4142135623731
 10
-266.2122701011365
 20
897.4107510066469
 42
0.4142135623731
 10
-265.2122701011365
 20
896.4107510066469
 42
0.4142135623731
  0
TEXT
  5
233
330
1F
100
AcDbEntity
  8
C-4
  6
Continuous
 62
     2
370
     9
100
AcDbText
 10
152.2877298988635
 20
909.0507510066471
 30
0.0
 40
30.48
  1
900
 41
1.083333333333333
  7
ＭＳ ゴシック
100
AcDbText
  0
LINE
  5
234
330
1F
100
AcDbEntity
  8
C-2
  6
Continuous
 62
     3
370
     9
100
AcDbLine
 10
-364.2121632896129
 20
987.411468169733
 30
0.0
 11
-364.2121632896129
 21
1237.410903594537
 31
0.0
  0
LINE
  5
235
330
1F
100
AcDbEntity
  8
C-2
  6
Continuous
 62
     3
370
     9
100
AcDbLine
 10
-364.2121632896129
 20
1237.410903594537
 30
0.0
 11
629.7878977455434
 21
1237.410903594537
 31
0.0
  0
LINE
  5
236
330
1F
100
AcDbEntity
  8
C-2
  6
Continuous
 62
     3
370
     9
100
AcDbLine
 10
629.7878977455434
 20
987.411468169733
 30
0.0
 11
-364.2121632896129
 21
987.411468169733
 31
0.0
  0
LINE
  5
237
330
1F
100
AcDbEntity
  8
C-2
  6
Continuous
 62
     3
370
     9
100
AcDbLine
 10
629.7878977455434
 20
1237.410903594537
 30
0.0
 11
629.7878977455434
 21
987.411468169733
 31
0.0
  0
LINE
  5
238
330
1F
100
AcDbEntity
  8
C-2
  6
Continuous
 62
     3
370
     9
100
AcDbLine
 10
-364.2126668296521
 20
1233.411483428522
 30
0.0
 11
629.7878977455434
 21
1233.411483428522
 31
0.0
  0
LINE
  5
239
330
1F
100
AcDbEntity
  8
C-2
  6
Continuous
 62
     3
370
     9
100
AcDbLine
 10
629.7878977455434
 20
991.4113766169982
 30
0.0
 11
-364.2126668296521
 21
991.4113766169982
 31
0.0
  0
LINE
  5
23A
330
1F
100
AcDbEntity
  8
C-2
  6
Continuous
 62
     3
370
     9
100
AcDbLine
 10
-360.2122548423475
 20
991.4113766169982
 30
0.0
 11
-360.2122548423475
 21
1233.411483428522
 31
0.0
  0
LINE
  5
23B
330
1F
100
AcDbEntity
  8
C-2
  6
Continuous
 62
     3
370
     9
100
AcDbLine
 10
-338.2124379478162
 20
991.4113766169982
 30
0.0
 11
-338.2124379478162
 21
1233.411483428522
 31
0.0
  0
LINE
  5
23C
330
1F
100
AcDbEntity
  8
C-2
  6
Continuous
 62
     3
370
     9
100
AcDbLine
 10
-342.212361653871
 20
991.4113766169982
 30
0.0
 11
-342.212361653871
 21
1233.411483428522
 31
0.0
  0
LINE
  5
23D
330
1F
100
AcDbEntity
  8
C-2
  6
Continuous
 62
     3
370
     9
100
AcDbLine
 10
-360.2122548423475
 20
1160.911758086725
 30
0.0
 11
-342.212361653871
 21
1160.911758086725
 31
0.0
  0
LINE
  5
23E
330
1F
100
AcDbEntity
  8
C-2
  6
Continuous
 62
     3
370
     9
100
AcDbLine
 10
-360.2122548423475
 20
1163.911330840631
 30
0.0
 11
-342.212361653871
 21
1163.911330840631
 31
0.0
  0
LINE
  5
23F
330
1F
100
AcDbEntity
  8
C-2
  6
Continuous
 62
     3
370
     9
100
AcDbLine
 10
-360.2122548423475
 20
1063.911849639459
 30
0.0
 11
-342.212361653871
 21
1063.911849639459
 31
0.0
  0
LINE
  5
240
330
1F
100
AcDbEntity
  8
C-2
  6
Continuous
 62
     3
370
     9
100
AcDbLine
 10
-360.2122548423475
 20
1060.911788604303
 30
0.0
 11
-342.212361653871
 21
1060.911788604303
 31
0.0
  0
LINE
  5
241
330
1F
100
AcDbEntity
  8
C-2
  6
Continuous
 62
     3
370
     9
100
AcDbLine
 10
625.7879587806997
 20
991.4113766169982
 30
0.0
 11
625.7879587806997
 21
1233.411483428522
 31
0.0
  0
LINE
  5
242
330
1F
100
AcDbEntity
  8
C-2
  6
Continuous
 62
     3
370
     9
100
AcDbLine
 10
-316.212636312074
 20
991.4113766169982
 30
0.0
 11
-316.212636312074
 21
1233.411483428522
 31
0.0
  0
LINE
  5
243
330
1F
100
AcDbEntity
  8
C-2
  6
Continuous
 62
     3
370
     9
100
AcDbLine
 10
-320.2120564780896
 20
991.4113766169982
 30
0.0
 11
-320.2120564780896
 21
1233.411483428522
 31
0.0
  0
LINE
  5
244
330
1F
100
AcDbEntity
  8
C-2
  6
Continuous
 62
     3
370
     9
100
AcDbLine
 10
-338.2124379478162
 20
1160.911758086725
 30
0.0
 11
-320.2120564780896
 21
1160.911758086725
 31
0.0
  0
LINE
  5
245
330
1F
100
AcDbEntity
  8
C-2
  6
Continuous
 62
     3
370
     9
100
AcDbLine
 10
-338.2124379478162
 20
1163.911330840631
 30
0.0
 11
-320.2120564780896
 21
1163.911330840631
 31
0.0
  0
LINE
  5
246
330
1F
100
AcDbEntity
  8
C-2
  6
Continuous
 62
     3
370
     9
100
AcDbLine
 10
-338.2124379478162
 20
1063.911849639459
 30
0.0
 11
-320.2120564780896
 21
1063.911849639459
 31
0.0
  0
LINE
  5
247
330
1F
100
AcDbEntity
  8
C-2
  6
Continuous
 62
     3
370
     9
100
AcDbLine
 10
-338.2124379478162
 20
1060.911788604303
 30
0.0
 11
-320.2120564780896
 21
1060.911788604303
 31
0.0
  0
LINE
  5
248
330
1F
100
AcDbEntity
  8
C-2
  6
Continuous
 62
     3
370
     9
100
AcDbLine
 10
-294.2123311362928
 20
991.4113766169982
 30
0.0
 11
-294.2123311362928
 21
1233.411483428522
 31
0.0
  0
LINE
  5
249
330
1F
100
AcDbEntity
  8
C-2
  6
Continuous
 62
     3
370
     9
100
AcDbLine
 10
-298.2122548423473
 20
991.4113766169982
 30
0.0
 11
-298.2122548423473
 21
1233.411483428522
 31
0.0
  0
LINE
  5
24A
330
1F
100
AcDbEntity
  8
C-2
  6
Continuous
 62
     3
370
     9
100
AcDbLine
 10
-316.212636312074
 20
1160.911758086725
 30
0.0
 11
-298.2122548423473
 21
1160.911758086725
 31
0.0
  0
LINE
  5
24B
330
1F
100
AcDbEntity
  8
C-2
  6
Continuous
 62
     3
370
     9
100
AcDbLine
 10
-316.212636312074
 20
1163.911330840631
 30
0.0
 11
-298.2122548423473
 21
1163.911330840631
 31
0.0
  0
LINE
  5
24C
330
1F
100
AcDbEntity
  8
C-2
  6
Continuous
 62
     3
370
     9
100
AcDbLine
 10
-316.212636312074
 20
1063.911849639459
 30
0.0
 11
-298.2122548423473
 21
1063.911849639459
 31
0.0
  0
LINE
  5
24D
330
1F
100
AcDbEntity
  8
C-2
  6
Continuous
 62
     3
370
     9
100
AcDbLine
 10
-316.212636312074
 20
1060.911788604303
 30
0.0
 11
-298.2122548423473
 21
1060.911788604303
 31
0.0
  0
LINE
  5
24E
330
1F
100
AcDbEntity
  8
C-2
  6
Continuous
 62
     3
370
     9
100
AcDbLine
 10
-272.2125295005506
 20
991.4113766169982
 30
0.0
 11
-272.2125295005506
 21
1233.411483428522
 31
0.0
  0
LINE
  5
24F
330
1F
100
AcDbEntity
  8
C-2
  6
Continuous
 62
     3
370
     9
100
AcDbLine
 10
-276.2124532066053
 20
991.4113766169982
 30
0.0
 11
-276.2124532066053
 21
1233.411483428522
 31
0.0
  0
LINE
  5
250
330
1F
100
AcDbEntity
  8
C-2
  6
Continuous
 62
     3
370
     9
100
AcDbLine
 10
-294.2128346763317
 20
1160.911758086725
 30
0.0
 11
-276.2124532066053
 21
1160.911758086725
 31
0.0
  0
LINE
  5
251
330
1F
100
AcDbEntity
  8
C-2
  6
Continuous
 62
     3
370
     9
100
AcDbLine
 10
-294.2128346763317
 20
1163.911330840631
 30
0.0
 11
-276.2124532066053
 21
1163.911330840631
 31
0.0
  0
LINE
  5
252
330
1F
100
AcDbEntity
  8
C-2
  6
Continuous
 62
     3
370
     9
100
AcDbLine
 10
-294.2128346763317
 20
1063.911849639459
 30
0.0
 11
-276.2124532066053
 21
1063.911849639459
 31
0.0
  0
LINE
  5
253
330
1F
100
AcDbEntity
  8
C-2
  6
Continuous
 62
     3
370
     9
100
AcDbLine
 10
-294.2128346763317
 20
1060.911788604303
 30
0.0
 11
-276.2124532066053
 21
1060.911788604303
 31
0.0
  0
LINE
  5
254
330
1F
100
AcDbEntity
  8
C-2
  6
Continuous
 62
     3
370
     9
100
AcDbLine
 10
-250.2127278648084
 20
991.4113766169982
 30
0.0
 11
-250.2127278648084
 21
1233.411483428522
 31
0.0
  0
LINE
  5
255
330
1F
100
AcDbEntity
  8
C-2
  6
Continuous
 62
     3
370
     9
100
AcDbLine
 10
-254.2126439414685
 20
991.4113766169982
 30
0.0
 11
-254.2126439414685
 21
1233.411483428522
 31
0.0
  0
LINE
  5
256
330
1F
100
AcDbEntity
  8
C-2
  6
Continuous
 62
     3
370
     9
100
AcDbLine
 10
-272.2125295005506
 20
1160.911758086725
 30
0.0
 11
-254.2126439414685
 21
1160.911758086725
 31
0.0
  0
LINE
  5
257
330
1F
100
AcDbEntity
  8
C-2
  6
Continuous
 62
     3
370
     9
100
AcDbLine
 10
-272.2125295005506
 20
1163.911330840631
 30
0.0
 11
-254.2126439414685
 21
1163.911330840631
 31
0.0
  0
LINE
  5
258
330
1F
100
AcDbEntity
  8
C-2
  6
Continuous
 62
     3
370
     9
100
AcDbLine
 10
-272.2125295005506
 20
1063.911849639459
 30
0.0
 11
-254.2126439414685
 21
1063.911849639459
 31
0.0
  0
LINE
  5
259
330
1F
100
AcDbEntity
  8
C-2
  6
Continuous
 62
     3
370
     9
100
AcDbLine
 10
-272.2125295005506
 20
1060.911788604303
 30
0.0
 11
-254.2126439414685
 21
1060.911788604303
 31
0.0
  0
LINE
  5
25A
330
1F
100
AcDbEntity
  8
C-2
  6
Continuous
 62
     3
370
     9
100
AcDbLine
 10
-228.2124226890272
 20
991.4113766169982
 30
0.0
 11
-228.2124226890272
 21
1233.411483428522
 31
0.0
  0
LINE
  5
25B
330
1F
100
AcDbEntity
  8
C-2
  6
Continuous
 62
     3
370
     9
100
AcDbLine
 10
-232.2123463950817
 20
991.4113766169982
 30
0.0
 11
-232.2123463950817
 21
1233.411483428522
 31
0.0
  0
LINE
  5
25C
330
1F
100
AcDbEntity
  8
C-2
  6
Continuous
 62
     3
370
     9
100
AcDbLine
 10
-250.2127278648084
 20
1160.911758086725
 30
0.0
 11
-232.2123463950817
 21
1160.911758086725
 31
0.0
  0
LINE
  5
25D
330
1F
100
AcDbEntity
  8
C-2
  6
Continuous
 62
     3
370
     9
100
AcDbLine
 10
-250.2127278648084
 20
1163.911330840631
 30
0.0
 11
-232.2123463950817
 21
1163.911330840631
 31
0.0
  0
LINE
  5
25E
330
1F
100
AcDbEntity
  8
C-2
  6
Continuous
 62
     3
370
     9
100
AcDbLine
 10
-250.2127278648084
 20
1063.911849639459
 30
0.0
 11
-232.2123463950817
 21
1063.911849639459
 31
0.0
  0
LINE
  5
25F
330
1F
100
AcDbEntity
  8
C-2
  6
Continuous
 62
     3
370
     9
100
AcDbLine
 10
-250.2127278648084
 20
1060.911788604303
 30
0.0
 11
-232.2123463950817
 21
1060.911788604303
 31
0.0
  0
LINE
  5
260
330
1F
100
AcDbEntity
  8
C-2
  6
Continuous
 62
     3
370
     9
100
AcDbLine
 10
-206.212621053285
 20
991.4113766169982
 30
0.0
 11
-206.212621053285
 21
1233.411483428522
 31
0.0
  0
LINE
  5
261
330
1F
100
AcDbEntity
  8
C-2
  6
Continuous
 62
     3
370
     9
100
AcDbLine
 10
-210.2120450339979
 20
991.4113766169982
 30
0.0
 11
-210.2120450339979
 21
1233.411483428522
 31
0.0
  0
LINE
  5
262
330
1F
100
AcDbEntity
  8
C-2
  6
Continuous
 62
     3
370
     9
100
AcDbLine
 10
-228.2124226890272
 20
1160.911758086725
 30
0.0
 11
-210.2120450339979
 21
1160.911758086725
 31
0.0
  0
LINE
  5
263
330
1F
100
AcDbEntity
  8
C-2
  6
Continuous
 62
     3
370
     9
100
AcDbLine
 10
-228.2124226890272
 20
1163.911330840631
 30
0.0
 11
-210.2120450339979
 21
1163.911330840631
 31
0.0
  0
LINE
  5
264
330
1F
100
AcDbEntity
  8
C-2
  6
Continuous
 62
     3
370
     9
100
AcDbLine
 10
-228.2124226890272
 20
1063.911849639459
 30
0.0
 11
-210.2120450339979
 21
1063.911849639459
 31
0.0
  0
LINE
  5
265
330
1F
100
AcDbEntity
  8
C-2
  6
Continuous
 62
     3
370
     9
100
AcDbLine
 10
-228.2124226890272
 20
1060.911788604303
 30
0.0
 11
-210.2120450339979
 21
1060.911788604303
 31
0.0
  0
LINE
  5
266
330
1F
100
AcDbEntity
  8
C-2
  6
Continuous
 62
     3
370
     9
100
AcDbLine
 10
-184.2123196922009
 20
991.4113766169982
 30
0.0
 11
-184.2123196922009
 21
1233.411483428522
 31
0.0
  0
LINE
  5
267
330
1F
100
AcDbEntity
  8
C-2
  6
Continuous
 62
     3
370
     9
100
AcDbLine
 10
-188.2122395835583
 20
991.4113766169982
 30
0.0
 11
-188.2122395835583
 21
1233.411483428522
 31
0.0
  0
LINE
  5
268
330
1F
100
AcDbEntity
  8
C-2
  6
Continuous
 62
     3
370
     9
100
AcDbLine
 10
-206.212621053285
 20
1160.911758086725
 30
0.0
 11
-188.2122395835583
 21
1160.911758086725
 31
0.0
  0
LINE
  5
269
330
1F
100
AcDbEntity
  8
C-2
  6
Continuous
 62
     3
370
     9
100
AcDbLine
 10
-206.212621053285
 20
1163.911330840631
 30
0.0
 11
-188.2122395835583
 21
1163.911330840631
 31
0.0
  0
LINE
  5
26A
330
1F
100
AcDbEntity
  8
C-2
  6
Continuous
 62
     3
370
     9
100
AcDbLine
 10
-206.212621053285
 20
1063.911849639459
 30
0.0
 11
-188.2122395835583
 21
1063.911849639459
 31
0.0
  0
LINE
  5
26B
330
1F
100
AcDbEntity
  8
C-2
  6
Continuous
 62
     3
370
     9
100
AcDbLine
 10
-206.212621053285
 20
1060.911788604303
 30
0.0
 11
-188.2122395835583
 21
1060.911788604303
 31
0.0
  0
LINE
  5
26C
330
1F
100
AcDbEntity
  8
C-2
  6
Continuous
 62
     3
370
     9
100
AcDbLine
 10
-162.2125151954359
 20
991.4113766169982
 30
0.0
 11
-162.2125151954359
 21
1233.411483428522
 31
0.0
  0
LINE
  5
26D
330
1F
100
AcDbEntity
  8
C-2
  6
Continuous
 62
     3
370
     9
100
AcDbLine
 10
-166.212434133119
 20
991.4113766169982
 30
0.0
 11
-166.212434133119
 21
1233.411483428522
 31
0.0
  0
LINE
  5
26E
330
1F
100
AcDbEntity
  8
C-2
  6
Continuous
 62
     3
370
     9
100
AcDbLine
 10
-184.2128156028454
 20
1160.911758086725
 30
0.0
 11
-166.212434133119
 21
1160.911758086725
 31
0.0
  0
LINE
  5
26F
330
1F
100
AcDbEntity
  8
C-2
  6
Continuous
 62
     3
370
     9
100
AcDbLine
 10
-184.2128156028454
 20
1163.911330840631
 30
0.0
 11
-166.212434133119
 21
1163.911330840631
 31
0.0
  0
LINE
  5
270
330
1F
100
AcDbEntity
  8
C-2
  6
Continuous
 62
     3
370
     9
100
AcDbLine
 10
-184.2128156028454
 20
1063.911849639459
 30
0.0
 11
-166.212434133119
 21
1063.911849639459
 31
0.0
  0
LINE
  5
271
330
1F
100
AcDbEntity
  8
C-2
  6
Continuous
 62
     3
370
     9
100
AcDbLine
 10
-184.2128156028454
 20
1060.911788604303
 30
0.0
 11
-166.212434133119
 21
1060.911788604303
 31
0.0
  0
LINE
  5
272
330
1F
100
AcDbEntity
  8
C-2
  6
Continuous
 62
     3
370
     9
100
AcDbLine
 10
-140.212214788026
 20
991.4113766169982
 30
0.0
 11
-140.212214788026
 21
1233.411483428522
 31
0.0
  0
LINE
  5
273
330
1F
100
AcDbEntity
  8
C-2
  6
Continuous
 62
     3
370
     9
100
AcDbLine
 10
-144.2126291595167
 20
991.4113766169982
 30
0.0
 11
-144.2126291595167
 21
1233.411483428522
 31
0.0
  0
LINE
  5
274
330
1F
100
AcDbEntity
  8
C-2
  6
Continuous
 62
     3
370
     9
100
AcDbLine
 10
-162.2125151954359
 20
1160.911758086725
 30
0.0
 11
-144.2126291595167
 21
1160.911758086725
 31
0.0
  0
LINE
  5
275
330
1F
100
AcDbEntity
  8
C-2
  6
Continuous
 62
     3
370
     9
100
AcDbLine
 10
-162.2125151954359
 20
1163.911330840631
 30
0.0
 11
-144.2126291595167
 21
1163.911330840631
 31
0.0
  0
LINE
  5
276
330
1F
100
AcDbEntity
  8
C-2
  6
Continuous
 62
     3
370
     9
100
AcDbLine
 10
-162.2125151954359
 20
1063.911849639459
 30
0.0
 11
-144.2126291595167
 21
1063.911849639459
 31
0.0
  0
LINE
  5
277
330
1F
100
AcDbEntity
  8
C-2
  6
Continuous
 62
     3
370
     9
100
AcDbLine
 10
-162.2125151954359
 20
1060.911788604303
 30
0.0
 11
-144.2126291595167
 21
1060.911788604303
 31
0.0
  0
LINE
  5
278
330
1F
100
AcDbEntity
  8
C-2
  6
Continuous
 62
     3
370
     9
100
AcDbLine
 10
-118.2124074302379
 20
991.4113766169982
 30
0.0
 11
-118.2124074302379
 21
1233.411483428522
 31
0.0
  0
LINE
  5
279
330
1F
100
AcDbEntity
  8
C-2
  6
Continuous
 62
     3
370
     9
100
AcDbLine
 10
-122.2123292289442
 20
991.4113766169982
 30
0.0
 11
-122.2123292289442
 21
1233.411483428522
 31
0.0
  0
LINE
  5
27A
330
1F
100
AcDbEntity
  8
C-2
  6
Continuous
 62
     3
370
     9
100
AcDbLine
 10
-140.212214788026
 20
1160.911758086725
 30
0.0
 11
-122.2123292289442
 21
1160.911758086725
 31
0.0
  0
LINE
  5
27B
330
1F
100
AcDbEntity
  8
C-2
  6
Continuous
 62
     3
370
     9
100
AcDbLine
 10
-140.212214788026
 20
1163.911330840631
 30
0.0
 11
-122.2123292289442
 21
1163.911330840631
 31
0.0
  0
LINE
  5
27C
330
1F
100
AcDbEntity
  8
C-2
  6
Continuous
 62
     3
370
     9
100
AcDbLine
 10
-140.212214788026
 20
1063.911849639459
 30
0.0
 11
-122.2123292289442
 21
1063.911849639459
 31
0.0
  0
LINE
  5
27D
330
1F
100
AcDbEntity
  8
C-2
  6
Continuous
 62
     3
370
     9
100
AcDbLine
 10
-140.212214788026
 20
1060.911788604303
 30
0.0
 11
-122.2123292289442
 21
1060.911788604303
 31
0.0
  0
LINE
  5
27E
330
1F
100
AcDbEntity
  8
C-2
  6
Continuous
 62
     3
370
     9
100
AcDbLine
 10
-96.21260579449597
 20
991.4113766169982
 30
0.0
 11
-96.21260579449597
 21
1233.411483428522
 31
0.0
  0
LINE
  5
27F
330
1F
100
AcDbEntity
  8
C-2
  6
Continuous
 62
     3
370
     9
100
AcDbLine
 10
-100.2120297752089
 20
991.4113766169982
 30
0.0
 11
-100.2120297752089
 21
1233.411483428522
 31
0.0
  0
LINE
  5
280
330
1F
100
AcDbEntity
  8
C-2
  6
Continuous
 62
     3
370
     9
100
AcDbLine
 10
-118.2124074302379
 20
1160.911758086725
 30
0.0
 11
-100.2120297752089
 21
1160.911758086725
 31
0.0
  0
LINE
  5
281
330
1F
100
AcDbEntity
  8
C-2
  6
Continuous
 62
     3
370
     9
100
AcDbLine
 10
-118.2124074302379
 20
1163.911330840631
 30
0.0
 11
-100.2120297752089
 21
1163.911330840631
 31
0.0
  0
LINE
  5
282
330
1F
100
AcDbEntity
  8
C-2
  6
Continuous
 62
     3
370
     9
100
AcDbLine
 10
-118.2124074302379
 20
1063.911849639459
 30
0.0
 11
-100.2120297752089
 21
1063.911849639459
 31
0.0
  0
LINE
  5
283
330
1F
100
AcDbEntity
  8
C-2
  6
Continuous
 62
     3
370
     9
100
AcDbLine
 10
-118.2124074302379
 20
1060.911788604303
 30
0.0
 11
-100.2120297752089
 21
1060.911788604303
 31
0.0
  0
LINE
  5
284
330
1F
100
AcDbEntity
  8
C-2
  6
Continuous
 62
     3
370
     9
100
AcDbLine
 10
-74.21230061871455
 20
991.4113766169982
 30
0.0
 11
-74.21230061871455
 21
1233.411483428522
 31
0.0
  0
LINE
  5
285
330
1F
100
AcDbEntity
  8
C-2
  6
Continuous
 62
     3
370
     9
100
AcDbLine
 10
-78.2122243247693
 20
991.4113766169982
 30
0.0
 11
-78.2122243247693
 21
1233.411483428522
 31
0.0
  0
LINE
  5
286
330
1F
100
AcDbEntity
  8
C-2
  6
Continuous
 62
     3
370
     9
100
AcDbLine
 10
-96.21260579449597
 20
1160.911758086725
 30
0.0
 11
-78.2122243247693
 21
1160.911758086725
 31
0.0
  0
LINE
  5
287
330
1F
100
AcDbEntity
  8
C-2
  6
Continuous
 62
     3
370
     9
100
AcDbLine
 10
-96.21260579449597
 20
1163.911330840631
 30
0.0
 11
-78.2122243247693
 21
1163.911330840631
 31
0.0
  0
LINE
  5
288
330
1F
100
AcDbEntity
  8
C-2
  6
Continuous
 62
     3
370
     9
100
AcDbLine
 10
-96.21260579449597
 20
1063.911849639459
 30
0.0
 11
-78.2122243247693
 21
1063.911849639459
 31
0.0
  0
LINE
  5
289
330
1F
100
AcDbEntity
  8
C-2
  6
Continuous
 62
     3
370
     9
100
AcDbLine
 10
-96.21260579449597
 20
1060.911788604303
 30
0.0
 11
-78.2122243247693
 21
1060.911788604303
 31
0.0
  0
LINE
  5
28A
330
1F
100
AcDbEntity
  8
C-2
  6
Continuous
 62
     3
370
     9
100
AcDbLine
 10
-52.21249898297231
 20
991.4113766169982
 30
0.0
 11
-52.21249898297231
 21
1233.411483428522
 31
0.0
  0
LINE
  5
28B
330
1F
100
AcDbEntity
  8
C-2
  6
Continuous
 62
     3
370
     9
100
AcDbLine
 10
-56.21241505963269
 20
991.4113766169982
 30
0.0
 11
-56.21241505963269
 21
1233.411483428522
 31
0.0
  0
LINE
  5
28C
330
1F
100
AcDbEntity
  8
C-2
  6
Continuous
 62
     3
370
     9
100
AcDbLine
 10
-74.21279652935908
 20
1160.911758086725
 30
0.0
 11
-56.21241505963269
 21
1160.911758086725
 31
0.0
  0
LINE
  5
28D
330
1F
100
AcDbEntity
  8
C-2
  6
Continuous
 62
     3
370
     9
100
AcDbLine
 10
-74.21279652935908
 20
1163.911330840631
 30
0.0
 11
-56.21241505963269
 21
1163.911330840631
 31
0.0
  0
LINE
  5
28E
330
1F
100
AcDbEntity
  8
C-2
  6
Continuous
 62
     3
370
     9
100
AcDbLine
 10
-74.21279652935908
 20
1063.911849639459
 30
0.0
 11
-56.21241505963269
 21
1063.911849639459
 31
0.0
  0
LINE
  5
28F
330
1F
100
AcDbEntity
  8
C-2
  6
Continuous
 62
     3
370
     9
100
AcDbLine
 10
-74.21279652935908
 20
1060.911788604303
 30
0.0
 11
-56.21241505963269
 21
1060.911788604303
 31
0.0
  0
LINE
  5
290
330
1F
100
AcDbEntity
  8
C-2
  6
Continuous
 62
     3
370
     9
100
AcDbLine
 10
-30.21219380719117
 20
991.4113766169982
 30
0.0
 11
-30.21219380719117
 21
1233.411483428522
 31
0.0
  0
LINE
  5
291
330
1F
100
AcDbEntity
  8
C-2
  6
Continuous
 62
     3
370
     9
100
AcDbLine
 10
-34.21261342389045
 20
991.4113766169982
 30
0.0
 11
-34.21261342389045
 21
1233.411483428522
 31
0.0
  0
LINE
  5
292
330
1F
100
AcDbEntity
  8
C-2
  6
Continuous
 62
     3
370
     9
100
AcDbLine
 10
-52.21249898297231
 20
1160.911758086725
 30
0.0
 11
-34.21261342389045
 21
1160.911758086725
 31
0.0
  0
LINE
  5
293
330
1F
100
AcDbEntity
  8
C-2
  6
Continuous
 62
     3
370
     9
100
AcDbLine
 10
-52.21249898297231
 20
1163.911330840631
 30
0.0
 11
-34.21261342389045
 21
1163.911330840631
 31
0.0
  0
LINE
  5
294
330
1F
100
AcDbEntity
  8
C-2
  6
Continuous
 62
     3
370
     9
100
AcDbLine
 10
-52.21249898297231
 20
1063.911849639459
 30
0.0
 11
-34.21261342389045
 21
1063.911849639459
 31
0.0
  0
LINE
  5
295
330
1F
100
AcDbEntity
  8
C-2
  6
Continuous
 62
     3
370
     9
100
AcDbLine
 10
-52.21249898297231
 20
1060.911788604303
 30
0.0
 11
-34.21261342389045
 21
1060.911788604303
 31
0.0
  0
LINE
  5
296
330
1F
100
AcDbEntity
  8
C-2
  6
Continuous
 62
     3
370
     9
100
AcDbLine
 10
-8.212392171448926
 20
991.4113766169982
 30
0.0
 11
-8.212392171448926
 21
1233.411483428522
 31
0.0
  0
LINE
  5
297
330
1F
100
AcDbEntity
  8
C-2
  6
Continuous
 62
     3
370
     9
100
AcDbLine
 10
-12.21231587750367
 20
991.4113766169982
 30
0.0
 11
-12.21231587750367
 21
1233.411483428522
 31
0.0
  0
LINE
  5
298
330
1F
100
AcDbEntity
  8
C-2
  6
Continuous
 62
     3
370
     9
100
AcDbLine
 10
-30.21219380719117
 20
1160.911758086725
 30
0.0
 11
-12.21231587750367
 21
1160.911758086725
 31
0.0
  0
LINE
  5
299
330
1F
100
AcDbEntity
  8
C-2
  6
Continuous
 62
     3
370
     9
100
AcDbLine
 10
-30.21219380719117
 20
1163.911330840631
 30
0.0
 11
-12.21231587750367
 21
1163.911330840631
 31
0.0
  0
LINE
  5
29A
330
1F
100
AcDbEntity
  8
C-2
  6
Continuous
 62
     3
370
     9
100
AcDbLine
 10
-30.21219380719117
 20
1063.911849639459
 30
0.0
 11
-12.21231587750367
 21
1063.911849639459
 31
0.0
  0
LINE
  5
29B
330
1F
100
AcDbEntity
  8
C-2
  6
Continuous
 62
     3
370
     9
100
AcDbLine
 10
-30.21219380719117
 20
1060.911788604303
 30
0.0
 11
-12.21231587750367
 21
1060.911788604303
 31
0.0
  0
LINE
  5
29C
330
1F
100
AcDbEntity
  8
C-2
  6
Continuous
 62
     3
370
     9
100
AcDbLine
 10
13.78740946429332
 20
991.4113766169982
 30
0.0
 11
13.78740946429332
 21
1233.411483428522
 31
0.0
  0
LINE
  5
29D
330
1F
100
AcDbEntity
  8
C-2
  6
Continuous
 62
     3
370
     9
100
AcDbLine
 10
9.787989298277466
 20
991.4113766169982
 30
0.0
 11
9.787989298277466
 21
1233.411483428522
 31
0.0
  0
LINE
  5
29E
330
1F
100
AcDbEntity
  8
C-2
  6
Continuous
 62
     3
370
     9
100
AcDbLine
 10
-8.212392171448926
 20
1160.911758086725
 30
0.0
 11
9.787989298277466
 21
1160.911758086725
 31
0.0
  0
LINE
  5
29F
330
1F
100
AcDbEntity
  8
C-2
  6
Continuous
 62
     3
370
     9
100
AcDbLine
 10
-8.212392171448926
 20
1163.911330840631
 30
0.0
 11
9.787989298277466
 21
1163.911330840631
 31
0.0
  0
LINE
  5
2A0
330
1F
100
AcDbEntity
  8
C-2
  6
Continuous
 62
     3
370
     9
100
AcDbLine
 10
-8.212392171448926
 20
1063.911849639459
 30
0.0
 11
9.787989298277466
 21
1063.911849639459
 31
0.0
  0
LINE
  5
2A1
330
1F
100
AcDbEntity
  8
C-2
  6
Continuous
 62
     3
370
     9
100
AcDbLine
 10
-8.212392171448926
 20
1060.911788604303
 30
0.0
 11
9.787989298277466
 21
1060.911788604303
 31
0.0
  0
LINE
  5
2A2
330
1F
100
AcDbEntity
  8
C-2
  6
Continuous
 62
     3
370
     9
100
AcDbLine
 10
35.78721110003528
 20
991.4113766169982
 30
0.0
 11
35.78721110003528
 21
1233.411483428522
 31
0.0
  0
LINE
  5
2A3
330
1F
100
AcDbEntity
  8
C-2
  6
Continuous
 62
     3
370
     9
100
AcDbLine
 10
31.78779093401971
 20
991.4113766169982
 30
0.0
 11
31.78779093401971
 21
1233.411483428522
 31
0.0
  0
LINE
  5
2A4
330
1F
100
AcDbEntity
  8
C-2
  6
Continuous
 62
     3
370
     9
100
AcDbLine
 10
13.78740946429332
 20
1160.911758086725
 30
0.0
 11
31.78779093401971
 21
1160.911758086725
 31
0.0
  0
LINE
  5
2A5
330
1F
100
AcDbEntity
  8
C-2
  6
Continuous
 62
     3
370
     9
100
AcDbLine
 10
13.78740946429332
 20
1163.911330840631
 30
0.0
 11
31.78779093401971
 21
1163.911330840631
 31
0.0
  0
LINE
  5
2A6
330
1F
100
AcDbEntity
  8
C-2
  6
Continuous
 62
     3
370
     9
100
AcDbLine
 10
13.78740946429332
 20
1063.911849639459
 30
0.0
 11
31.78779093401971
 21
1063.911849639459
 31
0.0
  0
LINE
  5
2A7
330
1F
100
AcDbEntity
  8
C-2
  6
Continuous
 62
     3
370
     9
100
AcDbLine
 10
13.78740946429332
 20
1060.911788604303
 30
0.0
 11
31.78779093401971
 21
1060.911788604303
 31
0.0
  0
LINE
  5
2A8
330
1F
100
AcDbEntity
  8
C-2
  6
Continuous
 62
     3
370
     9
100
AcDbLine
 10
57.7875162758167
 20
991.4113766169982
 30
0.0
 11
57.7875162758167
 21
1233.411483428522
 31
0.0
  0
LINE
  5
2A9
330
1F
100
AcDbEntity
  8
C-2
  6
Continuous
 62
     3
370
     9
100
AcDbLine
 10
53.78759256976196
 20
991.4113766169982
 30
0.0
 11
53.78759256976196
 21
1233.411483428522
 31
0.0
  0
LINE
  5
2AA
330
1F
100
AcDbEntity
  8
C-2
  6
Continuous
 62
     3
370
     9
100
AcDbLine
 10
35.78721110003528
 20
1160.911758086725
 30
0.0
 11
53.78759256976196
 21
1160.911758086725
 31
0.0
  0
LINE
  5
2AB
330
1F
100
AcDbEntity
  8
C-2
  6
Continuous
 62
     3
370
     9
100
AcDbLine
 10
35.78721110003528
 20
1163.911330840631
 30
0.0
 11
53.78759256976196
 21
1163.911330840631
 31
0.0
  0
LINE
  5
2AC
330
1F
100
AcDbEntity
  8
C-2
  6
Continuous
 62
     3
370
     9
100
AcDbLine
 10
35.78721110003528
 20
1063.911849639459
 30
0.0
 11
53.78759256976196
 21
1063.911849639459
 31
0.0
  0
LINE
  5
2AD
330
1F
100
AcDbEntity
  8
C-2
  6
Continuous
 62
     3
370
     9
100
AcDbLine
 10
35.78721110003528
 20
1060.911788604303
 30
0.0
 11
53.78759256976196
 21
1060.911788604303
 31
0.0
  0
LINE
  5
2AE
330
1F
100
AcDbEntity
  8
C-2
  6
Continuous
 62
     3
370
     9
100
AcDbLine
 10
79.78782145159784
 20
991.4113766169982
 30
0.0
 11
79.78782145159784
 21
1233.411483428522
 31
0.0
  0
LINE
  5
2AF
330
1F
100
AcDbEntity
  8
C-2
  6
Continuous
 62
     3
370
     9
100
AcDbLine
 10
75.7874094642932
 20
991.4113766169982
 30
0.0
 11
75.7874094642932
 21
1233.411483428522
 31
0.0
  0
LINE
  5
2B0
330
1F
100
AcDbEntity
  8
C-2
  6
Continuous
 62
     3
370
     9
100
AcDbLine
 10
57.7875162758167
 20
1160.911758086725
 30
0.0
 11
75.7874094642932
 21
1160.911758086725
 31
0.0
  0
LINE
  5
2B1
330
1F
100
AcDbEntity
  8
C-2
  6
Continuous
 62
     3
370
     9
100
AcDbLine
 10
57.7875162758167
 20
1163.911330840631
 30
0.0
 11
75.7874094642932
 21
1163.911330840631
 31
0.0
  0
LINE
  5
2B2
330
1F
100
AcDbEntity
  8
C-2
  6
Continuous
 62
     3
370
     9
100
AcDbLine
 10
57.7875162758167
 20
1063.911849639459
 30
0.0
 11
75.7874094642932
 21
1063.911849639459
 31
0.0
  0
LINE
  5
2B3
330
1F
100
AcDbEntity
  8
C-2
  6
Continuous
 62
     3
370
     9
100
AcDbLine
 10
57.7875162758167
 20
1060.911788604303
 30
0.0
 11
75.7874094642932
 21
1060.911788604303
 31
0.0
  0
LINE
  5
2B4
330
1F
100
AcDbEntity
  8
C-2
  6
Continuous
 62
     3
370
     9
100
AcDbLine
 10
101.7876230873401
 20
991.4113766169982
 30
0.0
 11
101.7876230873401
 21
1233.411483428522
 31
0.0
  0
LINE
  5
2B5
330
1F
100
AcDbEntity
  8
C-2
  6
Continuous
 62
     3
370
     9
100
AcDbLine
 10
97.78769938128534
 20
991.4113766169982
 30
0.0
 11
97.78769938128534
 21
1233.411483428522
 31
0.0
  0
LINE
  5
2B6
330
1F
100
AcDbEntity
  8
C-2
  6
Continuous
 62
     3
370
     9
100
AcDbLine
 10
79.78782145159784
 20
1160.911758086725
 30
0.0
 11
97.78769938128534
 21
1160.911758086725
 31
0.0
  0
LINE
  5
2B7
330
1F
100
AcDbEntity
  8
C-2
  6
Continuous
 62
     3
370
     9
100
AcDbLine
 10
79.78782145159784
 20
1163.911330840631
 30
0.0
 11
97.78769938128534
 21
1163.911330840631
 31
0.0
  0
LINE
  5
2B8
330
1F
100
AcDbEntity
  8
C-2
  6
Continuous
 62
     3
370
     9
100
AcDbLine
 10
79.78782145159784
 20
1063.911849639459
 30
0.0
 11
97.78769938128534
 21
1063.911849639459
 31
0.0
  0
LINE
  5
2B9
330
1F
100
AcDbEntity
  8
C-2
  6
Continuous
 62
     3
370
     9
100
AcDbLine
 10
79.78782145159784
 20
1060.911788604303
 30
0.0
 11
97.78769938128534
 21
1060.911788604303
 31
0.0
  0
LINE
  5
2BA
330
1F
100
AcDbEntity
  8
C-2
  6
Continuous
 62
     3
370
     9
100
AcDbLine
 10
123.7874399818713
 20
991.4113766169982
 30
0.0
 11
123.7874399818713
 21
1233.411483428522
 31
0.0
  0
LINE
  5
2BB
330
1F
100
AcDbEntity
  8
C-2
  6
Continuous
 62
     3
370
     9
100
AcDbLine
 10
119.7875010170276
 20
991.4113766169982
 30
0.0
 11
119.7875010170276
 21
1233.411483428522
 31
0.0
  0
LINE
  5
2BC
330
1F
100
AcDbEntity
  8
C-2
  6
Continuous
 62
     3
370
     9
100
AcDbLine
 10
101.7876230873401
 20
1160.911758086725
 30
0.0
 11
119.7875010170276
 21
1160.911758086725
 31
0.0
  0
LINE
  5
2BD
330
1F
100
AcDbEntity
  8
C-2
  6
Continuous
 62
     3
370
     9
100
AcDbLine
 10
101.7876230873401
 20
1163.911330840631
 30
0.0
 11
119.7875010170276
 21
1163.911330840631
 31
0.0
  0
LINE
  5
2BE
330
1F
100
AcDbEntity
  8
C-2
  6
Continuous
 62
     3
370
     9
100
AcDbLine
 10
101.7876230873401
 20
1063.911849639459
 30
0.0
 11
119.7875010170276
 21
1063.911849639459
 31
0.0
  0
LINE
  5
2BF
330
1F
100
AcDbEntity
  8
C-2
  6
Continuous
 62
     3
370
     9
100
AcDbLine
 10
101.7876230873401
 20
1060.911788604303
 30
0.0
 11
119.7875010170276
 21
1060.911788604303
 31
0.0
  0
LINE
  5
2C0
330
1F
100
AcDbEntity
  8
C-2
  6
Continuous
 62
     3
370
     9
100
AcDbLine
 10
145.7872263588246
 20
991.4113766169982
 30
0.0
 11
145.7872263588246
 21
1233.411483428522
 31
0.0
  0
LINE
  5
2C1
330
1F
100
AcDbEntity
  8
C-2
  6
Continuous
 62
     3
370
     9
100
AcDbLine
 10
141.7878061928087
 20
991.4113766169982
 30
0.0
 11
141.7878061928087
 21
1233.411483428522
 31
0.0
  0
LINE
  5
2C2
330
1F
100
AcDbEntity
  8
C-2
  6
Continuous
 62
     3
370
     9
100
AcDbLine
 10
123.7874399818713
 20
1160.911758086725
 30
0.0
 11
141.7878061928087
 21
1160.911758086725
 31
0.0
  0
LINE
  5
2C3
330
1F
100
AcDbEntity
  8
C-2
  6
Continuous
 62
     3
370
     9
100
AcDbLine
 10
123.7874399818713
 20
1163.911330840631
 30
0.0
 11
141.7878061928087
 21
1163.911330840631
 31
0.0
  0
LINE
  5
2C4
330
1F
100
AcDbEntity
  8
C-2
  6
Continuous
 62
     3
370
     9
100
AcDbLine
 10
123.7874399818713
 20
1063.911849639459
 30
0.0
 11
141.7878061928087
 21
1063.911849639459
 31
0.0
  0
LINE
  5
2C5
330
1F
100
AcDbEntity
  8
C-2
  6
Continuous
 62
     3
370
     9
100
AcDbLine
 10
123.7874399818713
 20
1060.911788604303
 30
0.0
 11
141.7878061928087
 21
1060.911788604303
 31
0.0
  0
LINE
  5
2C6
330
1F
100
AcDbEntity
  8
C-2
  6
Continuous
 62
     3
370
     9
100
AcDbLine
 10
167.7875315346057
 20
991.4113766169982
 30
0.0
 11
167.7875315346057
 21
1233.411483428522
 31
0.0
  0
LINE
  5
2C7
330
1F
100
AcDbEntity
  8
C-2
  6
Continuous
 62
     3
370
     9
100
AcDbLine
 10
163.78762308734
 20
991.4113766169982
 30
0.0
 11
163.78762308734
 21
1233.411483428522
 31
0.0
  0
LINE
  5
2C8
330
1F
100
AcDbEntity
  8
C-2
  6
Continuous
 62
     3
370
     9
100
AcDbLine
 10
145.7872263588246
 20
1160.911758086725
 30
0.0
 11
163.78762308734
 21
1160.911758086725
 31
0.0
  0
LINE
  5
2C9
330
1F
100
AcDbEntity
  8
C-2
  6
Continuous
 62
     3
370
     9
100
AcDbLine
 10
145.7872263588246
 20
1163.911330840631
 30
0.0
 11
163.78762308734
 21
1163.911330840631
 31
0.0
  0
LINE
  5
2CA
330
1F
100
AcDbEntity
  8
C-2
  6
Continuous
 62
     3
370
     9
100
AcDbLine
 10
145.7872263588246
 20
1063.911849639459
 30
0.0
 11
163.78762308734
 21
1063.911849639459
 31
0.0
  0
LINE
  5
2CB
330
1F
100
AcDbEntity
  8
C-2
  6
Continuous
 62
     3
370
     9
100
AcDbLine
 10
145.7872263588246
 20
1060.911788604303
 30
0.0
 11
163.78762308734
 21
1060.911788604303
 31
0.0
  0
LINE
  5
2CC
330
1F
100
AcDbEntity
  8
C-2
  6
Continuous
 62
     3
370
     9
100
AcDbLine
 10
189.7878367103868
 20
991.4113766169982
 30
0.0
 11
189.7878367103868
 21
1233.411483428522
 31
0.0
  0
LINE
  5
2CD
330
1F
100
AcDbEntity
  8
C-2
  6
Continuous
 62
     3
370
     9
100
AcDbLine
 10
185.7874094642932
 20
991.4113766169982
 30
0.0
 11
185.7874094642932
 21
1233.411483428522
 31
0.0
  0
LINE
  5
2CE
330
1F
100
AcDbEntity
  8
C-2
  6
Continuous
 62
     3
370
     9
100
AcDbLine
 10
167.7875315346057
 20
1160.911758086725
 30
0.0
 11
185.7874094642932
 21
1160.911758086725
 31
0.0
  0
LINE
  5
2CF
330
1F
100
AcDbEntity
  8
C-2
  6
Continuous
 62
     3
370
     9
100
AcDbLine
 10
167.7875315346057
 20
1163.911330840631
 30
0.0
 11
185.7874094642932
 21
1163.911330840631
 31
0.0
  0
LINE
  5
2D0
330
1F
100
AcDbEntity
  8
C-2
  6
Continuous
 62
     3
370
     9
100
AcDbLine
 10
167.7875315346057
 20
1063.911849639459
 30
0.0
 11
185.7874094642932
 21
1063.911849639459
 31
0.0
  0
LINE
  5
2D1
330
1F
100
AcDbEntity
  8
C-2
  6
Continuous
 62
     3
370
     9
100
AcDbLine
 10
167.7875315346057
 20
1060.911788604303
 30
0.0
 11
185.7874094642932
 21
1060.911788604303
 31
0.0
  0
LINE
  5
2D2
330
1F
100
AcDbEntity
  8
C-2
  6
Continuous
 62
     3
370
     9
100
AcDbLine
 10
211.7876536049181
 20
991.4113766169982
 30
0.0
 11
211.7876536049181
 21
1233.411483428522
 31
0.0
  0
LINE
  5
2D3
330
1F
100
AcDbEntity
  8
C-2
  6
Continuous
 62
     3
370
     9
100
AcDbLine
 10
207.7872263588245
 20
991.4113766169982
 30
0.0
 11
207.7872263588245
 21
1233.411483428522
 31
0.0
  0
LINE
  5
2D4
330
1F
100
AcDbEntity
  8
C-2
  6
Continuous
 62
     3
370
     9
100
AcDbLine
 10
189.7878367103868
 20
1160.911758086725
 30
0.0
 11
207.7872263588245
 21
1160.911758086725
 31
0.0
  0
LINE
  5
2D5
330
1F
100
AcDbEntity
  8
C-2
  6
Continuous
 62
     3
370
     9
100
AcDbLine
 10
189.7878367103868
 20
1163.911330840631
 30
0.0
 11
207.7872263588245
 21
1163.911330840631
 31
0.0
  0
LINE
  5
2D6
330
1F
100
AcDbEntity
  8
C-2
  6
Continuous
 62
     3
370
     9
100
AcDbLine
 10
189.7878367103868
 20
1063.911849639459
 30
0.0
 11
207.7872263588245
 21
1063.911849639459
 31
0.0
  0
LINE
  5
2D7
330
1F
100
AcDbEntity
  8
C-2
  6
Continuous
 62
     3
370
     9
100
AcDbLine
 10
189.7878367103868
 20
1060.911788604303
 30
0.0
 11
207.7872263588245
 21
1060.911788604303
 31
0.0
  0
LINE
  5
2D8
330
1F
100
AcDbEntity
  8
C-2
  6
Continuous
 62
     3
370
     9
100
AcDbLine
 10
233.7874399818713
 20
991.4113766169982
 30
0.0
 11
233.7874399818713
 21
1233.411483428522
 31
0.0
  0
LINE
  5
2D9
330
1F
100
AcDbEntity
  8
C-2
  6
Continuous
 62
     3
370
     9
100
AcDbLine
 10
229.7875315346056
 20
991.4113766169982
 30
0.0
 11
229.7875315346056
 21
1233.411483428522
 31
0.0
  0
LINE
  5
2DA
330
1F
100
AcDbEntity
  8
C-2
  6
Continuous
 62
     3
370
     9
100
AcDbLine
 10
211.7876536049181
 20
1160.911758086725
 30
0.0
 11
229.7875315346056
 21
1160.911758086725
 31
0.0
  0
LINE
  5
2DB
330
1F
100
AcDbEntity
  8
C-2
  6
Continuous
 62
     3
370
     9
100
AcDbLine
 10
211.7876536049181
 20
1163.911330840631
 30
0.0
 11
229.7875315346056
 21
1163.911330840631
 31
0.0
  0
LINE
  5
2DC
330
1F
100
AcDbEntity
  8
C-2
  6
Continuous
 62
     3
370
     9
100
AcDbLine
 10
211.7876536049181
 20
1063.911849639459
 30
0.0
 11
229.7875315346056
 21
1063.911849639459
 31
0.0
  0
LINE
  5
2DD
330
1F
100
AcDbEntity
  8
C-2
  6
Continuous
 62
     3
370
     9
100
AcDbLine
 10
211.7876536049181
 20
1060.911788604303
 30
0.0
 11
229.7875315346056
 21
1060.911788604303
 31
0.0
  0
LINE
  5
2DE
330
1F
100
AcDbEntity
  8
C-2
  6
Continuous
 62
     3
370
     9
100
AcDbLine
 10
255.7877451576525
 20
991.4113766169982
 30
0.0
 11
255.7877451576525
 21
1233.411483428522
 31
0.0
  0
LINE
  5
2DF
330
1F
100
AcDbEntity
  8
C-2
  6
Continuous
 62
     3
370
     9
100
AcDbLine
 10
251.787836710387
 20
991.4113766169982
 30
0.0
 11
251.787836710387
 21
1233.411483428522
 31
0.0
  0
LINE
  5
2E0
330
1F
100
AcDbEntity
  8
C-2
  6
Continuous
 62
     3
370
     9
100
AcDbLine
 10
233.7874399818713
 20
1160.911758086725
 30
0.0
 11
251.787836710387
 21
1160.911758086725
 31
0.0
  0
LINE
  5
2E1
330
1F
100
AcDbEntity
  8
C-2
  6
Continuous
 62
     3
370
     9
100
AcDbLine
 10
233.7874399818713
 20
1163.911330840631
 30
0.0
 11
251.787836710387
 21
1163.911330840631
 31
0.0
  0
LINE
  5
2E2
330
1F
100
AcDbEntity
  8
C-2
  6
Continuous
 62
     3
370
     9
100
AcDbLine
 10
233.7874399818713
 20
1063.911849639459
 30
0.0
 11
251.787836710387
 21
1063.911849639459
 31
0.0
  0
LINE
  5
2E3
330
1F
100
AcDbEntity
  8
C-2
  6
Continuous
 62
     3
370
     9
100
AcDbLine
 10
233.7874399818713
 20
1060.911788604303
 30
0.0
 11
251.787836710387
 21
1060.911788604303
 31
0.0
  0
LINE
  5
2E4
330
1F
100
AcDbEntity
  8
C-2
  6
Continuous
 62
     3
370
     9
100
AcDbLine
 10
277.7875620521837
 20
991.4113766169982
 30
0.0
 11
277.7875620521837
 21
1233.411483428522
 31
0.0
  0
LINE
  5
2E5
330
1F
100
AcDbEntity
  8
C-2
  6
Continuous
 62
     3
370
     9
100
AcDbLine
 10
273.78762308734
 20
991.4113766169982
 30
0.0
 11
273.78762308734
 21
1233.411483428522
 31
0.0
  0
LINE
  5
2E6
330
1F
100
AcDbEntity
  8
C-2
  6
Continuous
 62
     3
370
     9
100
AcDbLine
 10
255.7877451576525
 20
1160.911758086725
 30
0.0
 11
273.78762308734
 21
1160.911758086725
 31
0.0
  0
LINE
  5
2E7
330
1F
100
AcDbEntity
  8
C-2
  6
Continuous
 62
     3
370
     9
100
AcDbLine
 10
255.7877451576525
 20
1163.911330840631
 30
0.0
 11
273.78762308734
 21
1163.911330840631
 31
0.0
  0
LINE
  5
2E8
330
1F
100
AcDbEntity
  8
C-2
  6
Continuous
 62
     3
370
     9
100
AcDbLine
 10
255.7877451576525
 20
1063.911849639459
 30
0.0
 11
273.78762308734
 21
1063.911849639459
 31
0.0
  0
LINE
  5
2E9
330
1F
100
AcDbEntity
  8
C-2
  6
Continuous
 62
     3
370
     9
100
AcDbLine
 10
255.7877451576525
 20
1060.911788604303
 30
0.0
 11
273.78762308734
 21
1060.911788604303
 31
0.0
  0
LINE
  5
2EA
330
1F
100
AcDbEntity
  8
C-2
  6
Continuous
 62
     3
370
     9
100
AcDbLine
 10
299.7878672279651
 20
991.4113766169982
 30
0.0
 11
299.7878672279651
 21
1233.411483428522
 31
0.0
  0
LINE
  5
2EB
330
1F
100
AcDbEntity
  8
C-2
  6
Continuous
 62
     3
370
     9
100
AcDbLine
 10
295.7879282631214
 20
991.4113766169982
 30
0.0
 11
295.7879282631214
 21
1233.411483428522
 31
0.0
  0
LINE
  5
2EC
330
1F
100
AcDbEntity
  8
C-2
  6
Continuous
 62
     3
370
     9
100
AcDbLine
 10
277.7870432533558
 20
1160.911758086725
 30
0.0
 11
295.7879282631214
 21
1160.911758086725
 31
0.0
  0
LINE
  5
2ED
330
1F
100
AcDbEntity
  8
C-2
  6
Continuous
 62
     3
370
     9
100
AcDbLine
 10
277.7870432533558
 20
1163.911330840631
 30
0.0
 11
295.7879282631214
 21
1163.911330840631
 31
0.0
  0
LINE
  5
2EE
330
1F
100
AcDbEntity
  8
C-2
  6
Continuous
 62
     3
370
     9
100
AcDbLine
 10
277.7870432533558
 20
1063.911849639459
 30
0.0
 11
295.7879282631214
 21
1063.911849639459
 31
0.0
  0
LINE
  5
2EF
330
1F
100
AcDbEntity
  8
C-2
  6
Continuous
 62
     3
370
     9
100
AcDbLine
 10
277.7870432533558
 20
1060.911788604303
 30
0.0
 11
295.7879282631214
 21
1060.911788604303
 31
0.0
  0
LINE
  5
2F0
330
1F
100
AcDbEntity
  8
C-2
  6
Continuous
 62
     3
370
     9
100
AcDbLine
 10
321.7876536049181
 20
991.4113766169982
 30
0.0
 11
321.7876536049181
 21
1233.411483428522
 31
0.0
  0
LINE
  5
2F1
330
1F
100
AcDbEntity
  8
C-2
  6
Continuous
 62
     3
370
     9
100
AcDbLine
 10
317.7872568764025
 20
991.4113766169982
 30
0.0
 11
317.7872568764025
 21
1233.411483428522
 31
0.0
  0
LINE
  5
2F2
330
1F
100
AcDbEntity
  8
C-2
  6
Continuous
 62
     3
370
     9
100
AcDbLine
 10
299.787348429137
 20
1160.911758086725
 30
0.0
 11
317.7872568764025
 21
1160.911758086725
 31
0.0
  0
LINE
  5
2F3
330
1F
100
AcDbEntity
  8
C-2
  6
Continuous
 62
     3
370
     9
100
AcDbLine
 10
299.787348429137
 20
1163.911330840631
 30
0.0
 11
317.7872568764025
 21
1163.911330840631
 31
0.0
  0
LINE
  5
2F4
330
1F
100
AcDbEntity
  8
C-2
  6
Continuous
 62
     3
370
     9
100
AcDbLine
 10
299.787348429137
 20
1063.911849639459
 30
0.0
 11
317.7872568764025
 21
1063.911849639459
 31
0.0
  0
LINE
  5
2F5
330
1F
100
AcDbEntity
  8
C-2
  6
Continuous
 62
     3
370
     9
100
AcDbLine
 10
299.787348429137
 20
1060.911788604303
 30
0.0
 11
317.7872568764025
 21
1060.911788604303
 31
0.0
  0
LINE
  5
2F6
330
1F
100
AcDbEntity
  8
C-2
  6
Continuous
 62
     3
370
     9
100
AcDbLine
 10
343.7874704994493
 20
991.4113766169982
 30
0.0
 11
343.7874704994493
 21
1233.411483428522
 31
0.0
  0
LINE
  5
2F7
330
1F
100
AcDbEntity
  8
C-2
  6
Continuous
 62
     3
370
     9
100
AcDbLine
 10
339.7875315346056
 20
991.4113766169982
 30
0.0
 11
339.7875315346056
 21
1233.411483428522
 31
0.0
  0
LINE
  5
2F8
330
1F
100
AcDbEntity
  8
C-2
  6
Continuous
 62
     3
370
     9
100
AcDbLine
 10
321.7876536049181
 20
1160.911758086725
 30
0.0
 11
339.7875315346056
 21
1160.911758086725
 31
0.0
  0
LINE
  5
2F9
330
1F
100
AcDbEntity
  8
C-2
  6
Continuous
 62
     3
370
     9
100
AcDbLine
 10
321.7876536049181
 20
1163.911330840631
 30
0.0
 11
339.7875315346056
 21
1163.911330840631
 31
0.0
  0
LINE
  5
2FA
330
1F
100
AcDbEntity
  8
C-2
  6
Continuous
 62
     3
370
     9
100
AcDbLine
 10
321.7876536049181
 20
1063.911849639459
 30
0.0
 11
339.7875315346056
 21
1063.911849639459
 31
0.0
  0
LINE
  5
2FB
330
1F
100
AcDbEntity
  8
C-2
  6
Continuous
 62
     3
370
     9
100
AcDbLine
 10
321.7876536049181
 20
1060.911788604303
 30
0.0
 11
339.7875315346056
 21
1060.911788604303
 31
0.0
  0
LINE
  5
2FC
330
1F
100
AcDbEntity
  8
C-2
  6
Continuous
 62
     3
370
     9
100
AcDbLine
 10
365.7872873939806
 20
991.4113766169982
 30
0.0
 11
365.7872873939806
 21
1233.411483428522
 31
0.0
  0
LINE
  5
2FD
330
1F
100
AcDbEntity
  8
C-2
  6
Continuous
 62
     3
370
     9
100
AcDbLine
 10
361.787836710387
 20
991.4113766169982
 30
0.0
 11
361.787836710387
 21
1233.411483428522
 31
0.0
  0
LINE
  5
2FE
330
1F
100
AcDbEntity
  8
C-2
  6
Continuous
 62
     3
370
     9
100
AcDbLine
 10
343.7874704994493
 20
1160.911758086725
 30
0.0
 11
361.787836710387
 21
1160.911758086725
 31
0.0
  0
LINE
  5
2FF
330
1F
100
AcDbEntity
  8
C-2
  6
Continuous
 62
     3
370
     9
100
AcDbLine
 10
343.7874704994493
 20
1163.911330840631
 30
0.0
 11
361.787836710387
 21
1163.911330840631
 31
0.0
  0
LINE
  5
300
330
1F
100
AcDbEntity
  8
C-2
  6
Continuous
 62
     3
370
     9
100
AcDbLine
 10
343.7874704994493
 20
1063.911849639459
 30
0.0
 11
361.787836710387
 21
1063.911849639459
 31
0.0
  0
LINE
  5
301
330
1F
100
AcDbEntity
  8
C-2
  6
Continuous
 62
     3
370
     9
100
AcDbLine
 10
343.7874704994493
 20
1060.911788604303
 30
0.0
 11
361.787836710387
 21
1060.911788604303
 31
0.0
  0
LINE
  5
302
330
1F
100
AcDbEntity
  8
C-2
  6
Continuous
 62
     3
370
     9
100
AcDbLine
 10
387.7871042885118
 20
991.4113766169982
 30
0.0
 11
387.7871042885118
 21
1233.411483428522
 31
0.0
  0
LINE
  5
303
330
1F
100
AcDbEntity
  8
C-2
  6
Continuous
 62
     3
370
     9
100
AcDbLine
 10
383.7876536049183
 20
991.4113766169982
 30
0.0
 11
383.7876536049183
 21
1233.411483428522
 31
0.0
  0
LINE
  5
304
330
1F
100
AcDbEntity
  8
C-2
  6
Continuous
 62
     3
370
     9
100
AcDbLine
 10
365.7872873939806
 20
1160.911758086725
 30
0.0
 11
383.7876536049183
 21
1160.911758086725
 31
0.0
  0
LINE
  5
305
330
1F
100
AcDbEntity
  8
C-2
  6
Continuous
 62
     3
370
     9
100
AcDbLine
 10
365.7872873939806
 20
1163.911330840631
 30
0.0
 11
383.7876536049183
 21
1163.911330840631
 31
0.0
  0
LINE
  5
306
330
1F
100
AcDbEntity
  8
C-2
  6
Continuous
 62
     3
370
     9
100
AcDbLine
 10
365.7872873939806
 20
1063.911849639459
 30
0.0
 11
383.7876536049183
 21
1063.911849639459
 31
0.0
  0
LINE
  5
307
330
1F
100
AcDbEntity
  8
C-2
  6
Continuous
 62
     3
370
     9
100
AcDbLine
 10
365.7872873939806
 20
1060.911788604303
 30
0.0
 11
383.7876536049183
 21
1060.911788604303
 31
0.0
  0
LINE
  5
308
330
1F
100
AcDbEntity
  8
C-2
  6
Continuous
 62
     3
370
     9
100
AcDbLine
 10
409.787348429137
 20
991.4113766169982
 30
0.0
 11
409.787348429137
 21
1233.411483428522
 31
0.0
  0
LINE
  5
309
330
1F
100
AcDbEntity
  8
C-2
  6
Continuous
 62
     3
370
     9
100
AcDbLine
 10
405.7874704994495
 20
991.4113766169982
 30
0.0
 11
405.7874704994495
 21
1233.411483428522
 31
0.0
  0
LINE
  5
30A
330
1F
100
AcDbEntity
  8
C-2
  6
Continuous
 62
     3
370
     9
100
AcDbLine
 10
387.7871042885118
 20
1160.911758086725
 30
0.0
 11
405.7874704994495
 21
1160.911758086725
 31
0.0
  0
LINE
  5
30B
330
1F
100
AcDbEntity
  8
C-2
  6
Continuous
 62
     3
370
     9
100
AcDbLine
 10
387.7871042885118
 20
1163.911330840631
 30
0.0
 11
405.7874704994495
 21
1163.911330840631
 31
0.0
  0
LINE
  5
30C
330
1F
100
AcDbEntity
  8
C-2
  6
Continuous
 62
     3
370
     9
100
AcDbLine
 10
387.7871042885118
 20
1063.911849639459
 30
0.0
 11
405.7874704994495
 21
1063.911849639459
 31
0.0
  0
LINE
  5
30D
330
1F
100
AcDbEntity
  8
C-2
  6
Continuous
 62
     3
370
     9
100
AcDbLine
 10
387.7871042885118
 20
1060.911788604303
 30
0.0
 11
405.7874704994495
 21
1060.911788604303
 31
0.0
  0
LINE
  5
30E
330
1F
100
AcDbEntity
  8
C-2
  6
Continuous
 62
     3
370
     9
100
AcDbLine
 10
431.7876536049181
 20
991.4113766169982
 30
0.0
 11
431.7876536049181
 21
1233.411483428522
 31
0.0
  0
LINE
  5
30F
330
1F
100
AcDbEntity
  8
C-2
  6
Continuous
 62
     3
370
     9
100
AcDbLine
 10
427.7872873939808
 20
991.4113766169982
 30
0.0
 11
427.7872873939808
 21
1233.411483428522
 31
0.0
  0
LINE
  5
310
330
1F
100
AcDbEntity
  8
C-2
  6
Continuous
 62
     3
370
     9
100
AcDbLine
 10
409.787348429137
 20
1160.911758086725
 30
0.0
 11
427.7872873939808
 21
1160.911758086725
 31
0.0
  0
LINE
  5
311
330
1F
100
AcDbEntity
  8
C-2
  6
Continuous
 62
     3
370
     9
100
AcDbLine
 10
409.787348429137
 20
1163.911330840631
 30
0.0
 11
427.7872873939808
 21
1163.911330840631
 31
0.0
  0
LINE
  5
312
330
1F
100
AcDbEntity
  8
C-2
  6
Continuous
 62
     3
370
     9
100
AcDbLine
 10
409.787348429137
 20
1063.911849639459
 30
0.0
 11
427.7872873939808
 21
1063.911849639459
 31
0.0
  0
LINE
  5
313
330
1F
100
AcDbEntity
  8
C-2
  6
Continuous
 62
     3
370
     9
100
AcDbLine
 10
409.787348429137
 20
1060.911788604303
 30
0.0
 11
427.7872873939808
 21
1060.911788604303
 31
0.0
  0
LINE
  5
314
330
1F
100
AcDbEntity
  8
C-2
  6
Continuous
 62
     3
370
     9
100
AcDbLine
 10
453.7874704994493
 20
991.4113766169982
 30
0.0
 11
453.7874704994493
 21
1233.411483428522
 31
0.0
  0
LINE
  5
315
330
1F
100
AcDbEntity
  8
C-2
  6
Continuous
 62
     3
370
     9
100
AcDbLine
 10
449.7875315346056
 20
991.4113766169982
 30
0.0
 11
449.7875315346056
 21
1233.411483428522
 31
0.0
  0
LINE
  5
316
330
1F
100
AcDbEntity
  8
C-2
  6
Continuous
 62
     3
370
     9
100
AcDbLine
 10
431.7876536049181
 20
1160.911758086725
 30
0.0
 11
449.7875315346056
 21
1160.911758086725
 31
0.0
  0
LINE
  5
317
330
1F
100
AcDbEntity
  8
C-2
  6
Continuous
 62
     3
370
     9
100
AcDbLine
 10
431.7876536049181
 20
1163.911330840631
 30
0.0
 11
449.7875315346056
 21
1163.911330840631
 31
0.0
  0
LINE
  5
318
330
1F
100
AcDbEntity
  8
C-2
  6
Continuous
 62
     3
370
     9
100
AcDbLine
 10
431.7876536049181
 20
1063.911849639459
 30
0.0
 11
449.7875315346056
 21
1063.911849639459
 31
0.0
  0
LINE
  5
319
330
1F
100
AcDbEntity
  8
C-2
  6
Continuous
 62
     3
370
     9
100
AcDbLine
 10
431.7876536049181
 20
1060.911788604303
 30
0.0
 11
449.7875315346056
 21
1060.911788604303
 31
0.0
  0
LINE
  5
31A
330
1F
100
AcDbEntity
  8
C-2
  6
Continuous
 62
     3
370
     9
100
AcDbLine
 10
475.7872873939806
 20
991.4113766169982
 30
0.0
 11
475.7872873939806
 21
1233.411483428522
 31
0.0
  0
LINE
  5
31B
330
1F
100
AcDbEntity
  8
C-2
  6
Continuous
 62
     3
370
     9
100
AcDbLine
 10
471.787836710387
 20
991.4113766169982
 30
0.0
 11
471.787836710387
 21
1233.411483428522
 31
0.0
  0
LINE
  5
31C
330
1F
100
AcDbEntity
  8
C-2
  6
Continuous
 62
     3
370
     9
100
AcDbLine
 10
453.7874704994493
 20
1160.911758086725
 30
0.0
 11
471.787836710387
 21
1160.911758086725
 31
0.0
  0
LINE
  5
31D
330
1F
100
AcDbEntity
  8
C-2
  6
Continuous
 62
     3
370
     9
100
AcDbLine
 10
453.7874704994493
 20
1163.911330840631
 30
0.0
 11
471.787836710387
 21
1163.911330840631
 31
0.0
  0
LINE
  5
31E
330
1F
100
AcDbEntity
  8
C-2
  6
Continuous
 62
     3
370
     9
100
AcDbLine
 10
453.7874704994493
 20
1063.911849639459
 30
0.0
 11
471.787836710387
 21
1063.911849639459
 31
0.0
  0
LINE
  5
31F
330
1F
100
AcDbEntity
  8
C-2
  6
Continuous
 62
     3
370
     9
100
AcDbLine
 10
453.7874704994493
 20
1060.911788604303
 30
0.0
 11
471.787836710387
 21
1060.911788604303
 31
0.0
  0
LINE
  5
320
330
1F
100
AcDbEntity
  8
C-2
  6
Continuous
 62
     3
370
     9
100
AcDbLine
 10
497.7871042885118
 20
991.4113766169982
 30
0.0
 11
497.7871042885118
 21
1233.411483428522
 31
0.0
  0
LINE
  5
321
330
1F
100
AcDbEntity
  8
C-2
  6
Continuous
 62
     3
370
     9
100
AcDbLine
 10
493.7876536049183
 20
991.4113766169982
 30
0.0
 11
493.7876536049183
 21
1233.411483428522
 31
0.0
  0
LINE
  5
322
330
1F
100
AcDbEntity
  8
C-2
  6
Continuous
 62
     3
370
     9
100
AcDbLine
 10
475.7872873939806
 20
1160.911758086725
 30
0.0
 11
493.7876536049183
 21
1160.911758086725
 31
0.0
  0
LINE
  5
323
330
1F
100
AcDbEntity
  8
C-2
  6
Continuous
 62
     3
370
     9
100
AcDbLine
 10
475.7872873939806
 20
1163.911330840631
 30
0.0
 11
493.7876536049183
 21
1163.911330840631
 31
0.0
  0
LINE
  5
324
330
1F
100
AcDbEntity
  8
C-2
  6
Continuous
 62
     3
370
     9
100
AcDbLine
 10
475.7872873939806
 20
1063.911849639459
 30
0.0
 11
493.7876536049183
 21
1063.911849639459
 31
0.0
  0
LINE
  5
325
330
1F
100
AcDbEntity
  8
C-2
  6
Continuous
 62
     3
370
     9
100
AcDbLine
 10
475.7872873939806
 20
1060.911788604303
 30
0.0
 11
493.7876536049183
 21
1060.911788604303
 31
0.0
  0
LINE
  5
326
330
1F
100
AcDbEntity
  8
C-2
  6
Continuous
 62
     3
370
     9
100
AcDbLine
 10
519.7878977455434
 20
991.4113766169982
 30
0.0
 11
519.7878977455434
 21
1233.411483428522
 31
0.0
  0
LINE
  5
327
330
1F
100
AcDbEntity
  8
C-2
  6
Continuous
 62
     3
370
     9
100
AcDbLine
 10
515.7874704994495
 20
991.4113766169982
 30
0.0
 11
515.7874704994495
 21
1233.411483428522
 31
0.0
  0
LINE
  5
328
330
1F
100
AcDbEntity
  8
C-2
  6
Continuous
 62
     3
370
     9
100
AcDbLine
 10
497.7871042885118
 20
1160.911758086725
 30
0.0
 11
515.7874704994495
 21
1160.911758086725
 31
0.0
  0
LINE
  5
329
330
1F
100
AcDbEntity
  8
C-2
  6
Continuous
 62
     3
370
     9
100
AcDbLine
 10
497.7871042885118
 20
1163.911330840631
 30
0.0
 11
515.7874704994495
 21
1163.911330840631
 31
0.0
  0
LINE
  5
32A
330
1F
100
AcDbEntity
  8
C-2
  6
Continuous
 62
     3
370
     9
100
AcDbLine
 10
497.7871042885118
 20
1063.911849639459
 30
0.0
 11
515.7874704994495
 21
1063.911849639459
 31
0.0
  0
LINE
  5
32B
330
1F
100
AcDbEntity
  8
C-2
  6
Continuous
 62
     3
370
     9
100
AcDbLine
 10
497.7871042885118
 20
1060.911788604303
 30
0.0
 11
515.7874704994495
 21
1060.911788604303
 31
0.0
  0
LINE
  5
32C
330
1F
100
AcDbEntity
  8
C-2
  6
Continuous
 62
     3
370
     9
100
AcDbLine
 10
541.7877146400747
 20
991.4113766169982
 30
0.0
 11
541.7877146400747
 21
1233.411483428522
 31
0.0
  0
LINE
  5
32D
330
1F
100
AcDbEntity
  8
C-2
  6
Continuous
 62
     3
370
     9
100
AcDbLine
 10
537.7872873939807
 20
991.4113766169982
 30
0.0
 11
537.7872873939807
 21
1233.411483428522
 31
0.0
  0
LINE
  5
32E
330
1F
100
AcDbEntity
  8
C-2
  6
Continuous
 62
     3
370
     9
100
AcDbLine
 10
519.7878977455434
 20
1160.911758086725
 30
0.0
 11
537.7872873939807
 21
1160.911758086725
 31
0.0
  0
LINE
  5
32F
330
1F
100
AcDbEntity
  8
C-2
  6
Continuous
 62
     3
370
     9
100
AcDbLine
 10
519.7878977455434
 20
1163.911330840631
 30
0.0
 11
537.7872873939807
 21
1163.911330840631
 31
0.0
  0
LINE
  5
330
330
1F
100
AcDbEntity
  8
C-2
  6
Continuous
 62
     3
370
     9
100
AcDbLine
 10
519.7878977455434
 20
1063.911849639459
 30
0.0
 11
537.7872873939807
 21
1063.911849639459
 31
0.0
  0
LINE
  5
331
330
1F
100
AcDbEntity
  8
C-2
  6
Continuous
 62
     3
370
     9
100
AcDbLine
 10
519.7878977455434
 20
1060.911788604303
 30
0.0
 11
537.7872873939807
 21
1060.911788604303
 31
0.0
  0
LINE
  5
332
330
1F
100
AcDbEntity
  8
C-2
  6
Continuous
 62
     3
370
     9
100
AcDbLine
 10
563.7874704994493
 20
991.4113766169982
 30
0.0
 11
563.7874704994493
 21
1233.411483428522
 31
0.0
  0
LINE
  5
333
330
1F
100
AcDbEntity
  8
C-2
  6
Continuous
 62
     3
370
     9
100
AcDbLine
 10
559.787104288512
 20
991.4113766169982
 30
0.0
 11
559.787104288512
 21
1233.411483428522
 31
0.0
  0
LINE
  5
334
330
1F
100
AcDbEntity
  8
C-2
  6
Continuous
 62
     3
370
     9
100
AcDbLine
 10
541.7877146400747
 20
1160.911758086725
 30
0.0
 11
559.787104288512
 21
1160.911758086725
 31
0.0
  0
LINE
  5
335
330
1F
100
AcDbEntity
  8
C-2
  6
Continuous
 62
     3
370
     9
100
AcDbLine
 10
541.7877146400747
 20
1163.911330840631
 30
0.0
 11
559.787104288512
 21
1163.911330840631
 31
0.0
  0
LINE
  5
336
330
1F
100
AcDbEntity
  8
C-2
  6
Continuous
 62
     3
370
     9
100
AcDbLine
 10
541.7877146400747
 20
1063.911849639459
 30
0.0
 11
559.787104288512
 21
1063.911849639459
 31
0.0
  0
LINE
  5
337
330
1F
100
AcDbEntity
  8
C-2
  6
Continuous
 62
     3
370
     9
100
AcDbLine
 10
541.7877146400747
 20
1060.911788604303
 30
0.0
 11
559.787104288512
 21
1060.911788604303
 31
0.0
  0
LINE
  5
338
330
1F
100
AcDbEntity
  8
C-2
  6
Continuous
 62
     3
370
     9
100
AcDbLine
 10
585.7872873939806
 20
991.4113766169982
 30
0.0
 11
585.7872873939806
 21
1233.411483428522
 31
0.0
  0
LINE
  5
339
330
1F
100
AcDbEntity
  8
C-2
  6
Continuous
 62
     3
370
     9
100
AcDbLine
 10
581.7878977455433
 20
991.4113766169982
 30
0.0
 11
581.7878977455433
 21
1233.411483428522
 31
0.0
  0
LINE
  5
33A
330
1F
100
AcDbEntity
  8
C-2
  6
Continuous
 62
     3
370
     9
100
AcDbLine
 10
563.7874704994493
 20
1160.911758086725
 30
0.0
 11
581.7878977455433
 21
1160.911758086725
 31
0.0
  0
LINE
  5
33B
330
1F
100
AcDbEntity
  8
C-2
  6
Continuous
 62
     3
370
     9
100
AcDbLine
 10
563.7874704994493
 20
1163.911330840631
 30
0.0
 11
581.7878977455433
 21
1163.911330840631
 31
0.0
  0
LINE
  5
33C
330
1F
100
AcDbEntity
  8
C-2
  6
Continuous
 62
     3
370
     9
100
AcDbLine
 10
563.7874704994493
 20
1063.911849639459
 30
0.0
 11
581.7878977455433
 21
1063.911849639459
 31
0.0
  0
LINE
  5
33D
330
1F
100
AcDbEntity
  8
C-2
  6
Continuous
 62
     3
370
     9
100
AcDbLine
 10
563.7874704994493
 20
1060.911788604303
 30
0.0
 11
581.7878977455433
 21
1060.911788604303
 31
0.0
  0
LINE
  5
33E
330
1F
100
AcDbEntity
  8
C-2
  6
Continuous
 62
     3
370
     9
100
AcDbLine
 10
607.7871042885118
 20
991.4113766169982
 30
0.0
 11
607.7871042885118
 21
1233.411483428522
 31
0.0
  0
LINE
  5
33F
330
1F
100
AcDbEntity
  8
C-2
  6
Continuous
 62
     3
370
     9
100
AcDbLine
 10
603.7877146400746
 20
991.4113766169982
 30
0.0
 11
603.7877146400746
 21
1233.411483428522
 31
0.0
  0
LINE
  5
340
330
1F
100
AcDbEntity
  8
C-2
  6
Continuous
 62
     3
370
     9
100
AcDbLine
 10
585.7872873939806
 20
1160.911758086725
 30
0.0
 11
603.7877146400746
 21
1160.911758086725
 31
0.0
  0
LINE
  5
341
330
1F
100
AcDbEntity
  8
C-2
  6
Continuous
 62
     3
370
     9
100
AcDbLine
 10
585.7872873939806
 20
1163.911330840631
 30
0.0
 11
603.7877146400746
 21
1163.911330840631
 31
0.0
  0
LINE
  5
342
330
1F
100
AcDbEntity
  8
C-2
  6
Continuous
 62
     3
370
     9
100
AcDbLine
 10
585.7872873939806
 20
1063.911849639459
 30
0.0
 11
603.7877146400746
 21
1063.911849639459
 31
0.0
  0
LINE
  5
343
330
1F
100
AcDbEntity
  8
C-2
  6
Continuous
 62
     3
370
     9
100
AcDbLine
 10
585.7872873939806
 20
1060.911788604303
 30
0.0
 11
603.7877146400746
 21
1060.911788604303
 31
0.0
  0
LINE
  5
344
330
1F
100
AcDbEntity
  8
C-2
  6
Continuous
 62
     3
370
     9
100
AcDbLine
 10
607.7871042885118
 20
1160.911758086725
 30
0.0
 11
625.7874704994495
 21
1160.911758086725
 31
0.0
  0
LINE
  5
345
330
1F
100
AcDbEntity
  8
C-2
  6
Continuous
 62
     3
370
     9
100
AcDbLine
 10
607.7871042885118
 20
1163.911330840631
 30
0.0
 11
625.7874704994495
 21
1163.911330840631
 31
0.0
  0
LINE
  5
346
330
1F
100
AcDbEntity
  8
C-2
  6
Continuous
 62
     3
370
     9
100
AcDbLine
 10
607.7871042885118
 20
1063.911849639459
 30
0.0
 11
625.7874704994495
 21
1063.911849639459
 31
0.0
  0
LINE
  5
347
330
1F
100
AcDbEntity
  8
C-2
  6
Continuous
 62
     3
370
     9
100
AcDbLine
 10
607.7871042885118
 20
1060.911788604303
 30
0.0
 11
625.7874704994495
 21
1060.911788604303
 31
0.0
  0
LINE
  5
348
330
1F
100
AcDbEntity
  8
C-4
  6
Continuous
 62
     7
370
     9
100
AcDbLine
 10
495.7883860267933
 20
1272.412307403131
 30
0.0
 11
517.7876536049183
 21
1272.412307403131
 31
0.0
  0
LINE
  5
349
330
1F
100
AcDbEntity
  8
C-4
  6
Continuous
 62
     7
370
     9
100
AcDbLine
 10
495.7883860267933
 20
1229.412032744928
 30
0.0
 11
495.7883860267933
 21
1275.412368438288
 31
0.0
  0
LINE
  5
34A
330
1F
100
AcDbEntity
  8
C-4
  6
Continuous
 62
     7
370
     9
100
AcDbLine
 10
517.7876536049183
 20
1229.412032744928
 30
0.0
 11
517.7876536049183
 21
1275.412368438288
 31
0.0
  0
LWPOLYLINE
  5
34B
330
1F
100
AcDbEntity
  8
C-4
  6
Continuous
 62
     7
370
     9
100
AcDbPolyline
 90
        4
 70
     1
 43
2.0
 10
496.7883860267933
 20
1272.412307403131
 42
0.4142135623731
 10
495.7883860267933
 20
1273.412307403131
 42
0.4142135623731
 10
494.7883860267933
 20
1272.412307403131
 42
0.4142135623731
 10
495.7883860267933
 20
1271.412307403132
 42
0.4142135623731
  0
LWPOLYLINE
  5
34C
330
1F
100
AcDbEntity
  8
C-4
  6
Continuous
 62
     7
370
     9
100
AcDbPolyline
 90
        4
 70
     1
 43
2.0
 10
518.7876536049183
 20
1272.412307403131
 42
0.4142135623731
 10
517.7876536049183
 20
1273.412307403131
 42
0.4142135623731
 10
516.7876536049183
 20
1272.412307403131
 42
0.4142135623731
 10
517.7876536049183
 20
1271.412307403132
 42
0.4142135623731
  0
TEXT
  5
34D
330
1F
100
AcDbEntity
  8
C-4
  6
Continuous
 62
     2
370
     9
100
AcDbText
 10
485.5381418861683
 20
1283.052307403131
 30
0.0
 40
30.48
  1
22
 41
1.0625
  7
ＭＳ ゴシック
100
AcDbText
  0
TEXT
  5
34E
330
1F
100
AcDbEntity
  8
D-5
  6
Continuous
 62
     2
370
     9
100
AcDbText
 10
1089.471692796875
 20
-722.8897784210642
 30
0.0
 40
30.48
  1
定尺：２０００
 50
359.9999576969039
 41
1.107142857142858
  7
ＭＳ ゴシック
100
AcDbText
  0
TEXT
  5
34F
330
1F
100
AcDbEntity
  8
D-5
  6
Continuous
 62
     2
370
     9
100
AcDbText
 10
1089.471688632703
 20
-667.8900073028987
 30
0.0
 40
30.48
  1
材質：ステンレス鋼板ｔ＝３．０（ＳＵＳ３０４）
 41
1.119565217391304
  7
ＭＳ ゴシック
100
AcDbText
  0
TEXT
  5
350
330
1F
100
AcDbEntity
  8
D-5
  6
Continuous
 62
     2
370
     9
100
AcDbText
 10
1029.759545688368
 20
-612.8897402740902
 30
0.0
 40
30.48
  1
ステンレス製受枠　ＳＬ－２０Ｃ－Ｕ１８
 41
1.118421052631579
  7
ＭＳ ゴシック
100
AcDbText
  0
TEXT
  5
351
330
1F
100
AcDbEntity
  8
D-5
  6
Continuous
 62
     7
370
     9
100
AcDbText
 10
374.8281302905776
 20
208.5744510149399
 30
0.0
 40
22.86
  1
ステンレス製グレーチング
 50
0.0001797882051889
 41
1.152777777777779
  7
ＭＳ ゴシック
100
AcDbText
  0
TEXT
  5
352
330
1F
100
AcDbEntity
  8
D-5
  6
Continuous
 62
     2
370
     9
100
AcDbText
 10
1029.759545688368
 20
-315.4014957239367
 30
0.0
 40
30.48
  1
材質：メインバー　ＦＢ４×２０（ＳＵＳ３０４）
 41
1.119565217391304
  7
ＭＳ ゴシック
100
AcDbText
  0
TEXT
  5
353
330
1F
100
AcDbEntity
  8
D-5
  6
Continuous
 62
     2
370
     9
100
AcDbText
 10
1029.759545688368
 20
-370.4018199732043
 30
0.0
 40
30.48
  1
　　　クロスバー　ＦＢ３×１５（ＳＵＳ３０４）
 41
1.119565217391304
  7
ＭＳ ゴシック
100
AcDbText
  0
TEXT
  5
354
330
1F
100
AcDbEntity
  8
D-5
  6
Continuous
 62
     2
370
     9
100
AcDbText
 10
1029.759545688368
 20
-425.4018199732043
 30
0.0
 40
30.48
  1
　　　サイドバー　ＦＢ４×２０（ＳＵＳ３０４）
 41
1.119565217391304
  7
ＭＳ ゴシック
100
AcDbText
  0
TEXT
  5
355
330
1F
100
AcDbEntity
  8
D-5
  6
Continuous
 62
     2
370
     9
100
AcDbText
 10
1029.759545688368
 20
-480.4018199732043
 30
0.0
 40
30.48
  1
定尺：９９４
 41
1.104166666666667
  7
ＭＳ ゴシック
100
AcDbText
  0
TEXT
  5
356
330
1F
100
AcDbEntity
  8
D-5
  6
Continuous
 62
     7
370
     9
100
AcDbText
 10
374.8281253229907
 20
134.4691882585737
 30
0.0
 40
22.86
  1
ＳＭＧ（Ｐ＝２２）
 50
0.000247074669
 41
1.148148148148149
  7
ＭＳ ゴシック
100
AcDbText
  0
TEXT
  5
357
330
1F
100
AcDbEntity
  8
D-5
  6
Continuous
 62
     2
370
     9
100
AcDbText
 10
970.0478605077035
 20
-260.2476774149328
 30
0.0
 40
30.48
  1
ＳＭＧ　１２５２０（Ｐ＝２２）
 41
1.116666666666666
  7
ＭＳ ゴシック
100
AcDbText
  0
TEXT
  5
358
330
1F
100
AcDbEntity
  8
D-5
  6
Continuous
 62
     7
370
     9
100
AcDbText
 10
374.8281385091742
 20
171.1076007341959
 30
0.0
 40
22.86
  1
プレーンタイプ　側溝用
 50
0.00006846648085
 41
1.151515151515152
  7
ＭＳ ゴシック
100
AcDbText
  0
TEXT
  5
359
330
1F
100
AcDbEntity
  8
D-5
  6
Continuous
 62
     7
370
     9
100
AcDbText
 10
388.7070377710257
 20
59.86388735041847
 30
0.0
 40
22.86
  1
Ｕ字溝用固定金具付
 50
359.9999294948105
 41
1.148148148148148
  7
ＭＳ ゴシック
100
AcDbText
  0
TEXT
  5
35A
330
1F
100
AcDbEntity
  8
D-5
  6
Continuous
 62
     2
370
     9
100
AcDbText
 10
1029.759545688368
 20
-561.5882037140315
 30
0.0
 40
30.48
  1
Ｕ字溝用固定金具付
 41
1.111111111111111
  7
ＭＳ ゴシック
100
AcDbText
  0
TEXT
  5
35B
330
1F
100
AcDbEntity
  8
D-5
  6
Continuous
 62
     2
370
     9
100
AcDbText
 10
970.0478605077035
 20
-204.5090601898615
 30
0.0
 40
30.48
  1
ステンレス製グレーチング　プレーンタイプ　側溝用
 41
1.119791666666667
  7
ＭＳ ゴシック
100
AcDbText
  0
LINE
  5
35C
330
1F
100
AcDbEntity
  8
D-5
  6
Continuous
 62
     7
370
     9
100
AcDbLine
 10
372.4211744934439
 20
126.7186041521678
 30
0.0
 11
796.1085713477995
 21
126.7186041521678
 31
0.0
  0
TEXT
  5
35D
330
1F
100
AcDbEntity
  8
D-5
  6
Continuous
 62
     3
370
     9
100
AcDbText
 10
1142.957482700086
 20
-145.1787377716486
 30
0.0
 40
38.1
  1
※適用荷重：Ｔ－２
 41
1.088888888888889
  7
ＭＳ ゴシック
100
AcDbText
  0
TEXT
  5
35E
330
1F
100
AcDbEntity
  8
D-5
  6
Continuous
 62
     7
370
     9
100
AcDbText
 10
583.23671853993
 20
-668.7739224029963
 30
0.0
 40
22.86
  1
固定金具：ＦＢ４×３２
 41
1.151515151515152
  7
ＭＳ ゴシック
100
AcDbText
  0
ENDSEC
  0
SECTION
  2
OBJECTS
  0
DICTIONARY
  5
C
330
0
100
AcDbDictionary
281
     1
  3
ACAD_DETAILVIEWSTYLE
350
3A4
  3
ACAD_GROUP
350
D
  3
ACAD_LAYOUT
350
1A
  3
ACAD_MATERIAL
350
43
  3
ACAD_MLEADERSTYLE
350
6B
  3
ACAD_MLINESTYLE
350
17
  3
ACAD_PLOTSETTINGS
350
19
  3
ACAD_PLOTSTYLENAME
350
E
  3
ACAD_SCALELIST
350
47
  3
ACAD_SECTIONVIEWSTYLE
350
3A5
  3
ACAD_TABLESTYLE
350
69
  3
ACAD_VISUALSTYLE
350
2A
  3
ACDB_RECOMPOSE_DATA
350
3A1
  3
AcDbVariableDictionary
350
361
  0
DICTIONARY
  5
35F
330
8
100
AcDbDictionary
280
     1
281
     1
  3
ACAD_XREC_ROUNDTRIP
360
360
  0
DICTIONARY
  5
3A4
102
{ACAD_REACTORS
330
C
102
}
330
C
100
AcDbDictionary
281
     1
  0
DICTIONARY
  5
D
102
{ACAD_REACTORS
330
C
102
}
330
C
100
AcDbDictionary
281
     1
  0
DICTIONARY
  5
1A
102
{ACAD_REACTORS
330
C
102
}
330
C
100
AcDbDictionary
281
     1
  3
Layout1
350
1E
  3
Layout2
350
26
  3
Model
350
22
  0
DICTIONARY
  5
43
102
{ACAD_REACTORS
330
C
102
}
330
C
100
AcDbDictionary
281
     1
  3
ByBlock
350
45
  3
ByLayer
350
44
  3
Global
350
46
  0
DICTIONARY
  5
6B
102
{ACAD_REACTORS
330
C
102
}
330
C
100
AcDbDictionary
281
     1
  3
Standard
350
6C
  0
DICTIONARY
  5
17
102
{ACAD_REACTORS
330
C
102
}
330
C
100
AcDbDictionary
281
     1
  3
Standard
350
18
  0
DICTIONARY
  5
19
102
{ACAD_REACTORS
330
C
102
}
330
C
100
AcDbDictionary
281
     1
  0
ACDBDICTIONARYWDFLT
  5
E
102
{ACAD_REACTORS
330
C
102
}
330
C
100
AcDbDictionary
281
     1
  3
Normal
350
F
100
AcDbDictionaryWithDefault
340
F
  0
DICTIONARY
  5
47
102
{ACAD_REACTORS
330
C
102
}
330
C
100
AcDbDictionary
281
     1
  3
A0
350
48
  3
A1
350
49
  3
A2
350
4A
  3
A3
350
4B
  3
A4
350
4C
  3
A5
350
4D
  3
A6
350
4E
  3
A7
350
4F
  3
A8
350
50
  3
A9
350
51
  3
B0
350
52
  3
B1
350
53
  3
B2
350
54
  3
B3
350
55
  3
B4
350
56
  3
B5
350
57
  3
B6
350
58
  3
B7
350
59
  3
B8
350
5A
  3
B9
350
5B
  3
C0
350
5C
  3
C1
350
5D
  3
C2
350
5E
  3
C3
350
5F
  3
C4
350
60
  3
C5
350
61
  3
C6
350
62
  3
C7
350
63
  3
C8
350
64
  3
C9
350
65
  3
D0
350
66
  3
D1
350
67
  3
D2
350
68
  0
DICTIONARY
  5
3A5
102
{ACAD_REACTORS
330
C
102
}
330
C
100
AcDbDictionary
281
     1
  0
DICTIONARY
  5
69
102
{ACAD_REACTORS
330
C
102
}
330
C
100
AcDbDictionary
281
     1
  3
Standard
350
6A
  0
DICTIONARY
  5
2A
102
{ACAD_REACTORS
330
C
102
}
330
C
100
AcDbDictionary
281
     1
  3
2dWireframe
350
2F
  3
Basic
350
32
  3
Brighten
350
36
  3
ColorChange
350
3A
  3
Conceptual
350
34
  3
Dim
350
35
  3
EdgeColorOff
350
3D
  3
Facepattern
350
39
  3
Flat
350
2B
  3
FlatWithEdges
350
2C
  3
Gouraud
350
2D
  3
GouraudWithEdges
350
2E
  3
Hidden
350
31
  3
JitterOff
350
3B
  3
Linepattern
350
38
  3
OverhangOff
350
3C
  3
Realistic
350
33
  3
Shaded
350
42
  3
Shaded with edges
350
41
  3
Shades of Gray
350
3E
  3
Sketchy
350
3F
  3
Thicken
350
37
  3
Wireframe
350
30
  3
X-Ray
350
40
  0
XRECORD
  5
3A1
102
{ACAD_REACTORS
330
C
102
}
330
C
100
AcDbXrecord
280
     1
 90
        1
330
6A
  0
DICTIONARY
  5
361
102
{ACAD_REACTORS
330
C
102
}
330
C
100
AcDbDictionary
281
     1
  3
CANNOSCALE
350
362
  3
CENTEREXE
350
3A6
  3
CENTERLTYPEFILE
350
3A7
  3
CMLEADERSTYLE
350
3A3
  3
CTABLESTYLE
350
3A2
  3
MSLTSCALE
350
363
  3
XCLIPFRAME
350
364
  0
XRECORD
  5
360
102
{ACAD_REACTORS
330
35F
102
}
330
35F
100
AcDbXrecord
280
     1
102
VTR_0.000_0.000_1.000_1.000_VISUALSTYLE
340
2F
102
VTR_0.000_0.000_1.000_1.000_GRIDDISPLAY
 70
     3
102
VTR_0.000_0.000_1.000_1.000_GRIDMAJOR
 70
     5
102
VTR_0.000_0.000_1.000_1.000_DEFAULTLIGHTING
280
     1
102
VTR_0.000_0.000_1.000_1.000_DEFAULTLIGHTINGTYPE
 70
     1
102
VTR_0.000_0.000_1.000_1.000_BRIGHTNESS
141
0.0
102
VTR_0.000_0.000_1.000_1.000_CONTRAST
142
0.0
  0
LAYOUT
  5
1E
102
{ACAD_REACTORS
330
1A
102
}
330
1A
100
AcDbPlotSettings
  1

  2
none_device
  4

  6

 40
0.0
 41
0.0
 42
0.0
 43
0.0
 44
0.0
 45
0.0
 46
0.0
 47
0.0
 48
0.0
 49
0.0
140
0.0
141
0.0
142
1.0
143
1.0
 70
   688
 72
     1
 73
     0
 74
     5
  7

 75
    16
 76
     0
 77
     5
 78
   300
147
1.0
148
0.0
149
0.0
100
AcDbLayout
  1
Layout1
 70
     1
 71
     1
 10
0.0
 20
0.0
 11
420.0
 21
297.0
 12
0.0
 22
0.0
 32
0.0
 14
1.000000000000000E+20
 24
1.000000000000000E+20
 34
1.000000000000000E+20
 15
-1.000000000000000E+20
 25
-1.000000000000000E+20
 35
-1.000000000000000E+20
146
0.0
 13
0.0
 23
0.0
 33
0.0
 16
1.0
 26
0.0
 36
0.0
 17
0.0
 27
1.0
 37
0.0
 76
     0
330
1B
  0
LAYOUT
  5
26
102
{ACAD_REACTORS
330
1A
102
}
330
1A
100
AcDbPlotSettings
  1

  2
none_device
  4

  6

 40
0.0
 41
0.0
 42
0.0
 43
0.0
 44
0.0
 45
0.0
 46
0.0
 47
0.0
 48
0.0
 49
0.0
140
0.0
141
0.0
142
1.0
143
1.0
 70
   688
 72
     1
 73
     0
 74
     5
  7

 75
    16
 76
     0
 77
     5
 78
   300
147
1.0
148
0.0
149
0.0
100
AcDbLayout
  1
Layout2
 70
     1
 71
     2
 10
0.0
 20
0.0
 11
0.0
 21
0.0
 12
0.0
 22
0.0
 32
0.0
 14
0.0
 24
0.0
 34
0.0
 15
0.0
 25
0.0
 35
0.0
146
0.0
 13
0.0
 23
0.0
 33
0.0
 16
1.0
 26
0.0
 36
0.0
 17
0.0
 27
1.0
 37
0.0
 76
     0
330
23
  0
LAYOUT
  5
22
102
{ACAD_REACTORS
330
1A
102
}
330
1A
100
AcDbPlotSettings
  1

  2
none_device
  4
Letter_(8.50_x_11.00_Inches)
  6

 40
6.35
 41
6.35
 42
6.35000508
 43
6.35000508
 44
215.9
 45
279.4
 46
0.0
 47
0.0
 48
0.0
 49
0.0
140
0.0
141
0.0
142
1.0
143
1.0
 70
  1712
 72
     1
 73
     0
 74
     0
  7

 75
     0
 76
     0
 77
     5
 78
   300
147
1.0
148
0.0
149
0.0
100
AcDbLayout
  1
Model
 70
     1
 71
     0
 10
-2970.0
 20
-2100.0
 11
2970.0
 21
2100.0
 12
0.0
 22
0.0
 32
0.0
 14
-2970.0
 24
-2100.0
 34
0.0
 15
2970.0
 25
2100.0
 35
0.0
146
0.0
 13
0.0
 23
0.0
 33
0.0
 16
1.0
 26
0.0
 36
0.0
 17
0.0
 27
1.0
 37
0.0
 76
     0
330
1F
331
29
  0
MATERIAL
  5
45
102
{ACAD_REACTORS
330
43
102
}
102
{ACAD_XDICTIONARY
360
397
102
}
330
43
100
AcDbMaterial
  1
ByBlock
  0
MATERIAL
  5
44
102
{ACAD_REACTORS
330
43
102
}
102
{ACAD_XDICTIONARY
360
395
102
}
330
43
100
AcDbMaterial
  1
ByLayer
  0
MATERIAL
  5
46
102
{ACAD_REACTORS
330
43
102
}
102
{ACAD_XDICTIONARY
360
399
102
}
330
43
100
AcDbMaterial
  1
Global
  0
MLEADERSTYLE
  5
6C
102
{ACAD_REACTORS
330
6B
102
}
102
{ACAD_XDICTIONARY
360
39F
102
}
330
6B
100
AcDbMLeaderStyle
170
     2
171
     1
172
     0
 90
        2
 40
0.0
 41
0.0
173
     1
 91
-1056964608
340
14
 92
       -2
290
     1
 42
2.0
291
     1
 43
8.0
  3
Standard
341
0
 44
4.0
300

342
11
174
     1
178
     6
175
     1
176
     0
 93
-1056964608
 45
4.0
292
     0
297
     0
 46
4.0
343
0
 94
-1056964608
 47
1.0
 49
1.0
140
1.0
293
     1
141
0.0
294
     1
177
     0
142
1.0
295
     0
296
     0
143
3.75
1001
ACAD_MLEADERVER
1070
     2
  0
MLINESTYLE
  5
18
102
{ACAD_REACTORS
330
17
102
}
330
17
100
AcDbMlineStyle
  2
Standard
 70
     0
  3

 62
   256
 51
90.0
 52
90.0
 71
     2
 49
0.5
 62
   256
  6
BYLAYER
 49
-0.5
 62
   256
  6
BYLAYER
  0
ACDBPLACEHOLDER
  5
F
102
{ACAD_REACTORS
330
E
102
}
330
E
  0
SCALE
  5
48
102
{ACAD_REACTORS
330
47
102
}
330
47
100
AcDbScale
 70
     0
300
1:1
140
1.0
141
1.0
290
     1
  0
SCALE
  5
49
102
{ACAD_REACTORS
330
47
102
}
330
47
100
AcDbScale
 70
     0
300
1:2
140
1.0
141
2.0
290
     0
  0
SCALE
  5
4A
102
{ACAD_REACTORS
330
47
102
}
330
47
100
AcDbScale
 70
     0
300
1:4
140
1.0
141
4.0
290
     0
  0
SCALE
  5
4B
102
{ACAD_REACTORS
330
47
102
}
330
47
100
AcDbScale
 70
     0
300
1:5
140
1.0
141
5.0
290
     0
  0
SCALE
  5
4C
102
{ACAD_REACTORS
330
47
102
}
330
47
100
AcDbScale
 70
     0
300
1:8
140
1.0
141
8.0
290
     0
  0
SCALE
  5
4D
102
{ACAD_REACTORS
330
47
102
}
330
47
100
AcDbScale
 70
     0
300
1:10
140
1.0
141
10.0
290
     0
  0
SCALE
  5
4E
102
{ACAD_REACTORS
330
47
102
}
330
47
100
AcDbScale
 70
     0
300
1:16
140
1.0
141
16.0
290
     0
  0
SCALE
  5
4F
102
{ACAD_REACTORS
330
47
102
}
330
47
100
AcDbScale
 70
     0
300
1:20
140
1.0
141
20.0
290
     0
  0
SCALE
  5
50
102
{ACAD_REACTORS
330
47
102
}
330
47
100
AcDbScale
 70
     0
300
1:30
140
1.0
141
30.0
290
     0
  0
SCALE
  5
51
102
{ACAD_REACTORS
330
47
102
}
330
47
100
AcDbScale
 70
     0
300
1:40
140
1.0
141
40.0
290
     0
  0
SCALE
  5
52
102
{ACAD_REACTORS
330
47
102
}
330
47
100
AcDbScale
 70
     0
300
1:50
140
1.0
141
50.0
290
     0
  0
SCALE
  5
53
102
{ACAD_REACTORS
330
47
102
}
330
47
100
AcDbScale
 70
     0
300
1:100
140
1.0
141
100.0
290
     0
  0
SCALE
  5
54
102
{ACAD_REACTORS
330
47
102
}
330
47
100
AcDbScale
 70
     0
300
2:1
140
2.0
141
1.0
290
     0
  0
SCALE
  5
55
102
{ACAD_REACTORS
330
47
102
}
330
47
100
AcDbScale
 70
     0
300
4:1
140
4.0
141
1.0
290
     0
  0
SCALE
  5
56
102
{ACAD_REACTORS
330
47
102
}
330
47
100
AcDbScale
 70
     0
300
8:1
140
8.0
141
1.0
290
     0
  0
SCALE
  5
57
102
{ACAD_REACTORS
330
47
102
}
330
47
100
AcDbScale
 70
     0
300
10:1
140
10.0
141
1.0
290
     0
  0
SCALE
  5
58
102
{ACAD_REACTORS
330
47
102
}
330
47
100
AcDbScale
 70
     0
300
100:1
140
100.0
141
1.0
290
     0
  0
SCALE
  5
59
102
{ACAD_REACTORS
330
47
102
}
330
47
100
AcDbScale
 70
     0
300
1/128" = 1'-0"
140
0.0078125
141
12.0
290
     0
  0
SCALE
  5
5A
102
{ACAD_REACTORS
330
47
102
}
330
47
100
AcDbScale
 70
     0
300
1/64" = 1'-0"
140
0.015625
141
12.0
290
     0
  0
SCALE
  5
5B
102
{ACAD_REACTORS
330
47
102
}
330
47
100
AcDbScale
 70
     0
300
1/32" = 1'-0"
140
0.03125
141
12.0
290
     0
  0
SCALE
  5
5C
102
{ACAD_REACTORS
330
47
102
}
330
47
100
AcDbScale
 70
     0
300
1/16" = 1'-0"
140
0.0625
141
12.0
290
     0
  0
SCALE
  5
5D
102
{ACAD_REACTORS
330
47
102
}
330
47
100
AcDbScale
 70
     0
300
3/32" = 1'-0"
140
0.09375
141
12.0
290
     0
  0
SCALE
  5
5E
102
{ACAD_REACTORS
330
47
102
}
330
47
100
AcDbScale
 70
     0
300
1/8" = 1'-0"
140
0.125
141
12.0
290
     0
  0
SCALE
  5
5F
102
{ACAD_REACTORS
330
47
102
}
330
47
100
AcDbScale
 70
     0
300
3/16" = 1'-0"
140
0.1875
141
12.0
290
     0
  0
SCALE
  5
60
102
{ACAD_REACTORS
330
47
102
}
330
47
100
AcDbScale
 70
     0
300
1/4" = 1'-0"
140
0.25
141
12.0
290
     0
  0
SCALE
  5
61
102
{ACAD_REACTORS
330
47
102
}
330
47
100
AcDbScale
 70
     0
300
3/8" = 1'-0"
140
0.375
141
12.0
290
     0
  0
SCALE
  5
62
102
{ACAD_REACTORS
330
47
102
}
330
47
100
AcDbScale
 70
     0
300
1/2" = 1'-0"
140
0.5
141
12.0
290
     0
  0
SCALE
  5
63
102
{ACAD_REACTORS
330
47
102
}
330
47
100
AcDbScale
 70
     0
300
3/4" = 1'-0"
140
0.75
141
12.0
290
     0
  0
SCALE
  5
64
102
{ACAD_REACTORS
330
47
102
}
330
47
100
AcDbScale
 70
     0
300
1" = 1'-0"
140
1.0
141
12.0
290
     0
  0
SCALE
  5
65
102
{ACAD_REACTORS
330
47
102
}
330
47
100
AcDbScale
 70
     0
300
1-1/2" = 1'-0"
140
1.5
141
12.0
290
     0
  0
SCALE
  5
66
102
{ACAD_REACTORS
330
47
102
}
330
47
100
AcDbScale
 70
     0
300
3" = 1'-0"
140
3.0
141
12.0
290
     0
  0
SCALE
  5
67
102
{ACAD_REACTORS
330
47
102
}
330
47
100
AcDbScale
 70
     0
300
6" = 1'-0"
140
6.0
141
12.0
290
     0
  0
SCALE
  5
68
102
{ACAD_REACTORS
330
47
102
}
330
47
100
AcDbScale
 70
     0
300
1'-0" = 1'-0"
140
12.0
141
12.0
290
     0
  0
TABLESTYLE
  5
6A
102
{ACAD_REACTORS
330
69
102
}
102
{ACAD_XDICTIONARY
360
39B
102
}
330
69
100
AcDbTableStyle
  3
Standard
 70
     0
 71
     0
 40
0.06
 41
0.06
280
     0
281
     0
  7
Standard
140
4.5
170
     2
 62
     0
 63
   257
283
     0
274
    -2
284
     1
 64
     0
275
    -2
285
     1
 65
     0
276
    -2
286
     1
 66
     0
277
    -2
287
     1
 67
     0
278
    -2
288
     1
 68
     0
279
    -2
289
     1
 69
     0
  7
Standard
140
6.0
170
     5
 62
     0
 63
   257
283
     0
274
    -2
284
     1
 64
     0
275
    -2
285
     1
 65
     0
276
    -2
286
     1
 66
     0
277
    -2
287
     1
 67
     0
278
    -2
288
     1
 68
     0
279
    -2
289
     1
 69
     0
  7
Standard
140
4.5
170
     5
 62
     0
 63
   257
283
     0
274
    -2
284
     1
 64
     0
275
    -2
285
     1
 65
     0
276
    -2
286
     1
 66
     0
277
    -2
287
     1
 67
     0
278
    -2
288
     1
 68
     0
279
    -2
289
     1
 69
     0
  0
VISUALSTYLE
  5
2F
102
{ACAD_REACTORS
330
2A
102
}
102
{ACAD_XDICTIONARY
360
36D
102
}
330
2A
100
AcDbVisualStyle
  2
2dWireframe
 70
     4
 71
     0
 72
     2
 73
     0
 90
        0
 40
0.6
 41
30.0
 62
     5
 63
     7
421
 16777215
 74
     1
 91
        4
 64
     7
 65
   257
 75
     1
175
     1
 42
1.0
 92
        0
 66
   257
 43
1.0
 76
     1
 77
     6
 78
     2
 67
     7
 79
     5
170
     0
171
     0
290
     0
174
     0
 93
        1
 44
0.0
173
     0
291
     0
 45
0.0
1001
ACAD
1000
AcDbSavedByObjectVersion
1070
     0
  0
VISUALSTYLE
  5
32
102
{ACAD_REACTORS
330
2A
102
}
102
{ACAD_XDICTIONARY
360
373
102
}
330
2A
100
AcDbVisualStyle
  2
Basic
 70
     7
 71
     1
 72
     0
 73
     1
 90
        0
 40
0.6
 41
30.0
 62
     5
 63
     7
421
 16777215
 74
     0
 91
        4
 64
     7
 65
   257
 75
     1
175
     1
 42
1.0
 92
        8
 66
     7
 43
1.0
 76
     1
 77
     6
 78
     2
 67
     7
 79
     5
170
     0
171
     0
290
     0
174
     0
 93
        1
 44
0.0
173
     0
291
     1
 45
0.0
1001
ACAD
1000
AcDbSavedByObjectVersion
1070
     0
  0
VISUALSTYLE
  5
36
102
{ACAD_REACTORS
330
2A
102
}
102
{ACAD_XDICTIONARY
360
37B
102
}
330
2A
100
AcDbVisualStyle
  2
Brighten
 70
    12
 71
     2
 72
     2
 73
     0
 90
        0
 40
0.6
 41
30.0
 62
     5
 63
     7
421
 16777215
 74
     1
 91
        4
 64
     7
 65
   257
 75
     1
175
     1
 42
1.0
 92
        8
 66
     7
 43
1.0
 76
     1
 77
     6
 78
     2
 67
     7
 79
     5
170
     0
171
     0
290
     0
174
     0
 93
        1
 44
50.0
173
     0
291
     1
 45
0.0
1001
ACAD
1000
AcDbSavedByObjectVersion
1070
     0
  0
VISUALSTYLE
  5
3A
102
{ACAD_REACTORS
330
2A
102
}
102
{ACAD_XDICTIONARY
360
383
102
}
330
2A
100
AcDbVisualStyle
  2
ColorChange
 70
    16
 71
     2
 72
     2
 73
     3
 90
        0
 40
0.6
 41
30.0
 62
     5
 63
     8
421
  8421504
 74
     1
 91
        4
 64
     7
 65
   257
 75
     1
175
     1
 42
1.0
 92
        8
 66
     8
424
  8421504
 43
1.0
 76
     1
 77
     6
 78
     2
 67
     7
 79
     5
170
     0
171
     0
290
     0
174
     0
 93
        1
 44
0.0
173
     0
291
     1
 45
0.0
1001
ACAD
1000
AcDbSavedByObjectVersion
1070
     0
  0
VISUALSTYLE
  5
34
102
{ACAD_REACTORS
330
2A
102
}
102
{ACAD_XDICTIONARY
360
377
102
}
330
2A
100
AcDbVisualStyle
  2
Conceptual
 70
     9
 71
     3
 72
     2
 73
     0
 90
        0
 40
0.6
 41
30.0
 62
     5
 63
     7
421
 16777215
 74
     2
 91
        2
 64
     7
 65
   257
 75
     1
175
     1
 42
179.0
 92
        8
 66
     7
 43
1.0
 76
     1
 77
     6
 78
     2
 67
     7
 79
     3
170
     0
171
     0
290
     0
174
     0
 93
        1
 44
0.0
173
     0
291
     0
 45
0.0
1001
ACAD
1000
AcDbSavedByObjectVersion
1070
     0
  0
VISUALSTYLE
  5
35
102
{ACAD_REACTORS
330
2A
102
}
102
{ACAD_XDICTIONARY
360
379
102
}
330
2A
100
AcDbVisualStyle
  2
Dim
 70
    11
 71
     2
 72
     2
 73
     0
 90
        0
 40
0.6
 41
30.0
 62
     5
 63
     7
421
 16777215
 74
     1
 91
        4
 64
     7
 65
   257
 75
     1
175
     1
 42
1.0
 92
        8
 66
     7
 43
1.0
 76
     1
 77
     6
 78
     2
 67
     7
 79
     5
170
     0
171
     0
290
     0
174
     0
 93
        1
 44
-50.0
173
     0
291
     1
 45
0.0
1001
ACAD
1000
AcDbSavedByObjectVersion
1070
     0
  0
VISUALSTYLE
  5
3D
102
{ACAD_REACTORS
330
2A
102
}
102
{ACAD_XDICTIONARY
360
389
102
}
330
2A
100
AcDbVisualStyle
  2
EdgeColorOff
 70
    22
 71
     2
 72
     2
 73
     0
 90
        0
 40
0.6
 41
30.0
 62
     5
 63
     7
421
 16777215
 74
     1
 91
        4
 64
     7
 65
   257
 75
     1
175
     1
 42
1.0
 92
        8
 66
     7
 43
1.0
 76
     1
 77
     6
 78
     2
 67
     7
 79
     5
170
     0
171
     0
290
     0
174
     0
 93
        1
 44
0.0
173
     0
291
     1
 45
0.0
1001
ACAD
1000
AcDbSavedByObjectVersion
1070
     0
  0
VISUALSTYLE
  5
39
102
{ACAD_REACTORS
330
2A
102
}
102
{ACAD_XDICTIONARY
360
381
102
}
330
2A
100
AcDbVisualStyle
  2
Facepattern
 70
    15
 71
     2
 72
     2
 73
     0
 90
        0
 40
0.6
 41
30.0
 62
     5
 63
     7
421
 16777215
 74
     1
 91
        4
 64
     7
 65
   257
 75
     1
175
     1
 42
1.0
 92
        8
 66
     7
 43
1.0
 76
     1
 77
     6
 78
     2
 67
     7
 79
     5
170
     0
171
     0
290
     0
174
     0
 93
        1
 44
0.0
173
     0
291
     1
 45
0.0
1001
ACAD
1000
AcDbSavedByObjectVersion
1070
     0
  0
VISUALSTYLE
  5
2B
102
{ACAD_REACTORS
330
2A
102
}
102
{ACAD_XDICTIONARY
360
365
102
}
330
2A
100
AcDbVisualStyle
  2
Flat
 70
     0
 71
     2
 72
     1
 73
     1
 90
        2
 40
0.6
 41
30.0
 62
     5
 63
     7
421
 16777215
 74
     0
 91
        0
 64
     7
 65
   257
 75
     1
175
     1
 42
1.0
 92
        8
 66
     7
 43
1.0
 76
     1
 77
     6
 78
     2
 67
     7
 79
     5
170
     0
171
     0
290
     0
174
     0
 93
       13
 44
0.0
173
     0
291
     1
 45
0.0
1001
ACAD
1000
AcDbSavedByObjectVersion
1070
     0
  0
VISUALSTYLE
  5
2C
102
{ACAD_REACTORS
330
2A
102
}
102
{ACAD_XDICTIONARY
360
367
102
}
330
2A
100
AcDbVisualStyle
  2
FlatWithEdges
 70
     1
 71
     2
 72
     1
 73
     1
 90
        2
 40
0.6
 41
30.0
 62
     5
 63
     7
421
 16777215
 74
     1
 91
        0
 64
     7
 65
   257
 75
     1
175
     1
 42
1.0
 92
        0
 66
   257
 43
1.0
 76
     1
 77
     6
 78
     2
 67
     7
 79
     5
170
     0
171
     0
290
     0
174
     0
 93
       13
 44
0.0
173
     0
291
     1
 45
0.0
1001
ACAD
1000
AcDbSavedByObjectVersion
1070
     0
  0
VISUALSTYLE
  5
2D
102
{ACAD_REACTORS
330
2A
102
}
102
{ACAD_XDICTIONARY
360
369
102
}
330
2A
100
AcDbVisualStyle
  2
Gouraud
 70
     2
 71
     2
 72
     2
 73
     1
 90
        2
 40
0.6
 41
30.0
 62
     5
 63
     7
421
 16777215
 74
     0
 91
        0
 64
     7
 65
   257
 75
     1
175
     1
 42
1.0
 92
        0
 66
     7
 43
1.0
 76
     1
 77
     6
 78
     2
 67
     7
 79
     5
170
     0
171
     0
290
     0
174
     0
 93
       13
 44
0.0
173
     0
291
     1
 45
0.0
1001
ACAD
1000
AcDbSavedByObjectVersion
1070
     0
  0
VISUALSTYLE
  5
2E
102
{ACAD_REACTORS
330
2A
102
}
102
{ACAD_XDICTIONARY
360
36B
102
}
330
2A
100
AcDbVisualStyle
  2
GouraudWithEdges
 70
     3
 71
     2
 72
     2
 73
     1
 90
        2
 40
0.6
 41
30.0
 62
     5
 63
     7
421
 16777215
 74
     1
 91
        0
 64
     7
 65
   257
 75
     1
175
     1
 42
1.0
 92
        0
 66
   257
 43
1.0
 76
     1
 77
     6
 78
     2
 67
     7
 79
     5
170
     0
171
     0
290
     0
174
     0
 93
       13
 44
0.0
173
     0
291
     1
 45
0.0
1001
ACAD
1000
AcDbSavedByObjectVersion
1070
     0
  0
VISUALSTYLE
  5
31
102
{ACAD_REACTORS
330
2A
102
}
102
{ACAD_XDICTIONARY
360
371
102
}
330
2A
100
AcDbVisualStyle
  2
Hidden
 70
     6
 71
     1
 72
     2
 73
     2
 90
        0
 40
0.6
 41
30.0
 62
     5
 63
     7
421
 16777215
 74
     2
 91
        2
 64
     7
 65
   257
 75
     2
175
     1
 42
40.0
 92
        0
 66
   257
 43
1.0
 76
     1
 77
     6
 78
     2
 67
     7
 79
     3
170
     0
171
     0
290
     0
174
     0
 93
        1
 44
0.0
173
     0
291
     0
 45
0.0
1001
ACAD
1000
AcDbSavedByObjectVersion
1070
     0
  0
VISUALSTYLE
  5
3B
102
{ACAD_REACTORS
330
2A
102
}
102
{ACAD_XDICTIONARY
360
385
102
}
330
2A
100
AcDbVisualStyle
  2
JitterOff
 70
    20
 71
     2
 72
     2
 73
     0
 90
        0
 40
0.6
 41
30.0
 62
     5
 63
     7
421
 16777215
 74
     1
 91
        4
 64
     7
 65
   257
 75
     1
175
     1
 42
1.0
 92
       10
 66
     7
 43
1.0
 76
     1
 77
     6
 78
     2
 67
     7
 79
     5
170
     0
171
     0
290
     0
174
     0
 93
        1
 44
0.0
173
     0
291
     1
 45
0.0
1001
ACAD
1000
AcDbSavedByObjectVersion
1070
     0
  0
VISUALSTYLE
  5
38
102
{ACAD_REACTORS
330
2A
102
}
102
{ACAD_XDICTIONARY
360
37F
102
}
330
2A
100
AcDbVisualStyle
  2
Linepattern
 70
    14
 71
     2
 72
     2
 73
     0
 90
        0
 40
0.6
 41
30.0
 62
     5
 63
     7
421
 16777215
 74
     1
 91
        4
 64
     7
 65
   257
 75
     7
175
     7
 42
1.0
 92
        8
 66
     7
 43
1.0
 76
     1
 77
     6
 78
     2
 67
     7
 79
     5
170
     0
171
     0
290
     0
174
     0
 93
        1
 44
0.0
173
     0
291
     1
 45
0.0
1001
ACAD
1000
AcDbSavedByObjectVersion
1070
     0
  0
VISUALSTYLE
  5
3C
102
{ACAD_REACTORS
330
2A
102
}
102
{ACAD_XDICTIONARY
360
387
102
}
330
2A
100
AcDbVisualStyle
  2
OverhangOff
 70
    21
 71
     2
 72
     2
 73
     0
 90
        0
 40
0.6
 41
30.0
 62
     5
 63
     7
421
 16777215
 74
     1
 91
        4
 64
     7
 65
   257
 75
     1
175
     1
 42
1.0
 92
        9
 66
     7
 43
1.0
 76
     1
 77
     6
 78
     2
 67
     7
 79
     5
170
     0
171
     0
290
     0
174
     0
 93
        1
 44
0.0
173
     0
291
     1
 45
0.0
1001
ACAD
1000
AcDbSavedByObjectVersion
1070
     0
  0
VISUALSTYLE
  5
33
102
{ACAD_REACTORS
330
2A
102
}
102
{ACAD_XDICTIONARY
360
375
102
}
330
2A
100
AcDbVisualStyle
  2
Realistic
 70
     8
 71
     2
 72
     3
 73
     0
 90
        2
 40
0.6
 41
30.0
 62
     5
 63
     7
421
 16777215
 74
     0
 91
        0
 64
     7
 65
   257
 75
     1
175
     1
 42
1.0
 92
        8
 66
   257
 43
1.0
 76
     1
 77
     6
 78
     2
 67
     7
 79
     3
170
     0
171
     0
290
     0
174
     0
 93
       13
 44
0.0
173
     0
291
     0
 45
0.0
1001
ACAD
1000
AcDbSavedByObjectVersion
1070
     0
  0
VISUALSTYLE
  5
42
102
{ACAD_REACTORS
330
2A
102
}
102
{ACAD_XDICTIONARY
360
393
102
}
330
2A
100
AcDbVisualStyle
  2
Shaded
 70
    27
 71
     2
 72
     2
 73
     1
 90
        2
 40
0.6
 41
30.0
 62
     5
 63
     7
421
 16777215
 74
     0
 91
        4
 64
     7
 65
   257
 75
     1
175
     1
 42
1.0
 92
        8
 66
   257
 43
1.0
 76
     1
 77
     6
 78
     2
 67
     8
425
  7895160
 79
     3
170
     0
171
     0
290
     0
174
     0
 93
        5
 44
0.0
173
     0
291
     0
 45
0.0
1001
ACAD
1000
AcDbSavedByObjectVersion
1070
     0
  0
VISUALSTYLE
  5
41
102
{ACAD_REACTORS
330
2A
102
}
102
{ACAD_XDICTIONARY
360
391
102
}
330
2A
100
AcDbVisualStyle
  2
Shaded with edges
 70
    26
 71
     2
 72
     2
 73
     1
 90
        2
 40
0.6
 41
30.0
 62
     5
 63
     7
421
 16777215
 74
     1
 91
       10
 64
     7
 65
   257
 75
     2
175
     1
 42
1.0
 92
        8
 66
   257
 43
1.0
 76
     1
 77
     6
 78
     2
 67
     7
 79
     3
170
     0
171
     0
290
     0
174
     0
 93
        5
 44
0.0
173
     0
291
     0
 45
0.0
1001
ACAD
1000
AcDbSavedByObjectVersion
1070
     0
  0
VISUALSTYLE
  5
3E
102
{ACAD_REACTORS
330
2A
102
}
102
{ACAD_XDICTIONARY
360
38B
102
}
330
2A
100
AcDbVisualStyle
  2
Shades of Gray
 70
    23
 71
     2
 72
     2
 73
     3
 90
        0
 40
0.6
 41
30.0
 62
     5
 63
     7
421
 16777215
 74
     2
 91
        2
 64
     7
 65
     7
 75
     1
175
     1
 42
40.0
 92
        8
 66
     7
 43
1.0
 76
     1
 77
     6
 78
     2
 67
     7
 79
     3
170
     0
171
     0
290
     0
174
     0
 93
        1
 44
0.0
173
     0
291
     0
 45
0.0
1001
ACAD
1000
AcDbSavedByObjectVersion
1070
     0
  0
VISUALSTYLE
  5
3F
102
{ACAD_REACTORS
330
2A
102
}
102
{ACAD_XDICTIONARY
360
38D
102
}
330
2A
100
AcDbVisualStyle
  2
Sketchy
 70
    24
 71
     1
 72
     2
 73
     2
 90
        0
 40
0.6
 41
30.0
 62
     5
 63
     7
421
 16777215
 74
     2
 91
        2
 64
     7
 65
     7
 75
     1
175
     1
 42
40.0
 92
       11
 66
     7
 43
1.0
 76
     1
 77
     6
 78
     2
 67
     7
 79
     6
170
     0
171
     0
290
     0
174
     0
 93
        1
 44
0.0
173
     0
291
     0
 45
0.0
1001
ACAD
1000
AcDbSavedByObjectVersion
1070
     0
  0
VISUALSTYLE
  5
37
102
{ACAD_REACTORS
330
2A
102
}
102
{ACAD_XDICTIONARY
360
37D
102
}
330
2A
100
AcDbVisualStyle
  2
Thicken
 70
    13
 71
     2
 72
     2
 73
     0
 90
        0
 40
0.6
 41
30.0
 62
     5
 63
     7
421
 16777215
 74
     1
 91
        4
 64
     7
 65
   257
 75
     1
175
     1
 42
1.0
 92
       12
 66
     7
 43
1.0
 76
     1
 77
     6
 78
     2
 67
     7
 79
     5
170
     0
171
     0
290
     0
174
     0
 93
        1
 44
0.0
173
     0
291
     1
 45
0.0
1001
ACAD
1000
AcDbSavedByObjectVersion
1070
     0
  0
VISUALSTYLE
  5
30
102
{ACAD_REACTORS
330
2A
102
}
102
{ACAD_XDICTIONARY
360
36F
102
}
330
2A
100
AcDbVisualStyle
  2
Wireframe
 70
     5
 71
     0
 72
     2
 73
     0
 90
        0
 40
0.6
 41
30.0
 62
     5
 63
     7
421
 16777215
 74
     1
 91
        4
 64
     7
 65
   257
 75
     1
175
     1
 42
1.0
 92
        0
 66
   257
 43
1.0
 76
     1
 77
     6
 78
     2
 67
     7
 79
     3
170
     0
171
     0
290
     0
174
     0
 93
        1
 44
0.0
173
     0
291
     0
 45
0.0
1001
ACAD
1000
AcDbSavedByObjectVersion
1070
     0
  0
VISUALSTYLE
  5
40
102
{ACAD_REACTORS
330
2A
102
}
102
{ACAD_XDICTIONARY
360
38F
102
}
330
2A
100
AcDbVisualStyle
  2
X-Ray
 70
    25
 71
     2
 72
     2
 73
     1
 90
        1
 40
0.5
 41
30.0
 62
     5
 63
     7
421
 16777215
 74
     1
 91
        0
 64
     7
 65
   257
 75
     1
175
     1
 42
1.0
 92
        8
 66
     7
 43
1.0
 76
     1
 77
     6
 78
     2
 67
     7
 79
     3
170
     0
171
     0
290
     0
174
     0
 93
       13
 44
0.0
173
     0
291
     0
 45
0.0
1001
ACAD
1000
AcDbSavedByObjectVersion
1070
     0
  0
DICTIONARYVAR
  5
362
102
{ACAD_REACTORS
330
361
102
}
330
361
100
DictionaryVariables
280
     0
  1
1:1
  0
DICTIONARYVAR
  5
3A6
102
{ACAD_REACTORS
330
361
102
}
330
361
100
DictionaryVariables
280
     0
  1
3.500000
  0
DICTIONARYVAR
  5
3A7
102
{ACAD_REACTORS
330
361
102
}
330
361
100
DictionaryVariables
280
     0
  1
acadiso.lin
  0
DICTIONARYVAR
  5
3A3
102
{ACAD_REACTORS
330
361
102
}
330
361
100
DictionaryVariables
280
     0
  1
Standard
  0
DICTIONARYVAR
  5
3A2
102
{ACAD_REACTORS
330
361
102
}
330
361
100
DictionaryVariables
280
     0
  1
Standard
  0
DICTIONARYVAR
  5
363
102
{ACAD_REACTORS
330
361
102
}
330
361
100
DictionaryVariables
280
     0
  1
1
  0
DICTIONARYVAR
  5
364
102
{ACAD_REACTORS
330
361
102
}
330
361
100
DictionaryVariables
280
     0
  1
2
  0
DICTIONARY
  5
397
330
45
100
AcDbDictionary
280
     1
281
     1
  3
ACAD_XREC_ROUNDTRIP
360
398
  0
DICTIONARY
  5
395
330
44
100
AcDbDictionary
280
     1
281
     1
  3
ACAD_XREC_ROUNDTRIP
360
396
  0
DICTIONARY
  5
399
330
46
100
AcDbDictionary
280
     1
281
     1
  3
ACAD_XREC_ROUNDTRIP
360
39A
  0
DICTIONARY
  5
39F
330
6C
100
AcDbDictionary
280
     1
281
     1
  3
ACAD_XREC_ROUNDTRIP
360
3A0
  0
DICTIONARY
  5
39B
330
6A
100
AcDbDictionary
280
     1
281
     1
  3
ACAD_ROUNDTRIP_2008_TABLESTYLE_CELLSTYLEMAP
360
39D
  3
ACAD_XREC_ROUNDTRIP
360
39C
  0
DICTIONARY
  5
36D
330
2F
100
AcDbDictionary
280
     1
281
     1
  3
ACAD_XREC_ROUNDTRIP
360
36E
  0
DICTIONARY
  5
373
330
32
100
AcDbDictionary
280
     1
281
     1
  3
ACAD_XREC_ROUNDTRIP
360
374
  0
DICTIONARY
  5
37B
330
36
100
AcDbDictionary
280
     1
281
     1
  3
ACAD_XREC_ROUNDTRIP
360
37C
  0
DICTIONARY
  5
383
330
3A
100
AcDbDictionary
280
     1
281
     1
  3
ACAD_XREC_ROUNDTRIP
360
384
  0
DICTIONARY
  5
377
330
34
100
AcDbDictionary
280
     1
281
     1
  3
ACAD_XREC_ROUNDTRIP
360
378
  0
DICTIONARY
  5
379
330
35
100
AcDbDictionary
280
     1
281
     1
  3
ACAD_XREC_ROUNDTRIP
360
37A
  0
DICTIONARY
  5
389
330
3D
100
AcDbDictionary
280
     1
281
     1
  3
ACAD_XREC_ROUNDTRIP
360
38A
  0
DICTIONARY
  5
381
330
39
100
AcDbDictionary
280
     1
281
     1
  3
ACAD_XREC_ROUNDTRIP
360
382
  0
DICTIONARY
  5
365
330
2B
100
AcDbDictionary
280
     1
281
     1
  3
ACAD_XREC_ROUNDTRIP
360
366
  0
DICTIONARY
  5
367
330
2C
100
AcDbDictionary
280
     1
281
     1
  3
ACAD_XREC_ROUNDTRIP
360
368
  0
DICTIONARY
  5
369
330
2D
100
AcDbDictionary
280
     1
281
     1
  3
ACAD_XREC_ROUNDTRIP
360
36A
  0
DICTIONARY
  5
36B
330
2E
100
AcDbDictionary
280
     1
281
     1
  3
ACAD_XREC_ROUNDTRIP
360
36C
  0
DICTIONARY
  5
371
330
31
100
AcDbDictionary
280
     1
281
     1
  3
ACAD_XREC_ROUNDTRIP
360
372
  0
DICTIONARY
  5
385
330
3B
100
AcDbDictionary
280
     1
281
     1
  3
ACAD_XREC_ROUNDTRIP
360
386
  0
DICTIONARY
  5
37F
330
38
100
AcDbDictionary
280
     1
281
     1
  3
ACAD_XREC_ROUNDTRIP
360
380
  0
DICTIONARY
  5
387
330
3C
100
AcDbDictionary
280
     1
281
     1
  3
ACAD_XREC_ROUNDTRIP
360
388
  0
DICTIONARY
  5
375
330
33
100
AcDbDictionary
280
     1
281
     1
  3
ACAD_XREC_ROUNDTRIP
360
376
  0
DICTIONARY
  5
393
330
42
100
AcDbDictionary
280
     1
281
     1
  3
ACAD_XREC_ROUNDTRIP
360
394
  0
DICTIONARY
  5
391
330
41
100
AcDbDictionary
280
     1
281
     1
  3
ACAD_XREC_ROUNDTRIP
360
392
  0
DICTIONARY
  5
38B
330
3E
100
AcDbDictionary
280
     1
281
     1
  3
ACAD_XREC_ROUNDTRIP
360
38C
  0
DICTIONARY
  5
38D
330
3F
100
AcDbDictionary
280
     1
281
     1
  3
ACAD_XREC_ROUNDTRIP
360
38E
  0
DICTIONARY
  5
37D
330
37
100
AcDbDictionary
280
     1
281
     1
  3
ACAD_XREC_ROUNDTRIP
360
37E
  0
DICTIONARY
  5
36F
330
30
100
AcDbDictionary
280
     1
281
     1
  3
ACAD_XREC_ROUNDTRIP
360
370
  0
DICTIONARY
  5
38F
330
40
100
AcDbDictionary
280
     1
281
     1
  3
ACAD_XREC_ROUNDTRIP
360
390
  0
XRECORD
  5
398
102
{ACAD_REACTORS
330
397
102
}
330
397
100
AcDbXrecord
280
     1
102
MATERIAL
148
0.0
149
0.0
149
0.0
 93
        0
 94
      127
282
     0
 72
     1
 77
     1
171
     1
175
     1
179
     1
273
     0
  0
XRECORD
  5
396
102
{ACAD_REACTORS
330
395
102
}
330
395
100
AcDbXrecord
280
     1
102
MATERIAL
148
0.0
149
0.0
149
0.0
 93
        0
 94
      127
282
     0
 72
     1
 77
     1
171
     1
175
     1
179
     1
273
     0
  0
XRECORD
  5
39A
102
{ACAD_REACTORS
330
399
102
}
330
399
100
AcDbXrecord
280
     1
102
MATERIAL
148
0.0
149
0.0
149
0.0
 93
        0
 94
      127
282
     0
 72
     1
 77
     1
171
     1
175
     1
179
     1
273
     0
  0
XRECORD
  5
3A0
102
{ACAD_REACTORS
330
39F
102
}
330
39F
100
AcDbXrecord
280
     1
102
ACAD_ROUNDTRIP_2010_MLEADER_STYLE
  0
CELLSTYLEMAP
  5
39D
102
{ACAD_REACTORS
330
39B
102
}
330
39B
100
AcDbCellStyleMap
 90
        3
300
CELLSTYLE
  1
TABLEFORMAT_BEGIN
 90
        5
170
     1
 91
        0
 92
    32768
 62
   257
 93
        1
300
CONTENTFORMAT
  1
CONTENTFORMAT_BEGIN
 90
        0
 91
        0
 92
        4
 93
        0
300

 40
0.0
140
1.0
 94
        5
 62
     0
340
11
144
6.0
309
CONTENTFORMAT_END
171
     1
301
MARGIN
  1
CELLMARGIN_BEGIN
 40
1.5
 40
1.5
 40
1.5
 40
1.5
 40
1.5
 40
1.5
309
CELLMARGIN_END
 94
        6
 95
        1
302
GRIDFORMAT
  1
GRIDFORMAT_BEGIN
 90
        0
 91
        1
 62
     0
 92
       -2
340
14
 93
        0
 40
0.045
309
GRIDFORMAT_END
 95
        2
302
GRIDFORMAT
  1
GRIDFORMAT_BEGIN
 90
        0
 91
        1
 62
     0
 92
       -2
340
14
 93
        0
 40
0.045
309
GRIDFORMAT_END
 95
        4
302
GRIDFORMAT
  1
GRIDFORMAT_BEGIN
 90
        0
 91
        1
 62
     0
 92
       -2
340
14
 93
        0
 40
0.045
309
GRIDFORMAT_END
 95
        8
302
GRIDFORMAT
  1
GRIDFORMAT_BEGIN
 90
        0
 91
        1
 62
     0
 92
       -2
340
14
 93
        0
 40
0.045
309
GRIDFORMAT_END
 95
       16
302
GRIDFORMAT
  1
GRIDFORMAT_BEGIN
 90
        0
 91
        1
 62
     0
 92
       -2
340
14
 93
        0
 40
0.045
309
GRIDFORMAT_END
 95
       32
302
GRIDFORMAT
  1
GRIDFORMAT_BEGIN
 90
        0
 91
        1
 62
     0
 92
       -2
340
14
 93
        0
 40
0.045
309
GRIDFORMAT_END
309
TABLEFORMAT_END
  1
CELLSTYLE_BEGIN
 90
        1
 91
        1
300
_TITLE
309
CELLSTYLE_END
300
CELLSTYLE
  1
TABLEFORMAT_BEGIN
 90
        5
170
     1
 91
        0
 92
        0
 62
   257
 93
        1
300
CONTENTFORMAT
  1
CONTENTFORMAT_BEGIN
 90
        0
 91
        0
 92
        4
 93
        0
300

 40
0.0
140
1.0
 94
        5
 62
     0
340
11
144
4.5
309
CONTENTFORMAT_END
171
     1
301
MARGIN
  1
CELLMARGIN_BEGIN
 40
1.5
 40
1.5
 40
1.5
 40
1.5
 40
1.5
 40
1.5
309
CELLMARGIN_END
 94
        6
 95
        1
302
GRIDFORMAT
  1
GRIDFORMAT_BEGIN
 90
        0
 91
        1
 62
     0
 92
       -2
340
14
 93
        0
 40
0.045
309
GRIDFORMAT_END
 95
        2
302
GRIDFORMAT
  1
GRIDFORMAT_BEGIN
 90
        0
 91
        1
 62
     0
 92
       -2
340
14
 93
        0
 40
0.045
309
GRIDFORMAT_END
 95
        4
302
GRIDFORMAT
  1
GRIDFORMAT_BEGIN
 90
        0
 91
        1
 62
     0
 92
       -2
340
14
 93
        0
 40
0.045
309
GRIDFORMAT_END
 95
        8
302
GRIDFORMAT
  1
GRIDFORMAT_BEGIN
 90
        0
 91
        1
 62
     0
 92
       -2
340
14
 93
        0
 40
0.045
309
GRIDFORMAT_END
 95
       16
302
GRIDFORMAT
  1
GRIDFORMAT_BEGIN
 90
        0
 91
        1
 62
     0
 92
       -2
340
14
 93
        0
 40
0.045
309
GRIDFORMAT_END
 95
       32
302
GRIDFORMAT
  1
GRIDFORMAT_BEGIN
 90
        0
 91
        1
 62
     0
 92
       -2
340
14
 93
        0
 40
0.045
309
GRIDFORMAT_END
309
TABLEFORMAT_END
  1
CELLSTYLE_BEGIN
 90
        2
 91
        1
300
_HEADER
309
CELLSTYLE_END
300
CELLSTYLE
  1
TABLEFORMAT_BEGIN
 90
        5
170
     1
 91
        0
 92
        0
 62
   257
 93
        1
300
CONTENTFORMAT
  1
CONTENTFORMAT_BEGIN
 90
        0
 91
        0
 92
        4
 93
        0
300

 40
0.0
140
1.0
 94
        2
 62
     0
340
11
144
4.5
309
CONTENTFORMAT_END
171
     1
301
MARGIN
  1
CELLMARGIN_BEGIN
 40
1.5
 40
1.5
 40
1.5
 40
1.5
 40
1.5
 40
1.5
309
CELLMARGIN_END
 94
        6
 95
        1
302
GRIDFORMAT
  1
GRIDFORMAT_BEGIN
 90
        0
 91
        1
 62
     0
 92
       -2
340
14
 93
        0
 40
0.045
309
GRIDFORMAT_END
 95
        2
302
GRIDFORMAT
  1
GRIDFORMAT_BEGIN
 90
        0
 91
        1
 62
     0
 92
       -2
340
14
 93
        0
 40
0.045
309
GRIDFORMAT_END
 95
        4
302
GRIDFORMAT
  1
GRIDFORMAT_BEGIN
 90
        0
 91
        1
 62
     0
 92
       -2
340
14
 93
        0
 40
0.045
309
GRIDFORMAT_END
 95
        8
302
GRIDFORMAT
  1
GRIDFORMAT_BEGIN
 90
        0
 91
        1
 62
     0
 92
       -2
340
14
 93
        0
 40
0.045
309
GRIDFORMAT_END
 95
       16
302
GRIDFORMAT
  1
GRIDFORMAT_BEGIN
 90
        0
 91
        1
 62
     0
 92
       -2
340
14
 93
        0
 40
0.045
309
GRIDFORMAT_END
 95
       32
302
GRIDFORMAT
  1
GRIDFORMAT_BEGIN
 90
        0
 91
        1
 62
     0
 92
       -2
340
14
 93
        0
 40
0.045
309
GRIDFORMAT_END
309
TABLEFORMAT_END
  1
CELLSTYLE_BEGIN
 90
        3
 91
        2
300
_DATA
309
CELLSTYLE_END
  0
XRECORD
  5
39C
102
{ACAD_REACTORS
330
39B
102
}
330
39B
100
AcDbXrecord
280
     1
102
ACAD_ROUNDTRIP_PRE2007_TABLESTYLE
 90
        4
 91
        0
  1

 92
        4
 93
        0
  2

 94
        4
 95
        0
  3

  0
XRECORD
  5
36E
102
{ACAD_REACTORS
330
36D
102
}
330
36D
100
AcDbXrecord
280
     1
102
RTVSPropertyOp0
 70
     1
102
RTVSPropertyOp1
 70
     1
102
RTVSPropertyOp2
 70
     1
102
RTVSPropertyOp3
 70
     1
102
RTVSPropertyOp4
 70
     1
102
RTVSPropertyOp5
 70
     1
102
RTVSPropertyOp6
 70
     1
102
RTVSPropertyOp7
 70
     1
102
RTVSPropertyOp8
 70
     1
102
RTVSPropertyOp9
 70
     1
102
RTVSPropertyOp10
 70
     1
102
RTVSPropertyOp11
 70
     1
102
RTVSPropertyOp12
 70
     1
102
RTVSPropertyOp13
 70
     1
102
RTVSPropertyOp14
 70
     1
102
RTVSPropertyOp15
 70
     1
102
RTVSPropertyOp16
 70
     1
102
RTVSPropertyOp17
 70
     1
102
RTVSPropertyOp18
 70
     1
102
RTVSPropertyOp19
 70
     1
102
RTVSPropertyOp20
 70
     1
102
RTVSPropertyOp21
 70
     1
102
RTVSPropertyOp22
 70
     1
102
RTVSPropertyOp23
 70
     1
102
RTVSPropertyOp24
 70
     1
102
RTVSPropertyOp25
 70
     1
102
RTVSPropertyOp26
 70
     1
102
RTVSPropertyOp27
 70
     1
102
RTVSPropertyOp28
 70
     1
102
RTVSPropertyOp29
 70
     1
102
RTVSPropertyOp30
 70
     1
102
RTVSPropertyOp31
 70
     1
102
RTVSPropertyOp32
 70
     1
102
RTVSPropertyOp33
 70
     1
102
RTVSPropertyOp34
 70
     1
102
RTVSPropertyOp35
 70
     1
102
RTVSPropertyOp36
 70
     1
102
RTVSPropertyOp37
 70
     1
102
RTVSPropertyOp38
 70
     1
102
RTVSPropertyOp39
 70
     1
102
RTVSPropertyOp40
 70
     1
102
RTVSPropertyOp41
 70
     1
102
RTVSPropertyOp42
 70
     1
102
RTVSPropertyOp43
 70
     1
102
RTVSPropertyOp44
 70
     1
102
RTVSPropertyOp45
 70
     1
102
RTVSPropertyOp46
 70
     1
102
RTVSPropertyOp47
 70
     1
102
RTVSPropertyOp48
 70
     1
102
RTVSPropertyOp49
 70
     1
102
RTVSPropertyOp50
 70
     1
102
RTVSPropertyOp51
 70
     0
102
RTVSPropertyOp52
 70
     0
102
RTVSPropertyOp53
 70
     1
102
RTVSPropertyOp54
 70
     1
102
RTVSPropertyOp55
 70
     1
102
RTVSPropertyOp56
 70
     1
102
RTVSPropertyOp57
 70
     1
102
RTVSPost2010Prop28
280
     1
102
RTVSPost2010PropOp28
 70
     1
102
RTVSPost2010Prop29
280
     1
102
RTVSPost2010PropOp29
 70
     1
102
RTVSPost2010Prop30
280
     0
102
RTVSPost2010PropOp30
 70
     1
102
RTVSPost2010Prop31
280
     0
102
RTVSPost2010PropOp31
 70
     1
102
RTVSPost2010Prop32
280
     0
102
RTVSPost2010PropOp32
 70
     1
102
RTVSPost2010Prop33
280
     0
102
RTVSPost2010PropOp33
 70
     1
102
RTVSPost2010Prop34
280
     0
102
RTVSPost2010PropOp34
 70
     1
102
RTVSPost2010Prop35
280
     0
102
RTVSPost2010PropOp35
 70
     1
102
RTVSPost2010Prop36
280
     0
102
RTVSPost2010PropOp36
 70
     1
102
RTVSPost2010Prop37
 90
       50
102
RTVSPost2010PropOp37
 70
     1
102
RTVSPost2010Prop38
140
0.0
102
RTVSPost2010PropOp38
 70
     1
102
RTVSPost2010Prop39
140
1.0
102
RTVSPost2010PropOp39
 70
     1
102
RTVSPost2010Prop40
 90
        0
102
RTVSPost2010PropOp40
 70
     1
102
RTVSPost2010Prop41ColorIndex
 90
       18
102
RTVSPost2010Prop41ColorRGB
 90
        0
102
RTVSPost2010PropOp41
 70
     1
102
RTVSPost2010Prop42
 90
       50
102
RTVSPost2010PropOp42
 70
     1
102
RTVSPost2010Prop43
 90
        3
102
RTVSPost2010PropOp43
 70
     1
102
RTVSPost2010Prop44ColorIndex
 90
        5
102
RTVSPost2010Prop44ColorRGB
 90
      255
102
RTVSPost2010PropOp44
 70
     1
102
RTVSPost2010Prop45
280
     0
102
RTVSPost2010PropOp45
 70
     1
102
RTVSPost2010Prop46
 90
       50
102
RTVSPost2010PropOp46
 70
     1
102
RTVSPost2010Prop47
 90
       50
102
RTVSPost2010PropOp47
 70
     1
102
RTVSPost2010Prop48
 90
       50
102
RTVSPost2010PropOp48
 70
     1
102
RTVSPost2010Prop49
280
     0
102
RTVSPost2010PropOp49
 70
     1
102
RTVSPost2010Prop50
 90
       50
102
RTVSPost2010PropOp50
 70
     1
102
RTVSPost2010Prop51ColorIndex
 90
      256
102
RTVSPost2010Prop51ColorRGB
 90
-16777216
102
RTVSPost2010PropOp51
 70
     0
102
RTVSPost2010Prop52
140
1.0
102
RTVSPost2010PropOp52
 70
     0
102
RTVSPost2010Prop53
 90
        2
102
RTVSPost2010PropOp53
 70
     1
102
RTVSPost2010Prop54
  1
strokes_ogs.tif
102
RTVSPost2010PropOp54
 70
     1
102
RTVSPost2010Prop55
280
     0
102
RTVSPost2010PropOp55
 70
     1
102
RTVSPost2010Prop56
140
1.0
102
RTVSPost2010PropOp56
 70
     1
102
RTVSPost2010Prop57
140
1.0
102
RTVSPost2010PropOp57
 70
     1
  0
XRECORD
  5
374
102
{ACAD_REACTORS
330
373
102
}
330
373
100
AcDbXrecord
280
     1
102
RTVSPropertyOp0
 70
     1
102
RTVSPropertyOp1
 70
     1
102
RTVSPropertyOp2
 70
     1
102
RTVSPropertyOp3
 70
     1
102
RTVSPropertyOp4
 70
     1
102
RTVSPropertyOp5
 70
     1
102
RTVSPropertyOp6
 70
     1
102
RTVSPropertyOp7
 70
     1
102
RTVSPropertyOp8
 70
     1
102
RTVSPropertyOp9
 70
     1
102
RTVSPropertyOp10
 70
     1
102
RTVSPropertyOp11
 70
     1
102
RTVSPropertyOp12
 70
     1
102
RTVSPropertyOp13
 70
     1
102
RTVSPropertyOp14
 70
     1
102
RTVSPropertyOp15
 70
     1
102
RTVSPropertyOp16
 70
     1
102
RTVSPropertyOp17
 70
     1
102
RTVSPropertyOp18
 70
     1
102
RTVSPropertyOp19
 70
     1
102
RTVSPropertyOp20
 70
     1
102
RTVSPropertyOp21
 70
     1
102
RTVSPropertyOp22
 70
     1
102
RTVSPropertyOp23
 70
     1
102
RTVSPropertyOp24
 70
     1
102
RTVSPropertyOp25
 70
     1
102
RTVSPropertyOp26
 70
     1
102
RTVSPropertyOp27
 70
     1
102
RTVSPropertyOp28
 70
     1
102
RTVSPropertyOp29
 70
     1
102
RTVSPropertyOp30
 70
     1
102
RTVSPropertyOp31
 70
     1
102
RTVSPropertyOp32
 70
     1
102
RTVSPropertyOp33
 70
     1
102
RTVSPropertyOp34
 70
     1
102
RTVSPropertyOp35
 70
     1
102
RTVSPropertyOp36
 70
     1
102
RTVSPropertyOp37
 70
     1
102
RTVSPropertyOp38
 70
     1
102
RTVSPropertyOp39
 70
     1
102
RTVSPropertyOp40
 70
     1
102
RTVSPropertyOp41
 70
     1
102
RTVSPropertyOp42
 70
     1
102
RTVSPropertyOp43
 70
     1
102
RTVSPropertyOp44
 70
     1
102
RTVSPropertyOp45
 70
     1
102
RTVSPropertyOp46
 70
     1
102
RTVSPropertyOp47
 70
     1
102
RTVSPropertyOp48
 70
     1
102
RTVSPropertyOp49
 70
     1
102
RTVSPropertyOp50
 70
     1
102
RTVSPropertyOp51
 70
     0
102
RTVSPropertyOp52
 70
     0
102
RTVSPropertyOp53
 70
     1
102
RTVSPropertyOp54
 70
     1
102
RTVSPropertyOp55
 70
     1
102
RTVSPropertyOp56
 70
     1
102
RTVSPropertyOp57
 70
     1
102
RTVSPost2010Prop28
280
     0
102
RTVSPost2010PropOp28
 70
     1
102
RTVSPost2010Prop29
280
     1
102
RTVSPost2010PropOp29
 70
     1
102
RTVSPost2010Prop30
280
     1
102
RTVSPost2010PropOp30
 70
     1
102
RTVSPost2010Prop31
280
     0
102
RTVSPost2010PropOp31
 70
     1
102
RTVSPost2010Prop32
280
     0
102
RTVSPost2010PropOp32
 70
     1
102
RTVSPost2010Prop33
280
     0
102
RTVSPost2010PropOp33
 70
     1
102
RTVSPost2010Prop34
280
     0
102
RTVSPost2010PropOp34
 70
     1
102
RTVSPost2010Prop35
280
     0
102
RTVSPost2010PropOp35
 70
     1
102
RTVSPost2010Prop36
280
     0
102
RTVSPost2010PropOp36
 70
     1
102
RTVSPost2010Prop37
 90
       50
102
RTVSPost2010PropOp37
 70
     1
102
RTVSPost2010Prop38
140
0.0
102
RTVSPost2010PropOp38
 70
     1
102
RTVSPost2010Prop39
140
1.0
102
RTVSPost2010PropOp39
 70
     1
102
RTVSPost2010Prop40
 90
        0
102
RTVSPost2010PropOp40
 70
     1
102
RTVSPost2010Prop41ColorIndex
 90
       18
102
RTVSPost2010Prop41ColorRGB
 90
        0
102
RTVSPost2010PropOp41
 70
     1
102
RTVSPost2010Prop42
 90
       50
102
RTVSPost2010PropOp42
 70
     1
102
RTVSPost2010Prop43
 90
        3
102
RTVSPost2010PropOp43
 70
     1
102
RTVSPost2010Prop44ColorIndex
 90
        5
102
RTVSPost2010Prop44ColorRGB
 90
      255
102
RTVSPost2010PropOp44
 70
     1
102
RTVSPost2010Prop45
280
     0
102
RTVSPost2010PropOp45
 70
     1
102
RTVSPost2010Prop46
 90
       50
102
RTVSPost2010PropOp46
 70
     1
102
RTVSPost2010Prop47
 90
       50
102
RTVSPost2010PropOp47
 70
     1
102
RTVSPost2010Prop48
 90
       50
102
RTVSPost2010PropOp48
 70
     1
102
RTVSPost2010Prop49
280
     0
102
RTVSPost2010PropOp49
 70
     1
102
RTVSPost2010Prop50
 90
       50
102
RTVSPost2010PropOp50
 70
     1
102
RTVSPost2010Prop51ColorIndex
 90
      256
102
RTVSPost2010Prop51ColorRGB
 90
-16777216
102
RTVSPost2010PropOp51
 70
     0
102
RTVSPost2010Prop52
140
1.0
102
RTVSPost2010PropOp52
 70
     0
102
RTVSPost2010Prop53
 90
        2
102
RTVSPost2010PropOp53
 70
     1
102
RTVSPost2010Prop54
  1
strokes_ogs.tif
102
RTVSPost2010PropOp54
 70
     1
102
RTVSPost2010Prop55
280
     0
102
RTVSPost2010PropOp55
 70
     1
102
RTVSPost2010Prop56
140
1.0
102
RTVSPost2010PropOp56
 70
     1
102
RTVSPost2010Prop57
140
1.0
102
RTVSPost2010PropOp57
 70
     1
  0
XRECORD
  5
37C
102
{ACAD_REACTORS
330
37B
102
}
330
37B
100
AcDbXrecord
280
     1
102
RTVSPropertyOp0
 70
     1
102
RTVSPropertyOp1
 70
     1
102
RTVSPropertyOp2
 70
     1
102
RTVSPropertyOp3
 70
     1
102
RTVSPropertyOp4
 70
     1
102
RTVSPropertyOp5
 70
     1
102
RTVSPropertyOp6
 70
     1
102
RTVSPropertyOp7
 70
     1
102
RTVSPropertyOp8
 70
     1
102
RTVSPropertyOp9
 70
     1
102
RTVSPropertyOp10
 70
     1
102
RTVSPropertyOp11
 70
     1
102
RTVSPropertyOp12
 70
     1
102
RTVSPropertyOp13
 70
     1
102
RTVSPropertyOp14
 70
     1
102
RTVSPropertyOp15
 70
     1
102
RTVSPropertyOp16
 70
     1
102
RTVSPropertyOp17
 70
     1
102
RTVSPropertyOp18
 70
     1
102
RTVSPropertyOp19
 70
     1
102
RTVSPropertyOp20
 70
     1
102
RTVSPropertyOp21
 70
     1
102
RTVSPropertyOp22
 70
     1
102
RTVSPropertyOp23
 70
     1
102
RTVSPropertyOp24
 70
     1
102
RTVSPropertyOp25
 70
     1
102
RTVSPropertyOp26
 70
     1
102
RTVSPropertyOp27
 70
     1
102
RTVSPropertyOp28
 70
     1
102
RTVSPropertyOp29
 70
     1
102
RTVSPropertyOp30
 70
     1
102
RTVSPropertyOp31
 70
     1
102
RTVSPropertyOp32
 70
     1
102
RTVSPropertyOp33
 70
     1
102
RTVSPropertyOp34
 70
     1
102
RTVSPropertyOp35
 70
     1
102
RTVSPropertyOp36
 70
     1
102
RTVSPropertyOp37
 70
     1
102
RTVSPropertyOp38
 70
     1
102
RTVSPropertyOp39
 70
     1
102
RTVSPropertyOp40
 70
     1
102
RTVSPropertyOp41
 70
     1
102
RTVSPropertyOp42
 70
     1
102
RTVSPropertyOp43
 70
     1
102
RTVSPropertyOp44
 70
     1
102
RTVSPropertyOp45
 70
     1
102
RTVSPropertyOp46
 70
     1
102
RTVSPropertyOp47
 70
     1
102
RTVSPropertyOp48
 70
     1
102
RTVSPropertyOp49
 70
     1
102
RTVSPropertyOp50
 70
     1
102
RTVSPropertyOp51
 70
     0
102
RTVSPropertyOp52
 70
     0
102
RTVSPropertyOp53
 70
     1
102
RTVSPropertyOp54
 70
     1
102
RTVSPropertyOp55
 70
     1
102
RTVSPropertyOp56
 70
     1
102
RTVSPropertyOp57
 70
     1
102
RTVSPost2010Prop28
280
     0
102
RTVSPost2010PropOp28
 70
     1
102
RTVSPost2010Prop29
280
     1
102
RTVSPost2010PropOp29
 70
     1
102
RTVSPost2010Prop30
280
     1
102
RTVSPost2010PropOp30
 70
     1
102
RTVSPost2010Prop31
280
     0
102
RTVSPost2010PropOp31
 70
     1
102
RTVSPost2010Prop32
280
     0
102
RTVSPost2010PropOp32
 70
     1
102
RTVSPost2010Prop33
280
     0
102
RTVSPost2010PropOp33
 70
     1
102
RTVSPost2010Prop34
280
     0
102
RTVSPost2010PropOp34
 70
     1
102
RTVSPost2010Prop35
280
     0
102
RTVSPost2010PropOp35
 70
     1
102
RTVSPost2010Prop36
280
     0
102
RTVSPost2010PropOp36
 70
     1
102
RTVSPost2010Prop37
 90
       50
102
RTVSPost2010PropOp37
 70
     1
102
RTVSPost2010Prop38
140
0.0
102
RTVSPost2010PropOp38
 70
     1
102
RTVSPost2010Prop39
140
1.0
102
RTVSPost2010PropOp39
 70
     1
102
RTVSPost2010Prop40
 90
        0
102
RTVSPost2010PropOp40
 70
     1
102
RTVSPost2010Prop41ColorIndex
 90
       18
102
RTVSPost2010Prop41ColorRGB
 90
        0
102
RTVSPost2010PropOp41
 70
     1
102
RTVSPost2010Prop42
 90
       50
102
RTVSPost2010PropOp42
 70
     1
102
RTVSPost2010Prop43
 90
        3
102
RTVSPost2010PropOp43
 70
     1
102
RTVSPost2010Prop44ColorIndex
 90
        5
102
RTVSPost2010Prop44ColorRGB
 90
      255
102
RTVSPost2010PropOp44
 70
     1
102
RTVSPost2010Prop45
280
     0
102
RTVSPost2010PropOp45
 70
     1
102
RTVSPost2010Prop46
 90
       50
102
RTVSPost2010PropOp46
 70
     1
102
RTVSPost2010Prop47
 90
       50
102
RTVSPost2010PropOp47
 70
     1
102
RTVSPost2010Prop48
 90
       50
102
RTVSPost2010PropOp48
 70
     1
102
RTVSPost2010Prop49
280
     0
102
RTVSPost2010PropOp49
 70
     1
102
RTVSPost2010Prop50
 90
       50
102
RTVSPost2010PropOp50
 70
     1
102
RTVSPost2010Prop51ColorIndex
 90
      256
102
RTVSPost2010Prop51ColorRGB
 90
-16777216
102
RTVSPost2010PropOp51
 70
     0
102
RTVSPost2010Prop52
140
1.0
102
RTVSPost2010PropOp52
 70
     0
102
RTVSPost2010Prop53
 90
        2
102
RTVSPost2010PropOp53
 70
     1
102
RTVSPost2010Prop54
  1
strokes_ogs.tif
102
RTVSPost2010PropOp54
 70
     1
102
RTVSPost2010Prop55
280
     0
102
RTVSPost2010PropOp55
 70
     1
102
RTVSPost2010Prop56
140
1.0
102
RTVSPost2010PropOp56
 70
     1
102
RTVSPost2010Prop57
140
1.0
102
RTVSPost2010PropOp57
 70
     1
  0
XRECORD
  5
384
102
{ACAD_REACTORS
330
383
102
}
330
383
100
AcDbXrecord
280
     1
102
RTVSPropertyOp0
 70
     1
102
RTVSPropertyOp1
 70
     1
102
RTVSPropertyOp2
 70
     1
102
RTVSPropertyOp3
 70
     1
102
RTVSPropertyOp4
 70
     1
102
RTVSPropertyOp5
 70
     1
102
RTVSPropertyOp6
 70
     1
102
RTVSPropertyOp7
 70
     1
102
RTVSPropertyOp8
 70
     1
102
RTVSPropertyOp9
 70
     1
102
RTVSPropertyOp10
 70
     1
102
RTVSPropertyOp11
 70
     1
102
RTVSPropertyOp12
 70
     1
102
RTVSPropertyOp13
 70
     1
102
RTVSPropertyOp14
 70
     1
102
RTVSPropertyOp15
 70
     1
102
RTVSPropertyOp16
 70
     1
102
RTVSPropertyOp17
 70
     1
102
RTVSPropertyOp18
 70
     1
102
RTVSPropertyOp19
 70
     1
102
RTVSPropertyOp20
 70
     1
102
RTVSPropertyOp21
 70
     1
102
RTVSPropertyOp22
 70
     1
102
RTVSPropertyOp23
 70
     1
102
RTVSPropertyOp24
 70
     1
102
RTVSPropertyOp25
 70
     1
102
RTVSPropertyOp26
 70
     1
102
RTVSPropertyOp27
 70
     1
102
RTVSPropertyOp28
 70
     1
102
RTVSPropertyOp29
 70
     1
102
RTVSPropertyOp30
 70
     1
102
RTVSPropertyOp31
 70
     1
102
RTVSPropertyOp32
 70
     1
102
RTVSPropertyOp33
 70
     1
102
RTVSPropertyOp34
 70
     1
102
RTVSPropertyOp35
 70
     1
102
RTVSPropertyOp36
 70
     1
102
RTVSPropertyOp37
 70
     1
102
RTVSPropertyOp38
 70
     1
102
RTVSPropertyOp39
 70
     1
102
RTVSPropertyOp40
 70
     1
102
RTVSPropertyOp41
 70
     1
102
RTVSPropertyOp42
 70
     1
102
RTVSPropertyOp43
 70
     1
102
RTVSPropertyOp44
 70
     1
102
RTVSPropertyOp45
 70
     1
102
RTVSPropertyOp46
 70
     1
102
RTVSPropertyOp47
 70
     1
102
RTVSPropertyOp48
 70
     1
102
RTVSPropertyOp49
 70
     1
102
RTVSPropertyOp50
 70
     1
102
RTVSPropertyOp51
 70
     0
102
RTVSPropertyOp52
 70
     0
102
RTVSPropertyOp53
 70
     1
102
RTVSPropertyOp54
 70
     1
102
RTVSPropertyOp55
 70
     1
102
RTVSPropertyOp56
 70
     1
102
RTVSPropertyOp57
 70
     1
102
RTVSPost2010Prop28
280
     0
102
RTVSPost2010PropOp28
 70
     1
102
RTVSPost2010Prop29
280
     1
102
RTVSPost2010PropOp29
 70
     1
102
RTVSPost2010Prop30
280
     1
102
RTVSPost2010PropOp30
 70
     1
102
RTVSPost2010Prop31
280
     0
102
RTVSPost2010PropOp31
 70
     1
102
RTVSPost2010Prop32
280
     0
102
RTVSPost2010PropOp32
 70
     1
102
RTVSPost2010Prop33
280
     0
102
RTVSPost2010PropOp33
 70
     1
102
RTVSPost2010Prop34
280
     0
102
RTVSPost2010PropOp34
 70
     1
102
RTVSPost2010Prop35
280
     0
102
RTVSPost2010PropOp35
 70
     1
102
RTVSPost2010Prop36
280
     0
102
RTVSPost2010PropOp36
 70
     1
102
RTVSPost2010Prop37
 90
       50
102
RTVSPost2010PropOp37
 70
     1
102
RTVSPost2010Prop38
140
0.0
102
RTVSPost2010PropOp38
 70
     1
102
RTVSPost2010Prop39
140
1.0
102
RTVSPost2010PropOp39
 70
     1
102
RTVSPost2010Prop40
 90
        0
102
RTVSPost2010PropOp40
 70
     1
102
RTVSPost2010Prop41ColorIndex
 90
       18
102
RTVSPost2010Prop41ColorRGB
 90
        0
102
RTVSPost2010PropOp41
 70
     1
102
RTVSPost2010Prop42
 90
       50
102
RTVSPost2010PropOp42
 70
     1
102
RTVSPost2010Prop43
 90
        3
102
RTVSPost2010PropOp43
 70
     1
102
RTVSPost2010Prop44ColorIndex
 90
        5
102
RTVSPost2010Prop44ColorRGB
 90
      255
102
RTVSPost2010PropOp44
 70
     1
102
RTVSPost2010Prop45
280
     0
102
RTVSPost2010PropOp45
 70
     1
102
RTVSPost2010Prop46
 90
       50
102
RTVSPost2010PropOp46
 70
     1
102
RTVSPost2010Prop47
 90
       50
102
RTVSPost2010PropOp47
 70
     1
102
RTVSPost2010Prop48
 90
       50
102
RTVSPost2010PropOp48
 70
     1
102
RTVSPost2010Prop49
280
     0
102
RTVSPost2010PropOp49
 70
     1
102
RTVSPost2010Prop50
 90
       50
102
RTVSPost2010PropOp50
 70
     1
102
RTVSPost2010Prop51ColorIndex
 90
      256
102
RTVSPost2010Prop51ColorRGB
 90
-16777216
102
RTVSPost2010PropOp51
 70
     0
102
RTVSPost2010Prop52
140
1.0
102
RTVSPost2010PropOp52
 70
     0
102
RTVSPost2010Prop53
 90
        2
102
RTVSPost2010PropOp53
 70
     1
102
RTVSPost2010Prop54
  1
strokes_ogs.tif
102
RTVSPost2010PropOp54
 70
     1
102
RTVSPost2010Prop55
280
     0
102
RTVSPost2010PropOp55
 70
     1
102
RTVSPost2010Prop56
140
1.0
102
RTVSPost2010PropOp56
 70
     1
102
RTVSPost2010Prop57
140
1.0
102
RTVSPost2010PropOp57
 70
     1
  0
XRECORD
  5
378
102
{ACAD_REACTORS
330
377
102
}
330
377
100
AcDbXrecord
280
     1
102
RTVSPropertyOp0
 70
     1
102
RTVSPropertyOp1
 70
     1
102
RTVSPropertyOp2
 70
     1
102
RTVSPropertyOp3
 70
     1
102
RTVSPropertyOp4
 70
     1
102
RTVSPropertyOp5
 70
     1
102
RTVSPropertyOp6
 70
     1
102
RTVSPropertyOp7
 70
     1
102
RTVSPropertyOp8
 70
     1
102
RTVSPropertyOp9
 70
     1
102
RTVSPropertyOp10
 70
     1
102
RTVSPropertyOp11
 70
     1
102
RTVSPropertyOp12
 70
     1
102
RTVSPropertyOp13
 70
     1
102
RTVSPropertyOp14
 70
     1
102
RTVSPropertyOp15
 70
     1
102
RTVSPropertyOp16
 70
     1
102
RTVSPropertyOp17
 70
     1
102
RTVSPropertyOp18
 70
     1
102
RTVSPropertyOp19
 70
     1
102
RTVSPropertyOp20
 70
     1
102
RTVSPropertyOp21
 70
     1
102
RTVSPropertyOp22
 70
     1
102
RTVSPropertyOp23
 70
     1
102
RTVSPropertyOp24
 70
     1
102
RTVSPropertyOp25
 70
     1
102
RTVSPropertyOp26
 70
     1
102
RTVSPropertyOp27
 70
     1
102
RTVSPropertyOp28
 70
     1
102
RTVSPropertyOp29
 70
     1
102
RTVSPropertyOp30
 70
     1
102
RTVSPropertyOp31
 70
     1
102
RTVSPropertyOp32
 70
     1
102
RTVSPropertyOp33
 70
     1
102
RTVSPropertyOp34
 70
     1
102
RTVSPropertyOp35
 70
     1
102
RTVSPropertyOp36
 70
     1
102
RTVSPropertyOp37
 70
     1
102
RTVSPropertyOp38
 70
     1
102
RTVSPropertyOp39
 70
     1
102
RTVSPropertyOp40
 70
     1
102
RTVSPropertyOp41
 70
     1
102
RTVSPropertyOp42
 70
     1
102
RTVSPropertyOp43
 70
     1
102
RTVSPropertyOp44
 70
     1
102
RTVSPropertyOp45
 70
     1
102
RTVSPropertyOp46
 70
     1
102
RTVSPropertyOp47
 70
     1
102
RTVSPropertyOp48
 70
     1
102
RTVSPropertyOp49
 70
     1
102
RTVSPropertyOp50
 70
     1
102
RTVSPropertyOp51
 70
     0
102
RTVSPropertyOp52
 70
     0
102
RTVSPropertyOp53
 70
     1
102
RTVSPropertyOp54
 70
     1
102
RTVSPropertyOp55
 70
     1
102
RTVSPropertyOp56
 70
     1
102
RTVSPropertyOp57
 70
     1
102
RTVSPost2010Prop28
280
     0
102
RTVSPost2010PropOp28
 70
     1
102
RTVSPost2010Prop29
280
     1
102
RTVSPost2010PropOp29
 70
     1
102
RTVSPost2010Prop30
280
     1
102
RTVSPost2010PropOp30
 70
     1
102
RTVSPost2010Prop31
280
     0
102
RTVSPost2010PropOp31
 70
     1
102
RTVSPost2010Prop32
280
     0
102
RTVSPost2010PropOp32
 70
     1
102
RTVSPost2010Prop33
280
     0
102
RTVSPost2010PropOp33
 70
     1
102
RTVSPost2010Prop34
280
     0
102
RTVSPost2010PropOp34
 70
     1
102
RTVSPost2010Prop35
280
     0
102
RTVSPost2010PropOp35
 70
     1
102
RTVSPost2010Prop36
280
     0
102
RTVSPost2010PropOp36
 70
     1
102
RTVSPost2010Prop37
 90
       50
102
RTVSPost2010PropOp37
 70
     1
102
RTVSPost2010Prop38
140
0.0
102
RTVSPost2010PropOp38
 70
     1
102
RTVSPost2010Prop39
140
1.0
102
RTVSPost2010PropOp39
 70
     1
102
RTVSPost2010Prop40
 90
        0
102
RTVSPost2010PropOp40
 70
     1
102
RTVSPost2010Prop41ColorIndex
 90
       18
102
RTVSPost2010Prop41ColorRGB
 90
        0
102
RTVSPost2010PropOp41
 70
     1
102
RTVSPost2010Prop42
 90
       50
102
RTVSPost2010PropOp42
 70
     1
102
RTVSPost2010Prop43
 90
        3
102
RTVSPost2010PropOp43
 70
     1
102
RTVSPost2010Prop44ColorIndex
 90
        5
102
RTVSPost2010Prop44ColorRGB
 90
      255
102
RTVSPost2010PropOp44
 70
     1
102
RTVSPost2010Prop45
280
     0
102
RTVSPost2010PropOp45
 70
     1
102
RTVSPost2010Prop46
 90
       50
102
RTVSPost2010PropOp46
 70
     1
102
RTVSPost2010Prop47
 90
       50
102
RTVSPost2010PropOp47
 70
     1
102
RTVSPost2010Prop48
 90
       50
102
RTVSPost2010PropOp48
 70
     1
102
RTVSPost2010Prop49
280
     0
102
RTVSPost2010PropOp49
 70
     1
102
RTVSPost2010Prop50
 90
       50
102
RTVSPost2010PropOp50
 70
     1
102
RTVSPost2010Prop51ColorIndex
 90
      256
102
RTVSPost2010Prop51ColorRGB
 90
-16777216
102
RTVSPost2010PropOp51
 70
     0
102
RTVSPost2010Prop52
140
1.0
102
RTVSPost2010PropOp52
 70
     0
102
RTVSPost2010Prop53
 90
        2
102
RTVSPost2010PropOp53
 70
     1
102
RTVSPost2010Prop54
  1
strokes_ogs.tif
102
RTVSPost2010PropOp54
 70
     1
102
RTVSPost2010Prop55
280
     0
102
RTVSPost2010PropOp55
 70
     1
102
RTVSPost2010Prop56
140
1.0
102
RTVSPost2010PropOp56
 70
     1
102
RTVSPost2010Prop57
140
1.0
102
RTVSPost2010PropOp57
 70
     1
  0
XRECORD
  5
37A
102
{ACAD_REACTORS
330
379
102
}
330
379
100
AcDbXrecord
280
     1
102
RTVSPropertyOp0
 70
     1
102
RTVSPropertyOp1
 70
     1
102
RTVSPropertyOp2
 70
     1
102
RTVSPropertyOp3
 70
     1
102
RTVSPropertyOp4
 70
     1
102
RTVSPropertyOp5
 70
     1
102
RTVSPropertyOp6
 70
     1
102
RTVSPropertyOp7
 70
     1
102
RTVSPropertyOp8
 70
     1
102
RTVSPropertyOp9
 70
     1
102
RTVSPropertyOp10
 70
     1
102
RTVSPropertyOp11
 70
     1
102
RTVSPropertyOp12
 70
     1
102
RTVSPropertyOp13
 70
     1
102
RTVSPropertyOp14
 70
     1
102
RTVSPropertyOp15
 70
     1
102
RTVSPropertyOp16
 70
     1
102
RTVSPropertyOp17
 70
     1
102
RTVSPropertyOp18
 70
     1
102
RTVSPropertyOp19
 70
     1
102
RTVSPropertyOp20
 70
     1
102
RTVSPropertyOp21
 70
     1
102
RTVSPropertyOp22
 70
     1
102
RTVSPropertyOp23
 70
     1
102
RTVSPropertyOp24
 70
     1
102
RTVSPropertyOp25
 70
     1
102
RTVSPropertyOp26
 70
     1
102
RTVSPropertyOp27
 70
     1
102
RTVSPropertyOp28
 70
     1
102
RTVSPropertyOp29
 70
     1
102
RTVSPropertyOp30
 70
     1
102
RTVSPropertyOp31
 70
     1
102
RTVSPropertyOp32
 70
     1
102
RTVSPropertyOp33
 70
     1
102
RTVSPropertyOp34
 70
     1
102
RTVSPropertyOp35
 70
     1
102
RTVSPropertyOp36
 70
     1
102
RTVSPropertyOp37
 70
     1
102
RTVSPropertyOp38
 70
     1
102
RTVSPropertyOp39
 70
     1
102
RTVSPropertyOp40
 70
     1
102
RTVSPropertyOp41
 70
     1
102
RTVSPropertyOp42
 70
     1
102
RTVSPropertyOp43
 70
     1
102
RTVSPropertyOp44
 70
     1
102
RTVSPropertyOp45
 70
     1
102
RTVSPropertyOp46
 70
     1
102
RTVSPropertyOp47
 70
     1
102
RTVSPropertyOp48
 70
     1
102
RTVSPropertyOp49
 70
     1
102
RTVSPropertyOp50
 70
     1
102
RTVSPropertyOp51
 70
     0
102
RTVSPropertyOp52
 70
     0
102
RTVSPropertyOp53
 70
     1
102
RTVSPropertyOp54
 70
     1
102
RTVSPropertyOp55
 70
     1
102
RTVSPropertyOp56
 70
     1
102
RTVSPropertyOp57
 70
     1
102
RTVSPost2010Prop28
280
     0
102
RTVSPost2010PropOp28
 70
     1
102
RTVSPost2010Prop29
280
     1
102
RTVSPost2010PropOp29
 70
     1
102
RTVSPost2010Prop30
280
     1
102
RTVSPost2010PropOp30
 70
     1
102
RTVSPost2010Prop31
280
     0
102
RTVSPost2010PropOp31
 70
     1
102
RTVSPost2010Prop32
280
     0
102
RTVSPost2010PropOp32
 70
     1
102
RTVSPost2010Prop33
280
     0
102
RTVSPost2010PropOp33
 70
     1
102
RTVSPost2010Prop34
280
     0
102
RTVSPost2010PropOp34
 70
     1
102
RTVSPost2010Prop35
280
     0
102
RTVSPost2010PropOp35
 70
     1
102
RTVSPost2010Prop36
280
     0
102
RTVSPost2010PropOp36
 70
     1
102
RTVSPost2010Prop37
 90
       50
102
RTVSPost2010PropOp37
 70
     1
102
RTVSPost2010Prop38
140
0.0
102
RTVSPost2010PropOp38
 70
     1
102
RTVSPost2010Prop39
140
1.0
102
RTVSPost2010PropOp39
 70
     1
102
RTVSPost2010Prop40
 90
        0
102
RTVSPost2010PropOp40
 70
     1
102
RTVSPost2010Prop41ColorIndex
 90
       18
102
RTVSPost2010Prop41ColorRGB
 90
        0
102
RTVSPost2010PropOp41
 70
     1
102
RTVSPost2010Prop42
 90
       50
102
RTVSPost2010PropOp42
 70
     1
102
RTVSPost2010Prop43
 90
        3
102
RTVSPost2010PropOp43
 70
     1
102
RTVSPost2010Prop44ColorIndex
 90
        5
102
RTVSPost2010Prop44ColorRGB
 90
      255
102
RTVSPost2010PropOp44
 70
     1
102
RTVSPost2010Prop45
280
     0
102
RTVSPost2010PropOp45
 70
     1
102
RTVSPost2010Prop46
 90
       50
102
RTVSPost2010PropOp46
 70
     1
102
RTVSPost2010Prop47
 90
       50
102
RTVSPost2010PropOp47
 70
     1
102
RTVSPost2010Prop48
 90
       50
102
RTVSPost2010PropOp48
 70
     1
102
RTVSPost2010Prop49
280
     0
102
RTVSPost2010PropOp49
 70
     1
102
RTVSPost2010Prop50
 90
       50
102
RTVSPost2010PropOp50
 70
     1
102
RTVSPost2010Prop51ColorIndex
 90
      256
102
RTVSPost2010Prop51ColorRGB
 90
-16777216
102
RTVSPost2010PropOp51
 70
     0
102
RTVSPost2010Prop52
140
1.0
102
RTVSPost2010PropOp52
 70
     0
102
RTVSPost2010Prop53
 90
        2
102
RTVSPost2010PropOp53
 70
     1
102
RTVSPost2010Prop54
  1
strokes_ogs.tif
102
RTVSPost2010PropOp54
 70
     1
102
RTVSPost2010Prop55
280
     0
102
RTVSPost2010PropOp55
 70
     1
102
RTVSPost2010Prop56
140
1.0
102
RTVSPost2010PropOp56
 70
     1
102
RTVSPost2010Prop57
140
1.0
102
RTVSPost2010PropOp57
 70
     1
  0
XRECORD
  5
38A
102
{ACAD_REACTORS
330
389
102
}
330
389
100
AcDbXrecord
280
     1
102
RTVSPropertyOp0
 70
     0
102
RTVSPropertyOp1
 70
     0
102
RTVSPropertyOp2
 70
     0
102
RTVSPropertyOp3
 70
     0
102
RTVSPropertyOp4
 70
     0
102
RTVSPropertyOp5
 70
     0
102
RTVSPropertyOp6
 70
     0
102
RTVSPropertyOp7
 70
     0
102
RTVSPropertyOp8
 70
     0
102
RTVSPropertyOp9
 70
     0
102
RTVSPropertyOp10
 70
     0
102
RTVSPropertyOp11
 70
     0
102
RTVSPropertyOp12
 70
     0
102
RTVSPropertyOp13
 70
     0
102
RTVSPropertyOp14
 70
     2
102
RTVSPropertyOp15
 70
     0
102
RTVSPropertyOp16
 70
     0
102
RTVSPropertyOp17
 70
     0
102
RTVSPropertyOp18
 70
     0
102
RTVSPropertyOp19
 70
     0
102
RTVSPropertyOp20
 70
     0
102
RTVSPropertyOp21
 70
     0
102
RTVSPropertyOp22
 70
     0
102
RTVSPropertyOp23
 70
     0
102
RTVSPropertyOp24
 70
     0
102
RTVSPropertyOp25
 70
     0
102
RTVSPropertyOp26
 70
     0
102
RTVSPropertyOp27
 70
     0
102
RTVSPropertyOp28
 70
     0
102
RTVSPropertyOp29
 70
     0
102
RTVSPropertyOp30
 70
     0
102
RTVSPropertyOp31
 70
     0
102
RTVSPropertyOp32
 70
     0
102
RTVSPropertyOp33
 70
     0
102
RTVSPropertyOp34
 70
     0
102
RTVSPropertyOp35
 70
     0
102
RTVSPropertyOp36
 70
     0
102
RTVSPropertyOp37
 70
     0
102
RTVSPropertyOp38
 70
     0
102
RTVSPropertyOp39
 70
     0
102
RTVSPropertyOp40
 70
     0
102
RTVSPropertyOp41
 70
     0
102
RTVSPropertyOp42
 70
     0
102
RTVSPropertyOp43
 70
     0
102
RTVSPropertyOp44
 70
     0
102
RTVSPropertyOp45
 70
     0
102
RTVSPropertyOp46
 70
     0
102
RTVSPropertyOp47
 70
     0
102
RTVSPropertyOp48
 70
     0
102
RTVSPropertyOp49
 70
     0
102
RTVSPropertyOp50
 70
     0
102
RTVSPropertyOp51
 70
     0
102
RTVSPropertyOp52
 70
     0
102
RTVSPropertyOp53
 70
     0
102
RTVSPropertyOp54
 70
     0
102
RTVSPropertyOp55
 70
     0
102
RTVSPropertyOp56
 70
     0
102
RTVSPropertyOp57
 70
     0
102
RTVSPost2010Prop28
280
     0
102
RTVSPost2010PropOp28
 70
     0
102
RTVSPost2010Prop29
280
     1
102
RTVSPost2010PropOp29
 70
     0
102
RTVSPost2010Prop30
280
     1
102
RTVSPost2010PropOp30
 70
     0
102
RTVSPost2010Prop31
280
     0
102
RTVSPost2010PropOp31
 70
     0
102
RTVSPost2010Prop32
280
     0
102
RTVSPost2010PropOp32
 70
     0
102
RTVSPost2010Prop33
280
     0
102
RTVSPost2010PropOp33
 70
     0
102
RTVSPost2010Prop34
280
     0
102
RTVSPost2010PropOp34
 70
     0
102
RTVSPost2010Prop35
280
     0
102
RTVSPost2010PropOp35
 70
     0
102
RTVSPost2010Prop36
280
     0
102
RTVSPost2010PropOp36
 70
     0
102
RTVSPost2010Prop37
 90
       50
102
RTVSPost2010PropOp37
 70
     0
102
RTVSPost2010Prop38
140
0.0
102
RTVSPost2010PropOp38
 70
     0
102
RTVSPost2010Prop39
140
1.0
102
RTVSPost2010PropOp39
 70
     0
102
RTVSPost2010Prop40
 90
        0
102
RTVSPost2010PropOp40
 70
     0
102
RTVSPost2010Prop41ColorIndex
 90
       18
102
RTVSPost2010Prop41ColorRGB
 90
        0
102
RTVSPost2010PropOp41
 70
     0
102
RTVSPost2010Prop42
 90
       50
102
RTVSPost2010PropOp42
 70
     0
102
RTVSPost2010Prop43
 90
        3
102
RTVSPost2010PropOp43
 70
     0
102
RTVSPost2010Prop44ColorIndex
 90
        5
102
RTVSPost2010Prop44ColorRGB
 90
      255
102
RTVSPost2010PropOp44
 70
     0
102
RTVSPost2010Prop45
280
     0
102
RTVSPost2010PropOp45
 70
     0
102
RTVSPost2010Prop46
 90
       50
102
RTVSPost2010PropOp46
 70
     0
102
RTVSPost2010Prop47
 90
       50
102
RTVSPost2010PropOp47
 70
     0
102
RTVSPost2010Prop48
 90
       50
102
RTVSPost2010PropOp48
 70
     0
102
RTVSPost2010Prop49
280
     0
102
RTVSPost2010PropOp49
 70
     0
102
RTVSPost2010Prop50
 90
       50
102
RTVSPost2010PropOp50
 70
     0
102
RTVSPost2010Prop51ColorIndex
 90
      256
102
RTVSPost2010Prop51ColorRGB
 90
-16777216
102
RTVSPost2010PropOp51
 70
     0
102
RTVSPost2010Prop52
140
1.0
102
RTVSPost2010PropOp52
 70
     0
102
RTVSPost2010Prop53
 90
        2
102
RTVSPost2010PropOp53
 70
     0
102
RTVSPost2010Prop54
  1
strokes_ogs.tif
102
RTVSPost2010PropOp54
 70
     0
102
RTVSPost2010Prop55
280
     0
102
RTVSPost2010PropOp55
 70
     0
102
RTVSPost2010Prop56
140
1.0
102
RTVSPost2010PropOp56
 70
     0
102
RTVSPost2010Prop57
140
1.0
102
RTVSPost2010PropOp57
 70
     0
  0
XRECORD
  5
382
102
{ACAD_REACTORS
330
381
102
}
330
381
100
AcDbXrecord
280
     1
102
RTVSPropertyOp0
 70
     1
102
RTVSPropertyOp1
 70
     1
102
RTVSPropertyOp2
 70
     1
102
RTVSPropertyOp3
 70
     1
102
RTVSPropertyOp4
 70
     1
102
RTVSPropertyOp5
 70
     1
102
RTVSPropertyOp6
 70
     1
102
RTVSPropertyOp7
 70
     1
102
RTVSPropertyOp8
 70
     1
102
RTVSPropertyOp9
 70
     1
102
RTVSPropertyOp10
 70
     1
102
RTVSPropertyOp11
 70
     1
102
RTVSPropertyOp12
 70
     1
102
RTVSPropertyOp13
 70
     1
102
RTVSPropertyOp14
 70
     1
102
RTVSPropertyOp15
 70
     1
102
RTVSPropertyOp16
 70
     1
102
RTVSPropertyOp17
 70
     1
102
RTVSPropertyOp18
 70
     1
102
RTVSPropertyOp19
 70
     1
102
RTVSPropertyOp20
 70
     1
102
RTVSPropertyOp21
 70
     1
102
RTVSPropertyOp22
 70
     1
102
RTVSPropertyOp23
 70
     1
102
RTVSPropertyOp24
 70
     1
102
RTVSPropertyOp25
 70
     1
102
RTVSPropertyOp26
 70
     1
102
RTVSPropertyOp27
 70
     1
102
RTVSPropertyOp28
 70
     1
102
RTVSPropertyOp29
 70
     1
102
RTVSPropertyOp30
 70
     1
102
RTVSPropertyOp31
 70
     1
102
RTVSPropertyOp32
 70
     1
102
RTVSPropertyOp33
 70
     1
102
RTVSPropertyOp34
 70
     1
102
RTVSPropertyOp35
 70
     1
102
RTVSPropertyOp36
 70
     1
102
RTVSPropertyOp37
 70
     1
102
RTVSPropertyOp38
 70
     1
102
RTVSPropertyOp39
 70
     1
102
RTVSPropertyOp40
 70
     1
102
RTVSPropertyOp41
 70
     1
102
RTVSPropertyOp42
 70
     1
102
RTVSPropertyOp43
 70
     1
102
RTVSPropertyOp44
 70
     1
102
RTVSPropertyOp45
 70
     1
102
RTVSPropertyOp46
 70
     1
102
RTVSPropertyOp47
 70
     1
102
RTVSPropertyOp48
 70
     1
102
RTVSPropertyOp49
 70
     1
102
RTVSPropertyOp50
 70
     1
102
RTVSPropertyOp51
 70
     0
102
RTVSPropertyOp52
 70
     0
102
RTVSPropertyOp53
 70
     1
102
RTVSPropertyOp54
 70
     1
102
RTVSPropertyOp55
 70
     1
102
RTVSPropertyOp56
 70
     1
102
RTVSPropertyOp57
 70
     1
102
RTVSPost2010Prop28
280
     0
102
RTVSPost2010PropOp28
 70
     1
102
RTVSPost2010Prop29
280
     1
102
RTVSPost2010PropOp29
 70
     1
102
RTVSPost2010Prop30
280
     1
102
RTVSPost2010PropOp30
 70
     1
102
RTVSPost2010Prop31
280
     0
102
RTVSPost2010PropOp31
 70
     1
102
RTVSPost2010Prop32
280
     0
102
RTVSPost2010PropOp32
 70
     1
102
RTVSPost2010Prop33
280
     0
102
RTVSPost2010PropOp33
 70
     1
102
RTVSPost2010Prop34
280
     0
102
RTVSPost2010PropOp34
 70
     1
102
RTVSPost2010Prop35
280
     0
102
RTVSPost2010PropOp35
 70
     1
102
RTVSPost2010Prop36
280
     0
102
RTVSPost2010PropOp36
 70
     1
102
RTVSPost2010Prop37
 90
       50
102
RTVSPost2010PropOp37
 70
     1
102
RTVSPost2010Prop38
140
0.0
102
RTVSPost2010PropOp38
 70
     1
102
RTVSPost2010Prop39
140
1.0
102
RTVSPost2010PropOp39
 70
     1
102
RTVSPost2010Prop40
 90
        0
102
RTVSPost2010PropOp40
 70
     1
102
RTVSPost2010Prop41ColorIndex
 90
       18
102
RTVSPost2010Prop41ColorRGB
 90
        0
102
RTVSPost2010PropOp41
 70
     1
102
RTVSPost2010Prop42
 90
       50
102
RTVSPost2010PropOp42
 70
     1
102
RTVSPost2010Prop43
 90
        3
102
RTVSPost2010PropOp43
 70
     1
102
RTVSPost2010Prop44ColorIndex
 90
        5
102
RTVSPost2010Prop44ColorRGB
 90
      255
102
RTVSPost2010PropOp44
 70
     1
102
RTVSPost2010Prop45
280
     0
102
RTVSPost2010PropOp45
 70
     1
102
RTVSPost2010Prop46
 90
       50
102
RTVSPost2010PropOp46
 70
     1
102
RTVSPost2010Prop47
 90
       50
102
RTVSPost2010PropOp47
 70
     1
102
RTVSPost2010Prop48
 90
       50
102
RTVSPost2010PropOp48
 70
     1
102
RTVSPost2010Prop49
280
     0
102
RTVSPost2010PropOp49
 70
     1
102
RTVSPost2010Prop50
 90
       50
102
RTVSPost2010PropOp50
 70
     1
102
RTVSPost2010Prop51ColorIndex
 90
      256
102
RTVSPost2010Prop51ColorRGB
 90
-16777216
102
RTVSPost2010PropOp51
 70
     0
102
RTVSPost2010Prop52
140
1.0
102
RTVSPost2010PropOp52
 70
     0
102
RTVSPost2010Prop53
 90
        2
102
RTVSPost2010PropOp53
 70
     1
102
RTVSPost2010Prop54
  1
strokes_ogs.tif
102
RTVSPost2010PropOp54
 70
     1
102
RTVSPost2010Prop55
280
     0
102
RTVSPost2010PropOp55
 70
     1
102
RTVSPost2010Prop56
140
1.0
102
RTVSPost2010PropOp56
 70
     1
102
RTVSPost2010Prop57
140
1.0
102
RTVSPost2010PropOp57
 70
     1
  0
XRECORD
  5
366
102
{ACAD_REACTORS
330
365
102
}
330
365
100
AcDbXrecord
280
     1
102
RTVSPropertyOp0
 70
     1
102
RTVSPropertyOp1
 70
     1
102
RTVSPropertyOp2
 70
     1
102
RTVSPropertyOp3
 70
     1
102
RTVSPropertyOp4
 70
     1
102
RTVSPropertyOp5
 70
     1
102
RTVSPropertyOp6
 70
     1
102
RTVSPropertyOp7
 70
     1
102
RTVSPropertyOp8
 70
     1
102
RTVSPropertyOp9
 70
     1
102
RTVSPropertyOp10
 70
     1
102
RTVSPropertyOp11
 70
     1
102
RTVSPropertyOp12
 70
     1
102
RTVSPropertyOp13
 70
     1
102
RTVSPropertyOp14
 70
     1
102
RTVSPropertyOp15
 70
     1
102
RTVSPropertyOp16
 70
     1
102
RTVSPropertyOp17
 70
     1
102
RTVSPropertyOp18
 70
     1
102
RTVSPropertyOp19
 70
     1
102
RTVSPropertyOp20
 70
     1
102
RTVSPropertyOp21
 70
     1
102
RTVSPropertyOp22
 70
     1
102
RTVSPropertyOp23
 70
     1
102
RTVSPropertyOp24
 70
     1
102
RTVSPropertyOp25
 70
     1
102
RTVSPropertyOp26
 70
     1
102
RTVSPropertyOp27
 70
     1
102
RTVSPropertyOp28
 70
     1
102
RTVSPropertyOp29
 70
     1
102
RTVSPropertyOp30
 70
     1
102
RTVSPropertyOp31
 70
     1
102
RTVSPropertyOp32
 70
     1
102
RTVSPropertyOp33
 70
     1
102
RTVSPropertyOp34
 70
     1
102
RTVSPropertyOp35
 70
     1
102
RTVSPropertyOp36
 70
     1
102
RTVSPropertyOp37
 70
     1
102
RTVSPropertyOp38
 70
     1
102
RTVSPropertyOp39
 70
     1
102
RTVSPropertyOp40
 70
     1
102
RTVSPropertyOp41
 70
     1
102
RTVSPropertyOp42
 70
     1
102
RTVSPropertyOp43
 70
     1
102
RTVSPropertyOp44
 70
     1
102
RTVSPropertyOp45
 70
     1
102
RTVSPropertyOp46
 70
     1
102
RTVSPropertyOp47
 70
     1
102
RTVSPropertyOp48
 70
     1
102
RTVSPropertyOp49
 70
     1
102
RTVSPropertyOp50
 70
     1
102
RTVSPropertyOp51
 70
     0
102
RTVSPropertyOp52
 70
     0
102
RTVSPropertyOp53
 70
     1
102
RTVSPropertyOp54
 70
     1
102
RTVSPropertyOp55
 70
     1
102
RTVSPropertyOp56
 70
     1
102
RTVSPropertyOp57
 70
     1
102
RTVSPost2010Prop28
280
     0
102
RTVSPost2010PropOp28
 70
     1
102
RTVSPost2010Prop29
280
     1
102
RTVSPost2010PropOp29
 70
     1
102
RTVSPost2010Prop30
280
     1
102
RTVSPost2010PropOp30
 70
     1
102
RTVSPost2010Prop31
280
     0
102
RTVSPost2010PropOp31
 70
     1
102
RTVSPost2010Prop32
280
     0
102
RTVSPost2010PropOp32
 70
     1
102
RTVSPost2010Prop33
280
     0
102
RTVSPost2010PropOp33
 70
     1
102
RTVSPost2010Prop34
280
     0
102
RTVSPost2010PropOp34
 70
     1
102
RTVSPost2010Prop35
280
     0
102
RTVSPost2010PropOp35
 70
     1
102
RTVSPost2010Prop36
280
     0
102
RTVSPost2010PropOp36
 70
     1
102
RTVSPost2010Prop37
 90
       50
102
RTVSPost2010PropOp37
 70
     1
102
RTVSPost2010Prop38
140
0.0
102
RTVSPost2010PropOp38
 70
     1
102
RTVSPost2010Prop39
140
1.0
102
RTVSPost2010PropOp39
 70
     1
102
RTVSPost2010Prop40
 90
        0
102
RTVSPost2010PropOp40
 70
     1
102
RTVSPost2010Prop41ColorIndex
 90
       18
102
RTVSPost2010Prop41ColorRGB
 90
        0
102
RTVSPost2010PropOp41
 70
     1
102
RTVSPost2010Prop42
 90
       50
102
RTVSPost2010PropOp42
 70
     1
102
RTVSPost2010Prop43
 90
        3
102
RTVSPost2010PropOp43
 70
     1
102
RTVSPost2010Prop44ColorIndex
 90
        5
102
RTVSPost2010Prop44ColorRGB
 90
      255
102
RTVSPost2010PropOp44
 70
     1
102
RTVSPost2010Prop45
280
     0
102
RTVSPost2010PropOp45
 70
     1
102
RTVSPost2010Prop46
 90
       50
102
RTVSPost2010PropOp46
 70
     1
102
RTVSPost2010Prop47
 90
       50
102
RTVSPost2010PropOp47
 70
     1
102
RTVSPost2010Prop48
 90
       50
102
RTVSPost2010PropOp48
 70
     1
102
RTVSPost2010Prop49
280
     0
102
RTVSPost2010PropOp49
 70
     1
102
RTVSPost2010Prop50
 90
       50
102
RTVSPost2010PropOp50
 70
     1
102
RTVSPost2010Prop51ColorIndex
 90
      256
102
RTVSPost2010Prop51ColorRGB
 90
-16777216
102
RTVSPost2010PropOp51
 70
     0
102
RTVSPost2010Prop52
140
1.0
102
RTVSPost2010PropOp52
 70
     0
102
RTVSPost2010Prop53
 90
        2
102
RTVSPost2010PropOp53
 70
     1
102
RTVSPost2010Prop54
  1
strokes_ogs.tif
102
RTVSPost2010PropOp54
 70
     1
102
RTVSPost2010Prop55
280
     0
102
RTVSPost2010PropOp55
 70
     1
102
RTVSPost2010Prop56
140
1.0
102
RTVSPost2010PropOp56
 70
     1
102
RTVSPost2010Prop57
140
1.0
102
RTVSPost2010PropOp57
 70
     1
  0
XRECORD
  5
368
102
{ACAD_REACTORS
330
367
102
}
330
367
100
AcDbXrecord
280
     1
102
RTVSPropertyOp0
 70
     1
102
RTVSPropertyOp1
 70
     1
102
RTVSPropertyOp2
 70
     1
102
RTVSPropertyOp3
 70
     1
102
RTVSPropertyOp4
 70
     1
102
RTVSPropertyOp5
 70
     1
102
RTVSPropertyOp6
 70
     1
102
RTVSPropertyOp7
 70
     1
102
RTVSPropertyOp8
 70
     1
102
RTVSPropertyOp9
 70
     1
102
RTVSPropertyOp10
 70
     1
102
RTVSPropertyOp11
 70
     1
102
RTVSPropertyOp12
 70
     1
102
RTVSPropertyOp13
 70
     1
102
RTVSPropertyOp14
 70
     1
102
RTVSPropertyOp15
 70
     1
102
RTVSPropertyOp16
 70
     1
102
RTVSPropertyOp17
 70
     1
102
RTVSPropertyOp18
 70
     1
102
RTVSPropertyOp19
 70
     1
102
RTVSPropertyOp20
 70
     1
102
RTVSPropertyOp21
 70
     1
102
RTVSPropertyOp22
 70
     1
102
RTVSPropertyOp23
 70
     1
102
RTVSPropertyOp24
 70
     1
102
RTVSPropertyOp25
 70
     1
102
RTVSPropertyOp26
 70
     1
102
RTVSPropertyOp27
 70
     1
102
RTVSPropertyOp28
 70
     1
102
RTVSPropertyOp29
 70
     1
102
RTVSPropertyOp30
 70
     1
102
RTVSPropertyOp31
 70
     1
102
RTVSPropertyOp32
 70
     1
102
RTVSPropertyOp33
 70
     1
102
RTVSPropertyOp34
 70
     1
102
RTVSPropertyOp35
 70
     1
102
RTVSPropertyOp36
 70
     1
102
RTVSPropertyOp37
 70
     1
102
RTVSPropertyOp38
 70
     1
102
RTVSPropertyOp39
 70
     1
102
RTVSPropertyOp40
 70
     1
102
RTVSPropertyOp41
 70
     1
102
RTVSPropertyOp42
 70
     1
102
RTVSPropertyOp43
 70
     1
102
RTVSPropertyOp44
 70
     1
102
RTVSPropertyOp45
 70
     1
102
RTVSPropertyOp46
 70
     1
102
RTVSPropertyOp47
 70
     1
102
RTVSPropertyOp48
 70
     1
102
RTVSPropertyOp49
 70
     1
102
RTVSPropertyOp50
 70
     1
102
RTVSPropertyOp51
 70
     0
102
RTVSPropertyOp52
 70
     0
102
RTVSPropertyOp53
 70
     1
102
RTVSPropertyOp54
 70
     1
102
RTVSPropertyOp55
 70
     1
102
RTVSPropertyOp56
 70
     1
102
RTVSPropertyOp57
 70
     1
102
RTVSPost2010Prop28
280
     0
102
RTVSPost2010PropOp28
 70
     1
102
RTVSPost2010Prop29
280
     1
102
RTVSPost2010PropOp29
 70
     1
102
RTVSPost2010Prop30
280
     1
102
RTVSPost2010PropOp30
 70
     1
102
RTVSPost2010Prop31
280
     0
102
RTVSPost2010PropOp31
 70
     1
102
RTVSPost2010Prop32
280
     0
102
RTVSPost2010PropOp32
 70
     1
102
RTVSPost2010Prop33
280
     0
102
RTVSPost2010PropOp33
 70
     1
102
RTVSPost2010Prop34
280
     0
102
RTVSPost2010PropOp34
 70
     1
102
RTVSPost2010Prop35
280
     0
102
RTVSPost2010PropOp35
 70
     1
102
RTVSPost2010Prop36
280
     0
102
RTVSPost2010PropOp36
 70
     1
102
RTVSPost2010Prop37
 90
       50
102
RTVSPost2010PropOp37
 70
     1
102
RTVSPost2010Prop38
140
0.0
102
RTVSPost2010PropOp38
 70
     1
102
RTVSPost2010Prop39
140
1.0
102
RTVSPost2010PropOp39
 70
     1
102
RTVSPost2010Prop40
 90
        0
102
RTVSPost2010PropOp40
 70
     1
102
RTVSPost2010Prop41ColorIndex
 90
       18
102
RTVSPost2010Prop41ColorRGB
 90
        0
102
RTVSPost2010PropOp41
 70
     1
102
RTVSPost2010Prop42
 90
       50
102
RTVSPost2010PropOp42
 70
     1
102
RTVSPost2010Prop43
 90
        3
102
RTVSPost2010PropOp43
 70
     1
102
RTVSPost2010Prop44ColorIndex
 90
        5
102
RTVSPost2010Prop44ColorRGB
 90
      255
102
RTVSPost2010PropOp44
 70
     1
102
RTVSPost2010Prop45
280
     0
102
RTVSPost2010PropOp45
 70
     1
102
RTVSPost2010Prop46
 90
       50
102
RTVSPost2010PropOp46
 70
     1
102
RTVSPost2010Prop47
 90
       50
102
RTVSPost2010PropOp47
 70
     1
102
RTVSPost2010Prop48
 90
       50
102
RTVSPost2010PropOp48
 70
     1
102
RTVSPost2010Prop49
280
     0
102
RTVSPost2010PropOp49
 70
     1
102
RTVSPost2010Prop50
 90
       50
102
RTVSPost2010PropOp50
 70
     1
102
RTVSPost2010Prop51ColorIndex
 90
      256
102
RTVSPost2010Prop51ColorRGB
 90
-16777216
102
RTVSPost2010PropOp51
 70
     0
102
RTVSPost2010Prop52
140
1.0
102
RTVSPost2010PropOp52
 70
     0
102
RTVSPost2010Prop53
 90
        2
102
RTVSPost2010PropOp53
 70
     1
102
RTVSPost2010Prop54
  1
strokes_ogs.tif
102
RTVSPost2010PropOp54
 70
     1
102
RTVSPost2010Prop55
280
     0
102
RTVSPost2010PropOp55
 70
     1
102
RTVSPost2010Prop56
140
1.0
102
RTVSPost2010PropOp56
 70
     1
102
RTVSPost2010Prop57
140
1.0
102
RTVSPost2010PropOp57
 70
     1
  0
XRECORD
  5
36A
102
{ACAD_REACTORS
330
369
102
}
330
369
100
AcDbXrecord
280
     1
102
RTVSPropertyOp0
 70
     1
102
RTVSPropertyOp1
 70
     1
102
RTVSPropertyOp2
 70
     1
102
RTVSPropertyOp3
 70
     1
102
RTVSPropertyOp4
 70
     1
102
RTVSPropertyOp5
 70
     1
102
RTVSPropertyOp6
 70
     1
102
RTVSPropertyOp7
 70
     1
102
RTVSPropertyOp8
 70
     1
102
RTVSPropertyOp9
 70
     1
102
RTVSPropertyOp10
 70
     1
102
RTVSPropertyOp11
 70
     1
102
RTVSPropertyOp12
 70
     1
102
RTVSPropertyOp13
 70
     1
102
RTVSPropertyOp14
 70
     1
102
RTVSPropertyOp15
 70
     1
102
RTVSPropertyOp16
 70
     1
102
RTVSPropertyOp17
 70
     1
102
RTVSPropertyOp18
 70
     1
102
RTVSPropertyOp19
 70
     1
102
RTVSPropertyOp20
 70
     1
102
RTVSPropertyOp21
 70
     1
102
RTVSPropertyOp22
 70
     1
102
RTVSPropertyOp23
 70
     1
102
RTVSPropertyOp24
 70
     1
102
RTVSPropertyOp25
 70
     1
102
RTVSPropertyOp26
 70
     1
102
RTVSPropertyOp27
 70
     1
102
RTVSPropertyOp28
 70
     1
102
RTVSPropertyOp29
 70
     1
102
RTVSPropertyOp30
 70
     1
102
RTVSPropertyOp31
 70
     1
102
RTVSPropertyOp32
 70
     1
102
RTVSPropertyOp33
 70
     1
102
RTVSPropertyOp34
 70
     1
102
RTVSPropertyOp35
 70
     1
102
RTVSPropertyOp36
 70
     1
102
RTVSPropertyOp37
 70
     1
102
RTVSPropertyOp38
 70
     1
102
RTVSPropertyOp39
 70
     1
102
RTVSPropertyOp40
 70
     1
102
RTVSPropertyOp41
 70
     1
102
RTVSPropertyOp42
 70
     1
102
RTVSPropertyOp43
 70
     1
102
RTVSPropertyOp44
 70
     1
102
RTVSPropertyOp45
 70
     1
102
RTVSPropertyOp46
 70
     1
102
RTVSPropertyOp47
 70
     1
102
RTVSPropertyOp48
 70
     1
102
RTVSPropertyOp49
 70
     1
102
RTVSPropertyOp50
 70
     1
102
RTVSPropertyOp51
 70
     0
102
RTVSPropertyOp52
 70
     0
102
RTVSPropertyOp53
 70
     1
102
RTVSPropertyOp54
 70
     1
102
RTVSPropertyOp55
 70
     1
102
RTVSPropertyOp56
 70
     1
102
RTVSPropertyOp57
 70
     1
102
RTVSPost2010Prop28
280
     0
102
RTVSPost2010PropOp28
 70
     1
102
RTVSPost2010Prop29
280
     1
102
RTVSPost2010PropOp29
 70
     1
102
RTVSPost2010Prop30
280
     1
102
RTVSPost2010PropOp30
 70
     1
102
RTVSPost2010Prop31
280
     0
102
RTVSPost2010PropOp31
 70
     1
102
RTVSPost2010Prop32
280
     0
102
RTVSPost2010PropOp32
 70
     1
102
RTVSPost2010Prop33
280
     0
102
RTVSPost2010PropOp33
 70
     1
102
RTVSPost2010Prop34
280
     0
102
RTVSPost2010PropOp34
 70
     1
102
RTVSPost2010Prop35
280
     0
102
RTVSPost2010PropOp35
 70
     1
102
RTVSPost2010Prop36
280
     0
102
RTVSPost2010PropOp36
 70
     1
102
RTVSPost2010Prop37
 90
       50
102
RTVSPost2010PropOp37
 70
     1
102
RTVSPost2010Prop38
140
0.0
102
RTVSPost2010PropOp38
 70
     1
102
RTVSPost2010Prop39
140
1.0
102
RTVSPost2010PropOp39
 70
     1
102
RTVSPost2010Prop40
 90
        0
102
RTVSPost2010PropOp40
 70
     1
102
RTVSPost2010Prop41ColorIndex
 90
       18
102
RTVSPost2010Prop41ColorRGB
 90
        0
102
RTVSPost2010PropOp41
 70
     1
102
RTVSPost2010Prop42
 90
       50
102
RTVSPost2010PropOp42
 70
     1
102
RTVSPost2010Prop43
 90
        3
102
RTVSPost2010PropOp43
 70
     1
102
RTVSPost2010Prop44ColorIndex
 90
        5
102
RTVSPost2010Prop44ColorRGB
 90
      255
102
RTVSPost2010PropOp44
 70
     1
102
RTVSPost2010Prop45
280
     0
102
RTVSPost2010PropOp45
 70
     1
102
RTVSPost2010Prop46
 90
       50
102
RTVSPost2010PropOp46
 70
     1
102
RTVSPost2010Prop47
 90
       50
102
RTVSPost2010PropOp47
 70
     1
102
RTVSPost2010Prop48
 90
       50
102
RTVSPost2010PropOp48
 70
     1
102
RTVSPost2010Prop49
280
     0
102
RTVSPost2010PropOp49
 70
     1
102
RTVSPost2010Prop50
 90
       50
102
RTVSPost2010PropOp50
 70
     1
102
RTVSPost2010Prop51ColorIndex
 90
      256
102
RTVSPost2010Prop51ColorRGB
 90
-16777216
102
RTVSPost2010PropOp51
 70
     0
102
RTVSPost2010Prop52
140
1.0
102
RTVSPost2010PropOp52
 70
     0
102
RTVSPost2010Prop53
 90
        2
102
RTVSPost2010PropOp53
 70
     1
102
RTVSPost2010Prop54
  1
strokes_ogs.tif
102
RTVSPost2010PropOp54
 70
     1
102
RTVSPost2010Prop55
280
     0
102
RTVSPost2010PropOp55
 70
     1
102
RTVSPost2010Prop56
140
1.0
102
RTVSPost2010PropOp56
 70
     1
102
RTVSPost2010Prop57
140
1.0
102
RTVSPost2010PropOp57
 70
     1
  0
XRECORD
  5
36C
102
{ACAD_REACTORS
330
36B
102
}
330
36B
100
AcDbXrecord
280
     1
102
RTVSPropertyOp0
 70
     1
102
RTVSPropertyOp1
 70
     1
102
RTVSPropertyOp2
 70
     1
102
RTVSPropertyOp3
 70
     1
102
RTVSPropertyOp4
 70
     1
102
RTVSPropertyOp5
 70
     1
102
RTVSPropertyOp6
 70
     1
102
RTVSPropertyOp7
 70
     1
102
RTVSPropertyOp8
 70
     1
102
RTVSPropertyOp9
 70
     1
102
RTVSPropertyOp10
 70
     1
102
RTVSPropertyOp11
 70
     1
102
RTVSPropertyOp12
 70
     1
102
RTVSPropertyOp13
 70
     1
102
RTVSPropertyOp14
 70
     1
102
RTVSPropertyOp15
 70
     1
102
RTVSPropertyOp16
 70
     1
102
RTVSPropertyOp17
 70
     1
102
RTVSPropertyOp18
 70
     1
102
RTVSPropertyOp19
 70
     1
102
RTVSPropertyOp20
 70
     1
102
RTVSPropertyOp21
 70
     1
102
RTVSPropertyOp22
 70
     1
102
RTVSPropertyOp23
 70
     1
102
RTVSPropertyOp24
 70
     1
102
RTVSPropertyOp25
 70
     1
102
RTVSPropertyOp26
 70
     1
102
RTVSPropertyOp27
 70
     1
102
RTVSPropertyOp28
 70
     1
102
RTVSPropertyOp29
 70
     1
102
RTVSPropertyOp30
 70
     1
102
RTVSPropertyOp31
 70
     1
102
RTVSPropertyOp32
 70
     1
102
RTVSPropertyOp33
 70
     1
102
RTVSPropertyOp34
 70
     1
102
RTVSPropertyOp35
 70
     1
102
RTVSPropertyOp36
 70
     1
102
RTVSPropertyOp37
 70
     1
102
RTVSPropertyOp38
 70
     1
102
RTVSPropertyOp39
 70
     1
102
RTVSPropertyOp40
 70
     1
102
RTVSPropertyOp41
 70
     1
102
RTVSPropertyOp42
 70
     1
102
RTVSPropertyOp43
 70
     1
102
RTVSPropertyOp44
 70
     1
102
RTVSPropertyOp45
 70
     1
102
RTVSPropertyOp46
 70
     1
102
RTVSPropertyOp47
 70
     1
102
RTVSPropertyOp48
 70
     1
102
RTVSPropertyOp49
 70
     1
102
RTVSPropertyOp50
 70
     1
102
RTVSPropertyOp51
 70
     0
102
RTVSPropertyOp52
 70
     0
102
RTVSPropertyOp53
 70
     1
102
RTVSPropertyOp54
 70
     1
102
RTVSPropertyOp55
 70
     1
102
RTVSPropertyOp56
 70
     1
102
RTVSPropertyOp57
 70
     1
102
RTVSPost2010Prop28
280
     0
102
RTVSPost2010PropOp28
 70
     1
102
RTVSPost2010Prop29
280
     1
102
RTVSPost2010PropOp29
 70
     1
102
RTVSPost2010Prop30
280
     1
102
RTVSPost2010PropOp30
 70
     1
102
RTVSPost2010Prop31
280
     0
102
RTVSPost2010PropOp31
 70
     1
102
RTVSPost2010Prop32
280
     0
102
RTVSPost2010PropOp32
 70
     1
102
RTVSPost2010Prop33
280
     0
102
RTVSPost2010PropOp33
 70
     1
102
RTVSPost2010Prop34
280
     0
102
RTVSPost2010PropOp34
 70
     1
102
RTVSPost2010Prop35
280
     0
102
RTVSPost2010PropOp35
 70
     1
102
RTVSPost2010Prop36
280
     0
102
RTVSPost2010PropOp36
 70
     1
102
RTVSPost2010Prop37
 90
       50
102
RTVSPost2010PropOp37
 70
     1
102
RTVSPost2010Prop38
140
0.0
102
RTVSPost2010PropOp38
 70
     1
102
RTVSPost2010Prop39
140
1.0
102
RTVSPost2010PropOp39
 70
     1
102
RTVSPost2010Prop40
 90
        0
102
RTVSPost2010PropOp40
 70
     1
102
RTVSPost2010Prop41ColorIndex
 90
       18
102
RTVSPost2010Prop41ColorRGB
 90
        0
102
RTVSPost2010PropOp41
 70
     1
102
RTVSPost2010Prop42
 90
       50
102
RTVSPost2010PropOp42
 70
     1
102
RTVSPost2010Prop43
 90
        3
102
RTVSPost2010PropOp43
 70
     1
102
RTVSPost2010Prop44ColorIndex
 90
        5
102
RTVSPost2010Prop44ColorRGB
 90
      255
102
RTVSPost2010PropOp44
 70
     1
102
RTVSPost2010Prop45
280
     0
102
RTVSPost2010PropOp45
 70
     1
102
RTVSPost2010Prop46
 90
       50
102
RTVSPost2010PropOp46
 70
     1
102
RTVSPost2010Prop47
 90
       50
102
RTVSPost2010PropOp47
 70
     1
102
RTVSPost2010Prop48
 90
       50
102
RTVSPost2010PropOp48
 70
     1
102
RTVSPost2010Prop49
280
     0
102
RTVSPost2010PropOp49
 70
     1
102
RTVSPost2010Prop50
 90
       50
102
RTVSPost2010PropOp50
 70
     1
102
RTVSPost2010Prop51ColorIndex
 90
      256
102
RTVSPost2010Prop51ColorRGB
 90
-16777216
102
RTVSPost2010PropOp51
 70
     0
102
RTVSPost2010Prop52
140
1.0
102
RTVSPost2010PropOp52
 70
     0
102
RTVSPost2010Prop53
 90
        2
102
RTVSPost2010PropOp53
 70
     1
102
RTVSPost2010Prop54
  1
strokes_ogs.tif
102
RTVSPost2010PropOp54
 70
     1
102
RTVSPost2010Prop55
280
     0
102
RTVSPost2010PropOp55
 70
     1
102
RTVSPost2010Prop56
140
1.0
102
RTVSPost2010PropOp56
 70
     1
102
RTVSPost2010Prop57
140
1.0
102
RTVSPost2010PropOp57
 70
     1
  0
XRECORD
  5
372
102
{ACAD_REACTORS
330
371
102
}
330
371
100
AcDbXrecord
280
     1
102
RTVSPropertyOp0
 70
     1
102
RTVSPropertyOp1
 70
     1
102
RTVSPropertyOp2
 70
     1
102
RTVSPropertyOp3
 70
     1
102
RTVSPropertyOp4
 70
     1
102
RTVSPropertyOp5
 70
     1
102
RTVSPropertyOp6
 70
     1
102
RTVSPropertyOp7
 70
     1
102
RTVSPropertyOp8
 70
     1
102
RTVSPropertyOp9
 70
     1
102
RTVSPropertyOp10
 70
     1
102
RTVSPropertyOp11
 70
     1
102
RTVSPropertyOp12
 70
     1
102
RTVSPropertyOp13
 70
     1
102
RTVSPropertyOp14
 70
     1
102
RTVSPropertyOp15
 70
     1
102
RTVSPropertyOp16
 70
     1
102
RTVSPropertyOp17
 70
     1
102
RTVSPropertyOp18
 70
     1
102
RTVSPropertyOp19
 70
     1
102
RTVSPropertyOp20
 70
     1
102
RTVSPropertyOp21
 70
     1
102
RTVSPropertyOp22
 70
     1
102
RTVSPropertyOp23
 70
     1
102
RTVSPropertyOp24
 70
     1
102
RTVSPropertyOp25
 70
     1
102
RTVSPropertyOp26
 70
     1
102
RTVSPropertyOp27
 70
     1
102
RTVSPropertyOp28
 70
     1
102
RTVSPropertyOp29
 70
     1
102
RTVSPropertyOp30
 70
     1
102
RTVSPropertyOp31
 70
     1
102
RTVSPropertyOp32
 70
     1
102
RTVSPropertyOp33
 70
     1
102
RTVSPropertyOp34
 70
     1
102
RTVSPropertyOp35
 70
     1
102
RTVSPropertyOp36
 70
     1
102
RTVSPropertyOp37
 70
     1
102
RTVSPropertyOp38
 70
     1
102
RTVSPropertyOp39
 70
     1
102
RTVSPropertyOp40
 70
     1
102
RTVSPropertyOp41
 70
     1
102
RTVSPropertyOp42
 70
     1
102
RTVSPropertyOp43
 70
     1
102
RTVSPropertyOp44
 70
     1
102
RTVSPropertyOp45
 70
     1
102
RTVSPropertyOp46
 70
     1
102
RTVSPropertyOp47
 70
     1
102
RTVSPropertyOp48
 70
     1
102
RTVSPropertyOp49
 70
     1
102
RTVSPropertyOp50
 70
     1
102
RTVSPropertyOp51
 70
     0
102
RTVSPropertyOp52
 70
     0
102
RTVSPropertyOp53
 70
     1
102
RTVSPropertyOp54
 70
     1
102
RTVSPropertyOp55
 70
     1
102
RTVSPropertyOp56
 70
     1
102
RTVSPropertyOp57
 70
     1
102
RTVSPost2010Prop28
280
     0
102
RTVSPost2010PropOp28
 70
     1
102
RTVSPost2010Prop29
280
     1
102
RTVSPost2010PropOp29
 70
     1
102
RTVSPost2010Prop30
280
     1
102
RTVSPost2010PropOp30
 70
     1
102
RTVSPost2010Prop31
280
     0
102
RTVSPost2010PropOp31
 70
     1
102
RTVSPost2010Prop32
280
     0
102
RTVSPost2010PropOp32
 70
     1
102
RTVSPost2010Prop33
280
     0
102
RTVSPost2010PropOp33
 70
     1
102
RTVSPost2010Prop34
280
     0
102
RTVSPost2010PropOp34
 70
     1
102
RTVSPost2010Prop35
280
     0
102
RTVSPost2010PropOp35
 70
     1
102
RTVSPost2010Prop36
280
     0
102
RTVSPost2010PropOp36
 70
     1
102
RTVSPost2010Prop37
 90
       50
102
RTVSPost2010PropOp37
 70
     1
102
RTVSPost2010Prop38
140
0.0
102
RTVSPost2010PropOp38
 70
     1
102
RTVSPost2010Prop39
140
1.0
102
RTVSPost2010PropOp39
 70
     1
102
RTVSPost2010Prop40
 90
        0
102
RTVSPost2010PropOp40
 70
     1
102
RTVSPost2010Prop41ColorIndex
 90
       18
102
RTVSPost2010Prop41ColorRGB
 90
        0
102
RTVSPost2010PropOp41
 70
     1
102
RTVSPost2010Prop42
 90
       50
102
RTVSPost2010PropOp42
 70
     1
102
RTVSPost2010Prop43
 90
        3
102
RTVSPost2010PropOp43
 70
     1
102
RTVSPost2010Prop44ColorIndex
 90
        5
102
RTVSPost2010Prop44ColorRGB
 90
      255
102
RTVSPost2010PropOp44
 70
     1
102
RTVSPost2010Prop45
280
     0
102
RTVSPost2010PropOp45
 70
     1
102
RTVSPost2010Prop46
 90
       50
102
RTVSPost2010PropOp46
 70
     1
102
RTVSPost2010Prop47
 90
       50
102
RTVSPost2010PropOp47
 70
     1
102
RTVSPost2010Prop48
 90
       50
102
RTVSPost2010PropOp48
 70
     1
102
RTVSPost2010Prop49
280
     0
102
RTVSPost2010PropOp49
 70
     1
102
RTVSPost2010Prop50
 90
       50
102
RTVSPost2010PropOp50
 70
     1
102
RTVSPost2010Prop51ColorIndex
 90
      256
102
RTVSPost2010Prop51ColorRGB
 90
-16777216
102
RTVSPost2010PropOp51
 70
     0
102
RTVSPost2010Prop52
140
1.0
102
RTVSPost2010PropOp52
 70
     0
102
RTVSPost2010Prop53
 90
        2
102
RTVSPost2010PropOp53
 70
     1
102
RTVSPost2010Prop54
  1
strokes_ogs.tif
102
RTVSPost2010PropOp54
 70
     1
102
RTVSPost2010Prop55
280
     0
102
RTVSPost2010PropOp55
 70
     1
102
RTVSPost2010Prop56
140
1.0
102
RTVSPost2010PropOp56
 70
     1
102
RTVSPost2010Prop57
140
1.0
102
RTVSPost2010PropOp57
 70
     1
  0
XRECORD
  5
386
102
{ACAD_REACTORS
330
385
102
}
330
385
100
AcDbXrecord
280
     1
102
RTVSPropertyOp0
 70
     0
102
RTVSPropertyOp1
 70
     0
102
RTVSPropertyOp2
 70
     0
102
RTVSPropertyOp3
 70
     0
102
RTVSPropertyOp4
 70
     0
102
RTVSPropertyOp5
 70
     0
102
RTVSPropertyOp6
 70
     0
102
RTVSPropertyOp7
 70
     0
102
RTVSPropertyOp8
 70
     0
102
RTVSPropertyOp9
 70
     0
102
RTVSPropertyOp10
 70
     0
102
RTVSPropertyOp11
 70
     0
102
RTVSPropertyOp12
 70
     0
102
RTVSPropertyOp13
 70
     0
102
RTVSPropertyOp14
 70
     2
102
RTVSPropertyOp15
 70
     0
102
RTVSPropertyOp16
 70
     0
102
RTVSPropertyOp17
 70
     0
102
RTVSPropertyOp18
 70
     0
102
RTVSPropertyOp19
 70
     0
102
RTVSPropertyOp20
 70
     0
102
RTVSPropertyOp21
 70
     0
102
RTVSPropertyOp22
 70
     0
102
RTVSPropertyOp23
 70
     0
102
RTVSPropertyOp24
 70
     0
102
RTVSPropertyOp25
 70
     0
102
RTVSPropertyOp26
 70
     0
102
RTVSPropertyOp27
 70
     0
102
RTVSPropertyOp28
 70
     0
102
RTVSPropertyOp29
 70
     0
102
RTVSPropertyOp30
 70
     0
102
RTVSPropertyOp31
 70
     0
102
RTVSPropertyOp32
 70
     0
102
RTVSPropertyOp33
 70
     0
102
RTVSPropertyOp34
 70
     0
102
RTVSPropertyOp35
 70
     0
102
RTVSPropertyOp36
 70
     0
102
RTVSPropertyOp37
 70
     0
102
RTVSPropertyOp38
 70
     0
102
RTVSPropertyOp39
 70
     0
102
RTVSPropertyOp40
 70
     0
102
RTVSPropertyOp41
 70
     0
102
RTVSPropertyOp42
 70
     0
102
RTVSPropertyOp43
 70
     0
102
RTVSPropertyOp44
 70
     0
102
RTVSPropertyOp45
 70
     0
102
RTVSPropertyOp46
 70
     0
102
RTVSPropertyOp47
 70
     0
102
RTVSPropertyOp48
 70
     0
102
RTVSPropertyOp49
 70
     0
102
RTVSPropertyOp50
 70
     0
102
RTVSPropertyOp51
 70
     0
102
RTVSPropertyOp52
 70
     0
102
RTVSPropertyOp53
 70
     0
102
RTVSPropertyOp54
 70
     0
102
RTVSPropertyOp55
 70
     0
102
RTVSPropertyOp56
 70
     0
102
RTVSPropertyOp57
 70
     0
102
RTVSPost2010Prop28
280
     0
102
RTVSPost2010PropOp28
 70
     0
102
RTVSPost2010Prop29
280
     1
102
RTVSPost2010PropOp29
 70
     0
102
RTVSPost2010Prop30
280
     1
102
RTVSPost2010PropOp30
 70
     0
102
RTVSPost2010Prop31
280
     0
102
RTVSPost2010PropOp31
 70
     0
102
RTVSPost2010Prop32
280
     0
102
RTVSPost2010PropOp32
 70
     0
102
RTVSPost2010Prop33
280
     0
102
RTVSPost2010PropOp33
 70
     0
102
RTVSPost2010Prop34
280
     0
102
RTVSPost2010PropOp34
 70
     0
102
RTVSPost2010Prop35
280
     0
102
RTVSPost2010PropOp35
 70
     0
102
RTVSPost2010Prop36
280
     0
102
RTVSPost2010PropOp36
 70
     0
102
RTVSPost2010Prop37
 90
       50
102
RTVSPost2010PropOp37
 70
     0
102
RTVSPost2010Prop38
140
0.0
102
RTVSPost2010PropOp38
 70
     0
102
RTVSPost2010Prop39
140
1.0
102
RTVSPost2010PropOp39
 70
     0
102
RTVSPost2010Prop40
 90
        0
102
RTVSPost2010PropOp40
 70
     0
102
RTVSPost2010Prop41ColorIndex
 90
       18
102
RTVSPost2010Prop41ColorRGB
 90
        0
102
RTVSPost2010PropOp41
 70
     0
102
RTVSPost2010Prop42
 90
       50
102
RTVSPost2010PropOp42
 70
     0
102
RTVSPost2010Prop43
 90
        3
102
RTVSPost2010PropOp43
 70
     0
102
RTVSPost2010Prop44ColorIndex
 90
        5
102
RTVSPost2010Prop44ColorRGB
 90
      255
102
RTVSPost2010PropOp44
 70
     0
102
RTVSPost2010Prop45
280
     0
102
RTVSPost2010PropOp45
 70
     0
102
RTVSPost2010Prop46
 90
       50
102
RTVSPost2010PropOp46
 70
     0
102
RTVSPost2010Prop47
 90
       50
102
RTVSPost2010PropOp47
 70
     0
102
RTVSPost2010Prop48
 90
       50
102
RTVSPost2010PropOp48
 70
     0
102
RTVSPost2010Prop49
280
     0
102
RTVSPost2010PropOp49
 70
     0
102
RTVSPost2010Prop50
 90
       50
102
RTVSPost2010PropOp50
 70
     0
102
RTVSPost2010Prop51ColorIndex
 90
      256
102
RTVSPost2010Prop51ColorRGB
 90
-16777216
102
RTVSPost2010PropOp51
 70
     0
102
RTVSPost2010Prop52
140
1.0
102
RTVSPost2010PropOp52
 70
     0
102
RTVSPost2010Prop53
 90
        2
102
RTVSPost2010PropOp53
 70
     0
102
RTVSPost2010Prop54
  1
strokes_ogs.tif
102
RTVSPost2010PropOp54
 70
     0
102
RTVSPost2010Prop55
280
     0
102
RTVSPost2010PropOp55
 70
     0
102
RTVSPost2010Prop56
140
1.0
102
RTVSPost2010PropOp56
 70
     0
102
RTVSPost2010Prop57
140
1.0
102
RTVSPost2010PropOp57
 70
     0
  0
XRECORD
  5
380
102
{ACAD_REACTORS
330
37F
102
}
330
37F
100
AcDbXrecord
280
     1
102
RTVSPropertyOp0
 70
     1
102
RTVSPropertyOp1
 70
     1
102
RTVSPropertyOp2
 70
     1
102
RTVSPropertyOp3
 70
     1
102
RTVSPropertyOp4
 70
     1
102
RTVSPropertyOp5
 70
     1
102
RTVSPropertyOp6
 70
     1
102
RTVSPropertyOp7
 70
     1
102
RTVSPropertyOp8
 70
     1
102
RTVSPropertyOp9
 70
     1
102
RTVSPropertyOp10
 70
     1
102
RTVSPropertyOp11
 70
     1
102
RTVSPropertyOp12
 70
     1
102
RTVSPropertyOp13
 70
     1
102
RTVSPropertyOp14
 70
     1
102
RTVSPropertyOp15
 70
     1
102
RTVSPropertyOp16
 70
     1
102
RTVSPropertyOp17
 70
     1
102
RTVSPropertyOp18
 70
     1
102
RTVSPropertyOp19
 70
     1
102
RTVSPropertyOp20
 70
     1
102
RTVSPropertyOp21
 70
     1
102
RTVSPropertyOp22
 70
     1
102
RTVSPropertyOp23
 70
     1
102
RTVSPropertyOp24
 70
     1
102
RTVSPropertyOp25
 70
     1
102
RTVSPropertyOp26
 70
     1
102
RTVSPropertyOp27
 70
     1
102
RTVSPropertyOp28
 70
     1
102
RTVSPropertyOp29
 70
     1
102
RTVSPropertyOp30
 70
     1
102
RTVSPropertyOp31
 70
     1
102
RTVSPropertyOp32
 70
     1
102
RTVSPropertyOp33
 70
     1
102
RTVSPropertyOp34
 70
     1
102
RTVSPropertyOp35
 70
     1
102
RTVSPropertyOp36
 70
     1
102
RTVSPropertyOp37
 70
     1
102
RTVSPropertyOp38
 70
     1
102
RTVSPropertyOp39
 70
     1
102
RTVSPropertyOp40
 70
     1
102
RTVSPropertyOp41
 70
     1
102
RTVSPropertyOp42
 70
     1
102
RTVSPropertyOp43
 70
     1
102
RTVSPropertyOp44
 70
     1
102
RTVSPropertyOp45
 70
     1
102
RTVSPropertyOp46
 70
     1
102
RTVSPropertyOp47
 70
     1
102
RTVSPropertyOp48
 70
     1
102
RTVSPropertyOp49
 70
     1
102
RTVSPropertyOp50
 70
     1
102
RTVSPropertyOp51
 70
     0
102
RTVSPropertyOp52
 70
     0
102
RTVSPropertyOp53
 70
     1
102
RTVSPropertyOp54
 70
     1
102
RTVSPropertyOp55
 70
     1
102
RTVSPropertyOp56
 70
     1
102
RTVSPropertyOp57
 70
     1
102
RTVSPost2010Prop28
280
     0
102
RTVSPost2010PropOp28
 70
     1
102
RTVSPost2010Prop29
280
     1
102
RTVSPost2010PropOp29
 70
     1
102
RTVSPost2010Prop30
280
     1
102
RTVSPost2010PropOp30
 70
     1
102
RTVSPost2010Prop31
280
     0
102
RTVSPost2010PropOp31
 70
     1
102
RTVSPost2010Prop32
280
     0
102
RTVSPost2010PropOp32
 70
     1
102
RTVSPost2010Prop33
280
     0
102
RTVSPost2010PropOp33
 70
     1
102
RTVSPost2010Prop34
280
     0
102
RTVSPost2010PropOp34
 70
     1
102
RTVSPost2010Prop35
280
     0
102
RTVSPost2010PropOp35
 70
     1
102
RTVSPost2010Prop36
280
     0
102
RTVSPost2010PropOp36
 70
     1
102
RTVSPost2010Prop37
 90
       50
102
RTVSPost2010PropOp37
 70
     1
102
RTVSPost2010Prop38
140
0.0
102
RTVSPost2010PropOp38
 70
     1
102
RTVSPost2010Prop39
140
1.0
102
RTVSPost2010PropOp39
 70
     1
102
RTVSPost2010Prop40
 90
        0
102
RTVSPost2010PropOp40
 70
     1
102
RTVSPost2010Prop41ColorIndex
 90
       18
102
RTVSPost2010Prop41ColorRGB
 90
        0
102
RTVSPost2010PropOp41
 70
     1
102
RTVSPost2010Prop42
 90
       50
102
RTVSPost2010PropOp42
 70
     1
102
RTVSPost2010Prop43
 90
        3
102
RTVSPost2010PropOp43
 70
     1
102
RTVSPost2010Prop44ColorIndex
 90
        5
102
RTVSPost2010Prop44ColorRGB
 90
      255
102
RTVSPost2010PropOp44
 70
     1
102
RTVSPost2010Prop45
280
     0
102
RTVSPost2010PropOp45
 70
     1
102
RTVSPost2010Prop46
 90
       50
102
RTVSPost2010PropOp46
 70
     1
102
RTVSPost2010Prop47
 90
       50
102
RTVSPost2010PropOp47
 70
     1
102
RTVSPost2010Prop48
 90
       50
102
RTVSPost2010PropOp48
 70
     1
102
RTVSPost2010Prop49
280
     0
102
RTVSPost2010PropOp49
 70
     1
102
RTVSPost2010Prop50
 90
       50
102
RTVSPost2010PropOp50
 70
     1
102
RTVSPost2010Prop51ColorIndex
 90
      256
102
RTVSPost2010Prop51ColorRGB
 90
-16777216
102
RTVSPost2010PropOp51
 70
     0
102
RTVSPost2010Prop52
140
1.0
102
RTVSPost2010PropOp52
 70
     0
102
RTVSPost2010Prop53
 90
        2
102
RTVSPost2010PropOp53
 70
     1
102
RTVSPost2010Prop54
  1
strokes_ogs.tif
102
RTVSPost2010PropOp54
 70
     1
102
RTVSPost2010Prop55
280
     0
102
RTVSPost2010PropOp55
 70
     1
102
RTVSPost2010Prop56
140
1.0
102
RTVSPost2010PropOp56
 70
     1
102
RTVSPost2010Prop57
140
1.0
102
RTVSPost2010PropOp57
 70
     1
  0
XRECORD
  5
388
102
{ACAD_REACTORS
330
387
102
}
330
387
100
AcDbXrecord
280
     1
102
RTVSPropertyOp0
 70
     0
102
RTVSPropertyOp1
 70
     0
102
RTVSPropertyOp2
 70
     0
102
RTVSPropertyOp3
 70
     0
102
RTVSPropertyOp4
 70
     0
102
RTVSPropertyOp5
 70
     0
102
RTVSPropertyOp6
 70
     0
102
RTVSPropertyOp7
 70
     0
102
RTVSPropertyOp8
 70
     0
102
RTVSPropertyOp9
 70
     0
102
RTVSPropertyOp10
 70
     0
102
RTVSPropertyOp11
 70
     0
102
RTVSPropertyOp12
 70
     0
102
RTVSPropertyOp13
 70
     0
102
RTVSPropertyOp14
 70
     2
102
RTVSPropertyOp15
 70
     0
102
RTVSPropertyOp16
 70
     0
102
RTVSPropertyOp17
 70
     0
102
RTVSPropertyOp18
 70
     0
102
RTVSPropertyOp19
 70
     0
102
RTVSPropertyOp20
 70
     0
102
RTVSPropertyOp21
 70
     0
102
RTVSPropertyOp22
 70
     0
102
RTVSPropertyOp23
 70
     0
102
RTVSPropertyOp24
 70
     0
102
RTVSPropertyOp25
 70
     0
102
RTVSPropertyOp26
 70
     0
102
RTVSPropertyOp27
 70
     0
102
RTVSPropertyOp28
 70
     0
102
RTVSPropertyOp29
 70
     0
102
RTVSPropertyOp30
 70
     0
102
RTVSPropertyOp31
 70
     0
102
RTVSPropertyOp32
 70
     0
102
RTVSPropertyOp33
 70
     0
102
RTVSPropertyOp34
 70
     0
102
RTVSPropertyOp35
 70
     0
102
RTVSPropertyOp36
 70
     0
102
RTVSPropertyOp37
 70
     0
102
RTVSPropertyOp38
 70
     0
102
RTVSPropertyOp39
 70
     0
102
RTVSPropertyOp40
 70
     0
102
RTVSPropertyOp41
 70
     0
102
RTVSPropertyOp42
 70
     0
102
RTVSPropertyOp43
 70
     0
102
RTVSPropertyOp44
 70
     0
102
RTVSPropertyOp45
 70
     0
102
RTVSPropertyOp46
 70
     0
102
RTVSPropertyOp47
 70
     0
102
RTVSPropertyOp48
 70
     0
102
RTVSPropertyOp49
 70
     0
102
RTVSPropertyOp50
 70
     0
102
RTVSPropertyOp51
 70
     0
102
RTVSPropertyOp52
 70
     0
102
RTVSPropertyOp53
 70
     0
102
RTVSPropertyOp54
 70
     0
102
RTVSPropertyOp55
 70
     0
102
RTVSPropertyOp56
 70
     0
102
RTVSPropertyOp57
 70
     0
102
RTVSPost2010Prop28
280
     0
102
RTVSPost2010PropOp28
 70
     0
102
RTVSPost2010Prop29
280
     1
102
RTVSPost2010PropOp29
 70
     0
102
RTVSPost2010Prop30
280
     1
102
RTVSPost2010PropOp30
 70
     0
102
RTVSPost2010Prop31
280
     0
102
RTVSPost2010PropOp31
 70
     0
102
RTVSPost2010Prop32
280
     0
102
RTVSPost2010PropOp32
 70
     0
102
RTVSPost2010Prop33
280
     0
102
RTVSPost2010PropOp33
 70
     0
102
RTVSPost2010Prop34
280
     0
102
RTVSPost2010PropOp34
 70
     0
102
RTVSPost2010Prop35
280
     0
102
RTVSPost2010PropOp35
 70
     0
102
RTVSPost2010Prop36
280
     0
102
RTVSPost2010PropOp36
 70
     0
102
RTVSPost2010Prop37
 90
       50
102
RTVSPost2010PropOp37
 70
     0
102
RTVSPost2010Prop38
140
0.0
102
RTVSPost2010PropOp38
 70
     0
102
RTVSPost2010Prop39
140
1.0
102
RTVSPost2010PropOp39
 70
     0
102
RTVSPost2010Prop40
 90
        0
102
RTVSPost2010PropOp40
 70
     0
102
RTVSPost2010Prop41ColorIndex
 90
       18
102
RTVSPost2010Prop41ColorRGB
 90
        0
102
RTVSPost2010PropOp41
 70
     0
102
RTVSPost2010Prop42
 90
       50
102
RTVSPost2010PropOp42
 70
     0
102
RTVSPost2010Prop43
 90
        3
102
RTVSPost2010PropOp43
 70
     0
102
RTVSPost2010Prop44ColorIndex
 90
        5
102
RTVSPost2010Prop44ColorRGB
 90
      255
102
RTVSPost2010PropOp44
 70
     0
102
RTVSPost2010Prop45
280
     0
102
RTVSPost2010PropOp45
 70
     0
102
RTVSPost2010Prop46
 90
       50
102
RTVSPost2010PropOp46
 70
     0
102
RTVSPost2010Prop47
 90
       50
102
RTVSPost2010PropOp47
 70
     0
102
RTVSPost2010Prop48
 90
       50
102
RTVSPost2010PropOp48
 70
     0
102
RTVSPost2010Prop49
280
     0
102
RTVSPost2010PropOp49
 70
     0
102
RTVSPost2010Prop50
 90
       50
102
RTVSPost2010PropOp50
 70
     0
102
RTVSPost2010Prop51ColorIndex
 90
      256
102
RTVSPost2010Prop51ColorRGB
 90
-16777216
102
RTVSPost2010PropOp51
 70
     0
102
RTVSPost2010Prop52
140
1.0
102
RTVSPost2010PropOp52
 70
     0
102
RTVSPost2010Prop53
 90
        2
102
RTVSPost2010PropOp53
 70
     0
102
RTVSPost2010Prop54
  1
strokes_ogs.tif
102
RTVSPost2010PropOp54
 70
     0
102
RTVSPost2010Prop55
280
     0
102
RTVSPost2010PropOp55
 70
     0
102
RTVSPost2010Prop56
140
1.0
102
RTVSPost2010PropOp56
 70
     0
102
RTVSPost2010Prop57
140
1.0
102
RTVSPost2010PropOp57
 70
     0
  0
XRECORD
  5
376
102
{ACAD_REACTORS
330
375
102
}
330
375
100
AcDbXrecord
280
     1
102
RTVSPropertyOp0
 70
     1
102
RTVSPropertyOp1
 70
     1
102
RTVSPropertyOp2
 70
     1
102
RTVSPropertyOp3
 70
     1
102
RTVSPropertyOp4
 70
     1
102
RTVSPropertyOp5
 70
     1
102
RTVSPropertyOp6
 70
     1
102
RTVSPropertyOp7
 70
     1
102
RTVSPropertyOp8
 70
     1
102
RTVSPropertyOp9
 70
     1
102
RTVSPropertyOp10
 70
     1
102
RTVSPropertyOp11
 70
     1
102
RTVSPropertyOp12
 70
     1
102
RTVSPropertyOp13
 70
     1
102
RTVSPropertyOp14
 70
     1
102
RTVSPropertyOp15
 70
     1
102
RTVSPropertyOp16
 70
     1
102
RTVSPropertyOp17
 70
     1
102
RTVSPropertyOp18
 70
     1
102
RTVSPropertyOp19
 70
     1
102
RTVSPropertyOp20
 70
     1
102
RTVSPropertyOp21
 70
     1
102
RTVSPropertyOp22
 70
     1
102
RTVSPropertyOp23
 70
     1
102
RTVSPropertyOp24
 70
     1
102
RTVSPropertyOp25
 70
     1
102
RTVSPropertyOp26
 70
     1
102
RTVSPropertyOp27
 70
     1
102
RTVSPropertyOp28
 70
     1
102
RTVSPropertyOp29
 70
     1
102
RTVSPropertyOp30
 70
     1
102
RTVSPropertyOp31
 70
     1
102
RTVSPropertyOp32
 70
     1
102
RTVSPropertyOp33
 70
     1
102
RTVSPropertyOp34
 70
     1
102
RTVSPropertyOp35
 70
     1
102
RTVSPropertyOp36
 70
     1
102
RTVSPropertyOp37
 70
     1
102
RTVSPropertyOp38
 70
     1
102
RTVSPropertyOp39
 70
     1
102
RTVSPropertyOp40
 70
     1
102
RTVSPropertyOp41
 70
     1
102
RTVSPropertyOp42
 70
     1
102
RTVSPropertyOp43
 70
     1
102
RTVSPropertyOp44
 70
     1
102
RTVSPropertyOp45
 70
     1
102
RTVSPropertyOp46
 70
     1
102
RTVSPropertyOp47
 70
     1
102
RTVSPropertyOp48
 70
     1
102
RTVSPropertyOp49
 70
     1
102
RTVSPropertyOp50
 70
     1
102
RTVSPropertyOp51
 70
     0
102
RTVSPropertyOp52
 70
     0
102
RTVSPropertyOp53
 70
     1
102
RTVSPropertyOp54
 70
     1
102
RTVSPropertyOp55
 70
     1
102
RTVSPropertyOp56
 70
     1
102
RTVSPropertyOp57
 70
     1
102
RTVSPost2010Prop28
280
     0
102
RTVSPost2010PropOp28
 70
     1
102
RTVSPost2010Prop29
280
     1
102
RTVSPost2010PropOp29
 70
     1
102
RTVSPost2010Prop30
280
     1
102
RTVSPost2010PropOp30
 70
     1
102
RTVSPost2010Prop31
280
     0
102
RTVSPost2010PropOp31
 70
     1
102
RTVSPost2010Prop32
280
     0
102
RTVSPost2010PropOp32
 70
     1
102
RTVSPost2010Prop33
280
     0
102
RTVSPost2010PropOp33
 70
     1
102
RTVSPost2010Prop34
280
     0
102
RTVSPost2010PropOp34
 70
     1
102
RTVSPost2010Prop35
280
     0
102
RTVSPost2010PropOp35
 70
     1
102
RTVSPost2010Prop36
280
     0
102
RTVSPost2010PropOp36
 70
     1
102
RTVSPost2010Prop37
 90
       50
102
RTVSPost2010PropOp37
 70
     1
102
RTVSPost2010Prop38
140
0.0
102
RTVSPost2010PropOp38
 70
     1
102
RTVSPost2010Prop39
140
1.0
102
RTVSPost2010PropOp39
 70
     1
102
RTVSPost2010Prop40
 90
        0
102
RTVSPost2010PropOp40
 70
     1
102
RTVSPost2010Prop41ColorIndex
 90
       18
102
RTVSPost2010Prop41ColorRGB
 90
        0
102
RTVSPost2010PropOp41
 70
     1
102
RTVSPost2010Prop42
 90
       50
102
RTVSPost2010PropOp42
 70
     1
102
RTVSPost2010Prop43
 90
        3
102
RTVSPost2010PropOp43
 70
     1
102
RTVSPost2010Prop44ColorIndex
 90
        5
102
RTVSPost2010Prop44ColorRGB
 90
      255
102
RTVSPost2010PropOp44
 70
     1
102
RTVSPost2010Prop45
280
     0
102
RTVSPost2010PropOp45
 70
     1
102
RTVSPost2010Prop46
 90
       50
102
RTVSPost2010PropOp46
 70
     1
102
RTVSPost2010Prop47
 90
       50
102
RTVSPost2010PropOp47
 70
     1
102
RTVSPost2010Prop48
 90
       50
102
RTVSPost2010PropOp48
 70
     1
102
RTVSPost2010Prop49
280
     0
102
RTVSPost2010PropOp49
 70
     1
102
RTVSPost2010Prop50
 90
       50
102
RTVSPost2010PropOp50
 70
     1
102
RTVSPost2010Prop51ColorIndex
 90
      256
102
RTVSPost2010Prop51ColorRGB
 90
-16777216
102
RTVSPost2010PropOp51
 70
     0
102
RTVSPost2010Prop52
140
1.0
102
RTVSPost2010PropOp52
 70
     0
102
RTVSPost2010Prop53
 90
        2
102
RTVSPost2010PropOp53
 70
     1
102
RTVSPost2010Prop54
  1
strokes_ogs.tif
102
RTVSPost2010PropOp54
 70
     1
102
RTVSPost2010Prop55
280
     0
102
RTVSPost2010PropOp55
 70
     1
102
RTVSPost2010Prop56
140
1.0
102
RTVSPost2010PropOp56
 70
     1
102
RTVSPost2010Prop57
140
1.0
102
RTVSPost2010PropOp57
 70
     1
  0
XRECORD
  5
394
102
{ACAD_REACTORS
330
393
102
}
330
393
100
AcDbXrecord
280
     1
102
RTVSPropertyOp0
 70
     1
102
RTVSPropertyOp1
 70
     1
102
RTVSPropertyOp2
 70
     1
102
RTVSPropertyOp3
 70
     1
102
RTVSPropertyOp4
 70
     1
102
RTVSPropertyOp5
 70
     1
102
RTVSPropertyOp6
 70
     1
102
RTVSPropertyOp7
 70
     1
102
RTVSPropertyOp8
 70
     1
102
RTVSPropertyOp9
 70
     1
102
RTVSPropertyOp10
 70
     1
102
RTVSPropertyOp11
 70
     1
102
RTVSPropertyOp12
 70
     1
102
RTVSPropertyOp13
 70
     1
102
RTVSPropertyOp14
 70
     1
102
RTVSPropertyOp15
 70
     1
102
RTVSPropertyOp16
 70
     1
102
RTVSPropertyOp17
 70
     1
102
RTVSPropertyOp18
 70
     1
102
RTVSPropertyOp19
 70
     1
102
RTVSPropertyOp20
 70
     1
102
RTVSPropertyOp21
 70
     1
102
RTVSPropertyOp22
 70
     1
102
RTVSPropertyOp23
 70
     1
102
RTVSPropertyOp24
 70
     1
102
RTVSPropertyOp25
 70
     1
102
RTVSPropertyOp26
 70
     1
102
RTVSPropertyOp27
 70
     1
102
RTVSPropertyOp28
 70
     1
102
RTVSPropertyOp29
 70
     1
102
RTVSPropertyOp30
 70
     1
102
RTVSPropertyOp31
 70
     1
102
RTVSPropertyOp32
 70
     1
102
RTVSPropertyOp33
 70
     1
102
RTVSPropertyOp34
 70
     1
102
RTVSPropertyOp35
 70
     1
102
RTVSPropertyOp36
 70
     1
102
RTVSPropertyOp37
 70
     1
102
RTVSPropertyOp38
 70
     1
102
RTVSPropertyOp39
 70
     1
102
RTVSPropertyOp40
 70
     1
102
RTVSPropertyOp41
 70
     1
102
RTVSPropertyOp42
 70
     1
102
RTVSPropertyOp43
 70
     1
102
RTVSPropertyOp44
 70
     1
102
RTVSPropertyOp45
 70
     1
102
RTVSPropertyOp46
 70
     1
102
RTVSPropertyOp47
 70
     1
102
RTVSPropertyOp48
 70
     1
102
RTVSPropertyOp49
 70
     1
102
RTVSPropertyOp50
 70
     1
102
RTVSPropertyOp51
 70
     0
102
RTVSPropertyOp52
 70
     0
102
RTVSPropertyOp53
 70
     1
102
RTVSPropertyOp54
 70
     1
102
RTVSPropertyOp55
 70
     1
102
RTVSPropertyOp56
 70
     1
102
RTVSPropertyOp57
 70
     1
102
RTVSPost2010Prop28
280
     0
102
RTVSPost2010PropOp28
 70
     1
102
RTVSPost2010Prop29
280
     1
102
RTVSPost2010PropOp29
 70
     1
102
RTVSPost2010Prop30
280
     1
102
RTVSPost2010PropOp30
 70
     1
102
RTVSPost2010Prop31
280
     0
102
RTVSPost2010PropOp31
 70
     1
102
RTVSPost2010Prop32
280
     0
102
RTVSPost2010PropOp32
 70
     1
102
RTVSPost2010Prop33
280
     0
102
RTVSPost2010PropOp33
 70
     1
102
RTVSPost2010Prop34
280
     0
102
RTVSPost2010PropOp34
 70
     1
102
RTVSPost2010Prop35
280
     0
102
RTVSPost2010PropOp35
 70
     1
102
RTVSPost2010Prop36
280
     0
102
RTVSPost2010PropOp36
 70
     1
102
RTVSPost2010Prop37
 90
       50
102
RTVSPost2010PropOp37
 70
     1
102
RTVSPost2010Prop38
140
0.0
102
RTVSPost2010PropOp38
 70
     1
102
RTVSPost2010Prop39
140
1.0
102
RTVSPost2010PropOp39
 70
     1
102
RTVSPost2010Prop40
 90
        0
102
RTVSPost2010PropOp40
 70
     1
102
RTVSPost2010Prop41ColorIndex
 90
       18
102
RTVSPost2010Prop41ColorRGB
 90
        0
102
RTVSPost2010PropOp41
 70
     1
102
RTVSPost2010Prop42
 90
       50
102
RTVSPost2010PropOp42
 70
     1
102
RTVSPost2010Prop43
 90
        3
102
RTVSPost2010PropOp43
 70
     1
102
RTVSPost2010Prop44ColorIndex
 90
        5
102
RTVSPost2010Prop44ColorRGB
 90
      255
102
RTVSPost2010PropOp44
 70
     1
102
RTVSPost2010Prop45
280
     0
102
RTVSPost2010PropOp45
 70
     1
102
RTVSPost2010Prop46
 90
       50
102
RTVSPost2010PropOp46
 70
     1
102
RTVSPost2010Prop47
 90
       50
102
RTVSPost2010PropOp47
 70
     1
102
RTVSPost2010Prop48
 90
       50
102
RTVSPost2010PropOp48
 70
     1
102
RTVSPost2010Prop49
280
     0
102
RTVSPost2010PropOp49
 70
     1
102
RTVSPost2010Prop50
 90
       50
102
RTVSPost2010PropOp50
 70
     1
102
RTVSPost2010Prop51ColorIndex
 90
      256
102
RTVSPost2010Prop51ColorRGB
 90
-16777216
102
RTVSPost2010PropOp51
 70
     0
102
RTVSPost2010Prop52
140
1.0
102
RTVSPost2010PropOp52
 70
     0
102
RTVSPost2010Prop53
 90
        2
102
RTVSPost2010PropOp53
 70
     1
102
RTVSPost2010Prop54
  1
strokes_ogs.tif
102
RTVSPost2010PropOp54
 70
     1
102
RTVSPost2010Prop55
280
     0
102
RTVSPost2010PropOp55
 70
     1
102
RTVSPost2010Prop56
140
1.0
102
RTVSPost2010PropOp56
 70
     1
102
RTVSPost2010Prop57
140
1.0
102
RTVSPost2010PropOp57
 70
     1
  0
XRECORD
  5
392
102
{ACAD_REACTORS
330
391
102
}
330
391
100
AcDbXrecord
280
     1
102
RTVSPropertyOp0
 70
     1
102
RTVSPropertyOp1
 70
     1
102
RTVSPropertyOp2
 70
     1
102
RTVSPropertyOp3
 70
     1
102
RTVSPropertyOp4
 70
     1
102
RTVSPropertyOp5
 70
     1
102
RTVSPropertyOp6
 70
     1
102
RTVSPropertyOp7
 70
     1
102
RTVSPropertyOp8
 70
     1
102
RTVSPropertyOp9
 70
     1
102
RTVSPropertyOp10
 70
     1
102
RTVSPropertyOp11
 70
     1
102
RTVSPropertyOp12
 70
     1
102
RTVSPropertyOp13
 70
     1
102
RTVSPropertyOp14
 70
     1
102
RTVSPropertyOp15
 70
     1
102
RTVSPropertyOp16
 70
     1
102
RTVSPropertyOp17
 70
     1
102
RTVSPropertyOp18
 70
     1
102
RTVSPropertyOp19
 70
     1
102
RTVSPropertyOp20
 70
     1
102
RTVSPropertyOp21
 70
     1
102
RTVSPropertyOp22
 70
     1
102
RTVSPropertyOp23
 70
     1
102
RTVSPropertyOp24
 70
     1
102
RTVSPropertyOp25
 70
     1
102
RTVSPropertyOp26
 70
     1
102
RTVSPropertyOp27
 70
     1
102
RTVSPropertyOp28
 70
     1
102
RTVSPropertyOp29
 70
     1
102
RTVSPropertyOp30
 70
     1
102
RTVSPropertyOp31
 70
     1
102
RTVSPropertyOp32
 70
     1
102
RTVSPropertyOp33
 70
     1
102
RTVSPropertyOp34
 70
     1
102
RTVSPropertyOp35
 70
     1
102
RTVSPropertyOp36
 70
     1
102
RTVSPropertyOp37
 70
     1
102
RTVSPropertyOp38
 70
     1
102
RTVSPropertyOp39
 70
     1
102
RTVSPropertyOp40
 70
     1
102
RTVSPropertyOp41
 70
     1
102
RTVSPropertyOp42
 70
     1
102
RTVSPropertyOp43
 70
     1
102
RTVSPropertyOp44
 70
     1
102
RTVSPropertyOp45
 70
     1
102
RTVSPropertyOp46
 70
     1
102
RTVSPropertyOp47
 70
     1
102
RTVSPropertyOp48
 70
     1
102
RTVSPropertyOp49
 70
     1
102
RTVSPropertyOp50
 70
     1
102
RTVSPropertyOp51
 70
     0
102
RTVSPropertyOp52
 70
     0
102
RTVSPropertyOp53
 70
     1
102
RTVSPropertyOp54
 70
     1
102
RTVSPropertyOp55
 70
     1
102
RTVSPropertyOp56
 70
     1
102
RTVSPropertyOp57
 70
     1
102
RTVSPost2010Prop28
280
     0
102
RTVSPost2010PropOp28
 70
     1
102
RTVSPost2010Prop29
280
     1
102
RTVSPost2010PropOp29
 70
     1
102
RTVSPost2010Prop30
280
     1
102
RTVSPost2010PropOp30
 70
     1
102
RTVSPost2010Prop31
280
     0
102
RTVSPost2010PropOp31
 70
     1
102
RTVSPost2010Prop32
280
     0
102
RTVSPost2010PropOp32
 70
     1
102
RTVSPost2010Prop33
280
     0
102
RTVSPost2010PropOp33
 70
     1
102
RTVSPost2010Prop34
280
     0
102
RTVSPost2010PropOp34
 70
     1
102
RTVSPost2010Prop35
280
     0
102
RTVSPost2010PropOp35
 70
     1
102
RTVSPost2010Prop36
280
     0
102
RTVSPost2010PropOp36
 70
     1
102
RTVSPost2010Prop37
 90
       50
102
RTVSPost2010PropOp37
 70
     1
102
RTVSPost2010Prop38
140
0.0
102
RTVSPost2010PropOp38
 70
     1
102
RTVSPost2010Prop39
140
1.0
102
RTVSPost2010PropOp39
 70
     1
102
RTVSPost2010Prop40
 90
        0
102
RTVSPost2010PropOp40
 70
     1
102
RTVSPost2010Prop41ColorIndex
 90
       18
102
RTVSPost2010Prop41ColorRGB
 90
        0
102
RTVSPost2010PropOp41
 70
     1
102
RTVSPost2010Prop42
 90
       50
102
RTVSPost2010PropOp42
 70
     1
102
RTVSPost2010Prop43
 90
        3
102
RTVSPost2010PropOp43
 70
     1
102
RTVSPost2010Prop44ColorIndex
 90
        5
102
RTVSPost2010Prop44ColorRGB
 90
      255
102
RTVSPost2010PropOp44
 70
     1
102
RTVSPost2010Prop45
280
     0
102
RTVSPost2010PropOp45
 70
     1
102
RTVSPost2010Prop46
 90
       50
102
RTVSPost2010PropOp46
 70
     1
102
RTVSPost2010Prop47
 90
       50
102
RTVSPost2010PropOp47
 70
     1
102
RTVSPost2010Prop48
 90
       50
102
RTVSPost2010PropOp48
 70
     1
102
RTVSPost2010Prop49
280
     0
102
RTVSPost2010PropOp49
 70
     1
102
RTVSPost2010Prop50
 90
       50
102
RTVSPost2010PropOp50
 70
     1
102
RTVSPost2010Prop51ColorIndex
 90
      256
102
RTVSPost2010Prop51ColorRGB
 90
-16777216
102
RTVSPost2010PropOp51
 70
     0
102
RTVSPost2010Prop52
140
1.0
102
RTVSPost2010PropOp52
 70
     0
102
RTVSPost2010Prop53
 90
        2
102
RTVSPost2010PropOp53
 70
     1
102
RTVSPost2010Prop54
  1
strokes_ogs.tif
102
RTVSPost2010PropOp54
 70
     1
102
RTVSPost2010Prop55
280
     0
102
RTVSPost2010PropOp55
 70
     1
102
RTVSPost2010Prop56
140
1.0
102
RTVSPost2010PropOp56
 70
     1
102
RTVSPost2010Prop57
140
1.0
102
RTVSPost2010PropOp57
 70
     1
  0
XRECORD
  5
38C
102
{ACAD_REACTORS
330
38B
102
}
330
38B
100
AcDbXrecord
280
     1
102
RTVSPropertyOp0
 70
     1
102
RTVSPropertyOp1
 70
     1
102
RTVSPropertyOp2
 70
     1
102
RTVSPropertyOp3
 70
     1
102
RTVSPropertyOp4
 70
     1
102
RTVSPropertyOp5
 70
     1
102
RTVSPropertyOp6
 70
     1
102
RTVSPropertyOp7
 70
     1
102
RTVSPropertyOp8
 70
     1
102
RTVSPropertyOp9
 70
     1
102
RTVSPropertyOp10
 70
     1
102
RTVSPropertyOp11
 70
     1
102
RTVSPropertyOp12
 70
     1
102
RTVSPropertyOp13
 70
     1
102
RTVSPropertyOp14
 70
     1
102
RTVSPropertyOp15
 70
     1
102
RTVSPropertyOp16
 70
     1
102
RTVSPropertyOp17
 70
     1
102
RTVSPropertyOp18
 70
     1
102
RTVSPropertyOp19
 70
     1
102
RTVSPropertyOp20
 70
     1
102
RTVSPropertyOp21
 70
     1
102
RTVSPropertyOp22
 70
     1
102
RTVSPropertyOp23
 70
     1
102
RTVSPropertyOp24
 70
     1
102
RTVSPropertyOp25
 70
     1
102
RTVSPropertyOp26
 70
     1
102
RTVSPropertyOp27
 70
     1
102
RTVSPropertyOp28
 70
     1
102
RTVSPropertyOp29
 70
     1
102
RTVSPropertyOp30
 70
     1
102
RTVSPropertyOp31
 70
     1
102
RTVSPropertyOp32
 70
     1
102
RTVSPropertyOp33
 70
     1
102
RTVSPropertyOp34
 70
     1
102
RTVSPropertyOp35
 70
     1
102
RTVSPropertyOp36
 70
     1
102
RTVSPropertyOp37
 70
     1
102
RTVSPropertyOp38
 70
     1
102
RTVSPropertyOp39
 70
     1
102
RTVSPropertyOp40
 70
     1
102
RTVSPropertyOp41
 70
     1
102
RTVSPropertyOp42
 70
     1
102
RTVSPropertyOp43
 70
     1
102
RTVSPropertyOp44
 70
     1
102
RTVSPropertyOp45
 70
     1
102
RTVSPropertyOp46
 70
     1
102
RTVSPropertyOp47
 70
     1
102
RTVSPropertyOp48
 70
     1
102
RTVSPropertyOp49
 70
     1
102
RTVSPropertyOp50
 70
     1
102
RTVSPropertyOp51
 70
     0
102
RTVSPropertyOp52
 70
     0
102
RTVSPropertyOp53
 70
     1
102
RTVSPropertyOp54
 70
     1
102
RTVSPropertyOp55
 70
     1
102
RTVSPropertyOp56
 70
     1
102
RTVSPropertyOp57
 70
     1
102
RTVSPost2010Prop28
280
     0
102
RTVSPost2010PropOp28
 70
     1
102
RTVSPost2010Prop29
280
     1
102
RTVSPost2010PropOp29
 70
     1
102
RTVSPost2010Prop30
280
     1
102
RTVSPost2010PropOp30
 70
     1
102
RTVSPost2010Prop31
280
     0
102
RTVSPost2010PropOp31
 70
     1
102
RTVSPost2010Prop32
280
     0
102
RTVSPost2010PropOp32
 70
     1
102
RTVSPost2010Prop33
280
     0
102
RTVSPost2010PropOp33
 70
     1
102
RTVSPost2010Prop34
280
     0
102
RTVSPost2010PropOp34
 70
     1
102
RTVSPost2010Prop35
280
     0
102
RTVSPost2010PropOp35
 70
     1
102
RTVSPost2010Prop36
280
     0
102
RTVSPost2010PropOp36
 70
     1
102
RTVSPost2010Prop37
 90
       50
102
RTVSPost2010PropOp37
 70
     1
102
RTVSPost2010Prop38
140
0.0
102
RTVSPost2010PropOp38
 70
     1
102
RTVSPost2010Prop39
140
1.0
102
RTVSPost2010PropOp39
 70
     1
102
RTVSPost2010Prop40
 90
        0
102
RTVSPost2010PropOp40
 70
     1
102
RTVSPost2010Prop41ColorIndex
 90
       18
102
RTVSPost2010Prop41ColorRGB
 90
        0
102
RTVSPost2010PropOp41
 70
     1
102
RTVSPost2010Prop42
 90
       50
102
RTVSPost2010PropOp42
 70
     1
102
RTVSPost2010Prop43
 90
        3
102
RTVSPost2010PropOp43
 70
     1
102
RTVSPost2010Prop44ColorIndex
 90
        5
102
RTVSPost2010Prop44ColorRGB
 90
      255
102
RTVSPost2010PropOp44
 70
     1
102
RTVSPost2010Prop45
280
     0
102
RTVSPost2010PropOp45
 70
     1
102
RTVSPost2010Prop46
 90
       50
102
RTVSPost2010PropOp46
 70
     1
102
RTVSPost2010Prop47
 90
       50
102
RTVSPost2010PropOp47
 70
     1
102
RTVSPost2010Prop48
 90
       50
102
RTVSPost2010PropOp48
 70
     1
102
RTVSPost2010Prop49
280
     0
102
RTVSPost2010PropOp49
 70
     1
102
RTVSPost2010Prop50
 90
       50
102
RTVSPost2010PropOp50
 70
     1
102
RTVSPost2010Prop51ColorIndex
 90
      256
102
RTVSPost2010Prop51ColorRGB
 90
-16777216
102
RTVSPost2010PropOp51
 70
     0
102
RTVSPost2010Prop52
140
1.0
102
RTVSPost2010PropOp52
 70
     0
102
RTVSPost2010Prop53
 90
        2
102
RTVSPost2010PropOp53
 70
     1
102
RTVSPost2010Prop54
  1
strokes_ogs.tif
102
RTVSPost2010PropOp54
 70
     1
102
RTVSPost2010Prop55
280
     0
102
RTVSPost2010PropOp55
 70
     1
102
RTVSPost2010Prop56
140
1.0
102
RTVSPost2010PropOp56
 70
     1
102
RTVSPost2010Prop57
140
1.0
102
RTVSPost2010PropOp57
 70
     1
  0
XRECORD
  5
38E
102
{ACAD_REACTORS
330
38D
102
}
330
38D
100
AcDbXrecord
280
     1
102
RTVSPropertyOp0
 70
     1
102
RTVSPropertyOp1
 70
     1
102
RTVSPropertyOp2
 70
     1
102
RTVSPropertyOp3
 70
     1
102
RTVSPropertyOp4
 70
     1
102
RTVSPropertyOp5
 70
     1
102
RTVSPropertyOp6
 70
     1
102
RTVSPropertyOp7
 70
     1
102
RTVSPropertyOp8
 70
     1
102
RTVSPropertyOp9
 70
     1
102
RTVSPropertyOp10
 70
     1
102
RTVSPropertyOp11
 70
     1
102
RTVSPropertyOp12
 70
     1
102
RTVSPropertyOp13
 70
     1
102
RTVSPropertyOp14
 70
     1
102
RTVSPropertyOp15
 70
     1
102
RTVSPropertyOp16
 70
     1
102
RTVSPropertyOp17
 70
     1
102
RTVSPropertyOp18
 70
     1
102
RTVSPropertyOp19
 70
     1
102
RTVSPropertyOp20
 70
     1
102
RTVSPropertyOp21
 70
     1
102
RTVSPropertyOp22
 70
     1
102
RTVSPropertyOp23
 70
     1
102
RTVSPropertyOp24
 70
     1
102
RTVSPropertyOp25
 70
     1
102
RTVSPropertyOp26
 70
     1
102
RTVSPropertyOp27
 70
     1
102
RTVSPropertyOp28
 70
     1
102
RTVSPropertyOp29
 70
     1
102
RTVSPropertyOp30
 70
     1
102
RTVSPropertyOp31
 70
     1
102
RTVSPropertyOp32
 70
     1
102
RTVSPropertyOp33
 70
     1
102
RTVSPropertyOp34
 70
     1
102
RTVSPropertyOp35
 70
     1
102
RTVSPropertyOp36
 70
     1
102
RTVSPropertyOp37
 70
     1
102
RTVSPropertyOp38
 70
     1
102
RTVSPropertyOp39
 70
     1
102
RTVSPropertyOp40
 70
     1
102
RTVSPropertyOp41
 70
     1
102
RTVSPropertyOp42
 70
     1
102
RTVSPropertyOp43
 70
     1
102
RTVSPropertyOp44
 70
     1
102
RTVSPropertyOp45
 70
     1
102
RTVSPropertyOp46
 70
     1
102
RTVSPropertyOp47
 70
     1
102
RTVSPropertyOp48
 70
     1
102
RTVSPropertyOp49
 70
     1
102
RTVSPropertyOp50
 70
     1
102
RTVSPropertyOp51
 70
     0
102
RTVSPropertyOp52
 70
     0
102
RTVSPropertyOp53
 70
     1
102
RTVSPropertyOp54
 70
     1
102
RTVSPropertyOp55
 70
     1
102
RTVSPropertyOp56
 70
     1
102
RTVSPropertyOp57
 70
     1
102
RTVSPost2010Prop28
280
     0
102
RTVSPost2010PropOp28
 70
     1
102
RTVSPost2010Prop29
280
     1
102
RTVSPost2010PropOp29
 70
     1
102
RTVSPost2010Prop30
280
     1
102
RTVSPost2010PropOp30
 70
     1
102
RTVSPost2010Prop31
280
     0
102
RTVSPost2010PropOp31
 70
     1
102
RTVSPost2010Prop32
280
     0
102
RTVSPost2010PropOp32
 70
     1
102
RTVSPost2010Prop33
280
     0
102
RTVSPost2010PropOp33
 70
     1
102
RTVSPost2010Prop34
280
     0
102
RTVSPost2010PropOp34
 70
     1
102
RTVSPost2010Prop35
280
     0
102
RTVSPost2010PropOp35
 70
     1
102
RTVSPost2010Prop36
280
     0
102
RTVSPost2010PropOp36
 70
     1
102
RTVSPost2010Prop37
 90
       50
102
RTVSPost2010PropOp37
 70
     1
102
RTVSPost2010Prop38
140
0.0
102
RTVSPost2010PropOp38
 70
     1
102
RTVSPost2010Prop39
140
1.0
102
RTVSPost2010PropOp39
 70
     1
102
RTVSPost2010Prop40
 90
        0
102
RTVSPost2010PropOp40
 70
     1
102
RTVSPost2010Prop41ColorIndex
 90
       18
102
RTVSPost2010Prop41ColorRGB
 90
        0
102
RTVSPost2010PropOp41
 70
     1
102
RTVSPost2010Prop42
 90
       50
102
RTVSPost2010PropOp42
 70
     1
102
RTVSPost2010Prop43
 90
        3
102
RTVSPost2010PropOp43
 70
     1
102
RTVSPost2010Prop44ColorIndex
 90
        5
102
RTVSPost2010Prop44ColorRGB
 90
      255
102
RTVSPost2010PropOp44
 70
     1
102
RTVSPost2010Prop45
280
     0
102
RTVSPost2010PropOp45
 70
     1
102
RTVSPost2010Prop46
 90
       50
102
RTVSPost2010PropOp46
 70
     1
102
RTVSPost2010Prop47
 90
       50
102
RTVSPost2010PropOp47
 70
     1
102
RTVSPost2010Prop48
 90
       50
102
RTVSPost2010PropOp48
 70
     1
102
RTVSPost2010Prop49
280
     0
102
RTVSPost2010PropOp49
 70
     1
102
RTVSPost2010Prop50
 90
       50
102
RTVSPost2010PropOp50
 70
     1
102
RTVSPost2010Prop51ColorIndex
 90
      256
102
RTVSPost2010Prop51ColorRGB
 90
-16777216
102
RTVSPost2010PropOp51
 70
     0
102
RTVSPost2010Prop52
140
1.0
102
RTVSPost2010PropOp52
 70
     0
102
RTVSPost2010Prop53
 90
        2
102
RTVSPost2010PropOp53
 70
     1
102
RTVSPost2010Prop54
  1
strokes_ogs.tif
102
RTVSPost2010PropOp54
 70
     1
102
RTVSPost2010Prop55
280
     0
102
RTVSPost2010PropOp55
 70
     1
102
RTVSPost2010Prop56
140
1.0
102
RTVSPost2010PropOp56
 70
     1
102
RTVSPost2010Prop57
140
1.0
102
RTVSPost2010PropOp57
 70
     1
  0
XRECORD
  5
37E
102
{ACAD_REACTORS
330
37D
102
}
330
37D
100
AcDbXrecord
280
     1
102
RTVSPropertyOp0
 70
     1
102
RTVSPropertyOp1
 70
     1
102
RTVSPropertyOp2
 70
     1
102
RTVSPropertyOp3
 70
     1
102
RTVSPropertyOp4
 70
     1
102
RTVSPropertyOp5
 70
     1
102
RTVSPropertyOp6
 70
     1
102
RTVSPropertyOp7
 70
     1
102
RTVSPropertyOp8
 70
     1
102
RTVSPropertyOp9
 70
     1
102
RTVSPropertyOp10
 70
     1
102
RTVSPropertyOp11
 70
     1
102
RTVSPropertyOp12
 70
     1
102
RTVSPropertyOp13
 70
     1
102
RTVSPropertyOp14
 70
     1
102
RTVSPropertyOp15
 70
     1
102
RTVSPropertyOp16
 70
     1
102
RTVSPropertyOp17
 70
     1
102
RTVSPropertyOp18
 70
     1
102
RTVSPropertyOp19
 70
     1
102
RTVSPropertyOp20
 70
     1
102
RTVSPropertyOp21
 70
     1
102
RTVSPropertyOp22
 70
     1
102
RTVSPropertyOp23
 70
     1
102
RTVSPropertyOp24
 70
     1
102
RTVSPropertyOp25
 70
     1
102
RTVSPropertyOp26
 70
     1
102
RTVSPropertyOp27
 70
     1
102
RTVSPropertyOp28
 70
     1
102
RTVSPropertyOp29
 70
     1
102
RTVSPropertyOp30
 70
     1
102
RTVSPropertyOp31
 70
     1
102
RTVSPropertyOp32
 70
     1
102
RTVSPropertyOp33
 70
     1
102
RTVSPropertyOp34
 70
     1
102
RTVSPropertyOp35
 70
     1
102
RTVSPropertyOp36
 70
     1
102
RTVSPropertyOp37
 70
     1
102
RTVSPropertyOp38
 70
     1
102
RTVSPropertyOp39
 70
     1
102
RTVSPropertyOp40
 70
     1
102
RTVSPropertyOp41
 70
     1
102
RTVSPropertyOp42
 70
     1
102
RTVSPropertyOp43
 70
     1
102
RTVSPropertyOp44
 70
     1
102
RTVSPropertyOp45
 70
     1
102
RTVSPropertyOp46
 70
     1
102
RTVSPropertyOp47
 70
     1
102
RTVSPropertyOp48
 70
     1
102
RTVSPropertyOp49
 70
     1
102
RTVSPropertyOp50
 70
     1
102
RTVSPropertyOp51
 70
     0
102
RTVSPropertyOp52
 70
     0
102
RTVSPropertyOp53
 70
     1
102
RTVSPropertyOp54
 70
     1
102
RTVSPropertyOp55
 70
     1
102
RTVSPropertyOp56
 70
     1
102
RTVSPropertyOp57
 70
     1
102
RTVSPost2010Prop28
280
     0
102
RTVSPost2010PropOp28
 70
     1
102
RTVSPost2010Prop29
280
     1
102
RTVSPost2010PropOp29
 70
     1
102
RTVSPost2010Prop30
280
     1
102
RTVSPost2010PropOp30
 70
     1
102
RTVSPost2010Prop31
280
     0
102
RTVSPost2010PropOp31
 70
     1
102
RTVSPost2010Prop32
280
     0
102
RTVSPost2010PropOp32
 70
     1
102
RTVSPost2010Prop33
280
     0
102
RTVSPost2010PropOp33
 70
     1
102
RTVSPost2010Prop34
280
     0
102
RTVSPost2010PropOp34
 70
     1
102
RTVSPost2010Prop35
280
     0
102
RTVSPost2010PropOp35
 70
     1
102
RTVSPost2010Prop36
280
     0
102
RTVSPost2010PropOp36
 70
     1
102
RTVSPost2010Prop37
 90
       50
102
RTVSPost2010PropOp37
 70
     1
102
RTVSPost2010Prop38
140
0.0
102
RTVSPost2010PropOp38
 70
     1
102
RTVSPost2010Prop39
140
1.0
102
RTVSPost2010PropOp39
 70
     1
102
RTVSPost2010Prop40
 90
        0
102
RTVSPost2010PropOp40
 70
     1
102
RTVSPost2010Prop41ColorIndex
 90
       18
102
RTVSPost2010Prop41ColorRGB
 90
        0
102
RTVSPost2010PropOp41
 70
     1
102
RTVSPost2010Prop42
 90
       50
102
RTVSPost2010PropOp42
 70
     1
102
RTVSPost2010Prop43
 90
        3
102
RTVSPost2010PropOp43
 70
     1
102
RTVSPost2010Prop44ColorIndex
 90
        5
102
RTVSPost2010Prop44ColorRGB
 90
      255
102
RTVSPost2010PropOp44
 70
     1
102
RTVSPost2010Prop45
280
     0
102
RTVSPost2010PropOp45
 70
     1
102
RTVSPost2010Prop46
 90
       50
102
RTVSPost2010PropOp46
 70
     1
102
RTVSPost2010Prop47
 90
       50
102
RTVSPost2010PropOp47
 70
     1
102
RTVSPost2010Prop48
 90
       50
102
RTVSPost2010PropOp48
 70
     1
102
RTVSPost2010Prop49
280
     0
102
RTVSPost2010PropOp49
 70
     1
102
RTVSPost2010Prop50
 90
       50
102
RTVSPost2010PropOp50
 70
     1
102
RTVSPost2010Prop51ColorIndex
 90
      256
102
RTVSPost2010Prop51ColorRGB
 90
-16777216
102
RTVSPost2010PropOp51
 70
     0
102
RTVSPost2010Prop52
140
1.0
102
RTVSPost2010PropOp52
 70
     0
102
RTVSPost2010Prop53
 90
        2
102
RTVSPost2010PropOp53
 70
     1
102
RTVSPost2010Prop54
  1
strokes_ogs.tif
102
RTVSPost2010PropOp54
 70
     1
102
RTVSPost2010Prop55
280
     0
102
RTVSPost2010PropOp55
 70
     1
102
RTVSPost2010Prop56
140
1.0
102
RTVSPost2010PropOp56
 70
     1
102
RTVSPost2010Prop57
140
1.0
102
RTVSPost2010PropOp57
 70
     1
  0
XRECORD
  5
370
102
{ACAD_REACTORS
330
36F
102
}
330
36F
100
AcDbXrecord
280
     1
102
RTVSPropertyOp0
 70
     1
102
RTVSPropertyOp1
 70
     1
102
RTVSPropertyOp2
 70
     1
102
RTVSPropertyOp3
 70
     1
102
RTVSPropertyOp4
 70
     1
102
RTVSPropertyOp5
 70
     1
102
RTVSPropertyOp6
 70
     1
102
RTVSPropertyOp7
 70
     1
102
RTVSPropertyOp8
 70
     1
102
RTVSPropertyOp9
 70
     1
102
RTVSPropertyOp10
 70
     1
102
RTVSPropertyOp11
 70
     1
102
RTVSPropertyOp12
 70
     1
102
RTVSPropertyOp13
 70
     1
102
RTVSPropertyOp14
 70
     1
102
RTVSPropertyOp15
 70
     1
102
RTVSPropertyOp16
 70
     1
102
RTVSPropertyOp17
 70
     1
102
RTVSPropertyOp18
 70
     1
102
RTVSPropertyOp19
 70
     1
102
RTVSPropertyOp20
 70
     1
102
RTVSPropertyOp21
 70
     1
102
RTVSPropertyOp22
 70
     1
102
RTVSPropertyOp23
 70
     1
102
RTVSPropertyOp24
 70
     1
102
RTVSPropertyOp25
 70
     1
102
RTVSPropertyOp26
 70
     1
102
RTVSPropertyOp27
 70
     1
102
RTVSPropertyOp28
 70
     1
102
RTVSPropertyOp29
 70
     1
102
RTVSPropertyOp30
 70
     1
102
RTVSPropertyOp31
 70
     1
102
RTVSPropertyOp32
 70
     1
102
RTVSPropertyOp33
 70
     1
102
RTVSPropertyOp34
 70
     1
102
RTVSPropertyOp35
 70
     1
102
RTVSPropertyOp36
 70
     1
102
RTVSPropertyOp37
 70
     1
102
RTVSPropertyOp38
 70
     1
102
RTVSPropertyOp39
 70
     1
102
RTVSPropertyOp40
 70
     1
102
RTVSPropertyOp41
 70
     1
102
RTVSPropertyOp42
 70
     1
102
RTVSPropertyOp43
 70
     1
102
RTVSPropertyOp44
 70
     1
102
RTVSPropertyOp45
 70
     1
102
RTVSPropertyOp46
 70
     1
102
RTVSPropertyOp47
 70
     1
102
RTVSPropertyOp48
 70
     1
102
RTVSPropertyOp49
 70
     1
102
RTVSPropertyOp50
 70
     1
102
RTVSPropertyOp51
 70
     0
102
RTVSPropertyOp52
 70
     0
102
RTVSPropertyOp53
 70
     1
102
RTVSPropertyOp54
 70
     1
102
RTVSPropertyOp55
 70
     1
102
RTVSPropertyOp56
 70
     1
102
RTVSPropertyOp57
 70
     1
102
RTVSPost2010Prop28
280
     0
102
RTVSPost2010PropOp28
 70
     1
102
RTVSPost2010Prop29
280
     1
102
RTVSPost2010PropOp29
 70
     1
102
RTVSPost2010Prop30
280
     1
102
RTVSPost2010PropOp30
 70
     1
102
RTVSPost2010Prop31
280
     0
102
RTVSPost2010PropOp31
 70
     1
102
RTVSPost2010Prop32
280
     0
102
RTVSPost2010PropOp32
 70
     1
102
RTVSPost2010Prop33
280
     0
102
RTVSPost2010PropOp33
 70
     1
102
RTVSPost2010Prop34
280
     0
102
RTVSPost2010PropOp34
 70
     1
102
RTVSPost2010Prop35
280
     0
102
RTVSPost2010PropOp35
 70
     1
102
RTVSPost2010Prop36
280
     0
102
RTVSPost2010PropOp36
 70
     1
102
RTVSPost2010Prop37
 90
       50
102
RTVSPost2010PropOp37
 70
     1
102
RTVSPost2010Prop38
140
0.0
102
RTVSPost2010PropOp38
 70
     1
102
RTVSPost2010Prop39
140
1.0
102
RTVSPost2010PropOp39
 70
     1
102
RTVSPost2010Prop40
 90
        0
102
RTVSPost2010PropOp40
 70
     1
102
RTVSPost2010Prop41ColorIndex
 90
       18
102
RTVSPost2010Prop41ColorRGB
 90
        0
102
RTVSPost2010PropOp41
 70
     1
102
RTVSPost2010Prop42
 90
       50
102
RTVSPost2010PropOp42
 70
     1
102
RTVSPost2010Prop43
 90
        3
102
RTVSPost2010PropOp43
 70
     1
102
RTVSPost2010Prop44ColorIndex
 90
        5
102
RTVSPost2010Prop44ColorRGB
 90
      255
102
RTVSPost2010PropOp44
 70
     1
102
RTVSPost2010Prop45
280
     0
102
RTVSPost2010PropOp45
 70
     1
102
RTVSPost2010Prop46
 90
       50
102
RTVSPost2010PropOp46
 70
     1
102
RTVSPost2010Prop47
 90
       50
102
RTVSPost2010PropOp47
 70
     1
102
RTVSPost2010Prop48
 90
       50
102
RTVSPost2010PropOp48
 70
     1
102
RTVSPost2010Prop49
280
     0
102
RTVSPost2010PropOp49
 70
     1
102
RTVSPost2010Prop50
 90
       50
102
RTVSPost2010PropOp50
 70
     1
102
RTVSPost2010Prop51ColorIndex
 90
      256
102
RTVSPost2010Prop51ColorRGB
 90
-16777216
102
RTVSPost2010PropOp51
 70
     0
102
RTVSPost2010Prop52
140
1.0
102
RTVSPost2010PropOp52
 70
     0
102
RTVSPost2010Prop53
 90
        2
102
RTVSPost2010PropOp53
 70
     1
102
RTVSPost2010Prop54
  1
strokes_ogs.tif
102
RTVSPost2010PropOp54
 70
     1
102
RTVSPost2010Prop55
280
     0
102
RTVSPost2010PropOp55
 70
     1
102
RTVSPost2010Prop56
140
1.0
102
RTVSPost2010PropOp56
 70
     1
102
RTVSPost2010Prop57
140
1.0
102
RTVSPost2010PropOp57
 70
     1
  0
XRECORD
  5
390
102
{ACAD_REACTORS
330
38F
102
}
330
38F
100
AcDbXrecord
280
     1
102
RTVSPropertyOp0
 70
     1
102
RTVSPropertyOp1
 70
     1
102
RTVSPropertyOp2
 70
     1
102
RTVSPropertyOp3
 70
     1
102
RTVSPropertyOp4
 70
     1
102
RTVSPropertyOp5
 70
     1
102
RTVSPropertyOp6
 70
     1
102
RTVSPropertyOp7
 70
     1
102
RTVSPropertyOp8
 70
     1
102
RTVSPropertyOp9
 70
     1
102
RTVSPropertyOp10
 70
     1
102
RTVSPropertyOp11
 70
     1
102
RTVSPropertyOp12
 70
     1
102
RTVSPropertyOp13
 70
     1
102
RTVSPropertyOp14
 70
     1
102
RTVSPropertyOp15
 70
     1
102
RTVSPropertyOp16
 70
     1
102
RTVSPropertyOp17
 70
     1
102
RTVSPropertyOp18
 70
     1
102
RTVSPropertyOp19
 70
     1
102
RTVSPropertyOp20
 70
     1
102
RTVSPropertyOp21
 70
     1
102
RTVSPropertyOp22
 70
     1
102
RTVSPropertyOp23
 70
     1
102
RTVSPropertyOp24
 70
     1
102
RTVSPropertyOp25
 70
     1
102
RTVSPropertyOp26
 70
     1
102
RTVSPropertyOp27
 70
     1
102
RTVSPropertyOp28
 70
     1
102
RTVSPropertyOp29
 70
     1
102
RTVSPropertyOp30
 70
     1
102
RTVSPropertyOp31
 70
     1
102
RTVSPropertyOp32
 70
     1
102
RTVSPropertyOp33
 70
     1
102
RTVSPropertyOp34
 70
     1
102
RTVSPropertyOp35
 70
     1
102
RTVSPropertyOp36
 70
     1
102
RTVSPropertyOp37
 70
     1
102
RTVSPropertyOp38
 70
     1
102
RTVSPropertyOp39
 70
     1
102
RTVSPropertyOp40
 70
     1
102
RTVSPropertyOp41
 70
     1
102
RTVSPropertyOp42
 70
     1
102
RTVSPropertyOp43
 70
     1
102
RTVSPropertyOp44
 70
     1
102
RTVSPropertyOp45
 70
     1
102
RTVSPropertyOp46
 70
     1
102
RTVSPropertyOp47
 70
     1
102
RTVSPropertyOp48
 70
     1
102
RTVSPropertyOp49
 70
     1
102
RTVSPropertyOp50
 70
     1
102
RTVSPropertyOp51
 70
     0
102
RTVSPropertyOp52
 70
     0
102
RTVSPropertyOp53
 70
     1
102
RTVSPropertyOp54
 70
     1
102
RTVSPropertyOp55
 70
     1
102
RTVSPropertyOp56
 70
     1
102
RTVSPropertyOp57
 70
     1
102
RTVSPost2010Prop28
280
     0
102
RTVSPost2010PropOp28
 70
     1
102
RTVSPost2010Prop29
280
     1
102
RTVSPost2010PropOp29
 70
     1
102
RTVSPost2010Prop30
280
     1
102
RTVSPost2010PropOp30
 70
     1
102
RTVSPost2010Prop31
280
     0
102
RTVSPost2010PropOp31
 70
     1
102
RTVSPost2010Prop32
280
     0
102
RTVSPost2010PropOp32
 70
     1
102
RTVSPost2010Prop33
280
     0
102
RTVSPost2010PropOp33
 70
     1
102
RTVSPost2010Prop34
280
     0
102
RTVSPost2010PropOp34
 70
     1
102
RTVSPost2010Prop35
280
     0
102
RTVSPost2010PropOp35
 70
     1
102
RTVSPost2010Prop36
280
     0
102
RTVSPost2010PropOp36
 70
     1
102
RTVSPost2010Prop37
 90
       50
102
RTVSPost2010PropOp37
 70
     1
102
RTVSPost2010Prop38
140
0.0
102
RTVSPost2010PropOp38
 70
     1
102
RTVSPost2010Prop39
140
1.0
102
RTVSPost2010PropOp39
 70
     1
102
RTVSPost2010Prop40
 90
        0
102
RTVSPost2010PropOp40
 70
     1
102
RTVSPost2010Prop41ColorIndex
 90
       18
102
RTVSPost2010Prop41ColorRGB
 90
        0
102
RTVSPost2010PropOp41
 70
     1
102
RTVSPost2010Prop42
 90
       50
102
RTVSPost2010PropOp42
 70
     1
102
RTVSPost2010Prop43
 90
        3
102
RTVSPost2010PropOp43
 70
     1
102
RTVSPost2010Prop44ColorIndex
 90
        5
102
RTVSPost2010Prop44ColorRGB
 90
      255
102
RTVSPost2010PropOp44
 70
     1
102
RTVSPost2010Prop45
280
     0
102
RTVSPost2010PropOp45
 70
     1
102
RTVSPost2010Prop46
 90
       50
102
RTVSPost2010PropOp46
 70
     1
102
RTVSPost2010Prop47
 90
       50
102
RTVSPost2010PropOp47
 70
     1
102
RTVSPost2010Prop48
 90
       50
102
RTVSPost2010PropOp48
 70
     1
102
RTVSPost2010Prop49
280
     0
102
RTVSPost2010PropOp49
 70
     1
102
RTVSPost2010Prop50
 90
       50
102
RTVSPost2010PropOp50
 70
     1
102
RTVSPost2010Prop51ColorIndex
 90
      256
102
RTVSPost2010Prop51ColorRGB
 90
-16777216
102
RTVSPost2010PropOp51
 70
     0
102
RTVSPost2010Prop52
140
1.0
102
RTVSPost2010PropOp52
 70
     0
102
RTVSPost2010Prop53
 90
        2
102
RTVSPost2010PropOp53
 70
     1
102
RTVSPost2010Prop54
  1
strokes_ogs.tif
102
RTVSPost2010PropOp54
 70
     1
102
RTVSPost2010Prop55
280
     0
102
RTVSPost2010PropOp55
 70
     1
102
RTVSPost2010Prop56
140
1.0
102
RTVSPost2010PropOp56
 70
     1
102
RTVSPost2010Prop57
140
1.0
102
RTVSPost2010PropOp57
 70
     1
  0
ENDSEC
  0
EOF
