  0
SECTION
  2
HEADER
  9
$ACADVER
  1
AC1018
  9
$ACADMAINTVER
 70
     0
  9
$DWGCODEPAGE
  3
ANSI_932
  9
$INSBASE
 10
0.0
 20
0.0
 30
0.0
  9
$EXTMIN
 10
-2100.0
 20
-1485.0
 30
0.0
  9
$EXTMAX
 10
2100.0
 20
1485.0
 30
0.0
  9
$LIMMIN
 10
-2100.0
 20
-1485.0
  9
$LIMMAX
 10
2100.0
 20
1485.0
  9
$ORTHOMODE
 70
     0
  9
$REGENMODE
 70
     1
  9
$FILLMODE
 70
     1
  9
$QTEXTMODE
 70
     0
  9
$MIRRTEXT
 70
     1
  9
$LTSCALE
 40
10.0
  9
$ATTMODE
 70
     1
  9
$TEXTSIZE
 40
2.5
  9
$TRACEWID
 40
1.0
  9
$TEXTSTYLE
  7
Standard
  9
$CLAYER
  8
0
  9
$CELTYPE
  6
ByLayer
  9
$CECOLOR
 62
   256
  9
$CELTSCALE
 40
1.0
  9
$DISPSILH
 70
     0
  9
$DIMSCALE
 40
1.0
  9
$DIMASZ
 40
2.5
  9
$DIMEXO
 40
0.625
  9
$DIMDLI
 40
3.75
  9
$DIMRND
 40
0.0
  9
$DIMDLE
 40
0.0
  9
$DIMEXE
 40
1.25
  9
$DIMTP
 40
0.0
  9
$DIMTM
 40
0.0
  9
$DIMTXT
 40
2.5
  9
$DIMCEN
 40
2.5
  9
$DIMTSZ
 40
0.0
  9
$DIMTOL
 70
     0
  9
$DIMLIM
 70
     0
  9
$DIMTIH
 70
     0
  9
$DIMTOH
 70
     0
  9
$DIMSE1
 70
     0
  9
$DIMSE2
 70
     0
  9
$DIMTAD
 70
     1
  9
$DIMZIN
 70
     8
  9
$DIMBLK
  1

  9
$DIMASO
 70
     1
  9
$DIMSHO
 70
     1
  9
$DIMPOST
  1

  9
$DIMAPOST
  1

  9
$DIMALT
 70
     0
  9
$DIMALTD
 70
     3
  9
$DIMALTF
 40
0.03937007874016
  9
$DIMLFAC
 40
1.0
  9
$DIMTOFL
 70
     1
  9
$DIMTVP
 40
0.0
  9
$DIMTIX
 70
     0
  9
$DIMSOXD
 70
     0
  9
$DIMSAH
 70
     0
  9
$DIMBLK1
  1

  9
$DIMBLK2
  1

  9
$DIMSTYLE
  2
ISO-25
  9
$DIMCLRD
 70
     0
  9
$DIMCLRE
 70
     0
  9
$DIMCLRT
 70
     0
  9
$DIMTFAC
 40
1.0
  9
$DIMGAP
 40
0.625
  9
$DIMJUST
 70
     0
  9
$DIMSD1
 70
     0
  9
$DIMSD2
 70
     0
  9
$DIMTOLJ
 70
     0
  9
$DIMTZIN
 70
     8
  9
$DIMALTZ
 70
     0
  9
$DIMALTTZ
 70
     0
  9
$DIMUPT
 70
     0
  9
$DIMDEC
 70
     2
  9
$DIMTDEC
 70
     2
  9
$DIMALTU
 70
     2
  9
$DIMALTTD
 70
     3
  9
$DIMTXSTY
  7
Standard
  9
$DIMAUNIT
 70
     0
  9
$DIMADEC
 70
     0
  9
$DIMALTRND
 40
0.0
  9
$DIMAZIN
 70
     0
  9
$DIMDSEP
 70
    44
  9
$DIMATFIT
 70
     3
  9
$DIMFRAC
 70
     0
  9
$DIMLDRBLK
  1

  9
$DIMLUNIT
 70
     2
  9
$DIMLWD
 70
    -2
  9
$DIMLWE
 70
    -2
  9
$DIMTMOVE
 70
     0
  9
$LUNITS
 70
     2
  9
$LUPREC
 70
     4
  9
$SKETCHINC
 40
1.0
  9
$FILLETRAD
 40
10.0
  9
$AUNITS
 70
     0
  9
$AUPREC
 70
     0
  9
$MENU
  1
.
  9
$ELEVATION
 40
0.0
  9
$PELEVATION
 40
0.0
  9
$THICKNESS
 40
0.0
  9
$LIMCHECK
 70
     0
  9
$CHAMFERA
 40
0.0
  9
$CHAMFERB
 40
0.0
  9
$CHAMFERC
 40
0.0
  9
$CHAMFERD
 40
0.0
  9
$SKPOLY
 70
     0
  9
$TDCREATE
 40
2459927.629393576
  9
$TDUCREATE
 40
2459927.254393576
  9
$TDUPDATE
 40
2459927.629393727
  9
$TDUUPDATE
 40
2459927.254393727
  9
$TDINDWG
 40
0.0000000116
  9
$TDUSRTIMER
 40
0.0000000116
  9
$USRTIMER
 70
     1
  9
$ANGBASE
 50
0.0
  9
$ANGDIR
 70
     0
  9
$PDMODE
 70
     0
  9
$PDSIZE
 40
0.0
  9
$PLINEWID
 40
0.0
  9
$SPLFRAME
 70
     0
  9
$SPLINETYPE
 70
     6
  9
$SPLINESEGS
 70
     8
  9
$HANDSEED
  5
34F
  9
$SURFTAB1
 70
     6
  9
$SURFTAB2
 70
     6
  9
$SURFTYPE
 70
     6
  9
$SURFU
 70
     6
  9
$SURFV
 70
     6
  9
$UCSBASE
  2

  9
$UCSNAME
  2

  9
$UCSORG
 10
0.0
 20
0.0
 30
0.0
  9
$UCSXDIR
 10
1.0
 20
0.0
 30
0.0
  9
$UCSYDIR
 10
0.0
 20
1.0
 30
0.0
  9
$UCSORTHOREF
  2

  9
$UCSORTHOVIEW
 70
     0
  9
$UCSORGTOP
 10
0.0
 20
0.0
 30
0.0
  9
$UCSORGBOTTOM
 10
0.0
 20
0.0
 30
0.0
  9
$UCSORGLEFT
 10
0.0
 20
0.0
 30
0.0
  9
$UCSORGRIGHT
 10
0.0
 20
0.0
 30
0.0
  9
$UCSORGFRONT
 10
0.0
 20
0.0
 30
0.0
  9
$UCSORGBACK
 10
0.0
 20
0.0
 30
0.0
  9
$PUCSBASE
  2

  9
$PUCSNAME
  2

  9
$PUCSORG
 10
0.0
 20
0.0
 30
0.0
  9
$PUCSXDIR
 10
1.0
 20
0.0
 30
0.0
  9
$PUCSYDIR
 10
0.0
 20
1.0
 30
0.0
  9
$PUCSORTHOREF
  2

  9
$PUCSORTHOVIEW
 70
     0
  9
$PUCSORGTOP
 10
0.0
 20
0.0
 30
0.0
  9
$PUCSORGBOTTOM
 10
0.0
 20
0.0
 30
0.0
  9
$PUCSORGLEFT
 10
0.0
 20
0.0
 30
0.0
  9
$PUCSORGRIGHT
 10
0.0
 20
0.0
 30
0.0
  9
$PUCSORGFRONT
 10
0.0
 20
0.0
 30
0.0
  9
$PUCSORGBACK
 10
0.0
 20
0.0
 30
0.0
  9
$USERI1
 70
     0
  9
$USERI2
 70
     0
  9
$USERI3
 70
     0
  9
$USERI4
 70
     0
  9
$USERI5
 70
     0
  9
$USERR1
 40
0.0
  9
$USERR2
 40
0.0
  9
$USERR3
 40
0.0
  9
$USERR4
 40
0.0
  9
$USERR5
 40
0.0
  9
$WORLDVIEW
 70
     1
  9
$SHADEDGE
 70
     3
  9
$SHADEDIF
 70
    70
  9
$TILEMODE
 70
     1
  9
$MAXACTVP
 70
    64
  9
$PINSBASE
 10
0.0
 20
0.0
 30
0.0
  9
$PLIMCHECK
 70
     0
  9
$PEXTMIN
 10
1.000000000000000E+20
 20
1.000000000000000E+20
 30
1.000000000000000E+20
  9
$PEXTMAX
 10
-1.000000000000000E+20
 20
-1.000000000000000E+20
 30
-1.000000000000000E+20
  9
$PLIMMIN
 10
0.0
 20
0.0
  9
$PLIMMAX
 10
420.0
 20
297.0
  9
$UNITMODE
 70
     0
  9
$VISRETAIN
 70
     1
  9
$PLINEGEN
 70
     0
  9
$PSLTSCALE
 70
     1
  9
$TREEDEPTH
 70
  3020
  9
$CMLSTYLE
  2
Standard
  9
$CMLJUST
 70
     0
  9
$CMLSCALE
 40
20.0
  9
$PROXYGRAPHICS
 70
     1
  9
$MEASUREMENT
 70
     1
  9
$CELWEIGHT
370
    -1
  9
$ENDCAPS
280
     0
  9
$JOINSTYLE
280
     0
  9
$LWDISPLAY
290
     0
  9
$INSUNITS
 70
     4
  9
$HYPERLINKBASE
  1

  9
$STYLESHEET
  1

  9
$XEDIT
290
     1
  9
$CEPSNTYPE
380
     0
  9
$PSTYLEMODE
290
     1
  9
$FINGERPRINTGUID
  2
{415A4028-5B0C-4DF3-A1BE-55AEA21C6939}
  9
$VERSIONGUID
  2
{FAEB1C32-E019-11D5-929B-00C0DF256EC4}
  9
$EXTNAMES
290
     1
  9
$PSVPSCALE
 40
0.0
  9
$OLESTARTUP
290
     0
  9
$SORTENTS
280
   127
  9
$INDEXCTL
280
     0
  9
$HIDETEXT
280
     1
  9
$XCLIPFRAME
290
     0
  9
$HALOGAP
280
     0
  9
$OBSCOLOR
 70
   257
  9
$OBSLTYPE
280
     0
  9
$INTERSECTIONDISPLAY
280
     0
  9
$INTERSECTIONCOLOR
 70
   257
  9
$DIMASSOC
280
     2
  9
$PROJECTNAME
  1

  0
ENDSEC
  0
SECTION
  2
CLASSES
  0
CLASS
  1
ACDBDICTIONARYWDFLT
  2
AcDbDictionaryWithDefault
  3
ObjectDBX Classes
 90
        0
 91
        4
280
     0
281
     0
  0
CLASS
  1
VISUALSTYLE
  2
AcDbVisualStyle
  3
ObjectDBX Classes
 90
     4095
 91
        4
280
     0
281
     0
  0
CLASS
  1
MATERIAL
  2
AcDbMaterial
  3
ObjectDBX Classes
 90
     1153
 91
        4
280
     0
281
     0
  0
CLASS
  1
SCALE
  2
AcDbScale
  3
ObjectDBX Classes
 90
     1153
 91
        4
280
     0
281
     0
  0
CLASS
  1
TABLESTYLE
  2
AcDbTableStyle
  3
ObjectDBX Classes
 90
     4095
 91
        4
280
     0
281
     0
  0
CLASS
  1
MLEADERSTYLE
  2
AcDbMLeaderStyle
  3
ACDB_MLEADERSTYLE_CLASS
 90
     4095
 91
        4
280
     0
281
     0
  0
CLASS
  1
SUN
  2
AcDbSun
  3
SCENEOE
 90
     1153
 91
        4
280
     0
281
     0
  0
CLASS
  1
DICTIONARYVAR
  2
AcDbDictionaryVar
  3
ObjectDBX Classes
 90
        0
 91
        4
280
     0
281
     0
  0
CLASS
  1
CELLSTYLEMAP
  2
AcDbCellStyleMap
  3
ObjectDBX Classes
 90
     1152
 91
        4
280
     0
281
     0
  0
ENDSEC
  0
SECTION
  2
TABLES
  0
TABLE
  2
VPORT
  5
8
102
{ACAD_XDICTIONARY
360
306
102
}
330
0
100
AcDbSymbolTable
 70
     1
  0
VPORT
  5
29
330
8
100
AcDbSymbolTableRecord
100
AcDbViewportTableRecord
  2
*Active
 70
     0
 10
0.0
 20
0.0
 11
1.0
 21
1.0
 12
0.0
 22
0.0
 13
0.0
 23
0.0
 14
10.0
 24
10.0
 15
10.0
 25
10.0
 16
0.0
 26
0.0
 36
1.0
 17
0.0
 27
0.0
 37
0.0
 40
3267.0
 41
1.414141414141414
 42
50.0
 43
0.0
 44
0.0
 50
0.0
 51
0.0
 71
     0
 72
 10000
 73
     1
 74
     3
 75
     0
 76
     0
 77
     0
 78
     0
281
     0
 65
     1
110
0.0
120
0.0
130
0.0
111
1.0
121
0.0
131
0.0
112
0.0
122
1.0
132
0.0
 79
     0
146
0.0
  0
ENDTAB
  0
TABLE
  2
LTYPE
  5
5
330
0
100
AcDbSymbolTable
 70
     5
  0
LTYPE
  5
14
330
5
100
AcDbSymbolTableRecord
100
AcDbLinetypeTableRecord
  2
ByBlock
 70
     0
  3

 72
    65
 73
     0
 40
0.0
  0
LTYPE
  5
15
330
5
100
AcDbSymbolTableRecord
100
AcDbLinetypeTableRecord
  2
ByLayer
 70
     0
  3

 72
    65
 73
     0
 40
0.0
  0
LTYPE
  5
16
330
5
100
AcDbSymbolTableRecord
100
AcDbLinetypeTableRecord
  2
Continuous
 70
     0
  3
Solid line
 72
    65
 73
     0
 40
0.0
  0
LTYPE
  5
6F
330
5
100
AcDbSymbolTableRecord
100
AcDbLinetypeTableRecord
  2
JWW_DASHED3
 70
     0
  3
---  ------  ------  ------  ---
 72
    65
 73
     2
 40
3.386666666666667
 49
2.54
 74
     0
 49
-0.8466666666666667
 74
     0
  0
LTYPE
  5
70
330
5
100
AcDbSymbolTableRecord
100
AcDbLinetypeTableRecord
  2
JWW_DASHED2
 70
     0
  3
--    ----    ----    ----    --
 72
    65
 73
     2
 40
3.386666666666667
 49
1.693333333333333
 74
     0
 49
-1.693333333333333
 74
     0
  0
LTYPE
  5
71
330
5
100
AcDbSymbolTableRecord
100
AcDbLinetypeTableRecord
  2
JWW_CENTER2
 70
     0
  3
-------------  --  -------------
 72
    65
 73
     4
 40
13.54666666666667
 49
11.00666666666667
 74
     0
 49
-0.8466666666666667
 74
     0
 49
0.8466666666666667
 74
     0
 49
-0.8466666666666667
 74
     0
  0
LTYPE
  5
72
330
5
100
AcDbSymbolTableRecord
100
AcDbLinetypeTableRecord
  2
JWW_CENTER1
 70
     0
  3
-----  --  ----------  --  -----
 72
    65
 73
     4
 40
6.773333333333333
 49
4.233333333333333
 74
     0
 49
-0.8466666666666667
 74
     0
 49
0.8466666666666667
 74
     0
 49
-0.8466666666666667
 74
     0
  0
ENDTAB
  0
TABLE
  2
LAYER
  5
2
330
0
100
AcDbSymbolTable
 70
    14
  0
LAYER
  5
10
330
2
100
AcDbSymbolTableRecord
100
AcDbLayerTableRecord
  2
0
 70
     0
 62
     7
  6
Continuous
370
    -3
390
F
  0
LAYER
  5
73
330
2
100
AcDbSymbolTableRecord
100
AcDbLayerTableRecord
  2
C-4
 70
     0
 62
     7
  6
Continuous
370
    -3
390
F
  0
LAYER
  5
74
330
2
100
AcDbSymbolTableRecord
100
AcDbLayerTableRecord
  2
C-2
 70
     0
 62
     7
  6
Continuous
370
    -3
390
F
  0
LAYER
  5
75
330
2
100
AcDbSymbolTableRecord
100
AcDbLayerTableRecord
  2
C-1
 70
     0
 62
     7
  6
Continuous
370
    -3
390
F
  0
LAYER
  5
76
330
2
100
AcDbSymbolTableRecord
100
AcDbLayerTableRecord
  2
C-5
 70
     0
 62
     7
  6
Continuous
370
    -3
390
F
  0
LAYER
  5
77
330
2
100
AcDbSymbolTableRecord
100
AcDbLayerTableRecord
  2
C-A
 70
     0
 62
     7
  6
Continuous
370
    -3
390
F
  0
LAYER
  5
78
330
2
100
AcDbSymbolTableRecord
100
AcDbLayerTableRecord
  2
D-2
 70
     0
 62
     7
  6
Continuous
370
    -3
390
F
  0
LAYER
  5
79
330
2
100
AcDbSymbolTableRecord
100
AcDbLayerTableRecord
  2
D-5
 70
     0
 62
     7
  6
Continuous
370
    -3
390
F
  0
LAYER
  5
7A
330
2
100
AcDbSymbolTableRecord
100
AcDbLayerTableRecord
  2
D-1
 70
     0
 62
     7
  6
Continuous
370
    -3
390
F
  0
LAYER
  5
7B
330
2
100
AcDbSymbolTableRecord
100
AcDbLayerTableRecord
  2
D-4
 70
     0
 62
     7
  6
Continuous
370
    -3
390
F
  0
LAYER
  5
7C
330
2
100
AcDbSymbolTableRecord
100
AcDbLayerTableRecord
  2
D-6
 70
     0
 62
     7
  6
Continuous
370
    -3
390
F
  0
LAYER
  5
7D
330
2
100
AcDbSymbolTableRecord
100
AcDbLayerTableRecord
  2
D-0
 70
     0
 62
     7
  6
Continuous
370
    -3
390
F
  0
LAYER
  5
7E
330
2
100
AcDbSymbolTableRecord
100
AcDbLayerTableRecord
  2
D-9
 70
     0
 62
     7
  6
Continuous
370
    -3
390
F
  0
LAYER
  5
7F
330
2
100
AcDbSymbolTableRecord
100
AcDbLayerTableRecord
  2
F-5ﾚｲﾔ
 70
     0
 62
     7
  6
Continuous
370
    -3
390
F
  0
ENDTAB
  0
TABLE
  2
STYLE
  5
3
330
0
100
AcDbSymbolTable
 70
     2
  0
STYLE
  5
11
330
3
100
AcDbSymbolTableRecord
100
AcDbTextStyleTableRecord
  2
Standard
 70
     0
 40
0.0
 41
1.0
 50
0.0
 71
     0
 42
2.5
  3
txt
  4

  0
STYLE
  5
6E
330
3
100
AcDbSymbolTableRecord
100
AcDbTextStyleTableRecord
  2
ＭＳ ゴシック
 70
     0
 40
1.0
 41
1.0
 50
0.0
 71
     0
 42
2.5
  3

  4

1001
ACAD
1000
MS Gothic
1071
    32817
  0
ENDTAB
  0
TABLE
  2
VIEW
  5
6
330
0
100
AcDbSymbolTable
 70
     0
  0
ENDTAB
  0
TABLE
  2
UCS
  5
7
330
0
100
AcDbSymbolTable
 70
     0
  0
ENDTAB
  0
TABLE
  2
APPID
  5
9
330
0
100
AcDbSymbolTable
 70
     2
  0
APPID
  5
12
330
9
100
AcDbSymbolTableRecord
100
AcDbRegAppTableRecord
  2
ACAD
 70
     0
  0
APPID
  5
345
330
9
100
AcDbSymbolTableRecord
100
AcDbRegAppTableRecord
  2
ACAD_MLEADERVER
 70
     0
  0
ENDTAB
  0
TABLE
  2
DIMSTYLE
  5
A
330
0
100
AcDbSymbolTable
 70
     1
100
AcDbDimStyleTable
  0
DIMSTYLE
105
27
330
A
100
AcDbSymbolTableRecord
100
AcDbDimStyleTableRecord
  2
ISO-25
 70
     0
 41
2.5
 42
0.625
 43
3.75
 44
1.25
 73
     0
 74
     0
 77
     1
 78
     8
140
2.5
141
2.5
143
0.03937007874016
147
0.625
171
     3
172
     1
178
     0
271
     2
272
     2
274
     3
278
    44
283
     0
284
     8
340
11
  0
ENDTAB
  0
TABLE
  2
BLOCK_RECORD
  5
1
330
0
100
AcDbSymbolTable
 70
     1
  0
BLOCK_RECORD
  5
1F
330
1
100
AcDbSymbolTableRecord
100
AcDbBlockTableRecord
  2
*Model_Space
340
22
  0
BLOCK_RECORD
  5
1B
330
1
100
AcDbSymbolTableRecord
100
AcDbBlockTableRecord
  2
*Paper_Space
340
1E
  0
BLOCK_RECORD
  5
23
330
1
100
AcDbSymbolTableRecord
100
AcDbBlockTableRecord
  2
*Paper_Space0
340
26
  0
ENDTAB
  0
ENDSEC
  0
SECTION
  2
BLOCKS
  0
BLOCK
  5
20
330
1F
100
AcDbEntity
  8
0
100
AcDbBlockBegin
  2
*Model_Space
 70
     0
 10
0.0
 20
0.0
 30
0.0
  3
*Model_Space
  1

  0
ENDBLK
  5
21
330
1F
100
AcDbEntity
  8
0
100
AcDbBlockEnd
  0
BLOCK
  5
1C
330
1B
100
AcDbEntity
 67
     1
  8
0
100
AcDbBlockBegin
  2
*Paper_Space
 70
     0
 10
0.0
 20
0.0
 30
0.0
  3
*Paper_Space
  1

  0
ENDBLK
  5
1D
330
1B
100
AcDbEntity
 67
     1
  8
0
100
AcDbBlockEnd
  0
BLOCK
  5
24
330
23
100
AcDbEntity
  8
0
100
AcDbBlockBegin
  2
*Paper_Space0
 70
     0
 10
0.0
 20
0.0
 30
0.0
  3
*Paper_Space0
  1

  0
ENDBLK
  5
25
330
23
100
AcDbEntity
  8
0
100
AcDbBlockEnd
  0
ENDSEC
  0
SECTION
  2
ENTITIES
  0
LWPOLYLINE
  5
80
330
1F
100
AcDbEntity
  8
C-4
  6
Continuous
 62
     7
370
     9
100
AcDbPolyline
 90
        4
 70
     1
 43
2.0
 10
-440.0269659918706
 20
1030.378714896537
 42
0.4142135623731
 10
-441.0269659918706
 20
1031.378714896537
 42
0.4142135623731
 10
-442.0269659918706
 20
1030.378714896537
 42
0.4142135623731
 10
-441.0269659918706
 20
1029.378714896537
 42
0.4142135623731
  0
LWPOLYLINE
  5
81
330
1F
100
AcDbEntity
  8
C-4
  6
Continuous
 62
     7
370
     9
100
AcDbPolyline
 90
        4
 70
     1
 43
2.0
 10
-438.0266624656883
 20
1030.378714896537
 42
0.4142135623731
 10
-439.0266624656883
 20
1031.378714896537
 42
0.4142135623731
 10
-440.0266624656883
 20
1030.378714896537
 42
0.4142135623731
 10
-439.0266624656883
 20
1029.378714896537
 42
0.4142135623731
  0
LWPOLYLINE
  5
82
330
1F
100
AcDbEntity
  8
C-4
  6
Continuous
 62
     7
370
     9
100
AcDbPolyline
 90
        4
 70
     1
 43
2.0
 10
555.9733754750844
 20
1030.378714896537
 42
0.4142135623731
 10
554.9733754750844
 20
1031.378714896537
 42
0.4142135623731
 10
553.9733754750844
 20
1030.378714896537
 42
0.4142135623731
 10
554.9733754750844
 20
1029.378714896537
 42
0.4142135623731
  0
LWPOLYLINE
  5
83
330
1F
100
AcDbEntity
  8
C-4
  6
Continuous
 62
     7
370
     9
100
AcDbPolyline
 90
        4
 70
     1
 43
2.0
 10
557.972936681799
 20
1030.378714896537
 42
0.4142135623731
 10
556.972936681799
 20
1031.378714896537
 42
0.4142135623731
 10
555.972936681799
 20
1030.378714896537
 42
0.4142135623731
 10
556.972936681799
 20
1029.378714896537
 42
0.4142135623731
  0
LWPOLYLINE
  5
84
330
1F
100
AcDbEntity
  8
C-4
  6
Continuous
 62
     7
370
     9
100
AcDbPolyline
 90
        4
 70
     1
 43
2.0
 10
-438.0266624656883
 20
1110.377989073058
 42
0.4142135623731
 10
-439.0266624656883
 20
1111.377989073058
 42
0.4142135623731
 10
-440.0266624656883
 20
1110.377989073058
 42
0.4142135623731
 10
-439.0266624656883
 20
1109.377989073058
 42
0.4142135623731
  0
LWPOLYLINE
  5
85
330
1F
100
AcDbEntity
  8
C-4
  6
Continuous
 62
     7
370
     9
100
AcDbPolyline
 90
        4
 70
     1
 43
2.0
 10
557.972936681799
 20
1110.377989073058
 42
0.4142135623731
 10
556.972936681799
 20
1111.377989073058
 42
0.4142135623731
 10
555.972936681799
 20
1110.377989073058
 42
0.4142135623731
 10
556.972936681799
 20
1109.377989073058
 42
0.4142135623731
  0
LWPOLYLINE
  5
86
330
1F
100
AcDbEntity
  8
C-4
  6
Continuous
 62
     7
370
     9
100
AcDbPolyline
 90
        4
 70
     1
 43
2.0
 10
403.9735668285474
 20
968.3792031777873
 42
0.4142135623731
 10
402.9735668285474
 20
969.3792031777872
 42
0.4142135623731
 10
401.9735668285474
 20
968.3792031777873
 42
0.4142135623731
 10
402.9735668285474
 20
967.3792031777873
 42
0.4142135623731
  0
LWPOLYLINE
  5
87
330
1F
100
AcDbEntity
  8
C-4
  6
Continuous
 62
     7
370
     9
100
AcDbPolyline
 90
        4
 70
     1
 43
2.0
 10
433.9731709248313
 20
968.3792031777873
 42
0.4142135623731
 10
432.9731709248313
 20
969.3792031777872
 42
0.4142135623731
 10
431.9731709248313
 20
968.3792031777873
 42
0.4142135623731
 10
432.9731709248313
 20
967.3792031777873
 42
0.4142135623731
  0
LINE
  5
88
330
1F
100
AcDbEntity
  8
C-2
  6
Continuous
 62
     3
370
     9
100
AcDbLine
 10
-439.0266624656883
 20
683.3777680268158
 30
0.0
 11
-439.0266624656883
 21
933.3776030669342
 31
0.0
  0
LINE
  5
89
330
1F
100
AcDbEntity
  8
C-2
  6
Continuous
 62
     3
370
     9
100
AcDbLine
 10
-439.0266624656883
 20
933.3776030669342
 30
0.0
 11
554.9733754750844
 21
933.3776030669342
 31
0.0
  0
LINE
  5
8A
330
1F
100
AcDbEntity
  8
C-2
  6
Continuous
 62
     3
370
     9
100
AcDbLine
 10
554.9733754750844
 20
683.3777680268158
 30
0.0
 11
-439.0266624656883
 21
683.3777680268158
 31
0.0
  0
LINE
  5
8B
330
1F
100
AcDbEntity
  8
C-2
  6
Continuous
 62
     3
370
     9
100
AcDbLine
 10
554.9733754750844
 20
933.3776030669342
 30
0.0
 11
554.9733754750844
 21
683.3777680268158
 31
0.0
  0
LINE
  5
8C
330
1F
100
AcDbEntity
  8
C-2
  6
Continuous
 62
     3
370
     9
100
AcDbLine
 10
-441.0269659918706
 20
933.3776030669342
 30
0.0
 11
-441.0269659918706
 21
683.3782629064613
 31
0.0
  0
LINE
  5
8D
330
1F
100
AcDbEntity
  8
C-2
  6
Continuous
 62
     3
370
     9
100
AcDbLine
 10
556.972936681799
 20
933.3785928262248
 30
0.0
 11
556.972936681799
 21
683.3782629064613
 31
0.0
  0
LINE
  5
8E
330
1F
100
AcDbEntity
  8
C-2
  6
Continuous
 62
     3
370
     9
100
AcDbLine
 10
-441.0269659918706
 20
933.3776030669342
 30
0.0
 11
-590.0266905088682
 21
933.3776030669342
 31
0.0
  0
LINE
  5
8F
330
1F
100
AcDbEntity
  8
C-2
  6
Continuous
 62
     3
370
     9
100
AcDbLine
 10
-441.0269659918706
 20
683.3782629064613
 30
0.0
 11
-590.0266905088682
 21
683.3782629064613
 31
0.0
  0
LINE
  5
90
330
1F
100
AcDbEntity
  8
C-2
  6
Continuous
 62
     3
370
     9
100
AcDbLine
 10
714.9724187077703
 20
933.3785928262248
 30
0.0
 11
556.972936681799
 21
933.3785928262248
 31
0.0
  0
LINE
  5
91
330
1F
100
AcDbEntity
  8
C-2
  6
Continuous
 62
     3
370
     9
100
AcDbLine
 10
714.9724187077703
 20
683.3782629064613
 30
0.0
 11
556.972936681799
 21
683.3782629064613
 31
0.0
  0
LINE
  5
92
330
1F
100
AcDbEntity
  8
C-1
  6
JWW_DASHED3
 62
     2
370
     9
100
AcDbLine
 10
714.9724187077703
 20
708.3785928262248
 30
0.0
 11
-590.0266905088682
 21
708.3780979465794
 31
0.0
  0
LINE
  5
93
330
1F
100
AcDbEntity
  8
C-1
  6
JWW_DASHED3
 62
     2
370
     9
100
AcDbLine
 10
714.9724187077703
 20
908.3782629064613
 30
0.0
 11
-590.0266905088682
 21
908.3782629064613
 31
0.0
  0
LINE
  5
94
330
1F
100
AcDbEntity
  8
C-1
  6
Continuous
 62
     2
370
     9
100
AcDbLine
 10
714.9724187077703
 20
935.378401472762
 30
0.0
 11
-590.0266905088682
 21
935.378401472762
 31
0.0
  0
LINE
  5
95
330
1F
100
AcDbEntity
  8
C-1
  6
Continuous
 62
     2
370
     9
100
AcDbLine
 10
714.9724187077703
 20
938.3788567620356
 30
0.0
 11
-590.0266905088682
 21
938.3788567620356
 31
0.0
  0
LINE
  5
96
330
1F
100
AcDbEntity
  8
C-1
  6
Continuous
 62
     2
370
     9
100
AcDbLine
 10
714.9724187077703
 20
681.3784542599242
 30
0.0
 11
-590.0266905088682
 21
681.377959380279
 31
0.0
  0
LINE
  5
97
330
1F
100
AcDbEntity
  8
C-1
  6
Continuous
 62
     2
370
     9
100
AcDbLine
 10
714.9724187077703
 20
678.3784938502959
 30
0.0
 11
-590.0266905088682
 21
678.3779989706505
 31
0.0
  0
LINE
  5
98
330
1F
100
AcDbEntity
  8
C-2
  6
Continuous
 62
     3
370
     9
100
AcDbLine
 10
-610.026385333087
 20
793.3781309385557
 30
0.0
 11
-570.0261296452703
 21
823.3787247941302
 31
0.0
  0
LINE
  5
99
330
1F
100
AcDbEntity
  8
C-2
  6
Continuous
 62
     3
370
     9
100
AcDbLine
 10
-610.026385333087
 20
793.3781309385557
 30
0.0
 11
-590.0266905088682
 21
793.3781309385557
 31
0.0
  0
LINE
  5
9A
330
1F
100
AcDbEntity
  8
C-2
  6
Continuous
 62
     3
370
     9
100
AcDbLine
 10
-590.0266905088682
 20
823.3787247941302
 30
0.0
 11
-570.0261296452703
 21
823.3787247941302
 31
0.0
  0
LINE
  5
9B
330
1F
100
AcDbEntity
  8
C-2
  6
Continuous
 62
     3
370
     9
100
AcDbLine
 10
-590.0266905088682
 20
793.3781309385557
 30
0.0
 11
-590.0266905088682
 21
663.3781969225086
 31
0.0
  0
LINE
  5
9C
330
1F
100
AcDbEntity
  8
C-2
  6
Continuous
 62
     3
370
     9
100
AcDbLine
 10
-590.0266905088682
 20
953.3786588101776
 30
0.0
 11
-590.0266905088682
 21
823.3787247941302
 31
0.0
  0
LINE
  5
9D
330
1F
100
AcDbEntity
  8
C-2
  6
Continuous
 62
     3
370
     9
100
AcDbLine
 10
694.972847603463
 20
793.3781309385557
 30
0.0
 11
734.9732270111912
 21
823.3787247941302
 31
0.0
  0
LINE
  5
9E
330
1F
100
AcDbEntity
  8
C-2
  6
Continuous
 62
     3
370
     9
100
AcDbLine
 10
694.972847603463
 20
793.3781309385557
 30
0.0
 11
714.9724187077703
 21
793.3781309385557
 31
0.0
  0
LINE
  5
9F
330
1F
100
AcDbEntity
  8
C-2
  6
Continuous
 62
     3
370
     9
100
AcDbLine
 10
714.9724187077703
 20
823.3787247941302
 30
0.0
 11
734.9732270111912
 21
823.3787247941302
 31
0.0
  0
LINE
  5
A0
330
1F
100
AcDbEntity
  8
C-2
  6
Continuous
 62
     3
370
     9
100
AcDbLine
 10
714.9724187077703
 20
793.3781309385557
 30
0.0
 11
714.9724187077703
 21
663.3781969225086
 31
0.0
  0
LINE
  5
A1
330
1F
100
AcDbEntity
  8
C-2
  6
Continuous
 62
     3
370
     9
100
AcDbLine
 10
714.9724187077703
 20
953.3786588101776
 30
0.0
 11
714.9724187077703
 21
823.3787247941302
 31
0.0
  0
LINE
  5
A2
330
1F
100
AcDbEntity
  8
C-4
  6
Continuous
 62
     7
370
     9
100
AcDbLine
 10
-441.0269659918706
 20
950.378203520904
 30
0.0
 11
-441.0269659918706
 21
1033.37818042652
 31
0.0
  0
LINE
  5
A3
330
1F
100
AcDbEntity
  8
C-4
  6
Continuous
 62
     7
370
     9
100
AcDbLine
 10
-439.0266624656883
 20
950.378203520904
 30
0.0
 11
-439.0266624656883
 21
1113.378444362331
 31
0.0
  0
LINE
  5
A4
330
1F
100
AcDbEntity
  8
C-4
  6
Continuous
 62
     7
370
     9
100
AcDbLine
 10
554.9733754750844
 20
950.378203520904
 30
0.0
 11
554.9733754750844
 21
1033.37818042652
 31
0.0
  0
LINE
  5
A5
330
1F
100
AcDbEntity
  8
C-4
  6
Continuous
 62
     7
370
     9
100
AcDbLine
 10
556.972936681799
 20
950.378203520904
 30
0.0
 11
556.972936681799
 21
1113.378444362331
 31
0.0
  0
LINE
  5
A6
330
1F
100
AcDbEntity
  8
C-4
  6
Continuous
 62
     7
370
     9
100
AcDbLine
 10
-590.0266905088682
 20
1110.377989073058
 30
0.0
 11
714.9724187077703
 21
1110.377989073058
 31
0.0
  0
LINE
  5
A7
330
1F
100
AcDbEntity
  8
C-4
  6
Continuous
 62
     7
370
     9
100
AcDbLine
 10
-590.0266905088682
 20
1030.378714896537
 30
0.0
 11
714.9724187077703
 21
1030.378714896537
 31
0.0
  0
LINE
  5
A8
330
1F
100
AcDbEntity
  8
C-2
  6
Continuous
 62
     3
370
     9
100
AcDbLine
 10
-439.0266624656883
 20
929.3777383340373
 30
0.0
 11
554.9733754750844
 21
929.3777383340373
 31
0.0
  0
LINE
  5
A9
330
1F
100
AcDbEntity
  8
C-2
  6
Continuous
 62
     3
370
     9
100
AcDbLine
 10
554.9733754750844
 20
687.377632759713
 30
0.0
 11
-439.0266624656883
 21
687.377632759713
 31
0.0
  0
LINE
  5
AA
330
1F
100
AcDbEntity
  8
C-2
  6
Continuous
 62
     3
370
     9
100
AcDbLine
 10
-435.0267977327914
 20
687.377632759713
 30
0.0
 11
-435.0267977327914
 21
929.3777383340373
 31
0.0
  0
LINE
  5
AB
330
1F
100
AcDbEntity
  8
C-2
  6
Continuous
 62
     3
370
     9
100
AcDbLine
 10
-405.0266987568622
 20
687.377632759713
 30
0.0
 11
-405.0266987568622
 21
929.3777383340373
 31
0.0
  0
LINE
  5
AC
330
1F
100
AcDbEntity
  8
C-2
  6
Continuous
 62
     3
370
     9
100
AcDbLine
 10
-409.0270583694044
 20
687.377632759713
 30
0.0
 11
-409.0270583694044
 21
929.3777383340373
 31
0.0
  0
LINE
  5
AD
330
1F
100
AcDbEntity
  8
C-2
  6
Continuous
 62
     3
370
     9
100
AcDbLine
 10
-435.0267977327914
 20
856.8778703019427
 30
0.0
 11
-409.0270583694044
 21
856.8778703019427
 31
0.0
  0
LINE
  5
AE
330
1F
100
AcDbEntity
  8
C-2
  6
Continuous
 62
     3
370
     9
100
AcDbLine
 10
-435.0267977327914
 20
859.8775832717484
 30
0.0
 11
-409.0270583694044
 21
859.8775832717484
 31
0.0
  0
LINE
  5
AF
330
1F
100
AcDbEntity
  8
C-2
  6
Continuous
 62
     3
370
     9
100
AcDbLine
 10
-435.0267977327914
 20
759.8779956714529
 30
0.0
 11
-409.0270583694044
 21
759.8779956714529
 31
0.0
  0
LINE
  5
B0
330
1F
100
AcDbEntity
  8
C-2
  6
Continuous
 62
     3
370
     9
100
AcDbLine
 10
-435.0267977327914
 20
756.8780352618245
 30
0.0
 11
-409.0270583694044
 21
756.8780352618245
 31
0.0
  0
LINE
  5
B1
330
1F
100
AcDbEntity
  8
C-2
  6
Continuous
 62
     3
370
     9
100
AcDbLine
 10
-375.0269709406672
 20
687.377632759713
 30
0.0
 11
-375.0269709406672
 21
929.3777383340373
 31
0.0
  0
LINE
  5
B2
330
1F
100
AcDbEntity
  8
C-2
  6
Continuous
 62
     3
370
     9
100
AcDbLine
 10
-379.0269593934755
 20
687.377632759713
 30
0.0
 11
-379.0269593934755
 21
929.3777383340373
 31
0.0
  0
LINE
  5
B3
330
1F
100
AcDbEntity
  8
C-2
  6
Continuous
 62
     3
370
     9
100
AcDbLine
 10
-405.0266987568622
 20
856.8778703019427
 30
0.0
 11
-379.0269593934755
 21
856.8778703019427
 31
0.0
  0
LINE
  5
B4
330
1F
100
AcDbEntity
  8
C-2
  6
Continuous
 62
     3
370
     9
100
AcDbLine
 10
-405.0266987568622
 20
859.8775832717484
 30
0.0
 11
-379.0269593934755
 21
859.8775832717484
 31
0.0
  0
LINE
  5
B5
330
1F
100
AcDbEntity
  8
C-2
  6
Continuous
 62
     3
370
     9
100
AcDbLine
 10
-405.0266987568622
 20
759.8779956714529
 30
0.0
 11
-379.0269593934755
 21
759.8779956714529
 31
0.0
  0
LINE
  5
B6
330
1F
100
AcDbEntity
  8
C-2
  6
Continuous
 62
     3
370
     9
100
AcDbLine
 10
-405.0266987568622
 20
756.8780352618245
 30
0.0
 11
-379.0269593934755
 21
756.8780352618245
 31
0.0
  0
LINE
  5
B7
330
1F
100
AcDbEntity
  8
C-2
  6
Continuous
 62
     3
370
     9
100
AcDbLine
 10
-345.026871964738
 20
687.377632759713
 30
0.0
 11
-345.026871964738
 21
929.3777383340373
 31
0.0
  0
LINE
  5
B8
330
1F
100
AcDbEntity
  8
C-2
  6
Continuous
 62
     3
370
     9
100
AcDbLine
 10
-349.0267366976352
 20
687.377632759713
 30
0.0
 11
-349.0267366976352
 21
929.3777383340373
 31
0.0
  0
LINE
  5
B9
330
1F
100
AcDbEntity
  8
C-2
  6
Continuous
 62
     3
370
     9
100
AcDbLine
 10
-375.0269709406672
 20
856.8778703019427
 30
0.0
 11
-349.0267366976352
 21
856.8778703019427
 31
0.0
  0
LINE
  5
BA
330
1F
100
AcDbEntity
  8
C-2
  6
Continuous
 62
     3
370
     9
100
AcDbLine
 10
-375.0269709406672
 20
859.8775832717484
 30
0.0
 11
-349.0267366976352
 21
859.8775832717484
 31
0.0
  0
LINE
  5
BB
330
1F
100
AcDbEntity
  8
C-2
  6
Continuous
 62
     3
370
     9
100
AcDbLine
 10
-375.0269709406672
 20
759.8779956714529
 30
0.0
 11
-349.0267366976352
 21
759.8779956714529
 31
0.0
  0
LINE
  5
BC
330
1F
100
AcDbEntity
  8
C-2
  6
Continuous
 62
     3
370
     9
100
AcDbLine
 10
-375.0269709406672
 20
756.8780352618245
 30
0.0
 11
-349.0267366976352
 21
756.8780352618245
 31
0.0
  0
LINE
  5
BD
330
1F
100
AcDbEntity
  8
C-2
  6
Continuous
 62
     3
370
     9
100
AcDbLine
 10
-315.0267729888091
 20
687.377632759713
 30
0.0
 11
-315.0267729888091
 21
929.3777383340373
 31
0.0
  0
LINE
  5
BE
330
1F
100
AcDbEntity
  8
C-2
  6
Continuous
 62
     3
370
     9
100
AcDbLine
 10
-319.026637721706
 20
687.377632759713
 30
0.0
 11
-319.026637721706
 21
929.3777383340373
 31
0.0
  0
LINE
  5
BF
330
1F
100
AcDbEntity
  8
C-2
  6
Continuous
 62
     3
370
     9
100
AcDbLine
 10
-345.026871964738
 20
856.8778703019427
 30
0.0
 11
-319.026637721706
 21
856.8778703019427
 31
0.0
  0
LINE
  5
C0
330
1F
100
AcDbEntity
  8
C-2
  6
Continuous
 62
     3
370
     9
100
AcDbLine
 10
-345.026871964738
 20
859.8775832717484
 30
0.0
 11
-319.026637721706
 21
859.8775832717484
 31
0.0
  0
LINE
  5
C1
330
1F
100
AcDbEntity
  8
C-2
  6
Continuous
 62
     3
370
     9
100
AcDbLine
 10
-345.026871964738
 20
759.8779956714529
 30
0.0
 11
-319.026637721706
 21
759.8779956714529
 31
0.0
  0
LINE
  5
C2
330
1F
100
AcDbEntity
  8
C-2
  6
Continuous
 62
     3
370
     9
100
AcDbLine
 10
-345.026871964738
 20
756.8780352618245
 30
0.0
 11
-319.026637721706
 21
756.8780352618245
 31
0.0
  0
LINE
  5
C3
330
1F
100
AcDbEntity
  8
C-2
  6
Continuous
 62
     3
370
     9
100
AcDbLine
 10
-285.0270451726138
 20
687.377632759713
 30
0.0
 11
-285.0270451726138
 21
929.3777383340373
 31
0.0
  0
LINE
  5
C4
330
1F
100
AcDbEntity
  8
C-2
  6
Continuous
 62
     3
370
     9
100
AcDbLine
 10
-289.0270336254221
 20
687.377632759713
 30
0.0
 11
-289.0270336254221
 21
929.3777383340373
 31
0.0
  0
LINE
  5
C5
330
1F
100
AcDbEntity
  8
C-2
  6
Continuous
 62
     3
370
     9
100
AcDbLine
 10
-315.0267729888091
 20
856.8778703019427
 30
0.0
 11
-289.0270336254221
 21
856.8778703019427
 31
0.0
  0
LINE
  5
C6
330
1F
100
AcDbEntity
  8
C-2
  6
Continuous
 62
     3
370
     9
100
AcDbLine
 10
-315.0267729888091
 20
859.8775832717484
 30
0.0
 11
-289.0270336254221
 21
859.8775832717484
 31
0.0
  0
LINE
  5
C7
330
1F
100
AcDbEntity
  8
C-2
  6
Continuous
 62
     3
370
     9
100
AcDbLine
 10
-315.0267729888091
 20
759.8779956714529
 30
0.0
 11
-289.0270336254221
 21
759.8779956714529
 31
0.0
  0
LINE
  5
C8
330
1F
100
AcDbEntity
  8
C-2
  6
Continuous
 62
     3
370
     9
100
AcDbLine
 10
-315.0267729888091
 20
756.8780352618245
 30
0.0
 11
-289.0270336254221
 21
756.8780352618245
 31
0.0
  0
LINE
  5
C9
330
1F
100
AcDbEntity
  8
C-2
  6
Continuous
 62
     3
370
     9
100
AcDbLine
 10
-255.0269461966849
 20
687.377632759713
 30
0.0
 11
-255.0269461966849
 21
929.3777383340373
 31
0.0
  0
LINE
  5
CA
330
1F
100
AcDbEntity
  8
C-2
  6
Continuous
 62
     3
370
     9
100
AcDbLine
 10
-259.0269346494932
 20
687.377632759713
 30
0.0
 11
-259.0269346494932
 21
929.3777383340373
 31
0.0
  0
LINE
  5
CB
330
1F
100
AcDbEntity
  8
C-2
  6
Continuous
 62
     3
370
     9
100
AcDbLine
 10
-285.0270451726138
 20
856.8778703019427
 30
0.0
 11
-259.0269346494932
 21
856.8778703019427
 31
0.0
  0
LINE
  5
CC
330
1F
100
AcDbEntity
  8
C-2
  6
Continuous
 62
     3
370
     9
100
AcDbLine
 10
-285.0270451726138
 20
859.8775832717484
 30
0.0
 11
-259.0269346494932
 21
859.8775832717484
 31
0.0
  0
LINE
  5
CD
330
1F
100
AcDbEntity
  8
C-2
  6
Continuous
 62
     3
370
     9
100
AcDbLine
 10
-285.0270451726138
 20
759.8779956714529
 30
0.0
 11
-259.0269346494932
 21
759.8779956714529
 31
0.0
  0
LINE
  5
CE
330
1F
100
AcDbEntity
  8
C-2
  6
Continuous
 62
     3
370
     9
100
AcDbLine
 10
-285.0270451726138
 20
756.8780352618245
 30
0.0
 11
-259.0269346494932
 21
756.8780352618245
 31
0.0
  0
LINE
  5
CF
330
1F
100
AcDbEntity
  8
C-2
  6
Continuous
 62
     3
370
     9
100
AcDbLine
 10
-225.0268472207557
 20
687.377632759713
 30
0.0
 11
-225.0268472207557
 21
929.3777383340373
 31
0.0
  0
LINE
  5
D0
330
1F
100
AcDbEntity
  8
C-2
  6
Continuous
 62
     3
370
     9
100
AcDbLine
 10
-229.0267119536529
 20
687.377632759713
 30
0.0
 11
-229.0267119536529
 21
929.3777383340373
 31
0.0
  0
LINE
  5
D1
330
1F
100
AcDbEntity
  8
C-2
  6
Continuous
 62
     3
370
     9
100
AcDbLine
 10
-255.0269461966849
 20
856.8778703019427
 30
0.0
 11
-229.0267119536529
 21
856.8778703019427
 31
0.0
  0
LINE
  5
D2
330
1F
100
AcDbEntity
  8
C-2
  6
Continuous
 62
     3
370
     9
100
AcDbLine
 10
-255.0269461966849
 20
859.8775832717484
 30
0.0
 11
-229.0267119536529
 21
859.8775832717484
 31
0.0
  0
LINE
  5
D3
330
1F
100
AcDbEntity
  8
C-2
  6
Continuous
 62
     3
370
     9
100
AcDbLine
 10
-255.0269461966849
 20
759.8779956714529
 30
0.0
 11
-229.0267119536529
 21
759.8779956714529
 31
0.0
  0
LINE
  5
D4
330
1F
100
AcDbEntity
  8
C-2
  6
Continuous
 62
     3
370
     9
100
AcDbLine
 10
-255.0269461966849
 20
756.8780352618245
 30
0.0
 11
-229.0267119536529
 21
756.8780352618245
 31
0.0
  0
LINE
  5
D5
330
1F
100
AcDbEntity
  8
C-2
  6
Continuous
 62
     3
370
     9
100
AcDbLine
 10
-195.0266245249153
 20
687.377632759713
 30
0.0
 11
-195.0266245249153
 21
929.3777383340373
 31
0.0
  0
LINE
  5
D6
330
1F
100
AcDbEntity
  8
C-2
  6
Continuous
 62
     3
370
     9
100
AcDbLine
 10
-199.0266129777237
 20
687.377632759713
 30
0.0
 11
-199.0266129777237
 21
929.3777383340373
 31
0.0
  0
LINE
  5
D7
330
1F
100
AcDbEntity
  8
C-2
  6
Continuous
 62
     3
370
     9
100
AcDbLine
 10
-225.0268472207557
 20
856.8778703019427
 30
0.0
 11
-199.0266129777237
 21
856.8778703019427
 31
0.0
  0
LINE
  5
D8
330
1F
100
AcDbEntity
  8
C-2
  6
Continuous
 62
     3
370
     9
100
AcDbLine
 10
-225.0268472207557
 20
859.8775832717484
 30
0.0
 11
-199.0266129777237
 21
859.8775832717484
 31
0.0
  0
LINE
  5
D9
330
1F
100
AcDbEntity
  8
C-2
  6
Continuous
 62
     3
370
     9
100
AcDbLine
 10
-225.0268472207557
 20
759.8779956714529
 30
0.0
 11
-199.0266129777237
 21
759.8779956714529
 31
0.0
  0
LINE
  5
DA
330
1F
100
AcDbEntity
  8
C-2
  6
Continuous
 62
     3
370
     9
100
AcDbLine
 10
-225.0268472207557
 20
756.8780352618245
 30
0.0
 11
-199.0266129777237
 21
756.8780352618245
 31
0.0
  0
LINE
  5
DB
330
1F
100
AcDbEntity
  8
C-2
  6
Continuous
 62
     3
370
     9
100
AcDbLine
 10
-165.0265255489865
 20
687.377632759713
 30
0.0
 11
-165.0265255489865
 21
929.3777383340373
 31
0.0
  0
LINE
  5
DC
330
1F
100
AcDbEntity
  8
C-2
  6
Continuous
 62
     3
370
     9
100
AcDbLine
 10
-169.0270088814398
 20
687.377632759713
 30
0.0
 11
-169.0270088814398
 21
929.3777383340373
 31
0.0
  0
LINE
  5
DD
330
1F
100
AcDbEntity
  8
C-2
  6
Continuous
 62
     3
370
     9
100
AcDbLine
 10
-195.0266245249153
 20
856.8778703019427
 30
0.0
 11
-169.0270088814398
 21
856.8778703019427
 31
0.0
  0
LINE
  5
DE
330
1F
100
AcDbEntity
  8
C-2
  6
Continuous
 62
     3
370
     9
100
AcDbLine
 10
-195.0266245249153
 20
859.8775832717484
 30
0.0
 11
-169.0270088814398
 21
859.8775832717484
 31
0.0
  0
LINE
  5
DF
330
1F
100
AcDbEntity
  8
C-2
  6
Continuous
 62
     3
370
     9
100
AcDbLine
 10
-195.0266245249153
 20
759.8779956714529
 30
0.0
 11
-169.0270088814398
 21
759.8779956714529
 31
0.0
  0
LINE
  5
E0
330
1F
100
AcDbEntity
  8
C-2
  6
Continuous
 62
     3
370
     9
100
AcDbLine
 10
-195.0266245249153
 20
756.8780352618245
 30
0.0
 11
-169.0270088814398
 21
756.8780352618245
 31
0.0
  0
LINE
  5
E1
330
1F
100
AcDbEntity
  8
C-2
  6
Continuous
 62
     3
370
     9
100
AcDbLine
 10
-135.0269214527026
 20
687.377632759713
 30
0.0
 11
-135.0269214527026
 21
929.3777383340373
 31
0.0
  0
LINE
  5
E2
330
1F
100
AcDbEntity
  8
C-2
  6
Continuous
 62
     3
370
     9
100
AcDbLine
 10
-139.0267861855995
 20
687.377632759713
 30
0.0
 11
-139.0267861855995
 21
929.3777383340373
 31
0.0
  0
LINE
  5
E3
330
1F
100
AcDbEntity
  8
C-2
  6
Continuous
 62
     3
370
     9
100
AcDbLine
 10
-165.0265255489865
 20
856.8778703019427
 30
0.0
 11
-139.0267861855995
 21
856.8778703019427
 31
0.0
  0
LINE
  5
E4
330
1F
100
AcDbEntity
  8
C-2
  6
Continuous
 62
     3
370
     9
100
AcDbLine
 10
-165.0265255489865
 20
859.8775832717484
 30
0.0
 11
-139.0267861855995
 21
859.8775832717484
 31
0.0
  0
LINE
  5
E5
330
1F
100
AcDbEntity
  8
C-2
  6
Continuous
 62
     3
370
     9
100
AcDbLine
 10
-165.0265255489865
 20
759.8779956714529
 30
0.0
 11
-139.0267861855995
 21
759.8779956714529
 31
0.0
  0
LINE
  5
E6
330
1F
100
AcDbEntity
  8
C-2
  6
Continuous
 62
     3
370
     9
100
AcDbLine
 10
-165.0265255489865
 20
756.8780352618245
 30
0.0
 11
-139.0267861855995
 21
756.8780352618245
 31
0.0
  0
LINE
  5
E7
330
1F
100
AcDbEntity
  8
C-2
  6
Continuous
 62
     3
370
     9
100
AcDbLine
 10
-105.0268224767734
 20
687.377632759713
 30
0.0
 11
-105.0268224767734
 21
929.3777383340373
 31
0.0
  0
LINE
  5
E8
330
1F
100
AcDbEntity
  8
C-2
  6
Continuous
 62
     3
370
     9
100
AcDbLine
 10
-109.0266872096706
 20
687.377632759713
 30
0.0
 11
-109.0266872096706
 21
929.3777383340373
 31
0.0
  0
LINE
  5
E9
330
1F
100
AcDbEntity
  8
C-2
  6
Continuous
 62
     3
370
     9
100
AcDbLine
 10
-135.0269214527026
 20
856.8778703019427
 30
0.0
 11
-109.0266872096706
 21
856.8778703019427
 31
0.0
  0
LINE
  5
EA
330
1F
100
AcDbEntity
  8
C-2
  6
Continuous
 62
     3
370
     9
100
AcDbLine
 10
-135.0269214527026
 20
859.8775832717484
 30
0.0
 11
-109.0266872096706
 21
859.8775832717484
 31
0.0
  0
LINE
  5
EB
330
1F
100
AcDbEntity
  8
C-2
  6
Continuous
 62
     3
370
     9
100
AcDbLine
 10
-135.0269214527026
 20
759.8779956714529
 30
0.0
 11
-109.0266872096706
 21
759.8779956714529
 31
0.0
  0
LINE
  5
EC
330
1F
100
AcDbEntity
  8
C-2
  6
Continuous
 62
     3
370
     9
100
AcDbLine
 10
-135.0269214527026
 20
756.8780352618245
 30
0.0
 11
-109.0266872096706
 21
756.8780352618245
 31
0.0
  0
LINE
  5
ED
330
1F
100
AcDbEntity
  8
C-2
  6
Continuous
 62
     3
370
     9
100
AcDbLine
 10
-75.02659978093305
 20
687.377632759713
 30
0.0
 11
-75.02659978093305
 21
929.3777383340373
 31
0.0
  0
LINE
  5
EE
330
1F
100
AcDbEntity
  8
C-2
  6
Continuous
 62
     3
370
     9
100
AcDbLine
 10
-79.02708311338671
 20
687.377632759713
 30
0.0
 11
-79.02708311338671
 21
929.3777383340373
 31
0.0
  0
LINE
  5
EF
330
1F
100
AcDbEntity
  8
C-2
  6
Continuous
 62
     3
370
     9
100
AcDbLine
 10
-105.0268224767734
 20
856.8778703019427
 30
0.0
 11
-79.02708311338671
 21
856.8778703019427
 31
0.0
  0
LINE
  5
F0
330
1F
100
AcDbEntity
  8
C-2
  6
Continuous
 62
     3
370
     9
100
AcDbLine
 10
-105.0268224767734
 20
859.8775832717484
 30
0.0
 11
-79.02708311338671
 21
859.8775832717484
 31
0.0
  0
LINE
  5
F1
330
1F
100
AcDbEntity
  8
C-2
  6
Continuous
 62
     3
370
     9
100
AcDbLine
 10
-105.0268224767734
 20
759.8779956714529
 30
0.0
 11
-79.02708311338671
 21
759.8779956714529
 31
0.0
  0
LINE
  5
F2
330
1F
100
AcDbEntity
  8
C-2
  6
Continuous
 62
     3
370
     9
100
AcDbLine
 10
-105.0268224767734
 20
756.8780352618245
 30
0.0
 11
-79.02708311338671
 21
756.8780352618245
 31
0.0
  0
LINE
  5
F3
330
1F
100
AcDbEntity
  8
C-2
  6
Continuous
 62
     3
370
     9
100
AcDbLine
 10
-45.02699568464948
 20
687.377632759713
 30
0.0
 11
-45.02699568464948
 21
929.3777383340373
 31
0.0
  0
LINE
  5
F4
330
1F
100
AcDbEntity
  8
C-2
  6
Continuous
 62
     3
370
     9
100
AcDbLine
 10
-49.02686041754635
 20
687.377632759713
 30
0.0
 11
-49.02686041754635
 21
929.3777383340373
 31
0.0
  0
LINE
  5
F5
330
1F
100
AcDbEntity
  8
C-2
  6
Continuous
 62
     3
370
     9
100
AcDbLine
 10
-75.02659978093305
 20
856.8778703019427
 30
0.0
 11
-49.02686041754635
 21
856.8778703019427
 31
0.0
  0
LINE
  5
F6
330
1F
100
AcDbEntity
  8
C-2
  6
Continuous
 62
     3
370
     9
100
AcDbLine
 10
-75.02659978093305
 20
859.8775832717484
 30
0.0
 11
-49.02686041754635
 21
859.8775832717484
 31
0.0
  0
LINE
  5
F7
330
1F
100
AcDbEntity
  8
C-2
  6
Continuous
 62
     3
370
     9
100
AcDbLine
 10
-75.02659978093305
 20
759.8779956714529
 30
0.0
 11
-49.02686041754635
 21
759.8779956714529
 31
0.0
  0
LINE
  5
F8
330
1F
100
AcDbEntity
  8
C-2
  6
Continuous
 62
     3
370
     9
100
AcDbLine
 10
-75.02659978093305
 20
756.8780352618245
 30
0.0
 11
-49.02686041754635
 21
756.8780352618245
 31
0.0
  0
LINE
  5
F9
330
1F
100
AcDbEntity
  8
C-2
  6
Continuous
 62
     3
370
     9
100
AcDbLine
 10
-15.02677298880911
 20
687.377632759713
 30
0.0
 11
-15.02677298880911
 21
929.3777383340373
 31
0.0
  0
LINE
  5
FA
330
1F
100
AcDbEntity
  8
C-2
  6
Continuous
 62
     3
370
     9
100
AcDbLine
 10
-19.02663772170598
 20
687.377632759713
 30
0.0
 11
-19.02663772170598
 21
929.3777383340373
 31
0.0
  0
LINE
  5
FB
330
1F
100
AcDbEntity
  8
C-2
  6
Continuous
 62
     3
370
     9
100
AcDbLine
 10
-45.02699568464948
 20
856.8778703019427
 30
0.0
 11
-19.02663772170598
 21
856.8778703019427
 31
0.0
  0
LINE
  5
FC
330
1F
100
AcDbEntity
  8
C-2
  6
Continuous
 62
     3
370
     9
100
AcDbLine
 10
-45.02699568464948
 20
859.8775832717484
 30
0.0
 11
-19.02663772170598
 21
859.8775832717484
 31
0.0
  0
LINE
  5
FD
330
1F
100
AcDbEntity
  8
C-2
  6
Continuous
 62
     3
370
     9
100
AcDbLine
 10
-45.02699568464948
 20
759.8779956714529
 30
0.0
 11
-19.02663772170598
 21
759.8779956714529
 31
0.0
  0
LINE
  5
FE
330
1F
100
AcDbEntity
  8
C-2
  6
Continuous
 62
     3
370
     9
100
AcDbLine
 10
-45.02699568464948
 20
756.8780352618245
 30
0.0
 11
-19.02663772170598
 21
756.8780352618245
 31
0.0
  0
LINE
  5
FF
330
1F
100
AcDbEntity
  8
C-2
  6
Continuous
 62
     3
370
     9
100
AcDbLine
 10
14.97332598712006
 20
687.377632759713
 30
0.0
 11
14.97332598712006
 21
929.3777383340373
 31
0.0
  0
LINE
  5
100
330
1F
100
AcDbEntity
  8
C-2
  6
Continuous
 62
     3
370
     9
100
AcDbLine
 10
10.9734612542232
 20
687.377632759713
 30
0.0
 11
10.9734612542232
 21
929.3777383340373
 31
0.0
  0
LINE
  5
101
330
1F
100
AcDbEntity
  8
C-2
  6
Continuous
 62
     3
370
     9
100
AcDbLine
 10
-15.02677298880911
 20
856.8778703019427
 30
0.0
 11
10.9734612542232
 21
856.8778703019427
 31
0.0
  0
LINE
  5
102
330
1F
100
AcDbEntity
  8
C-2
  6
Continuous
 62
     3
370
     9
100
AcDbLine
 10
-15.02677298880911
 20
859.8775832717484
 30
0.0
 11
10.9734612542232
 21
859.8775832717484
 31
0.0
  0
LINE
  5
103
330
1F
100
AcDbEntity
  8
C-2
  6
Continuous
 62
     3
370
     9
100
AcDbLine
 10
-15.02677298880911
 20
759.8779956714529
 30
0.0
 11
10.9734612542232
 21
759.8779956714529
 31
0.0
  0
LINE
  5
104
330
1F
100
AcDbEntity
  8
C-2
  6
Continuous
 62
     3
370
     9
100
AcDbLine
 10
-15.02677298880911
 20
756.8780352618245
 30
0.0
 11
10.9734612542232
 21
756.8780352618245
 31
0.0
  0
LINE
  5
105
330
1F
100
AcDbEntity
  8
C-2
  6
Continuous
 62
     3
370
     9
100
AcDbLine
 10
44.97293008340392
 20
687.377632759713
 30
0.0
 11
44.97293008340392
 21
929.3777383340373
 31
0.0
  0
LINE
  5
106
330
1F
100
AcDbEntity
  8
C-2
  6
Continuous
 62
     3
370
     9
100
AcDbLine
 10
40.97306535050677
 20
687.377632759713
 30
0.0
 11
40.97306535050677
 21
929.3777383340373
 31
0.0
  0
LINE
  5
107
330
1F
100
AcDbEntity
  8
C-2
  6
Continuous
 62
     3
370
     9
100
AcDbLine
 10
14.97332598712006
 20
856.8778703019427
 30
0.0
 11
40.97306535050677
 21
856.8778703019427
 31
0.0
  0
LINE
  5
108
330
1F
100
AcDbEntity
  8
C-2
  6
Continuous
 62
     3
370
     9
100
AcDbLine
 10
14.97332598712006
 20
859.8775832717484
 30
0.0
 11
40.97306535050677
 21
859.8775832717484
 31
0.0
  0
LINE
  5
109
330
1F
100
AcDbEntity
  8
C-2
  6
Continuous
 62
     3
370
     9
100
AcDbLine
 10
14.97332598712006
 20
759.8779956714529
 30
0.0
 11
40.97306535050677
 21
759.8779956714529
 31
0.0
  0
LINE
  5
10A
330
1F
100
AcDbEntity
  8
C-2
  6
Continuous
 62
     3
370
     9
100
AcDbLine
 10
14.97332598712006
 20
756.8780352618245
 30
0.0
 11
40.97306535050677
 21
756.8780352618245
 31
0.0
  0
LINE
  5
10B
330
1F
100
AcDbEntity
  8
C-2
  6
Continuous
 62
     3
370
     9
100
AcDbLine
 10
74.97302905933282
 20
687.377632759713
 30
0.0
 11
74.97302905933282
 21
929.3777383340373
 31
0.0
  0
LINE
  5
10C
330
1F
100
AcDbEntity
  8
C-2
  6
Continuous
 62
     3
370
     9
100
AcDbLine
 10
70.97316432643595
 20
687.377632759713
 30
0.0
 11
70.97316432643595
 21
929.3777383340373
 31
0.0
  0
LINE
  5
10D
330
1F
100
AcDbEntity
  8
C-2
  6
Continuous
 62
     3
370
     9
100
AcDbLine
 10
44.97293008340392
 20
856.8778703019427
 30
0.0
 11
70.97316432643595
 21
856.8778703019427
 31
0.0
  0
LINE
  5
10E
330
1F
100
AcDbEntity
  8
C-2
  6
Continuous
 62
     3
370
     9
100
AcDbLine
 10
44.97293008340392
 20
859.8775832717484
 30
0.0
 11
70.97316432643595
 21
859.8775832717484
 31
0.0
  0
LINE
  5
10F
330
1F
100
AcDbEntity
  8
C-2
  6
Continuous
 62
     3
370
     9
100
AcDbLine
 10
44.97293008340392
 20
759.8779956714529
 30
0.0
 11
70.97316432643595
 21
759.8779956714529
 31
0.0
  0
LINE
  5
110
330
1F
100
AcDbEntity
  8
C-2
  6
Continuous
 62
     3
370
     9
100
AcDbLine
 10
44.97293008340392
 20
756.8780352618245
 30
0.0
 11
70.97316432643595
 21
756.8780352618245
 31
0.0
  0
LINE
  5
111
330
1F
100
AcDbEntity
  8
C-2
  6
Continuous
 62
     3
370
     9
100
AcDbLine
 10
104.973128035262
 20
687.377632759713
 30
0.0
 11
104.973128035262
 21
929.3777383340373
 31
0.0
  0
LINE
  5
112
330
1F
100
AcDbEntity
  8
C-2
  6
Continuous
 62
     3
370
     9
100
AcDbLine
 10
100.9732633023651
 20
687.377632759713
 30
0.0
 11
100.9732633023651
 21
929.3777383340373
 31
0.0
  0
LINE
  5
113
330
1F
100
AcDbEntity
  8
C-2
  6
Continuous
 62
     3
370
     9
100
AcDbLine
 10
74.97302905933282
 20
856.8778703019427
 30
0.0
 11
100.9732633023651
 21
856.8778703019427
 31
0.0
  0
LINE
  5
114
330
1F
100
AcDbEntity
  8
C-2
  6
Continuous
 62
     3
370
     9
100
AcDbLine
 10
74.97302905933282
 20
859.8775832717484
 30
0.0
 11
100.9732633023651
 21
859.8775832717484
 31
0.0
  0
LINE
  5
115
330
1F
100
AcDbEntity
  8
C-2
  6
Continuous
 62
     3
370
     9
100
AcDbLine
 10
74.97302905933282
 20
759.8779956714529
 30
0.0
 11
100.9732633023651
 21
759.8779956714529
 31
0.0
  0
LINE
  5
116
330
1F
100
AcDbEntity
  8
C-2
  6
Continuous
 62
     3
370
     9
100
AcDbLine
 10
74.97302905933282
 20
756.8780352618245
 30
0.0
 11
100.9732633023651
 21
756.8780352618245
 31
0.0
  0
LINE
  5
117
330
1F
100
AcDbEntity
  8
C-2
  6
Continuous
 62
     3
370
     9
100
AcDbLine
 10
134.9729795713682
 20
687.377632759713
 30
0.0
 11
134.9729795713682
 21
929.3777383340373
 31
0.0
  0
LINE
  5
118
330
1F
100
AcDbEntity
  8
C-2
  6
Continuous
 62
     3
370
     9
100
AcDbLine
 10
130.973362278294
 20
687.377632759713
 30
0.0
 11
130.973362278294
 21
929.3777383340373
 31
0.0
  0
LINE
  5
119
330
1F
100
AcDbEntity
  8
C-2
  6
Continuous
 62
     3
370
     9
100
AcDbLine
 10
104.973128035262
 20
856.8778703019427
 30
0.0
 11
130.973362278294
 21
856.8778703019427
 31
0.0
  0
LINE
  5
11A
330
1F
100
AcDbEntity
  8
C-2
  6
Continuous
 62
     3
370
     9
100
AcDbLine
 10
104.973128035262
 20
859.8775832717484
 30
0.0
 11
130.973362278294
 21
859.8775832717484
 31
0.0
  0
LINE
  5
11B
330
1F
100
AcDbEntity
  8
C-2
  6
Continuous
 62
     3
370
     9
100
AcDbLine
 10
104.973128035262
 20
759.8779956714529
 30
0.0
 11
130.973362278294
 21
759.8779956714529
 31
0.0
  0
LINE
  5
11C
330
1F
100
AcDbEntity
  8
C-2
  6
Continuous
 62
     3
370
     9
100
AcDbLine
 10
104.973128035262
 20
756.8780352618245
 30
0.0
 11
130.973362278294
 21
756.8780352618245
 31
0.0
  0
LINE
  5
11D
330
1F
100
AcDbEntity
  8
C-2
  6
Continuous
 62
     3
370
     9
100
AcDbLine
 10
164.9730785472974
 20
687.377632759713
 30
0.0
 11
164.9730785472974
 21
929.3777383340373
 31
0.0
  0
LINE
  5
11E
330
1F
100
AcDbEntity
  8
C-2
  6
Continuous
 62
     3
370
     9
100
AcDbLine
 10
160.9729663745779
 20
687.377632759713
 30
0.0
 11
160.9729663745779
 21
929.3777383340373
 31
0.0
  0
LINE
  5
11F
330
1F
100
AcDbEntity
  8
C-2
  6
Continuous
 62
     3
370
     9
100
AcDbLine
 10
134.9729795713682
 20
856.8778703019427
 30
0.0
 11
160.9729663745779
 21
856.8778703019427
 31
0.0
  0
LINE
  5
120
330
1F
100
AcDbEntity
  8
C-2
  6
Continuous
 62
     3
370
     9
100
AcDbLine
 10
134.9729795713682
 20
859.8775832717484
 30
0.0
 11
160.9729663745779
 21
859.8775832717484
 31
0.0
  0
LINE
  5
121
330
1F
100
AcDbEntity
  8
C-2
  6
Continuous
 62
     3
370
     9
100
AcDbLine
 10
134.9729795713682
 20
759.8779956714529
 30
0.0
 11
160.9729663745779
 21
759.8779956714529
 31
0.0
  0
LINE
  5
122
330
1F
100
AcDbEntity
  8
C-2
  6
Continuous
 62
     3
370
     9
100
AcDbLine
 10
134.9729795713682
 20
756.8780352618245
 30
0.0
 11
160.9729663745779
 21
756.8780352618245
 31
0.0
  0
LINE
  5
123
330
1F
100
AcDbEntity
  8
C-2
  6
Continuous
 62
     3
370
     9
100
AcDbLine
 10
194.9731775232266
 20
687.377632759713
 30
0.0
 11
194.9731775232266
 21
929.3777383340373
 31
0.0
  0
LINE
  5
124
330
1F
100
AcDbEntity
  8
C-2
  6
Continuous
 62
     3
370
     9
100
AcDbLine
 10
190.9733127903294
 20
687.377632759713
 30
0.0
 11
190.9733127903294
 21
929.3777383340373
 31
0.0
  0
LINE
  5
125
330
1F
100
AcDbEntity
  8
C-2
  6
Continuous
 62
     3
370
     9
100
AcDbLine
 10
164.9730785472974
 20
856.8778703019427
 30
0.0
 11
190.9733127903294
 21
856.8778703019427
 31
0.0
  0
LINE
  5
126
330
1F
100
AcDbEntity
  8
C-2
  6
Continuous
 62
     3
370
     9
100
AcDbLine
 10
164.9730785472974
 20
859.8775832717484
 30
0.0
 11
190.9733127903294
 21
859.8775832717484
 31
0.0
  0
LINE
  5
127
330
1F
100
AcDbEntity
  8
C-2
  6
Continuous
 62
     3
370
     9
100
AcDbLine
 10
164.9730785472974
 20
759.8779956714529
 30
0.0
 11
190.9733127903294
 21
759.8779956714529
 31
0.0
  0
LINE
  5
128
330
1F
100
AcDbEntity
  8
C-2
  6
Continuous
 62
     3
370
     9
100
AcDbLine
 10
164.9730785472974
 20
756.8780352618245
 30
0.0
 11
190.9733127903294
 21
756.8780352618245
 31
0.0
  0
LINE
  5
129
330
1F
100
AcDbEntity
  8
C-2
  6
Continuous
 62
     3
370
     9
100
AcDbLine
 10
224.9732764991555
 20
687.377632759713
 30
0.0
 11
224.9732764991555
 21
929.3777383340373
 31
0.0
  0
LINE
  5
12A
330
1F
100
AcDbEntity
  8
C-2
  6
Continuous
 62
     3
370
     9
100
AcDbLine
 10
220.9734117662586
 20
687.377632759713
 30
0.0
 11
220.9734117662586
 21
929.3777383340373
 31
0.0
  0
LINE
  5
12B
330
1F
100
AcDbEntity
  8
C-2
  6
Continuous
 62
     3
370
     9
100
AcDbLine
 10
194.9731775232266
 20
856.8778703019427
 30
0.0
 11
220.9734117662586
 21
856.8778703019427
 31
0.0
  0
LINE
  5
12C
330
1F
100
AcDbEntity
  8
C-2
  6
Continuous
 62
     3
370
     9
100
AcDbLine
 10
194.9731775232266
 20
859.8775832717484
 30
0.0
 11
220.9734117662586
 21
859.8775832717484
 31
0.0
  0
LINE
  5
12D
330
1F
100
AcDbEntity
  8
C-2
  6
Continuous
 62
     3
370
     9
100
AcDbLine
 10
194.9731775232266
 20
759.8779956714529
 30
0.0
 11
220.9734117662586
 21
759.8779956714529
 31
0.0
  0
LINE
  5
12E
330
1F
100
AcDbEntity
  8
C-2
  6
Continuous
 62
     3
370
     9
100
AcDbLine
 10
194.9731775232266
 20
756.8780352618245
 30
0.0
 11
220.9734117662586
 21
756.8780352618245
 31
0.0
  0
LINE
  5
12F
330
1F
100
AcDbEntity
  8
C-2
  6
Continuous
 62
     3
370
     9
100
AcDbLine
 10
254.9733754750847
 20
687.377632759713
 30
0.0
 11
254.9733754750847
 21
929.3777383340373
 31
0.0
  0
LINE
  5
130
330
1F
100
AcDbEntity
  8
C-2
  6
Continuous
 62
     3
370
     9
100
AcDbLine
 10
250.9730158625425
 20
687.377632759713
 30
0.0
 11
250.9730158625425
 21
929.3777383340373
 31
0.0
  0
LINE
  5
131
330
1F
100
AcDbEntity
  8
C-2
  6
Continuous
 62
     3
370
     9
100
AcDbLine
 10
224.9727816195102
 20
856.8778703019427
 30
0.0
 11
250.9730158625425
 21
856.8778703019427
 31
0.0
  0
LINE
  5
132
330
1F
100
AcDbEntity
  8
C-2
  6
Continuous
 62
     3
370
     9
100
AcDbLine
 10
224.9727816195102
 20
859.8775832717484
 30
0.0
 11
250.9730158625425
 21
859.8775832717484
 31
0.0
  0
LINE
  5
133
330
1F
100
AcDbEntity
  8
C-2
  6
Continuous
 62
     3
370
     9
100
AcDbLine
 10
224.9727816195102
 20
759.8779956714529
 30
0.0
 11
250.9730158625425
 21
759.8779956714529
 31
0.0
  0
LINE
  5
134
330
1F
100
AcDbEntity
  8
C-2
  6
Continuous
 62
     3
370
     9
100
AcDbLine
 10
224.9727816195102
 20
756.8780352618245
 30
0.0
 11
250.9730158625425
 21
756.8780352618245
 31
0.0
  0
LINE
  5
135
330
1F
100
AcDbEntity
  8
C-2
  6
Continuous
 62
     3
370
     9
100
AcDbLine
 10
284.9729795713685
 20
687.377632759713
 30
0.0
 11
284.9729795713685
 21
929.3777383340373
 31
0.0
  0
LINE
  5
136
330
1F
100
AcDbEntity
  8
C-2
  6
Continuous
 62
     3
370
     9
100
AcDbLine
 10
280.9731148384714
 20
687.377632759713
 30
0.0
 11
280.9731148384714
 21
929.3777383340373
 31
0.0
  0
LINE
  5
137
330
1F
100
AcDbEntity
  8
C-2
  6
Continuous
 62
     3
370
     9
100
AcDbLine
 10
254.9733754750847
 20
856.8778703019427
 30
0.0
 11
280.9731148384714
 21
856.8778703019427
 31
0.0
  0
LINE
  5
138
330
1F
100
AcDbEntity
  8
C-2
  6
Continuous
 62
     3
370
     9
100
AcDbLine
 10
254.9733754750847
 20
859.8775832717484
 30
0.0
 11
280.9731148384714
 21
859.8775832717484
 31
0.0
  0
LINE
  5
139
330
1F
100
AcDbEntity
  8
C-2
  6
Continuous
 62
     3
370
     9
100
AcDbLine
 10
254.9733754750847
 20
759.8779956714529
 30
0.0
 11
280.9731148384714
 21
759.8779956714529
 31
0.0
  0
LINE
  5
13A
330
1F
100
AcDbEntity
  8
C-2
  6
Continuous
 62
     3
370
     9
100
AcDbLine
 10
254.9733754750847
 20
756.8780352618245
 30
0.0
 11
280.9731148384714
 21
756.8780352618245
 31
0.0
  0
LINE
  5
13B
330
1F
100
AcDbEntity
  8
C-2
  6
Continuous
 62
     3
370
     9
100
AcDbLine
 10
314.9730785472974
 20
687.377632759713
 30
0.0
 11
314.9730785472974
 21
929.3777383340373
 31
0.0
  0
LINE
  5
13C
330
1F
100
AcDbEntity
  8
C-2
  6
Continuous
 62
     3
370
     9
100
AcDbLine
 10
310.9732138144005
 20
687.377632759713
 30
0.0
 11
310.9732138144005
 21
929.3777383340373
 31
0.0
  0
LINE
  5
13D
330
1F
100
AcDbEntity
  8
C-2
  6
Continuous
 62
     3
370
     9
100
AcDbLine
 10
284.9729795713685
 20
856.8778703019427
 30
0.0
 11
310.9732138144005
 21
856.8778703019427
 31
0.0
  0
LINE
  5
13E
330
1F
100
AcDbEntity
  8
C-2
  6
Continuous
 62
     3
370
     9
100
AcDbLine
 10
284.9729795713685
 20
859.8775832717484
 30
0.0
 11
310.9732138144005
 21
859.8775832717484
 31
0.0
  0
LINE
  5
13F
330
1F
100
AcDbEntity
  8
C-2
  6
Continuous
 62
     3
370
     9
100
AcDbLine
 10
284.9729795713685
 20
759.8779956714529
 30
0.0
 11
310.9732138144005
 21
759.8779956714529
 31
0.0
  0
LINE
  5
140
330
1F
100
AcDbEntity
  8
C-2
  6
Continuous
 62
     3
370
     9
100
AcDbLine
 10
284.9729795713685
 20
756.8780352618245
 30
0.0
 11
310.9732138144005
 21
756.8780352618245
 31
0.0
  0
LINE
  5
141
330
1F
100
AcDbEntity
  8
C-2
  6
Continuous
 62
     3
370
     9
100
AcDbLine
 10
344.9731775232266
 20
687.377632759713
 30
0.0
 11
344.9731775232266
 21
929.3777383340373
 31
0.0
  0
LINE
  5
142
330
1F
100
AcDbEntity
  8
C-2
  6
Continuous
 62
     3
370
     9
100
AcDbLine
 10
340.9730653505068
 20
687.377632759713
 30
0.0
 11
340.9730653505068
 21
929.3777383340373
 31
0.0
  0
LINE
  5
143
330
1F
100
AcDbEntity
  8
C-2
  6
Continuous
 62
     3
370
     9
100
AcDbLine
 10
314.9730785472974
 20
856.8778703019427
 30
0.0
 11
340.9730653505068
 21
856.8778703019427
 31
0.0
  0
LINE
  5
144
330
1F
100
AcDbEntity
  8
C-2
  6
Continuous
 62
     3
370
     9
100
AcDbLine
 10
314.9730785472974
 20
859.8775832717484
 30
0.0
 11
340.9730653505068
 21
859.8775832717484
 31
0.0
  0
LINE
  5
145
330
1F
100
AcDbEntity
  8
C-2
  6
Continuous
 62
     3
370
     9
100
AcDbLine
 10
314.9730785472974
 20
759.8779956714529
 30
0.0
 11
340.9730653505068
 21
759.8779956714529
 31
0.0
  0
LINE
  5
146
330
1F
100
AcDbEntity
  8
C-2
  6
Continuous
 62
     3
370
     9
100
AcDbLine
 10
314.9730785472974
 20
756.8780352618245
 30
0.0
 11
340.9730653505068
 21
756.8780352618245
 31
0.0
  0
LINE
  5
147
330
1F
100
AcDbEntity
  8
C-2
  6
Continuous
 62
     3
370
     9
100
AcDbLine
 10
374.9730290593328
 20
687.377632759713
 30
0.0
 11
374.9730290593328
 21
929.3777383340373
 31
0.0
  0
LINE
  5
148
330
1F
100
AcDbEntity
  8
C-2
  6
Continuous
 62
     3
370
     9
100
AcDbLine
 10
370.9731643264359
 20
687.377632759713
 30
0.0
 11
370.9731643264359
 21
929.3777383340373
 31
0.0
  0
LINE
  5
149
330
1F
100
AcDbEntity
  8
C-2
  6
Continuous
 62
     3
370
     9
100
AcDbLine
 10
344.9731775232266
 20
856.8778703019427
 30
0.0
 11
370.9731643264359
 21
856.8778703019427
 31
0.0
  0
LINE
  5
14A
330
1F
100
AcDbEntity
  8
C-2
  6
Continuous
 62
     3
370
     9
100
AcDbLine
 10
344.9731775232266
 20
859.8775832717484
 30
0.0
 11
370.9731643264359
 21
859.8775832717484
 31
0.0
  0
LINE
  5
14B
330
1F
100
AcDbEntity
  8
C-2
  6
Continuous
 62
     3
370
     9
100
AcDbLine
 10
344.9731775232266
 20
759.8779956714529
 30
0.0
 11
370.9731643264359
 21
759.8779956714529
 31
0.0
  0
LINE
  5
14C
330
1F
100
AcDbEntity
  8
C-2
  6
Continuous
 62
     3
370
     9
100
AcDbLine
 10
344.9731775232266
 20
756.8780352618245
 30
0.0
 11
370.9731643264359
 21
756.8780352618245
 31
0.0
  0
LINE
  5
14D
330
1F
100
AcDbEntity
  8
C-2
  6
Continuous
 62
     3
370
     9
100
AcDbLine
 10
404.9736229149073
 20
687.377632759713
 30
0.0
 11
404.9736229149073
 21
929.3777383340373
 31
0.0
  0
LINE
  5
14E
330
1F
100
AcDbEntity
  8
C-2
  6
Continuous
 62
     3
370
     9
100
AcDbLine
 10
400.9732633023651
 20
687.377632759713
 30
0.0
 11
400.9732633023651
 21
929.3777383340373
 31
0.0
  0
LINE
  5
14F
330
1F
100
AcDbEntity
  8
C-2
  6
Continuous
 62
     3
370
     9
100
AcDbLine
 10
374.9730290593328
 20
856.8778703019427
 30
0.0
 11
400.9732633023651
 21
856.8778703019427
 31
0.0
  0
LINE
  5
150
330
1F
100
AcDbEntity
  8
C-2
  6
Continuous
 62
     3
370
     9
100
AcDbLine
 10
374.9730290593328
 20
859.8775832717484
 30
0.0
 11
400.9732633023651
 21
859.8775832717484
 31
0.0
  0
LINE
  5
151
330
1F
100
AcDbEntity
  8
C-2
  6
Continuous
 62
     3
370
     9
100
AcDbLine
 10
374.9730290593328
 20
759.8779956714529
 30
0.0
 11
400.9732633023651
 21
759.8779956714529
 31
0.0
  0
LINE
  5
152
330
1F
100
AcDbEntity
  8
C-2
  6
Continuous
 62
     3
370
     9
100
AcDbLine
 10
374.9730290593328
 20
756.8780352618245
 30
0.0
 11
400.9732633023651
 21
756.8780352618245
 31
0.0
  0
LINE
  5
153
330
1F
100
AcDbEntity
  8
C-2
  6
Continuous
 62
     3
370
     9
100
AcDbLine
 10
434.9732270111909
 20
687.377632759713
 30
0.0
 11
434.9732270111909
 21
929.3777383340373
 31
0.0
  0
LINE
  5
154
330
1F
100
AcDbEntity
  8
C-2
  6
Continuous
 62
     3
370
     9
100
AcDbLine
 10
430.973362278294
 20
687.377632759713
 30
0.0
 11
430.973362278294
 21
929.3777383340373
 31
0.0
  0
LINE
  5
155
330
1F
100
AcDbEntity
  8
C-2
  6
Continuous
 62
     3
370
     9
100
AcDbLine
 10
404.9736229149073
 20
856.8778703019427
 30
0.0
 11
430.973362278294
 21
856.8778703019427
 31
0.0
  0
LINE
  5
156
330
1F
100
AcDbEntity
  8
C-2
  6
Continuous
 62
     3
370
     9
100
AcDbLine
 10
404.9736229149073
 20
859.8775832717484
 30
0.0
 11
430.973362278294
 21
859.8775832717484
 31
0.0
  0
LINE
  5
157
330
1F
100
AcDbEntity
  8
C-2
  6
Continuous
 62
     3
370
     9
100
AcDbLine
 10
404.9736229149073
 20
759.8779956714529
 30
0.0
 11
430.973362278294
 21
759.8779956714529
 31
0.0
  0
LINE
  5
158
330
1F
100
AcDbEntity
  8
C-2
  6
Continuous
 62
     3
370
     9
100
AcDbLine
 10
404.9736229149073
 20
756.8780352618245
 30
0.0
 11
430.973362278294
 21
756.8780352618245
 31
0.0
  0
LINE
  5
159
330
1F
100
AcDbEntity
  8
C-2
  6
Continuous
 62
     3
370
     9
100
AcDbLine
 10
464.9733259871203
 20
687.377632759713
 30
0.0
 11
464.9733259871203
 21
929.3777383340373
 31
0.0
  0
LINE
  5
15A
330
1F
100
AcDbEntity
  8
C-2
  6
Continuous
 62
     3
370
     9
100
AcDbLine
 10
460.9734612542229
 20
687.377632759713
 30
0.0
 11
460.9734612542229
 21
929.3777383340373
 31
0.0
  0
LINE
  5
15B
330
1F
100
AcDbEntity
  8
C-2
  6
Continuous
 62
     3
370
     9
100
AcDbLine
 10
434.9732270111909
 20
856.8778703019427
 30
0.0
 11
460.9734612542229
 21
856.8778703019427
 31
0.0
  0
LINE
  5
15C
330
1F
100
AcDbEntity
  8
C-2
  6
Continuous
 62
     3
370
     9
100
AcDbLine
 10
434.9732270111909
 20
859.8775832717484
 30
0.0
 11
460.9734612542229
 21
859.8775832717484
 31
0.0
  0
LINE
  5
15D
330
1F
100
AcDbEntity
  8
C-2
  6
Continuous
 62
     3
370
     9
100
AcDbLine
 10
434.9732270111909
 20
759.8779956714529
 30
0.0
 11
460.9734612542229
 21
759.8779956714529
 31
0.0
  0
LINE
  5
15E
330
1F
100
AcDbEntity
  8
C-2
  6
Continuous
 62
     3
370
     9
100
AcDbLine
 10
434.9732270111909
 20
756.8780352618245
 30
0.0
 11
460.9734612542229
 21
756.8780352618245
 31
0.0
  0
LINE
  5
15F
330
1F
100
AcDbEntity
  8
C-2
  6
Continuous
 62
     3
370
     9
100
AcDbLine
 10
494.9736724028719
 20
687.377632759713
 30
0.0
 11
494.9736724028719
 21
929.3777383340373
 31
0.0
  0
LINE
  5
160
330
1F
100
AcDbEntity
  8
C-2
  6
Continuous
 62
     3
370
     9
100
AcDbLine
 10
490.9730653505068
 20
687.377632759713
 30
0.0
 11
490.9730653505068
 21
929.3777383340373
 31
0.0
  0
LINE
  5
161
330
1F
100
AcDbEntity
  8
C-2
  6
Continuous
 62
     3
370
     9
100
AcDbLine
 10
464.9733259871203
 20
856.8778703019427
 30
0.0
 11
490.9730653505068
 21
856.8778703019427
 31
0.0
  0
LINE
  5
162
330
1F
100
AcDbEntity
  8
C-2
  6
Continuous
 62
     3
370
     9
100
AcDbLine
 10
464.9733259871203
 20
859.8775832717484
 30
0.0
 11
490.9730653505068
 21
859.8775832717484
 31
0.0
  0
LINE
  5
163
330
1F
100
AcDbEntity
  8
C-2
  6
Continuous
 62
     3
370
     9
100
AcDbLine
 10
464.9733259871203
 20
759.8779956714529
 30
0.0
 11
490.9730653505068
 21
759.8779956714529
 31
0.0
  0
LINE
  5
164
330
1F
100
AcDbEntity
  8
C-2
  6
Continuous
 62
     3
370
     9
100
AcDbLine
 10
464.9733259871203
 20
756.8780352618245
 30
0.0
 11
490.9730653505068
 21
756.8780352618245
 31
0.0
  0
LINE
  5
165
330
1F
100
AcDbEntity
  8
C-2
  6
Continuous
 62
     3
370
     9
100
AcDbLine
 10
524.9737713788011
 20
687.377632759713
 30
0.0
 11
524.9737713788011
 21
929.3777383340373
 31
0.0
  0
LINE
  5
166
330
1F
100
AcDbEntity
  8
C-2
  6
Continuous
 62
     3
370
     9
100
AcDbLine
 10
520.973164326436
 20
687.377632759713
 30
0.0
 11
520.973164326436
 21
929.3777383340373
 31
0.0
  0
LINE
  5
167
330
1F
100
AcDbEntity
  8
C-2
  6
Continuous
 62
     3
370
     9
100
AcDbLine
 10
494.9736724028719
 20
856.8778703019427
 30
0.0
 11
520.973164326436
 21
856.8778703019427
 31
0.0
  0
LINE
  5
168
330
1F
100
AcDbEntity
  8
C-2
  6
Continuous
 62
     3
370
     9
100
AcDbLine
 10
494.9736724028719
 20
859.8775832717484
 30
0.0
 11
520.973164326436
 21
859.8775832717484
 31
0.0
  0
LINE
  5
169
330
1F
100
AcDbEntity
  8
C-2
  6
Continuous
 62
     3
370
     9
100
AcDbLine
 10
494.9736724028719
 20
759.8779956714529
 30
0.0
 11
520.973164326436
 21
759.8779956714529
 31
0.0
  0
LINE
  5
16A
330
1F
100
AcDbEntity
  8
C-2
  6
Continuous
 62
     3
370
     9
100
AcDbLine
 10
494.9736724028719
 20
756.8780352618245
 30
0.0
 11
520.973164326436
 21
756.8780352618245
 31
0.0
  0
LINE
  5
16B
330
1F
100
AcDbEntity
  8
C-2
  6
Continuous
 62
     3
370
     9
100
AcDbLine
 10
550.9732633023651
 20
687.377632759713
 30
0.0
 11
550.9732633023651
 21
929.3777383340373
 31
0.0
  0
LINE
  5
16C
330
1F
100
AcDbEntity
  8
C-2
  6
Continuous
 62
     3
370
     9
100
AcDbLine
 10
524.9737713788011
 20
856.8778703019427
 30
0.0
 11
550.9732633023651
 21
856.8778703019427
 31
0.0
  0
LINE
  5
16D
330
1F
100
AcDbEntity
  8
C-2
  6
Continuous
 62
     3
370
     9
100
AcDbLine
 10
524.9737713788011
 20
859.8775832717484
 30
0.0
 11
550.9732633023651
 21
859.8775832717484
 31
0.0
  0
LINE
  5
16E
330
1F
100
AcDbEntity
  8
C-2
  6
Continuous
 62
     3
370
     9
100
AcDbLine
 10
524.9737713788011
 20
759.8779956714529
 30
0.0
 11
550.9732633023651
 21
759.8779956714529
 31
0.0
  0
LINE
  5
16F
330
1F
100
AcDbEntity
  8
C-2
  6
Continuous
 62
     3
370
     9
100
AcDbLine
 10
524.9737713788011
 20
756.8780352618245
 30
0.0
 11
550.9732633023651
 21
756.8780352618245
 31
0.0
  0
LINE
  5
170
330
1F
100
AcDbEntity
  8
C-5
  6
Continuous
 62
     7
370
     9
100
AcDbLine
 10
-227.0270270270268
 20
493.3783783783784
 30
0.0
 11
-227.0270270270268
 21
558.3779742266682
 31
0.0
  0
LINE
  5
171
330
1F
100
AcDbEntity
  8
C-5
  6
Continuous
 62
     7
370
     9
100
AcDbLine
 10
-227.0270270270268
 20
558.3779742266682
 30
0.0
 11
347.9728904930323
 21
558.3779742266682
 31
0.0
  0
LINE
  5
172
330
1F
100
AcDbEntity
  8
C-5
  6
Continuous
 62
     7
370
     9
100
AcDbLine
 10
347.9728904930323
 20
558.3779742266682
 30
0.0
 11
347.9728904930323
 21
493.3783783783784
 31
0.0
  0
LINE
  5
173
330
1F
100
AcDbEntity
  8
C-5
  6
Continuous
 62
     7
370
     9
100
AcDbLine
 10
347.9728904930323
 20
493.3783783783784
 30
0.0
 11
-227.0270270270268
 21
493.3783783783784
 31
0.0
  0
LINE
  5
174
330
1F
100
AcDbEntity
  8
C-4
  6
Continuous
 62
     7
370
     9
100
AcDbLine
 10
402.9735668285474
 20
968.3792031777873
 30
0.0
 11
432.9731709248313
 21
968.3792031777873
 31
0.0
  0
LINE
  5
175
330
1F
100
AcDbEntity
  8
C-4
  6
Continuous
 62
     7
370
     9
100
AcDbLine
 10
402.9735668285474
 20
925.3788633604311
 30
0.0
 11
402.9735668285474
 21
971.3791635874156
 31
0.0
  0
LINE
  5
176
330
1F
100
AcDbEntity
  8
C-4
  6
Continuous
 62
     7
370
     9
100
AcDbLine
 10
432.9731709248313
 20
925.3788633604311
 30
0.0
 11
432.9731709248313
 21
971.3791635874156
 31
0.0
  0
TEXT
  5
177
330
1F
100
AcDbEntity
  8
C-4
  6
Continuous
 62
     2
370
     9
100
AcDbText
 10
-466.9879810230151
 20
1041.017989073058
 30
0.0
 40
30.48
  1
2
 41
0.9999999999999998
  7
ＭＳ ゴシック
100
AcDbText
  0
TEXT
  5
178
330
1F
100
AcDbEntity
  8
C-4
  6
Continuous
 62
     2
370
     9
100
AcDbText
 10
25.47318742081927
 20
1041.017989073058
 30
0.0
 40
30.48
  1
994
 41
1.083333333333333
  7
ＭＳ ゴシック
100
AcDbText
  0
TEXT
  5
179
330
1F
100
AcDbEntity
  8
C-4
  6
Continuous
 62
     2
370
     9
100
AcDbText
 10
529.0117418443833
 20
1041.017989073058
 30
0.0
 40
30.48
  1
2
 41
0.9999999999999998
  7
ＭＳ ゴシック
100
AcDbText
  0
TEXT
  5
17A
330
1F
100
AcDbEntity
  8
C-4
  6
Continuous
 62
     2
370
     9
100
AcDbText
 10
26.47309174408804
 20
1121.018253008868
 30
0.0
 40
30.48
  1
996
 41
1.083333333333333
  7
ＭＳ ゴシック
100
AcDbText
  0
TEXT
  5
17B
330
1F
100
AcDbEntity
  8
C-5
  6
Continuous
 62
     2
370
     9
100
AcDbText
 10
-207.0269610430742
 20
511.5180484586148
 30
0.0
 40
30.48
  1
平面詳細図　Ｓ＝１：１０
 41
1.114583333333333
  7
ＭＳ ゴシック
100
AcDbText
  0
TEXT
  5
17C
330
1F
100
AcDbEntity
  8
C-4
  6
Continuous
 62
     2
370
     9
100
AcDbText
 10
396.7234843486065
 20
979.0192196737755
 30
0.0
 40
30.48
  1
30
 41
1.0625
  7
ＭＳ ゴシック
100
AcDbText
  0
LINE
  5
17D
330
1F
100
AcDbEntity
  8
C-A
  6
Continuous
 62
     3
370
     9
100
AcDbLine
 10
-183.2765977189347
 20
943.3779267429088
 30
0.0
 11
-184.5265977189347
 21
943.3779267429088
 31
0.0
  0
LINE
  5
17E
330
1F
100
AcDbEntity
  8
C-A
  6
Continuous
 62
     3
370
     9
100
AcDbLine
 10
-183.2765977189347
 20
943.3779267429088
 30
0.0
 11
-183.2765977189347
 21
972.3779110072826
 31
0.0
  0
LINE
  5
17F
330
1F
100
AcDbEntity
  8
C-A
  6
Continuous
 62
     3
370
     9
100
AcDbLine
 10
-184.5312669083869
 20
939.3779133914666
 30
0.0
 11
-184.018113832215
 21
939.3779133914666
 31
0.0
  0
LINE
  5
180
330
1F
100
AcDbEntity
  8
C-A
  6
Continuous
 62
     3
370
     9
100
AcDbLine
 10
-200.026536683777
 20
939.3779133914666
 30
0.0
 11
-199.5265672013561
 21
939.3779133914666
 31
0.0
  0
LINE
  5
181
330
1F
100
AcDbEntity
  8
C-A
  6
Continuous
 62
     3
370
     9
100
AcDbLine
 10
-200.7766587540895
 20
943.3779267429088
 30
0.0
 11
-199.5266892716681
 21
943.3779267429088
 31
0.0
  0
LINE
  5
182
330
1F
100
AcDbEntity
  8
C-A
  6
Continuous
 62
     3
370
     9
100
AcDbLine
 10
-200.7766587540895
 20
943.3779267429088
 30
0.0
 11
-200.7766587540895
 21
972.3779110072826
 31
0.0
  0
LINE
  5
183
330
1F
100
AcDbEntity
  8
C-A
  6
Continuous
 62
     3
370
     9
100
AcDbLine
 10
-183.2765977189347
 20
972.3779110072826
 30
0.0
 11
-200.7766587540895
 21
972.3779110072826
 31
0.0
  0
LINE
  5
184
330
1F
100
AcDbEntity
  8
C-A
  6
JWW_DASHED2
 62
     3
370
     9
100
AcDbLine
 10
-185.2766282365114
 20
943.2320112346372
 30
0.0
 11
-185.2766282365114
 21
972.3779110072826
 31
0.0
  0
LINE
  5
185
330
1F
100
AcDbEntity
  8
C-A
  6
JWW_DASHED2
 62
     3
370
     9
100
AcDbLine
 10
-198.7766587540914
 20
943.2320112346372
 30
0.0
 11
-198.7766587540914
 21
972.3779110072826
 31
0.0
  0
LINE
  5
186
330
1F
100
AcDbEntity
  8
C-A
  6
Continuous
 62
     3
370
     9
100
AcDbLine
 10
316.7233717634856
 20
943.3779267429088
 30
0.0
 11
315.4733717634856
 21
943.3779267429088
 31
0.0
  0
LINE
  5
187
330
1F
100
AcDbEntity
  8
C-A
  6
Continuous
 62
     3
370
     9
100
AcDbLine
 10
316.7233717634856
 20
943.3779267429088
 30
0.0
 11
316.7233717634856
 21
972.3779110072826
 31
0.0
  0
LINE
  5
188
330
1F
100
AcDbEntity
  8
C-A
  6
Continuous
 62
     3
370
     9
100
AcDbLine
 10
315.468733091612
 20
939.3779133914666
 30
0.0
 11
315.9819166853624
 21
939.3779133914666
 31
0.0
  0
LINE
  5
189
330
1F
100
AcDbEntity
  8
C-A
  6
Continuous
 62
     3
370
     9
100
AcDbLine
 10
299.9734938337981
 20
939.3779133914666
 30
0.0
 11
300.4734327986428
 21
939.3779133914666
 31
0.0
  0
LINE
  5
18A
330
1F
100
AcDbEntity
  8
C-A
  6
Continuous
 62
     3
370
     9
100
AcDbLine
 10
299.2233107283307
 20
943.3779267429088
 30
0.0
 11
300.4733107283307
 21
943.3779267429088
 31
0.0
  0
LINE
  5
18B
330
1F
100
AcDbEntity
  8
C-A
  6
Continuous
 62
     3
370
     9
100
AcDbLine
 10
299.2233107283307
 20
943.3779267429088
 30
0.0
 11
299.2233107283307
 21
972.3779110072826
 31
0.0
  0
LINE
  5
18C
330
1F
100
AcDbEntity
  8
C-A
  6
Continuous
 62
     3
370
     9
100
AcDbLine
 10
316.7233717634856
 20
972.3779110072826
 30
0.0
 11
299.2233107283307
 21
972.3779110072826
 31
0.0
  0
LINE
  5
18D
330
1F
100
AcDbEntity
  8
C-A
  6
JWW_DASHED2
 62
     3
370
     9
100
AcDbLine
 10
314.7233717634874
 20
943.2320112346372
 30
0.0
 11
314.7233717634874
 21
972.3779110072826
 31
0.0
  0
LINE
  5
18E
330
1F
100
AcDbEntity
  8
C-A
  6
JWW_DASHED2
 62
     3
370
     9
100
AcDbLine
 10
301.2233717634861
 20
943.2320112346372
 30
0.0
 11
301.2233717634861
 21
972.3779110072826
 31
0.0
  0
LINE
  5
18F
330
1F
100
AcDbEntity
  8
C-A
  6
JWW_CENTER2
 62
     7
370
     9
100
AcDbLine
 10
-192.0265977189347
 20
929.9097322581963
 30
0.0
 11
-192.0265977189347
 21
977.3101314662665
 31
0.0
  0
LINE
  5
190
330
1F
100
AcDbEntity
  8
C-A
  6
JWW_CENTER2
 62
     7
370
     9
100
AcDbLine
 10
-197.8025986954962
 20
962.3778652309136
 30
0.0
 11
-186.2505662247945
 21
962.3778652309136
 31
0.0
  0
LINE
  5
191
330
1F
100
AcDbEntity
  8
C-A
  6
JWW_CENTER2
 62
     7
370
     9
100
AcDbLine
 10
302.197370786924
 20
962.3778652309136
 30
0.0
 11
313.7494337752044
 21
962.3778652309136
 31
0.0
  0
LINE
  5
192
330
1F
100
AcDbEntity
  8
C-A
  6
JWW_CENTER2
 62
     7
370
     9
100
AcDbLine
 10
307.9734327986428
 20
929.9097322581963
 30
0.0
 11
307.9734327986428
 21
977.3101314662665
 31
0.0
  0
ARC
  5
193
330
1F
100
AcDbEntity
  8
C-A
  6
Continuous
 62
     3
370
     9
100
AcDbCircle
 10
-184.0265366837779
 20
937.377931511279
 30
0.0
 40
1.999999642372131
100
AcDbArc
 50
29.99926757812499
 51
89.75836181640624
  0
ARC
  5
194
330
1F
100
AcDbEntity
  8
C-A
  6
Continuous
 62
     3
370
     9
100
AcDbCircle
 10
-184.5265977189347
 20
941.377907669422
 30
0.0
 40
1.999999642372131
100
AcDbArc
 50
90.0
 51
269.86669921875
  0
ARC
  5
195
330
1F
100
AcDbEntity
  8
C-A
  6
Continuous
 62
     3
370
     9
100
AcDbCircle
 10
-200.026536683777
 20
937.377931511279
 30
0.0
 40
1.999999642372131
100
AcDbArc
 50
90.2759552001953
 51
150.0004730224609
  0
ARC
  5
196
330
1F
100
AcDbEntity
  8
C-A
  6
Continuous
 62
     3
370
     9
100
AcDbCircle
 10
-199.5266892716681
 20
941.377907669422
 30
0.0
 40
1.999999642372131
100
AcDbArc
 50
270.0
 51
90.0
  0
CIRCLE
  5
197
330
1F
100
AcDbEntity
  8
C-A
  6
Continuous
 62
     3
370
     9
100
AcDbCircle
 10
-192.0265977189347
 20
962.3778652309136
 30
0.0
 40
4.249999523162842
  0
ARC
  5
198
330
1F
100
AcDbEntity
  8
C-A
  6
Continuous
 62
     3
370
     9
100
AcDbCircle
 10
315.9734327986423
 20
937.377931511279
 30
0.0
 40
1.999999642372131
100
AcDbArc
 50
29.99926757812499
 51
89.75836181640624
  0
ARC
  5
199
330
1F
100
AcDbEntity
  8
C-A
  6
Continuous
 62
     3
370
     9
100
AcDbCircle
 10
315.4733717634856
 20
941.377907669422
 30
0.0
 40
1.999999642372131
100
AcDbArc
 50
90.0
 51
269.86669921875
  0
ARC
  5
19A
330
1F
100
AcDbEntity
  8
C-A
  6
Continuous
 62
     3
370
     9
100
AcDbCircle
 10
299.9734938337981
 20
937.377931511279
 30
0.0
 40
1.999999642372131
100
AcDbArc
 50
90.2759552001953
 51
150.0004730224609
  0
ARC
  5
19B
330
1F
100
AcDbEntity
  8
C-A
  6
Continuous
 62
     3
370
     9
100
AcDbCircle
 10
300.4733107283307
 20
941.377907669422
 30
0.0
 40
1.999999642372131
100
AcDbArc
 50
270.0
 51
90.0
  0
CIRCLE
  5
19C
330
1F
100
AcDbEntity
  8
C-A
  6
Continuous
 62
     3
370
     9
100
AcDbCircle
 10
307.9734327986428
 20
962.3778652309136
 30
0.0
 40
4.249999523162842
  0
LINE
  5
19D
330
1F
100
AcDbEntity
  8
C-A
  6
Continuous
 62
     3
370
     9
100
AcDbLine
 10
-183.2765977189347
 20
673.3774448276779
 30
0.0
 11
-184.5265977189347
 21
673.3774448276779
 31
0.0
  0
LINE
  5
19E
330
1F
100
AcDbEntity
  8
C-A
  6
Continuous
 62
     3
370
     9
100
AcDbLine
 10
-183.2765977189347
 20
673.3774448276779
 30
0.0
 11
-183.2765977189347
 21
644.3774600864674
 31
0.0
  0
LINE
  5
19F
330
1F
100
AcDbEntity
  8
C-A
  6
Continuous
 62
     3
370
     9
100
AcDbLine
 10
-184.5312669083869
 20
677.377460086467
 30
0.0
 11
-184.018113832215
 21
677.377460086467
 31
0.0
  0
LINE
  5
1A0
330
1F
100
AcDbEntity
  8
C-A
  6
Continuous
 62
     3
370
     9
100
AcDbLine
 10
-200.026536683777
 20
677.377460086467
 30
0.0
 11
-199.5265672013561
 21
677.377460086467
 31
0.0
  0
LINE
  5
1A1
330
1F
100
AcDbEntity
  8
C-A
  6
Continuous
 62
     3
370
     9
100
AcDbLine
 10
-200.7766587540895
 20
673.3774448276779
 30
0.0
 11
-199.5266892716681
 21
673.3774448276779
 31
0.0
  0
LINE
  5
1A2
330
1F
100
AcDbEntity
  8
C-A
  6
Continuous
 62
     3
370
     9
100
AcDbLine
 10
-200.7766587540895
 20
673.3774448276779
 30
0.0
 11
-200.7766587540895
 21
644.3774600864674
 31
0.0
  0
LINE
  5
1A3
330
1F
100
AcDbEntity
  8
C-A
  6
Continuous
 62
     3
370
     9
100
AcDbLine
 10
-183.2765977189347
 20
644.3774600864674
 30
0.0
 11
-200.7766587540895
 21
644.3774600864674
 31
0.0
  0
LINE
  5
1A4
330
1F
100
AcDbEntity
  8
C-A
  6
JWW_DASHED2
 62
     3
370
     9
100
AcDbLine
 10
-185.2766282365114
 20
673.523349368694
 30
0.0
 11
-185.2766282365114
 21
644.3774600864674
 31
0.0
  0
LINE
  5
1A5
330
1F
100
AcDbEntity
  8
C-A
  6
JWW_DASHED2
 62
     3
370
     9
100
AcDbLine
 10
-198.7766587540914
 20
673.523349368694
 30
0.0
 11
-198.7766587540914
 21
644.3774600864674
 31
0.0
  0
LINE
  5
1A6
330
1F
100
AcDbEntity
  8
C-4
  6
Continuous
 62
     7
370
     9
100
AcDbLine
 10
307.9734938337999
 20
633.6584049106875
 30
0.0
 11
307.9734938337999
 21
590.3772312046328
 31
0.0
  0
LINE
  5
1A7
330
1F
100
AcDbEntity
  8
C-4
  6
Continuous
 62
     7
370
     9
100
AcDbLine
 10
-192.0265977189347
 20
633.6584049106875
 30
0.0
 11
-192.0265977189347
 21
590.3772312046328
 31
0.0
  0
LINE
  5
1A8
330
1F
100
AcDbEntity
  8
C-4
  6
Continuous
 62
     7
370
     9
100
AcDbLine
 10
-192.0265977189347
 20
593.3772922397873
 30
0.0
 11
307.9734938337999
 21
593.3772922397873
 31
0.0
  0
LINE
  5
1A9
330
1F
100
AcDbEntity
  8
C-A
  6
Continuous
 62
     3
370
     9
100
AcDbLine
 10
316.7233717634856
 20
673.3774448276779
 30
0.0
 11
315.4733717634856
 21
673.3774448276779
 31
0.0
  0
LINE
  5
1AA
330
1F
100
AcDbEntity
  8
C-A
  6
Continuous
 62
     3
370
     9
100
AcDbLine
 10
316.7233717634856
 20
673.3774448276779
 30
0.0
 11
316.7233717634856
 21
644.3774600864674
 31
0.0
  0
LINE
  5
1AB
330
1F
100
AcDbEntity
  8
C-A
  6
Continuous
 62
     3
370
     9
100
AcDbLine
 10
315.468733091612
 20
677.377460086467
 30
0.0
 11
315.9819166853624
 21
677.377460086467
 31
0.0
  0
LINE
  5
1AC
330
1F
100
AcDbEntity
  8
C-A
  6
Continuous
 62
     3
370
     9
100
AcDbLine
 10
299.9734938337981
 20
677.377460086467
 30
0.0
 11
300.4734327986428
 21
677.377460086467
 31
0.0
  0
LINE
  5
1AD
330
1F
100
AcDbEntity
  8
C-A
  6
Continuous
 62
     3
370
     9
100
AcDbLine
 10
299.2233107283307
 20
673.3774448276779
 30
0.0
 11
300.4733107283307
 21
673.3774448276779
 31
0.0
  0
LINE
  5
1AE
330
1F
100
AcDbEntity
  8
C-A
  6
Continuous
 62
     3
370
     9
100
AcDbLine
 10
299.2233107283307
 20
673.3774448276779
 30
0.0
 11
299.2233107283307
 21
644.3774600864674
 31
0.0
  0
LINE
  5
1AF
330
1F
100
AcDbEntity
  8
C-A
  6
Continuous
 62
     3
370
     9
100
AcDbLine
 10
316.7233717634856
 20
644.3774600864674
 30
0.0
 11
299.2233107283307
 21
644.3774600864674
 31
0.0
  0
LINE
  5
1B0
330
1F
100
AcDbEntity
  8
C-A
  6
JWW_DASHED2
 62
     3
370
     9
100
AcDbLine
 10
314.7233717634874
 20
673.523349368694
 30
0.0
 11
314.7233717634874
 21
644.3774600864674
 31
0.0
  0
LINE
  5
1B1
330
1F
100
AcDbEntity
  8
C-A
  6
JWW_DASHED2
 62
     3
370
     9
100
AcDbLine
 10
301.2233717634861
 20
673.523349368694
 30
0.0
 11
301.2233717634861
 21
644.3774600864674
 31
0.0
  0
LINE
  5
1B2
330
1F
100
AcDbEntity
  8
C-A
  6
JWW_CENTER2
 62
     7
370
     9
100
AcDbLine
 10
302.197370786924
 20
654.3775058628341
 30
0.0
 11
313.7494337752044
 21
654.3775058628341
 31
0.0
  0
LINE
  5
1B3
330
1F
100
AcDbEntity
  8
C-A
  6
JWW_CENTER2
 62
     7
370
     9
100
AcDbLine
 10
307.9734327986428
 20
686.8456302524839
 30
0.0
 11
307.9734327986428
 21
639.4452396274835
 31
0.0
  0
LINE
  5
1B4
330
1F
100
AcDbEntity
  8
C-A
  6
JWW_CENTER2
 62
     7
370
     9
100
AcDbLine
 10
-197.8025986954962
 20
654.3775058628341
 30
0.0
 11
-186.2505662247945
 21
654.3775058628341
 31
0.0
  0
LINE
  5
1B5
330
1F
100
AcDbEntity
  8
C-A
  6
JWW_CENTER2
 62
     7
370
     9
100
AcDbLine
 10
-192.0265977189347
 20
686.8456302524839
 30
0.0
 11
-192.0265977189347
 21
639.4452396274835
 31
0.0
  0
ARC
  5
1B6
330
1F
100
AcDbEntity
  8
C-A
  6
Continuous
 62
     3
370
     9
100
AcDbCircle
 10
-184.0265366837779
 20
679.3774295688888
 30
0.0
 40
1.999999642372131
100
AcDbArc
 50
270.2416229248047
 51
330.0007171630859
  0
ARC
  5
1B7
330
1F
100
AcDbEntity
  8
C-A
  6
Continuous
 62
     3
370
     9
100
AcDbCircle
 10
-184.5265977189347
 20
675.3774600864688
 30
0.0
 40
1.999999642372131
100
AcDbArc
 50
90.13328552246095
 51
270.0
  0
ARC
  5
1B8
330
1F
100
AcDbEntity
  8
C-A
  6
Continuous
 62
     3
370
     9
100
AcDbCircle
 10
-200.026536683777
 20
679.3774295688888
 30
0.0
 40
1.999999642372131
100
AcDbArc
 50
209.99951171875
 51
269.7240295410157
  0
ARC
  5
1B9
330
1F
100
AcDbEntity
  8
C-A
  6
Continuous
 62
     3
370
     9
100
AcDbCircle
 10
-199.5266892716681
 20
675.3774600864688
 30
0.0
 40
1.999999642372131
100
AcDbArc
 50
270.0
 51
90.0
  0
CIRCLE
  5
1BA
330
1F
100
AcDbEntity
  8
C-A
  6
Continuous
 62
     3
370
     9
100
AcDbCircle
 10
-192.0265977189347
 20
654.3775058628341
 30
0.0
 40
4.249999523162842
  0
ARC
  5
1BB
330
1F
100
AcDbEntity
  8
C-A
  6
Continuous
 62
     3
370
     9
100
AcDbCircle
 10
315.9734327986423
 20
679.3774295688888
 30
0.0
 40
1.999999642372131
100
AcDbArc
 50
270.2416229248047
 51
330.0007171630859
  0
ARC
  5
1BC
330
1F
100
AcDbEntity
  8
C-A
  6
Continuous
 62
     3
370
     9
100
AcDbCircle
 10
315.4733717634856
 20
675.3774600864688
 30
0.0
 40
1.999999642372131
100
AcDbArc
 50
90.13328552246095
 51
270.0
  0
ARC
  5
1BD
330
1F
100
AcDbEntity
  8
C-A
  6
Continuous
 62
     3
370
     9
100
AcDbCircle
 10
299.9734938337981
 20
679.3774295688888
 30
0.0
 40
1.999999642372131
100
AcDbArc
 50
209.99951171875
 51
269.7240295410157
  0
ARC
  5
1BE
330
1F
100
AcDbEntity
  8
C-A
  6
Continuous
 62
     3
370
     9
100
AcDbCircle
 10
300.4733107283307
 20
675.3774600864688
 30
0.0
 40
1.999999642372131
100
AcDbArc
 50
270.0
 51
90.0
  0
CIRCLE
  5
1BF
330
1F
100
AcDbEntity
  8
C-A
  6
Continuous
 62
     3
370
     9
100
AcDbCircle
 10
307.9734327986428
 20
654.3775058628341
 30
0.0
 40
4.249999523162842
  0
LWPOLYLINE
  5
1C0
330
1F
100
AcDbEntity
  8
C-4
  6
Continuous
 62
     7
370
     9
100
AcDbPolyline
 90
        4
 70
     1
 43
2.0
 10
308.9734938338
 20
593.3772922397873
 42
0.4142135623731
 10
307.9734938337999
 20
594.3772922397873
 42
0.4142135623731
 10
306.9734938337999
 20
593.3772922397873
 42
0.4142135623731
 10
307.9734938337999
 20
592.3772922397873
 42
0.4142135623731
  0
LWPOLYLINE
  5
1C1
330
1F
100
AcDbEntity
  8
C-4
  6
Continuous
 62
     7
370
     9
100
AcDbPolyline
 90
        4
 70
     1
 43
2.0
 10
-191.0265977189346
 20
593.3772922397873
 42
0.4142135623731
 10
-192.0265977189347
 20
594.3772922397873
 42
0.4142135623731
 10
-193.0265977189347
 20
593.3772922397873
 42
0.4142135623731
 10
-192.0265977189347
 20
592.3772922397873
 42
0.4142135623731
  0
TEXT
  5
1C2
330
1F
100
AcDbEntity
  8
C-4
  6
Continuous
 62
     2
370
     9
100
AcDbText
 10
25.47343279864393
 20
604.0170633579513
 30
0.0
 40
30.48
  1
500
 41
1.083333333333314
  7
ＭＳ ゴシック
100
AcDbText
  0
LINE
  5
1C3
330
1F
100
AcDbEntity
  8
D-2
  6
Continuous
 62
     3
370
     9
100
AcDbLine
 10
-722.0520486996234
 20
-417.4322674725506
 30
0.0
 11
-722.0520486996234
 21
-317.4324324324324
 31
0.0
  0
LINE
  5
1C4
330
1F
100
AcDbEntity
  8
D-2
  6
Continuous
 62
     3
370
     9
100
AcDbLine
 10
-702.0519827156706
 20
-317.4324324324324
 30
0.0
 11
-702.0519827156706
 21
-417.4322674725506
 31
0.0
  0
LINE
  5
1C5
330
1F
100
AcDbEntity
  8
D-2
  6
Continuous
 62
     3
370
     9
100
AcDbLine
 10
-1399.720501606876
 20
-472.6761152937605
 30
0.0
 11
-1399.720501606876
 21
-248.7336112357474
 31
0.0
  0
LINE
  5
1C6
330
1F
100
AcDbEntity
  8
D-2
  6
Continuous
 62
     3
370
     9
100
AcDbLine
 10
-1399.720501606876
 20
-417.4322674725506
 30
0.0
 11
-702.0519827156706
 21
-417.4322674725506
 31
0.0
  0
LINE
  5
1C7
330
1F
100
AcDbEntity
  8
D-2
  6
Continuous
 62
     3
370
     9
100
AcDbLine
 10
-702.0519827156706
 20
-317.4324324324324
 30
0.0
 11
-1399.720501606876
 21
-317.4324324324324
 31
0.0
  0
LINE
  5
1C8
330
1F
100
AcDbEntity
  8
D-5
  6
Continuous
 62
     7
370
     9
100
AcDbLine
 10
-103.4860202077524
 20
-367.4319787927575
 30
0.0
 11
-103.4860202077524
 21
-317.4316901129645
 31
0.0
  0
LINE
  5
1C9
330
1F
100
AcDbEntity
  8
D-5
  6
Continuous
 62
     7
370
     9
100
AcDbLine
 10
-103.4860202077524
 20
-317.4316901129645
 30
0.0
 11
121.513732352425
 21
-317.4316901129645
 31
0.0
  0
LINE
  5
1CA
330
1F
100
AcDbEntity
  8
D-5
  6
Continuous
 62
     7
370
     9
100
AcDbLine
 10
121.513732352425
 20
-317.4316901129645
 30
0.0
 11
121.513732352425
 21
-367.4319787927575
 31
0.0
  0
LINE
  5
1CB
330
1F
100
AcDbEntity
  8
D-5
  6
Continuous
 62
     7
370
     9
100
AcDbLine
 10
121.513732352425
 20
-367.4319787927575
 30
0.0
 11
-103.4860202077524
 21
-367.4319787927575
 31
0.0
  0
TEXT
  5
1CC
330
1F
100
AcDbEntity
  8
D-5
  6
Continuous
 62
     2
370
     9
100
AcDbText
 10
-55.98598721577609
 20
-356.7918385768581
 30
0.0
 40
30.48
  1
仕　様
 41
1.083333333333333
  7
ＭＳ ゴシック
100
AcDbText
  0
LINE
  5
1CD
330
1F
100
AcDbEntity
  8
D-2
  6
Continuous
 62
     3
370
     9
100
AcDbLine
 10
-1084.552791019091
 20
-317.4324324324324
 30
0.0
 11
-1084.552791019091
 21
-392.4324324324324
 31
0.0
  0
LINE
  5
1CE
330
1F
100
AcDbEntity
  8
D-2
  6
Continuous
 62
     3
370
     9
100
AcDbLine
 10
-1069.552617811215
 20
-317.4324324324324
 30
0.0
 11
-1069.552617811215
 21
-392.4324324324324
 31
0.0
  0
LINE
  5
1CF
330
1F
100
AcDbEntity
  8
D-2
  6
Continuous
 62
     3
370
     9
100
AcDbLine
 10
-1064.552477595316
 20
-344.9322757205447
 30
0.0
 11
-1034.55262605921
 21
-354.9324324324324
 31
0.0
  0
LINE
  5
1D0
330
1F
100
AcDbEntity
  8
D-2
  6
Continuous
 62
     3
370
     9
100
AcDbLine
 10
-1034.55262605921
 20
-354.9324324324324
 30
0.0
 11
-1034.55262605921
 21
-382.4322757205447
 31
0.0
  0
LINE
  5
1D1
330
1F
100
AcDbEntity
  8
D-2
  6
Continuous
 62
     3
370
     9
100
AcDbLine
 10
-1064.552477595316
 20
-382.4322757205447
 30
0.0
 11
-1034.55262605921
 21
-382.4322757205447
 31
0.0
  0
LINE
  5
1D2
330
1F
100
AcDbEntity
  8
D-2
  6
Continuous
 62
     3
370
     9
100
AcDbLine
 10
-1064.552477595316
 20
-382.4322757205447
 30
0.0
 11
-1064.552477595316
 21
-392.4324324324324
 31
0.0
  0
LINE
  5
1D3
330
1F
100
AcDbEntity
  8
D-2
  6
Continuous
 62
     3
370
     9
100
AcDbLine
 10
-1064.552477595316
 20
-392.4324324324324
 30
0.0
 11
-1089.552188915523
 21
-392.4324324324324
 31
0.0
  0
LINE
  5
1D4
330
1F
100
AcDbEntity
  8
D-2
  6
Continuous
 62
     3
370
     9
100
AcDbLine
 10
-1089.552188915523
 20
-392.4324324324324
 30
0.0
 11
-1119.552411611363
 21
-382.4322757205447
 31
0.0
  0
LINE
  5
1D5
330
1F
100
AcDbEntity
  8
D-2
  6
Continuous
 62
     3
370
     9
100
AcDbLine
 10
-1119.552411611363
 20
-354.9324324324324
 30
0.0
 11
-1119.552411611363
 21
-382.4322757205447
 31
0.0
  0
LINE
  5
1D6
330
1F
100
AcDbEntity
  8
D-2
  6
Continuous
 62
     3
370
     9
100
AcDbLine
 10
-1119.552411611363
 20
-354.9324324324324
 30
0.0
 11
-1089.552188915523
 21
-354.9324324324324
 31
0.0
  0
LINE
  5
1D7
330
1F
100
AcDbEntity
  8
D-2
  6
Continuous
 62
     3
370
     9
100
AcDbLine
 10
-1089.552188915523
 20
-344.9322757205447
 30
0.0
 11
-1089.552188915523
 21
-354.9324324324324
 31
0.0
  0
LINE
  5
1D8
330
1F
100
AcDbEntity
  8
D-2
  6
Continuous
 62
     3
370
     9
100
AcDbLine
 10
-1084.552791019091
 20
-344.9322757205447
 30
0.0
 11
-1089.552188915523
 21
-344.9322757205447
 31
0.0
  0
LINE
  5
1D9
330
1F
100
AcDbEntity
  8
D-2
  6
Continuous
 62
     3
370
     9
100
AcDbLine
 10
-1064.552477595316
 20
-344.9322757205447
 30
0.0
 11
-1069.552617811215
 21
-344.9322757205447
 31
0.0
  0
LINE
  5
1DA
330
1F
100
AcDbEntity
  8
D-1
  6
Continuous
 62
     2
370
     9
100
AcDbLine
 10
-697.0525573044466
 20
-432.4320318892195
 30
0.0
 11
-692.0522861033129
 21
-432.4320318892195
 31
0.0
  0
LINE
  5
1DB
330
1F
100
AcDbEntity
  8
D-1
  6
Continuous
 62
     2
370
     9
100
AcDbLine
 10
-692.0522861033129
 20
-317.4327376082136
 30
0.0
 11
-692.0522861033129
 21
-417.4322130873396
 31
0.0
  0
LINE
  5
1DC
330
1F
100
AcDbEntity
  8
D-4
  6
Continuous
 62
     7
370
     9
100
AcDbLine
 10
-702.051341728689
 20
-90.2613547041598
 30
0.0
 11
-697.0510707646059
 21
-90.2613547041598
 31
0.0
  0
LINE
  5
1DD
330
1F
100
AcDbEntity
  8
D-4
  6
Continuous
 62
     7
370
     9
100
AcDbLine
 10
-827.0521734505343
 20
-199.0137198164645
 30
0.0
 11
-702.051341728689
 21
-199.0137198164645
 31
0.0
  0
LINE
  5
1DE
330
1F
100
AcDbEntity
  8
D-4
  6
Continuous
 62
     7
370
     9
100
AcDbLine
 10
-702.051341728689
 20
-304.4772198393538
 30
0.0
 11
-702.051341728689
 21
-87.26178195025355
 31
0.0
  0
LINE
  5
1DF
330
1F
100
AcDbEntity
  8
D-4
  6
Continuous
 62
     7
370
     9
100
AcDbLine
 10
-692.0512960701632
 20
-304.4772198393538
 30
0.0
 11
-692.0512960701632
 21
-87.26178195025355
 31
0.0
  0
LINE
  5
1E0
330
1F
100
AcDbEntity
  8
D-4
  6
Continuous
 62
     7
370
     9
100
AcDbLine
 10
-677.052461937015
 20
-304.4772198393538
 30
0.0
 11
-677.052461937015
 21
23.43483899090856
 31
0.0
  0
LINE
  5
1E1
330
1F
100
AcDbEntity
  8
D-6
  6
Continuous
 62
     6
370
     9
100
AcDbLine
 10
-427.0522878914527
 20
-563.4418966963484
 30
0.0
 11
-331.0413931160621
 21
-467.431946058531
 31
0.0
  0
LINE
  5
1E2
330
1F
100
AcDbEntity
  8
D-6
  6
Continuous
 62
     6
370
     9
100
AcDbLine
 10
-427.0522878914527
 20
-467.431946058531
 30
0.0
 11
-262.0512960701637
 21
-467.431946058531
 31
0.0
  0
LINE
  5
1E3
330
1F
100
AcDbEntity
  8
D-6
  6
Continuous
 62
     6
370
     9
100
AcDbLine
 10
-427.0522878914527
 20
-577.5835707380965
 30
0.0
 11
-316.9006536751442
 21
-467.431946058531
 31
0.0
  0
LINE
  5
1E4
330
1F
100
AcDbEntity
  8
D-6
  6
Continuous
 62
     6
370
     9
100
AcDbLine
 10
-677.051970794742
 20
-642.4325087263777
 30
0.0
 11
-677.051970794742
 21
-817.4320891096785
 31
0.0
  0
LINE
  5
1E5
330
1F
100
AcDbEntity
  8
D-6
  6
Continuous
 62
     6
370
     9
100
AcDbLine
 10
-427.0522878914527
 20
-467.431946058531
 30
0.0
 11
-427.0522878914527
 21
-642.4325087263777
 31
0.0
  0
LINE
  5
1E6
330
1F
100
AcDbEntity
  8
D-6
  6
Continuous
 62
     6
370
     9
100
AcDbLine
 10
-677.051970794742
 20
-642.4325087263777
 30
0.0
 11
-427.0522878914527
 21
-642.4325087263777
 31
0.0
  0
LINE
  5
1E7
330
1F
100
AcDbEntity
  8
D-6
  6
JWW_DASHED3
 62
     6
370
     9
100
AcDbLine
 10
-614.759158924167
 20
-744.9321272566511
 30
0.0
 11
-614.759158924167
 21
-642.4325087263777
 31
0.0
  0
LINE
  5
1E8
330
1F
100
AcDbEntity
  8
D-6
  6
JWW_DASHED3
 62
     6
370
     9
100
AcDbLine
 10
-569.7587011604951
 20
-642.4325087263777
 30
0.0
 11
-569.7587011604951
 21
-744.9321272566511
 31
0.0
  0
LINE
  5
1E9
330
1F
100
AcDbEntity
  8
D-4
  6
Continuous
 62
     7
370
     9
100
AcDbLine
 10
-827.0521734505343
 20
-304.4772198393538
 30
0.0
 11
-827.0521734505343
 21
-196.0131552412692
 31
0.0
  0
LINE
  5
1EA
330
1F
100
AcDbEntity
  8
D-4
  6
Continuous
 62
     7
370
     9
100
AcDbLine
 10
-697.0510707646059
 20
-90.2613547041598
 30
0.0
 11
-639.3908928185151
 21
-90.2613547041598
 31
0.0
  0
LINE
  5
1EB
330
1F
100
AcDbEntity
  8
D-4
  6
Continuous
 62
     7
370
     9
100
AcDbLine
 10
-1399.720439746921
 20
-199.0137198164645
 30
0.0
 11
-827.0521734505343
 21
-199.0137198164645
 31
0.0
  0
LINE
  5
1EC
330
1F
100
AcDbEntity
  8
D-4
  6
Continuous
 62
     7
370
     9
100
AcDbLine
 10
-1399.720439746921
 20
-90.2613547041598
 30
0.0
 11
-702.051341728689
 21
-90.2613547041598
 31
0.0
  0
LINE
  5
1ED
330
1F
100
AcDbEntity
  8
D-4
  6
Continuous
 62
     7
370
     9
100
AcDbLine
 10
-1399.720439746921
 20
20.43435070965856
 30
0.0
 11
-677.052461937015
 21
20.43435070965856
 31
0.0
  0
LINE
  5
1EE
330
1F
100
AcDbEntity
  8
D-1
  6
Continuous
 62
     2
370
     9
100
AcDbLine
 10
-692.0522861033129
 20
-417.4322130873396
 30
0.0
 11
-827.0526693611788
 21
-417.4322130873396
 31
0.0
  0
LINE
  5
1EF
330
1F
100
AcDbEntity
  8
D-1
  6
Continuous
 62
     2
370
     9
100
AcDbLine
 10
-827.0526693611788
 20
-432.4320318892195
 30
0.0
 11
-827.0526693611788
 21
-417.4322130873396
 31
0.0
  0
LINE
  5
1F0
330
1F
100
AcDbEntity
  8
D-1
  6
Continuous
 62
     2
370
     9
100
AcDbLine
 10
-827.0526693611788
 20
-432.4320318892195
 30
0.0
 11
-697.0525573044466
 21
-432.4320318892195
 31
0.0
  0
LINE
  5
1F1
330
1F
100
AcDbEntity
  8
D-5
  6
Continuous
 62
     7
370
     9
100
AcDbLine
 10
-1169.046497181003
 20
-1013.374128599425
 30
0.0
 11
-1169.046497181003
 21
-948.3745863630965
 31
0.0
  0
LINE
  5
1F2
330
1F
100
AcDbEntity
  8
D-5
  6
Continuous
 62
     7
370
     9
100
AcDbLine
 10
-1169.046497181003
 20
-948.3745863630965
 30
0.0
 11
-594.0460871010469
 21
-948.3745863630965
 31
0.0
  0
LINE
  5
1F3
330
1F
100
AcDbEntity
  8
D-5
  6
Continuous
 62
     7
370
     9
100
AcDbLine
 10
-594.0460871010469
 20
-948.3745863630965
 30
0.0
 11
-594.0460871010469
 21
-1013.374128599425
 31
0.0
  0
LINE
  5
1F4
330
1F
100
AcDbEntity
  8
D-5
  6
Continuous
 62
     7
370
     9
100
AcDbLine
 10
-594.0460871010469
 20
-1013.374128599425
 30
0.0
 11
-1169.046497181003
 21
-1013.374128599425
 31
0.0
  0
LINE
  5
1F5
330
1F
100
AcDbEntity
  8
D-6
  6
Continuous
 62
     6
370
     9
100
AcDbLine
 10
-677.051970794742
 20
-813.4405806257918
 30
0.0
 11
-506.0424612312959
 21
-642.4325087263777
 31
0.0
  0
LINE
  5
1F6
330
1F
100
AcDbEntity
  8
D-6
  6
Continuous
 62
     6
370
     9
100
AcDbLine
 10
-666.9022916107821
 20
-817.4320891096785
 30
0.0
 11
-491.901721790378
 21
-642.4325087263777
 31
0.0
  0
LINE
  5
1F7
330
1F
100
AcDbEntity
  8
D-6
  6
Continuous
 62
     6
370
     9
100
AcDbLine
 10
-427.0522878914527
 20
-591.7242529585554
 30
0.0
 11
-302.7599905281715
 21
-467.431946058531
 31
0.0
  0
LINE
  5
1F8
330
1F
100
AcDbEntity
  8
D-6
  6
Continuous
 62
     6
370
     9
100
AcDbLine
 10
-652.7623604088473
 20
-817.4320891096785
 30
0.0
 11
-477.7615927010225
 21
-642.4325087263777
 31
0.0
  0
LINE
  5
1F9
330
1F
100
AcDbEntity
  8
D-0
  6
Continuous
 62
     7
370
     9
100
AcDbLine
 10
-526.7585752754853
 20
-565.7686331465437
 30
0.0
 11
-526.7585752754853
 21
-564.2683508589461
 31
0.0
  0
LINE
  5
1FA
330
1F
100
AcDbEntity
  8
D-0
  6
Continuous
 62
     7
370
     9
100
AcDbLine
 10
-526.7585752754853
 20
-564.2683508589461
 30
0.0
 11
-525.2585409432099
 21
-564.2683508589461
 31
0.0
  0
LINE
  5
1FB
330
1F
100
AcDbEntity
  8
D-0
  6
Continuous
 62
     7
370
     9
100
AcDbLine
 10
-525.2585409432099
 20
-564.2683508589461
 30
0.0
 11
-525.2585409432099
 21
-565.7686331465437
 31
0.0
  0
LINE
  5
1FC
330
1F
100
AcDbEntity
  8
D-0
  6
Continuous
 62
     7
370
     9
100
AcDbLine
 10
-525.2585409432099
 20
-565.7686331465437
 30
0.0
 11
-526.7585752754853
 21
-565.7686331465437
 31
0.0
  0
LINE
  5
1FD
330
1F
100
AcDbEntity
  8
D-0
  6
Continuous
 62
     7
370
     9
100
AcDbLine
 10
-486.8304823189424
 20
-595.5453016951277
 30
0.0
 11
-486.8304823189424
 21
-594.04501940753
 31
0.0
  0
LINE
  5
1FE
330
1F
100
AcDbEntity
  8
D-0
  6
Continuous
 62
     7
370
     9
100
AcDbLine
 10
-486.8304823189424
 20
-594.04501940753
 30
0.0
 11
-485.330447986667
 21
-594.04501940753
 31
0.0
  0
LINE
  5
1FF
330
1F
100
AcDbEntity
  8
D-0
  6
Continuous
 62
     7
370
     9
100
AcDbLine
 10
-485.330447986667
 20
-594.04501940753
 30
0.0
 11
-485.330447986667
 21
-595.5453016951277
 31
0.0
  0
LINE
  5
200
330
1F
100
AcDbEntity
  8
D-0
  6
Continuous
 62
     7
370
     9
100
AcDbLine
 10
-485.330447986667
 20
-595.5453016951277
 30
0.0
 11
-486.8304823189424
 21
-595.5453016951277
 31
0.0
  0
LINE
  5
201
330
1F
100
AcDbEntity
  8
D-0
  6
Continuous
 62
     7
370
     9
100
AcDbLine
 10
-521.3445852547334
 20
-615.8476355269148
 30
0.0
 11
-521.3445852547334
 21
-614.3473532393172
 31
0.0
  0
LINE
  5
202
330
1F
100
AcDbEntity
  8
D-0
  6
Continuous
 62
     7
370
     9
100
AcDbLine
 10
-521.3445852547334
 20
-614.3473532393172
 30
0.0
 11
-519.844550922458
 21
-614.3473532393172
 31
0.0
  0
LINE
  5
203
330
1F
100
AcDbEntity
  8
D-0
  6
Continuous
 62
     7
370
     9
100
AcDbLine
 10
-519.844550922458
 20
-614.3473532393172
 30
0.0
 11
-519.844550922458
 21
-615.8476355269148
 31
0.0
  0
LINE
  5
204
330
1F
100
AcDbEntity
  8
D-0
  6
Continuous
 62
     7
370
     9
100
AcDbLine
 10
-519.844550922458
 20
-615.8476355269148
 30
0.0
 11
-521.3445852547334
 21
-615.8476355269148
 31
0.0
  0
LINE
  5
205
330
1F
100
AcDbEntity
  8
D-0
  6
Continuous
 62
     7
370
     9
100
AcDbLine
 10
-456.3768575936012
 20
-617.8780653670027
 30
0.0
 11
-456.3768575936012
 21
-616.377783079405
 31
0.0
  0
LINE
  5
206
330
1F
100
AcDbEntity
  8
D-0
  6
Continuous
 62
     7
370
     9
100
AcDbLine
 10
-456.3768575936012
 20
-616.377783079405
 30
0.0
 11
-454.8768232613258
 21
-616.377783079405
 31
0.0
  0
LINE
  5
207
330
1F
100
AcDbEntity
  8
D-0
  6
Continuous
 62
     7
370
     9
100
AcDbLine
 10
-454.8768232613258
 20
-616.377783079405
 30
0.0
 11
-454.8768232613258
 21
-617.8780653670027
 31
0.0
  0
LINE
  5
208
330
1F
100
AcDbEntity
  8
D-0
  6
Continuous
 62
     7
370
     9
100
AcDbLine
 10
-454.8768232613258
 20
-617.8780653670027
 30
0.0
 11
-456.3768575936012
 21
-617.8780653670027
 31
0.0
  0
LINE
  5
209
330
1F
100
AcDbEntity
  8
D-0
  6
Continuous
 62
     7
370
     9
100
AcDbLine
 10
-649.92641909415
 20
-338.3817150786116
 30
0.0
 11
-649.92641909415
 21
-336.8813731863692
 31
0.0
  0
LINE
  5
20A
330
1F
100
AcDbEntity
  8
D-0
  6
Continuous
 62
     7
370
     9
100
AcDbLine
 10
-649.92641909415
 20
-336.8813731863692
 30
0.0
 11
-648.4263895302462
 21
-336.8813731863692
 31
0.0
  0
LINE
  5
20B
330
1F
100
AcDbEntity
  8
D-0
  6
Continuous
 62
     7
370
     9
100
AcDbLine
 10
-648.4263895302462
 20
-336.8813731863692
 30
0.0
 11
-648.4263895302462
 21
-338.3817150786116
 31
0.0
  0
LINE
  5
20C
330
1F
100
AcDbEntity
  8
D-0
  6
Continuous
 62
     7
370
     9
100
AcDbLine
 10
-648.4263895302462
 20
-338.3817150786116
 30
0.0
 11
-649.92641909415
 21
-338.3817150786116
 31
0.0
  0
LINE
  5
20D
330
1F
100
AcDbEntity
  8
D-0
  6
Continuous
 62
     7
370
     9
100
AcDbLine
 10
-595.7866667061494
 20
-337.704904337187
 30
0.0
 11
-595.7866667061494
 21
-336.2045636370375
 31
0.0
  0
LINE
  5
20E
330
1F
100
AcDbEntity
  8
D-0
  6
Continuous
 62
     7
370
     9
100
AcDbLine
 10
-595.7866667061494
 20
-336.2045636370375
 30
0.0
 11
-594.2866419106172
 21
-336.2045636370375
 31
0.0
  0
LINE
  5
20F
330
1F
100
AcDbEntity
  8
D-0
  6
Continuous
 62
     7
370
     9
100
AcDbLine
 10
-594.2866419106172
 20
-336.2045636370375
 30
0.0
 11
-594.2866419106172
 21
-337.704904337187
 31
0.0
  0
LINE
  5
210
330
1F
100
AcDbEntity
  8
D-0
  6
Continuous
 62
     7
370
     9
100
AcDbLine
 10
-594.2866419106172
 20
-337.704904337187
 30
0.0
 11
-595.7866667061494
 21
-337.704904337187
 31
0.0
  0
LINE
  5
211
330
1F
100
AcDbEntity
  8
D-0
  6
Continuous
 62
     7
370
     9
100
AcDbLine
 10
-553.1515787392304
 20
-361.3912871077254
 30
0.0
 11
-553.1515787392304
 21
-359.8909428312971
 31
0.0
  0
LINE
  5
212
330
1F
100
AcDbEntity
  8
D-0
  6
Continuous
 62
     7
370
     9
100
AcDbLine
 10
-553.1515787392304
 20
-359.8909428312971
 30
0.0
 11
-551.6515539436982
 21
-359.8909428312971
 31
0.0
  0
LINE
  5
213
330
1F
100
AcDbEntity
  8
D-0
  6
Continuous
 62
     7
370
     9
100
AcDbLine
 10
-551.6515539436982
 20
-359.8909428312971
 30
0.0
 11
-551.6515539436982
 21
-361.3912871077254
 31
0.0
  0
LINE
  5
214
330
1F
100
AcDbEntity
  8
D-0
  6
Continuous
 62
     7
370
     9
100
AcDbLine
 10
-551.6515539436982
 20
-361.3912871077254
 30
0.0
 11
-553.1515787392304
 21
-361.3912871077254
 31
0.0
  0
LINE
  5
215
330
1F
100
AcDbEntity
  8
D-0
  6
Continuous
 62
     7
370
     9
100
AcDbLine
 10
-529.4654463082002
 20
-340.4120829298689
 30
0.0
 11
-529.4654463082002
 21
-338.9118054106428
 31
0.0
  0
LINE
  5
216
330
1F
100
AcDbEntity
  8
D-0
  6
Continuous
 62
     7
370
     9
100
AcDbLine
 10
-529.4654463082002
 20
-338.9118054106428
 30
0.0
 11
-527.9654119759248
 21
-338.9118054106428
 31
0.0
  0
LINE
  5
217
330
1F
100
AcDbEntity
  8
D-0
  6
Continuous
 62
     7
370
     9
100
AcDbLine
 10
-527.9654119759248
 20
-338.9118054106428
 30
0.0
 11
-527.9654119759248
 21
-340.4120829298689
 31
0.0
  0
LINE
  5
218
330
1F
100
AcDbEntity
  8
D-0
  6
Continuous
 62
     7
370
     9
100
AcDbLine
 10
-527.9654119759248
 20
-340.4120829298689
 30
0.0
 11
-529.4654463082002
 21
-340.4120829298689
 31
0.0
  0
LINE
  5
219
330
1F
100
AcDbEntity
  8
D-0
  6
Continuous
 62
     7
370
     9
100
AcDbLine
 10
-528.7888143807099
 20
-409.4402983381941
 30
0.0
 11
-528.7888143807099
 21
-407.9400160505965
 31
0.0
  0
LINE
  5
21A
330
1F
100
AcDbEntity
  8
D-0
  6
Continuous
 62
     7
370
     9
100
AcDbLine
 10
-528.7888143807099
 20
-407.9400160505965
 30
0.0
 11
-527.2887228279756
 21
-407.9400160505965
 31
0.0
  0
LINE
  5
21B
330
1F
100
AcDbEntity
  8
D-0
  6
Continuous
 62
     7
370
     9
100
AcDbLine
 10
-527.2887228279756
 20
-407.9400160505965
 30
0.0
 11
-527.2887228279756
 21
-409.4402983381941
 31
0.0
  0
LINE
  5
21C
330
1F
100
AcDbEntity
  8
D-0
  6
Continuous
 62
     7
370
     9
100
AcDbLine
 10
-527.2887228279756
 20
-409.4402983381941
 30
0.0
 11
-528.7888143807099
 21
-409.4402983381941
 31
0.0
  0
LINE
  5
21D
330
1F
100
AcDbEntity
  8
D-0
  6
Continuous
 62
     7
370
     9
100
AcDbLine
 10
-400.2069280892067
 20
-338.3817150786116
 30
0.0
 11
-400.2069280892067
 21
-336.8813731863692
 31
0.0
  0
LINE
  5
21E
330
1F
100
AcDbEntity
  8
D-0
  6
Continuous
 62
     7
370
     9
100
AcDbLine
 10
-400.2069280892067
 20
-336.8813731863692
 30
0.0
 11
-398.7069509773902
 21
-336.8813731863692
 31
0.0
  0
LINE
  5
21F
330
1F
100
AcDbEntity
  8
D-0
  6
Continuous
 62
     7
370
     9
100
AcDbLine
 10
-398.7069509773902
 20
-336.8813731863692
 30
0.0
 11
-398.7069509773902
 21
-338.3817150786116
 31
0.0
  0
LINE
  5
220
330
1F
100
AcDbEntity
  8
D-0
  6
Continuous
 62
     7
370
     9
100
AcDbLine
 10
-398.7069509773902
 20
-338.3817150786116
 30
0.0
 11
-400.2069280892067
 21
-338.3817150786116
 31
0.0
  0
LINE
  5
221
330
1F
100
AcDbEntity
  8
D-0
  6
Continuous
 62
     7
370
     9
100
AcDbLine
 10
-349.4509695320777
 20
-341.0888936712935
 30
0.0
 11
-349.4509695320777
 21
-339.5886757567122
 31
0.0
  0
LINE
  5
222
330
1F
100
AcDbEntity
  8
D-0
  6
Continuous
 62
     7
370
     9
100
AcDbLine
 10
-349.4509695320777
 20
-339.5886757567122
 30
0.0
 11
-347.9509542732887
 21
-339.5886757567122
 31
0.0
  0
LINE
  5
223
330
1F
100
AcDbEntity
  8
D-0
  6
Continuous
 62
     7
370
     9
100
AcDbLine
 10
-347.9509542732887
 20
-339.5886757567122
 30
0.0
 11
-347.9509542732887
 21
-341.0888936712935
 31
0.0
  0
LINE
  5
224
330
1F
100
AcDbEntity
  8
D-0
  6
Continuous
 62
     7
370
     9
100
AcDbLine
 10
-347.9509542732887
 20
-341.0888936712935
 30
0.0
 11
-349.4509695320777
 21
-341.0888936712935
 31
0.0
  0
LINE
  5
225
330
1F
100
AcDbEntity
  8
D-0
  6
Continuous
 62
     7
370
     9
100
AcDbLine
 10
-284.4833181648902
 20
-339.0584638312056
 30
0.0
 11
-284.4833181648902
 21
-337.5581839277937
 31
0.0
  0
LINE
  5
226
330
1F
100
AcDbEntity
  8
D-0
  6
Continuous
 62
     7
370
     9
100
AcDbLine
 10
-284.4833181648902
 20
-337.5581839277937
 30
0.0
 11
-282.9832266121559
 21
-337.5581839277937
 31
0.0
  0
LINE
  5
227
330
1F
100
AcDbEntity
  8
D-0
  6
Continuous
 62
     7
370
     9
100
AcDbLine
 10
-282.9832266121559
 20
-337.5581839277937
 30
0.0
 11
-282.9832266121559
 21
-339.0584638312056
 31
0.0
  0
LINE
  5
228
330
1F
100
AcDbEntity
  8
D-0
  6
Continuous
 62
     7
370
     9
100
AcDbLine
 10
-282.9832266121559
 20
-339.0584638312056
 30
0.0
 11
-284.4833181648902
 21
-339.0584638312056
 31
0.0
  0
LINE
  5
229
330
1F
100
AcDbEntity
  8
D-0
  6
Continuous
 62
     7
370
     9
100
AcDbLine
 10
-308.8461874275856
 20
-371.5423872664168
 30
0.0
 11
-308.8461874275856
 21
-370.0421717360213
 31
0.0
  0
LINE
  5
22A
330
1F
100
AcDbEntity
  8
D-0
  6
Continuous
 62
     7
370
     9
100
AcDbLine
 10
-308.8461874275856
 20
-370.0421717360213
 30
0.0
 11
-307.3461721687965
 21
-370.0421717360213
 31
0.0
  0
LINE
  5
22B
330
1F
100
AcDbEntity
  8
D-0
  6
Continuous
 62
     7
370
     9
100
AcDbLine
 10
-307.3461721687965
 20
-370.0421717360213
 30
0.0
 11
-307.3461721687965
 21
-371.5423872664168
 31
0.0
  0
LINE
  5
22C
330
1F
100
AcDbEntity
  8
D-0
  6
Continuous
 62
     7
370
     9
100
AcDbLine
 10
-307.3461721687965
 20
-371.5423872664168
 30
0.0
 11
-308.8461874275856
 21
-371.5423872664168
 31
0.0
  0
LINE
  5
22D
330
1F
100
AcDbEntity
  8
D-0
  6
Continuous
 62
     7
370
     9
100
AcDbLine
 10
-348.7741659432106
 20
-395.2282717421248
 30
0.0
 11
-348.7741659432106
 21
-393.7279942228987
 31
0.0
  0
LINE
  5
22E
330
1F
100
AcDbEntity
  8
D-0
  6
Continuous
 62
     7
370
     9
100
AcDbLine
 10
-348.7741659432106
 20
-393.7279942228987
 30
0.0
 11
-347.2741506844215
 21
-393.7279942228987
 31
0.0
  0
LINE
  5
22F
330
1F
100
AcDbEntity
  8
D-0
  6
Continuous
 62
     7
370
     9
100
AcDbLine
 10
-347.2741506844215
 20
-393.7279942228987
 30
0.0
 11
-347.2741506844215
 21
-395.2282717421248
 31
0.0
  0
LINE
  5
230
330
1F
100
AcDbEntity
  8
D-0
  6
Continuous
 62
     7
370
     9
100
AcDbLine
 10
-347.2741506844215
 20
-395.2282717421248
 30
0.0
 11
-348.7741659432106
 21
-395.2282717421248
 31
0.0
  0
LINE
  5
231
330
1F
100
AcDbEntity
  8
D-0
  6
Continuous
 62
     7
370
     9
100
AcDbLine
 10
-376.5207861214332
 20
-409.4402983381941
 30
0.0
 11
-376.5207861214332
 21
-407.9400160505965
 31
0.0
  0
LINE
  5
232
330
1F
100
AcDbEntity
  8
D-0
  6
Continuous
 62
     7
370
     9
100
AcDbLine
 10
-376.5207861214332
 20
-407.9400160505965
 30
0.0
 11
-375.0208090096168
 21
-407.9400160505965
 31
0.0
  0
LINE
  5
233
330
1F
100
AcDbEntity
  8
D-0
  6
Continuous
 62
     7
370
     9
100
AcDbLine
 10
-375.0208090096168
 20
-407.9400160505965
 30
0.0
 11
-375.0208090096168
 21
-409.4402983381941
 31
0.0
  0
LINE
  5
234
330
1F
100
AcDbEntity
  8
D-0
  6
Continuous
 62
     7
370
     9
100
AcDbLine
 10
-375.0208090096168
 20
-409.4402983381941
 30
0.0
 11
-376.5207861214332
 21
-409.4402983381941
 31
0.0
  0
LINE
  5
235
330
1F
100
AcDbEntity
  8
D-0
  6
Continuous
 62
     7
370
     9
100
AcDbLine
 10
-401.5604208260231
 20
-380.3399326994612
 30
0.0
 11
-401.5604208260231
 21
-378.8396504118635
 31
0.0
  0
LINE
  5
236
330
1F
100
AcDbEntity
  8
D-0
  6
Continuous
 62
     7
370
     9
100
AcDbLine
 10
-401.5604208260231
 20
-378.8396504118635
 30
0.0
 11
-400.0603864937477
 21
-378.8396504118635
 31
0.0
  0
LINE
  5
237
330
1F
100
AcDbEntity
  8
D-0
  6
Continuous
 62
     7
370
     9
100
AcDbLine
 10
-400.0603864937477
 20
-378.8396504118635
 30
0.0
 11
-400.0603864937477
 21
-380.3399326994612
 31
0.0
  0
LINE
  5
238
330
1F
100
AcDbEntity
  8
D-0
  6
Continuous
 62
     7
370
     9
100
AcDbLine
 10
-400.0603864937477
 20
-380.3399326994612
 30
0.0
 11
-401.5604208260231
 21
-380.3399326994612
 31
0.0
  0
LINE
  5
239
330
1F
100
AcDbEntity
  8
D-0
  6
Continuous
 62
     7
370
     9
100
AcDbLine
 10
-381.2581442146949
 20
-444.6309664442732
 30
0.0
 11
-381.2581442146949
 21
-443.1306841566756
 31
0.0
  0
LINE
  5
23A
330
1F
100
AcDbEntity
  8
D-0
  6
Continuous
 62
     7
370
     9
100
AcDbLine
 10
-381.2581442146949
 20
-443.1306841566756
 30
0.0
 11
-379.7580526619606
 21
-443.1306841566756
 31
0.0
  0
LINE
  5
23B
330
1F
100
AcDbEntity
  8
D-0
  6
Continuous
 62
     7
370
     9
100
AcDbLine
 10
-379.7580526619606
 20
-443.1306841566756
 30
0.0
 11
-379.7580526619606
 21
-444.6309664442732
 31
0.0
  0
LINE
  5
23C
330
1F
100
AcDbEntity
  8
D-0
  6
Continuous
 62
     7
370
     9
100
AcDbLine
 10
-379.7580526619606
 20
-444.6309664442732
 30
0.0
 11
-381.2581442146949
 21
-444.6309664442732
 31
0.0
  0
LINE
  5
23D
330
1F
100
AcDbEntity
  8
D-0
  6
Continuous
 62
     7
370
     9
100
AcDbLine
 10
-323.7345312386207
 20
-443.2773497297957
 30
0.0
 11
-323.7345312386207
 21
-441.777067442198
 31
0.0
  0
LINE
  5
23E
330
1F
100
AcDbEntity
  8
D-0
  6
Continuous
 62
     7
370
     9
100
AcDbLine
 10
-323.7345312386207
 20
-441.777067442198
 30
0.0
 11
-322.2345541268043
 21
-441.777067442198
 31
0.0
  0
LINE
  5
23F
330
1F
100
AcDbEntity
  8
D-0
  6
Continuous
 62
     7
370
     9
100
AcDbLine
 10
-322.2345541268043
 20
-441.777067442198
 30
0.0
 11
-322.2345541268043
 21
-443.2773497297957
 31
0.0
  0
LINE
  5
240
330
1F
100
AcDbEntity
  8
D-0
  6
Continuous
 62
     7
370
     9
100
AcDbLine
 10
-322.2345541268043
 20
-443.2773497297957
 30
0.0
 11
-323.7345312386207
 21
-443.2773497297957
 31
0.0
  0
LINE
  5
241
330
1F
100
AcDbEntity
  8
D-0
  6
Continuous
 62
     7
370
     9
100
AcDbLine
 10
-274.3321035652809
 20
-442.6005366041853
 30
0.0
 11
-274.3321035652809
 21
-441.1002543165877
 31
0.0
  0
LINE
  5
242
330
1F
100
AcDbEntity
  8
D-0
  6
Continuous
 62
     7
370
     9
100
AcDbLine
 10
-274.3321035652809
 20
-441.1002543165877
 30
0.0
 11
-272.8320501595192
 21
-441.1002543165877
 31
0.0
  0
LINE
  5
243
330
1F
100
AcDbEntity
  8
D-0
  6
Continuous
 62
     7
370
     9
100
AcDbLine
 10
-272.8320501595192
 20
-441.1002543165877
 30
0.0
 11
-272.8320501595192
 21
-442.6005366041853
 31
0.0
  0
LINE
  5
244
330
1F
100
AcDbEntity
  8
D-0
  6
Continuous
 62
     7
370
     9
100
AcDbLine
 10
-272.8320501595192
 20
-442.6005366041853
 30
0.0
 11
-274.3321035652809
 21
-442.6005366041853
 31
0.0
  0
LINE
  5
245
330
1F
100
AcDbEntity
  8
D-0
  6
Continuous
 62
     7
370
     9
100
AcDbLine
 10
-286.5135763436012
 20
-402.6726916029646
 30
0.0
 11
-286.5135763436012
 21
-401.172409315367
 31
0.0
  0
LINE
  5
246
330
1F
100
AcDbEntity
  8
D-0
  6
Continuous
 62
     7
370
     9
100
AcDbLine
 10
-286.5135763436012
 20
-401.172409315367
 30
0.0
 11
-285.0135229378395
 21
-401.172409315367
 31
0.0
  0
LINE
  5
247
330
1F
100
AcDbEntity
  8
D-0
  6
Continuous
 62
     7
370
     9
100
AcDbLine
 10
-285.0135229378395
 20
-401.172409315367
 30
0.0
 11
-285.0135229378395
 21
-402.6726916029646
 31
0.0
  0
LINE
  5
248
330
1F
100
AcDbEntity
  8
D-0
  6
Continuous
 62
     7
370
     9
100
AcDbLine
 10
-285.0135229378395
 20
-402.6726916029646
 30
0.0
 11
-286.5135763436012
 21
-402.6726916029646
 31
0.0
  0
LINE
  5
249
330
1F
100
AcDbEntity
  8
D-0
  6
Continuous
 62
     7
370
     9
100
AcDbLine
 10
-808.0736158638643
 20
-573.9740851118758
 30
0.0
 11
-808.0736158638643
 21
-572.4738028242781
 31
0.0
  0
LINE
  5
24A
330
1F
100
AcDbEntity
  8
D-0
  6
Continuous
 62
     7
370
     9
100
AcDbLine
 10
-808.0736158638643
 20
-572.4738028242781
 30
0.0
 11
-806.573581531589
 21
-572.4738028242781
 31
0.0
  0
LINE
  5
24B
330
1F
100
AcDbEntity
  8
D-0
  6
Continuous
 62
     7
370
     9
100
AcDbLine
 10
-806.573581531589
 20
-572.4738028242781
 30
0.0
 11
-806.573581531589
 21
-573.9740851118758
 31
0.0
  0
LINE
  5
24C
330
1F
100
AcDbEntity
  8
D-0
  6
Continuous
 62
     7
370
     9
100
AcDbLine
 10
-806.573581531589
 20
-573.9740851118758
 30
0.0
 11
-808.0736158638643
 21
-573.9740851118758
 31
0.0
  0
LINE
  5
24D
330
1F
100
AcDbEntity
  8
D-0
  6
Continuous
 62
     7
370
     9
100
AcDbLine
 10
-703.3893550782847
 20
-573.9740851118758
 30
0.0
 11
-703.3893550782847
 21
-572.4738028242781
 31
0.0
  0
LINE
  5
24E
330
1F
100
AcDbEntity
  8
D-0
  6
Continuous
 62
     7
370
     9
100
AcDbLine
 10
-703.3893550782847
 20
-572.4738028242781
 30
0.0
 11
-701.8893234468447
 21
-572.4738028242781
 31
0.0
  0
LINE
  5
24F
330
1F
100
AcDbEntity
  8
D-0
  6
Continuous
 62
     7
370
     9
100
AcDbLine
 10
-701.8893234468447
 20
-572.4738028242781
 30
0.0
 11
-701.8893234468447
 21
-573.9740851118758
 31
0.0
  0
LINE
  5
250
330
1F
100
AcDbEntity
  8
D-0
  6
Continuous
 62
     7
370
     9
100
AcDbLine
 10
-701.8893234468447
 20
-573.9740851118758
 30
0.0
 11
-703.3893550782847
 21
-573.9740851118758
 31
0.0
  0
LINE
  5
251
330
1F
100
AcDbEntity
  8
D-0
  6
Continuous
 62
     7
370
     9
100
AcDbLine
 10
-717.4741707592653
 20
-662.2899153425886
 30
0.0
 11
-717.4741707592653
 21
-660.789633054991
 31
0.0
  0
LINE
  5
252
330
1F
100
AcDbEntity
  8
D-0
  6
Continuous
 62
     7
370
     9
100
AcDbLine
 10
-717.4741707592653
 20
-660.789633054991
 30
0.0
 11
-715.9741388111757
 21
-660.789633054991
 31
0.0
  0
LINE
  5
253
330
1F
100
AcDbEntity
  8
D-0
  6
Continuous
 62
     7
370
     9
100
AcDbLine
 10
-715.9741388111757
 20
-660.789633054991
 30
0.0
 11
-715.9741388111757
 21
-662.2899153425886
 31
0.0
  0
LINE
  5
254
330
1F
100
AcDbEntity
  8
D-0
  6
Continuous
 62
     7
370
     9
100
AcDbLine
 10
-715.9741388111757
 20
-662.2899153425886
 30
0.0
 11
-717.4741707592653
 21
-662.2899153425886
 31
0.0
  0
LINE
  5
255
330
1F
100
AcDbEntity
  8
D-0
  6
Continuous
 62
     7
370
     9
100
AcDbLine
 10
-705.2926982789683
 20
-626.8876745894148
 30
0.0
 11
-705.2926982789683
 21
-625.3873923018172
 31
0.0
  0
LINE
  5
256
330
1F
100
AcDbEntity
  8
D-0
  6
Continuous
 62
     7
370
     9
100
AcDbLine
 10
-705.2926982789683
 20
-625.3873923018172
 30
0.0
 11
-703.7926666289019
 21
-625.3873923018172
 31
0.0
  0
LINE
  5
257
330
1F
100
AcDbEntity
  8
D-0
  6
Continuous
 62
     7
370
     9
100
AcDbLine
 10
-703.7926666289019
 20
-625.3873923018172
 30
0.0
 11
-703.7926666289019
 21
-626.8876745894148
 31
0.0
  0
LINE
  5
258
330
1F
100
AcDbEntity
  8
D-0
  6
Continuous
 62
     7
370
     9
100
AcDbLine
 10
-703.7926666289019
 20
-626.8876745894148
 30
0.0
 11
-705.2926982789683
 21
-626.8876745894148
 31
0.0
  0
LINE
  5
259
330
1F
100
AcDbEntity
  8
D-0
  6
Continuous
 62
     7
370
     9
100
AcDbLine
 10
-805.7896230965304
 20
-664.5740034773543
 30
0.0
 11
-805.7896230965304
 21
-663.0737211897566
 31
0.0
  0
LINE
  5
25A
330
1F
100
AcDbEntity
  8
D-0
  6
Continuous
 62
     7
370
     9
100
AcDbLine
 10
-805.7896230965304
 20
-663.0737211897566
 30
0.0
 11
-804.289588764255
 21
-663.0737211897566
 31
0.0
  0
LINE
  5
25B
330
1F
100
AcDbEntity
  8
D-0
  6
Continuous
 62
     7
370
     9
100
AcDbLine
 10
-804.289588764255
 20
-663.0737211897566
 30
0.0
 11
-804.289588764255
 21
-664.5740034773543
 31
0.0
  0
LINE
  5
25C
330
1F
100
AcDbEntity
  8
D-0
  6
Continuous
 62
     7
370
     9
100
AcDbLine
 10
-804.289588764255
 20
-664.5740034773543
 30
0.0
 11
-805.7896230965304
 21
-664.5740034773543
 31
0.0
  0
LINE
  5
25D
330
1F
100
AcDbEntity
  8
D-0
  6
Continuous
 62
     7
370
     9
100
AcDbLine
 10
-761.6318367272066
 20
-667.6191618635847
 30
0.0
 11
-761.6318367272066
 21
-666.1188795759871
 31
0.0
  0
LINE
  5
25E
330
1F
100
AcDbEntity
  8
D-0
  6
Continuous
 62
     7
370
     9
100
AcDbLine
 10
-761.6318367272066
 20
-666.1188795759871
 30
0.0
 11
-760.1318071633028
 21
-666.1188795759871
 31
0.0
  0
LINE
  5
25F
330
1F
100
AcDbEntity
  8
D-0
  6
Continuous
 62
     7
370
     9
100
AcDbLine
 10
-760.1318071633028
 20
-666.1188795759871
 30
0.0
 11
-760.1318071633028
 21
-667.6191618635847
 31
0.0
  0
LINE
  5
260
330
1F
100
AcDbEntity
  8
D-0
  6
Continuous
 62
     7
370
     9
100
AcDbLine
 10
-760.1318071633028
 20
-667.6191618635847
 30
0.0
 11
-761.6318367272066
 21
-667.6191618635847
 31
0.0
  0
LINE
  5
261
330
1F
100
AcDbEntity
  8
D-0
  6
Continuous
 62
     7
370
     9
100
AcDbLine
 10
-758.2057951241183
 20
-629.932813902159
 30
0.0
 11
-758.2057951241183
 21
-628.4325506880476
 31
0.0
  0
LINE
  5
262
330
1F
100
AcDbEntity
  8
D-0
  6
Continuous
 62
     7
370
     9
100
AcDbLine
 10
-758.2057951241183
 20
-628.4325506880476
 30
0.0
 11
-756.7057607918429
 21
-628.4325506880476
 31
0.0
  0
LINE
  5
263
330
1F
100
AcDbEntity
  8
D-0
  6
Continuous
 62
     7
370
     9
100
AcDbLine
 10
-756.7057607918429
 20
-628.4325506880476
 30
0.0
 11
-756.7057607918429
 21
-629.932813902159
 31
0.0
  0
LINE
  5
264
330
1F
100
AcDbEntity
  8
D-0
  6
Continuous
 62
     7
370
     9
100
AcDbLine
 10
-756.7057607918429
 20
-629.932813902159
 30
0.0
 11
-758.2057951241183
 21
-629.932813902159
 31
0.0
  0
LINE
  5
265
330
1F
100
AcDbEntity
  8
D-0
  6
Continuous
 62
     7
370
     9
100
AcDbLine
 10
-808.8348959236788
 20
-628.4097578718855
 30
0.0
 11
-808.8348959236788
 21
-626.9094755842879
 31
0.0
  0
LINE
  5
266
330
1F
100
AcDbEntity
  8
D-0
  6
Continuous
 62
     7
370
     9
100
AcDbLine
 10
-808.8348959236788
 20
-626.9094755842879
 30
0.0
 11
-807.3348711281466
 21
-626.9094755842879
 31
0.0
  0
LINE
  5
267
330
1F
100
AcDbEntity
  8
D-0
  6
Continuous
 62
     7
370
     9
100
AcDbLine
 10
-807.3348711281466
 20
-626.9094755842879
 30
0.0
 11
-807.3348711281466
 21
-628.4097578718855
 31
0.0
  0
LINE
  5
268
330
1F
100
AcDbEntity
  8
D-0
  6
Continuous
 62
     7
370
     9
100
AcDbLine
 10
-807.3348711281466
 20
-628.4097578718855
 30
0.0
 11
-808.8348959236788
 21
-628.4097578718855
 31
0.0
  0
LINE
  5
269
330
1F
100
AcDbEntity
  8
D-0
  6
Continuous
 62
     7
370
     9
100
AcDbLine
 10
-800.4602335243868
 20
-749.8441984846785
 30
0.0
 11
-800.4602335243868
 21
-748.3439161970808
 31
0.0
  0
LINE
  5
26A
330
1F
100
AcDbEntity
  8
D-0
  6
Continuous
 62
     7
370
     9
100
AcDbLine
 10
-800.4602335243868
 20
-748.3439161970808
 30
0.0
 11
-798.9602087288546
 21
-748.3439161970808
 31
0.0
  0
LINE
  5
26B
330
1F
100
AcDbEntity
  8
D-0
  6
Continuous
 62
     7
370
     9
100
AcDbLine
 10
-798.9602087288546
 20
-748.3439161970808
 30
0.0
 11
-798.9602087288546
 21
-749.8441984846785
 31
0.0
  0
LINE
  5
26C
330
1F
100
AcDbEntity
  8
D-0
  6
Continuous
 62
     7
370
     9
100
AcDbLine
 10
-798.9602087288546
 20
-749.8441984846785
 30
0.0
 11
-800.4602335243868
 21
-749.8441984846785
 31
0.0
  0
LINE
  5
26D
330
1F
100
AcDbEntity
  8
D-0
  6
Continuous
 62
     7
370
     9
100
AcDbLine
 10
-748.6890791207003
 20
-746.0370161726668
 30
0.0
 11
-748.6890791207003
 21
-744.5367338850691
 31
0.0
  0
LINE
  5
26E
330
1F
100
AcDbEntity
  8
D-0
  6
Continuous
 62
     7
370
     9
100
AcDbLine
 10
-748.6890791207003
 20
-744.5367338850691
 30
0.0
 11
-747.1890447884249
 21
-744.5367338850691
 31
0.0
  0
LINE
  5
26F
330
1F
100
AcDbEntity
  8
D-0
  6
Continuous
 62
     7
370
     9
100
AcDbLine
 10
-747.1890447884249
 20
-744.5367338850691
 30
0.0
 11
-747.1890447884249
 21
-746.0370161726668
 31
0.0
  0
LINE
  5
270
330
1F
100
AcDbEntity
  8
D-0
  6
Continuous
 62
     7
370
     9
100
AcDbLine
 10
-747.1890447884249
 20
-746.0370161726668
 30
0.0
 11
-748.6890791207003
 21
-746.0370161726668
 31
0.0
  0
LINE
  5
271
330
1F
100
AcDbEntity
  8
D-0
  6
Continuous
 62
     7
370
     9
100
AcDbLine
 10
-698.8212568908381
 20
-747.9405882551863
 30
0.0
 11
-698.8212568908381
 21
-746.4403059675886
 31
0.0
  0
LINE
  5
272
330
1F
100
AcDbEntity
  8
D-0
  6
Continuous
 62
     7
370
     9
100
AcDbLine
 10
-698.8212568908381
 20
-746.4403059675886
 30
0.0
 11
-697.3212252407717
 21
-746.4403059675886
 31
0.0
  0
LINE
  5
273
330
1F
100
AcDbEntity
  8
D-0
  6
Continuous
 62
     7
370
     9
100
AcDbLine
 10
-697.3212252407717
 20
-746.4403059675886
 30
0.0
 11
-697.3212252407717
 21
-747.9405882551863
 31
0.0
  0
LINE
  5
274
330
1F
100
AcDbEntity
  8
D-0
  6
Continuous
 62
     7
370
     9
100
AcDbLine
 10
-697.3212252407717
 20
-747.9405882551863
 30
0.0
 11
-698.8212568908381
 21
-747.9405882551863
 31
0.0
  0
LINE
  5
275
330
1F
100
AcDbEntity
  8
D-0
  6
Continuous
 62
     7
370
     9
100
AcDbLine
 10
-723.5648415833163
 20
-773.8258650496199
 30
0.0
 11
-723.5648415833163
 21
-772.3255827620222
 31
0.0
  0
LINE
  5
276
330
1F
100
AcDbEntity
  8
D-0
  6
Continuous
 62
     7
370
     9
100
AcDbLine
 10
-723.5648415833163
 20
-772.3255827620222
 30
0.0
 11
-722.0648120194124
 21
-772.3255827620222
 31
0.0
  0
LINE
  5
277
330
1F
100
AcDbEntity
  8
D-0
  6
Continuous
 62
     7
370
     9
100
AcDbLine
 10
-722.0648120194124
 20
-772.3255827620222
 30
0.0
 11
-722.0648120194124
 21
-773.8258650496199
 31
0.0
  0
LINE
  5
278
330
1F
100
AcDbEntity
  8
D-0
  6
Continuous
 62
     7
370
     9
100
AcDbLine
 10
-722.0648120194124
 20
-773.8258650496199
 30
0.0
 11
-723.5648415833163
 21
-773.8258650496199
 31
0.0
  0
LINE
  5
279
330
1F
100
AcDbEntity
  8
D-0
  6
Continuous
 62
     7
370
     9
100
AcDbLine
 10
-763.915824726169
 20
-785.6269362166121
 30
0.0
 11
-763.915824726169
 21
-784.1266539290144
 31
0.0
  0
LINE
  5
27A
330
1F
100
AcDbEntity
  8
D-0
  6
Continuous
 62
     7
370
     9
100
AcDbLine
 10
-763.915824726169
 20
-784.1266539290144
 30
0.0
 11
-762.4157903938936
 21
-784.1266539290144
 31
0.0
  0
LINE
  5
27B
330
1F
100
AcDbEntity
  8
D-0
  6
Continuous
 62
     7
370
     9
100
AcDbLine
 10
-762.4157903938936
 20
-784.1266539290144
 30
0.0
 11
-762.4157903938936
 21
-785.6269362166121
 31
0.0
  0
LINE
  5
27C
330
1F
100
AcDbEntity
  8
D-0
  6
Continuous
 62
     7
370
     9
100
AcDbLine
 10
-762.4157903938936
 20
-785.6269362166121
 30
0.0
 11
-763.915824726169
 21
-785.6269362166121
 31
0.0
  0
LINE
  5
27D
330
1F
100
AcDbEntity
  8
D-0
  6
Continuous
 62
     7
370
     9
100
AcDbLine
 10
-811.1190126686739
 20
-783.3428480818465
 30
0.0
 11
-811.1190126686739
 21
-781.8425657942488
 31
0.0
  0
LINE
  5
27E
330
1F
100
AcDbEntity
  8
D-0
  6
Continuous
 62
     7
370
     9
100
AcDbLine
 10
-811.1190126686739
 20
-781.8425657942488
 30
0.0
 11
-809.6189783363985
 21
-781.8425657942488
 31
0.0
  0
LINE
  5
27F
330
1F
100
AcDbEntity
  8
D-0
  6
Continuous
 62
     7
370
     9
100
AcDbLine
 10
-809.6189783363985
 20
-781.8425657942488
 30
0.0
 11
-809.6189783363985
 21
-783.3428480818465
 31
0.0
  0
LINE
  5
280
330
1F
100
AcDbEntity
  8
D-0
  6
Continuous
 62
     7
370
     9
100
AcDbLine
 10
-809.6189783363985
 20
-783.3428480818465
 30
0.0
 11
-811.1190126686739
 21
-783.3428480818465
 31
0.0
  0
LINE
  5
281
330
1F
100
AcDbEntity
  8
D-0
  6
Continuous
 62
     7
370
     9
100
AcDbLine
 10
-794.7500799446749
 20
-811.8932249739363
 30
0.0
 11
-794.7500799446749
 21
-810.3929426863386
 31
0.0
  0
LINE
  5
282
330
1F
100
AcDbEntity
  8
D-0
  6
Continuous
 62
     7
370
     9
100
AcDbLine
 10
-794.7500799446749
 20
-810.3929426863386
 30
0.0
 11
-793.2500551491427
 21
-810.3929426863386
 31
0.0
  0
LINE
  5
283
330
1F
100
AcDbEntity
  8
D-0
  6
Continuous
 62
     7
370
     9
100
AcDbLine
 10
-793.2500551491427
 20
-810.3929426863386
 30
0.0
 11
-793.2500551491427
 21
-811.8932249739363
 31
0.0
  0
LINE
  5
284
330
1F
100
AcDbEntity
  8
D-0
  6
Continuous
 62
     7
370
     9
100
AcDbLine
 10
-793.2500551491427
 20
-811.8932249739363
 30
0.0
 11
-794.7500799446749
 21
-811.8932249739363
 31
0.0
  0
LINE
  5
285
330
1F
100
AcDbEntity
  8
D-0
  6
Continuous
 62
     7
370
     9
100
AcDbLine
 10
-742.9790495186495
 20
-810.3706648543074
 30
0.0
 11
-742.9790495186495
 21
-808.8703825667097
 31
0.0
  0
LINE
  5
286
330
1F
100
AcDbEntity
  8
D-0
  6
Continuous
 62
     7
370
     9
100
AcDbLine
 10
-742.9790495186495
 20
-808.8703825667097
 30
0.0
 11
-741.4790128021883
 21
-808.8703825667097
 31
0.0
  0
LINE
  5
287
330
1F
100
AcDbEntity
  8
D-0
  6
Continuous
 62
     7
370
     9
100
AcDbLine
 10
-741.4790128021883
 20
-808.8703825667097
 30
0.0
 11
-741.4790128021883
 21
-810.3706648543074
 31
0.0
  0
LINE
  5
288
330
1F
100
AcDbEntity
  8
D-0
  6
Continuous
 62
     7
370
     9
100
AcDbLine
 10
-741.4790128021883
 20
-810.3706648543074
 30
0.0
 11
-742.9790495186495
 21
-810.3706648543074
 31
0.0
  0
LINE
  5
289
330
1F
100
AcDbEntity
  8
D-0
  6
Continuous
 62
     7
370
     9
100
AcDbLine
 10
-704.9120543747591
 20
-810.3706648543074
 30
0.0
 11
-704.9120543747591
 21
-808.8703825667097
 31
0.0
  0
LINE
  5
28A
330
1F
100
AcDbEntity
  8
D-0
  6
Continuous
 62
     7
370
     9
100
AcDbLine
 10
-704.9120543747591
 20
-808.8703825667097
 30
0.0
 11
-703.4120227246927
 21
-808.8703825667097
 31
0.0
  0
LINE
  5
28B
330
1F
100
AcDbEntity
  8
D-0
  6
Continuous
 62
     7
370
     9
100
AcDbLine
 10
-703.4120227246927
 20
-808.8703825667097
 30
0.0
 11
-703.4120227246927
 21
-810.3706648543074
 31
0.0
  0
LINE
  5
28C
330
1F
100
AcDbEntity
  8
D-0
  6
Continuous
 62
     7
370
     9
100
AcDbLine
 10
-703.4120227246927
 20
-810.3706648543074
 30
0.0
 11
-704.9120543747591
 21
-810.3706648543074
 31
0.0
  0
LINE
  5
28D
330
1F
100
AcDbEntity
  8
D-0
  6
Continuous
 62
     7
370
     9
100
AcDbLine
 10
-647.8878114967989
 20
-627.3657896712019
 30
0.0
 11
-647.8878114967989
 21
-625.8650305464461
 31
0.0
  0
LINE
  5
28E
330
1F
100
AcDbEntity
  8
D-0
  6
Continuous
 62
     7
370
     9
100
AcDbLine
 10
-647.8878114967989
 20
-625.8650305464461
 30
0.0
 11
-646.3877819328951
 21
-625.8650305464461
 31
0.0
  0
LINE
  5
28F
330
1F
100
AcDbEntity
  8
D-0
  6
Continuous
 62
     7
370
     9
100
AcDbLine
 10
-646.3877819328951
 20
-625.8650305464461
 30
0.0
 11
-646.3877819328951
 21
-627.3657896712019
 31
0.0
  0
LINE
  5
290
330
1F
100
AcDbEntity
  8
D-0
  6
Continuous
 62
     7
370
     9
100
AcDbLine
 10
-646.3877819328951
 20
-627.3657896712019
 30
0.0
 11
-647.8878114967989
 21
-627.3657896712019
 31
0.0
  0
LINE
  5
291
330
1F
100
AcDbEntity
  8
D-6
  6
Continuous
 62
     6
370
     9
100
AcDbLine
 10
-827.0526693611788
 20
-432.4320318892195
 30
0.0
 11
-827.0526693611788
 21
-817.4320891096785
 31
0.0
  0
LINE
  5
292
330
1F
100
AcDbEntity
  8
D-4
  6
Continuous
 62
     7
370
     9
100
AcDbLine
 10
-827.0526693611788
 20
-722.1876814558699
 30
0.0
 11
-677.051970794742
 21
-722.1876814558699
 31
0.0
  0
LINE
  5
293
330
1F
100
AcDbEntity
  8
D-4
  6
Continuous
 62
     7
370
     9
100
AcDbLine
 10
-827.0526693611788
 20
-875.784635801573
 30
0.0
 11
-427.0522878914527
 21
-875.784635801573
 31
0.0
  0
LINE
  5
294
330
1F
100
AcDbEntity
  8
D-4
  6
Continuous
 62
     7
370
     9
100
AcDbLine
 10
-827.0526693611788
 20
-878.7846281721785
 30
0.0
 11
-827.0526693611788
 21
-837.4320891096785
 31
0.0
  0
LINE
  5
295
330
1F
100
AcDbEntity
  8
D-4
  6
Continuous
 62
     7
370
     9
100
AcDbLine
 10
-427.0522878914527
 20
-878.7846281721785
 30
0.0
 11
-427.0522878914527
 21
-662.4325087263777
 31
0.0
  0
LINE
  5
296
330
1F
100
AcDbEntity
  8
D-1
  6
Continuous
 62
     2
370
     9
100
AcDbLine
 10
-677.052461937015
 20
-417.4322130873396
 30
0.0
 11
-677.052461937015
 21
-317.4327376082136
 31
0.0
  0
LINE
  5
297
330
1F
100
AcDbEntity
  8
D-1
  6
Continuous
 62
     2
370
     9
100
AcDbLine
 10
-692.0522861033129
 20
-317.4327376082136
 30
0.0
 11
-677.052461937015
 21
-317.4327376082136
 31
0.0
  0
LINE
  5
298
330
1F
100
AcDbEntity
  8
D-6
  6
Continuous
 62
     6
370
     9
100
AcDbLine
 10
-677.052461937015
 20
-317.4327376082136
 30
0.0
 11
-262.0517919808082
 21
-317.4327376082136
 31
0.0
  0
LINE
  5
299
330
1F
100
AcDbEntity
  8
D-4
  6
Continuous
 62
     7
370
     9
100
AcDbLine
 10
-158.2897756844215
 20
-317.4327376082136
 30
0.0
 11
-158.2897756844215
 21
-642.4325087263777
 31
0.0
  0
LINE
  5
29A
330
1F
100
AcDbEntity
  8
D-4
  6
Continuous
 62
     7
370
     9
100
AcDbLine
 10
-155.289783313816
 20
-317.4327376082136
 30
0.0
 11
-242.0517919808082
 21
-317.4327376082136
 31
0.0
  0
LINE
  5
29B
330
1F
100
AcDbEntity
  8
D-4
  6
Continuous
 62
     7
370
     9
100
AcDbLine
 10
-155.289783313816
 20
-642.4325087263777
 30
0.0
 11
-407.0522878914527
 21
-642.4325087263777
 31
0.0
  0
ARC
  5
29C
330
1F
100
AcDbEntity
  8
D-1
  6
Continuous
 62
     2
370
     9
100
AcDbCircle
 10
-692.0522861033129
 20
-417.4322130873396
 30
0.0
 40
15.0
100
AcDbArc
 50
270.0
 51
0.0
  0
LWPOLYLINE
  5
29D
330
1F
100
AcDbEntity
  8
D-4
  6
Continuous
 62
     7
370
     9
100
AcDbPolyline
 90
        4
 70
     1
 43
2.0
 10
-691.0512960701633
 20
-90.2613547041598
 42
0.4142135623731
 10
-692.0512960701632
 20
-89.2613547041598
 42
0.4142135623731
 10
-693.0512960701631
 20
-90.2613547041598
 42
0.4142135623731
 10
-692.0512960701632
 20
-91.2613547041598
 42
0.4142135623731
  0
LWPOLYLINE
  5
29E
330
1F
100
AcDbEntity
  8
D-4
  6
Continuous
 62
     7
370
     9
100
AcDbPolyline
 90
        4
 70
     1
 43
2.0
 10
-826.0521734505344
 20
-199.0137198164645
 42
0.4142135623731
 10
-827.0521734505343
 20
-198.0137198164645
 42
0.4142135623731
 10
-828.0521734505342
 20
-199.0137198164645
 42
0.4142135623731
 10
-827.0521734505343
 20
-200.0137198164645
 42
0.4142135623731
  0
LWPOLYLINE
  5
29F
330
1F
100
AcDbEntity
  8
D-4
  6
Continuous
 62
     7
370
     9
100
AcDbPolyline
 90
        4
 70
     1
 43
2.0
 10
-701.0513417286891
 20
-199.0137198164645
 42
0.4142135623731
 10
-702.051341728689
 20
-198.0137198164645
 42
0.4142135623731
 10
-703.0513417286888
 20
-199.0137198164645
 42
0.4142135623731
 10
-702.051341728689
 20
-200.0137198164645
 42
0.4142135623731
  0
LWPOLYLINE
  5
2A0
330
1F
100
AcDbEntity
  8
D-4
  6
Continuous
 62
     7
370
     9
100
AcDbPolyline
 90
        4
 70
     1
 43
2.0
 10
-701.0513417286891
 20
-90.2613547041598
 42
0.4142135623731
 10
-702.051341728689
 20
-89.2613547041598
 42
0.4142135623731
 10
-703.0513417286888
 20
-90.2613547041598
 42
0.4142135623731
 10
-702.051341728689
 20
-91.2613547041598
 42
0.4142135623731
  0
LWPOLYLINE
  5
2A1
330
1F
100
AcDbEntity
  8
D-4
  6
Continuous
 62
     7
370
     9
100
AcDbPolyline
 90
        4
 70
     1
 43
2.0
 10
-676.0524619370151
 20
-90.2613547041598
 42
0.4142135623731
 10
-677.052461937015
 20
-89.2613547041598
 42
0.4142135623731
 10
-678.0524619370149
 20
-90.2613547041598
 42
0.4142135623731
 10
-677.052461937015
 20
-91.2613547041598
 42
0.4142135623731
  0
LWPOLYLINE
  5
2A2
330
1F
100
AcDbEntity
  8
D-4
  6
Continuous
 62
     7
370
     9
100
AcDbPolyline
 90
        4
 70
     1
 43
2.0
 10
-676.0524619370151
 20
20.43435070965856
 42
0.4142135623731
 10
-677.052461937015
 20
21.43435070965856
 42
0.4142135623731
 10
-678.0524619370149
 20
20.43435070965856
 42
0.4142135623731
 10
-677.052461937015
 20
19.43435070965856
 42
0.4142135623731
  0
LWPOLYLINE
  5
2A3
330
1F
100
AcDbEntity
  8
D-4
  6
Continuous
 62
     7
370
     9
100
AcDbPolyline
 90
        4
 70
     1
 43
2.0
 10
-826.0526693611789
 20
-722.1876814558699
 42
0.4142135623731
 10
-827.0526693611788
 20
-721.18768145587
 42
0.4142135623731
 10
-828.0526693611787
 20
-722.1876814558699
 42
0.4142135623731
 10
-827.0526693611788
 20
-723.1876814558699
 42
0.4142135623731
  0
LWPOLYLINE
  5
2A4
330
1F
100
AcDbEntity
  8
D-4
  6
Continuous
 62
     7
370
     9
100
AcDbPolyline
 90
        4
 70
     1
 43
2.0
 10
-676.0519707947421
 20
-722.1876814558699
 42
0.4142135623731
 10
-677.051970794742
 20
-721.18768145587
 42
0.4142135623731
 10
-678.0519707947419
 20
-722.1876814558699
 42
0.4142135623731
 10
-677.051970794742
 20
-723.1876814558699
 42
0.4142135623731
  0
LWPOLYLINE
  5
2A5
330
1F
100
AcDbEntity
  8
D-4
  6
Continuous
 62
     7
370
     9
100
AcDbPolyline
 90
        4
 70
     1
 43
2.0
 10
-826.0526693611789
 20
-875.784635801573
 42
0.4142135623731
 10
-827.0526693611788
 20
-874.7846358015731
 42
0.4142135623731
 10
-828.0526693611787
 20
-875.784635801573
 42
0.4142135623731
 10
-827.0526693611788
 20
-876.784635801573
 42
0.4142135623731
  0
LWPOLYLINE
  5
2A6
330
1F
100
AcDbEntity
  8
D-4
  6
Continuous
 62
     7
370
     9
100
AcDbPolyline
 90
        4
 70
     1
 43
2.0
 10
-426.0522878914527
 20
-875.784635801573
 42
0.4142135623731
 10
-427.0522878914527
 20
-874.7846358015731
 42
0.4142135623731
 10
-428.0522878914527
 20
-875.784635801573
 42
0.4142135623731
 10
-427.0522878914527
 20
-876.784635801573
 42
0.4142135623731
  0
LWPOLYLINE
  5
2A7
330
1F
100
AcDbEntity
  8
D-4
  6
Continuous
 62
     7
370
     9
100
AcDbPolyline
 90
        4
 70
     1
 43
2.0
 10
-157.2897756844215
 20
-317.4327376082136
 42
0.4142135623731
 10
-158.2897756844215
 20
-316.4327376082136
 42
0.4142135623731
 10
-159.2897756844215
 20
-317.4327376082136
 42
0.4142135623731
 10
-158.2897756844215
 20
-318.4327376082137
 42
0.4142135623731
  0
LWPOLYLINE
  5
2A8
330
1F
100
AcDbEntity
  8
D-4
  6
Continuous
 62
     7
370
     9
100
AcDbPolyline
 90
        4
 70
     1
 43
2.0
 10
-157.2897756844215
 20
-642.4325087263777
 42
0.4142135623731
 10
-158.2897756844215
 20
-641.4325087263778
 42
0.4142135623731
 10
-159.2897756844215
 20
-642.4325087263777
 42
0.4142135623731
 10
-158.2897756844215
 20
-643.4325087263777
 42
0.4142135623731
  0
TEXT
  5
2A9
330
1F
100
AcDbEntity
  8
D-4
  6
Continuous
 62
     2
370
     9
100
AcDbText
 10
-785.8014200478243
 20
-188.3735100081149
 30
0.0
 40
30.48
  1
25
 41
1.0625
  7
ＭＳ ゴシック
100
AcDbText
  0
TEXT
  5
2AA
330
1F
100
AcDbEntity
  8
D-4
  6
Continuous
 62
     2
370
     9
100
AcDbText
 10
-694.9200592785525
 20
-866.8753258040144
 30
0.0
 40
30.48
  1
75～80
 41
1.104166666666667
  7
ＭＳ ゴシック
100
AcDbText
  0
TEXT
  5
2AB
330
1F
100
AcDbEntity
  8
D-4
  6
Continuous
 62
     2
370
     9
100
AcDbText
 10
-171.5371975594215
 20
-540.4372887885837
 30
0.0
 40
30.48
  1
55～65
 50
90.00000250447756
 41
1.104166666666667
  7
ＭＳ ゴシック
100
AcDbText
  0
TEXT
  5
2AC
330
1F
100
AcDbEntity
  8
D-4
  6
Continuous
 62
     2
370
     9
100
AcDbText
 10
-663.7511084824251
 20
-79.62202227618128
 30
0.0
 40
30.48
  1
3
 41
0.9999999999999998
  7
ＭＳ ゴシック
100
AcDbText
  0
TEXT
  5
2AD
330
1F
100
AcDbEntity
  8
D-4
  6
Continuous
 62
     2
370
     9
100
AcDbText
 10
-728.8923714905428
 20
-79.62202227618128
 30
0.0
 40
30.48
  1
2
 41
0.9999999999999998
  7
ＭＳ ゴシック
100
AcDbText
  0
TEXT
  5
2AE
330
1F
100
AcDbEntity
  8
D-5
  6
Continuous
 62
     2
370
     9
100
AcDbText
 10
-1125.620670154636
 20
-991.7632118513777
 30
0.0
 40
30.48
  1
断面詳細図　Ｓ＝１：２
 41
1.113636363636364
  7
ＭＳ ゴシック
100
AcDbText
  0
LINE
  5
2AF
330
1F
100
AcDbEntity
  8
D-4
  6
Continuous
 62
     7
370
     9
100
AcDbLine
 10
-827.0437525063204
 20
-550.5343153670027
 30
0.0
 11
-677.0436404495882
 21
-550.5343153670027
 31
0.0
  0
LINE
  5
2B0
330
1F
100
AcDbEntity
  8
D-4
  6
Continuous
 62
     7
370
     9
100
AcDbLine
 10
-677.0436404495882
 20
-550.5343153670027
 30
0.0
 11
-507.0434187203096
 21
-550.5343153670027
 31
0.0
  0
LINE
  5
2B1
330
1F
100
AcDbEntity
  8
D-4
  6
Continuous
 62
     7
370
     9
100
AcDbLine
 10
-507.0434187203096
 20
-553.5343268110945
 30
0.0
 11
-507.0434187203096
 21
-468.9306452467634
 31
0.0
  0
LINE
  5
2B2
330
1F
100
AcDbEntity
  8
D-4
  6
Continuous
 62
     7
370
     9
100
AcDbLine
 10
-444.08744795615
 20
-463.9307120039656
 30
0.0
 11
-502.0434187203096
 21
-463.9307120039656
 31
0.0
  0
LINE
  5
2B3
330
1F
100
AcDbEntity
  8
D-4
  6
Continuous
 62
     7
370
     9
100
AcDbLine
 10
-447.0874403267555
 20
-432.431535978575
 30
0.0
 11
-447.0874403267555
 21
-549.1816618635847
 31
0.0
  0
LINE
  5
2B4
330
1F
100
AcDbEntity
  8
D-4
  6
Continuous
 62
     7
370
     9
100
AcDbLine
 10
-677.0436404495882
 20
-553.5343268110945
 30
0.0
 11
-677.0436404495882
 21
-468.9306452467634
 31
0.0
  0
LINE
  5
2B5
330
1F
100
AcDbEntity
  8
D-9
  6
Continuous
 62
     4
370
     9
100
AcDbLine
 10
-637.0434616356538
 20
-463.9307120039656
 30
0.0
 11
-522.0434187203095
 21
-463.9307120039656
 31
0.0
  0
LINE
  5
2B6
330
1F
100
AcDbEntity
  8
D-9
  6
Continuous
 62
     4
370
     9
100
AcDbLine
 10
-652.0435331612276
 20
-448.9306452467634
 30
0.0
 11
-652.0435331612276
 21
-434.9306776716902
 31
0.0
  0
LINE
  5
2B7
330
1F
100
AcDbEntity
  8
D-9
  6
Continuous
 62
     4
370
     9
100
AcDbLine
 10
-507.0436094551729
 20
-448.9306452467634
 30
0.0
 11
-507.0436094551729
 21
-434.9306776716902
 31
0.0
  0
LINE
  5
2B8
330
1F
100
AcDbEntity
  8
D-9
  6
Continuous
 62
     4
370
     9
100
AcDbLine
 10
-672.0436261444735
 20
-444.930725355406
 30
0.0
 11
-672.0436261444735
 21
-434.9306776716902
 31
0.0
  0
LINE
  5
2B9
330
1F
100
AcDbEntity
  8
D-9
  6
Continuous
 62
     4
370
     9
100
AcDbLine
 10
-652.0185087471651
 20
-444.930725355406
 30
0.0
 11
-702.043337126384
 21
-444.930725355406
 31
0.0
  0
LINE
  5
2BA
330
1F
100
AcDbEntity
  8
D-9
  6
Continuous
 62
     4
370
     9
100
AcDbLine
 10
-507.0436094551729
 20
-434.9306776716902
 30
0.0
 11
-702.043337126384
 21
-434.9306776716902
 31
0.0
  0
LINE
  5
2BB
330
1F
100
AcDbEntity
  8
D-9
  6
Continuous
 62
     3
370
     9
100
AcDbLine
 10
-802.0436666756319
 20
-432.4320318892195
 30
0.0
 11
-802.0436666756319
 21
-454.9320128157332
 31
0.0
  0
LINE
  5
2BC
330
1F
100
AcDbEntity
  8
D-9
  6
Continuous
 62
     3
370
     9
100
AcDbLine
 10
-702.043337126384
 20
-454.9320128157332
 30
0.0
 11
-802.0436666756319
 21
-454.9320128157332
 31
0.0
  0
LINE
  5
2BD
330
1F
100
AcDbEntity
  8
D-9
  6
Continuous
 62
     3
370
     9
100
AcDbLine
 10
-702.043337126384
 20
-432.4320318892195
 30
0.0
 11
-802.0436666756319
 21
-432.4320318892195
 31
0.0
  0
LINE
  5
2BE
330
1F
100
AcDbEntity
  8
D-9
  6
Continuous
 62
     2
370
     9
100
AcDbLine
 10
-738.2937668114351
 20
-457.4306585982039
 30
0.0
 11
-738.2937668114351
 21
-454.9320128157332
 31
0.0
  0
LINE
  5
2BF
330
1F
100
AcDbEntity
  8
D-9
  6
Continuous
 62
     2
370
     9
100
AcDbLine
 10
-747.0444772988009
 20
-464.9300673201277
 30
0.0
 11
-738.2937668114351
 21
-457.4306585982039
 31
0.0
  0
LINE
  5
2C0
330
1F
100
AcDbEntity
  8
D-9
  6
Continuous
 62
     2
370
     9
100
AcDbLine
 10
-757.0433948784517
 20
-464.9300673201277
 30
0.0
 11
-747.0444772988009
 21
-464.9300673201277
 31
0.0
  0
LINE
  5
2C1
330
1F
100
AcDbEntity
  8
D-9
  6
Continuous
 62
     2
370
     9
100
AcDbLine
 10
-765.7938574104952
 20
-457.4306585982039
 30
0.0
 11
-757.0433948784517
 21
-464.9300673201277
 31
0.0
  0
LINE
  5
2C2
330
1F
100
AcDbEntity
  8
D-9
  6
Continuous
 62
     2
370
     9
100
AcDbLine
 10
-765.7938574104952
 20
-457.4306585982039
 30
0.0
 11
-765.7938574104952
 21
-454.9320128157332
 31
0.0
  0
LINE
  5
2C3
330
1F
100
AcDbEntity
  8
D-9
  6
Continuous
 62
     2
370
     9
100
AcDbLine
 10
-765.7938574104952
 20
-457.4306585982039
 30
0.0
 11
-738.2937668114351
 21
-457.4306585982039
 31
0.0
  0
LINE
  5
2C4
330
1F
100
AcDbEntity
  8
D-9
  6
Continuous
 62
     3
370
     9
100
AcDbLine
 10
-702.043337126384
 20
-432.4320318892195
 30
0.0
 11
-702.043337126384
 21
-454.9320128157332
 31
0.0
  0
LINE
  5
2C5
330
1F
100
AcDbEntity
  8
D-9
  6
Continuous
 62
     3
370
     9
100
AcDbLine
 10
-702.043337126384
 20
-442.4320318892195
 30
0.0
 11
-802.0436666756319
 21
-442.4320318892195
 31
0.0
  0
LINE
  5
2C6
330
1F
100
AcDbEntity
  8
D-9
  6
JWW_DASHED2
 62
     3
370
     9
100
AcDbLine
 10
-702.043337126384
 20
-444.9320128157332
 30
0.0
 11
-802.0436666756319
 21
-444.9320128157332
 31
0.0
  0
LINE
  5
2C7
330
1F
100
AcDbEntity
  8
D-9
  6
JWW_CENTER1
 62
     4
370
     9
100
AcDbLine
 10
-752.0434997826266
 20
-472.6710322096541
 30
0.0
 11
-752.0434997826266
 21
-432.4320318892195
 31
0.0
  0
ARC
  5
2C8
330
1F
100
AcDbEntity
  8
D-9
  6
Continuous
 62
     4
370
     9
100
AcDbCircle
 10
-637.0434616356538
 20
-448.9306452467634
 30
0.0
 40
15.00000238418579
100
AcDbArc
 50
180.0
 51
270.0
  0
ARC
  5
2C9
330
1F
100
AcDbEntity
  8
D-9
  6
Continuous
 62
     4
370
     9
100
AcDbCircle
 10
-522.0434187203095
 20
-448.9306452467634
 30
0.0
 40
15.00000238418579
100
AcDbArc
 50
270.0
 51
0.0
  0
LWPOLYLINE
  5
2CA
330
1F
100
AcDbEntity
  8
D-4
  6
Continuous
 62
     7
370
     9
100
AcDbPolyline
 90
        4
 70
     1
 43
2.0
 10
-826.0437525063205
 20
-550.5343153670027
 42
0.4142135623731
 10
-827.0437525063204
 20
-549.5343153670027
 42
0.4142135623731
 10
-828.0437525063203
 20
-550.5343153670027
 42
0.4142135623731
 10
-827.0437525063204
 20
-551.5343153670027
 42
0.4142135623731
  0
LWPOLYLINE
  5
2CB
330
1F
100
AcDbEntity
  8
D-4
  6
Continuous
 62
     7
370
     9
100
AcDbPolyline
 90
        4
 70
     1
 43
2.0
 10
-676.0436404495883
 20
-550.5343153670027
 42
0.4142135623731
 10
-677.0436404495882
 20
-549.5343153670027
 42
0.4142135623731
 10
-678.0436404495881
 20
-550.5343153670027
 42
0.4142135623731
 10
-677.0436404495882
 20
-551.5343153670027
 42
0.4142135623731
  0
LWPOLYLINE
  5
2CC
330
1F
100
AcDbEntity
  8
D-4
  6
Continuous
 62
     7
370
     9
100
AcDbPolyline
 90
        4
 70
     1
 43
2.0
 10
-506.0434187203095
 20
-550.5343153670027
 42
0.4142135623731
 10
-507.0434187203096
 20
-549.5343153670027
 42
0.4142135623731
 10
-508.0434187203096
 20
-550.5343153670027
 42
0.4142135623731
 10
-507.0434187203096
 20
-551.5343153670027
 42
0.4142135623731
  0
LWPOLYLINE
  5
2CD
330
1F
100
AcDbEntity
  8
D-4
  6
Continuous
 62
     7
370
     9
100
AcDbPolyline
 90
        4
 70
     1
 43
2.0
 10
-446.0874403267554
 20
-463.9307120039656
 42
0.4142135623731
 10
-447.0874403267555
 20
-462.9307120039656
 42
0.4142135623731
 10
-448.0874403267555
 20
-463.9307120039656
 42
0.4142135623731
 10
-447.0874403267555
 20
-464.9307120039657
 42
0.4142135623731
  0
TEXT
  5
2CE
330
1F
100
AcDbEntity
  8
D-4
  6
Continuous
 62
     2
370
     9
100
AcDbText
 10
-773.2936952858614
 20
-538.8943115523055
 30
0.0
 40
30.48
  1
30
 41
1.0625
  7
ＭＳ ゴシック
100
AcDbText
  0
TEXT
  5
2CF
330
1F
100
AcDbEntity
  8
D-4
  6
Continuous
 62
     2
370
     9
100
AcDbText
 10
-666.6774485855746
 20
-538.8943115523055
 30
0.0
 40
30.48
  1
34
 41
1.062500000000002
  7
ＭＳ ゴシック
100
AcDbText
  0
TEXT
  5
2D0
330
1F
100
AcDbEntity
  8
D-4
  6
Continuous
 62
     2
370
     9
100
AcDbText
 10
-458.7274441414527
 20
-535.6259255683688
 30
0.0
 40
30.48
  1
6.5
 50
90.00000250447673
 41
1.083333333333334
  7
ＭＳ ゴシック
100
AcDbText
  0
LINE
  5
2D1
330
1F
100
AcDbEntity
  8
D-4
  6
Continuous
 62
     7
370
     9
100
AcDbLine
 10
-643.041505649631
 20
-432.431535978575
 30
0.0
 11
-444.0868757515602
 21
-432.431535978575
 31
0.0
  0
LWPOLYLINE
  5
2D2
330
1F
100
AcDbEntity
  8
D-4
  6
Continuous
 62
     7
370
     9
100
AcDbPolyline
 90
        4
 70
     1
 43
2.0
 10
-446.0874403267554
 20
-432.431535978575
 42
0.4142135623731
 10
-447.0874403267555
 20
-431.431535978575
 42
0.4142135623731
 10
-448.0874403267555
 20
-432.431535978575
 42
0.4142135623731
 10
-447.0874403267555
 20
-433.431535978575
 42
0.4142135623731
  0
LINE
  5
2D3
330
1F
100
AcDbEntity
  8
D-4
  6
Continuous
 62
     7
370
     9
100
AcDbLine
 10
-447.0874403267555
 20
-432.431535978575
 30
0.0
 11
-447.0874403267555
 21
-317.4327376082136
 31
0.0
  0
LWPOLYLINE
  5
2D4
330
1F
100
AcDbEntity
  8
D-4
  6
Continuous
 62
     7
370
     9
100
AcDbPolyline
 90
        4
 70
     1
 43
2.0
 10
-446.0874403267554
 20
-317.4327376082136
 42
0.4142135623731
 10
-447.0874403267555
 20
-316.4327376082136
 42
0.4142135623731
 10
-448.0874403267555
 20
-317.4327376082136
 42
0.4142135623731
 10
-447.0874403267555
 20
-318.4327376082137
 42
0.4142135623731
  0
TEXT
  5
2D5
330
1F
100
AcDbEntity
  8
D-4
  6
Continuous
 62
     2
370
   211
100
AcDbText
 10
-462.7274403267555
 20
-396.1821367933943
 30
0.0
 40
30.48
  1
23
 50
90.0
 41
1.0625
  7
ＭＳ ゴシック
100
AcDbText
  0
LINE
  5
2D6
330
1F
100
AcDbEntity
  8
D-6
  6
Continuous
 62
     6
370
     9
100
AcDbLine
 10
-569.7587011604951
 20
-642.4325087263777
 30
0.0
 11
-569.7587011604951
 21
-463.9307120039656
 31
0.0
  0
LINE
  5
2D7
330
1F
100
AcDbEntity
  8
D-6
  6
Continuous
 62
     6
370
     9
100
AcDbLine
 10
-614.759158924167
 20
-642.4325087263777
 30
0.0
 11
-614.759158924167
 21
-463.9307120039656
 31
0.0
  0
LINE
  5
2D8
330
1F
100
AcDbEntity
  8
D-6
  6
Continuous
 62
     6
370
     9
100
AcDbLine
 10
-614.759158924167
 20
-434.9306776716902
 30
0.0
 11
-614.759158924167
 21
-399.9306776716902
 31
0.0
  0
LINE
  5
2D9
330
1F
100
AcDbEntity
  8
D-6
  6
Continuous
 62
     6
370
     9
100
AcDbLine
 10
-569.7587011604951
 20
-434.9306776716902
 30
0.0
 11
-569.7587011604951
 21
-399.9306776716902
 31
0.0
  0
LINE
  5
2DA
330
1F
100
AcDbEntity
  8
D-6
  6
Continuous
 62
     6
370
     9
100
AcDbLine
 10
-614.759158924167
 20
-399.9306776716902
 30
0.0
 11
-569.7587011604951
 21
-399.9306776716902
 31
0.0
  0
LINE
  5
2DB
330
1F
100
AcDbEntity
  8
D-6
  6
JWW_CENTER2
 62
     6
370
     9
100
AcDbLine
 10
-592.258930042331
 20
-387.6172831251814
 30
0.0
 11
-592.258930042331
 21
-755.7650282576277
 31
0.0
  0
LINE
  5
2DC
330
1F
100
AcDbEntity
  8
D-5
  6
Continuous
 62
     7
370
     9
100
AcDbLine
 10
-658.9326284676241
 20
-434.9306776716902
 30
0.0
 11
-645.1209400444674
 21
-414.0922548964217
 31
0.0
  0
LINE
  5
2DD
330
1F
100
AcDbEntity
  8
D-5
  6
Continuous
 62
     7
370
     9
100
AcDbLine
 10
-658.9326284676241
 20
-434.9306776716902
 30
0.0
 11
-640.1989506035494
 21
-418.3765700056746
 31
0.0
  0
LINE
  5
2DE
330
1F
100
AcDbEntity
  8
D-5
  6
Continuous
 62
     7
370
     9
100
AcDbLine
 10
-484.3834970741914
 20
-234.3832495405856
 30
0.0
 11
-658.9326284676241
 21
-434.9306776716902
 31
0.0
  0
TEXT
  5
2DF
330
1F
100
AcDbEntity
  8
D-5
  6
Continuous
 62
     7
370
     9
100
AcDbText
 10
-470.7392595558809
 20
-225.4943597700778
 30
0.0
 40
22.86
  1
アンカー＠５００
 41
1.145833333333331
  7
ＭＳ ゴシック
100
AcDbText
  0
LINE
  5
2E0
330
1F
100
AcDbEntity
  8
D-5
  6
Continuous
 62
     7
370
     9
100
AcDbLine
 10
-493.7897837194856
 20
-38.81511775681943
 30
0.0
 11
-736.2887199515109
 21
-317.4324324324324
 31
0.0
  0
LINE
  5
2E1
330
1F
100
AcDbEntity
  8
D-5
  6
Continuous
 62
     7
370
     9
100
AcDbLine
 10
-736.2887199515109
 20
-317.4324324324324
 30
0.0
 11
-722.4780233496432
 21
-296.5945013954832
 31
0.0
  0
LINE
  5
2E2
330
1F
100
AcDbEntity
  8
D-5
  6
Continuous
 62
     7
370
     9
100
AcDbLine
 10
-736.2887199515109
 20
-317.4324324324324
 30
0.0
 11
-717.555044471622
 21
-300.8788206770613
 31
0.0
  0
TEXT
  5
2E3
330
1F
100
AcDbEntity
  8
D-5
  6
Continuous
 62
     7
370
     9
100
AcDbText
 10
-490.4773632659185
 20
50.08442034807315
 30
0.0
 40
22.86
  1
ステンレス製グレーチング
 41
1.152777777777776
  7
ＭＳ ゴシック
100
AcDbText
  0
LINE
  5
2E4
330
1F
100
AcDbEntity
  8
D-5
  6
Continuous
 62
     7
370
     9
100
AcDbLine
 10
-486.9630653942959
 20
-128.194024885013
 30
0.0
 11
-32.36600169573755
 21
-128.194024885013
 31
0.0
  0
LINE
  5
2E5
330
1F
100
AcDbEntity
  8
D-5
  6
Continuous
 62
     7
370
     9
100
AcDbLine
 10
-677.0524762421297
 20
-346.5958126273655
 30
0.0
 11
-663.241779640262
 21
-325.7578815904163
 31
0.0
  0
LINE
  5
2E6
330
1F
100
AcDbEntity
  8
D-5
  6
Continuous
 62
     7
370
     9
100
AcDbLine
 10
-486.9630653942959
 20
-128.194024885013
 30
0.0
 11
-677.0524762421297
 21
-346.5958126273655
 31
0.0
  0
LINE
  5
2E7
330
1F
100
AcDbEntity
  8
D-5
  6
Continuous
 62
     7
370
     9
100
AcDbLine
 10
-677.0524762421297
 20
-346.5958126273655
 30
0.0
 11
-658.3188007622408
 21
-330.0422008719944
 31
0.0
  0
TEXT
  5
2E8
330
1F
100
AcDbEntity
  8
D-5
  6
Continuous
 62
     7
370
     9
100
AcDbText
 10
-482.5756718693818
 20
-119.205056531744
 30
0.0
 40
22.86
  1
ステンレス製受枠ＲＬ－２０
 50
359.9999368586928
 41
1.153846153846154
  7
ＭＳ ゴシック
100
AcDbText
  0
TEXT
  5
2E9
330
1F
100
AcDbEntity
  8
D-4
  6
Continuous
 62
     2
370
     9
100
AcDbText
 10
-818.3023200779604
 20
-709.6406545224406
 30
0.0
 40
30.48
  1
25～30
 41
1.104166666666667
  7
ＭＳ ゴシック
100
AcDbText
  0
TEXT
  5
2EA
330
1F
100
AcDbEntity
  8
D-5
  6
Continuous
 62
     7
370
     9
100
AcDbText
 10
-492.0288767403059
 20
8.426283560847718
 30
0.0
 40
22.86
  1
プレーンタイプ　横断溝・側溝用
 41
1.155555555555554
  7
ＭＳ ゴシック
100
AcDbText
  0
LINE
  5
2EB
330
1F
100
AcDbEntity
  8
D-5
  6
Continuous
 62
     7
370
     9
100
AcDbLine
 10
-493.7897837194856
 20
-38.81511775681943
 30
0.0
 11
21.45644608758069
 21
-38.81511775681943
 31
0.0
  0
LWPOLYLINE
  5
2EC
330
1F
100
AcDbEntity
  8
D-4
  6
Continuous
 62
     7
370
     9
100
AcDbPolyline
 90
        4
 70
     1
 43
2.0
 10
-1459.121675791315
 20
-317.4327262672207
 42
0.4142135623731
 10
-1460.121675791315
 20
-316.4327262672207
 42
0.4142135623731
 10
-1461.121675791315
 20
-317.4327262672207
 42
0.4142135623731
 10
-1460.121675791315
 20
-318.4327262672207
 42
0.4142135623731
  0
LWPOLYLINE
  5
2ED
330
1F
100
AcDbEntity
  8
D-4
  6
Continuous
 62
     7
370
     9
100
AcDbPolyline
 90
        4
 70
     1
 43
2.0
 10
-1459.121675791315
 20
-417.432561307339
 42
0.4142135623731
 10
-1460.121675791315
 20
-416.432561307339
 42
0.4142135623731
 10
-1461.121675791315
 20
-417.432561307339
 42
0.4142135623731
 10
-1460.121675791315
 20
-418.432561307339
 42
0.4142135623731
  0
LINE
  5
2EE
330
1F
100
AcDbEntity
  8
D-4
  6
Continuous
 62
     7
370
     9
100
AcDbLine
 10
-1460.121675791315
 20
-417.432561307339
 30
0.0
 11
-1460.121675791315
 21
-317.4327262672207
 31
0.0
  0
LINE
  5
2EF
330
1F
100
AcDbEntity
  8
D-4
  6
Continuous
 62
     7
370
     9
100
AcDbLine
 10
-1405.070521731982
 20
-417.432561307339
 30
0.0
 11
-1463.121450621076
 21
-417.432561307339
 31
0.0
  0
LINE
  5
2F0
330
1F
100
AcDbEntity
  8
D-4
  6
Continuous
 62
     7
370
     9
100
AcDbLine
 10
-1405.070521731982
 20
-317.4327262672207
 30
0.0
 11
-1463.121450621076
 21
-317.4327262672207
 31
0.0
  0
TEXT
  5
2F1
330
1F
100
AcDbEntity
  8
D-4
  6
Continuous
 62
     2
370
     9
100
AcDbText
 10
-1470.761754147258
 20
-388.6826520352739
 30
0.0
 40
30.48
  1
20
 50
90.0
 41
1.0625
  7
ＭＳ ゴシック
100
AcDbText
  0
TEXT
  5
2F2
330
1F
100
AcDbEntity
  8
D-4
  6
Continuous
 62
     2
370
     9
100
AcDbText
 10
-1397.75502523573
 20
-79.6210541678753
 30
0.0
 40
30.48
  1
250
 41
1.083333333333333
  7
ＭＳ ゴシック
100
AcDbText
  0
TEXT
  5
2F3
330
1F
100
AcDbEntity
  8
D-4
  6
Continuous
 62
     2
370
     9
100
AcDbText
 10
-1397.75502523573
 20
29.1313459984044
 30
0.0
 40
30.48
  1
260
 41
1.083333333333333
  7
ＭＳ ゴシック
100
AcDbText
  0
TEXT
  5
2F4
330
1F
100
AcDbEntity
  8
D-4
  6
Continuous
 62
     2
370
     9
100
AcDbText
 10
-1397.75502523573
 20
-188.3734543341547
 30
0.0
 40
30.48
  1
200
 41
1.083333333333333
  7
ＭＳ ゴシック
100
AcDbText
  0
TEXT
  5
2F5
330
1F
100
AcDbEntity
  8
D-5
  6
Continuous
 62
     7
370
     9
100
AcDbText
 10
-492.2466765625227
 20
-30.38130854517947
 30
0.0
 40
22.86
  1
ＳＭＧ１２５２０（Ｐ＝３０）
 41
1.154761904761905
  7
ＭＳ ゴシック
100
AcDbText
  0
TEXT
  5
2F6
330
1F
100
AcDbEntity
  8
D-5
  6
Continuous
 62
     2
370
     9
100
AcDbText
 10
58.31586957265309
 20
-527.5259746682543
 30
0.0
 40
30.48
  1
材質：メインバー　ＦＢ４×２０（ＳＵＳ３０４）
 41
1.119565217391304
  7
ＭＳ ゴシック
100
AcDbText
  0
TEXT
  5
2F7
330
1F
100
AcDbEntity
  8
D-5
  6
Continuous
 62
     2
370
     9
100
AcDbText
 10
58.31586957265309
 20
-582.5262798440356
 30
0.0
 40
30.48
  1
　　　クロスバー　ＦＢ３×１５（ＳＵＳ３０４）
 41
1.119565217391304
  7
ＭＳ ゴシック
100
AcDbText
  0
TEXT
  5
2F8
330
1F
100
AcDbEntity
  8
D-5
  6
Continuous
 62
     2
370
     9
100
AcDbText
 10
58.31586957265309
 20
-637.5263375799942
 30
0.0
 40
30.48
  1
　　　サイドバー　ＦＢ４×２０（ＳＵＳ３０４）
 41
1.119565217391304
  7
ＭＳ ゴシック
100
AcDbText
  0
TEXT
  5
2F9
330
1F
100
AcDbEntity
  8
D-5
  6
Continuous
 62
     2
370
     9
100
AcDbText
 10
58.31586957265309
 20
-692.5262715960415
 30
0.0
 40
30.48
  1
定尺：９９４
 41
1.104166666666667
  7
ＭＳ ゴシック
100
AcDbText
  0
TEXT
  5
2FA
330
1F
100
AcDbEntity
  8
D-5
  6
Continuous
 62
     2
370
     9
100
AcDbText
 10
58.31583039468008
 20
-867.5257024844494
 30
0.0
 40
30.48
  1
定尺：２０００
 41
1.107142857142857
  7
ＭＳ ゴシック
100
AcDbText
  0
TEXT
  5
2FB
330
1F
100
AcDbEntity
  8
D-5
  6
Continuous
 62
     2
370
     9
100
AcDbText
 10
58.31583039468008
 20
-812.5266943057385
 30
0.0
 40
30.48
  1
材質：ステンレス鋼板ｔ＝３．０（ＳＵＳ３０４）
 41
1.119565217391304
  7
ＭＳ ゴシック
100
AcDbText
  0
TEXT
  5
2FC
330
1F
100
AcDbEntity
  8
D-5
  6
Continuous
 62
     2
370
     9
100
AcDbText
 10
-1.396083667819923
 20
-757.5257024844494
 30
0.0
 40
30.48
  1
ステンレス製受枠　ＲＬ－２０
 41
1.116071428571428
  7
ＭＳ ゴシック
100
AcDbText
  0
TEXT
  5
2FD
330
1F
100
AcDbEntity
  8
D-5
  6
Continuous
 62
     2
370
     9
100
AcDbText
 10
58.31583039468008
 20
-922.5257787783947
 30
0.0
 40
30.48
  1
施工場所の状況に合わせて、アンカーをプライヤー等で折り曲げてご使用ください。
 41
1.121710526315789
  7
ＭＳ ゴシック
100
AcDbText
  0
TEXT
  5
2FE
330
1F
100
AcDbEntity
  8
D-5
  6
Continuous
 62
     2
370
     9
100
AcDbText
 10
-1.395813546012548
 20
-475.2546502057613
 30
0.0
 40
30.48
  1
ＳＭＧ　１２５２０（Ｐ＝３０）
 41
1.116666666666666
  7
ＭＳ ゴシック
100
AcDbText
  0
TEXT
  5
2FF
330
1F
100
AcDbEntity
  8
D-5
  6
Continuous
 62
     2
370
     9
100
AcDbText
 10
-1.395813546012619
 20
-419.712321315456
 30
0.0
 40
30.48
  1
ステンレス製グレーチング プレーンタイプ 横断溝・側溝用
 41
1.12037037037037
  7
ＭＳ ゴシック
100
AcDbText
  0
TEXT
  5
300
330
1F
100
AcDbEntity
  8
D-5
  6
Continuous
 62
     7
370
     9
100
AcDbText
 10
-470.7392595558809
 20
-264.8122823622408
 30
0.0
 40
22.86
  1
ｔ＝２．０（ＳＥＣＣ）
 41
1.151515151515152
  7
ＭＳ ゴシック
100
AcDbText
  0
LINE
  5
301
330
1F
100
AcDbEntity
  8
D-5
  6
Continuous
 62
     7
370
     9
100
AcDbLine
 10
-484.3834970741914
 20
-234.3832495405856
 30
0.0
 11
-105.6407407407407
 21
-234.3832495405856
 31
0.0
  0
TEXT
  5
302
330
1F
100
AcDbEntity
  8
F-5ﾚｲﾔ
  6
Continuous
 62
     2
370
     9
100
AcDbText
 10
-350.9422038262092
 20
-1369.714681668318
 30
0.0
 40
30.48
  1
ＳＭＧ　１２５２０（Ｐ＝３０）＋ＲＬ－２０
 41
0.8988095238095238
  7
ＭＳ ゴシック
100
AcDbText
  0
TEXT
  5
303
330
1F
100
AcDbEntity
  8
F-5ﾚｲﾔ
  6
Continuous
 62
     2
370
     9
100
AcDbText
 10
-851.5592251028046
 20
-1327.704043370446
 30
0.0
 40
30.48
  1
ステンレス製グレーチング　プレーンタイプ　横断溝・側溝用
 41
0.8991071428571427
  7
ＭＳ ゴシック
100
AcDbText
  0
TEXT
  5
304
330
1F
100
AcDbEntity
  8
D-5
  6
Continuous
 62
     3
370
     9
100
AcDbText
 10
171.5137323524249
 20
-291.4734976117859
 30
0.0
 40
38.1
  1
※適用荷重：歩行用（横断溝用）
 41
1.093333333333333
  7
ＭＳ ゴシック
100
AcDbText
  0
TEXT
  5
305
330
1F
100
AcDbEntity
  8
D-5
  6
Continuous
 62
     3
370
     9
100
AcDbText
 10
171.5137323524249
 20
-360.3816080196444
 30
0.0
 40
38.1
  1
※適用荷重：Ｔ－２（側溝用）
 41
1.092857142857143
  7
ＭＳ ゴシック
100
AcDbText
  0
ENDSEC
  0
SECTION
  2
OBJECTS
  0
DICTIONARY
  5
C
330
0
100
AcDbDictionary
281
     1
  3
ACAD_DETAILVIEWSTYLE
350
34B
  3
ACAD_GROUP
350
D
  3
ACAD_LAYOUT
350
1A
  3
ACAD_MATERIAL
350
43
  3
ACAD_MLEADERSTYLE
350
6B
  3
ACAD_MLINESTYLE
350
17
  3
ACAD_PLOTSETTINGS
350
19
  3
ACAD_PLOTSTYLENAME
350
E
  3
ACAD_SCALELIST
350
47
  3
ACAD_SECTIONVIEWSTYLE
350
34C
  3
ACAD_TABLESTYLE
350
69
  3
ACAD_VISUALSTYLE
350
2A
  3
ACDB_RECOMPOSE_DATA
350
348
  3
AcDbVariableDictionary
350
308
  0
DICTIONARY
  5
306
330
8
100
AcDbDictionary
280
     1
281
     1
  3
ACAD_XREC_ROUNDTRIP
360
307
  0
DICTIONARY
  5
34B
102
{ACAD_REACTORS
330
C
102
}
330
C
100
AcDbDictionary
281
     1
  0
DICTIONARY
  5
D
102
{ACAD_REACTORS
330
C
102
}
330
C
100
AcDbDictionary
281
     1
  0
DICTIONARY
  5
1A
102
{ACAD_REACTORS
330
C
102
}
330
C
100
AcDbDictionary
281
     1
  3
Layout1
350
1E
  3
Layout2
350
26
  3
Model
350
22
  0
DICTIONARY
  5
43
102
{ACAD_REACTORS
330
C
102
}
330
C
100
AcDbDictionary
281
     1
  3
ByBlock
350
45
  3
ByLayer
350
44
  3
Global
350
46
  0
DICTIONARY
  5
6B
102
{ACAD_REACTORS
330
C
102
}
330
C
100
AcDbDictionary
281
     1
  3
Standard
350
6C
  0
DICTIONARY
  5
17
102
{ACAD_REACTORS
330
C
102
}
330
C
100
AcDbDictionary
281
     1
  3
Standard
350
18
  0
DICTIONARY
  5
19
102
{ACAD_REACTORS
330
C
102
}
330
C
100
AcDbDictionary
281
     1
  0
ACDBDICTIONARYWDFLT
  5
E
102
{ACAD_REACTORS
330
C
102
}
330
C
100
AcDbDictionary
281
     1
  3
Normal
350
F
100
AcDbDictionaryWithDefault
340
F
  0
DICTIONARY
  5
47
102
{ACAD_REACTORS
330
C
102
}
330
C
100
AcDbDictionary
281
     1
  3
A0
350
48
  3
A1
350
49
  3
A2
350
4A
  3
A3
350
4B
  3
A4
350
4C
  3
A5
350
4D
  3
A6
350
4E
  3
A7
350
4F
  3
A8
350
50
  3
A9
350
51
  3
B0
350
52
  3
B1
350
53
  3
B2
350
54
  3
B3
350
55
  3
B4
350
56
  3
B5
350
57
  3
B6
350
58
  3
B7
350
59
  3
B8
350
5A
  3
B9
350
5B
  3
C0
350
5C
  3
C1
350
5D
  3
C2
350
5E
  3
C3
350
5F
  3
C4
350
60
  3
C5
350
61
  3
C6
350
62
  3
C7
350
63
  3
C8
350
64
  3
C9
350
65
  3
D0
350
66
  3
D1
350
67
  3
D2
350
68
  0
DICTIONARY
  5
34C
102
{ACAD_REACTORS
330
C
102
}
330
C
100
AcDbDictionary
281
     1
  0
DICTIONARY
  5
69
102
{ACAD_REACTORS
330
C
102
}
330
C
100
AcDbDictionary
281
     1
  3
Standard
350
6A
  0
DICTIONARY
  5
2A
102
{ACAD_REACTORS
330
C
102
}
330
C
100
AcDbDictionary
281
     1
  3
2dWireframe
350
2F
  3
Basic
350
32
  3
Brighten
350
36
  3
ColorChange
350
3A
  3
Conceptual
350
34
  3
Dim
350
35
  3
EdgeColorOff
350
3D
  3
Facepattern
350
39
  3
Flat
350
2B
  3
FlatWithEdges
350
2C
  3
Gouraud
350
2D
  3
GouraudWithEdges
350
2E
  3
Hidden
350
31
  3
JitterOff
350
3B
  3
Linepattern
350
38
  3
OverhangOff
350
3C
  3
Realistic
350
33
  3
Shaded
350
42
  3
Shaded with edges
350
41
  3
Shades of Gray
350
3E
  3
Sketchy
350
3F
  3
Thicken
350
37
  3
Wireframe
350
30
  3
X-Ray
350
40
  0
XRECORD
  5
348
102
{ACAD_REACTORS
330
C
102
}
330
C
100
AcDbXrecord
280
     1
 90
        1
330
6A
  0
DICTIONARY
  5
308
102
{ACAD_REACTORS
330
C
102
}
330
C
100
AcDbDictionary
281
     1
  3
CANNOSCALE
350
309
  3
CENTEREXE
350
34D
  3
CENTERLTYPEFILE
350
34E
  3
CMLEADERSTYLE
350
34A
  3
CTABLESTYLE
350
349
  3
MSLTSCALE
350
30A
  3
XCLIPFRAME
350
30B
  0
XRECORD
  5
307
102
{ACAD_REACTORS
330
306
102
}
330
306
100
AcDbXrecord
280
     1
102
VTR_0.000_0.000_1.000_1.000_VISUALSTYLE
340
2F
102
VTR_0.000_0.000_1.000_1.000_GRIDDISPLAY
 70
     3
102
VTR_0.000_0.000_1.000_1.000_GRIDMAJOR
 70
     5
102
VTR_0.000_0.000_1.000_1.000_DEFAULTLIGHTING
280
     1
102
VTR_0.000_0.000_1.000_1.000_DEFAULTLIGHTINGTYPE
 70
     1
102
VTR_0.000_0.000_1.000_1.000_BRIGHTNESS
141
0.0
102
VTR_0.000_0.000_1.000_1.000_CONTRAST
142
0.0
  0
LAYOUT
  5
1E
102
{ACAD_REACTORS
330
1A
102
}
330
1A
100
AcDbPlotSettings
  1

  2
none_device
  4

  6

 40
0.0
 41
0.0
 42
0.0
 43
0.0
 44
0.0
 45
0.0
 46
0.0
 47
0.0
 48
0.0
 49
0.0
140
0.0
141
0.0
142
1.0
143
1.0
 70
   688
 72
     1
 73
     0
 74
     5
  7

 75
    16
 76
     0
 77
     5
 78
   300
147
1.0
148
0.0
149
0.0
100
AcDbLayout
  1
Layout1
 70
     1
 71
     1
 10
0.0
 20
0.0
 11
420.0
 21
297.0
 12
0.0
 22
0.0
 32
0.0
 14
1.000000000000000E+20
 24
1.000000000000000E+20
 34
1.000000000000000E+20
 15
-1.000000000000000E+20
 25
-1.000000000000000E+20
 35
-1.000000000000000E+20
146
0.0
 13
0.0
 23
0.0
 33
0.0
 16
1.0
 26
0.0
 36
0.0
 17
0.0
 27
1.0
 37
0.0
 76
     0
330
1B
  0
LAYOUT
  5
26
102
{ACAD_REACTORS
330
1A
102
}
330
1A
100
AcDbPlotSettings
  1

  2
none_device
  4

  6

 40
0.0
 41
0.0
 42
0.0
 43
0.0
 44
0.0
 45
0.0
 46
0.0
 47
0.0
 48
0.0
 49
0.0
140
0.0
141
0.0
142
1.0
143
1.0
 70
   688
 72
     1
 73
     0
 74
     5
  7

 75
    16
 76
     0
 77
     5
 78
   300
147
1.0
148
0.0
149
0.0
100
AcDbLayout
  1
Layout2
 70
     1
 71
     2
 10
0.0
 20
0.0
 11
0.0
 21
0.0
 12
0.0
 22
0.0
 32
0.0
 14
0.0
 24
0.0
 34
0.0
 15
0.0
 25
0.0
 35
0.0
146
0.0
 13
0.0
 23
0.0
 33
0.0
 16
1.0
 26
0.0
 36
0.0
 17
0.0
 27
1.0
 37
0.0
 76
     0
330
23
  0
LAYOUT
  5
22
102
{ACAD_REACTORS
330
1A
102
}
330
1A
100
AcDbPlotSettings
  1

  2
none_device
  4
Letter_(8.50_x_11.00_Inches)
  6

 40
6.35
 41
6.35
 42
6.35000508
 43
6.35000508
 44
215.9
 45
279.4
 46
0.0
 47
0.0
 48
0.0
 49
0.0
140
0.0
141
0.0
142
1.0
143
1.0
 70
  1712
 72
     1
 73
     0
 74
     0
  7

 75
     0
 76
     0
 77
     5
 78
   300
147
1.0
148
0.0
149
0.0
100
AcDbLayout
  1
Model
 70
     1
 71
     0
 10
-2100.0
 20
-1485.0
 11
2100.0
 21
1485.0
 12
0.0
 22
0.0
 32
0.0
 14
-2100.0
 24
-1485.0
 34
0.0
 15
2100.0
 25
1485.0
 35
0.0
146
0.0
 13
0.0
 23
0.0
 33
0.0
 16
1.0
 26
0.0
 36
0.0
 17
0.0
 27
1.0
 37
0.0
 76
     0
330
1F
331
29
  0
MATERIAL
  5
45
102
{ACAD_REACTORS
330
43
102
}
102
{ACAD_XDICTIONARY
360
33E
102
}
330
43
100
AcDbMaterial
  1
ByBlock
  0
MATERIAL
  5
44
102
{ACAD_REACTORS
330
43
102
}
102
{ACAD_XDICTIONARY
360
33C
102
}
330
43
100
AcDbMaterial
  1
ByLayer
  0
MATERIAL
  5
46
102
{ACAD_REACTORS
330
43
102
}
102
{ACAD_XDICTIONARY
360
340
102
}
330
43
100
AcDbMaterial
  1
Global
  0
MLEADERSTYLE
  5
6C
102
{ACAD_REACTORS
330
6B
102
}
102
{ACAD_XDICTIONARY
360
346
102
}
330
6B
100
AcDbMLeaderStyle
170
     2
171
     1
172
     0
 90
        2
 40
0.0
 41
0.0
173
     1
 91
-1056964608
340
14
 92
       -2
290
     1
 42
2.0
291
     1
 43
8.0
  3
Standard
341
0
 44
4.0
300

342
11
174
     1
178
     6
175
     1
176
     0
 93
-1056964608
 45
4.0
292
     0
297
     0
 46
4.0
343
0
 94
-1056964608
 47
1.0
 49
1.0
140
1.0
293
     1
141
0.0
294
     1
177
     0
142
1.0
295
     0
296
     0
143
3.75
1001
ACAD_MLEADERVER
1070
     2
  0
MLINESTYLE
  5
18
102
{ACAD_REACTORS
330
17
102
}
330
17
100
AcDbMlineStyle
  2
Standard
 70
     0
  3

 62
   256
 51
90.0
 52
90.0
 71
     2
 49
0.5
 62
   256
  6
BYLAYER
 49
-0.5
 62
   256
  6
BYLAYER
  0
ACDBPLACEHOLDER
  5
F
102
{ACAD_REACTORS
330
E
102
}
330
E
  0
SCALE
  5
48
102
{ACAD_REACTORS
330
47
102
}
330
47
100
AcDbScale
 70
     0
300
1:1
140
1.0
141
1.0
290
     1
  0
SCALE
  5
49
102
{ACAD_REACTORS
330
47
102
}
330
47
100
AcDbScale
 70
     0
300
1:2
140
1.0
141
2.0
290
     0
  0
SCALE
  5
4A
102
{ACAD_REACTORS
330
47
102
}
330
47
100
AcDbScale
 70
     0
300
1:4
140
1.0
141
4.0
290
     0
  0
SCALE
  5
4B
102
{ACAD_REACTORS
330
47
102
}
330
47
100
AcDbScale
 70
     0
300
1:5
140
1.0
141
5.0
290
     0
  0
SCALE
  5
4C
102
{ACAD_REACTORS
330
47
102
}
330
47
100
AcDbScale
 70
     0
300
1:8
140
1.0
141
8.0
290
     0
  0
SCALE
  5
4D
102
{ACAD_REACTORS
330
47
102
}
330
47
100
AcDbScale
 70
     0
300
1:10
140
1.0
141
10.0
290
     0
  0
SCALE
  5
4E
102
{ACAD_REACTORS
330
47
102
}
330
47
100
AcDbScale
 70
     0
300
1:16
140
1.0
141
16.0
290
     0
  0
SCALE
  5
4F
102
{ACAD_REACTORS
330
47
102
}
330
47
100
AcDbScale
 70
     0
300
1:20
140
1.0
141
20.0
290
     0
  0
SCALE
  5
50
102
{ACAD_REACTORS
330
47
102
}
330
47
100
AcDbScale
 70
     0
300
1:30
140
1.0
141
30.0
290
     0
  0
SCALE
  5
51
102
{ACAD_REACTORS
330
47
102
}
330
47
100
AcDbScale
 70
     0
300
1:40
140
1.0
141
40.0
290
     0
  0
SCALE
  5
52
102
{ACAD_REACTORS
330
47
102
}
330
47
100
AcDbScale
 70
     0
300
1:50
140
1.0
141
50.0
290
     0
  0
SCALE
  5
53
102
{ACAD_REACTORS
330
47
102
}
330
47
100
AcDbScale
 70
     0
300
1:100
140
1.0
141
100.0
290
     0
  0
SCALE
  5
54
102
{ACAD_REACTORS
330
47
102
}
330
47
100
AcDbScale
 70
     0
300
2:1
140
2.0
141
1.0
290
     0
  0
SCALE
  5
55
102
{ACAD_REACTORS
330
47
102
}
330
47
100
AcDbScale
 70
     0
300
4:1
140
4.0
141
1.0
290
     0
  0
SCALE
  5
56
102
{ACAD_REACTORS
330
47
102
}
330
47
100
AcDbScale
 70
     0
300
8:1
140
8.0
141
1.0
290
     0
  0
SCALE
  5
57
102
{ACAD_REACTORS
330
47
102
}
330
47
100
AcDbScale
 70
     0
300
10:1
140
10.0
141
1.0
290
     0
  0
SCALE
  5
58
102
{ACAD_REACTORS
330
47
102
}
330
47
100
AcDbScale
 70
     0
300
100:1
140
100.0
141
1.0
290
     0
  0
SCALE
  5
59
102
{ACAD_REACTORS
330
47
102
}
330
47
100
AcDbScale
 70
     0
300
1/128" = 1'-0"
140
0.0078125
141
12.0
290
     0
  0
SCALE
  5
5A
102
{ACAD_REACTORS
330
47
102
}
330
47
100
AcDbScale
 70
     0
300
1/64" = 1'-0"
140
0.015625
141
12.0
290
     0
  0
SCALE
  5
5B
102
{ACAD_REACTORS
330
47
102
}
330
47
100
AcDbScale
 70
     0
300
1/32" = 1'-0"
140
0.03125
141
12.0
290
     0
  0
SCALE
  5
5C
102
{ACAD_REACTORS
330
47
102
}
330
47
100
AcDbScale
 70
     0
300
1/16" = 1'-0"
140
0.0625
141
12.0
290
     0
  0
SCALE
  5
5D
102
{ACAD_REACTORS
330
47
102
}
330
47
100
AcDbScale
 70
     0
300
3/32" = 1'-0"
140
0.09375
141
12.0
290
     0
  0
SCALE
  5
5E
102
{ACAD_REACTORS
330
47
102
}
330
47
100
AcDbScale
 70
     0
300
1/8" = 1'-0"
140
0.125
141
12.0
290
     0
  0
SCALE
  5
5F
102
{ACAD_REACTORS
330
47
102
}
330
47
100
AcDbScale
 70
     0
300
3/16" = 1'-0"
140
0.1875
141
12.0
290
     0
  0
SCALE
  5
60
102
{ACAD_REACTORS
330
47
102
}
330
47
100
AcDbScale
 70
     0
300
1/4" = 1'-0"
140
0.25
141
12.0
290
     0
  0
SCALE
  5
61
102
{ACAD_REACTORS
330
47
102
}
330
47
100
AcDbScale
 70
     0
300
3/8" = 1'-0"
140
0.375
141
12.0
290
     0
  0
SCALE
  5
62
102
{ACAD_REACTORS
330
47
102
}
330
47
100
AcDbScale
 70
     0
300
1/2" = 1'-0"
140
0.5
141
12.0
290
     0
  0
SCALE
  5
63
102
{ACAD_REACTORS
330
47
102
}
330
47
100
AcDbScale
 70
     0
300
3/4" = 1'-0"
140
0.75
141
12.0
290
     0
  0
SCALE
  5
64
102
{ACAD_REACTORS
330
47
102
}
330
47
100
AcDbScale
 70
     0
300
1" = 1'-0"
140
1.0
141
12.0
290
     0
  0
SCALE
  5
65
102
{ACAD_REACTORS
330
47
102
}
330
47
100
AcDbScale
 70
     0
300
1-1/2" = 1'-0"
140
1.5
141
12.0
290
     0
  0
SCALE
  5
66
102
{ACAD_REACTORS
330
47
102
}
330
47
100
AcDbScale
 70
     0
300
3" = 1'-0"
140
3.0
141
12.0
290
     0
  0
SCALE
  5
67
102
{ACAD_REACTORS
330
47
102
}
330
47
100
AcDbScale
 70
     0
300
6" = 1'-0"
140
6.0
141
12.0
290
     0
  0
SCALE
  5
68
102
{ACAD_REACTORS
330
47
102
}
330
47
100
AcDbScale
 70
     0
300
1'-0" = 1'-0"
140
12.0
141
12.0
290
     0
  0
TABLESTYLE
  5
6A
102
{ACAD_REACTORS
330
69
102
}
102
{ACAD_XDICTIONARY
360
342
102
}
330
69
100
AcDbTableStyle
  3
Standard
 70
     0
 71
     0
 40
0.06
 41
0.06
280
     0
281
     0
  7
Standard
140
4.5
170
     2
 62
     0
 63
   257
283
     0
274
    -2
284
     1
 64
     0
275
    -2
285
     1
 65
     0
276
    -2
286
     1
 66
     0
277
    -2
287
     1
 67
     0
278
    -2
288
     1
 68
     0
279
    -2
289
     1
 69
     0
  7
Standard
140
6.0
170
     5
 62
     0
 63
   257
283
     0
274
    -2
284
     1
 64
     0
275
    -2
285
     1
 65
     0
276
    -2
286
     1
 66
     0
277
    -2
287
     1
 67
     0
278
    -2
288
     1
 68
     0
279
    -2
289
     1
 69
     0
  7
Standard
140
4.5
170
     5
 62
     0
 63
   257
283
     0
274
    -2
284
     1
 64
     0
275
    -2
285
     1
 65
     0
276
    -2
286
     1
 66
     0
277
    -2
287
     1
 67
     0
278
    -2
288
     1
 68
     0
279
    -2
289
     1
 69
     0
  0
VISUALSTYLE
  5
2F
102
{ACAD_REACTORS
330
2A
102
}
102
{ACAD_XDICTIONARY
360
314
102
}
330
2A
100
AcDbVisualStyle
  2
2dWireframe
 70
     4
 71
     0
 72
     2
 73
     0
 90
        0
 40
0.6
 41
30.0
 62
     5
 63
     7
421
 16777215
 74
     1
 91
        4
 64
     7
 65
   257
 75
     1
175
     1
 42
1.0
 92
        0
 66
   257
 43
1.0
 76
     1
 77
     6
 78
     2
 67
     7
 79
     5
170
     0
171
     0
290
     0
174
     0
 93
        1
 44
0.0
173
     0
291
     0
 45
0.0
1001
ACAD
1000
AcDbSavedByObjectVersion
1070
     0
  0
VISUALSTYLE
  5
32
102
{ACAD_REACTORS
330
2A
102
}
102
{ACAD_XDICTIONARY
360
31A
102
}
330
2A
100
AcDbVisualStyle
  2
Basic
 70
     7
 71
     1
 72
     0
 73
     1
 90
        0
 40
0.6
 41
30.0
 62
     5
 63
     7
421
 16777215
 74
     0
 91
        4
 64
     7
 65
   257
 75
     1
175
     1
 42
1.0
 92
        8
 66
     7
 43
1.0
 76
     1
 77
     6
 78
     2
 67
     7
 79
     5
170
     0
171
     0
290
     0
174
     0
 93
        1
 44
0.0
173
     0
291
     1
 45
0.0
1001
ACAD
1000
AcDbSavedByObjectVersion
1070
     0
  0
VISUALSTYLE
  5
36
102
{ACAD_REACTORS
330
2A
102
}
102
{ACAD_XDICTIONARY
360
322
102
}
330
2A
100
AcDbVisualStyle
  2
Brighten
 70
    12
 71
     2
 72
     2
 73
     0
 90
        0
 40
0.6
 41
30.0
 62
     5
 63
     7
421
 16777215
 74
     1
 91
        4
 64
     7
 65
   257
 75
     1
175
     1
 42
1.0
 92
        8
 66
     7
 43
1.0
 76
     1
 77
     6
 78
     2
 67
     7
 79
     5
170
     0
171
     0
290
     0
174
     0
 93
        1
 44
50.0
173
     0
291
     1
 45
0.0
1001
ACAD
1000
AcDbSavedByObjectVersion
1070
     0
  0
VISUALSTYLE
  5
3A
102
{ACAD_REACTORS
330
2A
102
}
102
{ACAD_XDICTIONARY
360
32A
102
}
330
2A
100
AcDbVisualStyle
  2
ColorChange
 70
    16
 71
     2
 72
     2
 73
     3
 90
        0
 40
0.6
 41
30.0
 62
     5
 63
     8
421
  8421504
 74
     1
 91
        4
 64
     7
 65
   257
 75
     1
175
     1
 42
1.0
 92
        8
 66
     8
424
  8421504
 43
1.0
 76
     1
 77
     6
 78
     2
 67
     7
 79
     5
170
     0
171
     0
290
     0
174
     0
 93
        1
 44
0.0
173
     0
291
     1
 45
0.0
1001
ACAD
1000
AcDbSavedByObjectVersion
1070
     0
  0
VISUALSTYLE
  5
34
102
{ACAD_REACTORS
330
2A
102
}
102
{ACAD_XDICTIONARY
360
31E
102
}
330
2A
100
AcDbVisualStyle
  2
Conceptual
 70
     9
 71
     3
 72
     2
 73
     0
 90
        0
 40
0.6
 41
30.0
 62
     5
 63
     7
421
 16777215
 74
     2
 91
        2
 64
     7
 65
   257
 75
     1
175
     1
 42
179.0
 92
        8
 66
     7
 43
1.0
 76
     1
 77
     6
 78
     2
 67
     7
 79
     3
170
     0
171
     0
290
     0
174
     0
 93
        1
 44
0.0
173
     0
291
     0
 45
0.0
1001
ACAD
1000
AcDbSavedByObjectVersion
1070
     0
  0
VISUALSTYLE
  5
35
102
{ACAD_REACTORS
330
2A
102
}
102
{ACAD_XDICTIONARY
360
320
102
}
330
2A
100
AcDbVisualStyle
  2
Dim
 70
    11
 71
     2
 72
     2
 73
     0
 90
        0
 40
0.6
 41
30.0
 62
     5
 63
     7
421
 16777215
 74
     1
 91
        4
 64
     7
 65
   257
 75
     1
175
     1
 42
1.0
 92
        8
 66
     7
 43
1.0
 76
     1
 77
     6
 78
     2
 67
     7
 79
     5
170
     0
171
     0
290
     0
174
     0
 93
        1
 44
-50.0
173
     0
291
     1
 45
0.0
1001
ACAD
1000
AcDbSavedByObjectVersion
1070
     0
  0
VISUALSTYLE
  5
3D
102
{ACAD_REACTORS
330
2A
102
}
102
{ACAD_XDICTIONARY
360
330
102
}
330
2A
100
AcDbVisualStyle
  2
EdgeColorOff
 70
    22
 71
     2
 72
     2
 73
     0
 90
        0
 40
0.6
 41
30.0
 62
     5
 63
     7
421
 16777215
 74
     1
 91
        4
 64
     7
 65
   257
 75
     1
175
     1
 42
1.0
 92
        8
 66
     7
 43
1.0
 76
     1
 77
     6
 78
     2
 67
     7
 79
     5
170
     0
171
     0
290
     0
174
     0
 93
        1
 44
0.0
173
     0
291
     1
 45
0.0
1001
ACAD
1000
AcDbSavedByObjectVersion
1070
     0
  0
VISUALSTYLE
  5
39
102
{ACAD_REACTORS
330
2A
102
}
102
{ACAD_XDICTIONARY
360
328
102
}
330
2A
100
AcDbVisualStyle
  2
Facepattern
 70
    15
 71
     2
 72
     2
 73
     0
 90
        0
 40
0.6
 41
30.0
 62
     5
 63
     7
421
 16777215
 74
     1
 91
        4
 64
     7
 65
   257
 75
     1
175
     1
 42
1.0
 92
        8
 66
     7
 43
1.0
 76
     1
 77
     6
 78
     2
 67
     7
 79
     5
170
     0
171
     0
290
     0
174
     0
 93
        1
 44
0.0
173
     0
291
     1
 45
0.0
1001
ACAD
1000
AcDbSavedByObjectVersion
1070
     0
  0
VISUALSTYLE
  5
2B
102
{ACAD_REACTORS
330
2A
102
}
102
{ACAD_XDICTIONARY
360
30C
102
}
330
2A
100
AcDbVisualStyle
  2
Flat
 70
     0
 71
     2
 72
     1
 73
     1
 90
        2
 40
0.6
 41
30.0
 62
     5
 63
     7
421
 16777215
 74
     0
 91
        0
 64
     7
 65
   257
 75
     1
175
     1
 42
1.0
 92
        8
 66
     7
 43
1.0
 76
     1
 77
     6
 78
     2
 67
     7
 79
     5
170
     0
171
     0
290
     0
174
     0
 93
       13
 44
0.0
173
     0
291
     1
 45
0.0
1001
ACAD
1000
AcDbSavedByObjectVersion
1070
     0
  0
VISUALSTYLE
  5
2C
102
{ACAD_REACTORS
330
2A
102
}
102
{ACAD_XDICTIONARY
360
30E
102
}
330
2A
100
AcDbVisualStyle
  2
FlatWithEdges
 70
     1
 71
     2
 72
     1
 73
     1
 90
        2
 40
0.6
 41
30.0
 62
     5
 63
     7
421
 16777215
 74
     1
 91
        0
 64
     7
 65
   257
 75
     1
175
     1
 42
1.0
 92
        0
 66
   257
 43
1.0
 76
     1
 77
     6
 78
     2
 67
     7
 79
     5
170
     0
171
     0
290
     0
174
     0
 93
       13
 44
0.0
173
     0
291
     1
 45
0.0
1001
ACAD
1000
AcDbSavedByObjectVersion
1070
     0
  0
VISUALSTYLE
  5
2D
102
{ACAD_REACTORS
330
2A
102
}
102
{ACAD_XDICTIONARY
360
310
102
}
330
2A
100
AcDbVisualStyle
  2
Gouraud
 70
     2
 71
     2
 72
     2
 73
     1
 90
        2
 40
0.6
 41
30.0
 62
     5
 63
     7
421
 16777215
 74
     0
 91
        0
 64
     7
 65
   257
 75
     1
175
     1
 42
1.0
 92
        0
 66
     7
 43
1.0
 76
     1
 77
     6
 78
     2
 67
     7
 79
     5
170
     0
171
     0
290
     0
174
     0
 93
       13
 44
0.0
173
     0
291
     1
 45
0.0
1001
ACAD
1000
AcDbSavedByObjectVersion
1070
     0
  0
VISUALSTYLE
  5
2E
102
{ACAD_REACTORS
330
2A
102
}
102
{ACAD_XDICTIONARY
360
312
102
}
330
2A
100
AcDbVisualStyle
  2
GouraudWithEdges
 70
     3
 71
     2
 72
     2
 73
     1
 90
        2
 40
0.6
 41
30.0
 62
     5
 63
     7
421
 16777215
 74
     1
 91
        0
 64
     7
 65
   257
 75
     1
175
     1
 42
1.0
 92
        0
 66
   257
 43
1.0
 76
     1
 77
     6
 78
     2
 67
     7
 79
     5
170
     0
171
     0
290
     0
174
     0
 93
       13
 44
0.0
173
     0
291
     1
 45
0.0
1001
ACAD
1000
AcDbSavedByObjectVersion
1070
     0
  0
VISUALSTYLE
  5
31
102
{ACAD_REACTORS
330
2A
102
}
102
{ACAD_XDICTIONARY
360
318
102
}
330
2A
100
AcDbVisualStyle
  2
Hidden
 70
     6
 71
     1
 72
     2
 73
     2
 90
        0
 40
0.6
 41
30.0
 62
     5
 63
     7
421
 16777215
 74
     2
 91
        2
 64
     7
 65
   257
 75
     2
175
     1
 42
40.0
 92
        0
 66
   257
 43
1.0
 76
     1
 77
     6
 78
     2
 67
     7
 79
     3
170
     0
171
     0
290
     0
174
     0
 93
        1
 44
0.0
173
     0
291
     0
 45
0.0
1001
ACAD
1000
AcDbSavedByObjectVersion
1070
     0
  0
VISUALSTYLE
  5
3B
102
{ACAD_REACTORS
330
2A
102
}
102
{ACAD_XDICTIONARY
360
32C
102
}
330
2A
100
AcDbVisualStyle
  2
JitterOff
 70
    20
 71
     2
 72
     2
 73
     0
 90
        0
 40
0.6
 41
30.0
 62
     5
 63
     7
421
 16777215
 74
     1
 91
        4
 64
     7
 65
   257
 75
     1
175
     1
 42
1.0
 92
       10
 66
     7
 43
1.0
 76
     1
 77
     6
 78
     2
 67
     7
 79
     5
170
     0
171
     0
290
     0
174
     0
 93
        1
 44
0.0
173
     0
291
     1
 45
0.0
1001
ACAD
1000
AcDbSavedByObjectVersion
1070
     0
  0
VISUALSTYLE
  5
38
102
{ACAD_REACTORS
330
2A
102
}
102
{ACAD_XDICTIONARY
360
326
102
}
330
2A
100
AcDbVisualStyle
  2
Linepattern
 70
    14
 71
     2
 72
     2
 73
     0
 90
        0
 40
0.6
 41
30.0
 62
     5
 63
     7
421
 16777215
 74
     1
 91
        4
 64
     7
 65
   257
 75
     7
175
     7
 42
1.0
 92
        8
 66
     7
 43
1.0
 76
     1
 77
     6
 78
     2
 67
     7
 79
     5
170
     0
171
     0
290
     0
174
     0
 93
        1
 44
0.0
173
     0
291
     1
 45
0.0
1001
ACAD
1000
AcDbSavedByObjectVersion
1070
     0
  0
VISUALSTYLE
  5
3C
102
{ACAD_REACTORS
330
2A
102
}
102
{ACAD_XDICTIONARY
360
32E
102
}
330
2A
100
AcDbVisualStyle
  2
OverhangOff
 70
    21
 71
     2
 72
     2
 73
     0
 90
        0
 40
0.6
 41
30.0
 62
     5
 63
     7
421
 16777215
 74
     1
 91
        4
 64
     7
 65
   257
 75
     1
175
     1
 42
1.0
 92
        9
 66
     7
 43
1.0
 76
     1
 77
     6
 78
     2
 67
     7
 79
     5
170
     0
171
     0
290
     0
174
     0
 93
        1
 44
0.0
173
     0
291
     1
 45
0.0
1001
ACAD
1000
AcDbSavedByObjectVersion
1070
     0
  0
VISUALSTYLE
  5
33
102
{ACAD_REACTORS
330
2A
102
}
102
{ACAD_XDICTIONARY
360
31C
102
}
330
2A
100
AcDbVisualStyle
  2
Realistic
 70
     8
 71
     2
 72
     3
 73
     0
 90
        2
 40
0.6
 41
30.0
 62
     5
 63
     7
421
 16777215
 74
     0
 91
        0
 64
     7
 65
   257
 75
     1
175
     1
 42
1.0
 92
        8
 66
   257
 43
1.0
 76
     1
 77
     6
 78
     2
 67
     7
 79
     3
170
     0
171
     0
290
     0
174
     0
 93
       13
 44
0.0
173
     0
291
     0
 45
0.0
1001
ACAD
1000
AcDbSavedByObjectVersion
1070
     0
  0
VISUALSTYLE
  5
42
102
{ACAD_REACTORS
330
2A
102
}
102
{ACAD_XDICTIONARY
360
33A
102
}
330
2A
100
AcDbVisualStyle
  2
Shaded
 70
    27
 71
     2
 72
     2
 73
     1
 90
        2
 40
0.6
 41
30.0
 62
     5
 63
     7
421
 16777215
 74
     0
 91
        4
 64
     7
 65
   257
 75
     1
175
     1
 42
1.0
 92
        8
 66
   257
 43
1.0
 76
     1
 77
     6
 78
     2
 67
     8
425
  7895160
 79
     3
170
     0
171
     0
290
     0
174
     0
 93
        5
 44
0.0
173
     0
291
     0
 45
0.0
1001
ACAD
1000
AcDbSavedByObjectVersion
1070
     0
  0
VISUALSTYLE
  5
41
102
{ACAD_REACTORS
330
2A
102
}
102
{ACAD_XDICTIONARY
360
338
102
}
330
2A
100
AcDbVisualStyle
  2
Shaded with edges
 70
    26
 71
     2
 72
     2
 73
     1
 90
        2
 40
0.6
 41
30.0
 62
     5
 63
     7
421
 16777215
 74
     1
 91
       10
 64
     7
 65
   257
 75
     2
175
     1
 42
1.0
 92
        8
 66
   257
 43
1.0
 76
     1
 77
     6
 78
     2
 67
     7
 79
     3
170
     0
171
     0
290
     0
174
     0
 93
        5
 44
0.0
173
     0
291
     0
 45
0.0
1001
ACAD
1000
AcDbSavedByObjectVersion
1070
     0
  0
VISUALSTYLE
  5
3E
102
{ACAD_REACTORS
330
2A
102
}
102
{ACAD_XDICTIONARY
360
332
102
}
330
2A
100
AcDbVisualStyle
  2
Shades of Gray
 70
    23
 71
     2
 72
     2
 73
     3
 90
        0
 40
0.6
 41
30.0
 62
     5
 63
     7
421
 16777215
 74
     2
 91
        2
 64
     7
 65
     7
 75
     1
175
     1
 42
40.0
 92
        8
 66
     7
 43
1.0
 76
     1
 77
     6
 78
     2
 67
     7
 79
     3
170
     0
171
     0
290
     0
174
     0
 93
        1
 44
0.0
173
     0
291
     0
 45
0.0
1001
ACAD
1000
AcDbSavedByObjectVersion
1070
     0
  0
VISUALSTYLE
  5
3F
102
{ACAD_REACTORS
330
2A
102
}
102
{ACAD_XDICTIONARY
360
334
102
}
330
2A
100
AcDbVisualStyle
  2
Sketchy
 70
    24
 71
     1
 72
     2
 73
     2
 90
        0
 40
0.6
 41
30.0
 62
     5
 63
     7
421
 16777215
 74
     2
 91
        2
 64
     7
 65
     7
 75
     1
175
     1
 42
40.0
 92
       11
 66
     7
 43
1.0
 76
     1
 77
     6
 78
     2
 67
     7
 79
     6
170
     0
171
     0
290
     0
174
     0
 93
        1
 44
0.0
173
     0
291
     0
 45
0.0
1001
ACAD
1000
AcDbSavedByObjectVersion
1070
     0
  0
VISUALSTYLE
  5
37
102
{ACAD_REACTORS
330
2A
102
}
102
{ACAD_XDICTIONARY
360
324
102
}
330
2A
100
AcDbVisualStyle
  2
Thicken
 70
    13
 71
     2
 72
     2
 73
     0
 90
        0
 40
0.6
 41
30.0
 62
     5
 63
     7
421
 16777215
 74
     1
 91
        4
 64
     7
 65
   257
 75
     1
175
     1
 42
1.0
 92
       12
 66
     7
 43
1.0
 76
     1
 77
     6
 78
     2
 67
     7
 79
     5
170
     0
171
     0
290
     0
174
     0
 93
        1
 44
0.0
173
     0
291
     1
 45
0.0
1001
ACAD
1000
AcDbSavedByObjectVersion
1070
     0
  0
VISUALSTYLE
  5
30
102
{ACAD_REACTORS
330
2A
102
}
102
{ACAD_XDICTIONARY
360
316
102
}
330
2A
100
AcDbVisualStyle
  2
Wireframe
 70
     5
 71
     0
 72
     2
 73
     0
 90
        0
 40
0.6
 41
30.0
 62
     5
 63
     7
421
 16777215
 74
     1
 91
        4
 64
     7
 65
   257
 75
     1
175
     1
 42
1.0
 92
        0
 66
   257
 43
1.0
 76
     1
 77
     6
 78
     2
 67
     7
 79
     3
170
     0
171
     0
290
     0
174
     0
 93
        1
 44
0.0
173
     0
291
     0
 45
0.0
1001
ACAD
1000
AcDbSavedByObjectVersion
1070
     0
  0
VISUALSTYLE
  5
40
102
{ACAD_REACTORS
330
2A
102
}
102
{ACAD_XDICTIONARY
360
336
102
}
330
2A
100
AcDbVisualStyle
  2
X-Ray
 70
    25
 71
     2
 72
     2
 73
     1
 90
        1
 40
0.5
 41
30.0
 62
     5
 63
     7
421
 16777215
 74
     1
 91
        0
 64
     7
 65
   257
 75
     1
175
     1
 42
1.0
 92
        8
 66
     7
 43
1.0
 76
     1
 77
     6
 78
     2
 67
     7
 79
     3
170
     0
171
     0
290
     0
174
     0
 93
       13
 44
0.0
173
     0
291
     0
 45
0.0
1001
ACAD
1000
AcDbSavedByObjectVersion
1070
     0
  0
DICTIONARYVAR
  5
309
102
{ACAD_REACTORS
330
308
102
}
330
308
100
DictionaryVariables
280
     0
  1
1:1
  0
DICTIONARYVAR
  5
34D
102
{ACAD_REACTORS
330
308
102
}
330
308
100
DictionaryVariables
280
     0
  1
3.500000
  0
DICTIONARYVAR
  5
34E
102
{ACAD_REACTORS
330
308
102
}
330
308
100
DictionaryVariables
280
     0
  1
acadiso.lin
  0
DICTIONARYVAR
  5
34A
102
{ACAD_REACTORS
330
308
102
}
330
308
100
DictionaryVariables
280
     0
  1
Standard
  0
DICTIONARYVAR
  5
349
102
{ACAD_REACTORS
330
308
102
}
330
308
100
DictionaryVariables
280
     0
  1
Standard
  0
DICTIONARYVAR
  5
30A
102
{ACAD_REACTORS
330
308
102
}
330
308
100
DictionaryVariables
280
     0
  1
1
  0
DICTIONARYVAR
  5
30B
102
{ACAD_REACTORS
330
308
102
}
330
308
100
DictionaryVariables
280
     0
  1
2
  0
DICTIONARY
  5
33E
330
45
100
AcDbDictionary
280
     1
281
     1
  3
ACAD_XREC_ROUNDTRIP
360
33F
  0
DICTIONARY
  5
33C
330
44
100
AcDbDictionary
280
     1
281
     1
  3
ACAD_XREC_ROUNDTRIP
360
33D
  0
DICTIONARY
  5
340
330
46
100
AcDbDictionary
280
     1
281
     1
  3
ACAD_XREC_ROUNDTRIP
360
341
  0
DICTIONARY
  5
346
330
6C
100
AcDbDictionary
280
     1
281
     1
  3
ACAD_XREC_ROUNDTRIP
360
347
  0
DICTIONARY
  5
342
330
6A
100
AcDbDictionary
280
     1
281
     1
  3
ACAD_ROUNDTRIP_2008_TABLESTYLE_CELLSTYLEMAP
360
344
  3
ACAD_XREC_ROUNDTRIP
360
343
  0
DICTIONARY
  5
314
330
2F
100
AcDbDictionary
280
     1
281
     1
  3
ACAD_XREC_ROUNDTRIP
360
315
  0
DICTIONARY
  5
31A
330
32
100
AcDbDictionary
280
     1
281
     1
  3
ACAD_XREC_ROUNDTRIP
360
31B
  0
DICTIONARY
  5
322
330
36
100
AcDbDictionary
280
     1
281
     1
  3
ACAD_XREC_ROUNDTRIP
360
323
  0
DICTIONARY
  5
32A
330
3A
100
AcDbDictionary
280
     1
281
     1
  3
ACAD_XREC_ROUNDTRIP
360
32B
  0
DICTIONARY
  5
31E
330
34
100
AcDbDictionary
280
     1
281
     1
  3
ACAD_XREC_ROUNDTRIP
360
31F
  0
DICTIONARY
  5
320
330
35
100
AcDbDictionary
280
     1
281
     1
  3
ACAD_XREC_ROUNDTRIP
360
321
  0
DICTIONARY
  5
330
330
3D
100
AcDbDictionary
280
     1
281
     1
  3
ACAD_XREC_ROUNDTRIP
360
331
  0
DICTIONARY
  5
328
330
39
100
AcDbDictionary
280
     1
281
     1
  3
ACAD_XREC_ROUNDTRIP
360
329
  0
DICTIONARY
  5
30C
330
2B
100
AcDbDictionary
280
     1
281
     1
  3
ACAD_XREC_ROUNDTRIP
360
30D
  0
DICTIONARY
  5
30E
330
2C
100
AcDbDictionary
280
     1
281
     1
  3
ACAD_XREC_ROUNDTRIP
360
30F
  0
DICTIONARY
  5
310
330
2D
100
AcDbDictionary
280
     1
281
     1
  3
ACAD_XREC_ROUNDTRIP
360
311
  0
DICTIONARY
  5
312
330
2E
100
AcDbDictionary
280
     1
281
     1
  3
ACAD_XREC_ROUNDTRIP
360
313
  0
DICTIONARY
  5
318
330
31
100
AcDbDictionary
280
     1
281
     1
  3
ACAD_XREC_ROUNDTRIP
360
319
  0
DICTIONARY
  5
32C
330
3B
100
AcDbDictionary
280
     1
281
     1
  3
ACAD_XREC_ROUNDTRIP
360
32D
  0
DICTIONARY
  5
326
330
38
100
AcDbDictionary
280
     1
281
     1
  3
ACAD_XREC_ROUNDTRIP
360
327
  0
DICTIONARY
  5
32E
330
3C
100
AcDbDictionary
280
     1
281
     1
  3
ACAD_XREC_ROUNDTRIP
360
32F
  0
DICTIONARY
  5
31C
330
33
100
AcDbDictionary
280
     1
281
     1
  3
ACAD_XREC_ROUNDTRIP
360
31D
  0
DICTIONARY
  5
33A
330
42
100
AcDbDictionary
280
     1
281
     1
  3
ACAD_XREC_ROUNDTRIP
360
33B
  0
DICTIONARY
  5
338
330
41
100
AcDbDictionary
280
     1
281
     1
  3
ACAD_XREC_ROUNDTRIP
360
339
  0
DICTIONARY
  5
332
330
3E
100
AcDbDictionary
280
     1
281
     1
  3
ACAD_XREC_ROUNDTRIP
360
333
  0
DICTIONARY
  5
334
330
3F
100
AcDbDictionary
280
     1
281
     1
  3
ACAD_XREC_ROUNDTRIP
360
335
  0
DICTIONARY
  5
324
330
37
100
AcDbDictionary
280
     1
281
     1
  3
ACAD_XREC_ROUNDTRIP
360
325
  0
DICTIONARY
  5
316
330
30
100
AcDbDictionary
280
     1
281
     1
  3
ACAD_XREC_ROUNDTRIP
360
317
  0
DICTIONARY
  5
336
330
40
100
AcDbDictionary
280
     1
281
     1
  3
ACAD_XREC_ROUNDTRIP
360
337
  0
XRECORD
  5
33F
102
{ACAD_REACTORS
330
33E
102
}
330
33E
100
AcDbXrecord
280
     1
102
MATERIAL
148
0.0
149
0.0
149
0.0
 93
        0
 94
      127
282
     0
 72
     1
 77
     1
171
     1
175
     1
179
     1
273
     0
  0
XRECORD
  5
33D
102
{ACAD_REACTORS
330
33C
102
}
330
33C
100
AcDbXrecord
280
     1
102
MATERIAL
148
0.0
149
0.0
149
0.0
 93
        0
 94
      127
282
     0
 72
     1
 77
     1
171
     1
175
     1
179
     1
273
     0
  0
XRECORD
  5
341
102
{ACAD_REACTORS
330
340
102
}
330
340
100
AcDbXrecord
280
     1
102
MATERIAL
148
0.0
149
0.0
149
0.0
 93
        0
 94
      127
282
     0
 72
     1
 77
     1
171
     1
175
     1
179
     1
273
     0
  0
XRECORD
  5
347
102
{ACAD_REACTORS
330
346
102
}
330
346
100
AcDbXrecord
280
     1
102
ACAD_ROUNDTRIP_2010_MLEADER_STYLE
  0
CELLSTYLEMAP
  5
344
102
{ACAD_REACTORS
330
342
102
}
330
342
100
AcDbCellStyleMap
 90
        3
300
CELLSTYLE
  1
TABLEFORMAT_BEGIN
 90
        5
170
     1
 91
        0
 92
    32768
 62
   257
 93
        1
300
CONTENTFORMAT
  1
CONTENTFORMAT_BEGIN
 90
        0
 91
        0
 92
        4
 93
        0
300

 40
0.0
140
1.0
 94
        5
 62
     0
340
11
144
6.0
309
CONTENTFORMAT_END
171
     1
301
MARGIN
  1
CELLMARGIN_BEGIN
 40
1.5
 40
1.5
 40
1.5
 40
1.5
 40
1.5
 40
1.5
309
CELLMARGIN_END
 94
        6
 95
        1
302
GRIDFORMAT
  1
GRIDFORMAT_BEGIN
 90
        0
 91
        1
 62
     0
 92
       -2
340
14
 93
        0
 40
0.045
309
GRIDFORMAT_END
 95
        2
302
GRIDFORMAT
  1
GRIDFORMAT_BEGIN
 90
        0
 91
        1
 62
     0
 92
       -2
340
14
 93
        0
 40
0.045
309
GRIDFORMAT_END
 95
        4
302
GRIDFORMAT
  1
GRIDFORMAT_BEGIN
 90
        0
 91
        1
 62
     0
 92
       -2
340
14
 93
        0
 40
0.045
309
GRIDFORMAT_END
 95
        8
302
GRIDFORMAT
  1
GRIDFORMAT_BEGIN
 90
        0
 91
        1
 62
     0
 92
       -2
340
14
 93
        0
 40
0.045
309
GRIDFORMAT_END
 95
       16
302
GRIDFORMAT
  1
GRIDFORMAT_BEGIN
 90
        0
 91
        1
 62
     0
 92
       -2
340
14
 93
        0
 40
0.045
309
GRIDFORMAT_END
 95
       32
302
GRIDFORMAT
  1
GRIDFORMAT_BEGIN
 90
        0
 91
        1
 62
     0
 92
       -2
340
14
 93
        0
 40
0.045
309
GRIDFORMAT_END
309
TABLEFORMAT_END
  1
CELLSTYLE_BEGIN
 90
        1
 91
        1
300
_TITLE
309
CELLSTYLE_END
300
CELLSTYLE
  1
TABLEFORMAT_BEGIN
 90
        5
170
     1
 91
        0
 92
        0
 62
   257
 93
        1
300
CONTENTFORMAT
  1
CONTENTFORMAT_BEGIN
 90
        0
 91
        0
 92
        4
 93
        0
300

 40
0.0
140
1.0
 94
        5
 62
     0
340
11
144
4.5
309
CONTENTFORMAT_END
171
     1
301
MARGIN
  1
CELLMARGIN_BEGIN
 40
1.5
 40
1.5
 40
1.5
 40
1.5
 40
1.5
 40
1.5
309
CELLMARGIN_END
 94
        6
 95
        1
302
GRIDFORMAT
  1
GRIDFORMAT_BEGIN
 90
        0
 91
        1
 62
     0
 92
       -2
340
14
 93
        0
 40
0.045
309
GRIDFORMAT_END
 95
        2
302
GRIDFORMAT
  1
GRIDFORMAT_BEGIN
 90
        0
 91
        1
 62
     0
 92
       -2
340
14
 93
        0
 40
0.045
309
GRIDFORMAT_END
 95
        4
302
GRIDFORMAT
  1
GRIDFORMAT_BEGIN
 90
        0
 91
        1
 62
     0
 92
       -2
340
14
 93
        0
 40
0.045
309
GRIDFORMAT_END
 95
        8
302
GRIDFORMAT
  1
GRIDFORMAT_BEGIN
 90
        0
 91
        1
 62
     0
 92
       -2
340
14
 93
        0
 40
0.045
309
GRIDFORMAT_END
 95
       16
302
GRIDFORMAT
  1
GRIDFORMAT_BEGIN
 90
        0
 91
        1
 62
     0
 92
       -2
340
14
 93
        0
 40
0.045
309
GRIDFORMAT_END
 95
       32
302
GRIDFORMAT
  1
GRIDFORMAT_BEGIN
 90
        0
 91
        1
 62
     0
 92
       -2
340
14
 93
        0
 40
0.045
309
GRIDFORMAT_END
309
TABLEFORMAT_END
  1
CELLSTYLE_BEGIN
 90
        2
 91
        1
300
_HEADER
309
CELLSTYLE_END
300
CELLSTYLE
  1
TABLEFORMAT_BEGIN
 90
        5
170
     1
 91
        0
 92
        0
 62
   257
 93
        1
300
CONTENTFORMAT
  1
CONTENTFORMAT_BEGIN
 90
        0
 91
        0
 92
        4
 93
        0
300

 40
0.0
140
1.0
 94
        2
 62
     0
340
11
144
4.5
309
CONTENTFORMAT_END
171
     1
301
MARGIN
  1
CELLMARGIN_BEGIN
 40
1.5
 40
1.5
 40
1.5
 40
1.5
 40
1.5
 40
1.5
309
CELLMARGIN_END
 94
        6
 95
        1
302
GRIDFORMAT
  1
GRIDFORMAT_BEGIN
 90
        0
 91
        1
 62
     0
 92
       -2
340
14
 93
        0
 40
0.045
309
GRIDFORMAT_END
 95
        2
302
GRIDFORMAT
  1
GRIDFORMAT_BEGIN
 90
        0
 91
        1
 62
     0
 92
       -2
340
14
 93
        0
 40
0.045
309
GRIDFORMAT_END
 95
        4
302
GRIDFORMAT
  1
GRIDFORMAT_BEGIN
 90
        0
 91
        1
 62
     0
 92
       -2
340
14
 93
        0
 40
0.045
309
GRIDFORMAT_END
 95
        8
302
GRIDFORMAT
  1
GRIDFORMAT_BEGIN
 90
        0
 91
        1
 62
     0
 92
       -2
340
14
 93
        0
 40
0.045
309
GRIDFORMAT_END
 95
       16
302
GRIDFORMAT
  1
GRIDFORMAT_BEGIN
 90
        0
 91
        1
 62
     0
 92
       -2
340
14
 93
        0
 40
0.045
309
GRIDFORMAT_END
 95
       32
302
GRIDFORMAT
  1
GRIDFORMAT_BEGIN
 90
        0
 91
        1
 62
     0
 92
       -2
340
14
 93
        0
 40
0.045
309
GRIDFORMAT_END
309
TABLEFORMAT_END
  1
CELLSTYLE_BEGIN
 90
        3
 91
        2
300
_DATA
309
CELLSTYLE_END
  0
XRECORD
  5
343
102
{ACAD_REACTORS
330
342
102
}
330
342
100
AcDbXrecord
280
     1
102
ACAD_ROUNDTRIP_PRE2007_TABLESTYLE
 90
        4
 91
        0
  1

 92
        4
 93
        0
  2

 94
        4
 95
        0
  3

  0
XRECORD
  5
315
102
{ACAD_REACTORS
330
314
102
}
330
314
100
AcDbXrecord
280
     1
102
RTVSPropertyOp0
 70
     1
102
RTVSPropertyOp1
 70
     1
102
RTVSPropertyOp2
 70
     1
102
RTVSPropertyOp3
 70
     1
102
RTVSPropertyOp4
 70
     1
102
RTVSPropertyOp5
 70
     1
102
RTVSPropertyOp6
 70
     1
102
RTVSPropertyOp7
 70
     1
102
RTVSPropertyOp8
 70
     1
102
RTVSPropertyOp9
 70
     1
102
RTVSPropertyOp10
 70
     1
102
RTVSPropertyOp11
 70
     1
102
RTVSPropertyOp12
 70
     1
102
RTVSPropertyOp13
 70
     1
102
RTVSPropertyOp14
 70
     1
102
RTVSPropertyOp15
 70
     1
102
RTVSPropertyOp16
 70
     1
102
RTVSPropertyOp17
 70
     1
102
RTVSPropertyOp18
 70
     1
102
RTVSPropertyOp19
 70
     1
102
RTVSPropertyOp20
 70
     1
102
RTVSPropertyOp21
 70
     1
102
RTVSPropertyOp22
 70
     1
102
RTVSPropertyOp23
 70
     1
102
RTVSPropertyOp24
 70
     1
102
RTVSPropertyOp25
 70
     1
102
RTVSPropertyOp26
 70
     1
102
RTVSPropertyOp27
 70
     1
102
RTVSPropertyOp28
 70
     1
102
RTVSPropertyOp29
 70
     1
102
RTVSPropertyOp30
 70
     1
102
RTVSPropertyOp31
 70
     1
102
RTVSPropertyOp32
 70
     1
102
RTVSPropertyOp33
 70
     1
102
RTVSPropertyOp34
 70
     1
102
RTVSPropertyOp35
 70
     1
102
RTVSPropertyOp36
 70
     1
102
RTVSPropertyOp37
 70
     1
102
RTVSPropertyOp38
 70
     1
102
RTVSPropertyOp39
 70
     1
102
RTVSPropertyOp40
 70
     1
102
RTVSPropertyOp41
 70
     1
102
RTVSPropertyOp42
 70
     1
102
RTVSPropertyOp43
 70
     1
102
RTVSPropertyOp44
 70
     1
102
RTVSPropertyOp45
 70
     1
102
RTVSPropertyOp46
 70
     1
102
RTVSPropertyOp47
 70
     1
102
RTVSPropertyOp48
 70
     1
102
RTVSPropertyOp49
 70
     1
102
RTVSPropertyOp50
 70
     1
102
RTVSPropertyOp51
 70
     0
102
RTVSPropertyOp52
 70
     0
102
RTVSPropertyOp53
 70
     1
102
RTVSPropertyOp54
 70
     1
102
RTVSPropertyOp55
 70
     1
102
RTVSPropertyOp56
 70
     1
102
RTVSPropertyOp57
 70
     1
102
RTVSPost2010Prop28
280
     1
102
RTVSPost2010PropOp28
 70
     1
102
RTVSPost2010Prop29
280
     1
102
RTVSPost2010PropOp29
 70
     1
102
RTVSPost2010Prop30
280
     0
102
RTVSPost2010PropOp30
 70
     1
102
RTVSPost2010Prop31
280
     0
102
RTVSPost2010PropOp31
 70
     1
102
RTVSPost2010Prop32
280
     0
102
RTVSPost2010PropOp32
 70
     1
102
RTVSPost2010Prop33
280
     0
102
RTVSPost2010PropOp33
 70
     1
102
RTVSPost2010Prop34
280
     0
102
RTVSPost2010PropOp34
 70
     1
102
RTVSPost2010Prop35
280
     0
102
RTVSPost2010PropOp35
 70
     1
102
RTVSPost2010Prop36
280
     0
102
RTVSPost2010PropOp36
 70
     1
102
RTVSPost2010Prop37
 90
       50
102
RTVSPost2010PropOp37
 70
     1
102
RTVSPost2010Prop38
140
0.0
102
RTVSPost2010PropOp38
 70
     1
102
RTVSPost2010Prop39
140
1.0
102
RTVSPost2010PropOp39
 70
     1
102
RTVSPost2010Prop40
 90
        0
102
RTVSPost2010PropOp40
 70
     1
102
RTVSPost2010Prop41ColorIndex
 90
       18
102
RTVSPost2010Prop41ColorRGB
 90
        0
102
RTVSPost2010PropOp41
 70
     1
102
RTVSPost2010Prop42
 90
       50
102
RTVSPost2010PropOp42
 70
     1
102
RTVSPost2010Prop43
 90
        3
102
RTVSPost2010PropOp43
 70
     1
102
RTVSPost2010Prop44ColorIndex
 90
        5
102
RTVSPost2010Prop44ColorRGB
 90
      255
102
RTVSPost2010PropOp44
 70
     1
102
RTVSPost2010Prop45
280
     0
102
RTVSPost2010PropOp45
 70
     1
102
RTVSPost2010Prop46
 90
       50
102
RTVSPost2010PropOp46
 70
     1
102
RTVSPost2010Prop47
 90
       50
102
RTVSPost2010PropOp47
 70
     1
102
RTVSPost2010Prop48
 90
       50
102
RTVSPost2010PropOp48
 70
     1
102
RTVSPost2010Prop49
280
     0
102
RTVSPost2010PropOp49
 70
     1
102
RTVSPost2010Prop50
 90
       50
102
RTVSPost2010PropOp50
 70
     1
102
RTVSPost2010Prop51ColorIndex
 90
      256
102
RTVSPost2010Prop51ColorRGB
 90
-16777216
102
RTVSPost2010PropOp51
 70
     0
102
RTVSPost2010Prop52
140
1.0
102
RTVSPost2010PropOp52
 70
     0
102
RTVSPost2010Prop53
 90
        2
102
RTVSPost2010PropOp53
 70
     1
102
RTVSPost2010Prop54
  1
strokes_ogs.tif
102
RTVSPost2010PropOp54
 70
     1
102
RTVSPost2010Prop55
280
     0
102
RTVSPost2010PropOp55
 70
     1
102
RTVSPost2010Prop56
140
1.0
102
RTVSPost2010PropOp56
 70
     1
102
RTVSPost2010Prop57
140
1.0
102
RTVSPost2010PropOp57
 70
     1
  0
XRECORD
  5
31B
102
{ACAD_REACTORS
330
31A
102
}
330
31A
100
AcDbXrecord
280
     1
102
RTVSPropertyOp0
 70
     1
102
RTVSPropertyOp1
 70
     1
102
RTVSPropertyOp2
 70
     1
102
RTVSPropertyOp3
 70
     1
102
RTVSPropertyOp4
 70
     1
102
RTVSPropertyOp5
 70
     1
102
RTVSPropertyOp6
 70
     1
102
RTVSPropertyOp7
 70
     1
102
RTVSPropertyOp8
 70
     1
102
RTVSPropertyOp9
 70
     1
102
RTVSPropertyOp10
 70
     1
102
RTVSPropertyOp11
 70
     1
102
RTVSPropertyOp12
 70
     1
102
RTVSPropertyOp13
 70
     1
102
RTVSPropertyOp14
 70
     1
102
RTVSPropertyOp15
 70
     1
102
RTVSPropertyOp16
 70
     1
102
RTVSPropertyOp17
 70
     1
102
RTVSPropertyOp18
 70
     1
102
RTVSPropertyOp19
 70
     1
102
RTVSPropertyOp20
 70
     1
102
RTVSPropertyOp21
 70
     1
102
RTVSPropertyOp22
 70
     1
102
RTVSPropertyOp23
 70
     1
102
RTVSPropertyOp24
 70
     1
102
RTVSPropertyOp25
 70
     1
102
RTVSPropertyOp26
 70
     1
102
RTVSPropertyOp27
 70
     1
102
RTVSPropertyOp28
 70
     1
102
RTVSPropertyOp29
 70
     1
102
RTVSPropertyOp30
 70
     1
102
RTVSPropertyOp31
 70
     1
102
RTVSPropertyOp32
 70
     1
102
RTVSPropertyOp33
 70
     1
102
RTVSPropertyOp34
 70
     1
102
RTVSPropertyOp35
 70
     1
102
RTVSPropertyOp36
 70
     1
102
RTVSPropertyOp37
 70
     1
102
RTVSPropertyOp38
 70
     1
102
RTVSPropertyOp39
 70
     1
102
RTVSPropertyOp40
 70
     1
102
RTVSPropertyOp41
 70
     1
102
RTVSPropertyOp42
 70
     1
102
RTVSPropertyOp43
 70
     1
102
RTVSPropertyOp44
 70
     1
102
RTVSPropertyOp45
 70
     1
102
RTVSPropertyOp46
 70
     1
102
RTVSPropertyOp47
 70
     1
102
RTVSPropertyOp48
 70
     1
102
RTVSPropertyOp49
 70
     1
102
RTVSPropertyOp50
 70
     1
102
RTVSPropertyOp51
 70
     0
102
RTVSPropertyOp52
 70
     0
102
RTVSPropertyOp53
 70
     1
102
RTVSPropertyOp54
 70
     1
102
RTVSPropertyOp55
 70
     1
102
RTVSPropertyOp56
 70
     1
102
RTVSPropertyOp57
 70
     1
102
RTVSPost2010Prop28
280
     0
102
RTVSPost2010PropOp28
 70
     1
102
RTVSPost2010Prop29
280
     1
102
RTVSPost2010PropOp29
 70
     1
102
RTVSPost2010Prop30
280
     1
102
RTVSPost2010PropOp30
 70
     1
102
RTVSPost2010Prop31
280
     0
102
RTVSPost2010PropOp31
 70
     1
102
RTVSPost2010Prop32
280
     0
102
RTVSPost2010PropOp32
 70
     1
102
RTVSPost2010Prop33
280
     0
102
RTVSPost2010PropOp33
 70
     1
102
RTVSPost2010Prop34
280
     0
102
RTVSPost2010PropOp34
 70
     1
102
RTVSPost2010Prop35
280
     0
102
RTVSPost2010PropOp35
 70
     1
102
RTVSPost2010Prop36
280
     0
102
RTVSPost2010PropOp36
 70
     1
102
RTVSPost2010Prop37
 90
       50
102
RTVSPost2010PropOp37
 70
     1
102
RTVSPost2010Prop38
140
0.0
102
RTVSPost2010PropOp38
 70
     1
102
RTVSPost2010Prop39
140
1.0
102
RTVSPost2010PropOp39
 70
     1
102
RTVSPost2010Prop40
 90
        0
102
RTVSPost2010PropOp40
 70
     1
102
RTVSPost2010Prop41ColorIndex
 90
       18
102
RTVSPost2010Prop41ColorRGB
 90
        0
102
RTVSPost2010PropOp41
 70
     1
102
RTVSPost2010Prop42
 90
       50
102
RTVSPost2010PropOp42
 70
     1
102
RTVSPost2010Prop43
 90
        3
102
RTVSPost2010PropOp43
 70
     1
102
RTVSPost2010Prop44ColorIndex
 90
        5
102
RTVSPost2010Prop44ColorRGB
 90
      255
102
RTVSPost2010PropOp44
 70
     1
102
RTVSPost2010Prop45
280
     0
102
RTVSPost2010PropOp45
 70
     1
102
RTVSPost2010Prop46
 90
       50
102
RTVSPost2010PropOp46
 70
     1
102
RTVSPost2010Prop47
 90
       50
102
RTVSPost2010PropOp47
 70
     1
102
RTVSPost2010Prop48
 90
       50
102
RTVSPost2010PropOp48
 70
     1
102
RTVSPost2010Prop49
280
     0
102
RTVSPost2010PropOp49
 70
     1
102
RTVSPost2010Prop50
 90
       50
102
RTVSPost2010PropOp50
 70
     1
102
RTVSPost2010Prop51ColorIndex
 90
      256
102
RTVSPost2010Prop51ColorRGB
 90
-16777216
102
RTVSPost2010PropOp51
 70
     0
102
RTVSPost2010Prop52
140
1.0
102
RTVSPost2010PropOp52
 70
     0
102
RTVSPost2010Prop53
 90
        2
102
RTVSPost2010PropOp53
 70
     1
102
RTVSPost2010Prop54
  1
strokes_ogs.tif
102
RTVSPost2010PropOp54
 70
     1
102
RTVSPost2010Prop55
280
     0
102
RTVSPost2010PropOp55
 70
     1
102
RTVSPost2010Prop56
140
1.0
102
RTVSPost2010PropOp56
 70
     1
102
RTVSPost2010Prop57
140
1.0
102
RTVSPost2010PropOp57
 70
     1
  0
XRECORD
  5
323
102
{ACAD_REACTORS
330
322
102
}
330
322
100
AcDbXrecord
280
     1
102
RTVSPropertyOp0
 70
     1
102
RTVSPropertyOp1
 70
     1
102
RTVSPropertyOp2
 70
     1
102
RTVSPropertyOp3
 70
     1
102
RTVSPropertyOp4
 70
     1
102
RTVSPropertyOp5
 70
     1
102
RTVSPropertyOp6
 70
     1
102
RTVSPropertyOp7
 70
     1
102
RTVSPropertyOp8
 70
     1
102
RTVSPropertyOp9
 70
     1
102
RTVSPropertyOp10
 70
     1
102
RTVSPropertyOp11
 70
     1
102
RTVSPropertyOp12
 70
     1
102
RTVSPropertyOp13
 70
     1
102
RTVSPropertyOp14
 70
     1
102
RTVSPropertyOp15
 70
     1
102
RTVSPropertyOp16
 70
     1
102
RTVSPropertyOp17
 70
     1
102
RTVSPropertyOp18
 70
     1
102
RTVSPropertyOp19
 70
     1
102
RTVSPropertyOp20
 70
     1
102
RTVSPropertyOp21
 70
     1
102
RTVSPropertyOp22
 70
     1
102
RTVSPropertyOp23
 70
     1
102
RTVSPropertyOp24
 70
     1
102
RTVSPropertyOp25
 70
     1
102
RTVSPropertyOp26
 70
     1
102
RTVSPropertyOp27
 70
     1
102
RTVSPropertyOp28
 70
     1
102
RTVSPropertyOp29
 70
     1
102
RTVSPropertyOp30
 70
     1
102
RTVSPropertyOp31
 70
     1
102
RTVSPropertyOp32
 70
     1
102
RTVSPropertyOp33
 70
     1
102
RTVSPropertyOp34
 70
     1
102
RTVSPropertyOp35
 70
     1
102
RTVSPropertyOp36
 70
     1
102
RTVSPropertyOp37
 70
     1
102
RTVSPropertyOp38
 70
     1
102
RTVSPropertyOp39
 70
     1
102
RTVSPropertyOp40
 70
     1
102
RTVSPropertyOp41
 70
     1
102
RTVSPropertyOp42
 70
     1
102
RTVSPropertyOp43
 70
     1
102
RTVSPropertyOp44
 70
     1
102
RTVSPropertyOp45
 70
     1
102
RTVSPropertyOp46
 70
     1
102
RTVSPropertyOp47
 70
     1
102
RTVSPropertyOp48
 70
     1
102
RTVSPropertyOp49
 70
     1
102
RTVSPropertyOp50
 70
     1
102
RTVSPropertyOp51
 70
     0
102
RTVSPropertyOp52
 70
     0
102
RTVSPropertyOp53
 70
     1
102
RTVSPropertyOp54
 70
     1
102
RTVSPropertyOp55
 70
     1
102
RTVSPropertyOp56
 70
     1
102
RTVSPropertyOp57
 70
     1
102
RTVSPost2010Prop28
280
     0
102
RTVSPost2010PropOp28
 70
     1
102
RTVSPost2010Prop29
280
     1
102
RTVSPost2010PropOp29
 70
     1
102
RTVSPost2010Prop30
280
     1
102
RTVSPost2010PropOp30
 70
     1
102
RTVSPost2010Prop31
280
     0
102
RTVSPost2010PropOp31
 70
     1
102
RTVSPost2010Prop32
280
     0
102
RTVSPost2010PropOp32
 70
     1
102
RTVSPost2010Prop33
280
     0
102
RTVSPost2010PropOp33
 70
     1
102
RTVSPost2010Prop34
280
     0
102
RTVSPost2010PropOp34
 70
     1
102
RTVSPost2010Prop35
280
     0
102
RTVSPost2010PropOp35
 70
     1
102
RTVSPost2010Prop36
280
     0
102
RTVSPost2010PropOp36
 70
     1
102
RTVSPost2010Prop37
 90
       50
102
RTVSPost2010PropOp37
 70
     1
102
RTVSPost2010Prop38
140
0.0
102
RTVSPost2010PropOp38
 70
     1
102
RTVSPost2010Prop39
140
1.0
102
RTVSPost2010PropOp39
 70
     1
102
RTVSPost2010Prop40
 90
        0
102
RTVSPost2010PropOp40
 70
     1
102
RTVSPost2010Prop41ColorIndex
 90
       18
102
RTVSPost2010Prop41ColorRGB
 90
        0
102
RTVSPost2010PropOp41
 70
     1
102
RTVSPost2010Prop42
 90
       50
102
RTVSPost2010PropOp42
 70
     1
102
RTVSPost2010Prop43
 90
        3
102
RTVSPost2010PropOp43
 70
     1
102
RTVSPost2010Prop44ColorIndex
 90
        5
102
RTVSPost2010Prop44ColorRGB
 90
      255
102
RTVSPost2010PropOp44
 70
     1
102
RTVSPost2010Prop45
280
     0
102
RTVSPost2010PropOp45
 70
     1
102
RTVSPost2010Prop46
 90
       50
102
RTVSPost2010PropOp46
 70
     1
102
RTVSPost2010Prop47
 90
       50
102
RTVSPost2010PropOp47
 70
     1
102
RTVSPost2010Prop48
 90
       50
102
RTVSPost2010PropOp48
 70
     1
102
RTVSPost2010Prop49
280
     0
102
RTVSPost2010PropOp49
 70
     1
102
RTVSPost2010Prop50
 90
       50
102
RTVSPost2010PropOp50
 70
     1
102
RTVSPost2010Prop51ColorIndex
 90
      256
102
RTVSPost2010Prop51ColorRGB
 90
-16777216
102
RTVSPost2010PropOp51
 70
     0
102
RTVSPost2010Prop52
140
1.0
102
RTVSPost2010PropOp52
 70
     0
102
RTVSPost2010Prop53
 90
        2
102
RTVSPost2010PropOp53
 70
     1
102
RTVSPost2010Prop54
  1
strokes_ogs.tif
102
RTVSPost2010PropOp54
 70
     1
102
RTVSPost2010Prop55
280
     0
102
RTVSPost2010PropOp55
 70
     1
102
RTVSPost2010Prop56
140
1.0
102
RTVSPost2010PropOp56
 70
     1
102
RTVSPost2010Prop57
140
1.0
102
RTVSPost2010PropOp57
 70
     1
  0
XRECORD
  5
32B
102
{ACAD_REACTORS
330
32A
102
}
330
32A
100
AcDbXrecord
280
     1
102
RTVSPropertyOp0
 70
     1
102
RTVSPropertyOp1
 70
     1
102
RTVSPropertyOp2
 70
     1
102
RTVSPropertyOp3
 70
     1
102
RTVSPropertyOp4
 70
     1
102
RTVSPropertyOp5
 70
     1
102
RTVSPropertyOp6
 70
     1
102
RTVSPropertyOp7
 70
     1
102
RTVSPropertyOp8
 70
     1
102
RTVSPropertyOp9
 70
     1
102
RTVSPropertyOp10
 70
     1
102
RTVSPropertyOp11
 70
     1
102
RTVSPropertyOp12
 70
     1
102
RTVSPropertyOp13
 70
     1
102
RTVSPropertyOp14
 70
     1
102
RTVSPropertyOp15
 70
     1
102
RTVSPropertyOp16
 70
     1
102
RTVSPropertyOp17
 70
     1
102
RTVSPropertyOp18
 70
     1
102
RTVSPropertyOp19
 70
     1
102
RTVSPropertyOp20
 70
     1
102
RTVSPropertyOp21
 70
     1
102
RTVSPropertyOp22
 70
     1
102
RTVSPropertyOp23
 70
     1
102
RTVSPropertyOp24
 70
     1
102
RTVSPropertyOp25
 70
     1
102
RTVSPropertyOp26
 70
     1
102
RTVSPropertyOp27
 70
     1
102
RTVSPropertyOp28
 70
     1
102
RTVSPropertyOp29
 70
     1
102
RTVSPropertyOp30
 70
     1
102
RTVSPropertyOp31
 70
     1
102
RTVSPropertyOp32
 70
     1
102
RTVSPropertyOp33
 70
     1
102
RTVSPropertyOp34
 70
     1
102
RTVSPropertyOp35
 70
     1
102
RTVSPropertyOp36
 70
     1
102
RTVSPropertyOp37
 70
     1
102
RTVSPropertyOp38
 70
     1
102
RTVSPropertyOp39
 70
     1
102
RTVSPropertyOp40
 70
     1
102
RTVSPropertyOp41
 70
     1
102
RTVSPropertyOp42
 70
     1
102
RTVSPropertyOp43
 70
     1
102
RTVSPropertyOp44
 70
     1
102
RTVSPropertyOp45
 70
     1
102
RTVSPropertyOp46
 70
     1
102
RTVSPropertyOp47
 70
     1
102
RTVSPropertyOp48
 70
     1
102
RTVSPropertyOp49
 70
     1
102
RTVSPropertyOp50
 70
     1
102
RTVSPropertyOp51
 70
     0
102
RTVSPropertyOp52
 70
     0
102
RTVSPropertyOp53
 70
     1
102
RTVSPropertyOp54
 70
     1
102
RTVSPropertyOp55
 70
     1
102
RTVSPropertyOp56
 70
     1
102
RTVSPropertyOp57
 70
     1
102
RTVSPost2010Prop28
280
     0
102
RTVSPost2010PropOp28
 70
     1
102
RTVSPost2010Prop29
280
     1
102
RTVSPost2010PropOp29
 70
     1
102
RTVSPost2010Prop30
280
     1
102
RTVSPost2010PropOp30
 70
     1
102
RTVSPost2010Prop31
280
     0
102
RTVSPost2010PropOp31
 70
     1
102
RTVSPost2010Prop32
280
     0
102
RTVSPost2010PropOp32
 70
     1
102
RTVSPost2010Prop33
280
     0
102
RTVSPost2010PropOp33
 70
     1
102
RTVSPost2010Prop34
280
     0
102
RTVSPost2010PropOp34
 70
     1
102
RTVSPost2010Prop35
280
     0
102
RTVSPost2010PropOp35
 70
     1
102
RTVSPost2010Prop36
280
     0
102
RTVSPost2010PropOp36
 70
     1
102
RTVSPost2010Prop37
 90
       50
102
RTVSPost2010PropOp37
 70
     1
102
RTVSPost2010Prop38
140
0.0
102
RTVSPost2010PropOp38
 70
     1
102
RTVSPost2010Prop39
140
1.0
102
RTVSPost2010PropOp39
 70
     1
102
RTVSPost2010Prop40
 90
        0
102
RTVSPost2010PropOp40
 70
     1
102
RTVSPost2010Prop41ColorIndex
 90
       18
102
RTVSPost2010Prop41ColorRGB
 90
        0
102
RTVSPost2010PropOp41
 70
     1
102
RTVSPost2010Prop42
 90
       50
102
RTVSPost2010PropOp42
 70
     1
102
RTVSPost2010Prop43
 90
        3
102
RTVSPost2010PropOp43
 70
     1
102
RTVSPost2010Prop44ColorIndex
 90
        5
102
RTVSPost2010Prop44ColorRGB
 90
      255
102
RTVSPost2010PropOp44
 70
     1
102
RTVSPost2010Prop45
280
     0
102
RTVSPost2010PropOp45
 70
     1
102
RTVSPost2010Prop46
 90
       50
102
RTVSPost2010PropOp46
 70
     1
102
RTVSPost2010Prop47
 90
       50
102
RTVSPost2010PropOp47
 70
     1
102
RTVSPost2010Prop48
 90
       50
102
RTVSPost2010PropOp48
 70
     1
102
RTVSPost2010Prop49
280
     0
102
RTVSPost2010PropOp49
 70
     1
102
RTVSPost2010Prop50
 90
       50
102
RTVSPost2010PropOp50
 70
     1
102
RTVSPost2010Prop51ColorIndex
 90
      256
102
RTVSPost2010Prop51ColorRGB
 90
-16777216
102
RTVSPost2010PropOp51
 70
     0
102
RTVSPost2010Prop52
140
1.0
102
RTVSPost2010PropOp52
 70
     0
102
RTVSPost2010Prop53
 90
        2
102
RTVSPost2010PropOp53
 70
     1
102
RTVSPost2010Prop54
  1
strokes_ogs.tif
102
RTVSPost2010PropOp54
 70
     1
102
RTVSPost2010Prop55
280
     0
102
RTVSPost2010PropOp55
 70
     1
102
RTVSPost2010Prop56
140
1.0
102
RTVSPost2010PropOp56
 70
     1
102
RTVSPost2010Prop57
140
1.0
102
RTVSPost2010PropOp57
 70
     1
  0
XRECORD
  5
31F
102
{ACAD_REACTORS
330
31E
102
}
330
31E
100
AcDbXrecord
280
     1
102
RTVSPropertyOp0
 70
     1
102
RTVSPropertyOp1
 70
     1
102
RTVSPropertyOp2
 70
     1
102
RTVSPropertyOp3
 70
     1
102
RTVSPropertyOp4
 70
     1
102
RTVSPropertyOp5
 70
     1
102
RTVSPropertyOp6
 70
     1
102
RTVSPropertyOp7
 70
     1
102
RTVSPropertyOp8
 70
     1
102
RTVSPropertyOp9
 70
     1
102
RTVSPropertyOp10
 70
     1
102
RTVSPropertyOp11
 70
     1
102
RTVSPropertyOp12
 70
     1
102
RTVSPropertyOp13
 70
     1
102
RTVSPropertyOp14
 70
     1
102
RTVSPropertyOp15
 70
     1
102
RTVSPropertyOp16
 70
     1
102
RTVSPropertyOp17
 70
     1
102
RTVSPropertyOp18
 70
     1
102
RTVSPropertyOp19
 70
     1
102
RTVSPropertyOp20
 70
     1
102
RTVSPropertyOp21
 70
     1
102
RTVSPropertyOp22
 70
     1
102
RTVSPropertyOp23
 70
     1
102
RTVSPropertyOp24
 70
     1
102
RTVSPropertyOp25
 70
     1
102
RTVSPropertyOp26
 70
     1
102
RTVSPropertyOp27
 70
     1
102
RTVSPropertyOp28
 70
     1
102
RTVSPropertyOp29
 70
     1
102
RTVSPropertyOp30
 70
     1
102
RTVSPropertyOp31
 70
     1
102
RTVSPropertyOp32
 70
     1
102
RTVSPropertyOp33
 70
     1
102
RTVSPropertyOp34
 70
     1
102
RTVSPropertyOp35
 70
     1
102
RTVSPropertyOp36
 70
     1
102
RTVSPropertyOp37
 70
     1
102
RTVSPropertyOp38
 70
     1
102
RTVSPropertyOp39
 70
     1
102
RTVSPropertyOp40
 70
     1
102
RTVSPropertyOp41
 70
     1
102
RTVSPropertyOp42
 70
     1
102
RTVSPropertyOp43
 70
     1
102
RTVSPropertyOp44
 70
     1
102
RTVSPropertyOp45
 70
     1
102
RTVSPropertyOp46
 70
     1
102
RTVSPropertyOp47
 70
     1
102
RTVSPropertyOp48
 70
     1
102
RTVSPropertyOp49
 70
     1
102
RTVSPropertyOp50
 70
     1
102
RTVSPropertyOp51
 70
     0
102
RTVSPropertyOp52
 70
     0
102
RTVSPropertyOp53
 70
     1
102
RTVSPropertyOp54
 70
     1
102
RTVSPropertyOp55
 70
     1
102
RTVSPropertyOp56
 70
     1
102
RTVSPropertyOp57
 70
     1
102
RTVSPost2010Prop28
280
     0
102
RTVSPost2010PropOp28
 70
     1
102
RTVSPost2010Prop29
280
     1
102
RTVSPost2010PropOp29
 70
     1
102
RTVSPost2010Prop30
280
     1
102
RTVSPost2010PropOp30
 70
     1
102
RTVSPost2010Prop31
280
     0
102
RTVSPost2010PropOp31
 70
     1
102
RTVSPost2010Prop32
280
     0
102
RTVSPost2010PropOp32
 70
     1
102
RTVSPost2010Prop33
280
     0
102
RTVSPost2010PropOp33
 70
     1
102
RTVSPost2010Prop34
280
     0
102
RTVSPost2010PropOp34
 70
     1
102
RTVSPost2010Prop35
280
     0
102
RTVSPost2010PropOp35
 70
     1
102
RTVSPost2010Prop36
280
     0
102
RTVSPost2010PropOp36
 70
     1
102
RTVSPost2010Prop37
 90
       50
102
RTVSPost2010PropOp37
 70
     1
102
RTVSPost2010Prop38
140
0.0
102
RTVSPost2010PropOp38
 70
     1
102
RTVSPost2010Prop39
140
1.0
102
RTVSPost2010PropOp39
 70
     1
102
RTVSPost2010Prop40
 90
        0
102
RTVSPost2010PropOp40
 70
     1
102
RTVSPost2010Prop41ColorIndex
 90
       18
102
RTVSPost2010Prop41ColorRGB
 90
        0
102
RTVSPost2010PropOp41
 70
     1
102
RTVSPost2010Prop42
 90
       50
102
RTVSPost2010PropOp42
 70
     1
102
RTVSPost2010Prop43
 90
        3
102
RTVSPost2010PropOp43
 70
     1
102
RTVSPost2010Prop44ColorIndex
 90
        5
102
RTVSPost2010Prop44ColorRGB
 90
      255
102
RTVSPost2010PropOp44
 70
     1
102
RTVSPost2010Prop45
280
     0
102
RTVSPost2010PropOp45
 70
     1
102
RTVSPost2010Prop46
 90
       50
102
RTVSPost2010PropOp46
 70
     1
102
RTVSPost2010Prop47
 90
       50
102
RTVSPost2010PropOp47
 70
     1
102
RTVSPost2010Prop48
 90
       50
102
RTVSPost2010PropOp48
 70
     1
102
RTVSPost2010Prop49
280
     0
102
RTVSPost2010PropOp49
 70
     1
102
RTVSPost2010Prop50
 90
       50
102
RTVSPost2010PropOp50
 70
     1
102
RTVSPost2010Prop51ColorIndex
 90
      256
102
RTVSPost2010Prop51ColorRGB
 90
-16777216
102
RTVSPost2010PropOp51
 70
     0
102
RTVSPost2010Prop52
140
1.0
102
RTVSPost2010PropOp52
 70
     0
102
RTVSPost2010Prop53
 90
        2
102
RTVSPost2010PropOp53
 70
     1
102
RTVSPost2010Prop54
  1
strokes_ogs.tif
102
RTVSPost2010PropOp54
 70
     1
102
RTVSPost2010Prop55
280
     0
102
RTVSPost2010PropOp55
 70
     1
102
RTVSPost2010Prop56
140
1.0
102
RTVSPost2010PropOp56
 70
     1
102
RTVSPost2010Prop57
140
1.0
102
RTVSPost2010PropOp57
 70
     1
  0
XRECORD
  5
321
102
{ACAD_REACTORS
330
320
102
}
330
320
100
AcDbXrecord
280
     1
102
RTVSPropertyOp0
 70
     1
102
RTVSPropertyOp1
 70
     1
102
RTVSPropertyOp2
 70
     1
102
RTVSPropertyOp3
 70
     1
102
RTVSPropertyOp4
 70
     1
102
RTVSPropertyOp5
 70
     1
102
RTVSPropertyOp6
 70
     1
102
RTVSPropertyOp7
 70
     1
102
RTVSPropertyOp8
 70
     1
102
RTVSPropertyOp9
 70
     1
102
RTVSPropertyOp10
 70
     1
102
RTVSPropertyOp11
 70
     1
102
RTVSPropertyOp12
 70
     1
102
RTVSPropertyOp13
 70
     1
102
RTVSPropertyOp14
 70
     1
102
RTVSPropertyOp15
 70
     1
102
RTVSPropertyOp16
 70
     1
102
RTVSPropertyOp17
 70
     1
102
RTVSPropertyOp18
 70
     1
102
RTVSPropertyOp19
 70
     1
102
RTVSPropertyOp20
 70
     1
102
RTVSPropertyOp21
 70
     1
102
RTVSPropertyOp22
 70
     1
102
RTVSPropertyOp23
 70
     1
102
RTVSPropertyOp24
 70
     1
102
RTVSPropertyOp25
 70
     1
102
RTVSPropertyOp26
 70
     1
102
RTVSPropertyOp27
 70
     1
102
RTVSPropertyOp28
 70
     1
102
RTVSPropertyOp29
 70
     1
102
RTVSPropertyOp30
 70
     1
102
RTVSPropertyOp31
 70
     1
102
RTVSPropertyOp32
 70
     1
102
RTVSPropertyOp33
 70
     1
102
RTVSPropertyOp34
 70
     1
102
RTVSPropertyOp35
 70
     1
102
RTVSPropertyOp36
 70
     1
102
RTVSPropertyOp37
 70
     1
102
RTVSPropertyOp38
 70
     1
102
RTVSPropertyOp39
 70
     1
102
RTVSPropertyOp40
 70
     1
102
RTVSPropertyOp41
 70
     1
102
RTVSPropertyOp42
 70
     1
102
RTVSPropertyOp43
 70
     1
102
RTVSPropertyOp44
 70
     1
102
RTVSPropertyOp45
 70
     1
102
RTVSPropertyOp46
 70
     1
102
RTVSPropertyOp47
 70
     1
102
RTVSPropertyOp48
 70
     1
102
RTVSPropertyOp49
 70
     1
102
RTVSPropertyOp50
 70
     1
102
RTVSPropertyOp51
 70
     0
102
RTVSPropertyOp52
 70
     0
102
RTVSPropertyOp53
 70
     1
102
RTVSPropertyOp54
 70
     1
102
RTVSPropertyOp55
 70
     1
102
RTVSPropertyOp56
 70
     1
102
RTVSPropertyOp57
 70
     1
102
RTVSPost2010Prop28
280
     0
102
RTVSPost2010PropOp28
 70
     1
102
RTVSPost2010Prop29
280
     1
102
RTVSPost2010PropOp29
 70
     1
102
RTVSPost2010Prop30
280
     1
102
RTVSPost2010PropOp30
 70
     1
102
RTVSPost2010Prop31
280
     0
102
RTVSPost2010PropOp31
 70
     1
102
RTVSPost2010Prop32
280
     0
102
RTVSPost2010PropOp32
 70
     1
102
RTVSPost2010Prop33
280
     0
102
RTVSPost2010PropOp33
 70
     1
102
RTVSPost2010Prop34
280
     0
102
RTVSPost2010PropOp34
 70
     1
102
RTVSPost2010Prop35
280
     0
102
RTVSPost2010PropOp35
 70
     1
102
RTVSPost2010Prop36
280
     0
102
RTVSPost2010PropOp36
 70
     1
102
RTVSPost2010Prop37
 90
       50
102
RTVSPost2010PropOp37
 70
     1
102
RTVSPost2010Prop38
140
0.0
102
RTVSPost2010PropOp38
 70
     1
102
RTVSPost2010Prop39
140
1.0
102
RTVSPost2010PropOp39
 70
     1
102
RTVSPost2010Prop40
 90
        0
102
RTVSPost2010PropOp40
 70
     1
102
RTVSPost2010Prop41ColorIndex
 90
       18
102
RTVSPost2010Prop41ColorRGB
 90
        0
102
RTVSPost2010PropOp41
 70
     1
102
RTVSPost2010Prop42
 90
       50
102
RTVSPost2010PropOp42
 70
     1
102
RTVSPost2010Prop43
 90
        3
102
RTVSPost2010PropOp43
 70
     1
102
RTVSPost2010Prop44ColorIndex
 90
        5
102
RTVSPost2010Prop44ColorRGB
 90
      255
102
RTVSPost2010PropOp44
 70
     1
102
RTVSPost2010Prop45
280
     0
102
RTVSPost2010PropOp45
 70
     1
102
RTVSPost2010Prop46
 90
       50
102
RTVSPost2010PropOp46
 70
     1
102
RTVSPost2010Prop47
 90
       50
102
RTVSPost2010PropOp47
 70
     1
102
RTVSPost2010Prop48
 90
       50
102
RTVSPost2010PropOp48
 70
     1
102
RTVSPost2010Prop49
280
     0
102
RTVSPost2010PropOp49
 70
     1
102
RTVSPost2010Prop50
 90
       50
102
RTVSPost2010PropOp50
 70
     1
102
RTVSPost2010Prop51ColorIndex
 90
      256
102
RTVSPost2010Prop51ColorRGB
 90
-16777216
102
RTVSPost2010PropOp51
 70
     0
102
RTVSPost2010Prop52
140
1.0
102
RTVSPost2010PropOp52
 70
     0
102
RTVSPost2010Prop53
 90
        2
102
RTVSPost2010PropOp53
 70
     1
102
RTVSPost2010Prop54
  1
strokes_ogs.tif
102
RTVSPost2010PropOp54
 70
     1
102
RTVSPost2010Prop55
280
     0
102
RTVSPost2010PropOp55
 70
     1
102
RTVSPost2010Prop56
140
1.0
102
RTVSPost2010PropOp56
 70
     1
102
RTVSPost2010Prop57
140
1.0
102
RTVSPost2010PropOp57
 70
     1
  0
XRECORD
  5
331
102
{ACAD_REACTORS
330
330
102
}
330
330
100
AcDbXrecord
280
     1
102
RTVSPropertyOp0
 70
     0
102
RTVSPropertyOp1
 70
     0
102
RTVSPropertyOp2
 70
     0
102
RTVSPropertyOp3
 70
     0
102
RTVSPropertyOp4
 70
     0
102
RTVSPropertyOp5
 70
     0
102
RTVSPropertyOp6
 70
     0
102
RTVSPropertyOp7
 70
     0
102
RTVSPropertyOp8
 70
     0
102
RTVSPropertyOp9
 70
     0
102
RTVSPropertyOp10
 70
     0
102
RTVSPropertyOp11
 70
     0
102
RTVSPropertyOp12
 70
     0
102
RTVSPropertyOp13
 70
     0
102
RTVSPropertyOp14
 70
     2
102
RTVSPropertyOp15
 70
     0
102
RTVSPropertyOp16
 70
     0
102
RTVSPropertyOp17
 70
     0
102
RTVSPropertyOp18
 70
     0
102
RTVSPropertyOp19
 70
     0
102
RTVSPropertyOp20
 70
     0
102
RTVSPropertyOp21
 70
     0
102
RTVSPropertyOp22
 70
     0
102
RTVSPropertyOp23
 70
     0
102
RTVSPropertyOp24
 70
     0
102
RTVSPropertyOp25
 70
     0
102
RTVSPropertyOp26
 70
     0
102
RTVSPropertyOp27
 70
     0
102
RTVSPropertyOp28
 70
     0
102
RTVSPropertyOp29
 70
     0
102
RTVSPropertyOp30
 70
     0
102
RTVSPropertyOp31
 70
     0
102
RTVSPropertyOp32
 70
     0
102
RTVSPropertyOp33
 70
     0
102
RTVSPropertyOp34
 70
     0
102
RTVSPropertyOp35
 70
     0
102
RTVSPropertyOp36
 70
     0
102
RTVSPropertyOp37
 70
     0
102
RTVSPropertyOp38
 70
     0
102
RTVSPropertyOp39
 70
     0
102
RTVSPropertyOp40
 70
     0
102
RTVSPropertyOp41
 70
     0
102
RTVSPropertyOp42
 70
     0
102
RTVSPropertyOp43
 70
     0
102
RTVSPropertyOp44
 70
     0
102
RTVSPropertyOp45
 70
     0
102
RTVSPropertyOp46
 70
     0
102
RTVSPropertyOp47
 70
     0
102
RTVSPropertyOp48
 70
     0
102
RTVSPropertyOp49
 70
     0
102
RTVSPropertyOp50
 70
     0
102
RTVSPropertyOp51
 70
     0
102
RTVSPropertyOp52
 70
     0
102
RTVSPropertyOp53
 70
     0
102
RTVSPropertyOp54
 70
     0
102
RTVSPropertyOp55
 70
     0
102
RTVSPropertyOp56
 70
     0
102
RTVSPropertyOp57
 70
     0
102
RTVSPost2010Prop28
280
     0
102
RTVSPost2010PropOp28
 70
     0
102
RTVSPost2010Prop29
280
     1
102
RTVSPost2010PropOp29
 70
     0
102
RTVSPost2010Prop30
280
     1
102
RTVSPost2010PropOp30
 70
     0
102
RTVSPost2010Prop31
280
     0
102
RTVSPost2010PropOp31
 70
     0
102
RTVSPost2010Prop32
280
     0
102
RTVSPost2010PropOp32
 70
     0
102
RTVSPost2010Prop33
280
     0
102
RTVSPost2010PropOp33
 70
     0
102
RTVSPost2010Prop34
280
     0
102
RTVSPost2010PropOp34
 70
     0
102
RTVSPost2010Prop35
280
     0
102
RTVSPost2010PropOp35
 70
     0
102
RTVSPost2010Prop36
280
     0
102
RTVSPost2010PropOp36
 70
     0
102
RTVSPost2010Prop37
 90
       50
102
RTVSPost2010PropOp37
 70
     0
102
RTVSPost2010Prop38
140
0.0
102
RTVSPost2010PropOp38
 70
     0
102
RTVSPost2010Prop39
140
1.0
102
RTVSPost2010PropOp39
 70
     0
102
RTVSPost2010Prop40
 90
        0
102
RTVSPost2010PropOp40
 70
     0
102
RTVSPost2010Prop41ColorIndex
 90
       18
102
RTVSPost2010Prop41ColorRGB
 90
        0
102
RTVSPost2010PropOp41
 70
     0
102
RTVSPost2010Prop42
 90
       50
102
RTVSPost2010PropOp42
 70
     0
102
RTVSPost2010Prop43
 90
        3
102
RTVSPost2010PropOp43
 70
     0
102
RTVSPost2010Prop44ColorIndex
 90
        5
102
RTVSPost2010Prop44ColorRGB
 90
      255
102
RTVSPost2010PropOp44
 70
     0
102
RTVSPost2010Prop45
280
     0
102
RTVSPost2010PropOp45
 70
     0
102
RTVSPost2010Prop46
 90
       50
102
RTVSPost2010PropOp46
 70
     0
102
RTVSPost2010Prop47
 90
       50
102
RTVSPost2010PropOp47
 70
     0
102
RTVSPost2010Prop48
 90
       50
102
RTVSPost2010PropOp48
 70
     0
102
RTVSPost2010Prop49
280
     0
102
RTVSPost2010PropOp49
 70
     0
102
RTVSPost2010Prop50
 90
       50
102
RTVSPost2010PropOp50
 70
     0
102
RTVSPost2010Prop51ColorIndex
 90
      256
102
RTVSPost2010Prop51ColorRGB
 90
-16777216
102
RTVSPost2010PropOp51
 70
     0
102
RTVSPost2010Prop52
140
1.0
102
RTVSPost2010PropOp52
 70
     0
102
RTVSPost2010Prop53
 90
        2
102
RTVSPost2010PropOp53
 70
     0
102
RTVSPost2010Prop54
  1
strokes_ogs.tif
102
RTVSPost2010PropOp54
 70
     0
102
RTVSPost2010Prop55
280
     0
102
RTVSPost2010PropOp55
 70
     0
102
RTVSPost2010Prop56
140
1.0
102
RTVSPost2010PropOp56
 70
     0
102
RTVSPost2010Prop57
140
1.0
102
RTVSPost2010PropOp57
 70
     0
  0
XRECORD
  5
329
102
{ACAD_REACTORS
330
328
102
}
330
328
100
AcDbXrecord
280
     1
102
RTVSPropertyOp0
 70
     1
102
RTVSPropertyOp1
 70
     1
102
RTVSPropertyOp2
 70
     1
102
RTVSPropertyOp3
 70
     1
102
RTVSPropertyOp4
 70
     1
102
RTVSPropertyOp5
 70
     1
102
RTVSPropertyOp6
 70
     1
102
RTVSPropertyOp7
 70
     1
102
RTVSPropertyOp8
 70
     1
102
RTVSPropertyOp9
 70
     1
102
RTVSPropertyOp10
 70
     1
102
RTVSPropertyOp11
 70
     1
102
RTVSPropertyOp12
 70
     1
102
RTVSPropertyOp13
 70
     1
102
RTVSPropertyOp14
 70
     1
102
RTVSPropertyOp15
 70
     1
102
RTVSPropertyOp16
 70
     1
102
RTVSPropertyOp17
 70
     1
102
RTVSPropertyOp18
 70
     1
102
RTVSPropertyOp19
 70
     1
102
RTVSPropertyOp20
 70
     1
102
RTVSPropertyOp21
 70
     1
102
RTVSPropertyOp22
 70
     1
102
RTVSPropertyOp23
 70
     1
102
RTVSPropertyOp24
 70
     1
102
RTVSPropertyOp25
 70
     1
102
RTVSPropertyOp26
 70
     1
102
RTVSPropertyOp27
 70
     1
102
RTVSPropertyOp28
 70
     1
102
RTVSPropertyOp29
 70
     1
102
RTVSPropertyOp30
 70
     1
102
RTVSPropertyOp31
 70
     1
102
RTVSPropertyOp32
 70
     1
102
RTVSPropertyOp33
 70
     1
102
RTVSPropertyOp34
 70
     1
102
RTVSPropertyOp35
 70
     1
102
RTVSPropertyOp36
 70
     1
102
RTVSPropertyOp37
 70
     1
102
RTVSPropertyOp38
 70
     1
102
RTVSPropertyOp39
 70
     1
102
RTVSPropertyOp40
 70
     1
102
RTVSPropertyOp41
 70
     1
102
RTVSPropertyOp42
 70
     1
102
RTVSPropertyOp43
 70
     1
102
RTVSPropertyOp44
 70
     1
102
RTVSPropertyOp45
 70
     1
102
RTVSPropertyOp46
 70
     1
102
RTVSPropertyOp47
 70
     1
102
RTVSPropertyOp48
 70
     1
102
RTVSPropertyOp49
 70
     1
102
RTVSPropertyOp50
 70
     1
102
RTVSPropertyOp51
 70
     0
102
RTVSPropertyOp52
 70
     0
102
RTVSPropertyOp53
 70
     1
102
RTVSPropertyOp54
 70
     1
102
RTVSPropertyOp55
 70
     1
102
RTVSPropertyOp56
 70
     1
102
RTVSPropertyOp57
 70
     1
102
RTVSPost2010Prop28
280
     0
102
RTVSPost2010PropOp28
 70
     1
102
RTVSPost2010Prop29
280
     1
102
RTVSPost2010PropOp29
 70
     1
102
RTVSPost2010Prop30
280
     1
102
RTVSPost2010PropOp30
 70
     1
102
RTVSPost2010Prop31
280
     0
102
RTVSPost2010PropOp31
 70
     1
102
RTVSPost2010Prop32
280
     0
102
RTVSPost2010PropOp32
 70
     1
102
RTVSPost2010Prop33
280
     0
102
RTVSPost2010PropOp33
 70
     1
102
RTVSPost2010Prop34
280
     0
102
RTVSPost2010PropOp34
 70
     1
102
RTVSPost2010Prop35
280
     0
102
RTVSPost2010PropOp35
 70
     1
102
RTVSPost2010Prop36
280
     0
102
RTVSPost2010PropOp36
 70
     1
102
RTVSPost2010Prop37
 90
       50
102
RTVSPost2010PropOp37
 70
     1
102
RTVSPost2010Prop38
140
0.0
102
RTVSPost2010PropOp38
 70
     1
102
RTVSPost2010Prop39
140
1.0
102
RTVSPost2010PropOp39
 70
     1
102
RTVSPost2010Prop40
 90
        0
102
RTVSPost2010PropOp40
 70
     1
102
RTVSPost2010Prop41ColorIndex
 90
       18
102
RTVSPost2010Prop41ColorRGB
 90
        0
102
RTVSPost2010PropOp41
 70
     1
102
RTVSPost2010Prop42
 90
       50
102
RTVSPost2010PropOp42
 70
     1
102
RTVSPost2010Prop43
 90
        3
102
RTVSPost2010PropOp43
 70
     1
102
RTVSPost2010Prop44ColorIndex
 90
        5
102
RTVSPost2010Prop44ColorRGB
 90
      255
102
RTVSPost2010PropOp44
 70
     1
102
RTVSPost2010Prop45
280
     0
102
RTVSPost2010PropOp45
 70
     1
102
RTVSPost2010Prop46
 90
       50
102
RTVSPost2010PropOp46
 70
     1
102
RTVSPost2010Prop47
 90
       50
102
RTVSPost2010PropOp47
 70
     1
102
RTVSPost2010Prop48
 90
       50
102
RTVSPost2010PropOp48
 70
     1
102
RTVSPost2010Prop49
280
     0
102
RTVSPost2010PropOp49
 70
     1
102
RTVSPost2010Prop50
 90
       50
102
RTVSPost2010PropOp50
 70
     1
102
RTVSPost2010Prop51ColorIndex
 90
      256
102
RTVSPost2010Prop51ColorRGB
 90
-16777216
102
RTVSPost2010PropOp51
 70
     0
102
RTVSPost2010Prop52
140
1.0
102
RTVSPost2010PropOp52
 70
     0
102
RTVSPost2010Prop53
 90
        2
102
RTVSPost2010PropOp53
 70
     1
102
RTVSPost2010Prop54
  1
strokes_ogs.tif
102
RTVSPost2010PropOp54
 70
     1
102
RTVSPost2010Prop55
280
     0
102
RTVSPost2010PropOp55
 70
     1
102
RTVSPost2010Prop56
140
1.0
102
RTVSPost2010PropOp56
 70
     1
102
RTVSPost2010Prop57
140
1.0
102
RTVSPost2010PropOp57
 70
     1
  0
XRECORD
  5
30D
102
{ACAD_REACTORS
330
30C
102
}
330
30C
100
AcDbXrecord
280
     1
102
RTVSPropertyOp0
 70
     1
102
RTVSPropertyOp1
 70
     1
102
RTVSPropertyOp2
 70
     1
102
RTVSPropertyOp3
 70
     1
102
RTVSPropertyOp4
 70
     1
102
RTVSPropertyOp5
 70
     1
102
RTVSPropertyOp6
 70
     1
102
RTVSPropertyOp7
 70
     1
102
RTVSPropertyOp8
 70
     1
102
RTVSPropertyOp9
 70
     1
102
RTVSPropertyOp10
 70
     1
102
RTVSPropertyOp11
 70
     1
102
RTVSPropertyOp12
 70
     1
102
RTVSPropertyOp13
 70
     1
102
RTVSPropertyOp14
 70
     1
102
RTVSPropertyOp15
 70
     1
102
RTVSPropertyOp16
 70
     1
102
RTVSPropertyOp17
 70
     1
102
RTVSPropertyOp18
 70
     1
102
RTVSPropertyOp19
 70
     1
102
RTVSPropertyOp20
 70
     1
102
RTVSPropertyOp21
 70
     1
102
RTVSPropertyOp22
 70
     1
102
RTVSPropertyOp23
 70
     1
102
RTVSPropertyOp24
 70
     1
102
RTVSPropertyOp25
 70
     1
102
RTVSPropertyOp26
 70
     1
102
RTVSPropertyOp27
 70
     1
102
RTVSPropertyOp28
 70
     1
102
RTVSPropertyOp29
 70
     1
102
RTVSPropertyOp30
 70
     1
102
RTVSPropertyOp31
 70
     1
102
RTVSPropertyOp32
 70
     1
102
RTVSPropertyOp33
 70
     1
102
RTVSPropertyOp34
 70
     1
102
RTVSPropertyOp35
 70
     1
102
RTVSPropertyOp36
 70
     1
102
RTVSPropertyOp37
 70
     1
102
RTVSPropertyOp38
 70
     1
102
RTVSPropertyOp39
 70
     1
102
RTVSPropertyOp40
 70
     1
102
RTVSPropertyOp41
 70
     1
102
RTVSPropertyOp42
 70
     1
102
RTVSPropertyOp43
 70
     1
102
RTVSPropertyOp44
 70
     1
102
RTVSPropertyOp45
 70
     1
102
RTVSPropertyOp46
 70
     1
102
RTVSPropertyOp47
 70
     1
102
RTVSPropertyOp48
 70
     1
102
RTVSPropertyOp49
 70
     1
102
RTVSPropertyOp50
 70
     1
102
RTVSPropertyOp51
 70
     0
102
RTVSPropertyOp52
 70
     0
102
RTVSPropertyOp53
 70
     1
102
RTVSPropertyOp54
 70
     1
102
RTVSPropertyOp55
 70
     1
102
RTVSPropertyOp56
 70
     1
102
RTVSPropertyOp57
 70
     1
102
RTVSPost2010Prop28
280
     0
102
RTVSPost2010PropOp28
 70
     1
102
RTVSPost2010Prop29
280
     1
102
RTVSPost2010PropOp29
 70
     1
102
RTVSPost2010Prop30
280
     1
102
RTVSPost2010PropOp30
 70
     1
102
RTVSPost2010Prop31
280
     0
102
RTVSPost2010PropOp31
 70
     1
102
RTVSPost2010Prop32
280
     0
102
RTVSPost2010PropOp32
 70
     1
102
RTVSPost2010Prop33
280
     0
102
RTVSPost2010PropOp33
 70
     1
102
RTVSPost2010Prop34
280
     0
102
RTVSPost2010PropOp34
 70
     1
102
RTVSPost2010Prop35
280
     0
102
RTVSPost2010PropOp35
 70
     1
102
RTVSPost2010Prop36
280
     0
102
RTVSPost2010PropOp36
 70
     1
102
RTVSPost2010Prop37
 90
       50
102
RTVSPost2010PropOp37
 70
     1
102
RTVSPost2010Prop38
140
0.0
102
RTVSPost2010PropOp38
 70
     1
102
RTVSPost2010Prop39
140
1.0
102
RTVSPost2010PropOp39
 70
     1
102
RTVSPost2010Prop40
 90
        0
102
RTVSPost2010PropOp40
 70
     1
102
RTVSPost2010Prop41ColorIndex
 90
       18
102
RTVSPost2010Prop41ColorRGB
 90
        0
102
RTVSPost2010PropOp41
 70
     1
102
RTVSPost2010Prop42
 90
       50
102
RTVSPost2010PropOp42
 70
     1
102
RTVSPost2010Prop43
 90
        3
102
RTVSPost2010PropOp43
 70
     1
102
RTVSPost2010Prop44ColorIndex
 90
        5
102
RTVSPost2010Prop44ColorRGB
 90
      255
102
RTVSPost2010PropOp44
 70
     1
102
RTVSPost2010Prop45
280
     0
102
RTVSPost2010PropOp45
 70
     1
102
RTVSPost2010Prop46
 90
       50
102
RTVSPost2010PropOp46
 70
     1
102
RTVSPost2010Prop47
 90
       50
102
RTVSPost2010PropOp47
 70
     1
102
RTVSPost2010Prop48
 90
       50
102
RTVSPost2010PropOp48
 70
     1
102
RTVSPost2010Prop49
280
     0
102
RTVSPost2010PropOp49
 70
     1
102
RTVSPost2010Prop50
 90
       50
102
RTVSPost2010PropOp50
 70
     1
102
RTVSPost2010Prop51ColorIndex
 90
      256
102
RTVSPost2010Prop51ColorRGB
 90
-16777216
102
RTVSPost2010PropOp51
 70
     0
102
RTVSPost2010Prop52
140
1.0
102
RTVSPost2010PropOp52
 70
     0
102
RTVSPost2010Prop53
 90
        2
102
RTVSPost2010PropOp53
 70
     1
102
RTVSPost2010Prop54
  1
strokes_ogs.tif
102
RTVSPost2010PropOp54
 70
     1
102
RTVSPost2010Prop55
280
     0
102
RTVSPost2010PropOp55
 70
     1
102
RTVSPost2010Prop56
140
1.0
102
RTVSPost2010PropOp56
 70
     1
102
RTVSPost2010Prop57
140
1.0
102
RTVSPost2010PropOp57
 70
     1
  0
XRECORD
  5
30F
102
{ACAD_REACTORS
330
30E
102
}
330
30E
100
AcDbXrecord
280
     1
102
RTVSPropertyOp0
 70
     1
102
RTVSPropertyOp1
 70
     1
102
RTVSPropertyOp2
 70
     1
102
RTVSPropertyOp3
 70
     1
102
RTVSPropertyOp4
 70
     1
102
RTVSPropertyOp5
 70
     1
102
RTVSPropertyOp6
 70
     1
102
RTVSPropertyOp7
 70
     1
102
RTVSPropertyOp8
 70
     1
102
RTVSPropertyOp9
 70
     1
102
RTVSPropertyOp10
 70
     1
102
RTVSPropertyOp11
 70
     1
102
RTVSPropertyOp12
 70
     1
102
RTVSPropertyOp13
 70
     1
102
RTVSPropertyOp14
 70
     1
102
RTVSPropertyOp15
 70
     1
102
RTVSPropertyOp16
 70
     1
102
RTVSPropertyOp17
 70
     1
102
RTVSPropertyOp18
 70
     1
102
RTVSPropertyOp19
 70
     1
102
RTVSPropertyOp20
 70
     1
102
RTVSPropertyOp21
 70
     1
102
RTVSPropertyOp22
 70
     1
102
RTVSPropertyOp23
 70
     1
102
RTVSPropertyOp24
 70
     1
102
RTVSPropertyOp25
 70
     1
102
RTVSPropertyOp26
 70
     1
102
RTVSPropertyOp27
 70
     1
102
RTVSPropertyOp28
 70
     1
102
RTVSPropertyOp29
 70
     1
102
RTVSPropertyOp30
 70
     1
102
RTVSPropertyOp31
 70
     1
102
RTVSPropertyOp32
 70
     1
102
RTVSPropertyOp33
 70
     1
102
RTVSPropertyOp34
 70
     1
102
RTVSPropertyOp35
 70
     1
102
RTVSPropertyOp36
 70
     1
102
RTVSPropertyOp37
 70
     1
102
RTVSPropertyOp38
 70
     1
102
RTVSPropertyOp39
 70
     1
102
RTVSPropertyOp40
 70
     1
102
RTVSPropertyOp41
 70
     1
102
RTVSPropertyOp42
 70
     1
102
RTVSPropertyOp43
 70
     1
102
RTVSPropertyOp44
 70
     1
102
RTVSPropertyOp45
 70
     1
102
RTVSPropertyOp46
 70
     1
102
RTVSPropertyOp47
 70
     1
102
RTVSPropertyOp48
 70
     1
102
RTVSPropertyOp49
 70
     1
102
RTVSPropertyOp50
 70
     1
102
RTVSPropertyOp51
 70
     0
102
RTVSPropertyOp52
 70
     0
102
RTVSPropertyOp53
 70
     1
102
RTVSPropertyOp54
 70
     1
102
RTVSPropertyOp55
 70
     1
102
RTVSPropertyOp56
 70
     1
102
RTVSPropertyOp57
 70
     1
102
RTVSPost2010Prop28
280
     0
102
RTVSPost2010PropOp28
 70
     1
102
RTVSPost2010Prop29
280
     1
102
RTVSPost2010PropOp29
 70
     1
102
RTVSPost2010Prop30
280
     1
102
RTVSPost2010PropOp30
 70
     1
102
RTVSPost2010Prop31
280
     0
102
RTVSPost2010PropOp31
 70
     1
102
RTVSPost2010Prop32
280
     0
102
RTVSPost2010PropOp32
 70
     1
102
RTVSPost2010Prop33
280
     0
102
RTVSPost2010PropOp33
 70
     1
102
RTVSPost2010Prop34
280
     0
102
RTVSPost2010PropOp34
 70
     1
102
RTVSPost2010Prop35
280
     0
102
RTVSPost2010PropOp35
 70
     1
102
RTVSPost2010Prop36
280
     0
102
RTVSPost2010PropOp36
 70
     1
102
RTVSPost2010Prop37
 90
       50
102
RTVSPost2010PropOp37
 70
     1
102
RTVSPost2010Prop38
140
0.0
102
RTVSPost2010PropOp38
 70
     1
102
RTVSPost2010Prop39
140
1.0
102
RTVSPost2010PropOp39
 70
     1
102
RTVSPost2010Prop40
 90
        0
102
RTVSPost2010PropOp40
 70
     1
102
RTVSPost2010Prop41ColorIndex
 90
       18
102
RTVSPost2010Prop41ColorRGB
 90
        0
102
RTVSPost2010PropOp41
 70
     1
102
RTVSPost2010Prop42
 90
       50
102
RTVSPost2010PropOp42
 70
     1
102
RTVSPost2010Prop43
 90
        3
102
RTVSPost2010PropOp43
 70
     1
102
RTVSPost2010Prop44ColorIndex
 90
        5
102
RTVSPost2010Prop44ColorRGB
 90
      255
102
RTVSPost2010PropOp44
 70
     1
102
RTVSPost2010Prop45
280
     0
102
RTVSPost2010PropOp45
 70
     1
102
RTVSPost2010Prop46
 90
       50
102
RTVSPost2010PropOp46
 70
     1
102
RTVSPost2010Prop47
 90
       50
102
RTVSPost2010PropOp47
 70
     1
102
RTVSPost2010Prop48
 90
       50
102
RTVSPost2010PropOp48
 70
     1
102
RTVSPost2010Prop49
280
     0
102
RTVSPost2010PropOp49
 70
     1
102
RTVSPost2010Prop50
 90
       50
102
RTVSPost2010PropOp50
 70
     1
102
RTVSPost2010Prop51ColorIndex
 90
      256
102
RTVSPost2010Prop51ColorRGB
 90
-16777216
102
RTVSPost2010PropOp51
 70
     0
102
RTVSPost2010Prop52
140
1.0
102
RTVSPost2010PropOp52
 70
     0
102
RTVSPost2010Prop53
 90
        2
102
RTVSPost2010PropOp53
 70
     1
102
RTVSPost2010Prop54
  1
strokes_ogs.tif
102
RTVSPost2010PropOp54
 70
     1
102
RTVSPost2010Prop55
280
     0
102
RTVSPost2010PropOp55
 70
     1
102
RTVSPost2010Prop56
140
1.0
102
RTVSPost2010PropOp56
 70
     1
102
RTVSPost2010Prop57
140
1.0
102
RTVSPost2010PropOp57
 70
     1
  0
XRECORD
  5
311
102
{ACAD_REACTORS
330
310
102
}
330
310
100
AcDbXrecord
280
     1
102
RTVSPropertyOp0
 70
     1
102
RTVSPropertyOp1
 70
     1
102
RTVSPropertyOp2
 70
     1
102
RTVSPropertyOp3
 70
     1
102
RTVSPropertyOp4
 70
     1
102
RTVSPropertyOp5
 70
     1
102
RTVSPropertyOp6
 70
     1
102
RTVSPropertyOp7
 70
     1
102
RTVSPropertyOp8
 70
     1
102
RTVSPropertyOp9
 70
     1
102
RTVSPropertyOp10
 70
     1
102
RTVSPropertyOp11
 70
     1
102
RTVSPropertyOp12
 70
     1
102
RTVSPropertyOp13
 70
     1
102
RTVSPropertyOp14
 70
     1
102
RTVSPropertyOp15
 70
     1
102
RTVSPropertyOp16
 70
     1
102
RTVSPropertyOp17
 70
     1
102
RTVSPropertyOp18
 70
     1
102
RTVSPropertyOp19
 70
     1
102
RTVSPropertyOp20
 70
     1
102
RTVSPropertyOp21
 70
     1
102
RTVSPropertyOp22
 70
     1
102
RTVSPropertyOp23
 70
     1
102
RTVSPropertyOp24
 70
     1
102
RTVSPropertyOp25
 70
     1
102
RTVSPropertyOp26
 70
     1
102
RTVSPropertyOp27
 70
     1
102
RTVSPropertyOp28
 70
     1
102
RTVSPropertyOp29
 70
     1
102
RTVSPropertyOp30
 70
     1
102
RTVSPropertyOp31
 70
     1
102
RTVSPropertyOp32
 70
     1
102
RTVSPropertyOp33
 70
     1
102
RTVSPropertyOp34
 70
     1
102
RTVSPropertyOp35
 70
     1
102
RTVSPropertyOp36
 70
     1
102
RTVSPropertyOp37
 70
     1
102
RTVSPropertyOp38
 70
     1
102
RTVSPropertyOp39
 70
     1
102
RTVSPropertyOp40
 70
     1
102
RTVSPropertyOp41
 70
     1
102
RTVSPropertyOp42
 70
     1
102
RTVSPropertyOp43
 70
     1
102
RTVSPropertyOp44
 70
     1
102
RTVSPropertyOp45
 70
     1
102
RTVSPropertyOp46
 70
     1
102
RTVSPropertyOp47
 70
     1
102
RTVSPropertyOp48
 70
     1
102
RTVSPropertyOp49
 70
     1
102
RTVSPropertyOp50
 70
     1
102
RTVSPropertyOp51
 70
     0
102
RTVSPropertyOp52
 70
     0
102
RTVSPropertyOp53
 70
     1
102
RTVSPropertyOp54
 70
     1
102
RTVSPropertyOp55
 70
     1
102
RTVSPropertyOp56
 70
     1
102
RTVSPropertyOp57
 70
     1
102
RTVSPost2010Prop28
280
     0
102
RTVSPost2010PropOp28
 70
     1
102
RTVSPost2010Prop29
280
     1
102
RTVSPost2010PropOp29
 70
     1
102
RTVSPost2010Prop30
280
     1
102
RTVSPost2010PropOp30
 70
     1
102
RTVSPost2010Prop31
280
     0
102
RTVSPost2010PropOp31
 70
     1
102
RTVSPost2010Prop32
280
     0
102
RTVSPost2010PropOp32
 70
     1
102
RTVSPost2010Prop33
280
     0
102
RTVSPost2010PropOp33
 70
     1
102
RTVSPost2010Prop34
280
     0
102
RTVSPost2010PropOp34
 70
     1
102
RTVSPost2010Prop35
280
     0
102
RTVSPost2010PropOp35
 70
     1
102
RTVSPost2010Prop36
280
     0
102
RTVSPost2010PropOp36
 70
     1
102
RTVSPost2010Prop37
 90
       50
102
RTVSPost2010PropOp37
 70
     1
102
RTVSPost2010Prop38
140
0.0
102
RTVSPost2010PropOp38
 70
     1
102
RTVSPost2010Prop39
140
1.0
102
RTVSPost2010PropOp39
 70
     1
102
RTVSPost2010Prop40
 90
        0
102
RTVSPost2010PropOp40
 70
     1
102
RTVSPost2010Prop41ColorIndex
 90
       18
102
RTVSPost2010Prop41ColorRGB
 90
        0
102
RTVSPost2010PropOp41
 70
     1
102
RTVSPost2010Prop42
 90
       50
102
RTVSPost2010PropOp42
 70
     1
102
RTVSPost2010Prop43
 90
        3
102
RTVSPost2010PropOp43
 70
     1
102
RTVSPost2010Prop44ColorIndex
 90
        5
102
RTVSPost2010Prop44ColorRGB
 90
      255
102
RTVSPost2010PropOp44
 70
     1
102
RTVSPost2010Prop45
280
     0
102
RTVSPost2010PropOp45
 70
     1
102
RTVSPost2010Prop46
 90
       50
102
RTVSPost2010PropOp46
 70
     1
102
RTVSPost2010Prop47
 90
       50
102
RTVSPost2010PropOp47
 70
     1
102
RTVSPost2010Prop48
 90
       50
102
RTVSPost2010PropOp48
 70
     1
102
RTVSPost2010Prop49
280
     0
102
RTVSPost2010PropOp49
 70
     1
102
RTVSPost2010Prop50
 90
       50
102
RTVSPost2010PropOp50
 70
     1
102
RTVSPost2010Prop51ColorIndex
 90
      256
102
RTVSPost2010Prop51ColorRGB
 90
-16777216
102
RTVSPost2010PropOp51
 70
     0
102
RTVSPost2010Prop52
140
1.0
102
RTVSPost2010PropOp52
 70
     0
102
RTVSPost2010Prop53
 90
        2
102
RTVSPost2010PropOp53
 70
     1
102
RTVSPost2010Prop54
  1
strokes_ogs.tif
102
RTVSPost2010PropOp54
 70
     1
102
RTVSPost2010Prop55
280
     0
102
RTVSPost2010PropOp55
 70
     1
102
RTVSPost2010Prop56
140
1.0
102
RTVSPost2010PropOp56
 70
     1
102
RTVSPost2010Prop57
140
1.0
102
RTVSPost2010PropOp57
 70
     1
  0
XRECORD
  5
313
102
{ACAD_REACTORS
330
312
102
}
330
312
100
AcDbXrecord
280
     1
102
RTVSPropertyOp0
 70
     1
102
RTVSPropertyOp1
 70
     1
102
RTVSPropertyOp2
 70
     1
102
RTVSPropertyOp3
 70
     1
102
RTVSPropertyOp4
 70
     1
102
RTVSPropertyOp5
 70
     1
102
RTVSPropertyOp6
 70
     1
102
RTVSPropertyOp7
 70
     1
102
RTVSPropertyOp8
 70
     1
102
RTVSPropertyOp9
 70
     1
102
RTVSPropertyOp10
 70
     1
102
RTVSPropertyOp11
 70
     1
102
RTVSPropertyOp12
 70
     1
102
RTVSPropertyOp13
 70
     1
102
RTVSPropertyOp14
 70
     1
102
RTVSPropertyOp15
 70
     1
102
RTVSPropertyOp16
 70
     1
102
RTVSPropertyOp17
 70
     1
102
RTVSPropertyOp18
 70
     1
102
RTVSPropertyOp19
 70
     1
102
RTVSPropertyOp20
 70
     1
102
RTVSPropertyOp21
 70
     1
102
RTVSPropertyOp22
 70
     1
102
RTVSPropertyOp23
 70
     1
102
RTVSPropertyOp24
 70
     1
102
RTVSPropertyOp25
 70
     1
102
RTVSPropertyOp26
 70
     1
102
RTVSPropertyOp27
 70
     1
102
RTVSPropertyOp28
 70
     1
102
RTVSPropertyOp29
 70
     1
102
RTVSPropertyOp30
 70
     1
102
RTVSPropertyOp31
 70
     1
102
RTVSPropertyOp32
 70
     1
102
RTVSPropertyOp33
 70
     1
102
RTVSPropertyOp34
 70
     1
102
RTVSPropertyOp35
 70
     1
102
RTVSPropertyOp36
 70
     1
102
RTVSPropertyOp37
 70
     1
102
RTVSPropertyOp38
 70
     1
102
RTVSPropertyOp39
 70
     1
102
RTVSPropertyOp40
 70
     1
102
RTVSPropertyOp41
 70
     1
102
RTVSPropertyOp42
 70
     1
102
RTVSPropertyOp43
 70
     1
102
RTVSPropertyOp44
 70
     1
102
RTVSPropertyOp45
 70
     1
102
RTVSPropertyOp46
 70
     1
102
RTVSPropertyOp47
 70
     1
102
RTVSPropertyOp48
 70
     1
102
RTVSPropertyOp49
 70
     1
102
RTVSPropertyOp50
 70
     1
102
RTVSPropertyOp51
 70
     0
102
RTVSPropertyOp52
 70
     0
102
RTVSPropertyOp53
 70
     1
102
RTVSPropertyOp54
 70
     1
102
RTVSPropertyOp55
 70
     1
102
RTVSPropertyOp56
 70
     1
102
RTVSPropertyOp57
 70
     1
102
RTVSPost2010Prop28
280
     0
102
RTVSPost2010PropOp28
 70
     1
102
RTVSPost2010Prop29
280
     1
102
RTVSPost2010PropOp29
 70
     1
102
RTVSPost2010Prop30
280
     1
102
RTVSPost2010PropOp30
 70
     1
102
RTVSPost2010Prop31
280
     0
102
RTVSPost2010PropOp31
 70
     1
102
RTVSPost2010Prop32
280
     0
102
RTVSPost2010PropOp32
 70
     1
102
RTVSPost2010Prop33
280
     0
102
RTVSPost2010PropOp33
 70
     1
102
RTVSPost2010Prop34
280
     0
102
RTVSPost2010PropOp34
 70
     1
102
RTVSPost2010Prop35
280
     0
102
RTVSPost2010PropOp35
 70
     1
102
RTVSPost2010Prop36
280
     0
102
RTVSPost2010PropOp36
 70
     1
102
RTVSPost2010Prop37
 90
       50
102
RTVSPost2010PropOp37
 70
     1
102
RTVSPost2010Prop38
140
0.0
102
RTVSPost2010PropOp38
 70
     1
102
RTVSPost2010Prop39
140
1.0
102
RTVSPost2010PropOp39
 70
     1
102
RTVSPost2010Prop40
 90
        0
102
RTVSPost2010PropOp40
 70
     1
102
RTVSPost2010Prop41ColorIndex
 90
       18
102
RTVSPost2010Prop41ColorRGB
 90
        0
102
RTVSPost2010PropOp41
 70
     1
102
RTVSPost2010Prop42
 90
       50
102
RTVSPost2010PropOp42
 70
     1
102
RTVSPost2010Prop43
 90
        3
102
RTVSPost2010PropOp43
 70
     1
102
RTVSPost2010Prop44ColorIndex
 90
        5
102
RTVSPost2010Prop44ColorRGB
 90
      255
102
RTVSPost2010PropOp44
 70
     1
102
RTVSPost2010Prop45
280
     0
102
RTVSPost2010PropOp45
 70
     1
102
RTVSPost2010Prop46
 90
       50
102
RTVSPost2010PropOp46
 70
     1
102
RTVSPost2010Prop47
 90
       50
102
RTVSPost2010PropOp47
 70
     1
102
RTVSPost2010Prop48
 90
       50
102
RTVSPost2010PropOp48
 70
     1
102
RTVSPost2010Prop49
280
     0
102
RTVSPost2010PropOp49
 70
     1
102
RTVSPost2010Prop50
 90
       50
102
RTVSPost2010PropOp50
 70
     1
102
RTVSPost2010Prop51ColorIndex
 90
      256
102
RTVSPost2010Prop51ColorRGB
 90
-16777216
102
RTVSPost2010PropOp51
 70
     0
102
RTVSPost2010Prop52
140
1.0
102
RTVSPost2010PropOp52
 70
     0
102
RTVSPost2010Prop53
 90
        2
102
RTVSPost2010PropOp53
 70
     1
102
RTVSPost2010Prop54
  1
strokes_ogs.tif
102
RTVSPost2010PropOp54
 70
     1
102
RTVSPost2010Prop55
280
     0
102
RTVSPost2010PropOp55
 70
     1
102
RTVSPost2010Prop56
140
1.0
102
RTVSPost2010PropOp56
 70
     1
102
RTVSPost2010Prop57
140
1.0
102
RTVSPost2010PropOp57
 70
     1
  0
XRECORD
  5
319
102
{ACAD_REACTORS
330
318
102
}
330
318
100
AcDbXrecord
280
     1
102
RTVSPropertyOp0
 70
     1
102
RTVSPropertyOp1
 70
     1
102
RTVSPropertyOp2
 70
     1
102
RTVSPropertyOp3
 70
     1
102
RTVSPropertyOp4
 70
     1
102
RTVSPropertyOp5
 70
     1
102
RTVSPropertyOp6
 70
     1
102
RTVSPropertyOp7
 70
     1
102
RTVSPropertyOp8
 70
     1
102
RTVSPropertyOp9
 70
     1
102
RTVSPropertyOp10
 70
     1
102
RTVSPropertyOp11
 70
     1
102
RTVSPropertyOp12
 70
     1
102
RTVSPropertyOp13
 70
     1
102
RTVSPropertyOp14
 70
     1
102
RTVSPropertyOp15
 70
     1
102
RTVSPropertyOp16
 70
     1
102
RTVSPropertyOp17
 70
     1
102
RTVSPropertyOp18
 70
     1
102
RTVSPropertyOp19
 70
     1
102
RTVSPropertyOp20
 70
     1
102
RTVSPropertyOp21
 70
     1
102
RTVSPropertyOp22
 70
     1
102
RTVSPropertyOp23
 70
     1
102
RTVSPropertyOp24
 70
     1
102
RTVSPropertyOp25
 70
     1
102
RTVSPropertyOp26
 70
     1
102
RTVSPropertyOp27
 70
     1
102
RTVSPropertyOp28
 70
     1
102
RTVSPropertyOp29
 70
     1
102
RTVSPropertyOp30
 70
     1
102
RTVSPropertyOp31
 70
     1
102
RTVSPropertyOp32
 70
     1
102
RTVSPropertyOp33
 70
     1
102
RTVSPropertyOp34
 70
     1
102
RTVSPropertyOp35
 70
     1
102
RTVSPropertyOp36
 70
     1
102
RTVSPropertyOp37
 70
     1
102
RTVSPropertyOp38
 70
     1
102
RTVSPropertyOp39
 70
     1
102
RTVSPropertyOp40
 70
     1
102
RTVSPropertyOp41
 70
     1
102
RTVSPropertyOp42
 70
     1
102
RTVSPropertyOp43
 70
     1
102
RTVSPropertyOp44
 70
     1
102
RTVSPropertyOp45
 70
     1
102
RTVSPropertyOp46
 70
     1
102
RTVSPropertyOp47
 70
     1
102
RTVSPropertyOp48
 70
     1
102
RTVSPropertyOp49
 70
     1
102
RTVSPropertyOp50
 70
     1
102
RTVSPropertyOp51
 70
     0
102
RTVSPropertyOp52
 70
     0
102
RTVSPropertyOp53
 70
     1
102
RTVSPropertyOp54
 70
     1
102
RTVSPropertyOp55
 70
     1
102
RTVSPropertyOp56
 70
     1
102
RTVSPropertyOp57
 70
     1
102
RTVSPost2010Prop28
280
     0
102
RTVSPost2010PropOp28
 70
     1
102
RTVSPost2010Prop29
280
     1
102
RTVSPost2010PropOp29
 70
     1
102
RTVSPost2010Prop30
280
     1
102
RTVSPost2010PropOp30
 70
     1
102
RTVSPost2010Prop31
280
     0
102
RTVSPost2010PropOp31
 70
     1
102
RTVSPost2010Prop32
280
     0
102
RTVSPost2010PropOp32
 70
     1
102
RTVSPost2010Prop33
280
     0
102
RTVSPost2010PropOp33
 70
     1
102
RTVSPost2010Prop34
280
     0
102
RTVSPost2010PropOp34
 70
     1
102
RTVSPost2010Prop35
280
     0
102
RTVSPost2010PropOp35
 70
     1
102
RTVSPost2010Prop36
280
     0
102
RTVSPost2010PropOp36
 70
     1
102
RTVSPost2010Prop37
 90
       50
102
RTVSPost2010PropOp37
 70
     1
102
RTVSPost2010Prop38
140
0.0
102
RTVSPost2010PropOp38
 70
     1
102
RTVSPost2010Prop39
140
1.0
102
RTVSPost2010PropOp39
 70
     1
102
RTVSPost2010Prop40
 90
        0
102
RTVSPost2010PropOp40
 70
     1
102
RTVSPost2010Prop41ColorIndex
 90
       18
102
RTVSPost2010Prop41ColorRGB
 90
        0
102
RTVSPost2010PropOp41
 70
     1
102
RTVSPost2010Prop42
 90
       50
102
RTVSPost2010PropOp42
 70
     1
102
RTVSPost2010Prop43
 90
        3
102
RTVSPost2010PropOp43
 70
     1
102
RTVSPost2010Prop44ColorIndex
 90
        5
102
RTVSPost2010Prop44ColorRGB
 90
      255
102
RTVSPost2010PropOp44
 70
     1
102
RTVSPost2010Prop45
280
     0
102
RTVSPost2010PropOp45
 70
     1
102
RTVSPost2010Prop46
 90
       50
102
RTVSPost2010PropOp46
 70
     1
102
RTVSPost2010Prop47
 90
       50
102
RTVSPost2010PropOp47
 70
     1
102
RTVSPost2010Prop48
 90
       50
102
RTVSPost2010PropOp48
 70
     1
102
RTVSPost2010Prop49
280
     0
102
RTVSPost2010PropOp49
 70
     1
102
RTVSPost2010Prop50
 90
       50
102
RTVSPost2010PropOp50
 70
     1
102
RTVSPost2010Prop51ColorIndex
 90
      256
102
RTVSPost2010Prop51ColorRGB
 90
-16777216
102
RTVSPost2010PropOp51
 70
     0
102
RTVSPost2010Prop52
140
1.0
102
RTVSPost2010PropOp52
 70
     0
102
RTVSPost2010Prop53
 90
        2
102
RTVSPost2010PropOp53
 70
     1
102
RTVSPost2010Prop54
  1
strokes_ogs.tif
102
RTVSPost2010PropOp54
 70
     1
102
RTVSPost2010Prop55
280
     0
102
RTVSPost2010PropOp55
 70
     1
102
RTVSPost2010Prop56
140
1.0
102
RTVSPost2010PropOp56
 70
     1
102
RTVSPost2010Prop57
140
1.0
102
RTVSPost2010PropOp57
 70
     1
  0
XRECORD
  5
32D
102
{ACAD_REACTORS
330
32C
102
}
330
32C
100
AcDbXrecord
280
     1
102
RTVSPropertyOp0
 70
     0
102
RTVSPropertyOp1
 70
     0
102
RTVSPropertyOp2
 70
     0
102
RTVSPropertyOp3
 70
     0
102
RTVSPropertyOp4
 70
     0
102
RTVSPropertyOp5
 70
     0
102
RTVSPropertyOp6
 70
     0
102
RTVSPropertyOp7
 70
     0
102
RTVSPropertyOp8
 70
     0
102
RTVSPropertyOp9
 70
     0
102
RTVSPropertyOp10
 70
     0
102
RTVSPropertyOp11
 70
     0
102
RTVSPropertyOp12
 70
     0
102
RTVSPropertyOp13
 70
     0
102
RTVSPropertyOp14
 70
     2
102
RTVSPropertyOp15
 70
     0
102
RTVSPropertyOp16
 70
     0
102
RTVSPropertyOp17
 70
     0
102
RTVSPropertyOp18
 70
     0
102
RTVSPropertyOp19
 70
     0
102
RTVSPropertyOp20
 70
     0
102
RTVSPropertyOp21
 70
     0
102
RTVSPropertyOp22
 70
     0
102
RTVSPropertyOp23
 70
     0
102
RTVSPropertyOp24
 70
     0
102
RTVSPropertyOp25
 70
     0
102
RTVSPropertyOp26
 70
     0
102
RTVSPropertyOp27
 70
     0
102
RTVSPropertyOp28
 70
     0
102
RTVSPropertyOp29
 70
     0
102
RTVSPropertyOp30
 70
     0
102
RTVSPropertyOp31
 70
     0
102
RTVSPropertyOp32
 70
     0
102
RTVSPropertyOp33
 70
     0
102
RTVSPropertyOp34
 70
     0
102
RTVSPropertyOp35
 70
     0
102
RTVSPropertyOp36
 70
     0
102
RTVSPropertyOp37
 70
     0
102
RTVSPropertyOp38
 70
     0
102
RTVSPropertyOp39
 70
     0
102
RTVSPropertyOp40
 70
     0
102
RTVSPropertyOp41
 70
     0
102
RTVSPropertyOp42
 70
     0
102
RTVSPropertyOp43
 70
     0
102
RTVSPropertyOp44
 70
     0
102
RTVSPropertyOp45
 70
     0
102
RTVSPropertyOp46
 70
     0
102
RTVSPropertyOp47
 70
     0
102
RTVSPropertyOp48
 70
     0
102
RTVSPropertyOp49
 70
     0
102
RTVSPropertyOp50
 70
     0
102
RTVSPropertyOp51
 70
     0
102
RTVSPropertyOp52
 70
     0
102
RTVSPropertyOp53
 70
     0
102
RTVSPropertyOp54
 70
     0
102
RTVSPropertyOp55
 70
     0
102
RTVSPropertyOp56
 70
     0
102
RTVSPropertyOp57
 70
     0
102
RTVSPost2010Prop28
280
     0
102
RTVSPost2010PropOp28
 70
     0
102
RTVSPost2010Prop29
280
     1
102
RTVSPost2010PropOp29
 70
     0
102
RTVSPost2010Prop30
280
     1
102
RTVSPost2010PropOp30
 70
     0
102
RTVSPost2010Prop31
280
     0
102
RTVSPost2010PropOp31
 70
     0
102
RTVSPost2010Prop32
280
     0
102
RTVSPost2010PropOp32
 70
     0
102
RTVSPost2010Prop33
280
     0
102
RTVSPost2010PropOp33
 70
     0
102
RTVSPost2010Prop34
280
     0
102
RTVSPost2010PropOp34
 70
     0
102
RTVSPost2010Prop35
280
     0
102
RTVSPost2010PropOp35
 70
     0
102
RTVSPost2010Prop36
280
     0
102
RTVSPost2010PropOp36
 70
     0
102
RTVSPost2010Prop37
 90
       50
102
RTVSPost2010PropOp37
 70
     0
102
RTVSPost2010Prop38
140
0.0
102
RTVSPost2010PropOp38
 70
     0
102
RTVSPost2010Prop39
140
1.0
102
RTVSPost2010PropOp39
 70
     0
102
RTVSPost2010Prop40
 90
        0
102
RTVSPost2010PropOp40
 70
     0
102
RTVSPost2010Prop41ColorIndex
 90
       18
102
RTVSPost2010Prop41ColorRGB
 90
        0
102
RTVSPost2010PropOp41
 70
     0
102
RTVSPost2010Prop42
 90
       50
102
RTVSPost2010PropOp42
 70
     0
102
RTVSPost2010Prop43
 90
        3
102
RTVSPost2010PropOp43
 70
     0
102
RTVSPost2010Prop44ColorIndex
 90
        5
102
RTVSPost2010Prop44ColorRGB
 90
      255
102
RTVSPost2010PropOp44
 70
     0
102
RTVSPost2010Prop45
280
     0
102
RTVSPost2010PropOp45
 70
     0
102
RTVSPost2010Prop46
 90
       50
102
RTVSPost2010PropOp46
 70
     0
102
RTVSPost2010Prop47
 90
       50
102
RTVSPost2010PropOp47
 70
     0
102
RTVSPost2010Prop48
 90
       50
102
RTVSPost2010PropOp48
 70
     0
102
RTVSPost2010Prop49
280
     0
102
RTVSPost2010PropOp49
 70
     0
102
RTVSPost2010Prop50
 90
       50
102
RTVSPost2010PropOp50
 70
     0
102
RTVSPost2010Prop51ColorIndex
 90
      256
102
RTVSPost2010Prop51ColorRGB
 90
-16777216
102
RTVSPost2010PropOp51
 70
     0
102
RTVSPost2010Prop52
140
1.0
102
RTVSPost2010PropOp52
 70
     0
102
RTVSPost2010Prop53
 90
        2
102
RTVSPost2010PropOp53
 70
     0
102
RTVSPost2010Prop54
  1
strokes_ogs.tif
102
RTVSPost2010PropOp54
 70
     0
102
RTVSPost2010Prop55
280
     0
102
RTVSPost2010PropOp55
 70
     0
102
RTVSPost2010Prop56
140
1.0
102
RTVSPost2010PropOp56
 70
     0
102
RTVSPost2010Prop57
140
1.0
102
RTVSPost2010PropOp57
 70
     0
  0
XRECORD
  5
327
102
{ACAD_REACTORS
330
326
102
}
330
326
100
AcDbXrecord
280
     1
102
RTVSPropertyOp0
 70
     1
102
RTVSPropertyOp1
 70
     1
102
RTVSPropertyOp2
 70
     1
102
RTVSPropertyOp3
 70
     1
102
RTVSPropertyOp4
 70
     1
102
RTVSPropertyOp5
 70
     1
102
RTVSPropertyOp6
 70
     1
102
RTVSPropertyOp7
 70
     1
102
RTVSPropertyOp8
 70
     1
102
RTVSPropertyOp9
 70
     1
102
RTVSPropertyOp10
 70
     1
102
RTVSPropertyOp11
 70
     1
102
RTVSPropertyOp12
 70
     1
102
RTVSPropertyOp13
 70
     1
102
RTVSPropertyOp14
 70
     1
102
RTVSPropertyOp15
 70
     1
102
RTVSPropertyOp16
 70
     1
102
RTVSPropertyOp17
 70
     1
102
RTVSPropertyOp18
 70
     1
102
RTVSPropertyOp19
 70
     1
102
RTVSPropertyOp20
 70
     1
102
RTVSPropertyOp21
 70
     1
102
RTVSPropertyOp22
 70
     1
102
RTVSPropertyOp23
 70
     1
102
RTVSPropertyOp24
 70
     1
102
RTVSPropertyOp25
 70
     1
102
RTVSPropertyOp26
 70
     1
102
RTVSPropertyOp27
 70
     1
102
RTVSPropertyOp28
 70
     1
102
RTVSPropertyOp29
 70
     1
102
RTVSPropertyOp30
 70
     1
102
RTVSPropertyOp31
 70
     1
102
RTVSPropertyOp32
 70
     1
102
RTVSPropertyOp33
 70
     1
102
RTVSPropertyOp34
 70
     1
102
RTVSPropertyOp35
 70
     1
102
RTVSPropertyOp36
 70
     1
102
RTVSPropertyOp37
 70
     1
102
RTVSPropertyOp38
 70
     1
102
RTVSPropertyOp39
 70
     1
102
RTVSPropertyOp40
 70
     1
102
RTVSPropertyOp41
 70
     1
102
RTVSPropertyOp42
 70
     1
102
RTVSPropertyOp43
 70
     1
102
RTVSPropertyOp44
 70
     1
102
RTVSPropertyOp45
 70
     1
102
RTVSPropertyOp46
 70
     1
102
RTVSPropertyOp47
 70
     1
102
RTVSPropertyOp48
 70
     1
102
RTVSPropertyOp49
 70
     1
102
RTVSPropertyOp50
 70
     1
102
RTVSPropertyOp51
 70
     0
102
RTVSPropertyOp52
 70
     0
102
RTVSPropertyOp53
 70
     1
102
RTVSPropertyOp54
 70
     1
102
RTVSPropertyOp55
 70
     1
102
RTVSPropertyOp56
 70
     1
102
RTVSPropertyOp57
 70
     1
102
RTVSPost2010Prop28
280
     0
102
RTVSPost2010PropOp28
 70
     1
102
RTVSPost2010Prop29
280
     1
102
RTVSPost2010PropOp29
 70
     1
102
RTVSPost2010Prop30
280
     1
102
RTVSPost2010PropOp30
 70
     1
102
RTVSPost2010Prop31
280
     0
102
RTVSPost2010PropOp31
 70
     1
102
RTVSPost2010Prop32
280
     0
102
RTVSPost2010PropOp32
 70
     1
102
RTVSPost2010Prop33
280
     0
102
RTVSPost2010PropOp33
 70
     1
102
RTVSPost2010Prop34
280
     0
102
RTVSPost2010PropOp34
 70
     1
102
RTVSPost2010Prop35
280
     0
102
RTVSPost2010PropOp35
 70
     1
102
RTVSPost2010Prop36
280
     0
102
RTVSPost2010PropOp36
 70
     1
102
RTVSPost2010Prop37
 90
       50
102
RTVSPost2010PropOp37
 70
     1
102
RTVSPost2010Prop38
140
0.0
102
RTVSPost2010PropOp38
 70
     1
102
RTVSPost2010Prop39
140
1.0
102
RTVSPost2010PropOp39
 70
     1
102
RTVSPost2010Prop40
 90
        0
102
RTVSPost2010PropOp40
 70
     1
102
RTVSPost2010Prop41ColorIndex
 90
       18
102
RTVSPost2010Prop41ColorRGB
 90
        0
102
RTVSPost2010PropOp41
 70
     1
102
RTVSPost2010Prop42
 90
       50
102
RTVSPost2010PropOp42
 70
     1
102
RTVSPost2010Prop43
 90
        3
102
RTVSPost2010PropOp43
 70
     1
102
RTVSPost2010Prop44ColorIndex
 90
        5
102
RTVSPost2010Prop44ColorRGB
 90
      255
102
RTVSPost2010PropOp44
 70
     1
102
RTVSPost2010Prop45
280
     0
102
RTVSPost2010PropOp45
 70
     1
102
RTVSPost2010Prop46
 90
       50
102
RTVSPost2010PropOp46
 70
     1
102
RTVSPost2010Prop47
 90
       50
102
RTVSPost2010PropOp47
 70
     1
102
RTVSPost2010Prop48
 90
       50
102
RTVSPost2010PropOp48
 70
     1
102
RTVSPost2010Prop49
280
     0
102
RTVSPost2010PropOp49
 70
     1
102
RTVSPost2010Prop50
 90
       50
102
RTVSPost2010PropOp50
 70
     1
102
RTVSPost2010Prop51ColorIndex
 90
      256
102
RTVSPost2010Prop51ColorRGB
 90
-16777216
102
RTVSPost2010PropOp51
 70
     0
102
RTVSPost2010Prop52
140
1.0
102
RTVSPost2010PropOp52
 70
     0
102
RTVSPost2010Prop53
 90
        2
102
RTVSPost2010PropOp53
 70
     1
102
RTVSPost2010Prop54
  1
strokes_ogs.tif
102
RTVSPost2010PropOp54
 70
     1
102
RTVSPost2010Prop55
280
     0
102
RTVSPost2010PropOp55
 70
     1
102
RTVSPost2010Prop56
140
1.0
102
RTVSPost2010PropOp56
 70
     1
102
RTVSPost2010Prop57
140
1.0
102
RTVSPost2010PropOp57
 70
     1
  0
XRECORD
  5
32F
102
{ACAD_REACTORS
330
32E
102
}
330
32E
100
AcDbXrecord
280
     1
102
RTVSPropertyOp0
 70
     0
102
RTVSPropertyOp1
 70
     0
102
RTVSPropertyOp2
 70
     0
102
RTVSPropertyOp3
 70
     0
102
RTVSPropertyOp4
 70
     0
102
RTVSPropertyOp5
 70
     0
102
RTVSPropertyOp6
 70
     0
102
RTVSPropertyOp7
 70
     0
102
RTVSPropertyOp8
 70
     0
102
RTVSPropertyOp9
 70
     0
102
RTVSPropertyOp10
 70
     0
102
RTVSPropertyOp11
 70
     0
102
RTVSPropertyOp12
 70
     0
102
RTVSPropertyOp13
 70
     0
102
RTVSPropertyOp14
 70
     2
102
RTVSPropertyOp15
 70
     0
102
RTVSPropertyOp16
 70
     0
102
RTVSPropertyOp17
 70
     0
102
RTVSPropertyOp18
 70
     0
102
RTVSPropertyOp19
 70
     0
102
RTVSPropertyOp20
 70
     0
102
RTVSPropertyOp21
 70
     0
102
RTVSPropertyOp22
 70
     0
102
RTVSPropertyOp23
 70
     0
102
RTVSPropertyOp24
 70
     0
102
RTVSPropertyOp25
 70
     0
102
RTVSPropertyOp26
 70
     0
102
RTVSPropertyOp27
 70
     0
102
RTVSPropertyOp28
 70
     0
102
RTVSPropertyOp29
 70
     0
102
RTVSPropertyOp30
 70
     0
102
RTVSPropertyOp31
 70
     0
102
RTVSPropertyOp32
 70
     0
102
RTVSPropertyOp33
 70
     0
102
RTVSPropertyOp34
 70
     0
102
RTVSPropertyOp35
 70
     0
102
RTVSPropertyOp36
 70
     0
102
RTVSPropertyOp37
 70
     0
102
RTVSPropertyOp38
 70
     0
102
RTVSPropertyOp39
 70
     0
102
RTVSPropertyOp40
 70
     0
102
RTVSPropertyOp41
 70
     0
102
RTVSPropertyOp42
 70
     0
102
RTVSPropertyOp43
 70
     0
102
RTVSPropertyOp44
 70
     0
102
RTVSPropertyOp45
 70
     0
102
RTVSPropertyOp46
 70
     0
102
RTVSPropertyOp47
 70
     0
102
RTVSPropertyOp48
 70
     0
102
RTVSPropertyOp49
 70
     0
102
RTVSPropertyOp50
 70
     0
102
RTVSPropertyOp51
 70
     0
102
RTVSPropertyOp52
 70
     0
102
RTVSPropertyOp53
 70
     0
102
RTVSPropertyOp54
 70
     0
102
RTVSPropertyOp55
 70
     0
102
RTVSPropertyOp56
 70
     0
102
RTVSPropertyOp57
 70
     0
102
RTVSPost2010Prop28
280
     0
102
RTVSPost2010PropOp28
 70
     0
102
RTVSPost2010Prop29
280
     1
102
RTVSPost2010PropOp29
 70
     0
102
RTVSPost2010Prop30
280
     1
102
RTVSPost2010PropOp30
 70
     0
102
RTVSPost2010Prop31
280
     0
102
RTVSPost2010PropOp31
 70
     0
102
RTVSPost2010Prop32
280
     0
102
RTVSPost2010PropOp32
 70
     0
102
RTVSPost2010Prop33
280
     0
102
RTVSPost2010PropOp33
 70
     0
102
RTVSPost2010Prop34
280
     0
102
RTVSPost2010PropOp34
 70
     0
102
RTVSPost2010Prop35
280
     0
102
RTVSPost2010PropOp35
 70
     0
102
RTVSPost2010Prop36
280
     0
102
RTVSPost2010PropOp36
 70
     0
102
RTVSPost2010Prop37
 90
       50
102
RTVSPost2010PropOp37
 70
     0
102
RTVSPost2010Prop38
140
0.0
102
RTVSPost2010PropOp38
 70
     0
102
RTVSPost2010Prop39
140
1.0
102
RTVSPost2010PropOp39
 70
     0
102
RTVSPost2010Prop40
 90
        0
102
RTVSPost2010PropOp40
 70
     0
102
RTVSPost2010Prop41ColorIndex
 90
       18
102
RTVSPost2010Prop41ColorRGB
 90
        0
102
RTVSPost2010PropOp41
 70
     0
102
RTVSPost2010Prop42
 90
       50
102
RTVSPost2010PropOp42
 70
     0
102
RTVSPost2010Prop43
 90
        3
102
RTVSPost2010PropOp43
 70
     0
102
RTVSPost2010Prop44ColorIndex
 90
        5
102
RTVSPost2010Prop44ColorRGB
 90
      255
102
RTVSPost2010PropOp44
 70
     0
102
RTVSPost2010Prop45
280
     0
102
RTVSPost2010PropOp45
 70
     0
102
RTVSPost2010Prop46
 90
       50
102
RTVSPost2010PropOp46
 70
     0
102
RTVSPost2010Prop47
 90
       50
102
RTVSPost2010PropOp47
 70
     0
102
RTVSPost2010Prop48
 90
       50
102
RTVSPost2010PropOp48
 70
     0
102
RTVSPost2010Prop49
280
     0
102
RTVSPost2010PropOp49
 70
     0
102
RTVSPost2010Prop50
 90
       50
102
RTVSPost2010PropOp50
 70
     0
102
RTVSPost2010Prop51ColorIndex
 90
      256
102
RTVSPost2010Prop51ColorRGB
 90
-16777216
102
RTVSPost2010PropOp51
 70
     0
102
RTVSPost2010Prop52
140
1.0
102
RTVSPost2010PropOp52
 70
     0
102
RTVSPost2010Prop53
 90
        2
102
RTVSPost2010PropOp53
 70
     0
102
RTVSPost2010Prop54
  1
strokes_ogs.tif
102
RTVSPost2010PropOp54
 70
     0
102
RTVSPost2010Prop55
280
     0
102
RTVSPost2010PropOp55
 70
     0
102
RTVSPost2010Prop56
140
1.0
102
RTVSPost2010PropOp56
 70
     0
102
RTVSPost2010Prop57
140
1.0
102
RTVSPost2010PropOp57
 70
     0
  0
XRECORD
  5
31D
102
{ACAD_REACTORS
330
31C
102
}
330
31C
100
AcDbXrecord
280
     1
102
RTVSPropertyOp0
 70
     1
102
RTVSPropertyOp1
 70
     1
102
RTVSPropertyOp2
 70
     1
102
RTVSPropertyOp3
 70
     1
102
RTVSPropertyOp4
 70
     1
102
RTVSPropertyOp5
 70
     1
102
RTVSPropertyOp6
 70
     1
102
RTVSPropertyOp7
 70
     1
102
RTVSPropertyOp8
 70
     1
102
RTVSPropertyOp9
 70
     1
102
RTVSPropertyOp10
 70
     1
102
RTVSPropertyOp11
 70
     1
102
RTVSPropertyOp12
 70
     1
102
RTVSPropertyOp13
 70
     1
102
RTVSPropertyOp14
 70
     1
102
RTVSPropertyOp15
 70
     1
102
RTVSPropertyOp16
 70
     1
102
RTVSPropertyOp17
 70
     1
102
RTVSPropertyOp18
 70
     1
102
RTVSPropertyOp19
 70
     1
102
RTVSPropertyOp20
 70
     1
102
RTVSPropertyOp21
 70
     1
102
RTVSPropertyOp22
 70
     1
102
RTVSPropertyOp23
 70
     1
102
RTVSPropertyOp24
 70
     1
102
RTVSPropertyOp25
 70
     1
102
RTVSPropertyOp26
 70
     1
102
RTVSPropertyOp27
 70
     1
102
RTVSPropertyOp28
 70
     1
102
RTVSPropertyOp29
 70
     1
102
RTVSPropertyOp30
 70
     1
102
RTVSPropertyOp31
 70
     1
102
RTVSPropertyOp32
 70
     1
102
RTVSPropertyOp33
 70
     1
102
RTVSPropertyOp34
 70
     1
102
RTVSPropertyOp35
 70
     1
102
RTVSPropertyOp36
 70
     1
102
RTVSPropertyOp37
 70
     1
102
RTVSPropertyOp38
 70
     1
102
RTVSPropertyOp39
 70
     1
102
RTVSPropertyOp40
 70
     1
102
RTVSPropertyOp41
 70
     1
102
RTVSPropertyOp42
 70
     1
102
RTVSPropertyOp43
 70
     1
102
RTVSPropertyOp44
 70
     1
102
RTVSPropertyOp45
 70
     1
102
RTVSPropertyOp46
 70
     1
102
RTVSPropertyOp47
 70
     1
102
RTVSPropertyOp48
 70
     1
102
RTVSPropertyOp49
 70
     1
102
RTVSPropertyOp50
 70
     1
102
RTVSPropertyOp51
 70
     0
102
RTVSPropertyOp52
 70
     0
102
RTVSPropertyOp53
 70
     1
102
RTVSPropertyOp54
 70
     1
102
RTVSPropertyOp55
 70
     1
102
RTVSPropertyOp56
 70
     1
102
RTVSPropertyOp57
 70
     1
102
RTVSPost2010Prop28
280
     0
102
RTVSPost2010PropOp28
 70
     1
102
RTVSPost2010Prop29
280
     1
102
RTVSPost2010PropOp29
 70
     1
102
RTVSPost2010Prop30
280
     1
102
RTVSPost2010PropOp30
 70
     1
102
RTVSPost2010Prop31
280
     0
102
RTVSPost2010PropOp31
 70
     1
102
RTVSPost2010Prop32
280
     0
102
RTVSPost2010PropOp32
 70
     1
102
RTVSPost2010Prop33
280
     0
102
RTVSPost2010PropOp33
 70
     1
102
RTVSPost2010Prop34
280
     0
102
RTVSPost2010PropOp34
 70
     1
102
RTVSPost2010Prop35
280
     0
102
RTVSPost2010PropOp35
 70
     1
102
RTVSPost2010Prop36
280
     0
102
RTVSPost2010PropOp36
 70
     1
102
RTVSPost2010Prop37
 90
       50
102
RTVSPost2010PropOp37
 70
     1
102
RTVSPost2010Prop38
140
0.0
102
RTVSPost2010PropOp38
 70
     1
102
RTVSPost2010Prop39
140
1.0
102
RTVSPost2010PropOp39
 70
     1
102
RTVSPost2010Prop40
 90
        0
102
RTVSPost2010PropOp40
 70
     1
102
RTVSPost2010Prop41ColorIndex
 90
       18
102
RTVSPost2010Prop41ColorRGB
 90
        0
102
RTVSPost2010PropOp41
 70
     1
102
RTVSPost2010Prop42
 90
       50
102
RTVSPost2010PropOp42
 70
     1
102
RTVSPost2010Prop43
 90
        3
102
RTVSPost2010PropOp43
 70
     1
102
RTVSPost2010Prop44ColorIndex
 90
        5
102
RTVSPost2010Prop44ColorRGB
 90
      255
102
RTVSPost2010PropOp44
 70
     1
102
RTVSPost2010Prop45
280
     0
102
RTVSPost2010PropOp45
 70
     1
102
RTVSPost2010Prop46
 90
       50
102
RTVSPost2010PropOp46
 70
     1
102
RTVSPost2010Prop47
 90
       50
102
RTVSPost2010PropOp47
 70
     1
102
RTVSPost2010Prop48
 90
       50
102
RTVSPost2010PropOp48
 70
     1
102
RTVSPost2010Prop49
280
     0
102
RTVSPost2010PropOp49
 70
     1
102
RTVSPost2010Prop50
 90
       50
102
RTVSPost2010PropOp50
 70
     1
102
RTVSPost2010Prop51ColorIndex
 90
      256
102
RTVSPost2010Prop51ColorRGB
 90
-16777216
102
RTVSPost2010PropOp51
 70
     0
102
RTVSPost2010Prop52
140
1.0
102
RTVSPost2010PropOp52
 70
     0
102
RTVSPost2010Prop53
 90
        2
102
RTVSPost2010PropOp53
 70
     1
102
RTVSPost2010Prop54
  1
strokes_ogs.tif
102
RTVSPost2010PropOp54
 70
     1
102
RTVSPost2010Prop55
280
     0
102
RTVSPost2010PropOp55
 70
     1
102
RTVSPost2010Prop56
140
1.0
102
RTVSPost2010PropOp56
 70
     1
102
RTVSPost2010Prop57
140
1.0
102
RTVSPost2010PropOp57
 70
     1
  0
XRECORD
  5
33B
102
{ACAD_REACTORS
330
33A
102
}
330
33A
100
AcDbXrecord
280
     1
102
RTVSPropertyOp0
 70
     1
102
RTVSPropertyOp1
 70
     1
102
RTVSPropertyOp2
 70
     1
102
RTVSPropertyOp3
 70
     1
102
RTVSPropertyOp4
 70
     1
102
RTVSPropertyOp5
 70
     1
102
RTVSPropertyOp6
 70
     1
102
RTVSPropertyOp7
 70
     1
102
RTVSPropertyOp8
 70
     1
102
RTVSPropertyOp9
 70
     1
102
RTVSPropertyOp10
 70
     1
102
RTVSPropertyOp11
 70
     1
102
RTVSPropertyOp12
 70
     1
102
RTVSPropertyOp13
 70
     1
102
RTVSPropertyOp14
 70
     1
102
RTVSPropertyOp15
 70
     1
102
RTVSPropertyOp16
 70
     1
102
RTVSPropertyOp17
 70
     1
102
RTVSPropertyOp18
 70
     1
102
RTVSPropertyOp19
 70
     1
102
RTVSPropertyOp20
 70
     1
102
RTVSPropertyOp21
 70
     1
102
RTVSPropertyOp22
 70
     1
102
RTVSPropertyOp23
 70
     1
102
RTVSPropertyOp24
 70
     1
102
RTVSPropertyOp25
 70
     1
102
RTVSPropertyOp26
 70
     1
102
RTVSPropertyOp27
 70
     1
102
RTVSPropertyOp28
 70
     1
102
RTVSPropertyOp29
 70
     1
102
RTVSPropertyOp30
 70
     1
102
RTVSPropertyOp31
 70
     1
102
RTVSPropertyOp32
 70
     1
102
RTVSPropertyOp33
 70
     1
102
RTVSPropertyOp34
 70
     1
102
RTVSPropertyOp35
 70
     1
102
RTVSPropertyOp36
 70
     1
102
RTVSPropertyOp37
 70
     1
102
RTVSPropertyOp38
 70
     1
102
RTVSPropertyOp39
 70
     1
102
RTVSPropertyOp40
 70
     1
102
RTVSPropertyOp41
 70
     1
102
RTVSPropertyOp42
 70
     1
102
RTVSPropertyOp43
 70
     1
102
RTVSPropertyOp44
 70
     1
102
RTVSPropertyOp45
 70
     1
102
RTVSPropertyOp46
 70
     1
102
RTVSPropertyOp47
 70
     1
102
RTVSPropertyOp48
 70
     1
102
RTVSPropertyOp49
 70
     1
102
RTVSPropertyOp50
 70
     1
102
RTVSPropertyOp51
 70
     0
102
RTVSPropertyOp52
 70
     0
102
RTVSPropertyOp53
 70
     1
102
RTVSPropertyOp54
 70
     1
102
RTVSPropertyOp55
 70
     1
102
RTVSPropertyOp56
 70
     1
102
RTVSPropertyOp57
 70
     1
102
RTVSPost2010Prop28
280
     0
102
RTVSPost2010PropOp28
 70
     1
102
RTVSPost2010Prop29
280
     1
102
RTVSPost2010PropOp29
 70
     1
102
RTVSPost2010Prop30
280
     1
102
RTVSPost2010PropOp30
 70
     1
102
RTVSPost2010Prop31
280
     0
102
RTVSPost2010PropOp31
 70
     1
102
RTVSPost2010Prop32
280
     0
102
RTVSPost2010PropOp32
 70
     1
102
RTVSPost2010Prop33
280
     0
102
RTVSPost2010PropOp33
 70
     1
102
RTVSPost2010Prop34
280
     0
102
RTVSPost2010PropOp34
 70
     1
102
RTVSPost2010Prop35
280
     0
102
RTVSPost2010PropOp35
 70
     1
102
RTVSPost2010Prop36
280
     0
102
RTVSPost2010PropOp36
 70
     1
102
RTVSPost2010Prop37
 90
       50
102
RTVSPost2010PropOp37
 70
     1
102
RTVSPost2010Prop38
140
0.0
102
RTVSPost2010PropOp38
 70
     1
102
RTVSPost2010Prop39
140
1.0
102
RTVSPost2010PropOp39
 70
     1
102
RTVSPost2010Prop40
 90
        0
102
RTVSPost2010PropOp40
 70
     1
102
RTVSPost2010Prop41ColorIndex
 90
       18
102
RTVSPost2010Prop41ColorRGB
 90
        0
102
RTVSPost2010PropOp41
 70
     1
102
RTVSPost2010Prop42
 90
       50
102
RTVSPost2010PropOp42
 70
     1
102
RTVSPost2010Prop43
 90
        3
102
RTVSPost2010PropOp43
 70
     1
102
RTVSPost2010Prop44ColorIndex
 90
        5
102
RTVSPost2010Prop44ColorRGB
 90
      255
102
RTVSPost2010PropOp44
 70
     1
102
RTVSPost2010Prop45
280
     0
102
RTVSPost2010PropOp45
 70
     1
102
RTVSPost2010Prop46
 90
       50
102
RTVSPost2010PropOp46
 70
     1
102
RTVSPost2010Prop47
 90
       50
102
RTVSPost2010PropOp47
 70
     1
102
RTVSPost2010Prop48
 90
       50
102
RTVSPost2010PropOp48
 70
     1
102
RTVSPost2010Prop49
280
     0
102
RTVSPost2010PropOp49
 70
     1
102
RTVSPost2010Prop50
 90
       50
102
RTVSPost2010PropOp50
 70
     1
102
RTVSPost2010Prop51ColorIndex
 90
      256
102
RTVSPost2010Prop51ColorRGB
 90
-16777216
102
RTVSPost2010PropOp51
 70
     0
102
RTVSPost2010Prop52
140
1.0
102
RTVSPost2010PropOp52
 70
     0
102
RTVSPost2010Prop53
 90
        2
102
RTVSPost2010PropOp53
 70
     1
102
RTVSPost2010Prop54
  1
strokes_ogs.tif
102
RTVSPost2010PropOp54
 70
     1
102
RTVSPost2010Prop55
280
     0
102
RTVSPost2010PropOp55
 70
     1
102
RTVSPost2010Prop56
140
1.0
102
RTVSPost2010PropOp56
 70
     1
102
RTVSPost2010Prop57
140
1.0
102
RTVSPost2010PropOp57
 70
     1
  0
XRECORD
  5
339
102
{ACAD_REACTORS
330
338
102
}
330
338
100
AcDbXrecord
280
     1
102
RTVSPropertyOp0
 70
     1
102
RTVSPropertyOp1
 70
     1
102
RTVSPropertyOp2
 70
     1
102
RTVSPropertyOp3
 70
     1
102
RTVSPropertyOp4
 70
     1
102
RTVSPropertyOp5
 70
     1
102
RTVSPropertyOp6
 70
     1
102
RTVSPropertyOp7
 70
     1
102
RTVSPropertyOp8
 70
     1
102
RTVSPropertyOp9
 70
     1
102
RTVSPropertyOp10
 70
     1
102
RTVSPropertyOp11
 70
     1
102
RTVSPropertyOp12
 70
     1
102
RTVSPropertyOp13
 70
     1
102
RTVSPropertyOp14
 70
     1
102
RTVSPropertyOp15
 70
     1
102
RTVSPropertyOp16
 70
     1
102
RTVSPropertyOp17
 70
     1
102
RTVSPropertyOp18
 70
     1
102
RTVSPropertyOp19
 70
     1
102
RTVSPropertyOp20
 70
     1
102
RTVSPropertyOp21
 70
     1
102
RTVSPropertyOp22
 70
     1
102
RTVSPropertyOp23
 70
     1
102
RTVSPropertyOp24
 70
     1
102
RTVSPropertyOp25
 70
     1
102
RTVSPropertyOp26
 70
     1
102
RTVSPropertyOp27
 70
     1
102
RTVSPropertyOp28
 70
     1
102
RTVSPropertyOp29
 70
     1
102
RTVSPropertyOp30
 70
     1
102
RTVSPropertyOp31
 70
     1
102
RTVSPropertyOp32
 70
     1
102
RTVSPropertyOp33
 70
     1
102
RTVSPropertyOp34
 70
     1
102
RTVSPropertyOp35
 70
     1
102
RTVSPropertyOp36
 70
     1
102
RTVSPropertyOp37
 70
     1
102
RTVSPropertyOp38
 70
     1
102
RTVSPropertyOp39
 70
     1
102
RTVSPropertyOp40
 70
     1
102
RTVSPropertyOp41
 70
     1
102
RTVSPropertyOp42
 70
     1
102
RTVSPropertyOp43
 70
     1
102
RTVSPropertyOp44
 70
     1
102
RTVSPropertyOp45
 70
     1
102
RTVSPropertyOp46
 70
     1
102
RTVSPropertyOp47
 70
     1
102
RTVSPropertyOp48
 70
     1
102
RTVSPropertyOp49
 70
     1
102
RTVSPropertyOp50
 70
     1
102
RTVSPropertyOp51
 70
     0
102
RTVSPropertyOp52
 70
     0
102
RTVSPropertyOp53
 70
     1
102
RTVSPropertyOp54
 70
     1
102
RTVSPropertyOp55
 70
     1
102
RTVSPropertyOp56
 70
     1
102
RTVSPropertyOp57
 70
     1
102
RTVSPost2010Prop28
280
     0
102
RTVSPost2010PropOp28
 70
     1
102
RTVSPost2010Prop29
280
     1
102
RTVSPost2010PropOp29
 70
     1
102
RTVSPost2010Prop30
280
     1
102
RTVSPost2010PropOp30
 70
     1
102
RTVSPost2010Prop31
280
     0
102
RTVSPost2010PropOp31
 70
     1
102
RTVSPost2010Prop32
280
     0
102
RTVSPost2010PropOp32
 70
     1
102
RTVSPost2010Prop33
280
     0
102
RTVSPost2010PropOp33
 70
     1
102
RTVSPost2010Prop34
280
     0
102
RTVSPost2010PropOp34
 70
     1
102
RTVSPost2010Prop35
280
     0
102
RTVSPost2010PropOp35
 70
     1
102
RTVSPost2010Prop36
280
     0
102
RTVSPost2010PropOp36
 70
     1
102
RTVSPost2010Prop37
 90
       50
102
RTVSPost2010PropOp37
 70
     1
102
RTVSPost2010Prop38
140
0.0
102
RTVSPost2010PropOp38
 70
     1
102
RTVSPost2010Prop39
140
1.0
102
RTVSPost2010PropOp39
 70
     1
102
RTVSPost2010Prop40
 90
        0
102
RTVSPost2010PropOp40
 70
     1
102
RTVSPost2010Prop41ColorIndex
 90
       18
102
RTVSPost2010Prop41ColorRGB
 90
        0
102
RTVSPost2010PropOp41
 70
     1
102
RTVSPost2010Prop42
 90
       50
102
RTVSPost2010PropOp42
 70
     1
102
RTVSPost2010Prop43
 90
        3
102
RTVSPost2010PropOp43
 70
     1
102
RTVSPost2010Prop44ColorIndex
 90
        5
102
RTVSPost2010Prop44ColorRGB
 90
      255
102
RTVSPost2010PropOp44
 70
     1
102
RTVSPost2010Prop45
280
     0
102
RTVSPost2010PropOp45
 70
     1
102
RTVSPost2010Prop46
 90
       50
102
RTVSPost2010PropOp46
 70
     1
102
RTVSPost2010Prop47
 90
       50
102
RTVSPost2010PropOp47
 70
     1
102
RTVSPost2010Prop48
 90
       50
102
RTVSPost2010PropOp48
 70
     1
102
RTVSPost2010Prop49
280
     0
102
RTVSPost2010PropOp49
 70
     1
102
RTVSPost2010Prop50
 90
       50
102
RTVSPost2010PropOp50
 70
     1
102
RTVSPost2010Prop51ColorIndex
 90
      256
102
RTVSPost2010Prop51ColorRGB
 90
-16777216
102
RTVSPost2010PropOp51
 70
     0
102
RTVSPost2010Prop52
140
1.0
102
RTVSPost2010PropOp52
 70
     0
102
RTVSPost2010Prop53
 90
        2
102
RTVSPost2010PropOp53
 70
     1
102
RTVSPost2010Prop54
  1
strokes_ogs.tif
102
RTVSPost2010PropOp54
 70
     1
102
RTVSPost2010Prop55
280
     0
102
RTVSPost2010PropOp55
 70
     1
102
RTVSPost2010Prop56
140
1.0
102
RTVSPost2010PropOp56
 70
     1
102
RTVSPost2010Prop57
140
1.0
102
RTVSPost2010PropOp57
 70
     1
  0
XRECORD
  5
333
102
{ACAD_REACTORS
330
332
102
}
330
332
100
AcDbXrecord
280
     1
102
RTVSPropertyOp0
 70
     1
102
RTVSPropertyOp1
 70
     1
102
RTVSPropertyOp2
 70
     1
102
RTVSPropertyOp3
 70
     1
102
RTVSPropertyOp4
 70
     1
102
RTVSPropertyOp5
 70
     1
102
RTVSPropertyOp6
 70
     1
102
RTVSPropertyOp7
 70
     1
102
RTVSPropertyOp8
 70
     1
102
RTVSPropertyOp9
 70
     1
102
RTVSPropertyOp10
 70
     1
102
RTVSPropertyOp11
 70
     1
102
RTVSPropertyOp12
 70
     1
102
RTVSPropertyOp13
 70
     1
102
RTVSPropertyOp14
 70
     1
102
RTVSPropertyOp15
 70
     1
102
RTVSPropertyOp16
 70
     1
102
RTVSPropertyOp17
 70
     1
102
RTVSPropertyOp18
 70
     1
102
RTVSPropertyOp19
 70
     1
102
RTVSPropertyOp20
 70
     1
102
RTVSPropertyOp21
 70
     1
102
RTVSPropertyOp22
 70
     1
102
RTVSPropertyOp23
 70
     1
102
RTVSPropertyOp24
 70
     1
102
RTVSPropertyOp25
 70
     1
102
RTVSPropertyOp26
 70
     1
102
RTVSPropertyOp27
 70
     1
102
RTVSPropertyOp28
 70
     1
102
RTVSPropertyOp29
 70
     1
102
RTVSPropertyOp30
 70
     1
102
RTVSPropertyOp31
 70
     1
102
RTVSPropertyOp32
 70
     1
102
RTVSPropertyOp33
 70
     1
102
RTVSPropertyOp34
 70
     1
102
RTVSPropertyOp35
 70
     1
102
RTVSPropertyOp36
 70
     1
102
RTVSPropertyOp37
 70
     1
102
RTVSPropertyOp38
 70
     1
102
RTVSPropertyOp39
 70
     1
102
RTVSPropertyOp40
 70
     1
102
RTVSPropertyOp41
 70
     1
102
RTVSPropertyOp42
 70
     1
102
RTVSPropertyOp43
 70
     1
102
RTVSPropertyOp44
 70
     1
102
RTVSPropertyOp45
 70
     1
102
RTVSPropertyOp46
 70
     1
102
RTVSPropertyOp47
 70
     1
102
RTVSPropertyOp48
 70
     1
102
RTVSPropertyOp49
 70
     1
102
RTVSPropertyOp50
 70
     1
102
RTVSPropertyOp51
 70
     0
102
RTVSPropertyOp52
 70
     0
102
RTVSPropertyOp53
 70
     1
102
RTVSPropertyOp54
 70
     1
102
RTVSPropertyOp55
 70
     1
102
RTVSPropertyOp56
 70
     1
102
RTVSPropertyOp57
 70
     1
102
RTVSPost2010Prop28
280
     0
102
RTVSPost2010PropOp28
 70
     1
102
RTVSPost2010Prop29
280
     1
102
RTVSPost2010PropOp29
 70
     1
102
RTVSPost2010Prop30
280
     1
102
RTVSPost2010PropOp30
 70
     1
102
RTVSPost2010Prop31
280
     0
102
RTVSPost2010PropOp31
 70
     1
102
RTVSPost2010Prop32
280
     0
102
RTVSPost2010PropOp32
 70
     1
102
RTVSPost2010Prop33
280
     0
102
RTVSPost2010PropOp33
 70
     1
102
RTVSPost2010Prop34
280
     0
102
RTVSPost2010PropOp34
 70
     1
102
RTVSPost2010Prop35
280
     0
102
RTVSPost2010PropOp35
 70
     1
102
RTVSPost2010Prop36
280
     0
102
RTVSPost2010PropOp36
 70
     1
102
RTVSPost2010Prop37
 90
       50
102
RTVSPost2010PropOp37
 70
     1
102
RTVSPost2010Prop38
140
0.0
102
RTVSPost2010PropOp38
 70
     1
102
RTVSPost2010Prop39
140
1.0
102
RTVSPost2010PropOp39
 70
     1
102
RTVSPost2010Prop40
 90
        0
102
RTVSPost2010PropOp40
 70
     1
102
RTVSPost2010Prop41ColorIndex
 90
       18
102
RTVSPost2010Prop41ColorRGB
 90
        0
102
RTVSPost2010PropOp41
 70
     1
102
RTVSPost2010Prop42
 90
       50
102
RTVSPost2010PropOp42
 70
     1
102
RTVSPost2010Prop43
 90
        3
102
RTVSPost2010PropOp43
 70
     1
102
RTVSPost2010Prop44ColorIndex
 90
        5
102
RTVSPost2010Prop44ColorRGB
 90
      255
102
RTVSPost2010PropOp44
 70
     1
102
RTVSPost2010Prop45
280
     0
102
RTVSPost2010PropOp45
 70
     1
102
RTVSPost2010Prop46
 90
       50
102
RTVSPost2010PropOp46
 70
     1
102
RTVSPost2010Prop47
 90
       50
102
RTVSPost2010PropOp47
 70
     1
102
RTVSPost2010Prop48
 90
       50
102
RTVSPost2010PropOp48
 70
     1
102
RTVSPost2010Prop49
280
     0
102
RTVSPost2010PropOp49
 70
     1
102
RTVSPost2010Prop50
 90
       50
102
RTVSPost2010PropOp50
 70
     1
102
RTVSPost2010Prop51ColorIndex
 90
      256
102
RTVSPost2010Prop51ColorRGB
 90
-16777216
102
RTVSPost2010PropOp51
 70
     0
102
RTVSPost2010Prop52
140
1.0
102
RTVSPost2010PropOp52
 70
     0
102
RTVSPost2010Prop53
 90
        2
102
RTVSPost2010PropOp53
 70
     1
102
RTVSPost2010Prop54
  1
strokes_ogs.tif
102
RTVSPost2010PropOp54
 70
     1
102
RTVSPost2010Prop55
280
     0
102
RTVSPost2010PropOp55
 70
     1
102
RTVSPost2010Prop56
140
1.0
102
RTVSPost2010PropOp56
 70
     1
102
RTVSPost2010Prop57
140
1.0
102
RTVSPost2010PropOp57
 70
     1
  0
XRECORD
  5
335
102
{ACAD_REACTORS
330
334
102
}
330
334
100
AcDbXrecord
280
     1
102
RTVSPropertyOp0
 70
     1
102
RTVSPropertyOp1
 70
     1
102
RTVSPropertyOp2
 70
     1
102
RTVSPropertyOp3
 70
     1
102
RTVSPropertyOp4
 70
     1
102
RTVSPropertyOp5
 70
     1
102
RTVSPropertyOp6
 70
     1
102
RTVSPropertyOp7
 70
     1
102
RTVSPropertyOp8
 70
     1
102
RTVSPropertyOp9
 70
     1
102
RTVSPropertyOp10
 70
     1
102
RTVSPropertyOp11
 70
     1
102
RTVSPropertyOp12
 70
     1
102
RTVSPropertyOp13
 70
     1
102
RTVSPropertyOp14
 70
     1
102
RTVSPropertyOp15
 70
     1
102
RTVSPropertyOp16
 70
     1
102
RTVSPropertyOp17
 70
     1
102
RTVSPropertyOp18
 70
     1
102
RTVSPropertyOp19
 70
     1
102
RTVSPropertyOp20
 70
     1
102
RTVSPropertyOp21
 70
     1
102
RTVSPropertyOp22
 70
     1
102
RTVSPropertyOp23
 70
     1
102
RTVSPropertyOp24
 70
     1
102
RTVSPropertyOp25
 70
     1
102
RTVSPropertyOp26
 70
     1
102
RTVSPropertyOp27
 70
     1
102
RTVSPropertyOp28
 70
     1
102
RTVSPropertyOp29
 70
     1
102
RTVSPropertyOp30
 70
     1
102
RTVSPropertyOp31
 70
     1
102
RTVSPropertyOp32
 70
     1
102
RTVSPropertyOp33
 70
     1
102
RTVSPropertyOp34
 70
     1
102
RTVSPropertyOp35
 70
     1
102
RTVSPropertyOp36
 70
     1
102
RTVSPropertyOp37
 70
     1
102
RTVSPropertyOp38
 70
     1
102
RTVSPropertyOp39
 70
     1
102
RTVSPropertyOp40
 70
     1
102
RTVSPropertyOp41
 70
     1
102
RTVSPropertyOp42
 70
     1
102
RTVSPropertyOp43
 70
     1
102
RTVSPropertyOp44
 70
     1
102
RTVSPropertyOp45
 70
     1
102
RTVSPropertyOp46
 70
     1
102
RTVSPropertyOp47
 70
     1
102
RTVSPropertyOp48
 70
     1
102
RTVSPropertyOp49
 70
     1
102
RTVSPropertyOp50
 70
     1
102
RTVSPropertyOp51
 70
     0
102
RTVSPropertyOp52
 70
     0
102
RTVSPropertyOp53
 70
     1
102
RTVSPropertyOp54
 70
     1
102
RTVSPropertyOp55
 70
     1
102
RTVSPropertyOp56
 70
     1
102
RTVSPropertyOp57
 70
     1
102
RTVSPost2010Prop28
280
     0
102
RTVSPost2010PropOp28
 70
     1
102
RTVSPost2010Prop29
280
     1
102
RTVSPost2010PropOp29
 70
     1
102
RTVSPost2010Prop30
280
     1
102
RTVSPost2010PropOp30
 70
     1
102
RTVSPost2010Prop31
280
     0
102
RTVSPost2010PropOp31
 70
     1
102
RTVSPost2010Prop32
280
     0
102
RTVSPost2010PropOp32
 70
     1
102
RTVSPost2010Prop33
280
     0
102
RTVSPost2010PropOp33
 70
     1
102
RTVSPost2010Prop34
280
     0
102
RTVSPost2010PropOp34
 70
     1
102
RTVSPost2010Prop35
280
     0
102
RTVSPost2010PropOp35
 70
     1
102
RTVSPost2010Prop36
280
     0
102
RTVSPost2010PropOp36
 70
     1
102
RTVSPost2010Prop37
 90
       50
102
RTVSPost2010PropOp37
 70
     1
102
RTVSPost2010Prop38
140
0.0
102
RTVSPost2010PropOp38
 70
     1
102
RTVSPost2010Prop39
140
1.0
102
RTVSPost2010PropOp39
 70
     1
102
RTVSPost2010Prop40
 90
        0
102
RTVSPost2010PropOp40
 70
     1
102
RTVSPost2010Prop41ColorIndex
 90
       18
102
RTVSPost2010Prop41ColorRGB
 90
        0
102
RTVSPost2010PropOp41
 70
     1
102
RTVSPost2010Prop42
 90
       50
102
RTVSPost2010PropOp42
 70
     1
102
RTVSPost2010Prop43
 90
        3
102
RTVSPost2010PropOp43
 70
     1
102
RTVSPost2010Prop44ColorIndex
 90
        5
102
RTVSPost2010Prop44ColorRGB
 90
      255
102
RTVSPost2010PropOp44
 70
     1
102
RTVSPost2010Prop45
280
     0
102
RTVSPost2010PropOp45
 70
     1
102
RTVSPost2010Prop46
 90
       50
102
RTVSPost2010PropOp46
 70
     1
102
RTVSPost2010Prop47
 90
       50
102
RTVSPost2010PropOp47
 70
     1
102
RTVSPost2010Prop48
 90
       50
102
RTVSPost2010PropOp48
 70
     1
102
RTVSPost2010Prop49
280
     0
102
RTVSPost2010PropOp49
 70
     1
102
RTVSPost2010Prop50
 90
       50
102
RTVSPost2010PropOp50
 70
     1
102
RTVSPost2010Prop51ColorIndex
 90
      256
102
RTVSPost2010Prop51ColorRGB
 90
-16777216
102
RTVSPost2010PropOp51
 70
     0
102
RTVSPost2010Prop52
140
1.0
102
RTVSPost2010PropOp52
 70
     0
102
RTVSPost2010Prop53
 90
        2
102
RTVSPost2010PropOp53
 70
     1
102
RTVSPost2010Prop54
  1
strokes_ogs.tif
102
RTVSPost2010PropOp54
 70
     1
102
RTVSPost2010Prop55
280
     0
102
RTVSPost2010PropOp55
 70
     1
102
RTVSPost2010Prop56
140
1.0
102
RTVSPost2010PropOp56
 70
     1
102
RTVSPost2010Prop57
140
1.0
102
RTVSPost2010PropOp57
 70
     1
  0
XRECORD
  5
325
102
{ACAD_REACTORS
330
324
102
}
330
324
100
AcDbXrecord
280
     1
102
RTVSPropertyOp0
 70
     1
102
RTVSPropertyOp1
 70
     1
102
RTVSPropertyOp2
 70
     1
102
RTVSPropertyOp3
 70
     1
102
RTVSPropertyOp4
 70
     1
102
RTVSPropertyOp5
 70
     1
102
RTVSPropertyOp6
 70
     1
102
RTVSPropertyOp7
 70
     1
102
RTVSPropertyOp8
 70
     1
102
RTVSPropertyOp9
 70
     1
102
RTVSPropertyOp10
 70
     1
102
RTVSPropertyOp11
 70
     1
102
RTVSPropertyOp12
 70
     1
102
RTVSPropertyOp13
 70
     1
102
RTVSPropertyOp14
 70
     1
102
RTVSPropertyOp15
 70
     1
102
RTVSPropertyOp16
 70
     1
102
RTVSPropertyOp17
 70
     1
102
RTVSPropertyOp18
 70
     1
102
RTVSPropertyOp19
 70
     1
102
RTVSPropertyOp20
 70
     1
102
RTVSPropertyOp21
 70
     1
102
RTVSPropertyOp22
 70
     1
102
RTVSPropertyOp23
 70
     1
102
RTVSPropertyOp24
 70
     1
102
RTVSPropertyOp25
 70
     1
102
RTVSPropertyOp26
 70
     1
102
RTVSPropertyOp27
 70
     1
102
RTVSPropertyOp28
 70
     1
102
RTVSPropertyOp29
 70
     1
102
RTVSPropertyOp30
 70
     1
102
RTVSPropertyOp31
 70
     1
102
RTVSPropertyOp32
 70
     1
102
RTVSPropertyOp33
 70
     1
102
RTVSPropertyOp34
 70
     1
102
RTVSPropertyOp35
 70
     1
102
RTVSPropertyOp36
 70
     1
102
RTVSPropertyOp37
 70
     1
102
RTVSPropertyOp38
 70
     1
102
RTVSPropertyOp39
 70
     1
102
RTVSPropertyOp40
 70
     1
102
RTVSPropertyOp41
 70
     1
102
RTVSPropertyOp42
 70
     1
102
RTVSPropertyOp43
 70
     1
102
RTVSPropertyOp44
 70
     1
102
RTVSPropertyOp45
 70
     1
102
RTVSPropertyOp46
 70
     1
102
RTVSPropertyOp47
 70
     1
102
RTVSPropertyOp48
 70
     1
102
RTVSPropertyOp49
 70
     1
102
RTVSPropertyOp50
 70
     1
102
RTVSPropertyOp51
 70
     0
102
RTVSPropertyOp52
 70
     0
102
RTVSPropertyOp53
 70
     1
102
RTVSPropertyOp54
 70
     1
102
RTVSPropertyOp55
 70
     1
102
RTVSPropertyOp56
 70
     1
102
RTVSPropertyOp57
 70
     1
102
RTVSPost2010Prop28
280
     0
102
RTVSPost2010PropOp28
 70
     1
102
RTVSPost2010Prop29
280
     1
102
RTVSPost2010PropOp29
 70
     1
102
RTVSPost2010Prop30
280
     1
102
RTVSPost2010PropOp30
 70
     1
102
RTVSPost2010Prop31
280
     0
102
RTVSPost2010PropOp31
 70
     1
102
RTVSPost2010Prop32
280
     0
102
RTVSPost2010PropOp32
 70
     1
102
RTVSPost2010Prop33
280
     0
102
RTVSPost2010PropOp33
 70
     1
102
RTVSPost2010Prop34
280
     0
102
RTVSPost2010PropOp34
 70
     1
102
RTVSPost2010Prop35
280
     0
102
RTVSPost2010PropOp35
 70
     1
102
RTVSPost2010Prop36
280
     0
102
RTVSPost2010PropOp36
 70
     1
102
RTVSPost2010Prop37
 90
       50
102
RTVSPost2010PropOp37
 70
     1
102
RTVSPost2010Prop38
140
0.0
102
RTVSPost2010PropOp38
 70
     1
102
RTVSPost2010Prop39
140
1.0
102
RTVSPost2010PropOp39
 70
     1
102
RTVSPost2010Prop40
 90
        0
102
RTVSPost2010PropOp40
 70
     1
102
RTVSPost2010Prop41ColorIndex
 90
       18
102
RTVSPost2010Prop41ColorRGB
 90
        0
102
RTVSPost2010PropOp41
 70
     1
102
RTVSPost2010Prop42
 90
       50
102
RTVSPost2010PropOp42
 70
     1
102
RTVSPost2010Prop43
 90
        3
102
RTVSPost2010PropOp43
 70
     1
102
RTVSPost2010Prop44ColorIndex
 90
        5
102
RTVSPost2010Prop44ColorRGB
 90
      255
102
RTVSPost2010PropOp44
 70
     1
102
RTVSPost2010Prop45
280
     0
102
RTVSPost2010PropOp45
 70
     1
102
RTVSPost2010Prop46
 90
       50
102
RTVSPost2010PropOp46
 70
     1
102
RTVSPost2010Prop47
 90
       50
102
RTVSPost2010PropOp47
 70
     1
102
RTVSPost2010Prop48
 90
       50
102
RTVSPost2010PropOp48
 70
     1
102
RTVSPost2010Prop49
280
     0
102
RTVSPost2010PropOp49
 70
     1
102
RTVSPost2010Prop50
 90
       50
102
RTVSPost2010PropOp50
 70
     1
102
RTVSPost2010Prop51ColorIndex
 90
      256
102
RTVSPost2010Prop51ColorRGB
 90
-16777216
102
RTVSPost2010PropOp51
 70
     0
102
RTVSPost2010Prop52
140
1.0
102
RTVSPost2010PropOp52
 70
     0
102
RTVSPost2010Prop53
 90
        2
102
RTVSPost2010PropOp53
 70
     1
102
RTVSPost2010Prop54
  1
strokes_ogs.tif
102
RTVSPost2010PropOp54
 70
     1
102
RTVSPost2010Prop55
280
     0
102
RTVSPost2010PropOp55
 70
     1
102
RTVSPost2010Prop56
140
1.0
102
RTVSPost2010PropOp56
 70
     1
102
RTVSPost2010Prop57
140
1.0
102
RTVSPost2010PropOp57
 70
     1
  0
XRECORD
  5
317
102
{ACAD_REACTORS
330
316
102
}
330
316
100
AcDbXrecord
280
     1
102
RTVSPropertyOp0
 70
     1
102
RTVSPropertyOp1
 70
     1
102
RTVSPropertyOp2
 70
     1
102
RTVSPropertyOp3
 70
     1
102
RTVSPropertyOp4
 70
     1
102
RTVSPropertyOp5
 70
     1
102
RTVSPropertyOp6
 70
     1
102
RTVSPropertyOp7
 70
     1
102
RTVSPropertyOp8
 70
     1
102
RTVSPropertyOp9
 70
     1
102
RTVSPropertyOp10
 70
     1
102
RTVSPropertyOp11
 70
     1
102
RTVSPropertyOp12
 70
     1
102
RTVSPropertyOp13
 70
     1
102
RTVSPropertyOp14
 70
     1
102
RTVSPropertyOp15
 70
     1
102
RTVSPropertyOp16
 70
     1
102
RTVSPropertyOp17
 70
     1
102
RTVSPropertyOp18
 70
     1
102
RTVSPropertyOp19
 70
     1
102
RTVSPropertyOp20
 70
     1
102
RTVSPropertyOp21
 70
     1
102
RTVSPropertyOp22
 70
     1
102
RTVSPropertyOp23
 70
     1
102
RTVSPropertyOp24
 70
     1
102
RTVSPropertyOp25
 70
     1
102
RTVSPropertyOp26
 70
     1
102
RTVSPropertyOp27
 70
     1
102
RTVSPropertyOp28
 70
     1
102
RTVSPropertyOp29
 70
     1
102
RTVSPropertyOp30
 70
     1
102
RTVSPropertyOp31
 70
     1
102
RTVSPropertyOp32
 70
     1
102
RTVSPropertyOp33
 70
     1
102
RTVSPropertyOp34
 70
     1
102
RTVSPropertyOp35
 70
     1
102
RTVSPropertyOp36
 70
     1
102
RTVSPropertyOp37
 70
     1
102
RTVSPropertyOp38
 70
     1
102
RTVSPropertyOp39
 70
     1
102
RTVSPropertyOp40
 70
     1
102
RTVSPropertyOp41
 70
     1
102
RTVSPropertyOp42
 70
     1
102
RTVSPropertyOp43
 70
     1
102
RTVSPropertyOp44
 70
     1
102
RTVSPropertyOp45
 70
     1
102
RTVSPropertyOp46
 70
     1
102
RTVSPropertyOp47
 70
     1
102
RTVSPropertyOp48
 70
     1
102
RTVSPropertyOp49
 70
     1
102
RTVSPropertyOp50
 70
     1
102
RTVSPropertyOp51
 70
     0
102
RTVSPropertyOp52
 70
     0
102
RTVSPropertyOp53
 70
     1
102
RTVSPropertyOp54
 70
     1
102
RTVSPropertyOp55
 70
     1
102
RTVSPropertyOp56
 70
     1
102
RTVSPropertyOp57
 70
     1
102
RTVSPost2010Prop28
280
     0
102
RTVSPost2010PropOp28
 70
     1
102
RTVSPost2010Prop29
280
     1
102
RTVSPost2010PropOp29
 70
     1
102
RTVSPost2010Prop30
280
     1
102
RTVSPost2010PropOp30
 70
     1
102
RTVSPost2010Prop31
280
     0
102
RTVSPost2010PropOp31
 70
     1
102
RTVSPost2010Prop32
280
     0
102
RTVSPost2010PropOp32
 70
     1
102
RTVSPost2010Prop33
280
     0
102
RTVSPost2010PropOp33
 70
     1
102
RTVSPost2010Prop34
280
     0
102
RTVSPost2010PropOp34
 70
     1
102
RTVSPost2010Prop35
280
     0
102
RTVSPost2010PropOp35
 70
     1
102
RTVSPost2010Prop36
280
     0
102
RTVSPost2010PropOp36
 70
     1
102
RTVSPost2010Prop37
 90
       50
102
RTVSPost2010PropOp37
 70
     1
102
RTVSPost2010Prop38
140
0.0
102
RTVSPost2010PropOp38
 70
     1
102
RTVSPost2010Prop39
140
1.0
102
RTVSPost2010PropOp39
 70
     1
102
RTVSPost2010Prop40
 90
        0
102
RTVSPost2010PropOp40
 70
     1
102
RTVSPost2010Prop41ColorIndex
 90
       18
102
RTVSPost2010Prop41ColorRGB
 90
        0
102
RTVSPost2010PropOp41
 70
     1
102
RTVSPost2010Prop42
 90
       50
102
RTVSPost2010PropOp42
 70
     1
102
RTVSPost2010Prop43
 90
        3
102
RTVSPost2010PropOp43
 70
     1
102
RTVSPost2010Prop44ColorIndex
 90
        5
102
RTVSPost2010Prop44ColorRGB
 90
      255
102
RTVSPost2010PropOp44
 70
     1
102
RTVSPost2010Prop45
280
     0
102
RTVSPost2010PropOp45
 70
     1
102
RTVSPost2010Prop46
 90
       50
102
RTVSPost2010PropOp46
 70
     1
102
RTVSPost2010Prop47
 90
       50
102
RTVSPost2010PropOp47
 70
     1
102
RTVSPost2010Prop48
 90
       50
102
RTVSPost2010PropOp48
 70
     1
102
RTVSPost2010Prop49
280
     0
102
RTVSPost2010PropOp49
 70
     1
102
RTVSPost2010Prop50
 90
       50
102
RTVSPost2010PropOp50
 70
     1
102
RTVSPost2010Prop51ColorIndex
 90
      256
102
RTVSPost2010Prop51ColorRGB
 90
-16777216
102
RTVSPost2010PropOp51
 70
     0
102
RTVSPost2010Prop52
140
1.0
102
RTVSPost2010PropOp52
 70
     0
102
RTVSPost2010Prop53
 90
        2
102
RTVSPost2010PropOp53
 70
     1
102
RTVSPost2010Prop54
  1
strokes_ogs.tif
102
RTVSPost2010PropOp54
 70
     1
102
RTVSPost2010Prop55
280
     0
102
RTVSPost2010PropOp55
 70
     1
102
RTVSPost2010Prop56
140
1.0
102
RTVSPost2010PropOp56
 70
     1
102
RTVSPost2010Prop57
140
1.0
102
RTVSPost2010PropOp57
 70
     1
  0
XRECORD
  5
337
102
{ACAD_REACTORS
330
336
102
}
330
336
100
AcDbXrecord
280
     1
102
RTVSPropertyOp0
 70
     1
102
RTVSPropertyOp1
 70
     1
102
RTVSPropertyOp2
 70
     1
102
RTVSPropertyOp3
 70
     1
102
RTVSPropertyOp4
 70
     1
102
RTVSPropertyOp5
 70
     1
102
RTVSPropertyOp6
 70
     1
102
RTVSPropertyOp7
 70
     1
102
RTVSPropertyOp8
 70
     1
102
RTVSPropertyOp9
 70
     1
102
RTVSPropertyOp10
 70
     1
102
RTVSPropertyOp11
 70
     1
102
RTVSPropertyOp12
 70
     1
102
RTVSPropertyOp13
 70
     1
102
RTVSPropertyOp14
 70
     1
102
RTVSPropertyOp15
 70
     1
102
RTVSPropertyOp16
 70
     1
102
RTVSPropertyOp17
 70
     1
102
RTVSPropertyOp18
 70
     1
102
RTVSPropertyOp19
 70
     1
102
RTVSPropertyOp20
 70
     1
102
RTVSPropertyOp21
 70
     1
102
RTVSPropertyOp22
 70
     1
102
RTVSPropertyOp23
 70
     1
102
RTVSPropertyOp24
 70
     1
102
RTVSPropertyOp25
 70
     1
102
RTVSPropertyOp26
 70
     1
102
RTVSPropertyOp27
 70
     1
102
RTVSPropertyOp28
 70
     1
102
RTVSPropertyOp29
 70
     1
102
RTVSPropertyOp30
 70
     1
102
RTVSPropertyOp31
 70
     1
102
RTVSPropertyOp32
 70
     1
102
RTVSPropertyOp33
 70
     1
102
RTVSPropertyOp34
 70
     1
102
RTVSPropertyOp35
 70
     1
102
RTVSPropertyOp36
 70
     1
102
RTVSPropertyOp37
 70
     1
102
RTVSPropertyOp38
 70
     1
102
RTVSPropertyOp39
 70
     1
102
RTVSPropertyOp40
 70
     1
102
RTVSPropertyOp41
 70
     1
102
RTVSPropertyOp42
 70
     1
102
RTVSPropertyOp43
 70
     1
102
RTVSPropertyOp44
 70
     1
102
RTVSPropertyOp45
 70
     1
102
RTVSPropertyOp46
 70
     1
102
RTVSPropertyOp47
 70
     1
102
RTVSPropertyOp48
 70
     1
102
RTVSPropertyOp49
 70
     1
102
RTVSPropertyOp50
 70
     1
102
RTVSPropertyOp51
 70
     0
102
RTVSPropertyOp52
 70
     0
102
RTVSPropertyOp53
 70
     1
102
RTVSPropertyOp54
 70
     1
102
RTVSPropertyOp55
 70
     1
102
RTVSPropertyOp56
 70
     1
102
RTVSPropertyOp57
 70
     1
102
RTVSPost2010Prop28
280
     0
102
RTVSPost2010PropOp28
 70
     1
102
RTVSPost2010Prop29
280
     1
102
RTVSPost2010PropOp29
 70
     1
102
RTVSPost2010Prop30
280
     1
102
RTVSPost2010PropOp30
 70
     1
102
RTVSPost2010Prop31
280
     0
102
RTVSPost2010PropOp31
 70
     1
102
RTVSPost2010Prop32
280
     0
102
RTVSPost2010PropOp32
 70
     1
102
RTVSPost2010Prop33
280
     0
102
RTVSPost2010PropOp33
 70
     1
102
RTVSPost2010Prop34
280
     0
102
RTVSPost2010PropOp34
 70
     1
102
RTVSPost2010Prop35
280
     0
102
RTVSPost2010PropOp35
 70
     1
102
RTVSPost2010Prop36
280
     0
102
RTVSPost2010PropOp36
 70
     1
102
RTVSPost2010Prop37
 90
       50
102
RTVSPost2010PropOp37
 70
     1
102
RTVSPost2010Prop38
140
0.0
102
RTVSPost2010PropOp38
 70
     1
102
RTVSPost2010Prop39
140
1.0
102
RTVSPost2010PropOp39
 70
     1
102
RTVSPost2010Prop40
 90
        0
102
RTVSPost2010PropOp40
 70
     1
102
RTVSPost2010Prop41ColorIndex
 90
       18
102
RTVSPost2010Prop41ColorRGB
 90
        0
102
RTVSPost2010PropOp41
 70
     1
102
RTVSPost2010Prop42
 90
       50
102
RTVSPost2010PropOp42
 70
     1
102
RTVSPost2010Prop43
 90
        3
102
RTVSPost2010PropOp43
 70
     1
102
RTVSPost2010Prop44ColorIndex
 90
        5
102
RTVSPost2010Prop44ColorRGB
 90
      255
102
RTVSPost2010PropOp44
 70
     1
102
RTVSPost2010Prop45
280
     0
102
RTVSPost2010PropOp45
 70
     1
102
RTVSPost2010Prop46
 90
       50
102
RTVSPost2010PropOp46
 70
     1
102
RTVSPost2010Prop47
 90
       50
102
RTVSPost2010PropOp47
 70
     1
102
RTVSPost2010Prop48
 90
       50
102
RTVSPost2010PropOp48
 70
     1
102
RTVSPost2010Prop49
280
     0
102
RTVSPost2010PropOp49
 70
     1
102
RTVSPost2010Prop50
 90
       50
102
RTVSPost2010PropOp50
 70
     1
102
RTVSPost2010Prop51ColorIndex
 90
      256
102
RTVSPost2010Prop51ColorRGB
 90
-16777216
102
RTVSPost2010PropOp51
 70
     0
102
RTVSPost2010Prop52
140
1.0
102
RTVSPost2010PropOp52
 70
     0
102
RTVSPost2010Prop53
 90
        2
102
RTVSPost2010PropOp53
 70
     1
102
RTVSPost2010Prop54
  1
strokes_ogs.tif
102
RTVSPost2010PropOp54
 70
     1
102
RTVSPost2010Prop55
280
     0
102
RTVSPost2010PropOp55
 70
     1
102
RTVSPost2010Prop56
140
1.0
102
RTVSPost2010PropOp56
 70
     1
102
RTVSPost2010Prop57
140
1.0
102
RTVSPost2010PropOp57
 70
     1
  0
ENDSEC
  0
EOF
