  0
SECTION
  2
HEADER
  9
$ACADVER
  1
AC1018
  9
$ACADMAINTVER
 70
     0
  9
$DWGCODEPAGE
  3
ANSI_932
  9
$INSBASE
 10
0.0
 20
0.0
 30
0.0
  9
$EXTMIN
 10
-2100.0
 20
-1485.0
 30
0.0
  9
$EXTMAX
 10
2100.0
 20
1485.0
 30
0.0
  9
$LIMMIN
 10
-2100.0
 20
-1485.0
  9
$LIMMAX
 10
2100.0
 20
1485.0
  9
$ORTHOMODE
 70
     0
  9
$REGENMODE
 70
     1
  9
$FILLMODE
 70
     1
  9
$QTEXTMODE
 70
     0
  9
$MIRRTEXT
 70
     1
  9
$LTSCALE
 40
10.0
  9
$ATTMODE
 70
     1
  9
$TEXTSIZE
 40
2.5
  9
$TRACEWID
 40
1.0
  9
$TEXTSTYLE
  7
Standard
  9
$CLAYER
  8
0
  9
$CELTYPE
  6
ByLayer
  9
$CECOLOR
 62
   256
  9
$CELTSCALE
 40
1.0
  9
$DISPSILH
 70
     0
  9
$DIMSCALE
 40
1.0
  9
$DIMASZ
 40
2.5
  9
$DIMEXO
 40
0.625
  9
$DIMDLI
 40
3.75
  9
$DIMRND
 40
0.0
  9
$DIMDLE
 40
0.0
  9
$DIMEXE
 40
1.25
  9
$DIMTP
 40
0.0
  9
$DIMTM
 40
0.0
  9
$DIMTXT
 40
2.5
  9
$DIMCEN
 40
2.5
  9
$DIMTSZ
 40
0.0
  9
$DIMTOL
 70
     0
  9
$DIMLIM
 70
     0
  9
$DIMTIH
 70
     0
  9
$DIMTOH
 70
     0
  9
$DIMSE1
 70
     0
  9
$DIMSE2
 70
     0
  9
$DIMTAD
 70
     1
  9
$DIMZIN
 70
     8
  9
$DIMBLK
  1

  9
$DIMASO
 70
     1
  9
$DIMSHO
 70
     1
  9
$DIMPOST
  1

  9
$DIMAPOST
  1

  9
$DIMALT
 70
     0
  9
$DIMALTD
 70
     3
  9
$DIMALTF
 40
0.03937007874016
  9
$DIMLFAC
 40
1.0
  9
$DIMTOFL
 70
     1
  9
$DIMTVP
 40
0.0
  9
$DIMTIX
 70
     0
  9
$DIMSOXD
 70
     0
  9
$DIMSAH
 70
     0
  9
$DIMBLK1
  1

  9
$DIMBLK2
  1

  9
$DIMSTYLE
  2
ISO-25
  9
$DIMCLRD
 70
     0
  9
$DIMCLRE
 70
     0
  9
$DIMCLRT
 70
     0
  9
$DIMTFAC
 40
1.0
  9
$DIMGAP
 40
0.625
  9
$DIMJUST
 70
     0
  9
$DIMSD1
 70
     0
  9
$DIMSD2
 70
     0
  9
$DIMTOLJ
 70
     0
  9
$DIMTZIN
 70
     8
  9
$DIMALTZ
 70
     0
  9
$DIMALTTZ
 70
     0
  9
$DIMUPT
 70
     0
  9
$DIMDEC
 70
     2
  9
$DIMTDEC
 70
     2
  9
$DIMALTU
 70
     2
  9
$DIMALTTD
 70
     3
  9
$DIMTXSTY
  7
Standard
  9
$DIMAUNIT
 70
     0
  9
$DIMADEC
 70
     0
  9
$DIMALTRND
 40
0.0
  9
$DIMAZIN
 70
     0
  9
$DIMDSEP
 70
    44
  9
$DIMATFIT
 70
     3
  9
$DIMFRAC
 70
     0
  9
$DIMLDRBLK
  1

  9
$DIMLUNIT
 70
     2
  9
$DIMLWD
 70
    -2
  9
$DIMLWE
 70
    -2
  9
$DIMTMOVE
 70
     0
  9
$LUNITS
 70
     2
  9
$LUPREC
 70
     4
  9
$SKETCHINC
 40
1.0
  9
$FILLETRAD
 40
10.0
  9
$AUNITS
 70
     0
  9
$AUPREC
 70
     0
  9
$MENU
  1
.
  9
$ELEVATION
 40
0.0
  9
$PELEVATION
 40
0.0
  9
$THICKNESS
 40
0.0
  9
$LIMCHECK
 70
     0
  9
$CHAMFERA
 40
0.0
  9
$CHAMFERB
 40
0.0
  9
$CHAMFERC
 40
0.0
  9
$CHAMFERD
 40
0.0
  9
$SKPOLY
 70
     0
  9
$TDCREATE
 40
2459923.470111227
  9
$TDUCREATE
 40
2459923.095111227
  9
$TDUPDATE
 40
2459923.470111412
  9
$TDUUPDATE
 40
2459923.095111412
  9
$TDINDWG
 40
0.0000000116
  9
$TDUSRTIMER
 40
0.0000000116
  9
$USRTIMER
 70
     1
  9
$ANGBASE
 50
0.0
  9
$ANGDIR
 70
     0
  9
$PDMODE
 70
     0
  9
$PDSIZE
 40
0.0
  9
$PLINEWID
 40
0.0
  9
$SPLFRAME
 70
     0
  9
$SPLINETYPE
 70
     6
  9
$SPLINESEGS
 70
     8
  9
$HANDSEED
  5
471
  9
$SURFTAB1
 70
     6
  9
$SURFTAB2
 70
     6
  9
$SURFTYPE
 70
     6
  9
$SURFU
 70
     6
  9
$SURFV
 70
     6
  9
$UCSBASE
  2

  9
$UCSNAME
  2

  9
$UCSORG
 10
0.0
 20
0.0
 30
0.0
  9
$UCSXDIR
 10
1.0
 20
0.0
 30
0.0
  9
$UCSYDIR
 10
0.0
 20
1.0
 30
0.0
  9
$UCSORTHOREF
  2

  9
$UCSORTHOVIEW
 70
     0
  9
$UCSORGTOP
 10
0.0
 20
0.0
 30
0.0
  9
$UCSORGBOTTOM
 10
0.0
 20
0.0
 30
0.0
  9
$UCSORGLEFT
 10
0.0
 20
0.0
 30
0.0
  9
$UCSORGRIGHT
 10
0.0
 20
0.0
 30
0.0
  9
$UCSORGFRONT
 10
0.0
 20
0.0
 30
0.0
  9
$UCSORGBACK
 10
0.0
 20
0.0
 30
0.0
  9
$PUCSBASE
  2

  9
$PUCSNAME
  2

  9
$PUCSORG
 10
0.0
 20
0.0
 30
0.0
  9
$PUCSXDIR
 10
1.0
 20
0.0
 30
0.0
  9
$PUCSYDIR
 10
0.0
 20
1.0
 30
0.0
  9
$PUCSORTHOREF
  2

  9
$PUCSORTHOVIEW
 70
     0
  9
$PUCSORGTOP
 10
0.0
 20
0.0
 30
0.0
  9
$PUCSORGBOTTOM
 10
0.0
 20
0.0
 30
0.0
  9
$PUCSORGLEFT
 10
0.0
 20
0.0
 30
0.0
  9
$PUCSORGRIGHT
 10
0.0
 20
0.0
 30
0.0
  9
$PUCSORGFRONT
 10
0.0
 20
0.0
 30
0.0
  9
$PUCSORGBACK
 10
0.0
 20
0.0
 30
0.0
  9
$USERI1
 70
     0
  9
$USERI2
 70
     0
  9
$USERI3
 70
     0
  9
$USERI4
 70
     0
  9
$USERI5
 70
     0
  9
$USERR1
 40
0.0
  9
$USERR2
 40
0.0
  9
$USERR3
 40
0.0
  9
$USERR4
 40
0.0
  9
$USERR5
 40
0.0
  9
$WORLDVIEW
 70
     1
  9
$SHADEDGE
 70
     3
  9
$SHADEDIF
 70
    70
  9
$TILEMODE
 70
     1
  9
$MAXACTVP
 70
    64
  9
$PINSBASE
 10
0.0
 20
0.0
 30
0.0
  9
$PLIMCHECK
 70
     0
  9
$PEXTMIN
 10
1.000000000000000E+20
 20
1.000000000000000E+20
 30
1.000000000000000E+20
  9
$PEXTMAX
 10
-1.000000000000000E+20
 20
-1.000000000000000E+20
 30
-1.000000000000000E+20
  9
$PLIMMIN
 10
0.0
 20
0.0
  9
$PLIMMAX
 10
420.0
 20
297.0
  9
$UNITMODE
 70
     0
  9
$VISRETAIN
 70
     1
  9
$PLINEGEN
 70
     0
  9
$PSLTSCALE
 70
     1
  9
$TREEDEPTH
 70
  3020
  9
$CMLSTYLE
  2
Standard
  9
$CMLJUST
 70
     0
  9
$CMLSCALE
 40
20.0
  9
$PROXYGRAPHICS
 70
     1
  9
$MEASUREMENT
 70
     1
  9
$CELWEIGHT
370
    -1
  9
$ENDCAPS
280
     0
  9
$JOINSTYLE
280
     0
  9
$LWDISPLAY
290
     0
  9
$INSUNITS
 70
     4
  9
$HYPERLINKBASE
  1

  9
$STYLESHEET
  1

  9
$XEDIT
290
     1
  9
$CEPSNTYPE
380
     0
  9
$PSTYLEMODE
290
     1
  9
$FINGERPRINTGUID
  2
{BC62ED7E-FD17-4946-A2E9-98FFCFD4CDBF}
  9
$VERSIONGUID
  2
{FAEB1C32-E019-11D5-929B-00C0DF256EC4}
  9
$EXTNAMES
290
     1
  9
$PSVPSCALE
 40
0.0
  9
$OLESTARTUP
290
     0
  9
$SORTENTS
280
   127
  9
$INDEXCTL
280
     0
  9
$HIDETEXT
280
     1
  9
$XCLIPFRAME
290
     0
  9
$HALOGAP
280
     0
  9
$OBSCOLOR
 70
   257
  9
$OBSLTYPE
280
     0
  9
$INTERSECTIONDISPLAY
280
     0
  9
$INTERSECTIONCOLOR
 70
   257
  9
$DIMASSOC
280
     2
  9
$PROJECTNAME
  1

  0
ENDSEC
  0
SECTION
  2
CLASSES
  0
CLASS
  1
ACDBDICTIONARYWDFLT
  2
AcDbDictionaryWithDefault
  3
ObjectDBX Classes
 90
        0
 91
        4
280
     0
281
     0
  0
CLASS
  1
VISUALSTYLE
  2
AcDbVisualStyle
  3
ObjectDBX Classes
 90
     4095
 91
        4
280
     0
281
     0
  0
CLASS
  1
MATERIAL
  2
AcDbMaterial
  3
ObjectDBX Classes
 90
     1153
 91
        4
280
     0
281
     0
  0
CLASS
  1
SCALE
  2
AcDbScale
  3
ObjectDBX Classes
 90
     1153
 91
        4
280
     0
281
     0
  0
CLASS
  1
TABLESTYLE
  2
AcDbTableStyle
  3
ObjectDBX Classes
 90
     4095
 91
        4
280
     0
281
     0
  0
CLASS
  1
MLEADERSTYLE
  2
AcDbMLeaderStyle
  3
ACDB_MLEADERSTYLE_CLASS
 90
     4095
 91
        4
280
     0
281
     0
  0
CLASS
  1
SUN
  2
AcDbSun
  3
SCENEOE
 90
     1153
 91
        4
280
     0
281
     0
  0
CLASS
  1
DICTIONARYVAR
  2
AcDbDictionaryVar
  3
ObjectDBX Classes
 90
        0
 91
        4
280
     0
281
     0
  0
CLASS
  1
CELLSTYLEMAP
  2
AcDbCellStyleMap
  3
ObjectDBX Classes
 90
     1152
 91
        4
280
     0
281
     0
  0
ENDSEC
  0
SECTION
  2
TABLES
  0
TABLE
  2
VPORT
  5
8
102
{ACAD_XDICTIONARY
360
428
102
}
330
0
100
AcDbSymbolTable
 70
     1
  0
VPORT
  5
29
330
8
100
AcDbSymbolTableRecord
100
AcDbViewportTableRecord
  2
*Active
 70
     0
 10
0.0
 20
0.0
 11
1.0
 21
1.0
 12
0.0
 22
0.0
 13
0.0
 23
0.0
 14
10.0
 24
10.0
 15
10.0
 25
10.0
 16
0.0
 26
0.0
 36
1.0
 17
0.0
 27
0.0
 37
0.0
 40
3267.0
 41
1.414141414141414
 42
50.0
 43
0.0
 44
0.0
 50
0.0
 51
0.0
 71
     0
 72
 10000
 73
     1
 74
     3
 75
     0
 76
     0
 77
     0
 78
     0
281
     0
 65
     1
110
0.0
120
0.0
130
0.0
111
1.0
121
0.0
131
0.0
112
0.0
122
1.0
132
0.0
 79
     0
146
0.0
  0
ENDTAB
  0
TABLE
  2
LTYPE
  5
5
330
0
100
AcDbSymbolTable
 70
     5
  0
LTYPE
  5
14
330
5
100
AcDbSymbolTableRecord
100
AcDbLinetypeTableRecord
  2
ByBlock
 70
     0
  3

 72
    65
 73
     0
 40
0.0
  0
LTYPE
  5
15
330
5
100
AcDbSymbolTableRecord
100
AcDbLinetypeTableRecord
  2
ByLayer
 70
     0
  3

 72
    65
 73
     0
 40
0.0
  0
LTYPE
  5
16
330
5
100
AcDbSymbolTableRecord
100
AcDbLinetypeTableRecord
  2
Continuous
 70
     0
  3
Solid line
 72
    65
 73
     0
 40
0.0
  0
LTYPE
  5
6F
330
5
100
AcDbSymbolTableRecord
100
AcDbLinetypeTableRecord
  2
JWW_CENTER1
 70
     0
  3
-----  --  ----------  --  -----
 72
    65
 73
     4
 40
6.773333333333333
 49
4.233333333333333
 74
     0
 49
-0.8466666666666667
 74
     0
 49
0.8466666666666667
 74
     0
 49
-0.8466666666666667
 74
     0
  0
LTYPE
  5
70
330
5
100
AcDbSymbolTableRecord
100
AcDbLinetypeTableRecord
  2
JWW_DASHED3
 70
     0
  3
---  ------  ------  ------  ---
 72
    65
 73
     2
 40
3.386666666666667
 49
2.54
 74
     0
 49
-0.8466666666666667
 74
     0
  0
LTYPE
  5
71
330
5
100
AcDbSymbolTableRecord
100
AcDbLinetypeTableRecord
  2
JWW_DASHED2
 70
     0
  3
--    ----    ----    ----    --
 72
    65
 73
     2
 40
3.386666666666667
 49
1.693333333333333
 74
     0
 49
-1.693333333333333
 74
     0
  0
LTYPE
  5
72
330
5
100
AcDbSymbolTableRecord
100
AcDbLinetypeTableRecord
  2
JWW_CENTER2
 70
     0
  3
-------------  --  -------------
 72
    65
 73
     4
 40
13.54666666666667
 49
11.00666666666667
 74
     0
 49
-0.8466666666666667
 74
     0
 49
0.8466666666666667
 74
     0
 49
-0.8466666666666667
 74
     0
  0
ENDTAB
  0
TABLE
  2
LAYER
  5
2
330
0
100
AcDbSymbolTable
 70
    15
  0
LAYER
  5
10
330
2
100
AcDbSymbolTableRecord
100
AcDbLayerTableRecord
  2
0
 70
     0
 62
     7
  6
Continuous
370
    -3
390
F
  0
LAYER
  5
73
330
2
100
AcDbSymbolTableRecord
100
AcDbLayerTableRecord
  2
C-4
 70
     0
 62
     7
  6
Continuous
370
    -3
390
F
  0
LAYER
  5
74
330
2
100
AcDbSymbolTableRecord
100
AcDbLayerTableRecord
  2
C-2
 70
     0
 62
     7
  6
Continuous
370
    -3
390
F
  0
LAYER
  5
75
330
2
100
AcDbSymbolTableRecord
100
AcDbLayerTableRecord
  2
C-5
 70
     0
 62
     7
  6
Continuous
370
    -3
390
F
  0
LAYER
  5
76
330
2
100
AcDbSymbolTableRecord
100
AcDbLayerTableRecord
  2
C-8
 70
     0
 62
     7
  6
Continuous
370
    -3
390
F
  0
LAYER
  5
77
330
2
100
AcDbSymbolTableRecord
100
AcDbLayerTableRecord
  2
C-1
 70
     0
 62
     7
  6
Continuous
370
    -3
390
F
  0
LAYER
  5
78
330
2
100
AcDbSymbolTableRecord
100
AcDbLayerTableRecord
  2
C-A
 70
     0
 62
     7
  6
Continuous
370
    -3
390
F
  0
LAYER
  5
79
330
2
100
AcDbSymbolTableRecord
100
AcDbLayerTableRecord
  2
D-2
 70
     0
 62
     7
  6
Continuous
370
    -3
390
F
  0
LAYER
  5
7A
330
2
100
AcDbSymbolTableRecord
100
AcDbLayerTableRecord
  2
D-5
 70
     0
 62
     7
  6
Continuous
370
    -3
390
F
  0
LAYER
  5
7B
330
2
100
AcDbSymbolTableRecord
100
AcDbLayerTableRecord
  2
D-1
 70
     0
 62
     7
  6
Continuous
370
    -3
390
F
  0
LAYER
  5
7C
330
2
100
AcDbSymbolTableRecord
100
AcDbLayerTableRecord
  2
D-6
 70
     0
 62
     7
  6
Continuous
370
    -3
390
F
  0
LAYER
  5
7D
330
2
100
AcDbSymbolTableRecord
100
AcDbLayerTableRecord
  2
D-4
 70
     0
 62
     7
  6
Continuous
370
    -3
390
F
  0
LAYER
  5
7E
330
2
100
AcDbSymbolTableRecord
100
AcDbLayerTableRecord
  2
D-0
 70
     0
 62
     7
  6
Continuous
370
    -3
390
F
  0
LAYER
  5
7F
330
2
100
AcDbSymbolTableRecord
100
AcDbLayerTableRecord
  2
D-9
 70
     0
 62
     7
  6
Continuous
370
    -3
390
F
  0
LAYER
  5
80
330
2
100
AcDbSymbolTableRecord
100
AcDbLayerTableRecord
  2
F-5ﾚｲﾔ
 70
     0
 62
     7
  6
Continuous
370
    -3
390
F
  0
ENDTAB
  0
TABLE
  2
STYLE
  5
3
330
0
100
AcDbSymbolTable
 70
     2
  0
STYLE
  5
11
330
3
100
AcDbSymbolTableRecord
100
AcDbTextStyleTableRecord
  2
Standard
 70
     0
 40
0.0
 41
1.0
 50
0.0
 71
     0
 42
2.5
  3
txt
  4

  0
STYLE
  5
6E
330
3
100
AcDbSymbolTableRecord
100
AcDbTextStyleTableRecord
  2
ＭＳ ゴシック
 70
     0
 40
1.0
 41
1.0
 50
0.0
 71
     0
 42
2.5
  3

  4

1001
ACAD
1000
MS Gothic
1071
    32817
  0
ENDTAB
  0
TABLE
  2
VIEW
  5
6
330
0
100
AcDbSymbolTable
 70
     0
  0
ENDTAB
  0
TABLE
  2
UCS
  5
7
330
0
100
AcDbSymbolTable
 70
     0
  0
ENDTAB
  0
TABLE
  2
APPID
  5
9
330
0
100
AcDbSymbolTable
 70
     2
  0
APPID
  5
12
330
9
100
AcDbSymbolTableRecord
100
AcDbRegAppTableRecord
  2
ACAD
 70
     0
  0
APPID
  5
467
330
9
100
AcDbSymbolTableRecord
100
AcDbRegAppTableRecord
  2
ACAD_MLEADERVER
 70
     0
  0
ENDTAB
  0
TABLE
  2
DIMSTYLE
  5
A
330
0
100
AcDbSymbolTable
 70
     1
100
AcDbDimStyleTable
  0
DIMSTYLE
105
27
330
A
100
AcDbSymbolTableRecord
100
AcDbDimStyleTableRecord
  2
ISO-25
 70
     0
 41
2.5
 42
0.625
 43
3.75
 44
1.25
 73
     0
 74
     0
 77
     1
 78
     8
140
2.5
141
2.5
143
0.03937007874016
147
0.625
171
     3
172
     1
178
     0
271
     2
272
     2
274
     3
278
    44
283
     0
284
     8
340
11
  0
ENDTAB
  0
TABLE
  2
BLOCK_RECORD
  5
1
330
0
100
AcDbSymbolTable
 70
     1
  0
BLOCK_RECORD
  5
1F
330
1
100
AcDbSymbolTableRecord
100
AcDbBlockTableRecord
  2
*Model_Space
340
22
  0
BLOCK_RECORD
  5
1B
330
1
100
AcDbSymbolTableRecord
100
AcDbBlockTableRecord
  2
*Paper_Space
340
1E
  0
BLOCK_RECORD
  5
23
330
1
100
AcDbSymbolTableRecord
100
AcDbBlockTableRecord
  2
*Paper_Space0
340
26
  0
ENDTAB
  0
ENDSEC
  0
SECTION
  2
BLOCKS
  0
BLOCK
  5
20
330
1F
100
AcDbEntity
  8
0
100
AcDbBlockBegin
  2
*Model_Space
 70
     0
 10
0.0
 20
0.0
 30
0.0
  3
*Model_Space
  1

  0
ENDBLK
  5
21
330
1F
100
AcDbEntity
  8
0
100
AcDbBlockEnd
  0
BLOCK
  5
1C
330
1B
100
AcDbEntity
 67
     1
  8
0
100
AcDbBlockBegin
  2
*Paper_Space
 70
     0
 10
0.0
 20
0.0
 30
0.0
  3
*Paper_Space
  1

  0
ENDBLK
  5
1D
330
1B
100
AcDbEntity
 67
     1
  8
0
100
AcDbBlockEnd
  0
BLOCK
  5
24
330
23
100
AcDbEntity
  8
0
100
AcDbBlockBegin
  2
*Paper_Space0
 70
     0
 10
0.0
 20
0.0
 30
0.0
  3
*Paper_Space0
  1

  0
ENDBLK
  5
25
330
23
100
AcDbEntity
  8
0
100
AcDbBlockEnd
  0
ENDSEC
  0
SECTION
  2
ENTITIES
  0
LWPOLYLINE
  5
81
330
1F
100
AcDbEntity
  8
C-4
  6
Continuous
 62
     7
370
     9
100
AcDbPolyline
 90
        4
 70
     1
 43
2.0
 10
-445.0272299276815
 20
1068.053407411318
 42
0.4142135623731
 10
-446.0272299276815
 20
1069.053407411318
 42
0.4142135623731
 10
-447.0272299276815
 20
1068.053407411318
 42
0.4142135623731
 10
-446.0272299276815
 20
1067.053407411318
 42
0.4142135623731
  0
LWPOLYLINE
  5
82
330
1F
100
AcDbEntity
  8
C-4
  6
Continuous
 62
     7
370
     9
100
AcDbPolyline
 90
        4
 70
     1
 43
2.0
 10
-439.0265667889568
 20
1068.053407411318
 42
0.4142135623731
 10
-440.0265667889568
 20
1069.053407411318
 42
0.4142135623731
 10
-441.0265667889568
 20
1068.053407411318
 42
0.4142135623731
 10
-440.0265667889568
 20
1067.053407411318
 42
0.4142135623731
  0
LWPOLYLINE
  5
83
330
1F
100
AcDbEntity
  8
C-4
  6
Continuous
 62
     7
370
     9
100
AcDbPolyline
 90
        4
 70
     1
 43
2.0
 10
554.9734711518162
 20
1068.053407411318
 42
0.4142135623731
 10
553.9734711518162
 20
1069.053407411318
 42
0.4142135623731
 10
552.9734711518162
 20
1068.053407411318
 42
0.4142135623731
 10
553.9734711518162
 20
1067.053407411318
 42
0.4142135623731
  0
LWPOLYLINE
  5
84
330
1F
100
AcDbEntity
  8
C-4
  6
Continuous
 62
     7
370
     9
100
AcDbPolyline
 90
        4
 70
     1
 43
2.0
 10
560.97314453125
 20
1068.053407411318
 42
0.4142135623731
 10
559.97314453125
 20
1069.053407411318
 42
0.4142135623731
 10
558.97314453125
 20
1068.053407411318
 42
0.4142135623731
 10
559.97314453125
 20
1067.053407411318
 42
0.4142135623731
  0
LWPOLYLINE
  5
85
330
1F
100
AcDbEntity
  8
C-4
  6
Continuous
 62
     7
370
     9
100
AcDbPolyline
 90
        4
 70
     1
 43
2.0
 10
-439.0265667889568
 20
1148.053176467483
 42
0.4142135623731
 10
-440.0265667889568
 20
1149.053176467483
 42
0.4142135623731
 10
-441.0265667889568
 20
1148.053176467483
 42
0.4142135623731
 10
-440.0265667889568
 20
1147.053176467483
 42
0.4142135623731
  0
LWPOLYLINE
  5
86
330
1F
100
AcDbEntity
  8
C-4
  6
Continuous
 62
     7
370
     9
100
AcDbPolyline
 90
        4
 70
     1
 43
2.0
 10
560.97314453125
 20
1148.053176467483
 42
0.4142135623731
 10
559.97314453125
 20
1149.053176467483
 42
0.4142135623731
 10
558.97314453125
 20
1148.053176467483
 42
0.4142135623731
 10
559.97314453125
 20
1147.053176467483
 42
0.4142135623731
  0
LWPOLYLINE
  5
87
330
1F
100
AcDbEntity
  8
C-4
  6
Continuous
 62
     7
370
     9
100
AcDbPolyline
 90
        4
 70
     1
 43
2.0
 10
-504.5264859586148
 20
564.0537488782729
 42
0.4142135623731
 10
-505.5264859586148
 20
565.0537488782729
 42
0.4142135623731
 10
-506.5264859586148
 20
564.0537488782729
 42
0.4142135623731
 10
-505.5264859586148
 20
563.0537488782729
 42
0.4142135623731
  0
LWPOLYLINE
  5
88
330
1F
100
AcDbEntity
  8
C-4
  6
Continuous
 62
     7
370
     9
100
AcDbPolyline
 90
        4
 70
     1
 43
2.0
 10
-379.5271870381122
 20
564.0537488782729
 42
0.4142135623731
 10
-380.5271870381122
 20
565.0537488782729
 42
0.4142135623731
 10
-381.5271870381122
 20
564.0537488782729
 42
0.4142135623731
 10
-380.5271870381122
 20
563.0537488782729
 42
0.4142135623731
  0
LWPOLYLINE
  5
89
330
1F
100
AcDbEntity
  8
C-4
  6
Continuous
 62
     7
370
     9
100
AcDbPolyline
 90
        4
 70
     1
 43
2.0
 10
495.4740914009714
 20
564.0537488782729
 42
0.4142135623731
 10
494.4740914009714
 20
565.0537488782729
 42
0.4142135623731
 10
493.4740914009714
 20
564.0537488782729
 42
0.4142135623731
 10
494.4740914009714
 20
563.0537488782729
 42
0.4142135623731
  0
LWPOLYLINE
  5
8A
330
1F
100
AcDbEntity
  8
C-4
  6
Continuous
 62
     7
370
     9
100
AcDbPolyline
 90
        4
 70
     1
 43
2.0
 10
620.4735140413854
 20
564.0537488782729
 42
0.4142135623731
 10
619.4735140413854
 20
565.0537488782729
 42
0.4142135623731
 10
618.4735140413854
 20
564.0537488782729
 42
0.4142135623731
 10
619.4735140413854
 20
563.0537488782729
 42
0.4142135623731
  0
LWPOLYLINE
  5
8B
330
1F
100
AcDbEntity
  8
C-4
  6
Continuous
 62
     7
370
     9
100
AcDbPolyline
 90
        4
 70
     1
 43
2.0
 10
402.9734150654563
 20
1006.054390572213
 42
0.4142135623731
 10
401.9734150654563
 20
1007.054390572213
 42
0.4142135623731
 10
400.9734150654563
 20
1006.054390572213
 42
0.4142135623731
 10
401.9734150654563
 20
1005.054390572213
 42
0.4142135623731
  0
LWPOLYLINE
  5
8C
330
1F
100
AcDbEntity
  8
C-4
  6
Continuous
 62
     7
370
     9
100
AcDbPolyline
 90
        4
 70
     1
 43
2.0
 10
432.9732666015625
 20
1006.054390572213
 42
0.4142135623731
 10
431.9732666015625
 20
1007.054390572213
 42
0.4142135623731
 10
430.9732666015625
 20
1006.054390572213
 42
0.4142135623731
 10
431.9732666015625
 20
1005.054390572213
 42
0.4142135623731
  0
LINE
  5
8D
330
1F
100
AcDbEntity
  8
C-2
  6
Continuous
 62
     3
370
     9
100
AcDbLine
 10
-440.0265667889568
 20
721.0532028610644
 30
0.0
 11
-440.0265667889568
 21
971.0530379011825
 31
0.0
  0
LINE
  5
8E
330
1F
100
AcDbEntity
  8
C-2
  6
Continuous
 62
     3
370
     9
100
AcDbLine
 10
-440.0265667889568
 20
971.0530379011825
 30
0.0
 11
553.9734711518162
 21
971.0530379011825
 31
0.0
  0
LINE
  5
8F
330
1F
100
AcDbEntity
  8
C-2
  6
Continuous
 62
     3
370
     9
100
AcDbLine
 10
553.9734711518162
 20
721.0532028610644
 30
0.0
 11
-440.0265667889568
 21
721.0532028610644
 31
0.0
  0
LINE
  5
90
330
1F
100
AcDbEntity
  8
C-2
  6
Continuous
 62
     3
370
     9
100
AcDbLine
 10
-440.0265667889568
 20
967.0531731682856
 30
0.0
 11
553.9734711518162
 21
967.0531731682856
 31
0.0
  0
LINE
  5
91
330
1F
100
AcDbEntity
  8
C-2
  6
Continuous
 62
     3
370
     9
100
AcDbLine
 10
553.9734711518162
 20
725.0530675939613
 30
0.0
 11
-440.0265667889568
 21
725.0530675939613
 31
0.0
  0
LINE
  5
92
330
1F
100
AcDbEntity
  8
C-2
  6
Continuous
 62
     3
370
     9
100
AcDbLine
 10
-436.0267020560599
 20
725.0530675939613
 30
0.0
 11
-436.0267020560599
 21
967.0531731682856
 31
0.0
  0
LINE
  5
93
330
1F
100
AcDbEntity
  8
C-2
  6
Continuous
 62
     3
370
     9
100
AcDbLine
 10
-406.0264793602195
 20
725.0530675939613
 30
0.0
 11
-406.0264793602195
 21
967.0531731682856
 31
0.0
  0
LINE
  5
94
330
1F
100
AcDbEntity
  8
C-2
  6
Continuous
 62
     3
370
     9
100
AcDbLine
 10
-410.0269626926732
 20
725.0530675939613
 30
0.0
 11
-410.0269626926732
 21
967.0531731682856
 31
0.0
  0
LINE
  5
95
330
1F
100
AcDbEntity
  8
C-2
  6
Continuous
 62
     3
370
     9
100
AcDbLine
 10
-436.0267020560599
 20
897.5532655458193
 30
0.0
 11
-410.0269626926732
 21
897.5532655458193
 31
0.0
  0
LINE
  5
96
330
1F
100
AcDbEntity
  8
C-2
  6
Continuous
 62
     3
370
     9
100
AcDbLine
 10
-436.0267020560599
 20
894.5533051361908
 30
0.0
 11
-410.0269626926732
 21
894.5533051361908
 31
0.0
  0
LINE
  5
97
330
1F
100
AcDbEntity
  8
C-2
  6
Continuous
 62
     3
370
     9
100
AcDbLine
 10
-406.0264793602195
 20
897.5532655458193
 30
0.0
 11
-380.0267399968328
 21
897.5532655458193
 31
0.0
  0
LINE
  5
98
330
1F
100
AcDbEntity
  8
C-2
  6
Continuous
 62
     3
370
     9
100
AcDbLine
 10
-406.0264793602195
 20
894.5533051361908
 30
0.0
 11
-380.0267399968328
 21
894.5533051361908
 31
0.0
  0
LINE
  5
99
330
1F
100
AcDbEntity
  8
C-2
  6
Continuous
 62
     3
370
     9
100
AcDbLine
 10
-346.0267762880068
 20
725.0530675939613
 30
0.0
 11
-346.0267762880068
 21
967.0531731682856
 31
0.0
  0
LINE
  5
9A
330
1F
100
AcDbEntity
  8
C-2
  6
Continuous
 62
     3
370
     9
100
AcDbLine
 10
-350.0266410209036
 20
725.0530675939613
 30
0.0
 11
-350.0266410209036
 21
967.0531731682856
 31
0.0
  0
LINE
  5
9B
330
1F
100
AcDbEntity
  8
C-2
  6
Continuous
 62
     3
370
     9
100
AcDbLine
 10
-376.0268752639357
 20
897.5532655458193
 30
0.0
 11
-350.0266410209036
 21
897.5532655458193
 31
0.0
  0
LINE
  5
9C
330
1F
100
AcDbEntity
  8
C-2
  6
Continuous
 62
     3
370
     9
100
AcDbLine
 10
-376.0268752639357
 20
894.5533051361908
 30
0.0
 11
-350.0266410209036
 21
894.5533051361908
 31
0.0
  0
LINE
  5
9D
330
1F
100
AcDbEntity
  8
C-2
  6
Continuous
 62
     3
370
     9
100
AcDbLine
 10
-316.0265535921664
 20
725.0530675939613
 30
0.0
 11
-316.0265535921664
 21
967.0531731682856
 31
0.0
  0
LINE
  5
9E
330
1F
100
AcDbEntity
  8
C-2
  6
Continuous
 62
     3
370
     9
100
AcDbLine
 10
-320.0265420449745
 20
725.0530675939613
 30
0.0
 11
-320.0265420449745
 21
967.0531731682856
 31
0.0
  0
LINE
  5
9F
330
1F
100
AcDbEntity
  8
C-2
  6
Continuous
 62
     3
370
     9
100
AcDbLine
 10
-346.0267762880068
 20
897.5532655458193
 30
0.0
 11
-320.0265420449745
 21
897.5532655458193
 31
0.0
  0
LINE
  5
A0
330
1F
100
AcDbEntity
  8
C-2
  6
Continuous
 62
     3
370
     9
100
AcDbLine
 10
-346.0267762880068
 20
894.5533051361908
 30
0.0
 11
-320.0265420449745
 21
894.5533051361908
 31
0.0
  0
LINE
  5
A1
330
1F
100
AcDbEntity
  8
C-2
  6
Continuous
 62
     3
370
     9
100
AcDbLine
 10
-286.0269494958825
 20
725.0530675939613
 30
0.0
 11
-286.0269494958825
 21
967.0531731682856
 31
0.0
  0
LINE
  5
A2
330
1F
100
AcDbEntity
  8
C-2
  6
Continuous
 62
     3
370
     9
100
AcDbLine
 10
-290.0268142287794
 20
725.0530675939613
 30
0.0
 11
-290.0268142287794
 21
967.0531731682856
 31
0.0
  0
LINE
  5
A3
330
1F
100
AcDbEntity
  8
C-2
  6
Continuous
 62
     3
370
     9
100
AcDbLine
 10
-316.0265535921664
 20
897.5532655458193
 30
0.0
 11
-290.0268142287794
 21
897.5532655458193
 31
0.0
  0
LINE
  5
A4
330
1F
100
AcDbEntity
  8
C-2
  6
Continuous
 62
     3
370
     9
100
AcDbLine
 10
-316.0265535921664
 20
894.5533051361908
 30
0.0
 11
-290.0268142287794
 21
894.5533051361908
 31
0.0
  0
LINE
  5
A5
330
1F
100
AcDbEntity
  8
C-2
  6
Continuous
 62
     3
370
     9
100
AcDbLine
 10
-256.0268505199534
 20
725.0530675939613
 30
0.0
 11
-256.0268505199534
 21
967.0531731682856
 31
0.0
  0
LINE
  5
A6
330
1F
100
AcDbEntity
  8
C-2
  6
Continuous
 62
     3
370
     9
100
AcDbLine
 10
-260.0267152528505
 20
725.0530675939613
 30
0.0
 11
-260.0267152528505
 21
967.0531731682856
 31
0.0
  0
LINE
  5
A7
330
1F
100
AcDbEntity
  8
C-2
  6
Continuous
 62
     3
370
     9
100
AcDbLine
 10
-286.0269494958825
 20
897.5532655458193
 30
0.0
 11
-260.0267152528505
 21
897.5532655458193
 31
0.0
  0
LINE
  5
A8
330
1F
100
AcDbEntity
  8
C-2
  6
Continuous
 62
     3
370
     9
100
AcDbLine
 10
-286.0269494958825
 20
894.5533051361908
 30
0.0
 11
-260.0267152528505
 21
894.5533051361908
 31
0.0
  0
LINE
  5
A9
330
1F
100
AcDbEntity
  8
C-2
  6
Continuous
 62
     3
370
     9
100
AcDbLine
 10
-226.026627824113
 20
725.0530675939613
 30
0.0
 11
-226.026627824113
 21
967.0531731682856
 31
0.0
  0
LINE
  5
AA
330
1F
100
AcDbEntity
  8
C-2
  6
Continuous
 62
     3
370
     9
100
AcDbLine
 10
-230.0266162769213
 20
725.0530675939613
 30
0.0
 11
-230.0266162769213
 21
967.0531731682856
 31
0.0
  0
LINE
  5
AB
330
1F
100
AcDbEntity
  8
C-2
  6
Continuous
 62
     3
370
     9
100
AcDbLine
 10
-256.0268505199534
 20
897.5532655458193
 30
0.0
 11
-230.0266162769213
 21
897.5532655458193
 31
0.0
  0
LINE
  5
AC
330
1F
100
AcDbEntity
  8
C-2
  6
Continuous
 62
     3
370
     9
100
AcDbLine
 10
-256.0268505199534
 20
894.5533051361908
 30
0.0
 11
-230.0266162769213
 21
894.5533051361908
 31
0.0
  0
LINE
  5
AD
330
1F
100
AcDbEntity
  8
C-2
  6
Continuous
 62
     3
370
     9
100
AcDbLine
 10
-196.0265288481841
 20
725.0530675939613
 30
0.0
 11
-196.0265288481841
 21
967.0531731682856
 31
0.0
  0
LINE
  5
AE
330
1F
100
AcDbEntity
  8
C-2
  6
Continuous
 62
     3
370
     9
100
AcDbLine
 10
-200.026393581081
 20
725.0530675939613
 30
0.0
 11
-200.026393581081
 21
967.0531731682856
 31
0.0
  0
LINE
  5
AF
330
1F
100
AcDbEntity
  8
C-2
  6
Continuous
 62
     3
370
     9
100
AcDbLine
 10
-226.026627824113
 20
897.5532655458193
 30
0.0
 11
-200.026393581081
 21
897.5532655458193
 31
0.0
  0
LINE
  5
B0
330
1F
100
AcDbEntity
  8
C-2
  6
Continuous
 62
     3
370
     9
100
AcDbLine
 10
-226.026627824113
 20
894.5533051361908
 30
0.0
 11
-200.026393581081
 21
894.5533051361908
 31
0.0
  0
LINE
  5
B1
330
1F
100
AcDbEntity
  8
C-2
  6
Continuous
 62
     3
370
     9
100
AcDbLine
 10
-166.0264298722549
 20
725.0530675939613
 30
0.0
 11
-166.0264298722549
 21
967.0531731682856
 31
0.0
  0
LINE
  5
B2
330
1F
100
AcDbEntity
  8
C-2
  6
Continuous
 62
     3
370
     9
100
AcDbLine
 10
-170.0267894847971
 20
725.0530675939613
 30
0.0
 11
-170.0267894847971
 21
967.0531731682856
 31
0.0
  0
LINE
  5
B3
330
1F
100
AcDbEntity
  8
C-2
  6
Continuous
 62
     3
370
     9
100
AcDbLine
 10
-196.0265288481841
 20
897.5532655458193
 30
0.0
 11
-170.0267894847971
 21
897.5532655458193
 31
0.0
  0
LINE
  5
B4
330
1F
100
AcDbEntity
  8
C-2
  6
Continuous
 62
     3
370
     9
100
AcDbLine
 10
-196.0265288481841
 20
894.5533051361908
 30
0.0
 11
-170.0267894847971
 21
894.5533051361908
 31
0.0
  0
LINE
  5
B5
330
1F
100
AcDbEntity
  8
C-2
  6
Continuous
 62
     3
370
     9
100
AcDbLine
 10
-136.0267020560599
 20
725.0530675939613
 30
0.0
 11
-136.0267020560599
 21
967.0531731682856
 31
0.0
  0
LINE
  5
B6
330
1F
100
AcDbEntity
  8
C-2
  6
Continuous
 62
     3
370
     9
100
AcDbLine
 10
-140.0266905088682
 20
725.0530675939613
 30
0.0
 11
-140.0266905088682
 21
967.0531731682856
 31
0.0
  0
LINE
  5
B7
330
1F
100
AcDbEntity
  8
C-2
  6
Continuous
 62
     3
370
     9
100
AcDbLine
 10
-166.0264298722549
 20
897.5532655458193
 30
0.0
 11
-140.0266905088682
 21
897.5532655458193
 31
0.0
  0
LINE
  5
B8
330
1F
100
AcDbEntity
  8
C-2
  6
Continuous
 62
     3
370
     9
100
AcDbLine
 10
-166.0264298722549
 20
894.5533051361908
 30
0.0
 11
-140.0266905088682
 21
894.5533051361908
 31
0.0
  0
LINE
  5
B9
330
1F
100
AcDbEntity
  8
C-2
  6
Continuous
 62
     3
370
     9
100
AcDbLine
 10
-106.0266030801307
 20
725.0530675939613
 30
0.0
 11
-106.0266030801307
 21
967.0531731682856
 31
0.0
  0
LINE
  5
BA
330
1F
100
AcDbEntity
  8
C-2
  6
Continuous
 62
     3
370
     9
100
AcDbLine
 10
-110.0265915329391
 20
725.0530675939613
 30
0.0
 11
-110.0265915329391
 21
967.0531731682856
 31
0.0
  0
LINE
  5
BB
330
1F
100
AcDbEntity
  8
C-2
  6
Continuous
 62
     3
370
     9
100
AcDbLine
 10
-136.0267020560599
 20
897.5532655458193
 30
0.0
 11
-110.0265915329391
 21
897.5532655458193
 31
0.0
  0
LINE
  5
BC
330
1F
100
AcDbEntity
  8
C-2
  6
Continuous
 62
     3
370
     9
100
AcDbLine
 10
-136.0267020560599
 20
894.5533051361908
 30
0.0
 11
-110.0265915329391
 21
894.5533051361908
 31
0.0
  0
LINE
  5
BD
330
1F
100
AcDbEntity
  8
C-2
  6
Continuous
 62
     3
370
     9
100
AcDbLine
 10
-76.02650410420182
 20
725.0530675939613
 30
0.0
 11
-76.02650410420182
 21
967.0531731682856
 31
0.0
  0
LINE
  5
BE
330
1F
100
AcDbEntity
  8
C-2
  6
Continuous
 62
     3
370
     9
100
AcDbLine
 10
-80.026863716744
 20
725.0530675939613
 30
0.0
 11
-80.026863716744
 21
967.0531731682856
 31
0.0
  0
LINE
  5
BF
330
1F
100
AcDbEntity
  8
C-2
  6
Continuous
 62
     3
370
     9
100
AcDbLine
 10
-106.0266030801307
 20
897.5532655458193
 30
0.0
 11
-80.026863716744
 21
897.5532655458193
 31
0.0
  0
LINE
  5
C0
330
1F
100
AcDbEntity
  8
C-2
  6
Continuous
 62
     3
370
     9
100
AcDbLine
 10
-106.0266030801307
 20
894.5533051361908
 30
0.0
 11
-80.026863716744
 21
894.5533051361908
 31
0.0
  0
LINE
  5
C1
330
1F
100
AcDbEntity
  8
C-2
  6
Continuous
 62
     3
370
     9
100
AcDbLine
 10
-46.02677628800677
 20
725.0530675939613
 30
0.0
 11
-46.02677628800677
 21
967.0531731682856
 31
0.0
  0
LINE
  5
C2
330
1F
100
AcDbEntity
  8
C-2
  6
Continuous
 62
     3
370
     9
100
AcDbLine
 10
-50.02676474081483
 20
725.0530675939613
 30
0.0
 11
-50.02676474081483
 21
967.0531731682856
 31
0.0
  0
LINE
  5
C3
330
1F
100
AcDbEntity
  8
C-2
  6
Continuous
 62
     3
370
     9
100
AcDbLine
 10
-76.02650410420182
 20
897.5532655458193
 30
0.0
 11
-50.02676474081483
 21
897.5532655458193
 31
0.0
  0
LINE
  5
C4
330
1F
100
AcDbEntity
  8
C-2
  6
Continuous
 62
     3
370
     9
100
AcDbLine
 10
-76.02650410420182
 20
894.5533051361908
 30
0.0
 11
-50.02676474081483
 21
894.5533051361908
 31
0.0
  0
LINE
  5
C5
330
1F
100
AcDbEntity
  8
C-2
  6
Continuous
 62
     3
370
     9
100
AcDbLine
 10
-16.0266773120776
 20
725.0530675939613
 30
0.0
 11
-16.0266773120776
 21
967.0531731682856
 31
0.0
  0
LINE
  5
C6
330
1F
100
AcDbEntity
  8
C-2
  6
Continuous
 62
     3
370
     9
100
AcDbLine
 10
-20.02654204497446
 20
725.0530675939613
 30
0.0
 11
-20.02654204497446
 21
967.0531731682856
 31
0.0
  0
LINE
  5
C7
330
1F
100
AcDbEntity
  8
C-2
  6
Continuous
 62
     3
370
     9
100
AcDbLine
 10
-46.02677628800677
 20
897.5532655458193
 30
0.0
 11
-20.02654204497446
 21
897.5532655458193
 31
0.0
  0
LINE
  5
C8
330
1F
100
AcDbEntity
  8
C-2
  6
Continuous
 62
     3
370
     9
100
AcDbLine
 10
-46.02677628800677
 20
894.5533051361908
 30
0.0
 11
-20.02654204497446
 21
894.5533051361908
 31
0.0
  0
LINE
  5
C9
330
1F
100
AcDbEntity
  8
C-2
  6
Continuous
 62
     3
370
     9
100
AcDbLine
 10
13.97342166385158
 20
725.0530675939613
 30
0.0
 11
13.97342166385158
 21
967.0531731682856
 31
0.0
  0
LINE
  5
CA
330
1F
100
AcDbEntity
  8
C-2
  6
Continuous
 62
     3
370
     9
100
AcDbLine
 10
9.97355693095443
 20
725.0530675939613
 30
0.0
 11
9.97355693095443
 21
967.0531731682856
 31
0.0
  0
LINE
  5
CB
330
1F
100
AcDbEntity
  8
C-2
  6
Continuous
 62
     3
370
     9
100
AcDbLine
 10
-16.0266773120776
 20
897.5532655458193
 30
0.0
 11
9.97355693095443
 21
897.5532655458193
 31
0.0
  0
LINE
  5
CC
330
1F
100
AcDbEntity
  8
C-2
  6
Continuous
 62
     3
370
     9
100
AcDbLine
 10
-16.0266773120776
 20
894.5533051361908
 30
0.0
 11
9.97355693095443
 21
894.5533051361908
 31
0.0
  0
LINE
  5
CD
330
1F
100
AcDbEntity
  8
C-2
  6
Continuous
 62
     3
370
     9
100
AcDbLine
 10
43.97302576013516
 20
725.0530675939613
 30
0.0
 11
43.97302576013516
 21
967.0531731682856
 31
0.0
  0
LINE
  5
CE
330
1F
100
AcDbEntity
  8
C-2
  6
Continuous
 62
     3
370
     9
100
AcDbLine
 10
39.97316102723829
 20
725.0530675939613
 30
0.0
 11
39.97316102723829
 21
967.0531731682856
 31
0.0
  0
LINE
  5
CF
330
1F
100
AcDbEntity
  8
C-2
  6
Continuous
 62
     3
370
     9
100
AcDbLine
 10
13.97342166385158
 20
897.5532655458193
 30
0.0
 11
39.97316102723829
 21
897.5532655458193
 31
0.0
  0
LINE
  5
D0
330
1F
100
AcDbEntity
  8
C-2
  6
Continuous
 62
     3
370
     9
100
AcDbLine
 10
13.97342166385158
 20
894.5533051361908
 30
0.0
 11
39.97316102723829
 21
894.5533051361908
 31
0.0
  0
LINE
  5
D1
330
1F
100
AcDbEntity
  8
C-2
  6
Continuous
 62
     3
370
     9
100
AcDbLine
 10
73.97312473606434
 20
725.0530675939613
 30
0.0
 11
73.97312473606434
 21
967.0531731682856
 31
0.0
  0
LINE
  5
D2
330
1F
100
AcDbEntity
  8
C-2
  6
Continuous
 62
     3
370
     9
100
AcDbLine
 10
69.97326000316747
 20
725.0530675939613
 30
0.0
 11
69.97326000316747
 21
967.0531731682856
 31
0.0
  0
LINE
  5
D3
330
1F
100
AcDbEntity
  8
C-2
  6
Continuous
 62
     3
370
     9
100
AcDbLine
 10
43.97302576013516
 20
897.5532655458193
 30
0.0
 11
69.97326000316747
 21
897.5532655458193
 31
0.0
  0
LINE
  5
D4
330
1F
100
AcDbEntity
  8
C-2
  6
Continuous
 62
     3
370
     9
100
AcDbLine
 10
43.97302576013516
 20
894.5533051361908
 30
0.0
 11
69.97326000316747
 21
894.5533051361908
 31
0.0
  0
LINE
  5
D5
330
1F
100
AcDbEntity
  8
C-2
  6
Continuous
 62
     3
370
     9
100
AcDbLine
 10
103.9732237119932
 20
725.0530675939613
 30
0.0
 11
103.9732237119932
 21
967.0531731682856
 31
0.0
  0
LINE
  5
D6
330
1F
100
AcDbEntity
  8
C-2
  6
Continuous
 62
     3
370
     9
100
AcDbLine
 10
99.97335897909636
 20
725.0530675939613
 30
0.0
 11
99.97335897909636
 21
967.0531731682856
 31
0.0
  0
LINE
  5
D7
330
1F
100
AcDbEntity
  8
C-2
  6
Continuous
 62
     3
370
     9
100
AcDbLine
 10
73.97312473606434
 20
897.5532655458193
 30
0.0
 11
99.97335897909636
 21
897.5532655458193
 31
0.0
  0
LINE
  5
D8
330
1F
100
AcDbEntity
  8
C-2
  6
Continuous
 62
     3
370
     9
100
AcDbLine
 10
73.97312473606434
 20
894.5533051361908
 30
0.0
 11
99.97335897909636
 21
894.5533051361908
 31
0.0
  0
LINE
  5
D9
330
1F
100
AcDbEntity
  8
C-2
  6
Continuous
 62
     3
370
     9
100
AcDbLine
 10
133.9730752480997
 20
725.0530675939613
 30
0.0
 11
133.9730752480997
 21
967.0531731682856
 31
0.0
  0
LINE
  5
DA
330
1F
100
AcDbEntity
  8
C-2
  6
Continuous
 62
     3
370
     9
100
AcDbLine
 10
129.9737053948482
 20
725.0530675939613
 30
0.0
 11
129.9737053948482
 21
967.0531731682856
 31
0.0
  0
LINE
  5
DB
330
1F
100
AcDbEntity
  8
C-2
  6
Continuous
 62
     3
370
     9
100
AcDbLine
 10
103.9732237119932
 20
897.5532655458193
 30
0.0
 11
129.9737053948482
 21
897.5532655458193
 31
0.0
  0
LINE
  5
DC
330
1F
100
AcDbEntity
  8
C-2
  6
Continuous
 62
     3
370
     9
100
AcDbLine
 10
103.9732237119932
 20
894.5533051361908
 30
0.0
 11
129.9737053948482
 21
894.5533051361908
 31
0.0
  0
LINE
  5
DD
330
1F
100
AcDbEntity
  8
C-2
  6
Continuous
 62
     3
370
     9
100
AcDbLine
 10
163.9731742240289
 20
725.0530675939613
 30
0.0
 11
163.9731742240289
 21
967.0531731682856
 31
0.0
  0
LINE
  5
DE
330
1F
100
AcDbEntity
  8
C-2
  6
Continuous
 62
     3
370
     9
100
AcDbLine
 10
159.9733094911318
 20
725.0530675939613
 30
0.0
 11
159.9733094911318
 21
967.0531731682856
 31
0.0
  0
LINE
  5
DF
330
1F
100
AcDbEntity
  8
C-2
  6
Continuous
 62
     3
370
     9
100
AcDbLine
 10
133.9730752480997
 20
897.5532655458193
 30
0.0
 11
159.9733094911318
 21
897.5532655458193
 31
0.0
  0
LINE
  5
E0
330
1F
100
AcDbEntity
  8
C-2
  6
Continuous
 62
     3
370
     9
100
AcDbLine
 10
133.9730752480997
 20
894.5533051361908
 30
0.0
 11
159.9733094911318
 21
894.5533051361908
 31
0.0
  0
LINE
  5
E1
330
1F
100
AcDbEntity
  8
C-2
  6
Continuous
 62
     3
370
     9
100
AcDbLine
 10
193.9732731999578
 20
725.0530675939613
 30
0.0
 11
193.9732731999578
 21
967.0531731682856
 31
0.0
  0
LINE
  5
E2
330
1F
100
AcDbEntity
  8
C-2
  6
Continuous
 62
     3
370
     9
100
AcDbLine
 10
189.9734084670609
 20
725.0530675939613
 30
0.0
 11
189.9734084670609
 21
967.0531731682856
 31
0.0
  0
LINE
  5
E3
330
1F
100
AcDbEntity
  8
C-2
  6
Continuous
 62
     3
370
     9
100
AcDbLine
 10
163.9731742240289
 20
897.5532655458193
 30
0.0
 11
189.9734084670609
 21
897.5532655458193
 31
0.0
  0
LINE
  5
E4
330
1F
100
AcDbEntity
  8
C-2
  6
Continuous
 62
     3
370
     9
100
AcDbLine
 10
163.9731742240289
 20
894.5533051361908
 30
0.0
 11
189.9734084670609
 21
894.5533051361908
 31
0.0
  0
LINE
  5
E5
330
1F
100
AcDbEntity
  8
C-2
  6
Continuous
 62
     3
370
     9
100
AcDbLine
 10
223.973372175887
 20
725.0530675939613
 30
0.0
 11
223.973372175887
 21
967.0531731682856
 31
0.0
  0
LINE
  5
E6
330
1F
100
AcDbEntity
  8
C-2
  6
Continuous
 62
     3
370
     9
100
AcDbLine
 10
219.9735074429901
 20
725.0530675939613
 30
0.0
 11
219.9735074429901
 21
967.0531731682856
 31
0.0
  0
LINE
  5
E7
330
1F
100
AcDbEntity
  8
C-2
  6
Continuous
 62
     3
370
     9
100
AcDbLine
 10
193.9732731999578
 20
897.5532655458193
 30
0.0
 11
219.9735074429901
 21
897.5532655458193
 31
0.0
  0
LINE
  5
E8
330
1F
100
AcDbEntity
  8
C-2
  6
Continuous
 62
     3
370
     9
100
AcDbLine
 10
193.9732731999578
 20
894.5533051361908
 30
0.0
 11
219.9735074429901
 21
894.5533051361908
 31
0.0
  0
LINE
  5
E9
330
1F
100
AcDbEntity
  8
C-2
  6
Continuous
 62
     3
370
     9
100
AcDbLine
 10
253.9734711518159
 20
725.0530675939613
 30
0.0
 11
253.9734711518159
 21
967.0531731682856
 31
0.0
  0
LINE
  5
EA
330
1F
100
AcDbEntity
  8
C-2
  6
Continuous
 62
     3
370
     9
100
AcDbLine
 10
249.9731115392737
 20
725.0530675939613
 30
0.0
 11
249.9731115392737
 21
967.0531731682856
 31
0.0
  0
LINE
  5
EB
330
1F
100
AcDbEntity
  8
C-2
  6
Continuous
 62
     3
370
     9
100
AcDbLine
 10
223.9728772962417
 20
897.5532655458193
 30
0.0
 11
249.9731115392737
 21
897.5532655458193
 31
0.0
  0
LINE
  5
EC
330
1F
100
AcDbEntity
  8
C-2
  6
Continuous
 62
     3
370
     9
100
AcDbLine
 10
223.9728772962417
 20
894.5533051361908
 30
0.0
 11
249.9731115392737
 21
894.5533051361908
 31
0.0
  0
LINE
  5
ED
330
1F
100
AcDbEntity
  8
C-2
  6
Continuous
 62
     3
370
     9
100
AcDbLine
 10
283.9733226879224
 20
725.0530675939613
 30
0.0
 11
283.9733226879224
 21
967.0531731682856
 31
0.0
  0
LINE
  5
EE
330
1F
100
AcDbEntity
  8
C-2
  6
Continuous
 62
     3
370
     9
100
AcDbLine
 10
279.9732105152029
 20
725.0530675939613
 30
0.0
 11
279.9732105152029
 21
967.0531731682856
 31
0.0
  0
LINE
  5
EF
330
1F
100
AcDbEntity
  8
C-2
  6
Continuous
 62
     3
370
     9
100
AcDbLine
 10
253.9734711518159
 20
897.5532655458193
 30
0.0
 11
279.9732105152029
 21
897.5532655458193
 31
0.0
  0
LINE
  5
F0
330
1F
100
AcDbEntity
  8
C-2
  6
Continuous
 62
     3
370
     9
100
AcDbLine
 10
253.9734711518159
 20
894.5533051361908
 30
0.0
 11
279.9732105152029
 21
894.5533051361908
 31
0.0
  0
LINE
  5
F1
330
1F
100
AcDbEntity
  8
C-2
  6
Continuous
 62
     3
370
     9
100
AcDbLine
 10
313.9734216638516
 20
725.0530675939613
 30
0.0
 11
313.9734216638516
 21
967.0531731682856
 31
0.0
  0
LINE
  5
F2
330
1F
100
AcDbEntity
  8
C-2
  6
Continuous
 62
     3
370
     9
100
AcDbLine
 10
309.9733094911318
 20
725.0530675939613
 30
0.0
 11
309.9733094911318
 21
967.0531731682856
 31
0.0
  0
LINE
  5
F3
330
1F
100
AcDbEntity
  8
C-2
  6
Continuous
 62
     3
370
     9
100
AcDbLine
 10
283.9733226879224
 20
897.5532655458193
 30
0.0
 11
309.9733094911318
 21
897.5532655458193
 31
0.0
  0
LINE
  5
F4
330
1F
100
AcDbEntity
  8
C-2
  6
Continuous
 62
     3
370
     9
100
AcDbLine
 10
283.9733226879224
 20
894.5533051361908
 30
0.0
 11
309.9733094911318
 21
894.5533051361908
 31
0.0
  0
LINE
  5
F5
330
1F
100
AcDbEntity
  8
C-2
  6
Continuous
 62
     3
370
     9
100
AcDbLine
 10
343.9735206397805
 20
725.0530675939613
 30
0.0
 11
343.9735206397805
 21
967.0531731682856
 31
0.0
  0
LINE
  5
F6
330
1F
100
AcDbEntity
  8
C-2
  6
Continuous
 62
     3
370
     9
100
AcDbLine
 10
339.9729135874156
 20
725.0530675939613
 30
0.0
 11
339.9729135874156
 21
967.0531731682856
 31
0.0
  0
LINE
  5
F7
330
1F
100
AcDbEntity
  8
C-2
  6
Continuous
 62
     3
370
     9
100
AcDbLine
 10
313.9734216638516
 20
897.5532655458193
 30
0.0
 11
339.9729135874156
 21
897.5532655458193
 31
0.0
  0
LINE
  5
F8
330
1F
100
AcDbEntity
  8
C-2
  6
Continuous
 62
     3
370
     9
100
AcDbLine
 10
313.9734216638516
 20
894.5533051361908
 30
0.0
 11
339.9729135874156
 21
894.5533051361908
 31
0.0
  0
LINE
  5
F9
330
1F
100
AcDbEntity
  8
C-2
  6
Continuous
 62
     3
370
     9
100
AcDbLine
 10
373.9731247360643
 20
725.0530675939613
 30
0.0
 11
373.9731247360643
 21
967.0531731682856
 31
0.0
  0
LINE
  5
FA
330
1F
100
AcDbEntity
  8
C-2
  6
Continuous
 62
     3
370
     9
100
AcDbLine
 10
369.9732600031675
 20
725.0530675939613
 30
0.0
 11
369.9732600031675
 21
967.0531731682856
 31
0.0
  0
LINE
  5
FB
330
1F
100
AcDbEntity
  8
C-2
  6
Continuous
 62
     3
370
     9
100
AcDbLine
 10
343.9735206397805
 20
897.5532655458193
 30
0.0
 11
369.9732600031675
 21
897.5532655458193
 31
0.0
  0
LINE
  5
FC
330
1F
100
AcDbEntity
  8
C-2
  6
Continuous
 62
     3
370
     9
100
AcDbLine
 10
343.9735206397805
 20
894.5533051361908
 30
0.0
 11
369.9732600031675
 21
894.5533051361908
 31
0.0
  0
LINE
  5
FD
330
1F
100
AcDbEntity
  8
C-2
  6
Continuous
 62
     3
370
     9
100
AcDbLine
 10
403.9737185916385
 20
725.0530675939613
 30
0.0
 11
403.9737185916385
 21
967.0531731682856
 31
0.0
  0
LINE
  5
FE
330
1F
100
AcDbEntity
  8
C-2
  6
Continuous
 62
     3
370
     9
100
AcDbLine
 10
399.9733589790964
 20
725.0530675939613
 30
0.0
 11
399.9733589790964
 21
967.0531731682856
 31
0.0
  0
LINE
  5
FF
330
1F
100
AcDbEntity
  8
C-2
  6
Continuous
 62
     3
370
     9
100
AcDbLine
 10
373.9731247360643
 20
897.5532655458193
 30
0.0
 11
399.9733589790964
 21
897.5532655458193
 31
0.0
  0
LINE
  5
100
330
1F
100
AcDbEntity
  8
C-2
  6
Continuous
 62
     3
370
     9
100
AcDbLine
 10
373.9731247360643
 20
894.5533051361908
 30
0.0
 11
399.9733589790964
 21
894.5533051361908
 31
0.0
  0
LINE
  5
101
330
1F
100
AcDbEntity
  8
C-2
  6
Continuous
 62
     3
370
     9
100
AcDbLine
 10
433.9733226879224
 20
725.0530675939613
 30
0.0
 11
433.9733226879224
 21
967.0531731682856
 31
0.0
  0
LINE
  5
102
330
1F
100
AcDbEntity
  8
C-2
  6
Continuous
 62
     3
370
     9
100
AcDbLine
 10
429.9734579550255
 20
725.0530675939613
 30
0.0
 11
429.9734579550255
 21
967.0531731682856
 31
0.0
  0
LINE
  5
103
330
1F
100
AcDbEntity
  8
C-2
  6
Continuous
 62
     3
370
     9
100
AcDbLine
 10
403.9737185916385
 20
897.5532655458193
 30
0.0
 11
429.9734579550255
 21
897.5532655458193
 31
0.0
  0
LINE
  5
104
330
1F
100
AcDbEntity
  8
C-2
  6
Continuous
 62
     3
370
     9
100
AcDbLine
 10
403.9737185916385
 20
894.5533051361908
 30
0.0
 11
429.9734579550255
 21
894.5533051361908
 31
0.0
  0
LINE
  5
105
330
1F
100
AcDbEntity
  8
C-2
  6
Continuous
 62
     3
370
     9
100
AcDbLine
 10
463.9734216638516
 20
725.0530675939613
 30
0.0
 11
463.9734216638516
 21
967.0531731682856
 31
0.0
  0
LINE
  5
106
330
1F
100
AcDbEntity
  8
C-2
  6
Continuous
 62
     3
370
     9
100
AcDbLine
 10
459.9735569309544
 20
725.0530675939613
 30
0.0
 11
459.9735569309544
 21
967.0531731682856
 31
0.0
  0
LINE
  5
107
330
1F
100
AcDbEntity
  8
C-2
  6
Continuous
 62
     3
370
     9
100
AcDbLine
 10
433.9733226879224
 20
897.5532655458193
 30
0.0
 11
459.9735569309544
 21
897.5532655458193
 31
0.0
  0
LINE
  5
108
330
1F
100
AcDbEntity
  8
C-2
  6
Continuous
 62
     3
370
     9
100
AcDbLine
 10
433.9733226879224
 20
894.5533051361908
 30
0.0
 11
459.9735569309544
 21
894.5533051361908
 31
0.0
  0
LINE
  5
109
330
1F
100
AcDbEntity
  8
C-2
  6
Continuous
 62
     3
370
     9
100
AcDbLine
 10
463.9734216638516
 20
897.5532655458193
 30
0.0
 11
489.9731610272386
 21
897.5532655458193
 31
0.0
  0
LINE
  5
10A
330
1F
100
AcDbEntity
  8
C-2
  6
Continuous
 62
     3
370
     9
100
AcDbLine
 10
463.9734216638516
 20
894.5533051361908
 30
0.0
 11
489.9731610272386
 21
894.5533051361908
 31
0.0
  0
LINE
  5
10B
330
1F
100
AcDbEntity
  8
C-2
  6
Continuous
 62
     3
370
     9
100
AcDbLine
 10
523.9738670555323
 20
725.0530675939613
 30
0.0
 11
523.9738670555323
 21
967.0531731682856
 31
0.0
  0
LINE
  5
10C
330
1F
100
AcDbEntity
  8
C-2
  6
Continuous
 62
     3
370
     9
100
AcDbLine
 10
519.9735074429901
 20
725.0530675939613
 30
0.0
 11
519.9735074429901
 21
967.0531731682856
 31
0.0
  0
LINE
  5
10D
330
1F
100
AcDbEntity
  8
C-2
  6
Continuous
 62
     3
370
     9
100
AcDbLine
 10
493.9735206397808
 20
897.5532655458193
 30
0.0
 11
519.9735074429901
 21
897.5532655458193
 31
0.0
  0
LINE
  5
10E
330
1F
100
AcDbEntity
  8
C-2
  6
Continuous
 62
     3
370
     9
100
AcDbLine
 10
493.9735206397808
 20
894.5533051361908
 30
0.0
 11
519.9735074429901
 21
894.5533051361908
 31
0.0
  0
LINE
  5
10F
330
1F
100
AcDbEntity
  8
C-2
  6
Continuous
 62
     3
370
     9
100
AcDbLine
 10
549.9736064189193
 20
725.0530675939613
 30
0.0
 11
549.9736064189193
 21
967.0531731682856
 31
0.0
  0
LINE
  5
110
330
1F
100
AcDbEntity
  8
C-2
  6
Continuous
 62
     3
370
     9
100
AcDbLine
 10
523.9738670555323
 20
897.5532655458193
 30
0.0
 11
549.9736064189193
 21
897.5532655458193
 31
0.0
  0
LINE
  5
111
330
1F
100
AcDbEntity
  8
C-2
  6
Continuous
 62
     3
370
     9
100
AcDbLine
 10
523.9738670555323
 20
894.5533051361908
 30
0.0
 11
549.9736064189193
 21
894.5533051361908
 31
0.0
  0
LINE
  5
112
330
1F
100
AcDbEntity
  8
C-2
  6
Continuous
 62
     3
370
     9
100
AcDbLine
 10
553.9734711518162
 20
971.0530379011825
 30
0.0
 11
553.9734711518162
 21
721.0532028610644
 31
0.0
  0
LINE
  5
113
330
1F
100
AcDbEntity
  8
C-2
  6
Continuous
 62
     3
370
     9
100
AcDbLine
 10
-446.0272299276815
 20
971.0530379011825
 30
0.0
 11
-446.0272299276815
 21
721.0536977407096
 31
0.0
  0
LINE
  5
114
330
1F
100
AcDbEntity
  8
C-5
  6
Continuous
 62
     7
370
     9
100
AcDbLine
 10
-227.0270270270268
 20
469.0540540540542
 30
0.0
 11
-227.0270270270268
 21
534.0536499023438
 31
0.0
  0
LINE
  5
115
330
1F
100
AcDbEntity
  8
C-5
  6
Continuous
 62
     7
370
     9
100
AcDbLine
 10
-227.0270270270268
 20
534.0536499023438
 30
0.0
 11
347.9728904930323
 21
534.0536499023438
 31
0.0
  0
LINE
  5
116
330
1F
100
AcDbEntity
  8
C-5
  6
Continuous
 62
     7
370
     9
100
AcDbLine
 10
347.9728904930323
 20
534.0536499023438
 30
0.0
 11
347.9728904930323
 21
469.0540540540542
 31
0.0
  0
LINE
  5
117
330
1F
100
AcDbEntity
  8
C-5
  6
Continuous
 62
     7
370
     9
100
AcDbLine
 10
347.9728904930323
 20
469.0540540540542
 30
0.0
 11
-227.0270270270268
 21
469.0540540540542
 31
0.0
  0
LINE
  5
118
330
1F
100
AcDbEntity
  8
C-2
  6
Continuous
 62
     3
370
     9
100
AcDbLine
 10
559.97314453125
 20
971.0540276604731
 30
0.0
 11
559.97314453125
 21
721.0536977407096
 31
0.0
  0
LINE
  5
119
330
1F
100
AcDbEntity
  8
C-2
  6
Continuous
 62
     3
370
     9
100
AcDbLine
 10
-446.0272299276815
 20
971.0530379011825
 30
0.0
 11
-591.0265948321367
 21
971.0530379011825
 31
0.0
  0
LINE
  5
11A
330
1F
100
AcDbEntity
  8
C-2
  6
Continuous
 62
     3
370
     9
100
AcDbLine
 10
-446.0272299276815
 20
721.0536977407096
 30
0.0
 11
-591.0265948321367
 21
721.0536977407096
 31
0.0
  0
LINE
  5
11B
330
1F
100
AcDbEntity
  8
C-4
  6
Continuous
 62
     7
370
     9
100
AcDbLine
 10
-446.0272299276815
 20
988.0536383551521
 30
0.0
 11
-446.0272299276815
 21
1071.053615260769
 31
0.0
  0
LINE
  5
11C
330
1F
100
AcDbEntity
  8
C-4
  6
Continuous
 62
     7
370
     9
100
AcDbLine
 10
-440.0265667889568
 20
988.0536383551521
 30
0.0
 11
-440.0265667889568
 21
1151.053136877111
 31
0.0
  0
LINE
  5
11D
330
1F
100
AcDbEntity
  8
C-4
  6
Continuous
 62
     7
370
     9
100
AcDbLine
 10
553.9734711518162
 20
988.0536383551521
 30
0.0
 11
553.9734711518162
 21
1071.053615260769
 31
0.0
  0
LINE
  5
11E
330
1F
100
AcDbEntity
  8
C-4
  6
Continuous
 62
     7
370
     9
100
AcDbLine
 10
559.97314453125
 20
988.0536383551521
 30
0.0
 11
559.97314453125
 21
1151.053136877111
 31
0.0
  0
LINE
  5
11F
330
1F
100
AcDbEntity
  8
C-4
  6
Continuous
 62
     7
370
     9
100
AcDbLine
 10
-591.0265948321367
 20
1148.053176467483
 30
0.0
 11
713.9727618243245
 21
1148.053176467483
 31
0.0
  0
LINE
  5
120
330
1F
100
AcDbEntity
  8
C-4
  6
Continuous
 62
     7
370
     9
100
AcDbLine
 10
-591.0265948321367
 20
1068.053407411318
 30
0.0
 11
713.9727618243245
 21
1068.053407411318
 31
0.0
  0
LINE
  5
121
330
1F
100
AcDbEntity
  8
C-8
  6
JWW_CENTER1
 62
     4
370
     9
100
AcDbLine
 10
-403.4961597339526
 20
737.5542223131336
 30
0.0
 11
-363.8060698638091
 21
737.5542223131336
 31
0.0
  0
LINE
  5
122
330
1F
100
AcDbEntity
  8
C-8
  6
Continuous
 62
     4
370
     9
100
AcDbLine
 10
-374.0271903373099
 20
741.3063997835727
 30
0.0
 11
-374.0271903373099
 21
733.801055083404
 31
0.0
  0
LINE
  5
123
330
1F
100
AcDbEntity
  8
C-8
  6
Continuous
 62
     4
370
     9
100
AcDbLine
 10
-374.0271903373099
 20
733.801055083404
 30
0.0
 11
-380.5271870381122
 21
730.0483827333193
 31
0.0
  0
LINE
  5
124
330
1F
100
AcDbEntity
  8
C-8
  6
Continuous
 62
     4
370
     9
100
AcDbLine
 10
-380.5271870381122
 20
730.0483827333193
 30
0.0
 11
-387.0268125791807
 21
733.801055083404
 31
0.0
  0
LINE
  5
125
330
1F
100
AcDbEntity
  8
C-8
  6
Continuous
 62
     4
370
     9
100
AcDbLine
 10
-387.0268125791807
 20
733.801055083404
 30
0.0
 11
-387.0268125791807
 21
741.3063997835727
 31
0.0
  0
LINE
  5
126
330
1F
100
AcDbEntity
  8
C-8
  6
Continuous
 62
     4
370
     9
100
AcDbLine
 10
-387.0268125791807
 20
741.3063997835727
 30
0.0
 11
-380.5271870381122
 21
745.0590721336573
 31
0.0
  0
LINE
  5
127
330
1F
100
AcDbEntity
  8
C-8
  6
Continuous
 62
     4
370
     9
100
AcDbLine
 10
-380.5271870381122
 20
745.0590721336573
 30
0.0
 11
-374.0271903373099
 21
741.3063997835727
 31
0.0
  0
LINE
  5
128
330
1F
100
AcDbEntity
  8
C-8
  6
JWW_CENTER1
 62
     4
370
     9
100
AcDbLine
 10
-380.5271870381122
 20
753.5267103040542
 30
0.0
 11
-380.5271870381122
 21
723.171287742821
 31
0.0
  0
LINE
  5
129
330
1F
100
AcDbEntity
  8
C-2
  6
Continuous
 62
     3
370
     9
100
AcDbLine
 10
-406.0269742398648
 20
750.0543872730154
 30
0.0
 11
-350.027135900549
 21
750.0543872730154
 31
0.0
  0
LINE
  5
12A
330
1F
100
AcDbEntity
  8
C-2
  6
Continuous
 62
     3
370
     9
100
AcDbLine
 10
-406.0269742398648
 20
754.0537571262669
 30
0.0
 11
-350.027135900549
 21
754.0537571262669
 31
0.0
  0
LINE
  5
12B
330
1F
100
AcDbEntity
  8
C-2
  6
Continuous
 62
     3
370
     9
100
AcDbLine
 10
-372.0270105310388
 20
743.5538956925677
 30
0.0
 11
-375.6220637141047
 21
743.5538956925677
 31
0.0
  0
LINE
  5
12C
330
1F
100
AcDbEntity
  8
C-2
  6
Continuous
 62
     3
370
     9
100
AcDbLine
 10
-372.0270105310388
 20
731.5535591744089
 30
0.0
 11
-375.6220637141047
 21
731.5535591744089
 31
0.0
  0
LINE
  5
12D
330
1F
100
AcDbEntity
  8
C-8
  6
JWW_CENTER1
 62
     4
370
     9
100
AcDbLine
 10
-403.4961597339526
 20
954.5515235694679
 30
0.0
 11
-363.8060698638091
 21
954.5515235694679
 31
0.0
  0
LINE
  5
12E
330
1F
100
AcDbEntity
  8
C-8
  6
Continuous
 62
     4
370
     9
100
AcDbLine
 10
-374.0271903373099
 20
950.799346099029
 30
0.0
 11
-374.0271903373099
 21
958.3046907991977
 31
0.0
  0
LINE
  5
12F
330
1F
100
AcDbEntity
  8
C-8
  6
Continuous
 62
     4
370
     9
100
AcDbLine
 10
-374.0271903373099
 20
958.3046907991977
 30
0.0
 11
-380.5271870381122
 21
962.0573631492823
 31
0.0
  0
LINE
  5
130
330
1F
100
AcDbEntity
  8
C-8
  6
Continuous
 62
     4
370
     9
100
AcDbLine
 10
-380.5271870381122
 20
962.0573631492823
 30
0.0
 11
-387.0268125791807
 21
958.3046907991977
 31
0.0
  0
LINE
  5
131
330
1F
100
AcDbEntity
  8
C-8
  6
Continuous
 62
     4
370
     9
100
AcDbLine
 10
-387.0268125791807
 20
958.3046907991977
 30
0.0
 11
-387.0268125791807
 21
950.799346099029
 31
0.0
  0
LINE
  5
132
330
1F
100
AcDbEntity
  8
C-8
  6
Continuous
 62
     4
370
     9
100
AcDbLine
 10
-387.0268125791807
 20
950.799346099029
 30
0.0
 11
-380.5271870381122
 21
947.0466737489443
 31
0.0
  0
LINE
  5
133
330
1F
100
AcDbEntity
  8
C-8
  6
Continuous
 62
     4
370
     9
100
AcDbLine
 10
-380.5271870381122
 20
947.0466737489443
 30
0.0
 11
-374.0271903373099
 21
950.799346099029
 31
0.0
  0
LINE
  5
134
330
1F
100
AcDbEntity
  8
C-8
  6
JWW_CENTER1
 62
     4
370
     9
100
AcDbLine
 10
-380.5271870381122
 20
938.5790355785474
 30
0.0
 11
-380.5271870381122
 21
968.9344581397804
 31
0.0
  0
LINE
  5
135
330
1F
100
AcDbEntity
  8
C-2
  6
Continuous
 62
     3
370
     9
100
AcDbLine
 10
-406.0269742398648
 20
942.0513586095863
 30
0.0
 11
-350.027135900549
 21
942.0513586095863
 31
0.0
  0
LINE
  5
136
330
1F
100
AcDbEntity
  8
C-2
  6
Continuous
 62
     3
370
     9
100
AcDbLine
 10
-406.0269742398648
 20
938.0519887563346
 30
0.0
 11
-350.027135900549
 21
938.0519887563346
 31
0.0
  0
LINE
  5
137
330
1F
100
AcDbEntity
  8
C-2
  6
Continuous
 62
     3
370
     9
100
AcDbLine
 10
-372.0270105310388
 20
948.5518501900339
 30
0.0
 11
-375.6220637141047
 21
948.5518501900339
 31
0.0
  0
LINE
  5
138
330
1F
100
AcDbEntity
  8
C-2
  6
Continuous
 62
     3
370
     9
100
AcDbLine
 10
-372.0270105310388
 20
960.5521867081927
 30
0.0
 11
-375.6220637141047
 21
960.5521867081927
 31
0.0
  0
LINE
  5
139
330
1F
100
AcDbEntity
  8
C-8
  6
JWW_CENTER1
 62
     4
370
     9
100
AcDbLine
 10
517.4434352565459
 20
737.5542223131336
 30
0.0
 11
477.7530979465797
 21
737.5542223131336
 31
0.0
  0
LINE
  5
13A
330
1F
100
AcDbEntity
  8
C-8
  6
Continuous
 62
     4
370
     9
100
AcDbLine
 10
487.9740947001693
 20
741.3063997835727
 30
0.0
 11
487.9740947001693
 21
733.801055083404
 31
0.0
  0
LINE
  5
13B
330
1F
100
AcDbEntity
  8
C-8
  6
Continuous
 62
     4
370
     9
100
AcDbLine
 10
487.9740947001693
 20
733.801055083404
 30
0.0
 11
494.4740914009714
 21
730.0483827333193
 31
0.0
  0
LINE
  5
13C
330
1F
100
AcDbEntity
  8
C-8
  6
Continuous
 62
     4
370
     9
100
AcDbLine
 10
494.4740914009714
 20
730.0483827333193
 30
0.0
 11
500.974088101774
 21
733.801055083404
 31
0.0
  0
LINE
  5
13D
330
1F
100
AcDbEntity
  8
C-8
  6
Continuous
 62
     4
370
     9
100
AcDbLine
 10
500.974088101774
 20
733.801055083404
 30
0.0
 11
500.974088101774
 21
741.3063997835727
 31
0.0
  0
LINE
  5
13E
330
1F
100
AcDbEntity
  8
C-8
  6
Continuous
 62
     4
370
     9
100
AcDbLine
 10
500.974088101774
 20
741.3063997835727
 30
0.0
 11
494.4740914009714
 21
745.0590721336573
 31
0.0
  0
LINE
  5
13F
330
1F
100
AcDbEntity
  8
C-8
  6
Continuous
 62
     4
370
     9
100
AcDbLine
 10
494.4740914009714
 20
745.0590721336573
 30
0.0
 11
487.9740947001693
 21
741.3063997835727
 31
0.0
  0
LINE
  5
140
330
1F
100
AcDbEntity
  8
C-8
  6
JWW_CENTER1
 62
     4
370
     9
100
AcDbLine
 10
494.4740914009714
 20
753.5267103040542
 30
0.0
 11
494.4740914009714
 21
723.171287742821
 31
0.0
  0
LINE
  5
141
330
1F
100
AcDbEntity
  8
C-2
  6
Continuous
 62
     3
370
     9
100
AcDbLine
 10
519.9740023226354
 20
750.0543872730154
 30
0.0
 11
463.9739165434969
 21
750.0543872730154
 31
0.0
  0
LINE
  5
142
330
1F
100
AcDbEntity
  8
C-2
  6
Continuous
 62
     3
370
     9
100
AcDbLine
 10
519.9740023226354
 20
754.0537571262669
 30
0.0
 11
463.9739165434969
 21
754.0537571262669
 31
0.0
  0
LINE
  5
143
330
1F
100
AcDbEntity
  8
C-2
  6
Continuous
 62
     3
370
     9
100
AcDbLine
 10
485.9737911739865
 20
743.5538956925677
 30
0.0
 11
489.569091796875
 21
743.5538956925677
 31
0.0
  0
LINE
  5
144
330
1F
100
AcDbEntity
  8
C-2
  6
Continuous
 62
     3
370
     9
100
AcDbLine
 10
485.9737911739865
 20
731.5535591744089
 30
0.0
 11
489.569091796875
 21
731.5535591744089
 31
0.0
  0
LINE
  5
145
330
1F
100
AcDbEntity
  8
C-8
  6
JWW_CENTER1
 62
     4
370
     9
100
AcDbLine
 10
517.4434352565459
 20
954.5515235694679
 30
0.0
 11
477.7530979465797
 21
954.5515235694679
 31
0.0
  0
LINE
  5
146
330
1F
100
AcDbEntity
  8
C-8
  6
Continuous
 62
     4
370
     9
100
AcDbLine
 10
487.9740947001693
 20
950.799346099029
 30
0.0
 11
487.9740947001693
 21
958.3046907991977
 31
0.0
  0
LINE
  5
147
330
1F
100
AcDbEntity
  8
C-8
  6
Continuous
 62
     4
370
     9
100
AcDbLine
 10
487.9740947001693
 20
958.3046907991977
 30
0.0
 11
494.4740914009714
 21
962.0573631492823
 31
0.0
  0
LINE
  5
148
330
1F
100
AcDbEntity
  8
C-8
  6
Continuous
 62
     4
370
     9
100
AcDbLine
 10
494.4740914009714
 20
962.0573631492823
 30
0.0
 11
500.974088101774
 21
958.3046907991977
 31
0.0
  0
LINE
  5
149
330
1F
100
AcDbEntity
  8
C-8
  6
Continuous
 62
     4
370
     9
100
AcDbLine
 10
500.974088101774
 20
958.3046907991977
 30
0.0
 11
500.974088101774
 21
950.799346099029
 31
0.0
  0
LINE
  5
14A
330
1F
100
AcDbEntity
  8
C-8
  6
Continuous
 62
     4
370
     9
100
AcDbLine
 10
500.974088101774
 20
950.799346099029
 30
0.0
 11
494.4740914009714
 21
947.0466737489443
 31
0.0
  0
LINE
  5
14B
330
1F
100
AcDbEntity
  8
C-8
  6
Continuous
 62
     4
370
     9
100
AcDbLine
 10
494.4740914009714
 20
947.0466737489443
 30
0.0
 11
487.9740947001693
 21
950.799346099029
 31
0.0
  0
LINE
  5
14C
330
1F
100
AcDbEntity
  8
C-8
  6
JWW_CENTER1
 62
     4
370
     9
100
AcDbLine
 10
494.4740914009714
 20
938.5790355785474
 30
0.0
 11
494.4740914009714
 21
968.9344581397804
 31
0.0
  0
LINE
  5
14D
330
1F
100
AcDbEntity
  8
C-2
  6
Continuous
 62
     3
370
     9
100
AcDbLine
 10
519.9740023226354
 20
942.0513586095863
 30
0.0
 11
463.9739165434969
 21
942.0513586095863
 31
0.0
  0
LINE
  5
14E
330
1F
100
AcDbEntity
  8
C-2
  6
Continuous
 62
     3
370
     9
100
AcDbLine
 10
519.9740023226354
 20
938.0519887563346
 30
0.0
 11
463.9739165434969
 21
938.0519887563346
 31
0.0
  0
LINE
  5
14F
330
1F
100
AcDbEntity
  8
C-2
  6
Continuous
 62
     3
370
     9
100
AcDbLine
 10
485.9737911739865
 20
948.5518501900339
 30
0.0
 11
489.569091796875
 21
948.5518501900339
 31
0.0
  0
LINE
  5
150
330
1F
100
AcDbEntity
  8
C-2
  6
Continuous
 62
     3
370
     9
100
AcDbLine
 10
485.9737911739865
 20
960.5521867081927
 30
0.0
 11
489.569091796875
 21
960.5521867081927
 31
0.0
  0
LINE
  5
151
330
1F
100
AcDbEntity
  8
C-2
  6
Continuous
 62
     3
370
     9
100
AcDbLine
 10
-376.0268752639357
 20
754.0537571262669
 30
0.0
 11
-376.0268752639357
 21
938.0519887563346
 31
0.0
  0
LINE
  5
152
330
1F
100
AcDbEntity
  8
C-2
  6
Continuous
 62
     3
370
     9
100
AcDbLine
 10
-380.0267399968328
 20
754.0537571262669
 30
0.0
 11
-380.0267399968328
 21
938.0519887563346
 31
0.0
  0
LINE
  5
153
330
1F
100
AcDbEntity
  8
C-2
  6
Continuous
 62
     3
370
     9
100
AcDbLine
 10
493.9735206397808
 20
754.0537571262669
 30
0.0
 11
493.9735206397808
 21
938.0519887563346
 31
0.0
  0
LINE
  5
154
330
1F
100
AcDbEntity
  8
C-2
  6
Continuous
 62
     3
370
     9
100
AcDbLine
 10
489.9731610272386
 20
754.0537571262669
 30
0.0
 11
489.9731610272386
 21
938.0519887563346
 31
0.0
  0
LINE
  5
155
330
1F
100
AcDbEntity
  8
C-2
  6
Continuous
 62
     3
370
     9
100
AcDbLine
 10
-450.0270946605784
 20
725.0530675939613
 30
0.0
 11
-450.0270946605784
 21
967.0531731682856
 31
0.0
  0
LINE
  5
156
330
1F
100
AcDbEntity
  8
C-2
  6
Continuous
 62
     3
370
     9
100
AcDbLine
 10
-480.0273173564187
 20
725.0530675939613
 30
0.0
 11
-480.0273173564187
 21
967.0531731682856
 31
0.0
  0
LINE
  5
157
330
1F
100
AcDbEntity
  8
C-2
  6
Continuous
 62
     3
370
     9
100
AcDbLine
 10
-476.0268340239654
 20
725.0530675939613
 30
0.0
 11
-476.0268340239654
 21
967.0531731682856
 31
0.0
  0
LINE
  5
158
330
1F
100
AcDbEntity
  8
C-2
  6
Continuous
 62
     3
370
     9
100
AcDbLine
 10
-450.0270946605784
 20
897.5532655458193
 30
0.0
 11
-476.0268340239654
 21
897.5532655458193
 31
0.0
  0
LINE
  5
159
330
1F
100
AcDbEntity
  8
C-2
  6
Continuous
 62
     3
370
     9
100
AcDbLine
 10
-450.0270946605784
 20
894.5533051361908
 30
0.0
 11
-476.0268340239654
 21
894.5533051361908
 31
0.0
  0
LINE
  5
15A
330
1F
100
AcDbEntity
  8
C-2
  6
Continuous
 62
     3
370
     9
100
AcDbLine
 10
-480.0273173564187
 20
897.5532655458193
 30
0.0
 11
-506.0270567198057
 21
897.5532655458193
 31
0.0
  0
LINE
  5
15B
330
1F
100
AcDbEntity
  8
C-2
  6
Continuous
 62
     3
370
     9
100
AcDbLine
 10
-480.0273173564187
 20
894.5533051361908
 30
0.0
 11
-506.0270567198057
 21
894.5533051361908
 31
0.0
  0
LINE
  5
15C
330
1F
100
AcDbEntity
  8
C-2
  6
Continuous
 62
     3
370
     9
100
AcDbLine
 10
-540.0270204286318
 20
725.0530675939613
 30
0.0
 11
-540.0270204286318
 21
967.0531731682856
 31
0.0
  0
LINE
  5
15D
330
1F
100
AcDbEntity
  8
C-2
  6
Continuous
 62
     3
370
     9
100
AcDbLine
 10
-536.0271556957346
 20
725.0530675939613
 30
0.0
 11
-536.0271556957346
 21
967.0531731682856
 31
0.0
  0
LINE
  5
15E
330
1F
100
AcDbEntity
  8
C-2
  6
Continuous
 62
     3
370
     9
100
AcDbLine
 10
-510.0269214527026
 20
897.5532655458193
 30
0.0
 11
-536.0271556957346
 21
897.5532655458193
 31
0.0
  0
LINE
  5
15F
330
1F
100
AcDbEntity
  8
C-2
  6
Continuous
 62
     3
370
     9
100
AcDbLine
 10
-510.0269214527026
 20
894.5533051361908
 30
0.0
 11
-536.0271556957346
 21
894.5533051361908
 31
0.0
  0
LINE
  5
160
330
1F
100
AcDbEntity
  8
C-2
  6
Continuous
 62
     3
370
     9
100
AcDbLine
 10
-570.0271194045606
 20
725.0530675939613
 30
0.0
 11
-570.0271194045606
 21
967.0531731682856
 31
0.0
  0
LINE
  5
161
330
1F
100
AcDbEntity
  8
C-2
  6
Continuous
 62
     3
370
     9
100
AcDbLine
 10
-566.0272546716637
 20
725.0530675939613
 30
0.0
 11
-566.0272546716637
 21
967.0531731682856
 31
0.0
  0
LINE
  5
162
330
1F
100
AcDbEntity
  8
C-2
  6
Continuous
 62
     3
370
     9
100
AcDbLine
 10
-540.0270204286318
 20
897.5532655458193
 30
0.0
 11
-566.0272546716637
 21
897.5532655458193
 31
0.0
  0
LINE
  5
163
330
1F
100
AcDbEntity
  8
C-2
  6
Continuous
 62
     3
370
     9
100
AcDbLine
 10
-540.0270204286318
 20
894.5533051361908
 30
0.0
 11
-566.0272546716637
 21
894.5533051361908
 31
0.0
  0
LINE
  5
164
330
1F
100
AcDbEntity
  8
C-8
  6
JWW_CENTER1
 62
     4
370
     9
100
AcDbLine
 10
-482.5571421030403
 20
737.5542223131336
 30
0.0
 11
-522.2476031329179
 21
737.5542223131336
 31
0.0
  0
LINE
  5
165
330
1F
100
AcDbEntity
  8
C-8
  6
Continuous
 62
     4
370
     9
100
AcDbLine
 10
-512.0266063793283
 20
741.3063997835727
 30
0.0
 11
-512.0266063793283
 21
733.801055083404
 31
0.0
  0
LINE
  5
166
330
1F
100
AcDbEntity
  8
C-8
  6
Continuous
 62
     4
370
     9
100
AcDbLine
 10
-512.0266063793283
 20
733.801055083404
 30
0.0
 11
-505.5264859586148
 21
730.0483827333193
 31
0.0
  0
LINE
  5
167
330
1F
100
AcDbEntity
  8
C-8
  6
Continuous
 62
     4
370
     9
100
AcDbLine
 10
-505.5264859586148
 20
730.0483827333193
 30
0.0
 11
-499.0264892578125
 21
733.801055083404
 31
0.0
  0
LINE
  5
168
330
1F
100
AcDbEntity
  8
C-8
  6
Continuous
 62
     4
370
     9
100
AcDbLine
 10
-499.0264892578125
 20
733.801055083404
 30
0.0
 11
-499.0264892578125
 21
741.3063997835727
 31
0.0
  0
LINE
  5
169
330
1F
100
AcDbEntity
  8
C-8
  6
Continuous
 62
     4
370
     9
100
AcDbLine
 10
-499.0264892578125
 20
741.3063997835727
 30
0.0
 11
-505.5264859586148
 21
745.0590721336573
 31
0.0
  0
LINE
  5
16A
330
1F
100
AcDbEntity
  8
C-8
  6
Continuous
 62
     4
370
     9
100
AcDbLine
 10
-505.5264859586148
 20
745.0590721336573
 30
0.0
 11
-512.0266063793283
 21
741.3063997835727
 31
0.0
  0
LINE
  5
16B
330
1F
100
AcDbEntity
  8
C-8
  6
JWW_CENTER1
 62
     4
370
     9
100
AcDbLine
 10
-505.5264859586148
 20
753.5267103040542
 30
0.0
 11
-505.5264859586148
 21
723.171287742821
 31
0.0
  0
LINE
  5
16C
330
1F
100
AcDbEntity
  8
C-2
  6
Continuous
 62
     3
370
     9
100
AcDbLine
 10
-480.0268224767734
 20
750.0543872730154
 30
0.0
 11
-536.0266608160894
 21
750.0543872730154
 31
0.0
  0
LINE
  5
16D
330
1F
100
AcDbEntity
  8
C-2
  6
Continuous
 62
     3
370
     9
100
AcDbLine
 10
-480.0268224767734
 20
754.0537571262669
 30
0.0
 11
-536.0266608160894
 21
754.0537571262669
 31
0.0
  0
LINE
  5
16E
330
1F
100
AcDbEntity
  8
C-2
  6
Continuous
 62
     3
370
     9
100
AcDbLine
 10
-514.0267861855995
 20
743.5538956925677
 30
0.0
 11
-510.4317330025336
 21
743.5538956925677
 31
0.0
  0
LINE
  5
16F
330
1F
100
AcDbEntity
  8
C-2
  6
Continuous
 62
     3
370
     9
100
AcDbLine
 10
-514.0267861855995
 20
731.5535591744089
 30
0.0
 11
-510.4317330025336
 21
731.5535591744089
 31
0.0
  0
LINE
  5
170
330
1F
100
AcDbEntity
  8
C-8
  6
JWW_CENTER1
 62
     4
370
     9
100
AcDbLine
 10
-482.5571421030403
 20
954.5515235694679
 30
0.0
 11
-522.2476031329179
 21
954.5515235694679
 31
0.0
  0
LINE
  5
171
330
1F
100
AcDbEntity
  8
C-8
  6
Continuous
 62
     4
370
     9
100
AcDbLine
 10
-512.0266063793283
 20
950.799346099029
 30
0.0
 11
-512.0266063793283
 21
958.3046907991977
 31
0.0
  0
LINE
  5
172
330
1F
100
AcDbEntity
  8
C-8
  6
Continuous
 62
     4
370
     9
100
AcDbLine
 10
-512.0266063793283
 20
958.3046907991977
 30
0.0
 11
-505.5264859586148
 21
962.0573631492823
 31
0.0
  0
LINE
  5
173
330
1F
100
AcDbEntity
  8
C-8
  6
Continuous
 62
     4
370
     9
100
AcDbLine
 10
-505.5264859586148
 20
962.0573631492823
 30
0.0
 11
-499.0264892578125
 21
958.3046907991977
 31
0.0
  0
LINE
  5
174
330
1F
100
AcDbEntity
  8
C-8
  6
Continuous
 62
     4
370
     9
100
AcDbLine
 10
-499.0264892578125
 20
958.3046907991977
 30
0.0
 11
-499.0264892578125
 21
950.799346099029
 31
0.0
  0
LINE
  5
175
330
1F
100
AcDbEntity
  8
C-8
  6
Continuous
 62
     4
370
     9
100
AcDbLine
 10
-499.0264892578125
 20
950.799346099029
 30
0.0
 11
-505.5264859586148
 21
947.0466737489443
 31
0.0
  0
LINE
  5
176
330
1F
100
AcDbEntity
  8
C-8
  6
Continuous
 62
     4
370
     9
100
AcDbLine
 10
-505.5264859586148
 20
947.0466737489443
 30
0.0
 11
-512.0266063793283
 21
950.799346099029
 31
0.0
  0
LINE
  5
177
330
1F
100
AcDbEntity
  8
C-8
  6
JWW_CENTER1
 62
     4
370
     9
100
AcDbLine
 10
-505.5264859586148
 20
938.5790355785474
 30
0.0
 11
-505.5264859586148
 21
968.9344581397804
 31
0.0
  0
LINE
  5
178
330
1F
100
AcDbEntity
  8
C-2
  6
Continuous
 62
     3
370
     9
100
AcDbLine
 10
-480.0268224767734
 20
942.0513586095863
 30
0.0
 11
-536.0266608160894
 21
942.0513586095863
 31
0.0
  0
LINE
  5
179
330
1F
100
AcDbEntity
  8
C-2
  6
Continuous
 62
     3
370
     9
100
AcDbLine
 10
-480.0268224767734
 20
938.0519887563346
 30
0.0
 11
-536.0266608160894
 21
938.0519887563346
 31
0.0
  0
LINE
  5
17A
330
1F
100
AcDbEntity
  8
C-2
  6
Continuous
 62
     3
370
     9
100
AcDbLine
 10
-514.0267861855995
 20
948.5518501900339
 30
0.0
 11
-510.4317330025336
 21
948.5518501900339
 31
0.0
  0
LINE
  5
17B
330
1F
100
AcDbEntity
  8
C-2
  6
Continuous
 62
     3
370
     9
100
AcDbLine
 10
-514.0267861855995
 20
960.5521867081927
 30
0.0
 11
-510.4317330025336
 21
960.5521867081927
 31
0.0
  0
LINE
  5
17C
330
1F
100
AcDbEntity
  8
C-2
  6
Continuous
 62
     3
370
     9
100
AcDbLine
 10
-510.0269214527026
 20
754.0537571262669
 30
0.0
 11
-510.0269214527026
 21
938.0519887563346
 31
0.0
  0
LINE
  5
17D
330
1F
100
AcDbEntity
  8
C-2
  6
Continuous
 62
     3
370
     9
100
AcDbLine
 10
-506.0270567198057
 20
754.0537571262669
 30
0.0
 11
-506.0270567198057
 21
938.0519887563346
 31
0.0
  0
LINE
  5
17E
330
1F
100
AcDbEntity
  8
C-2
  6
Continuous
 62
     3
370
     9
100
AcDbLine
 10
-446.0272299276815
 20
967.0531731682856
 30
0.0
 11
-591.0265948321367
 21
967.0531731682856
 31
0.0
  0
LINE
  5
17F
330
1F
100
AcDbEntity
  8
C-2
  6
Continuous
 62
     3
370
     9
100
AcDbLine
 10
-570.0271194045606
 20
897.5532655458193
 30
0.0
 11
-591.0265948321367
 21
897.5532655458193
 31
0.0
  0
LINE
  5
180
330
1F
100
AcDbEntity
  8
C-2
  6
Continuous
 62
     3
370
     9
100
AcDbLine
 10
-570.0271194045606
 20
894.5533051361908
 30
0.0
 11
-591.0265948321367
 21
894.5533051361908
 31
0.0
  0
LINE
  5
181
330
1F
100
AcDbEntity
  8
C-2
  6
Continuous
 62
     3
370
     9
100
AcDbLine
 10
-591.0265948321367
 20
725.0530675939613
 30
0.0
 11
-446.0272299276815
 21
725.0530675939613
 31
0.0
  0
LINE
  5
182
330
1F
100
AcDbEntity
  8
C-2
  6
Continuous
 62
     3
370
     9
100
AcDbLine
 10
563.9739990234375
 20
725.0530675939613
 30
0.0
 11
563.9739990234375
 21
967.0531731682856
 31
0.0
  0
LINE
  5
183
330
1F
100
AcDbEntity
  8
C-2
  6
Continuous
 62
     3
370
     9
100
AcDbLine
 10
593.9740979993667
 20
725.0530675939613
 30
0.0
 11
593.9740979993667
 21
967.0531731682856
 31
0.0
  0
LINE
  5
184
330
1F
100
AcDbEntity
  8
C-2
  6
Continuous
 62
     3
370
     9
100
AcDbLine
 10
589.9737383868245
 20
725.0530675939613
 30
0.0
 11
589.9737383868245
 21
967.0531731682856
 31
0.0
  0
LINE
  5
185
330
1F
100
AcDbEntity
  8
C-2
  6
Continuous
 62
     3
370
     9
100
AcDbLine
 10
563.9739990234375
 20
897.5532655458193
 30
0.0
 11
589.9737383868245
 21
897.5532655458193
 31
0.0
  0
LINE
  5
186
330
1F
100
AcDbEntity
  8
C-2
  6
Continuous
 62
     3
370
     9
100
AcDbLine
 10
563.9739990234375
 20
894.5533051361908
 30
0.0
 11
589.9737383868245
 21
894.5533051361908
 31
0.0
  0
LINE
  5
187
330
1F
100
AcDbEntity
  8
C-2
  6
Continuous
 62
     3
370
     9
100
AcDbLine
 10
593.9740979993667
 20
897.5532655458193
 30
0.0
 11
619.9738373627537
 21
897.5532655458193
 31
0.0
  0
LINE
  5
188
330
1F
100
AcDbEntity
  8
C-2
  6
Continuous
 62
     3
370
     9
100
AcDbLine
 10
593.9740979993667
 20
894.5533051361908
 30
0.0
 11
619.9738373627537
 21
894.5533051361908
 31
0.0
  0
LINE
  5
189
330
1F
100
AcDbEntity
  8
C-2
  6
Continuous
 62
     3
370
     9
100
AcDbLine
 10
653.9740485114021
 20
725.0530675939613
 30
0.0
 11
653.9740485114021
 21
967.0531731682856
 31
0.0
  0
LINE
  5
18A
330
1F
100
AcDbEntity
  8
C-2
  6
Continuous
 62
     3
370
     9
100
AcDbLine
 10
649.9739363386828
 20
725.0530675939613
 30
0.0
 11
649.9739363386828
 21
967.0531731682856
 31
0.0
  0
LINE
  5
18B
330
1F
100
AcDbEntity
  8
C-2
  6
Continuous
 62
     3
370
     9
100
AcDbLine
 10
623.9737020956505
 20
897.5532655458193
 30
0.0
 11
649.9739363386828
 21
897.5532655458193
 31
0.0
  0
LINE
  5
18C
330
1F
100
AcDbEntity
  8
C-2
  6
Continuous
 62
     3
370
     9
100
AcDbLine
 10
623.9737020956505
 20
894.5533051361908
 30
0.0
 11
649.9739363386828
 21
894.5533051361908
 31
0.0
  0
LINE
  5
18D
330
1F
100
AcDbEntity
  8
C-2
  6
Continuous
 62
     3
370
     9
100
AcDbLine
 10
683.9741474873313
 20
725.0530675939613
 30
0.0
 11
683.9741474873313
 21
967.0531731682856
 31
0.0
  0
LINE
  5
18E
330
1F
100
AcDbEntity
  8
C-2
  6
Continuous
 62
     3
370
     9
100
AcDbLine
 10
679.9740353146115
 20
725.0530675939613
 30
0.0
 11
679.9740353146115
 21
967.0531731682856
 31
0.0
  0
LINE
  5
18F
330
1F
100
AcDbEntity
  8
C-2
  6
Continuous
 62
     3
370
     9
100
AcDbLine
 10
653.9740485114021
 20
897.5532655458193
 30
0.0
 11
679.9740353146115
 21
897.5532655458193
 31
0.0
  0
LINE
  5
190
330
1F
100
AcDbEntity
  8
C-2
  6
Continuous
 62
     3
370
     9
100
AcDbLine
 10
653.9740485114021
 20
894.5533051361908
 30
0.0
 11
679.9740353146115
 21
894.5533051361908
 31
0.0
  0
LINE
  5
191
330
1F
100
AcDbEntity
  8
C-8
  6
JWW_CENTER1
 62
     4
370
     9
100
AcDbLine
 10
596.5039227459886
 20
737.5542223131336
 30
0.0
 11
636.1945074957771
 21
737.5542223131336
 31
0.0
  0
LINE
  5
192
330
1F
100
AcDbEntity
  8
C-8
  6
Continuous
 62
     4
370
     9
100
AcDbLine
 10
625.9735107421875
 20
741.3063997835727
 30
0.0
 11
625.9735107421875
 21
733.801055083404
 31
0.0
  0
LINE
  5
193
330
1F
100
AcDbEntity
  8
C-8
  6
Continuous
 62
     4
370
     9
100
AcDbLine
 10
625.9735107421875
 20
733.801055083404
 30
0.0
 11
619.4735140413854
 21
730.0483827333193
 31
0.0
  0
LINE
  5
194
330
1F
100
AcDbEntity
  8
C-8
  6
Continuous
 62
     4
370
     9
100
AcDbLine
 10
619.4735140413854
 20
730.0483827333193
 30
0.0
 11
612.9732699007604
 21
733.801055083404
 31
0.0
  0
LINE
  5
195
330
1F
100
AcDbEntity
  8
C-8
  6
Continuous
 62
     4
370
     9
100
AcDbLine
 10
612.9732699007604
 20
733.801055083404
 30
0.0
 11
612.9732699007604
 21
741.3063997835727
 31
0.0
  0
LINE
  5
196
330
1F
100
AcDbEntity
  8
C-8
  6
Continuous
 62
     4
370
     9
100
AcDbLine
 10
612.9732699007604
 20
741.3063997835727
 30
0.0
 11
619.4735140413854
 21
745.0590721336573
 31
0.0
  0
LINE
  5
197
330
1F
100
AcDbEntity
  8
C-8
  6
Continuous
 62
     4
370
     9
100
AcDbLine
 10
619.4735140413854
 20
745.0590721336573
 30
0.0
 11
625.9735107421875
 21
741.3063997835727
 31
0.0
  0
LINE
  5
198
330
1F
100
AcDbEntity
  8
C-8
  6
JWW_CENTER1
 62
     4
370
     9
100
AcDbLine
 10
619.4735140413854
 20
753.5267103040542
 30
0.0
 11
619.4735140413854
 21
723.171287742821
 31
0.0
  0
LINE
  5
199
330
1F
100
AcDbEntity
  8
C-2
  6
Continuous
 62
     3
370
     9
100
AcDbLine
 10
593.9736031197214
 20
750.0543872730154
 30
0.0
 11
649.9734414590375
 21
750.0543872730154
 31
0.0
  0
LINE
  5
19A
330
1F
100
AcDbEntity
  8
C-2
  6
Continuous
 62
     3
370
     9
100
AcDbLine
 10
593.9736031197214
 20
754.0537571262669
 30
0.0
 11
649.9734414590375
 21
754.0537571262669
 31
0.0
  0
LINE
  5
19B
330
1F
100
AcDbEntity
  8
C-2
  6
Continuous
 62
     3
370
     9
100
AcDbLine
 10
627.9738142683703
 20
743.5538956925677
 30
0.0
 11
624.3785136454818
 21
743.5538956925677
 31
0.0
  0
LINE
  5
19C
330
1F
100
AcDbEntity
  8
C-2
  6
Continuous
 62
     3
370
     9
100
AcDbLine
 10
627.9738142683703
 20
731.5535591744089
 30
0.0
 11
624.3785136454818
 21
731.5535591744089
 31
0.0
  0
LINE
  5
19D
330
1F
100
AcDbEntity
  8
C-8
  6
JWW_CENTER1
 62
     4
370
     9
100
AcDbLine
 10
596.5039227459886
 20
954.5515235694679
 30
0.0
 11
636.1945074957771
 21
954.5515235694679
 31
0.0
  0
LINE
  5
19E
330
1F
100
AcDbEntity
  8
C-8
  6
Continuous
 62
     4
370
     9
100
AcDbLine
 10
625.9735107421875
 20
950.799346099029
 30
0.0
 11
625.9735107421875
 21
958.3046907991977
 31
0.0
  0
LINE
  5
19F
330
1F
100
AcDbEntity
  8
C-8
  6
Continuous
 62
     4
370
     9
100
AcDbLine
 10
625.9735107421875
 20
958.3046907991977
 30
0.0
 11
619.4735140413854
 21
962.0573631492823
 31
0.0
  0
LINE
  5
1A0
330
1F
100
AcDbEntity
  8
C-8
  6
Continuous
 62
     4
370
     9
100
AcDbLine
 10
619.4735140413854
 20
962.0573631492823
 30
0.0
 11
612.9732699007604
 21
958.3046907991977
 31
0.0
  0
LINE
  5
1A1
330
1F
100
AcDbEntity
  8
C-8
  6
Continuous
 62
     4
370
     9
100
AcDbLine
 10
612.9732699007604
 20
958.3046907991977
 30
0.0
 11
612.9732699007604
 21
950.799346099029
 31
0.0
  0
LINE
  5
1A2
330
1F
100
AcDbEntity
  8
C-8
  6
Continuous
 62
     4
370
     9
100
AcDbLine
 10
612.9732699007604
 20
950.799346099029
 30
0.0
 11
619.4735140413854
 21
947.0466737489443
 31
0.0
  0
LINE
  5
1A3
330
1F
100
AcDbEntity
  8
C-8
  6
Continuous
 62
     4
370
     9
100
AcDbLine
 10
619.4735140413854
 20
947.0466737489443
 30
0.0
 11
625.9735107421875
 21
950.799346099029
 31
0.0
  0
LINE
  5
1A4
330
1F
100
AcDbEntity
  8
C-8
  6
JWW_CENTER1
 62
     4
370
     9
100
AcDbLine
 10
619.4735140413854
 20
938.5790355785474
 30
0.0
 11
619.4735140413854
 21
968.9344581397804
 31
0.0
  0
LINE
  5
1A5
330
1F
100
AcDbEntity
  8
C-2
  6
Continuous
 62
     3
370
     9
100
AcDbLine
 10
593.9736031197214
 20
942.0513586095863
 30
0.0
 11
649.9734414590375
 21
942.0513586095863
 31
0.0
  0
LINE
  5
1A6
330
1F
100
AcDbEntity
  8
C-2
  6
Continuous
 62
     3
370
     9
100
AcDbLine
 10
593.9736031197214
 20
938.0519887563346
 30
0.0
 11
649.9734414590375
 21
938.0519887563346
 31
0.0
  0
LINE
  5
1A7
330
1F
100
AcDbEntity
  8
C-2
  6
Continuous
 62
     3
370
     9
100
AcDbLine
 10
627.9738142683703
 20
948.5518501900339
 30
0.0
 11
624.3785136454818
 21
948.5518501900339
 31
0.0
  0
LINE
  5
1A8
330
1F
100
AcDbEntity
  8
C-2
  6
Continuous
 62
     3
370
     9
100
AcDbLine
 10
627.9738142683703
 20
960.5521867081927
 30
0.0
 11
624.3785136454818
 21
960.5521867081927
 31
0.0
  0
LINE
  5
1A9
330
1F
100
AcDbEntity
  8
C-2
  6
Continuous
 62
     3
370
     9
100
AcDbLine
 10
623.9737020956505
 20
754.0537571262669
 30
0.0
 11
623.9737020956505
 21
938.0519887563346
 31
0.0
  0
LINE
  5
1AA
330
1F
100
AcDbEntity
  8
C-2
  6
Continuous
 62
     3
370
     9
100
AcDbLine
 10
619.9738373627537
 20
754.0537571262669
 30
0.0
 11
619.9738373627537
 21
938.0519887563346
 31
0.0
  0
LINE
  5
1AB
330
1F
100
AcDbEntity
  8
C-2
  6
Continuous
 62
     3
370
     9
100
AcDbLine
 10
683.9741474873313
 20
897.5532655458193
 30
0.0
 11
704.9733754750844
 21
897.5532655458193
 31
0.0
  0
LINE
  5
1AC
330
1F
100
AcDbEntity
  8
C-2
  6
Continuous
 62
     3
370
     9
100
AcDbLine
 10
683.9741474873313
 20
894.5533051361908
 30
0.0
 11
704.9733754750844
 21
894.5533051361908
 31
0.0
  0
LINE
  5
1AD
330
1F
100
AcDbEntity
  8
C-2
  6
Continuous
 62
     3
370
     9
100
AcDbLine
 10
704.9733754750844
 20
721.0536977407096
 30
0.0
 11
559.97314453125
 21
721.0536977407096
 31
0.0
  0
LINE
  5
1AE
330
1F
100
AcDbEntity
  8
C-1
  6
JWW_DASHED3
 62
     2
370
     9
100
AcDbLine
 10
704.9733754750844
 20
746.0540276604731
 30
0.0
 11
-591.0265948321367
 21
746.0535327808279
 31
0.0
  0
LINE
  5
1AF
330
1F
100
AcDbEntity
  8
C-1
  6
Continuous
 62
     2
370
     9
100
AcDbLine
 10
704.9733754750844
 20
719.0538890941724
 30
0.0
 11
-591.0265948321367
 21
719.0533942145271
 31
0.0
  0
LINE
  5
1B0
330
1F
100
AcDbEntity
  8
C-1
  6
Continuous
 62
     2
370
     9
100
AcDbLine
 10
704.9733754750844
 20
716.053928684544
 30
0.0
 11
-591.0265948321367
 21
716.0534338048988
 31
0.0
  0
LINE
  5
1B1
330
1F
100
AcDbEntity
  8
C-2
  6
Continuous
 62
     3
370
     9
100
AcDbLine
 10
704.9733754750844
 20
725.0530675939613
 30
0.0
 11
559.9741342905406
 21
725.0530675939613
 31
0.0
  0
LINE
  5
1B2
330
1F
100
AcDbEntity
  8
C-2
  6
Continuous
 62
     3
370
     9
100
AcDbLine
 10
704.9733754750844
 20
971.0540276604731
 30
0.0
 11
559.97314453125
 21
971.0540276604731
 31
0.0
  0
LINE
  5
1B3
330
1F
100
AcDbEntity
  8
C-1
  6
JWW_DASHED3
 62
     2
370
     9
100
AcDbLine
 10
704.9733754750844
 20
946.0536977407096
 30
0.0
 11
-591.0265948321367
 21
946.0536977407096
 31
0.0
  0
LINE
  5
1B4
330
1F
100
AcDbEntity
  8
C-1
  6
Continuous
 62
     2
370
     9
100
AcDbLine
 10
704.9733754750844
 20
973.0538363070102
 30
0.0
 11
-591.0265948321367
 21
973.0538363070102
 31
0.0
  0
LINE
  5
1B5
330
1F
100
AcDbEntity
  8
C-1
  6
Continuous
 62
     2
370
     9
100
AcDbLine
 10
704.9733754750844
 20
976.0537967166385
 30
0.0
 11
-591.0265948321367
 21
976.0537967166385
 31
0.0
  0
LINE
  5
1B6
330
1F
100
AcDbEntity
  8
C-2
  6
Continuous
 62
     3
370
     9
100
AcDbLine
 10
559.9741342905406
 20
967.0531731682856
 30
0.0
 11
704.9733754750844
 21
967.0531731682856
 31
0.0
  0
LINE
  5
1B7
330
1F
100
AcDbEntity
  8
C-4
  6
Continuous
 62
     7
370
     9
100
AcDbLine
 10
-591.0265948321367
 20
564.0537488782729
 30
0.0
 11
704.9733754750844
 21
564.0537488782729
 31
0.0
  0
LINE
  5
1B8
330
1F
100
AcDbEntity
  8
C-4
  6
Continuous
 62
     7
370
     9
100
AcDbLine
 10
-505.5264859586148
 20
704.0535921663852
 30
0.0
 11
-505.5264859586148
 21
561.0536647487334
 31
0.0
  0
LINE
  5
1B9
330
1F
100
AcDbEntity
  8
C-4
  6
Continuous
 62
     7
370
     9
100
AcDbLine
 10
-380.5271870381122
 20
704.0535921663852
 30
0.0
 11
-380.5271870381122
 21
561.0536647487334
 31
0.0
  0
LINE
  5
1BA
330
1F
100
AcDbEntity
  8
C-4
  6
Continuous
 62
     7
370
     9
100
AcDbLine
 10
494.4740914009714
 20
704.0535921663852
 30
0.0
 11
494.4740914009714
 21
561.0536647487334
 31
0.0
  0
LINE
  5
1BB
330
1F
100
AcDbEntity
  8
C-4
  6
Continuous
 62
     7
370
     9
100
AcDbLine
 10
619.4735140413854
 20
704.0535921663852
 30
0.0
 11
619.4735140413854
 21
561.0536647487334
 31
0.0
  0
LINE
  5
1BC
330
1F
100
AcDbEntity
  8
C-2
  6
Continuous
 62
     3
370
     9
100
AcDbLine
 10
-591.0265948321367
 20
1001.053631756757
 30
0.0
 11
-591.0265948321367
 21
691.0535987647804
 31
0.0
  0
LINE
  5
1BD
330
1F
100
AcDbEntity
  8
C-2
  6
Continuous
 62
     3
370
     9
100
AcDbLine
 10
704.9733754750844
 20
1001.053631756757
 30
0.0
 11
704.9733754750844
 21
691.0535987647804
 31
0.0
  0
LINE
  5
1BE
330
1F
100
AcDbEntity
  8
C-2
  6
Continuous
 62
     3
370
     9
100
AcDbLine
 10
-436.0267020560599
 20
797.5531830658783
 30
0.0
 11
-410.0269626926732
 21
797.5531830658783
 31
0.0
  0
LINE
  5
1BF
330
1F
100
AcDbEntity
  8
C-2
  6
Continuous
 62
     3
370
     9
100
AcDbLine
 10
-436.0267020560599
 20
794.55322265625
 30
0.0
 11
-410.0269626926732
 21
794.55322265625
 31
0.0
  0
LINE
  5
1C0
330
1F
100
AcDbEntity
  8
C-2
  6
Continuous
 62
     3
370
     9
100
AcDbLine
 10
-406.0264793602195
 20
797.5531830658783
 30
0.0
 11
-380.0267399968328
 21
797.5531830658783
 31
0.0
  0
LINE
  5
1C1
330
1F
100
AcDbEntity
  8
C-2
  6
Continuous
 62
     3
370
     9
100
AcDbLine
 10
-406.0264793602195
 20
794.55322265625
 30
0.0
 11
-380.0267399968328
 21
794.55322265625
 31
0.0
  0
LINE
  5
1C2
330
1F
100
AcDbEntity
  8
C-2
  6
Continuous
 62
     3
370
     9
100
AcDbLine
 10
-376.0268752639357
 20
797.5531830658783
 30
0.0
 11
-350.0266410209036
 21
797.5531830658783
 31
0.0
  0
LINE
  5
1C3
330
1F
100
AcDbEntity
  8
C-2
  6
Continuous
 62
     3
370
     9
100
AcDbLine
 10
-376.0268752639357
 20
794.55322265625
 30
0.0
 11
-350.0266410209036
 21
794.55322265625
 31
0.0
  0
LINE
  5
1C4
330
1F
100
AcDbEntity
  8
C-2
  6
Continuous
 62
     3
370
     9
100
AcDbLine
 10
-346.0267762880068
 20
797.5531830658783
 30
0.0
 11
-320.0265420449745
 21
797.5531830658783
 31
0.0
  0
LINE
  5
1C5
330
1F
100
AcDbEntity
  8
C-2
  6
Continuous
 62
     3
370
     9
100
AcDbLine
 10
-346.0267762880068
 20
794.55322265625
 30
0.0
 11
-320.0265420449745
 21
794.55322265625
 31
0.0
  0
LINE
  5
1C6
330
1F
100
AcDbEntity
  8
C-2
  6
Continuous
 62
     3
370
     9
100
AcDbLine
 10
-316.0265535921664
 20
797.5531830658783
 30
0.0
 11
-290.0268142287794
 21
797.5531830658783
 31
0.0
  0
LINE
  5
1C7
330
1F
100
AcDbEntity
  8
C-2
  6
Continuous
 62
     3
370
     9
100
AcDbLine
 10
-316.0265535921664
 20
794.55322265625
 30
0.0
 11
-290.0268142287794
 21
794.55322265625
 31
0.0
  0
LINE
  5
1C8
330
1F
100
AcDbEntity
  8
C-2
  6
Continuous
 62
     3
370
     9
100
AcDbLine
 10
-286.0269494958825
 20
797.5531830658783
 30
0.0
 11
-260.0267152528505
 21
797.5531830658783
 31
0.0
  0
LINE
  5
1C9
330
1F
100
AcDbEntity
  8
C-2
  6
Continuous
 62
     3
370
     9
100
AcDbLine
 10
-286.0269494958825
 20
794.55322265625
 30
0.0
 11
-260.0267152528505
 21
794.55322265625
 31
0.0
  0
LINE
  5
1CA
330
1F
100
AcDbEntity
  8
C-2
  6
Continuous
 62
     3
370
     9
100
AcDbLine
 10
-256.0268505199534
 20
797.5531830658783
 30
0.0
 11
-230.0266162769213
 21
797.5531830658783
 31
0.0
  0
LINE
  5
1CB
330
1F
100
AcDbEntity
  8
C-2
  6
Continuous
 62
     3
370
     9
100
AcDbLine
 10
-256.0268505199534
 20
794.55322265625
 30
0.0
 11
-230.0266162769213
 21
794.55322265625
 31
0.0
  0
LINE
  5
1CC
330
1F
100
AcDbEntity
  8
C-2
  6
Continuous
 62
     3
370
     9
100
AcDbLine
 10
-226.026627824113
 20
797.5531830658783
 30
0.0
 11
-200.026393581081
 21
797.5531830658783
 31
0.0
  0
LINE
  5
1CD
330
1F
100
AcDbEntity
  8
C-2
  6
Continuous
 62
     3
370
     9
100
AcDbLine
 10
-226.026627824113
 20
794.55322265625
 30
0.0
 11
-200.026393581081
 21
794.55322265625
 31
0.0
  0
LINE
  5
1CE
330
1F
100
AcDbEntity
  8
C-2
  6
Continuous
 62
     3
370
     9
100
AcDbLine
 10
-196.0265288481841
 20
797.5531830658783
 30
0.0
 11
-170.0267894847971
 21
797.5531830658783
 31
0.0
  0
LINE
  5
1CF
330
1F
100
AcDbEntity
  8
C-2
  6
Continuous
 62
     3
370
     9
100
AcDbLine
 10
-196.0265288481841
 20
794.55322265625
 30
0.0
 11
-170.0267894847971
 21
794.55322265625
 31
0.0
  0
LINE
  5
1D0
330
1F
100
AcDbEntity
  8
C-2
  6
Continuous
 62
     3
370
     9
100
AcDbLine
 10
-166.0264298722549
 20
797.5531830658783
 30
0.0
 11
-140.0266905088682
 21
797.5531830658783
 31
0.0
  0
LINE
  5
1D1
330
1F
100
AcDbEntity
  8
C-2
  6
Continuous
 62
     3
370
     9
100
AcDbLine
 10
-166.0264298722549
 20
794.55322265625
 30
0.0
 11
-140.0266905088682
 21
794.55322265625
 31
0.0
  0
LINE
  5
1D2
330
1F
100
AcDbEntity
  8
C-2
  6
Continuous
 62
     3
370
     9
100
AcDbLine
 10
-136.0267020560599
 20
797.5531830658783
 30
0.0
 11
-110.0265915329391
 21
797.5531830658783
 31
0.0
  0
LINE
  5
1D3
330
1F
100
AcDbEntity
  8
C-2
  6
Continuous
 62
     3
370
     9
100
AcDbLine
 10
-136.0267020560599
 20
794.55322265625
 30
0.0
 11
-110.0265915329391
 21
794.55322265625
 31
0.0
  0
LINE
  5
1D4
330
1F
100
AcDbEntity
  8
C-2
  6
Continuous
 62
     3
370
     9
100
AcDbLine
 10
-106.0266030801307
 20
797.5531830658783
 30
0.0
 11
-80.026863716744
 21
797.5531830658783
 31
0.0
  0
LINE
  5
1D5
330
1F
100
AcDbEntity
  8
C-2
  6
Continuous
 62
     3
370
     9
100
AcDbLine
 10
-106.0266030801307
 20
794.55322265625
 30
0.0
 11
-80.026863716744
 21
794.55322265625
 31
0.0
  0
LINE
  5
1D6
330
1F
100
AcDbEntity
  8
C-2
  6
Continuous
 62
     3
370
     9
100
AcDbLine
 10
-76.02650410420182
 20
797.5531830658783
 30
0.0
 11
-50.02676474081483
 21
797.5531830658783
 31
0.0
  0
LINE
  5
1D7
330
1F
100
AcDbEntity
  8
C-2
  6
Continuous
 62
     3
370
     9
100
AcDbLine
 10
-76.02650410420182
 20
794.55322265625
 30
0.0
 11
-50.02676474081483
 21
794.55322265625
 31
0.0
  0
LINE
  5
1D8
330
1F
100
AcDbEntity
  8
C-2
  6
Continuous
 62
     3
370
     9
100
AcDbLine
 10
-46.02677628800677
 20
797.5531830658783
 30
0.0
 11
-20.02654204497446
 21
797.5531830658783
 31
0.0
  0
LINE
  5
1D9
330
1F
100
AcDbEntity
  8
C-2
  6
Continuous
 62
     3
370
     9
100
AcDbLine
 10
-46.02677628800677
 20
794.55322265625
 30
0.0
 11
-20.02654204497446
 21
794.55322265625
 31
0.0
  0
LINE
  5
1DA
330
1F
100
AcDbEntity
  8
C-2
  6
Continuous
 62
     3
370
     9
100
AcDbLine
 10
-16.0266773120776
 20
797.5531830658783
 30
0.0
 11
9.97355693095443
 21
797.5531830658783
 31
0.0
  0
LINE
  5
1DB
330
1F
100
AcDbEntity
  8
C-2
  6
Continuous
 62
     3
370
     9
100
AcDbLine
 10
-16.0266773120776
 20
794.55322265625
 30
0.0
 11
9.97355693095443
 21
794.55322265625
 31
0.0
  0
LINE
  5
1DC
330
1F
100
AcDbEntity
  8
C-2
  6
Continuous
 62
     3
370
     9
100
AcDbLine
 10
13.97342166385158
 20
797.5531830658783
 30
0.0
 11
39.97316102723829
 21
797.5531830658783
 31
0.0
  0
LINE
  5
1DD
330
1F
100
AcDbEntity
  8
C-2
  6
Continuous
 62
     3
370
     9
100
AcDbLine
 10
13.97342166385158
 20
794.55322265625
 30
0.0
 11
39.97316102723829
 21
794.55322265625
 31
0.0
  0
LINE
  5
1DE
330
1F
100
AcDbEntity
  8
C-2
  6
Continuous
 62
     3
370
     9
100
AcDbLine
 10
43.97302576013516
 20
797.5531830658783
 30
0.0
 11
69.97326000316747
 21
797.5531830658783
 31
0.0
  0
LINE
  5
1DF
330
1F
100
AcDbEntity
  8
C-2
  6
Continuous
 62
     3
370
     9
100
AcDbLine
 10
43.97302576013516
 20
794.55322265625
 30
0.0
 11
69.97326000316747
 21
794.55322265625
 31
0.0
  0
LINE
  5
1E0
330
1F
100
AcDbEntity
  8
C-2
  6
Continuous
 62
     3
370
     9
100
AcDbLine
 10
73.97312473606434
 20
797.5531830658783
 30
0.0
 11
99.97335897909636
 21
797.5531830658783
 31
0.0
  0
LINE
  5
1E1
330
1F
100
AcDbEntity
  8
C-2
  6
Continuous
 62
     3
370
     9
100
AcDbLine
 10
73.97312473606434
 20
794.55322265625
 30
0.0
 11
99.97335897909636
 21
794.55322265625
 31
0.0
  0
LINE
  5
1E2
330
1F
100
AcDbEntity
  8
C-2
  6
Continuous
 62
     3
370
     9
100
AcDbLine
 10
103.9732237119932
 20
797.5531830658783
 30
0.0
 11
129.9737053948482
 21
797.5531830658783
 31
0.0
  0
LINE
  5
1E3
330
1F
100
AcDbEntity
  8
C-2
  6
Continuous
 62
     3
370
     9
100
AcDbLine
 10
103.9732237119932
 20
794.55322265625
 30
0.0
 11
129.9737053948482
 21
794.55322265625
 31
0.0
  0
LINE
  5
1E4
330
1F
100
AcDbEntity
  8
C-2
  6
Continuous
 62
     3
370
     9
100
AcDbLine
 10
133.9730752480997
 20
797.5531830658783
 30
0.0
 11
159.9733094911318
 21
797.5531830658783
 31
0.0
  0
LINE
  5
1E5
330
1F
100
AcDbEntity
  8
C-2
  6
Continuous
 62
     3
370
     9
100
AcDbLine
 10
133.9730752480997
 20
794.55322265625
 30
0.0
 11
159.9733094911318
 21
794.55322265625
 31
0.0
  0
LINE
  5
1E6
330
1F
100
AcDbEntity
  8
C-2
  6
Continuous
 62
     3
370
     9
100
AcDbLine
 10
163.9731742240289
 20
797.5531830658783
 30
0.0
 11
189.9734084670609
 21
797.5531830658783
 31
0.0
  0
LINE
  5
1E7
330
1F
100
AcDbEntity
  8
C-2
  6
Continuous
 62
     3
370
     9
100
AcDbLine
 10
163.9731742240289
 20
794.55322265625
 30
0.0
 11
189.9734084670609
 21
794.55322265625
 31
0.0
  0
LINE
  5
1E8
330
1F
100
AcDbEntity
  8
C-2
  6
Continuous
 62
     3
370
     9
100
AcDbLine
 10
193.9732731999578
 20
797.5531830658783
 30
0.0
 11
219.9735074429901
 21
797.5531830658783
 31
0.0
  0
LINE
  5
1E9
330
1F
100
AcDbEntity
  8
C-2
  6
Continuous
 62
     3
370
     9
100
AcDbLine
 10
193.9732731999578
 20
794.55322265625
 30
0.0
 11
219.9735074429901
 21
794.55322265625
 31
0.0
  0
LINE
  5
1EA
330
1F
100
AcDbEntity
  8
C-2
  6
Continuous
 62
     3
370
     9
100
AcDbLine
 10
223.9728772962417
 20
797.5531830658783
 30
0.0
 11
249.9731115392737
 21
797.5531830658783
 31
0.0
  0
LINE
  5
1EB
330
1F
100
AcDbEntity
  8
C-2
  6
Continuous
 62
     3
370
     9
100
AcDbLine
 10
223.9728772962417
 20
794.55322265625
 30
0.0
 11
249.9731115392737
 21
794.55322265625
 31
0.0
  0
LINE
  5
1EC
330
1F
100
AcDbEntity
  8
C-2
  6
Continuous
 62
     3
370
     9
100
AcDbLine
 10
253.9734711518159
 20
797.5531830658783
 30
0.0
 11
279.9732105152029
 21
797.5531830658783
 31
0.0
  0
LINE
  5
1ED
330
1F
100
AcDbEntity
  8
C-2
  6
Continuous
 62
     3
370
     9
100
AcDbLine
 10
253.9734711518159
 20
794.55322265625
 30
0.0
 11
279.9732105152029
 21
794.55322265625
 31
0.0
  0
LINE
  5
1EE
330
1F
100
AcDbEntity
  8
C-2
  6
Continuous
 62
     3
370
     9
100
AcDbLine
 10
283.9733226879224
 20
797.5531830658783
 30
0.0
 11
309.9733094911318
 21
797.5531830658783
 31
0.0
  0
LINE
  5
1EF
330
1F
100
AcDbEntity
  8
C-2
  6
Continuous
 62
     3
370
     9
100
AcDbLine
 10
283.9733226879224
 20
794.55322265625
 30
0.0
 11
309.9733094911318
 21
794.55322265625
 31
0.0
  0
LINE
  5
1F0
330
1F
100
AcDbEntity
  8
C-2
  6
Continuous
 62
     3
370
     9
100
AcDbLine
 10
313.9734216638516
 20
797.5531830658783
 30
0.0
 11
339.9729135874156
 21
797.5531830658783
 31
0.0
  0
LINE
  5
1F1
330
1F
100
AcDbEntity
  8
C-2
  6
Continuous
 62
     3
370
     9
100
AcDbLine
 10
313.9734216638516
 20
794.55322265625
 30
0.0
 11
339.9729135874156
 21
794.55322265625
 31
0.0
  0
LINE
  5
1F2
330
1F
100
AcDbEntity
  8
C-2
  6
Continuous
 62
     3
370
     9
100
AcDbLine
 10
343.9735206397805
 20
797.5531830658783
 30
0.0
 11
369.9732600031675
 21
797.5531830658783
 31
0.0
  0
LINE
  5
1F3
330
1F
100
AcDbEntity
  8
C-2
  6
Continuous
 62
     3
370
     9
100
AcDbLine
 10
343.9735206397805
 20
794.55322265625
 30
0.0
 11
369.9732600031675
 21
794.55322265625
 31
0.0
  0
LINE
  5
1F4
330
1F
100
AcDbEntity
  8
C-2
  6
Continuous
 62
     3
370
     9
100
AcDbLine
 10
373.9731247360643
 20
797.5531830658783
 30
0.0
 11
399.9733589790964
 21
797.5531830658783
 31
0.0
  0
LINE
  5
1F5
330
1F
100
AcDbEntity
  8
C-2
  6
Continuous
 62
     3
370
     9
100
AcDbLine
 10
373.9731247360643
 20
794.55322265625
 30
0.0
 11
399.9733589790964
 21
794.55322265625
 31
0.0
  0
LINE
  5
1F6
330
1F
100
AcDbEntity
  8
C-2
  6
Continuous
 62
     3
370
     9
100
AcDbLine
 10
403.9737185916385
 20
797.5531830658783
 30
0.0
 11
429.9734579550255
 21
797.5531830658783
 31
0.0
  0
LINE
  5
1F7
330
1F
100
AcDbEntity
  8
C-2
  6
Continuous
 62
     3
370
     9
100
AcDbLine
 10
403.9737185916385
 20
794.55322265625
 30
0.0
 11
429.9734579550255
 21
794.55322265625
 31
0.0
  0
LINE
  5
1F8
330
1F
100
AcDbEntity
  8
C-2
  6
Continuous
 62
     3
370
     9
100
AcDbLine
 10
433.9733226879224
 20
797.5531830658783
 30
0.0
 11
459.9735569309544
 21
797.5531830658783
 31
0.0
  0
LINE
  5
1F9
330
1F
100
AcDbEntity
  8
C-2
  6
Continuous
 62
     3
370
     9
100
AcDbLine
 10
433.9733226879224
 20
794.55322265625
 30
0.0
 11
459.9735569309544
 21
794.55322265625
 31
0.0
  0
LINE
  5
1FA
330
1F
100
AcDbEntity
  8
C-2
  6
Continuous
 62
     3
370
     9
100
AcDbLine
 10
463.9734216638516
 20
797.5531830658783
 30
0.0
 11
489.9731610272386
 21
797.5531830658783
 31
0.0
  0
LINE
  5
1FB
330
1F
100
AcDbEntity
  8
C-2
  6
Continuous
 62
     3
370
     9
100
AcDbLine
 10
463.9734216638516
 20
794.55322265625
 30
0.0
 11
489.9731610272386
 21
794.55322265625
 31
0.0
  0
LINE
  5
1FC
330
1F
100
AcDbEntity
  8
C-2
  6
Continuous
 62
     3
370
     9
100
AcDbLine
 10
493.9735206397808
 20
797.5531830658783
 30
0.0
 11
519.9735074429901
 21
797.5531830658783
 31
0.0
  0
LINE
  5
1FD
330
1F
100
AcDbEntity
  8
C-2
  6
Continuous
 62
     3
370
     9
100
AcDbLine
 10
493.9735206397808
 20
794.55322265625
 30
0.0
 11
519.9735074429901
 21
794.55322265625
 31
0.0
  0
LINE
  5
1FE
330
1F
100
AcDbEntity
  8
C-2
  6
Continuous
 62
     3
370
     9
100
AcDbLine
 10
523.9738670555323
 20
797.5531830658783
 30
0.0
 11
549.9736064189193
 21
797.5531830658783
 31
0.0
  0
LINE
  5
1FF
330
1F
100
AcDbEntity
  8
C-2
  6
Continuous
 62
     3
370
     9
100
AcDbLine
 10
523.9738670555323
 20
794.55322265625
 30
0.0
 11
549.9736064189193
 21
794.55322265625
 31
0.0
  0
LINE
  5
200
330
1F
100
AcDbEntity
  8
C-2
  6
Continuous
 62
     3
370
     9
100
AcDbLine
 10
-450.0270946605784
 20
797.5531830658783
 30
0.0
 11
-476.0268340239654
 21
797.5531830658783
 31
0.0
  0
LINE
  5
201
330
1F
100
AcDbEntity
  8
C-2
  6
Continuous
 62
     3
370
     9
100
AcDbLine
 10
-450.0270946605784
 20
794.55322265625
 30
0.0
 11
-476.0268340239654
 21
794.55322265625
 31
0.0
  0
LINE
  5
202
330
1F
100
AcDbEntity
  8
C-2
  6
Continuous
 62
     3
370
     9
100
AcDbLine
 10
-480.0273173564187
 20
797.5531830658783
 30
0.0
 11
-506.0270567198057
 21
797.5531830658783
 31
0.0
  0
LINE
  5
203
330
1F
100
AcDbEntity
  8
C-2
  6
Continuous
 62
     3
370
     9
100
AcDbLine
 10
-480.0273173564187
 20
794.55322265625
 30
0.0
 11
-506.0270567198057
 21
794.55322265625
 31
0.0
  0
LINE
  5
204
330
1F
100
AcDbEntity
  8
C-2
  6
Continuous
 62
     3
370
     9
100
AcDbLine
 10
-510.0269214527026
 20
797.5531830658783
 30
0.0
 11
-536.0271556957346
 21
797.5531830658783
 31
0.0
  0
LINE
  5
205
330
1F
100
AcDbEntity
  8
C-2
  6
Continuous
 62
     3
370
     9
100
AcDbLine
 10
-510.0269214527026
 20
794.55322265625
 30
0.0
 11
-536.0271556957346
 21
794.55322265625
 31
0.0
  0
LINE
  5
206
330
1F
100
AcDbEntity
  8
C-2
  6
Continuous
 62
     3
370
     9
100
AcDbLine
 10
-540.0270204286318
 20
797.5531830658783
 30
0.0
 11
-566.0272546716637
 21
797.5531830658783
 31
0.0
  0
LINE
  5
207
330
1F
100
AcDbEntity
  8
C-2
  6
Continuous
 62
     3
370
     9
100
AcDbLine
 10
-540.0270204286318
 20
794.55322265625
 30
0.0
 11
-566.0272546716637
 21
794.55322265625
 31
0.0
  0
LINE
  5
208
330
1F
100
AcDbEntity
  8
C-2
  6
Continuous
 62
     3
370
     9
100
AcDbLine
 10
-570.0271194045606
 20
797.5531830658783
 30
0.0
 11
-591.0265948321367
 21
797.5531830658783
 31
0.0
  0
LINE
  5
209
330
1F
100
AcDbEntity
  8
C-2
  6
Continuous
 62
     3
370
     9
100
AcDbLine
 10
-570.0271194045606
 20
794.55322265625
 30
0.0
 11
-591.0265948321367
 21
794.55322265625
 31
0.0
  0
LINE
  5
20A
330
1F
100
AcDbEntity
  8
C-2
  6
Continuous
 62
     3
370
     9
100
AcDbLine
 10
563.9739990234375
 20
797.5531830658783
 30
0.0
 11
589.9737383868245
 21
797.5531830658783
 31
0.0
  0
LINE
  5
20B
330
1F
100
AcDbEntity
  8
C-2
  6
Continuous
 62
     3
370
     9
100
AcDbLine
 10
563.9739990234375
 20
794.55322265625
 30
0.0
 11
589.9737383868245
 21
794.55322265625
 31
0.0
  0
LINE
  5
20C
330
1F
100
AcDbEntity
  8
C-2
  6
Continuous
 62
     3
370
     9
100
AcDbLine
 10
593.9740979993667
 20
797.5531830658783
 30
0.0
 11
619.9738373627537
 21
797.5531830658783
 31
0.0
  0
LINE
  5
20D
330
1F
100
AcDbEntity
  8
C-2
  6
Continuous
 62
     3
370
     9
100
AcDbLine
 10
593.9740979993667
 20
794.55322265625
 30
0.0
 11
619.9738373627537
 21
794.55322265625
 31
0.0
  0
LINE
  5
20E
330
1F
100
AcDbEntity
  8
C-2
  6
Continuous
 62
     3
370
     9
100
AcDbLine
 10
623.9737020956505
 20
797.5531830658783
 30
0.0
 11
649.9739363386828
 21
797.5531830658783
 31
0.0
  0
LINE
  5
20F
330
1F
100
AcDbEntity
  8
C-2
  6
Continuous
 62
     3
370
     9
100
AcDbLine
 10
623.9737020956505
 20
794.55322265625
 30
0.0
 11
649.9739363386828
 21
794.55322265625
 31
0.0
  0
LINE
  5
210
330
1F
100
AcDbEntity
  8
C-2
  6
Continuous
 62
     3
370
     9
100
AcDbLine
 10
653.9740485114021
 20
797.5531830658783
 30
0.0
 11
679.9740353146115
 21
797.5531830658783
 31
0.0
  0
LINE
  5
211
330
1F
100
AcDbEntity
  8
C-2
  6
Continuous
 62
     3
370
     9
100
AcDbLine
 10
653.9740485114021
 20
794.55322265625
 30
0.0
 11
679.9740353146115
 21
794.55322265625
 31
0.0
  0
LINE
  5
212
330
1F
100
AcDbEntity
  8
C-2
  6
Continuous
 62
     3
370
     9
100
AcDbLine
 10
683.9741474873313
 20
797.5531830658783
 30
0.0
 11
704.9733754750844
 21
797.5531830658783
 31
0.0
  0
LINE
  5
213
330
1F
100
AcDbEntity
  8
C-2
  6
Continuous
 62
     3
370
     9
100
AcDbLine
 10
683.9741474873313
 20
794.55322265625
 30
0.0
 11
704.9733754750844
 21
794.55322265625
 31
0.0
  0
LINE
  5
214
330
1F
100
AcDbEntity
  8
C-4
  6
Continuous
 62
     7
370
     9
100
AcDbLine
 10
401.9734150654563
 20
1006.054390572213
 30
0.0
 11
431.9732666015625
 21
1006.054390572213
 31
0.0
  0
LINE
  5
215
330
1F
100
AcDbEntity
  8
C-4
  6
Continuous
 62
     7
370
     9
100
AcDbLine
 10
401.9734150654563
 20
963.0542981946792
 30
0.0
 11
401.9734150654563
 21
1009.054598421664
 31
0.0
  0
LINE
  5
216
330
1F
100
AcDbEntity
  8
C-4
  6
Continuous
 62
     7
370
     9
100
AcDbLine
 10
431.9732666015625
 20
963.0542981946792
 30
0.0
 11
431.9732666015625
 21
1009.054598421664
 31
0.0
  0
CIRCLE
  5
217
330
1F
100
AcDbEntity
  8
C-8
  6
Continuous
 62
     4
370
     9
100
AcDbCircle
 10
-380.5271870381122
 20
737.5542223131336
 30
0.0
 40
7.750001791361216
  0
CIRCLE
  5
218
330
1F
100
AcDbEntity
  8
C-8
  6
Continuous
 62
     4
370
     9
100
AcDbCircle
 10
-380.5271870381122
 20
737.5542223131336
 30
0.0
 40
6.500001533611401
  0
CIRCLE
  5
219
330
1F
100
AcDbEntity
  8
C-8
  6
Continuous
 62
     4
370
     9
100
AcDbCircle
 10
-380.5271870381122
 20
737.5542223131336
 30
0.0
 40
5.499999587600296
  0
ARC
  5
21A
330
1F
100
AcDbEntity
  8
C-2
  6
Continuous
 62
     3
370
     9
100
AcDbCircle
 10
-372.0270105310388
 20
737.5542223131336
 30
0.0
 40
6.00000201044856
100
AcDbArc
 50
270.0
 51
90.0
  0
ARC
  5
21B
330
1F
100
AcDbEntity
  8
C-2
  6
Continuous
 62
     3
370
     9
100
AcDbCircle
 10
-384.0272233292862
 20
737.5542223131336
 30
0.0
 40
6.00000201044856
100
AcDbArc
 50
106.3353424072265
 51
253.6646575927734
  0
CIRCLE
  5
21C
330
1F
100
AcDbEntity
  8
C-8
  6
Continuous
 62
     4
370
     9
100
AcDbCircle
 10
-380.5271870381122
 20
954.5515235694679
 30
0.0
 40
7.750001791361216
  0
CIRCLE
  5
21D
330
1F
100
AcDbEntity
  8
C-8
  6
Continuous
 62
     4
370
     9
100
AcDbCircle
 10
-380.5271870381122
 20
954.5515235694679
 30
0.0
 40
6.500001533611401
  0
CIRCLE
  5
21E
330
1F
100
AcDbEntity
  8
C-8
  6
Continuous
 62
     4
370
     9
100
AcDbCircle
 10
-380.5271870381122
 20
954.5515235694679
 30
0.0
 40
5.499999587600296
  0
ARC
  5
21F
330
1F
100
AcDbEntity
  8
C-2
  6
Continuous
 62
     3
370
     9
100
AcDbCircle
 10
-372.0270105310388
 20
954.5515235694679
 30
0.0
 40
6.00000201044856
100
AcDbArc
 50
270.0
 51
90.0
  0
ARC
  5
220
330
1F
100
AcDbEntity
  8
C-2
  6
Continuous
 62
     3
370
     9
100
AcDbCircle
 10
-384.0272233292862
 20
954.5515235694679
 30
0.0
 40
6.00000201044856
100
AcDbArc
 50
106.3353424072265
 51
253.6646575927734
  0
CIRCLE
  5
221
330
1F
100
AcDbEntity
  8
C-8
  6
Continuous
 62
     4
370
     9
100
AcDbCircle
 10
494.4740914009714
 20
737.5542223131336
 30
0.0
 40
7.750001791361216
  0
CIRCLE
  5
222
330
1F
100
AcDbEntity
  8
C-8
  6
Continuous
 62
     4
370
     9
100
AcDbCircle
 10
494.4740914009714
 20
737.5542223131336
 30
0.0
 40
6.500001533611401
  0
CIRCLE
  5
223
330
1F
100
AcDbEntity
  8
C-8
  6
Continuous
 62
     4
370
     9
100
AcDbCircle
 10
494.4740914009714
 20
737.5542223131336
 30
0.0
 40
5.499999587600296
  0
ARC
  5
224
330
1F
100
AcDbEntity
  8
C-2
  6
Continuous
 62
     3
370
     9
100
AcDbCircle
 10
485.9737911739865
 20
737.5542223131336
 30
0.0
 40
6.00000201044856
100
AcDbArc
 50
90.0
 51
270.0
  0
ARC
  5
225
330
1F
100
AcDbEntity
  8
C-2
  6
Continuous
 62
     3
370
     9
100
AcDbCircle
 10
497.9741276921453
 20
737.5542223131336
 30
0.0
 40
6.00000201044856
100
AcDbArc
 50
286.3353424072266
 51
73.66465759277345
  0
CIRCLE
  5
226
330
1F
100
AcDbEntity
  8
C-8
  6
Continuous
 62
     4
370
     9
100
AcDbCircle
 10
494.4740914009714
 20
954.5515235694679
 30
0.0
 40
7.750001791361216
  0
CIRCLE
  5
227
330
1F
100
AcDbEntity
  8
C-8
  6
Continuous
 62
     4
370
     9
100
AcDbCircle
 10
494.4740914009714
 20
954.5515235694679
 30
0.0
 40
6.500001533611401
  0
CIRCLE
  5
228
330
1F
100
AcDbEntity
  8
C-8
  6
Continuous
 62
     4
370
     9
100
AcDbCircle
 10
494.4740914009714
 20
954.5515235694679
 30
0.0
 40
5.499999587600296
  0
ARC
  5
229
330
1F
100
AcDbEntity
  8
C-2
  6
Continuous
 62
     3
370
     9
100
AcDbCircle
 10
485.9737911739865
 20
954.5515235694679
 30
0.0
 40
6.00000201044856
100
AcDbArc
 50
90.0
 51
270.0
  0
ARC
  5
22A
330
1F
100
AcDbEntity
  8
C-2
  6
Continuous
 62
     3
370
     9
100
AcDbCircle
 10
497.9741276921453
 20
954.5515235694679
 30
0.0
 40
6.00000201044856
100
AcDbArc
 50
286.3353424072266
 51
73.66465759277345
  0
CIRCLE
  5
22B
330
1F
100
AcDbEntity
  8
C-8
  6
Continuous
 62
     4
370
     9
100
AcDbCircle
 10
-505.5264859586148
 20
737.5542223131336
 30
0.0
 40
7.750001791361216
  0
CIRCLE
  5
22C
330
1F
100
AcDbEntity
  8
C-8
  6
Continuous
 62
     4
370
     9
100
AcDbCircle
 10
-505.5264859586148
 20
737.5542223131336
 30
0.0
 40
6.500001533611401
  0
CIRCLE
  5
22D
330
1F
100
AcDbEntity
  8
C-8
  6
Continuous
 62
     4
370
     9
100
AcDbCircle
 10
-505.5264859586148
 20
737.5542223131336
 30
0.0
 40
5.499999587600296
  0
ARC
  5
22E
330
1F
100
AcDbEntity
  8
C-2
  6
Continuous
 62
     3
370
     9
100
AcDbCircle
 10
-514.0267861855995
 20
737.5542223131336
 30
0.0
 40
6.00000201044856
100
AcDbArc
 50
90.0
 51
270.0
  0
ARC
  5
22F
330
1F
100
AcDbEntity
  8
C-2
  6
Continuous
 62
     3
370
     9
100
AcDbCircle
 10
-502.0265733873521
 20
737.5542223131336
 30
0.0
 40
6.00000201044856
100
AcDbArc
 50
286.3353424072266
 51
73.66465759277345
  0
CIRCLE
  5
230
330
1F
100
AcDbEntity
  8
C-8
  6
Continuous
 62
     4
370
     9
100
AcDbCircle
 10
-505.5264859586148
 20
954.5515235694679
 30
0.0
 40
7.750001791361216
  0
CIRCLE
  5
231
330
1F
100
AcDbEntity
  8
C-8
  6
Continuous
 62
     4
370
     9
100
AcDbCircle
 10
-505.5264859586148
 20
954.5515235694679
 30
0.0
 40
6.500001533611401
  0
CIRCLE
  5
232
330
1F
100
AcDbEntity
  8
C-8
  6
Continuous
 62
     4
370
     9
100
AcDbCircle
 10
-505.5264859586148
 20
954.5515235694679
 30
0.0
 40
5.499999587600296
  0
ARC
  5
233
330
1F
100
AcDbEntity
  8
C-2
  6
Continuous
 62
     3
370
     9
100
AcDbCircle
 10
-514.0267861855995
 20
954.5515235694679
 30
0.0
 40
6.00000201044856
100
AcDbArc
 50
90.0
 51
270.0
  0
ARC
  5
234
330
1F
100
AcDbEntity
  8
C-2
  6
Continuous
 62
     3
370
     9
100
AcDbCircle
 10
-502.0265733873521
 20
954.5515235694679
 30
0.0
 40
6.00000201044856
100
AcDbArc
 50
286.3353424072266
 51
73.66465759277345
  0
CIRCLE
  5
235
330
1F
100
AcDbEntity
  8
C-8
  6
Continuous
 62
     4
370
     9
100
AcDbCircle
 10
619.4735140413854
 20
737.5542223131336
 30
0.0
 40
7.750001791361216
  0
CIRCLE
  5
236
330
1F
100
AcDbEntity
  8
C-8
  6
Continuous
 62
     4
370
     9
100
AcDbCircle
 10
619.4735140413854
 20
737.5542223131336
 30
0.0
 40
6.500001533611401
  0
CIRCLE
  5
237
330
1F
100
AcDbEntity
  8
C-8
  6
Continuous
 62
     4
370
     9
100
AcDbCircle
 10
619.4735140413854
 20
737.5542223131336
 30
0.0
 40
5.499999587600296
  0
ARC
  5
238
330
1F
100
AcDbEntity
  8
C-2
  6
Continuous
 62
     3
370
     9
100
AcDbCircle
 10
627.9738142683703
 20
737.5542223131336
 30
0.0
 40
6.00000201044856
100
AcDbArc
 50
270.0
 51
90.0
  0
ARC
  5
239
330
1F
100
AcDbEntity
  8
C-2
  6
Continuous
 62
     3
370
     9
100
AcDbCircle
 10
615.9734777502115
 20
737.5542223131336
 30
0.0
 40
6.00000201044856
100
AcDbArc
 50
106.3353424072265
 51
253.6646575927734
  0
CIRCLE
  5
23A
330
1F
100
AcDbEntity
  8
C-8
  6
Continuous
 62
     4
370
     9
100
AcDbCircle
 10
619.4735140413854
 20
954.5515235694679
 30
0.0
 40
7.750001791361216
  0
CIRCLE
  5
23B
330
1F
100
AcDbEntity
  8
C-8
  6
Continuous
 62
     4
370
     9
100
AcDbCircle
 10
619.4735140413854
 20
954.5515235694679
 30
0.0
 40
6.500001533611401
  0
CIRCLE
  5
23C
330
1F
100
AcDbEntity
  8
C-8
  6
Continuous
 62
     4
370
     9
100
AcDbCircle
 10
619.4735140413854
 20
954.5515235694679
 30
0.0
 40
5.499999587600296
  0
ARC
  5
23D
330
1F
100
AcDbEntity
  8
C-2
  6
Continuous
 62
     3
370
     9
100
AcDbCircle
 10
627.9738142683703
 20
954.5515235694679
 30
0.0
 40
6.00000201044856
100
AcDbArc
 50
270.0
 51
90.0
  0
ARC
  5
23E
330
1F
100
AcDbEntity
  8
C-2
  6
Continuous
 62
     3
370
     9
100
AcDbCircle
 10
615.9734777502115
 20
954.5515235694679
 30
0.0
 40
6.00000201044856
100
AcDbArc
 50
106.3353424072265
 51
253.6646575927734
  0
TEXT
  5
23F
330
1F
100
AcDbEntity
  8
C-4
  6
Continuous
 62
     2
370
     9
100
AcDbText
 10
16.22339197107266
 20
1158.692945523649
 30
0.0
 40
30.48
  1
1000
 41
1.09375
  7
ＭＳ ゴシック
100
AcDbText
  0
TEXT
  5
240
330
1F
100
AcDbEntity
  8
C-4
  6
Continuous
 62
     2
370
     9
100
AcDbText
 10
24.47353053737345
 20
1078.693176467483
 30
0.0
 40
30.48
  1
994
 41
1.083333333333333
  7
ＭＳ ゴシック
100
AcDbText
  0
TEXT
  5
241
330
1F
100
AcDbEntity
  8
C-4
  6
Continuous
 62
     2
370
     9
100
AcDbText
 10
-471.9877500791807
 20
1078.693176467483
 30
0.0
 40
30.48
  1
6
 41
0.9999999999999998
  7
ＭＳ ゴシック
100
AcDbText
  0
TEXT
  5
242
330
1F
100
AcDbEntity
  8
C-4
  6
Continuous
 62
     2
370
     9
100
AcDbText
 10
528.0118375211151
 20
1078.693176467483
 30
0.0
 40
30.48
  1
6
 41
0.9999999999999998
  7
ＭＳ ゴシック
100
AcDbText
  0
TEXT
  5
243
330
1F
100
AcDbEntity
  8
C-4
  6
Continuous
 62
     2
370
     9
100
AcDbText
 10
395.723580025338
 20
1016.694654508024
 30
0.0
 40
30.48
  1
30
 41
1.0625
  7
ＭＳ ゴシック
100
AcDbText
  0
TEXT
  5
244
330
1F
100
AcDbEntity
  8
C-4
  6
Continuous
 62
     2
370
     9
100
AcDbText
 10
524.4736954972552
 20
574.6935179344385
 30
0.0
 40
30.48
  1
125
 41
1.083333333333333
  7
ＭＳ ゴシック
100
AcDbText
  0
TEXT
  5
245
330
1F
100
AcDbEntity
  8
C-4
  6
Continuous
 62
     2
370
     9
100
AcDbText
 10
24.47353053737345
 20
574.6935179344385
 30
0.0
 40
30.48
  1
875
 41
1.083333333333333
  7
ＭＳ ゴシック
100
AcDbText
  0
TEXT
  5
246
330
1F
100
AcDbEntity
  8
C-4
  6
Continuous
 62
     2
370
     9
100
AcDbText
 10
-475.526881862331
 20
574.6935179344385
 30
0.0
 40
30.48
  1
125
 41
1.083333333333333
  7
ＭＳ ゴシック
100
AcDbText
  0
TEXT
  5
247
330
1F
100
AcDbEntity
  8
C-5
  6
Continuous
 62
     2
370
     9
100
AcDbText
 10
-207.0269610430742
 20
487.1937241342906
 30
0.0
 40
30.48
  1
平面詳細図　Ｓ＝１：１０
 41
1.114583333333333
  7
ＭＳ ゴシック
100
AcDbText
  0
LINE
  5
248
330
1F
100
AcDbEntity
  8
C-A
  6
Continuous
 62
     3
370
     9
100
AcDbLine
 10
-184.276502042203
 20
981.0533615771573
 30
0.0
 11
-185.526502042203
 21
981.0533615771573
 31
0.0
  0
LINE
  5
249
330
1F
100
AcDbEntity
  8
C-A
  6
Continuous
 62
     3
370
     9
100
AcDbLine
 10
-184.276502042203
 20
981.0533615771573
 30
0.0
 11
-184.276502042203
 21
1010.053345841531
 31
0.0
  0
LINE
  5
24A
330
1F
100
AcDbEntity
  8
C-A
  6
Continuous
 62
     3
370
     9
100
AcDbLine
 10
-185.5311712316552
 20
977.053348225715
 30
0.0
 11
-185.0180181554833
 21
977.053348225715
 31
0.0
  0
LINE
  5
24B
330
1F
100
AcDbEntity
  8
C-A
  6
Continuous
 62
     3
370
     9
100
AcDbLine
 10
-201.0264410070454
 20
977.053348225715
 30
0.0
 11
-200.5264715246244
 21
977.053348225715
 31
0.0
  0
LINE
  5
24C
330
1F
100
AcDbEntity
  8
C-A
  6
Continuous
 62
     3
370
     9
100
AcDbLine
 10
-201.7765630773579
 20
981.0533615771573
 30
0.0
 11
-200.5265935949365
 21
981.0533615771573
 31
0.0
  0
LINE
  5
24D
330
1F
100
AcDbEntity
  8
C-A
  6
Continuous
 62
     3
370
     9
100
AcDbLine
 10
-201.7765630773579
 20
981.0533615771573
 30
0.0
 11
-201.7765630773579
 21
1010.053345841531
 31
0.0
  0
LINE
  5
24E
330
1F
100
AcDbEntity
  8
C-A
  6
Continuous
 62
     3
370
     9
100
AcDbLine
 10
-184.276502042203
 20
1010.053345841531
 30
0.0
 11
-201.7765630773579
 21
1010.053345841531
 31
0.0
  0
LINE
  5
24F
330
1F
100
AcDbEntity
  8
C-A
  6
JWW_DASHED2
 62
     3
370
     9
100
AcDbLine
 10
-186.2765325597798
 20
980.9074460688856
 30
0.0
 11
-186.2765325597798
 21
1010.053345841531
 31
0.0
  0
LINE
  5
250
330
1F
100
AcDbEntity
  8
C-A
  6
JWW_DASHED2
 62
     3
370
     9
100
AcDbLine
 10
-199.7765630773597
 20
980.9074460688856
 30
0.0
 11
-199.7765630773597
 21
1010.053345841531
 31
0.0
  0
LINE
  5
251
330
1F
100
AcDbEntity
  8
C-A
  6
Continuous
 62
     3
370
     9
100
AcDbLine
 10
315.7234674402173
 20
981.0533615771573
 30
0.0
 11
314.4734674402173
 21
981.0533615771573
 31
0.0
  0
LINE
  5
252
330
1F
100
AcDbEntity
  8
C-A
  6
Continuous
 62
     3
370
     9
100
AcDbLine
 10
315.7234674402173
 20
981.0533615771573
 30
0.0
 11
315.7234674402173
 21
1010.053345841531
 31
0.0
  0
LINE
  5
253
330
1F
100
AcDbEntity
  8
C-A
  6
Continuous
 62
     3
370
     9
100
AcDbLine
 10
314.4688287683437
 20
977.053348225715
 30
0.0
 11
314.9820123620941
 21
977.053348225715
 31
0.0
  0
LINE
  5
254
330
1F
100
AcDbEntity
  8
C-A
  6
Continuous
 62
     3
370
     9
100
AcDbLine
 10
298.9735895105298
 20
977.053348225715
 30
0.0
 11
299.4735284753745
 21
977.053348225715
 31
0.0
  0
LINE
  5
255
330
1F
100
AcDbEntity
  8
C-A
  6
Continuous
 62
     3
370
     9
100
AcDbLine
 10
298.2234064050624
 20
981.0533615771573
 30
0.0
 11
299.4734064050624
 21
981.0533615771573
 31
0.0
  0
LINE
  5
256
330
1F
100
AcDbEntity
  8
C-A
  6
Continuous
 62
     3
370
     9
100
AcDbLine
 10
298.2234064050624
 20
981.0533615771573
 30
0.0
 11
298.2234064050624
 21
1010.053345841531
 31
0.0
  0
LINE
  5
257
330
1F
100
AcDbEntity
  8
C-A
  6
Continuous
 62
     3
370
     9
100
AcDbLine
 10
315.7234674402173
 20
1010.053345841531
 30
0.0
 11
298.2234064050624
 21
1010.053345841531
 31
0.0
  0
LINE
  5
258
330
1F
100
AcDbEntity
  8
C-A
  6
JWW_DASHED2
 62
     3
370
     9
100
AcDbLine
 10
313.7234674402191
 20
980.9074460688856
 30
0.0
 11
313.7234674402191
 21
1010.053345841531
 31
0.0
  0
LINE
  5
259
330
1F
100
AcDbEntity
  8
C-A
  6
JWW_DASHED2
 62
     3
370
     9
100
AcDbLine
 10
300.2234674402177
 20
980.9074460688856
 30
0.0
 11
300.2234674402177
 21
1010.053345841531
 31
0.0
  0
LINE
  5
25A
330
1F
100
AcDbEntity
  8
C-A
  6
JWW_CENTER2
 62
     7
370
     9
100
AcDbLine
 10
-193.026502042203
 20
967.5851670924447
 30
0.0
 11
-193.026502042203
 21
1014.985566300515
 31
0.0
  0
LINE
  5
25B
330
1F
100
AcDbEntity
  8
C-A
  6
JWW_CENTER2
 62
     7
370
     9
100
AcDbLine
 10
-198.8025030187646
 20
1000.053300065162
 30
0.0
 11
-187.2504705480628
 21
1000.053300065162
 31
0.0
  0
LINE
  5
25C
330
1F
100
AcDbEntity
  8
C-A
  6
JWW_CENTER2
 62
     7
370
     9
100
AcDbLine
 10
301.1974664636557
 20
1000.053300065162
 30
0.0
 11
312.749529451936
 21
1000.053300065162
 31
0.0
  0
LINE
  5
25D
330
1F
100
AcDbEntity
  8
C-A
  6
JWW_CENTER2
 62
     7
370
     9
100
AcDbLine
 10
306.9735284753745
 20
967.5851670924447
 30
0.0
 11
306.9735284753745
 21
1014.985566300515
 31
0.0
  0
ARC
  5
25E
330
1F
100
AcDbEntity
  8
C-A
  6
Continuous
 62
     3
370
     9
100
AcDbCircle
 10
-185.0264410070463
 20
975.0533663455275
 30
0.0
 40
1.999999642372131
100
AcDbArc
 50
29.99926757812499
 51
89.75836181640624
  0
ARC
  5
25F
330
1F
100
AcDbEntity
  8
C-A
  6
Continuous
 62
     3
370
     9
100
AcDbCircle
 10
-185.526502042203
 20
979.0533425036705
 30
0.0
 40
1.999999642372131
100
AcDbArc
 50
90.0
 51
269.86669921875
  0
ARC
  5
260
330
1F
100
AcDbEntity
  8
C-A
  6
Continuous
 62
     3
370
     9
100
AcDbCircle
 10
-201.0264410070454
 20
975.0533663455275
 30
0.0
 40
1.999999642372131
100
AcDbArc
 50
90.2759552001953
 51
150.0004730224609
  0
ARC
  5
261
330
1F
100
AcDbEntity
  8
C-A
  6
Continuous
 62
     3
370
     9
100
AcDbCircle
 10
-200.5265935949365
 20
979.0533425036705
 30
0.0
 40
1.999999642372131
100
AcDbArc
 50
270.0
 51
90.0
  0
CIRCLE
  5
262
330
1F
100
AcDbEntity
  8
C-A
  6
Continuous
 62
     3
370
     9
100
AcDbCircle
 10
-193.026502042203
 20
1000.053300065162
 30
0.0
 40
4.249999523162842
  0
ARC
  5
263
330
1F
100
AcDbEntity
  8
C-A
  6
Continuous
 62
     3
370
     9
100
AcDbCircle
 10
314.973528475374
 20
975.0533663455275
 30
0.0
 40
1.999999642372131
100
AcDbArc
 50
29.99926757812499
 51
89.75836181640624
  0
ARC
  5
264
330
1F
100
AcDbEntity
  8
C-A
  6
Continuous
 62
     3
370
     9
100
AcDbCircle
 10
314.4734674402173
 20
979.0533425036705
 30
0.0
 40
1.999999642372131
100
AcDbArc
 50
90.0
 51
269.86669921875
  0
ARC
  5
265
330
1F
100
AcDbEntity
  8
C-A
  6
Continuous
 62
     3
370
     9
100
AcDbCircle
 10
298.9735895105298
 20
975.0533663455275
 30
0.0
 40
1.999999642372131
100
AcDbArc
 50
90.2759552001953
 51
150.0004730224609
  0
ARC
  5
266
330
1F
100
AcDbEntity
  8
C-A
  6
Continuous
 62
     3
370
     9
100
AcDbCircle
 10
299.4734064050624
 20
979.0533425036705
 30
0.0
 40
1.999999642372131
100
AcDbArc
 50
270.0
 51
90.0
  0
CIRCLE
  5
267
330
1F
100
AcDbEntity
  8
C-A
  6
Continuous
 62
     3
370
     9
100
AcDbCircle
 10
306.9735284753745
 20
1000.053300065162
 30
0.0
 40
4.249999523162842
  0
LINE
  5
268
330
1F
100
AcDbEntity
  8
C-A
  6
Continuous
 62
     3
370
     9
100
AcDbLine
 10
-184.276502042203
 20
711.0528796619263
 30
0.0
 11
-185.526502042203
 21
711.0528796619263
 31
0.0
  0
LINE
  5
269
330
1F
100
AcDbEntity
  8
C-A
  6
Continuous
 62
     3
370
     9
100
AcDbLine
 10
-184.276502042203
 20
711.0528796619263
 30
0.0
 11
-184.276502042203
 21
682.0528949207159
 31
0.0
  0
LINE
  5
26A
330
1F
100
AcDbEntity
  8
C-A
  6
Continuous
 62
     3
370
     9
100
AcDbLine
 10
-185.5311712316552
 20
715.0528949207154
 30
0.0
 11
-185.0180181554833
 21
715.0528949207154
 31
0.0
  0
LINE
  5
26B
330
1F
100
AcDbEntity
  8
C-A
  6
Continuous
 62
     3
370
     9
100
AcDbLine
 10
-201.0264410070454
 20
715.0528949207154
 30
0.0
 11
-200.5264715246244
 21
715.0528949207154
 31
0.0
  0
LINE
  5
26C
330
1F
100
AcDbEntity
  8
C-A
  6
Continuous
 62
     3
370
     9
100
AcDbLine
 10
-201.7765630773579
 20
711.0528796619263
 30
0.0
 11
-200.5265935949365
 21
711.0528796619263
 31
0.0
  0
LINE
  5
26D
330
1F
100
AcDbEntity
  8
C-A
  6
Continuous
 62
     3
370
     9
100
AcDbLine
 10
-201.7765630773579
 20
711.0528796619263
 30
0.0
 11
-201.7765630773579
 21
682.0528949207159
 31
0.0
  0
LINE
  5
26E
330
1F
100
AcDbEntity
  8
C-A
  6
Continuous
 62
     3
370
     9
100
AcDbLine
 10
-184.276502042203
 20
682.0528949207159
 30
0.0
 11
-201.7765630773579
 21
682.0528949207159
 31
0.0
  0
LINE
  5
26F
330
1F
100
AcDbEntity
  8
C-A
  6
JWW_DASHED2
 62
     3
370
     9
100
AcDbLine
 10
-186.2765325597798
 20
711.1987842029424
 30
0.0
 11
-186.2765325597798
 21
682.0528949207159
 31
0.0
  0
LINE
  5
270
330
1F
100
AcDbEntity
  8
C-A
  6
JWW_DASHED2
 62
     3
370
     9
100
AcDbLine
 10
-199.7765630773597
 20
711.1987842029424
 30
0.0
 11
-199.7765630773597
 21
682.0528949207159
 31
0.0
  0
LINE
  5
271
330
1F
100
AcDbEntity
  8
C-4
  6
Continuous
 62
     7
370
     9
100
AcDbLine
 10
306.9735895105316
 20
671.333839744936
 30
0.0
 11
306.9735895105316
 21
628.0526660388813
 31
0.0
  0
LINE
  5
272
330
1F
100
AcDbEntity
  8
C-4
  6
Continuous
 62
     7
370
     9
100
AcDbLine
 10
-193.026502042203
 20
671.333839744936
 30
0.0
 11
-193.026502042203
 21
628.0526660388813
 31
0.0
  0
LINE
  5
273
330
1F
100
AcDbEntity
  8
C-4
  6
Continuous
 62
     7
370
     9
100
AcDbLine
 10
-193.026502042203
 20
631.0527270740357
 30
0.0
 11
306.9735895105316
 21
631.0527270740357
 31
0.0
  0
LINE
  5
274
330
1F
100
AcDbEntity
  8
C-A
  6
Continuous
 62
     3
370
     9
100
AcDbLine
 10
315.7234674402173
 20
711.0528796619263
 30
0.0
 11
314.4734674402173
 21
711.0528796619263
 31
0.0
  0
LINE
  5
275
330
1F
100
AcDbEntity
  8
C-A
  6
Continuous
 62
     3
370
     9
100
AcDbLine
 10
315.7234674402173
 20
711.0528796619263
 30
0.0
 11
315.7234674402173
 21
682.0528949207159
 31
0.0
  0
LINE
  5
276
330
1F
100
AcDbEntity
  8
C-A
  6
Continuous
 62
     3
370
     9
100
AcDbLine
 10
314.4688287683437
 20
715.0528949207154
 30
0.0
 11
314.9820123620941
 21
715.0528949207154
 31
0.0
  0
LINE
  5
277
330
1F
100
AcDbEntity
  8
C-A
  6
Continuous
 62
     3
370
     9
100
AcDbLine
 10
298.9735895105298
 20
715.0528949207154
 30
0.0
 11
299.4735284753745
 21
715.0528949207154
 31
0.0
  0
LINE
  5
278
330
1F
100
AcDbEntity
  8
C-A
  6
Continuous
 62
     3
370
     9
100
AcDbLine
 10
298.2234064050624
 20
711.0528796619263
 30
0.0
 11
299.4734064050624
 21
711.0528796619263
 31
0.0
  0
LINE
  5
279
330
1F
100
AcDbEntity
  8
C-A
  6
Continuous
 62
     3
370
     9
100
AcDbLine
 10
298.2234064050624
 20
711.0528796619263
 30
0.0
 11
298.2234064050624
 21
682.0528949207159
 31
0.0
  0
LINE
  5
27A
330
1F
100
AcDbEntity
  8
C-A
  6
Continuous
 62
     3
370
     9
100
AcDbLine
 10
315.7234674402173
 20
682.0528949207159
 30
0.0
 11
298.2234064050624
 21
682.0528949207159
 31
0.0
  0
LINE
  5
27B
330
1F
100
AcDbEntity
  8
C-A
  6
JWW_DASHED2
 62
     3
370
     9
100
AcDbLine
 10
313.7234674402191
 20
711.1987842029424
 30
0.0
 11
313.7234674402191
 21
682.0528949207159
 31
0.0
  0
LINE
  5
27C
330
1F
100
AcDbEntity
  8
C-A
  6
JWW_DASHED2
 62
     3
370
     9
100
AcDbLine
 10
300.2234674402177
 20
711.1987842029424
 30
0.0
 11
300.2234674402177
 21
682.0528949207159
 31
0.0
  0
LINE
  5
27D
330
1F
100
AcDbEntity
  8
C-A
  6
JWW_CENTER2
 62
     7
370
     9
100
AcDbLine
 10
301.1974664636557
 20
692.0529406970826
 30
0.0
 11
312.749529451936
 21
692.0529406970826
 31
0.0
  0
LINE
  5
27E
330
1F
100
AcDbEntity
  8
C-A
  6
JWW_CENTER2
 62
     7
370
     9
100
AcDbLine
 10
306.9735284753745
 20
724.5210650867324
 30
0.0
 11
306.9735284753745
 21
677.1206744617319
 31
0.0
  0
LINE
  5
27F
330
1F
100
AcDbEntity
  8
C-A
  6
JWW_CENTER2
 62
     7
370
     9
100
AcDbLine
 10
-198.8025030187646
 20
692.0529406970826
 30
0.0
 11
-187.2504705480628
 21
692.0529406970826
 31
0.0
  0
LINE
  5
280
330
1F
100
AcDbEntity
  8
C-A
  6
JWW_CENTER2
 62
     7
370
     9
100
AcDbLine
 10
-193.026502042203
 20
724.5210650867324
 30
0.0
 11
-193.026502042203
 21
677.1206744617319
 31
0.0
  0
ARC
  5
281
330
1F
100
AcDbEntity
  8
C-A
  6
Continuous
 62
     3
370
     9
100
AcDbCircle
 10
-185.0264410070463
 20
717.0528644031373
 30
0.0
 40
1.999999642372131
100
AcDbArc
 50
270.2416229248047
 51
330.0007171630859
  0
ARC
  5
282
330
1F
100
AcDbEntity
  8
C-A
  6
Continuous
 62
     3
370
     9
100
AcDbCircle
 10
-185.526502042203
 20
713.0528949207172
 30
0.0
 40
1.999999642372131
100
AcDbArc
 50
90.13328552246095
 51
270.0
  0
ARC
  5
283
330
1F
100
AcDbEntity
  8
C-A
  6
Continuous
 62
     3
370
     9
100
AcDbCircle
 10
-201.0264410070454
 20
717.0528644031373
 30
0.0
 40
1.999999642372131
100
AcDbArc
 50
209.99951171875
 51
269.7240295410157
  0
ARC
  5
284
330
1F
100
AcDbEntity
  8
C-A
  6
Continuous
 62
     3
370
     9
100
AcDbCircle
 10
-200.5265935949365
 20
713.0528949207172
 30
0.0
 40
1.999999642372131
100
AcDbArc
 50
270.0
 51
90.0
  0
CIRCLE
  5
285
330
1F
100
AcDbEntity
  8
C-A
  6
Continuous
 62
     3
370
     9
100
AcDbCircle
 10
-193.026502042203
 20
692.0529406970826
 30
0.0
 40
4.249999523162842
  0
ARC
  5
286
330
1F
100
AcDbEntity
  8
C-A
  6
Continuous
 62
     3
370
     9
100
AcDbCircle
 10
314.973528475374
 20
717.0528644031373
 30
0.0
 40
1.999999642372131
100
AcDbArc
 50
270.2416229248047
 51
330.0007171630859
  0
ARC
  5
287
330
1F
100
AcDbEntity
  8
C-A
  6
Continuous
 62
     3
370
     9
100
AcDbCircle
 10
314.4734674402173
 20
713.0528949207172
 30
0.0
 40
1.999999642372131
100
AcDbArc
 50
90.13328552246095
 51
270.0
  0
ARC
  5
288
330
1F
100
AcDbEntity
  8
C-A
  6
Continuous
 62
     3
370
     9
100
AcDbCircle
 10
298.9735895105298
 20
717.0528644031373
 30
0.0
 40
1.999999642372131
100
AcDbArc
 50
209.99951171875
 51
269.7240295410157
  0
ARC
  5
289
330
1F
100
AcDbEntity
  8
C-A
  6
Continuous
 62
     3
370
     9
100
AcDbCircle
 10
299.4734064050624
 20
713.0528949207172
 30
0.0
 40
1.999999642372131
100
AcDbArc
 50
270.0
 51
90.0
  0
CIRCLE
  5
28A
330
1F
100
AcDbEntity
  8
C-A
  6
Continuous
 62
     3
370
     9
100
AcDbCircle
 10
306.9735284753745
 20
692.0529406970826
 30
0.0
 40
4.249999523162842
  0
LWPOLYLINE
  5
28B
330
1F
100
AcDbEntity
  8
C-4
  6
Continuous
 62
     7
370
     9
100
AcDbPolyline
 90
        4
 70
     1
 43
2.0
 10
307.9735895105316
 20
631.0527270740357
 42
0.4142135623731
 10
306.9735895105316
 20
632.0527270740357
 42
0.4142135623731
 10
305.9735895105316
 20
631.0527270740357
 42
0.4142135623731
 10
306.9735895105316
 20
630.0527270740357
 42
0.4142135623731
  0
LWPOLYLINE
  5
28C
330
1F
100
AcDbEntity
  8
C-4
  6
Continuous
 62
     7
370
     9
100
AcDbPolyline
 90
        4
 70
     1
 43
2.0
 10
-192.026502042203
 20
631.0527270740357
 42
0.4142135623731
 10
-193.026502042203
 20
632.0527270740357
 42
0.4142135623731
 10
-194.026502042203
 20
631.0527270740357
 42
0.4142135623731
 10
-193.026502042203
 20
630.0527270740357
 42
0.4142135623731
  0
TEXT
  5
28D
330
1F
100
AcDbEntity
  8
C-4
  6
Continuous
 62
     2
370
     9
100
AcDbText
 10
24.47352847537559
 20
641.6924981921998
 30
0.0
 40
30.48
  1
500
 41
1.083333333333314
  7
ＭＳ ゴシック
100
AcDbText
  0
LINE
  5
28E
330
1F
100
AcDbEntity
  8
D-2
  6
Continuous
 62
     3
370
     9
100
AcDbLine
 10
-692.0713020888229
 20
-501.7561711491765
 30
0.0
 11
-1287.239792112049
 21
-501.7561711491765
 31
0.0
  0
LINE
  5
28F
330
1F
100
AcDbEntity
  8
D-2
  6
Continuous
 62
     3
370
     9
100
AcDbLine
 10
-1287.239792112049
 20
-541.392071698163
 30
0.0
 11
-1287.239792112049
 21
-288.6489950644003
 31
0.0
  0
LINE
  5
290
330
1F
100
AcDbEntity
  8
D-2
  6
Continuous
 62
     3
370
     9
100
AcDbLine
 10
-1287.239792112049
 20
-341.7567567567567
 30
0.0
 11
-589.571706240533
 21
-341.7567567567567
 31
0.0
  0
LINE
  5
291
330
1F
100
AcDbEntity
  8
D-5
  6
Continuous
 62
     7
370
     9
100
AcDbLine
 10
8.994627427118829
 20
-391.7565505569046
 30
0.0
 11
8.994627427118829
 21
-341.7563855970228
 31
0.0
  0
LINE
  5
292
330
1F
100
AcDbEntity
  8
D-5
  6
Continuous
 62
     7
370
     9
100
AcDbLine
 10
8.994627427118829
 20
-341.7563855970228
 30
0.0
 11
233.9946274271188
 21
-341.7563855970228
 31
0.0
  0
LINE
  5
293
330
1F
100
AcDbEntity
  8
D-5
  6
Continuous
 62
     7
370
     9
100
AcDbLine
 10
233.9946274271188
 20
-341.7563855970228
 30
0.0
 11
233.9946274271188
 21
-391.7565505569046
 31
0.0
  0
LINE
  5
294
330
1F
100
AcDbEntity
  8
D-5
  6
Continuous
 62
     7
370
     9
100
AcDbLine
 10
233.9946274271188
 20
-391.7565505569046
 30
0.0
 11
8.994627427118829
 21
-391.7565505569046
 31
0.0
  0
LINE
  5
295
330
1F
100
AcDbEntity
  8
D-2
  6
Continuous
 62
     3
370
     9
100
AcDbLine
 10
-972.0716072646039
 20
-341.7567567567567
 30
0.0
 11
-972.0716072646039
 21
-441.7564680769636
 31
0.0
  0
LINE
  5
296
330
1F
100
AcDbEntity
  8
D-2
  6
Continuous
 62
     3
370
     9
100
AcDbLine
 10
-957.0718052164619
 20
-441.7564680769636
 30
0.0
 11
-957.0718052164619
 21
-341.7567567567567
 31
0.0
  0
LINE
  5
297
330
1F
100
AcDbEntity
  8
D-2
  6
Continuous
 62
     3
370
     9
100
AcDbLine
 10
-957.0718052164619
 20
-386.756781500739
 30
0.0
 11
-952.0715412806512
 21
-386.756781500739
 31
0.0
  0
LINE
  5
298
330
1F
100
AcDbEntity
  8
D-2
  6
Continuous
 62
     3
370
     9
100
AcDbLine
 10
-977.0718712004148
 20
-441.7564680769636
 30
0.0
 11
-952.0715412806512
 21
-441.7564680769636
 31
0.0
  0
LINE
  5
299
330
1F
100
AcDbEntity
  8
D-2
  6
Continuous
 62
     3
370
     9
100
AcDbLine
 10
-977.0718712004148
 20
-386.756781500739
 30
0.0
 11
-972.0716072646039
 21
-386.756781500739
 31
0.0
  0
LINE
  5
29A
330
1F
100
AcDbEntity
  8
D-2
  6
Continuous
 62
     3
370
     9
100
AcDbLine
 10
-977.0718712004148
 20
-386.756781500739
 30
0.0
 11
-977.0718712004148
 21
-404.2567155167862
 31
0.0
  0
LINE
  5
29B
330
1F
100
AcDbEntity
  8
D-2
  6
Continuous
 62
     3
370
     9
100
AcDbLine
 10
-1017.071632008586
 20
-404.2567155167862
 30
0.0
 11
-977.0718712004148
 21
-404.2567155167862
 31
0.0
  0
LINE
  5
29C
330
1F
100
AcDbEntity
  8
D-2
  6
Continuous
 62
     3
370
     9
100
AcDbLine
 10
-1017.071632008586
 20
-404.2567155167862
 30
0.0
 11
-1017.071632008586
 21
-432.0162468987542
 31
0.0
  0
LINE
  5
29D
330
1F
100
AcDbEntity
  8
D-2
  6
Continuous
 62
     3
370
     9
100
AcDbLine
 10
-977.0718712004148
 20
-441.7564680769636
 30
0.0
 11
-1017.071632008586
 21
-432.0162468987542
 31
0.0
  0
LINE
  5
29E
330
1F
100
AcDbEntity
  8
D-2
  6
Continuous
 62
     3
370
     9
100
AcDbLine
 10
-952.0715412806512
 20
-431.7566825248099
 30
0.0
 11
-952.0715412806512
 21
-441.7564680769636
 31
0.0
  0
LINE
  5
29F
330
1F
100
AcDbEntity
  8
D-2
  6
Continuous
 62
     3
370
     9
100
AcDbLine
 10
-952.0715412806512
 20
-431.7566825248099
 30
0.0
 11
-912.0719041923911
 21
-431.7566825248099
 31
0.0
  0
LINE
  5
2A0
330
1F
100
AcDbEntity
  8
D-2
  6
Continuous
 62
     3
370
     9
100
AcDbLine
 10
-912.0719041923911
 20
-404.4489762589737
 30
0.0
 11
-912.0719041923911
 21
-431.7566825248099
 31
0.0
  0
LINE
  5
2A1
330
1F
100
AcDbEntity
  8
D-2
  6
Continuous
 62
     3
370
     9
100
AcDbLine
 10
-912.0719041923911
 20
-404.4489762589737
 30
0.0
 11
-952.0715412806512
 21
-386.756781500739
 31
0.0
  0
LINE
  5
2A2
330
1F
100
AcDbEntity
  8
D-2
  6
Continuous
 62
     3
370
     9
100
AcDbLine
 10
-589.571706240533
 20
-341.7567567567567
 30
0.0
 11
-589.571706240533
 21
-501.7561711491765
 31
0.0
  0
LINE
  5
2A3
330
1F
100
AcDbEntity
  8
D-2
  6
Continuous
 62
     3
370
     9
100
AcDbLine
 10
-609.5712773448405
 20
-341.7567567567567
 30
0.0
 11
-609.5712773448405
 21
-501.7561711491765
 31
0.0
  0
LINE
  5
2A4
330
1F
100
AcDbEntity
  8
D-2
  6
Continuous
 62
     3
370
     9
100
AcDbLine
 10
-734.571689744545
 20
-341.7567567567567
 30
0.0
 11
-734.571689744545
 21
-501.7561711491765
 31
0.0
  0
LINE
  5
2A5
330
1F
100
AcDbEntity
  8
D-2
  6
Continuous
 62
     3
370
     9
100
AcDbLine
 10
-754.5717557284977
 20
-341.7567567567567
 30
0.0
 11
-754.5717557284977
 21
-501.7561711491765
 31
0.0
  0
LINE
  5
2A6
330
1F
100
AcDbEntity
  8
D-1
  6
JWW_CENTER2
 62
     2
370
     9
100
AcDbLine
 10
-672.0712361048697
 20
-547.1665748389983
 30
0.0
 11
-672.0712361048697
 21
-405.1262190535253
 31
0.0
  0
LINE
  5
2A7
330
1F
100
AcDbEntity
  8
D-5
  6
Continuous
 62
     7
370
     9
100
AcDbLine
 10
-828.811744313274
 20
-744.423250765414
 30
0.0
 11
-1400.681795516821
 21
-744.423250765414
 31
0.0
  0
LINE
  5
2A8
330
1F
100
AcDbEntity
  8
D-5
  6
Continuous
 62
     7
370
     9
100
AcDbLine
 10
-828.811744313274
 20
-744.423250765414
 30
0.0
 11
-672.0722258641604
 21
-528.2567287135764
 31
0.0
  0
LINE
  5
2A9
330
1F
100
AcDbEntity
  8
D-5
  6
Continuous
 62
     7
370
     9
100
AcDbLine
 10
-672.0722258641604
 20
-528.2567287135764
 30
0.0
 11
-683.980267328476
 21
-550.2384165171025
 31
0.0
  0
LINE
  5
2AA
330
1F
100
AcDbEntity
  8
D-5
  6
Continuous
 62
     7
370
     9
100
AcDbLine
 10
-672.0722258641604
 20
-528.2567287135764
 30
0.0
 11
-689.2634787014697
 21
-546.4074294631546
 31
0.0
  0
LINE
  5
2AB
330
1F
100
AcDbEntity
  8
D-5
  6
Continuous
 62
     7
370
     9
100
AcDbLine
 10
-1056.565873259113
 20
-1072.698075578019
 30
0.0
 11
-1056.565873259113
 21
-1007.69847972973
 31
0.0
  0
LINE
  5
2AC
330
1F
100
AcDbEntity
  8
D-5
  6
Continuous
 62
     7
370
     9
100
AcDbLine
 10
-1056.565873259113
 20
-1007.69847972973
 30
0.0
 11
-481.5654608594093
 21
-1007.69847972973
 31
0.0
  0
LINE
  5
2AD
330
1F
100
AcDbEntity
  8
D-5
  6
Continuous
 62
     7
370
     9
100
AcDbLine
 10
-481.5654608594093
 20
-1007.69847972973
 30
0.0
 11
-481.5654608594093
 21
-1072.698075578019
 31
0.0
  0
LINE
  5
2AE
330
1F
100
AcDbEntity
  8
D-5
  6
Continuous
 62
     7
370
     9
100
AcDbLine
 10
-481.5654608594093
 20
-1072.698075578019
 30
0.0
 11
-1056.565873259113
 21
-1072.698075578019
 31
0.0
  0
TEXT
  5
2AF
330
1F
100
AcDbEntity
  8
D-5
  6
Continuous
 62
     2
370
     9
100
AcDbText
 10
-1013.140060666736
 20
-1051.087690825591
 30
0.0
 40
30.48
  1
断面詳細図　Ｓ＝１：２
 41
1.113636382381804
  7
ＭＳ ゴシック
100
AcDbText
  0
TEXT
  5
2B0
330
1F
100
AcDbEntity
  8
D-5
  6
Continuous
 62
     7
370
     9
100
AcDbText
 10
-1397.849723026851
 20
-729.805727011191
 30
0.0
 40
22.86
  1
キャップ付Ｕナット，ワッシャー，
 41
1.156250000000002
  7
ＭＳ ゴシック
100
AcDbText
  0
TEXT
  5
2B1
330
1F
100
AcDbEntity
  8
D-5
  6
Continuous
 62
     7
370
     9
100
AcDbText
 10
-1397.849723026851
 20
-780.8336332743879
 30
0.0
 40
22.86
  1
溶接ボルトＭ８×１６（ＳＵＳ）
 41
1.155555555555558
  7
ＭＳ ゴシック
100
AcDbText
  0
LINE
  5
2B2
330
1F
100
AcDbEntity
  8
D-1
  6
Continuous
 62
     2
370
     9
100
AcDbLine
 10
-579.5711650303587
 20
-341.7567567567567
 30
0.0
 11
-579.5711650303587
 21
-501.7565088014344
 31
0.0
  0
LINE
  5
2B3
330
1F
100
AcDbEntity
  8
D-1
  6
Continuous
 62
     2
370
     9
100
AcDbLine
 10
-579.5711650303587
 20
-341.7567567567567
 30
0.0
 11
-564.571343844293
 21
-341.7567567567567
 31
0.0
  0
LINE
  5
2B4
330
1F
100
AcDbEntity
  8
D-6
  6
Continuous
 62
     6
370
     9
100
AcDbLine
 10
-314.5716680935606
 20
-587.766411755536
 30
0.0
 11
-218.5607351711973
 21
-491.7564611177186
 31
0.0
  0
LINE
  5
2B5
330
1F
100
AcDbEntity
  8
D-6
  6
Continuous
 62
     6
370
     9
100
AcDbLine
 10
-314.5716680935606
 20
-491.7564611177186
 30
0.0
 11
-149.5706762722716
 21
-491.7564611177186
 31
0.0
  0
LINE
  5
2B6
330
1F
100
AcDbEntity
  8
D-6
  6
Continuous
 62
     6
370
     9
100
AcDbLine
 10
-314.5716680935606
 20
-601.9070939759949
 30
0.0
 11
-204.420033877252
 21
-491.7564611177186
 31
0.0
  0
LINE
  5
2B7
330
1F
100
AcDbEntity
  8
D-6
  6
Continuous
 62
     6
370
     9
100
AcDbLine
 10
-564.571343844293
 20
-341.756261287981
 30
0.0
 11
-149.5706762722716
 21
-341.756261287981
 31
0.0
  0
LINE
  5
2B8
330
1F
100
AcDbEntity
  8
D-6
  6
Continuous
 62
     6
370
     9
100
AcDbLine
 10
-564.571343844293
 20
-716.7562608461121
 30
0.0
 11
-314.5716680935606
 21
-716.7562608461121
 31
0.0
  0
LINE
  5
2B9
330
1F
100
AcDbEntity
  8
D-6
  6
Continuous
 62
     6
370
     9
100
AcDbLine
 10
-314.5716680935606
 20
-491.7564611177186
 30
0.0
 11
-314.5716680935606
 21
-716.7562608461121
 31
0.0
  0
LINE
  5
2BA
330
1F
100
AcDbEntity
  8
D-1
  6
Continuous
 62
     2
370
     9
100
AcDbLine
 10
-714.5715441158995
 20
-516.756833050702
 30
0.0
 11
-579.5711650303587
 21
-516.756833050702
 31
0.0
  0
LINE
  5
2BB
330
1F
100
AcDbEntity
  8
D-4
  6
Continuous
 62
     7
370
     9
100
AcDbLine
 10
-138.5415090969786
 20
-341.756261287981
 30
0.0
 11
-39.8862661770567
 21
-341.756261287981
 31
0.0
  0
LINE
  5
2BC
330
1F
100
AcDbEntity
  8
D-4
  6
Continuous
 62
     7
370
     9
100
AcDbLine
 10
-42.88633484160748
 20
-716.7562608461121
 30
0.0
 11
-42.88633484160748
 21
-341.756261287981
 31
0.0
  0
LINE
  5
2BD
330
1F
100
AcDbEntity
  8
D-4
  6
Continuous
 62
     7
370
     9
100
AcDbLine
 10
-292.3350347927794
 20
-716.7562608461121
 30
0.0
 11
-39.8862661770567
 21
-716.7562608461121
 31
0.0
  0
LINE
  5
2BE
330
1F
100
AcDbEntity
  8
D-4
  6
Continuous
 62
     7
370
     9
100
AcDbLine
 10
-589.5702198342791
 20
-114.5848207216004
 30
0.0
 11
-584.5699490956052
 21
-114.5848207216004
 31
0.0
  0
LINE
  5
2BF
330
1F
100
AcDbEntity
  8
D-4
  6
Continuous
 62
     7
370
     9
100
AcDbLine
 10
-714.571048205255
 20
-223.3367471437195
 30
0.0
 11
-589.5702198342791
 21
-223.3367471437195
 31
0.0
  0
LINE
  5
2C0
330
1F
100
AcDbEntity
  8
D-4
  6
Continuous
 62
     7
370
     9
100
AcDbLine
 10
-589.5702198342791
 20
-328.8012389878968
 30
0.0
 11
-589.5702198342791
 21
-111.5852479676941
 31
0.0
  0
LINE
  5
2C1
330
1F
100
AcDbEntity
  8
D-4
  6
Continuous
 62
     7
370
     9
100
AcDbLine
 10
-579.5701732090696
 20
-328.8012389878968
 30
0.0
 11
-579.5701732090696
 21
-111.5852479676941
 31
0.0
  0
LINE
  5
2C2
330
1F
100
AcDbEntity
  8
D-4
  6
Continuous
 62
     7
370
     9
100
AcDbLine
 10
-564.571343844293
 20
-328.8012389878968
 30
0.0
 11
-564.571343844293
 21
-0.8886079530456925
 31
0.0
  0
LINE
  5
2C3
330
1F
100
AcDbEntity
  8
D-4
  6
Continuous
 62
     7
370
     9
100
AcDbLine
 10
-714.571048205255
 20
-328.8012389878968
 30
0.0
 11
-714.571048205255
 21
-220.3366784791687
 31
0.0
  0
LINE
  5
2C4
330
1F
100
AcDbEntity
  8
D-4
  6
Continuous
 62
     7
370
     9
100
AcDbLine
 10
-584.5699490956052
 20
-114.5848207216004
 30
0.0
 11
-526.9097723416074
 21
-114.5848207216004
 31
0.0
  0
LINE
  5
2C5
330
1F
100
AcDbEntity
  8
D-4
  6
Continuous
 62
     7
370
     9
100
AcDbLine
 10
-1287.239324038384
 20
-223.3367471437195
 30
0.0
 11
-714.571048205255
 21
-223.3367471437195
 31
0.0
  0
LINE
  5
2C6
330
1F
100
AcDbEntity
  8
D-4
  6
Continuous
 62
     7
370
     9
100
AcDbLine
 10
-1287.239324038384
 20
-114.5848207216004
 30
0.0
 11
-589.5702198342791
 21
-114.5848207216004
 31
0.0
  0
LINE
  5
2C7
330
1F
100
AcDbEntity
  8
D-4
  6
Continuous
 62
     7
370
     9
100
AcDbLine
 10
-1287.239324038384
 20
-3.889172528241005
 30
0.0
 11
-564.571343844293
 21
-3.889172528241005
 31
0.0
  0
LINE
  5
2C8
330
1F
100
AcDbEntity
  8
D-5
  6
Continuous
 62
     7
370
     9
100
AcDbLine
 10
-1056.565877383111
 20
-1072.698071454022
 30
0.0
 11
-1056.565877383111
 21
-1007.698529217694
 31
0.0
  0
LINE
  5
2C9
330
1F
100
AcDbEntity
  8
D-5
  6
Continuous
 62
     7
370
     9
100
AcDbLine
 10
-1056.565877383111
 20
-1007.698529217694
 30
0.0
 11
-481.5654577664122
 21
-1007.698529217694
 31
0.0
  0
LINE
  5
2CA
330
1F
100
AcDbEntity
  8
D-5
  6
Continuous
 62
     7
370
     9
100
AcDbLine
 10
-481.5654577664122
 20
-1007.698529217694
 30
0.0
 11
-481.5654577664122
 21
-1072.698071454022
 31
0.0
  0
LINE
  5
2CB
330
1F
100
AcDbEntity
  8
D-5
  6
Continuous
 62
     7
370
     9
100
AcDbLine
 10
-481.5654577664122
 20
-1072.698071454022
 30
0.0
 11
-1056.565877383111
 21
-1072.698071454022
 31
0.0
  0
LINE
  5
2CC
330
1F
100
AcDbEntity
  8
D-4
  6
Continuous
 62
     7
370
     9
100
AcDbLine
 10
-714.571048205255
 20
-936.8392686586121
 30
0.0
 11
-314.570180361627
 21
-936.8392686586121
 31
0.0
  0
LINE
  5
2CD
330
1F
100
AcDbEntity
  8
D-4
  6
Continuous
 62
     7
370
     9
100
AcDbLine
 10
-714.571048205255
 20
-901.7563752870301
 30
0.0
 11
-714.571048205255
 21
-939.839108441327
 31
0.0
  0
LINE
  5
2CE
330
1F
100
AcDbEntity
  8
D-4
  6
Continuous
 62
     7
370
     9
100
AcDbLine
 10
-314.570180361627
 20
-730.5315522889832
 30
0.0
 11
-314.570180361627
 21
-939.839108441327
 31
0.0
  0
LINE
  5
2CF
330
1F
100
AcDbEntity
  8
D-6
  6
Continuous
 62
     6
370
     9
100
AcDbLine
 10
-714.5715441158995
 20
-516.7563371400574
 30
0.0
 11
-714.5715441158995
 21
-880.4044084291199
 31
0.0
  0
LINE
  5
2D0
330
1F
100
AcDbEntity
  8
D-6
  6
Continuous
 62
     6
370
     9
100
AcDbLine
 10
-564.571343844293
 20
-837.7641038636903
 30
0.0
 11
-443.5625090054259
 21
-716.7562608461121
 31
0.0
  0
LINE
  5
2D1
330
1F
100
AcDbEntity
  8
D-6
  6
Continuous
 62
     6
370
     9
100
AcDbLine
 10
-564.571343844293
 20
-851.9047670106629
 30
0.0
 11
-429.4218267849669
 21
-716.7562608461121
 31
0.0
  0
LINE
  5
2D2
330
1F
100
AcDbEntity
  8
D-1
  6
Continuous
 62
     2
370
     9
100
AcDbLine
 10
-564.571343844293
 20
-501.7565088014344
 30
0.0
 11
-564.571343844293
 21
-341.7567567567567
 31
0.0
  0
LINE
  5
2D3
330
1F
100
AcDbEntity
  8
D-6
  6
Continuous
 62
     6
370
     9
100
AcDbLine
 10
-314.5716680935606
 20
-616.0480241517762
 30
0.0
 11
-190.2793707302794
 21
-491.7564611177186
 31
0.0
  0
LINE
  5
2D4
330
1F
100
AcDbEntity
  8
D-6
  6
Continuous
 62
     6
370
     9
100
AcDbLine
 10
-564.571343844293
 20
-866.0447053651551
 30
0.0
 11
-415.2811445645079
 21
-716.7562608461121
 31
0.0
  0
LINE
  5
2D5
330
1F
100
AcDbEntity
  8
D-0
  6
Continuous
 62
     7
370
     9
100
AcDbLine
 10
-375.7536520413145
 20
-666.4508180360535
 30
0.0
 11
-375.7536520413145
 21
-664.9505357484559
 31
0.0
  0
LINE
  5
2D6
330
1F
100
AcDbEntity
  8
D-0
  6
Continuous
 62
     7
370
     9
100
AcDbLine
 10
-375.7536520413145
 20
-664.9505357484559
 30
0.0
 11
-374.2536177090391
 21
-664.9505357484559
 31
0.0
  0
LINE
  5
2D7
330
1F
100
AcDbEntity
  8
D-0
  6
Continuous
 62
     7
370
     9
100
AcDbLine
 10
-374.2536177090391
 20
-664.9505357484559
 30
0.0
 11
-374.2536177090391
 21
-666.4508180360535
 31
0.0
  0
LINE
  5
2D8
330
1F
100
AcDbEntity
  8
D-0
  6
Continuous
 62
     7
370
     9
100
AcDbLine
 10
-374.2536177090391
 20
-666.4508180360535
 30
0.0
 11
-375.7536520413145
 21
-666.4508180360535
 31
0.0
  0
LINE
  5
2D9
330
1F
100
AcDbEntity
  8
D-0
  6
Continuous
 62
     7
370
     9
100
AcDbLine
 10
-343.8962377957091
 20
-677.2020082216004
 30
0.0
 11
-343.8962377957091
 21
-675.7017259340028
 31
0.0
  0
LINE
  5
2DA
330
1F
100
AcDbEntity
  8
D-0
  6
Continuous
 62
     7
370
     9
100
AcDbLine
 10
-343.8962377957091
 20
-675.7017259340028
 30
0.0
 11
-342.3962034634337
 21
-675.7017259340028
 31
0.0
  0
LINE
  5
2DB
330
1F
100
AcDbEntity
  8
D-0
  6
Continuous
 62
     7
370
     9
100
AcDbLine
 10
-342.3962034634337
 20
-675.7017259340028
 30
0.0
 11
-342.3962034634337
 21
-677.2020082216004
 31
0.0
  0
LINE
  5
2DC
330
1F
100
AcDbEntity
  8
D-0
  6
Continuous
 62
     7
370
     9
100
AcDbLine
 10
-342.3962034634337
 20
-677.2020082216004
 30
0.0
 11
-343.8962377957091
 21
-677.2020082216004
 31
0.0
  0
LINE
  5
2DD
330
1F
100
AcDbEntity
  8
D-0
  6
Continuous
 62
     7
370
     9
100
AcDbLine
 10
-546.8967308453306
 20
-399.7308139543275
 30
0.0
 11
-546.8967308453306
 21
-398.2305364351014
 31
0.0
  0
LINE
  5
2DE
330
1F
100
AcDbEntity
  8
D-0
  6
Continuous
 62
     7
370
     9
100
AcDbLine
 10
-546.8967308453306
 20
-398.2305364351014
 30
0.0
 11
-545.3967012814268
 21
-398.2305364351014
 31
0.0
  0
LINE
  5
2DF
330
1F
100
AcDbEntity
  8
D-0
  6
Continuous
 62
     7
370
     9
100
AcDbLine
 10
-545.3967012814268
 20
-398.2305364351014
 30
0.0
 11
-545.3967012814268
 21
-399.7308139543275
 31
0.0
  0
LINE
  5
2E0
330
1F
100
AcDbEntity
  8
D-0
  6
Continuous
 62
     7
370
     9
100
AcDbLine
 10
-545.3967012814268
 20
-399.7308139543275
 30
0.0
 11
-546.8967308453306
 21
-399.7308139543275
 31
0.0
  0
LINE
  5
2E1
330
1F
100
AcDbEntity
  8
D-0
  6
Continuous
 62
     7
370
     9
100
AcDbLine
 10
-483.3060373715147
 20
-397.0287780503968
 30
0.0
 11
-483.3060373715147
 21
-395.5284957627991
 31
0.0
  0
LINE
  5
2E2
330
1F
100
AcDbEntity
  8
D-0
  6
Continuous
 62
     7
370
     9
100
AcDbLine
 10
-483.3060373715147
 20
-395.5284957627991
 30
0.0
 11
-481.8060125759825
 21
-395.5284957627991
 31
0.0
  0
LINE
  5
2E3
330
1F
100
AcDbEntity
  8
D-0
  6
Continuous
 62
     7
370
     9
100
AcDbLine
 10
-481.8060125759825
 20
-395.5284957627991
 30
0.0
 11
-481.8060125759825
 21
-397.0287780503968
 31
0.0
  0
LINE
  5
2E4
330
1F
100
AcDbEntity
  8
D-0
  6
Continuous
 62
     7
370
     9
100
AcDbLine
 10
-481.8060125759825
 20
-397.0287780503968
 30
0.0
 11
-483.3060373715147
 21
-397.0287780503968
 31
0.0
  0
LINE
  5
2E5
330
1F
100
AcDbEntity
  8
D-0
  6
Continuous
 62
     7
370
     9
100
AcDbLine
 10
-440.6709494045958
 20
-420.7151584367493
 30
0.0
 11
-440.6709494045958
 21
-419.2148761491517
 31
0.0
  0
LINE
  5
2E6
330
1F
100
AcDbEntity
  8
D-0
  6
Continuous
 62
     7
370
     9
100
AcDbLine
 10
-440.6709494045958
 20
-419.2148761491517
 30
0.0
 11
-439.1709246090635
 21
-419.2148761491517
 31
0.0
  0
LINE
  5
2E7
330
1F
100
AcDbEntity
  8
D-0
  6
Continuous
 62
     7
370
     9
100
AcDbLine
 10
-439.1709246090635
 20
-419.2148761491517
 30
0.0
 11
-439.1709246090635
 21
-420.7151584367493
 31
0.0
  0
LINE
  5
2E8
330
1F
100
AcDbEntity
  8
D-0
  6
Continuous
 62
     7
370
     9
100
AcDbLine
 10
-439.1709246090635
 20
-420.7151584367493
 30
0.0
 11
-440.6709494045958
 21
-420.7151584367493
 31
0.0
  0
LINE
  5
2E9
330
1F
100
AcDbEntity
  8
D-0
  6
Continuous
 62
     7
370
     9
100
AcDbLine
 10
-416.9848265103087
 20
-399.7360162477235
 30
0.0
 11
-416.9848265103087
 21
-398.2357387284974
 31
0.0
  0
LINE
  5
2EA
330
1F
100
AcDbEntity
  8
D-0
  6
Continuous
 62
     7
370
     9
100
AcDbLine
 10
-416.9848265103087
 20
-398.2357387284974
 30
0.0
 11
-415.4847921780333
 21
-398.2357387284974
 31
0.0
  0
LINE
  5
2EB
330
1F
100
AcDbEntity
  8
D-0
  6
Continuous
 62
     7
370
     9
100
AcDbLine
 10
-415.4847921780333
 20
-398.2357387284974
 30
0.0
 11
-415.4847921780333
 21
-399.7360162477235
 31
0.0
  0
LINE
  5
2EC
330
1F
100
AcDbEntity
  8
D-0
  6
Continuous
 62
     7
370
     9
100
AcDbLine
 10
-415.4847921780333
 20
-399.7360162477235
 30
0.0
 11
-416.9848265103087
 21
-399.7360162477235
 31
0.0
  0
LINE
  5
2ED
330
1F
100
AcDbEntity
  8
D-0
  6
Continuous
 62
     7
370
     9
100
AcDbLine
 10
-508.9720644406065
 20
-429.5295457582215
 30
0.0
 11
-508.9720644406065
 21
-428.0292634706238
 31
0.0
  0
LINE
  5
2EE
330
1F
100
AcDbEntity
  8
D-0
  6
Continuous
 62
     7
370
     9
100
AcDbLine
 10
-508.9720644406065
 20
-428.0292634706238
 30
0.0
 11
-507.4720301083311
 21
-428.0292634706238
 31
0.0
  0
LINE
  5
2EF
330
1F
100
AcDbEntity
  8
D-0
  6
Continuous
 62
     7
370
     9
100
AcDbLine
 10
-507.4720301083311
 20
-428.0292634706238
 30
0.0
 11
-507.4720301083311
 21
-429.5295457582215
 31
0.0
  0
LINE
  5
2F0
330
1F
100
AcDbEntity
  8
D-0
  6
Continuous
 62
     7
370
     9
100
AcDbLine
 10
-507.4720301083311
 20
-429.5295457582215
 30
0.0
 11
-508.9720644406065
 21
-429.5295457582215
 31
0.0
  0
LINE
  5
2F1
330
1F
100
AcDbEntity
  8
D-0
  6
Continuous
 62
     7
370
     9
100
AcDbLine
 10
-416.3082518032774
 20
-468.7642316560487
 30
0.0
 11
-416.3082518032774
 21
-467.263949368451
 31
0.0
  0
LINE
  5
2F2
330
1F
100
AcDbEntity
  8
D-0
  6
Continuous
 62
     7
370
     9
100
AcDbLine
 10
-416.3082518032774
 20
-467.263949368451
 30
0.0
 11
-414.8079695156798
 21
-467.263949368451
 31
0.0
  0
LINE
  5
2F3
330
1F
100
AcDbEntity
  8
D-0
  6
Continuous
 62
     7
370
     9
100
AcDbLine
 10
-414.8079695156798
 20
-467.263949368451
 30
0.0
 11
-414.8079695156798
 21
-468.7642316560487
 31
0.0
  0
LINE
  5
2F4
330
1F
100
AcDbEntity
  8
D-0
  6
Continuous
 62
     7
370
     9
100
AcDbLine
 10
-414.8079695156798
 20
-468.7642316560487
 30
0.0
 11
-416.3082518032774
 21
-468.7642316560487
 31
0.0
  0
LINE
  5
2F5
330
1F
100
AcDbEntity
  8
D-0
  6
Continuous
 62
     7
370
     9
100
AcDbLine
 10
-287.7261747769102
 20
-363.9426092843751
 30
0.0
 11
-287.7261747769102
 21
-362.4423293809632
 31
0.0
  0
LINE
  5
2F6
330
1F
100
AcDbEntity
  8
D-0
  6
Continuous
 62
     7
370
     9
100
AcDbLine
 10
-287.7261747769102
 20
-362.4423293809632
 30
0.0
 11
-286.2264074734434
 21
-362.4423293809632
 31
0.0
  0
LINE
  5
2F7
330
1F
100
AcDbEntity
  8
D-0
  6
Continuous
 62
     7
370
     9
100
AcDbLine
 10
-286.2264074734434
 20
-362.4423293809632
 30
0.0
 11
-286.2264074734434
 21
-363.9426092843751
 31
0.0
  0
LINE
  5
2F8
330
1F
100
AcDbEntity
  8
D-0
  6
Continuous
 62
     7
370
     9
100
AcDbLine
 10
-286.2264074734434
 20
-363.9426092843751
 30
0.0
 11
-287.7261747769102
 21
-363.9426092843751
 31
0.0
  0
LINE
  5
2F9
330
1F
100
AcDbEntity
  8
D-0
  6
Continuous
 62
     7
370
     9
100
AcDbLine
 10
-236.9703497341856
 20
-366.6498522500733
 30
0.0
 11
-236.9703497341856
 21
-365.1495723466614
 31
0.0
  0
LINE
  5
2FA
330
1F
100
AcDbEntity
  8
D-0
  6
Continuous
 62
     7
370
     9
100
AcDbLine
 10
-236.9703497341856
 20
-365.1495723466614
 30
0.0
 11
-235.4703344753966
 21
-365.1495723466614
 31
0.0
  0
LINE
  5
2FB
330
1F
100
AcDbEntity
  8
D-0
  6
Continuous
 62
     7
370
     9
100
AcDbLine
 10
-235.4703344753966
 20
-365.1495723466614
 30
0.0
 11
-235.4703344753966
 21
-366.6498522500733
 31
0.0
  0
LINE
  5
2FC
330
1F
100
AcDbEntity
  8
D-0
  6
Continuous
 62
     7
370
     9
100
AcDbLine
 10
-235.4703344753966
 20
-366.6498522500733
 30
0.0
 11
-236.9703497341856
 21
-366.6498522500733
 31
0.0
  0
LINE
  5
2FD
330
1F
100
AcDbEntity
  8
D-0
  6
Continuous
 62
     7
370
     9
100
AcDbLine
 10
-172.0027746609434
 20
-364.6194200257996
 30
0.0
 11
-172.0027746609434
 21
-363.1191401223878
 31
0.0
  0
LINE
  5
2FE
330
1F
100
AcDbEntity
  8
D-0
  6
Continuous
 62
     7
370
     9
100
AcDbLine
 10
-172.0027746609434
 20
-363.1191401223878
 30
0.0
 11
-170.5027212551817
 21
-363.1191401223878
 31
0.0
  0
LINE
  5
2FF
330
1F
100
AcDbEntity
  8
D-0
  6
Continuous
 62
     7
370
     9
100
AcDbLine
 10
-170.5027212551817
 20
-363.1191401223878
 30
0.0
 11
-170.5027212551817
 21
-364.6194200257996
 31
0.0
  0
LINE
  5
300
330
1F
100
AcDbEntity
  8
D-0
  6
Continuous
 62
     7
370
     9
100
AcDbLine
 10
-170.5027212551817
 20
-364.6194200257996
 30
0.0
 11
-172.0027746609434
 21
-364.6194200257996
 31
0.0
  0
LINE
  5
301
330
1F
100
AcDbEntity
  8
D-0
  6
Continuous
 62
     7
370
     9
100
AcDbLine
 10
-196.3657202175841
 20
-397.1033458451966
 30
0.0
 11
-196.3657202175841
 21
-395.6030635575989
 31
0.0
  0
LINE
  5
302
330
1F
100
AcDbEntity
  8
D-0
  6
Continuous
 62
     7
370
     9
100
AcDbLine
 10
-196.3657202175841
 20
-395.6030635575989
 30
0.0
 11
-194.8654379299864
 21
-395.6030635575989
 31
0.0
  0
LINE
  5
303
330
1F
100
AcDbEntity
  8
D-0
  6
Continuous
 62
     7
370
     9
100
AcDbLine
 10
-194.8654379299864
 20
-395.6030635575989
 30
0.0
 11
-194.8654379299864
 21
-397.1033458451966
 31
0.0
  0
LINE
  5
304
330
1F
100
AcDbEntity
  8
D-0
  6
Continuous
 62
     7
370
     9
100
AcDbLine
 10
-194.8654379299864
 20
-397.1033458451966
 30
0.0
 11
-196.3657202175841
 21
-397.1033458451966
 31
0.0
  0
LINE
  5
305
330
1F
100
AcDbEntity
  8
D-0
  6
Continuous
 62
     7
370
     9
100
AcDbLine
 10
-236.2935461453184
 20
-420.7892303209046
 30
0.0
 11
-236.2935461453184
 21
-419.288948033307
 31
0.0
  0
LINE
  5
306
330
1F
100
AcDbEntity
  8
D-0
  6
Continuous
 62
     7
370
     9
100
AcDbLine
 10
-236.2935461453184
 20
-419.288948033307
 30
0.0
 11
-234.7935308865294
 21
-419.288948033307
 31
0.0
  0
LINE
  5
307
330
1F
100
AcDbEntity
  8
D-0
  6
Continuous
 62
     7
370
     9
100
AcDbLine
 10
-234.7935308865294
 20
-419.288948033307
 30
0.0
 11
-234.7935308865294
 21
-420.7892303209046
 31
0.0
  0
LINE
  5
308
330
1F
100
AcDbEntity
  8
D-0
  6
Continuous
 62
     7
370
     9
100
AcDbLine
 10
-234.7935308865294
 20
-420.7892303209046
 30
0.0
 11
-236.2935461453184
 21
-420.7892303209046
 31
0.0
  0
LINE
  5
309
330
1F
100
AcDbEntity
  8
D-0
  6
Continuous
 62
     7
370
     9
100
AcDbLine
 10
-264.0402807644591
 20
-435.0012521486024
 30
0.0
 11
-264.0402807644591
 21
-433.5009793977479
 31
0.0
  0
LINE
  5
30A
330
1F
100
AcDbEntity
  8
D-0
  6
Continuous
 62
     7
370
     9
100
AcDbLine
 10
-264.0402807644591
 20
-433.5009793977479
 30
0.0
 11
-262.54026550567
 21
-433.5009793977479
 31
0.0
  0
LINE
  5
30B
330
1F
100
AcDbEntity
  8
D-0
  6
Continuous
 62
     7
370
     9
100
AcDbLine
 10
-262.54026550567
 20
-433.5009793977479
 30
0.0
 11
-262.54026550567
 21
-435.0012521486024
 31
0.0
  0
LINE
  5
30C
330
1F
100
AcDbEntity
  8
D-0
  6
Continuous
 62
     7
370
     9
100
AcDbLine
 10
-262.54026550567
 20
-435.0012521486024
 30
0.0
 11
-264.0402807644591
 21
-435.0012521486024
 31
0.0
  0
LINE
  5
30D
330
1F
100
AcDbEntity
  8
D-0
  6
Continuous
 62
     7
370
     9
100
AcDbLine
 10
-289.0798010281309
 20
-405.9008865098695
 30
0.0
 11
-289.0798010281309
 21
-404.4006089906434
 31
0.0
  0
LINE
  5
30E
330
1F
100
AcDbEntity
  8
D-0
  6
Continuous
 62
     7
370
     9
100
AcDbLine
 10
-289.0798010281309
 20
-404.4006089906434
 30
0.0
 11
-287.5797666958555
 21
-404.4006089906434
 31
0.0
  0
LINE
  5
30F
330
1F
100
AcDbEntity
  8
D-0
  6
Continuous
 62
     7
370
     9
100
AcDbLine
 10
-287.5797666958555
 20
-404.4006089906434
 30
0.0
 11
-287.5797666958555
 21
-405.9008865098695
 31
0.0
  0
LINE
  5
310
330
1F
100
AcDbEntity
  8
D-0
  6
Continuous
 62
     7
370
     9
100
AcDbLine
 10
-287.5797666958555
 20
-405.9008865098695
 30
0.0
 11
-289.0798010281309
 21
-405.9008865098695
 31
0.0
  0
LINE
  5
311
330
1F
100
AcDbEntity
  8
D-0
  6
Continuous
 62
     7
370
     9
100
AcDbLine
 10
-268.7774862698301
 20
-470.1919297914246
 30
0.0
 11
-268.7774862698301
 21
-468.691647503827
 31
0.0
  0
LINE
  5
312
330
1F
100
AcDbEntity
  8
D-0
  6
Continuous
 62
     7
370
     9
100
AcDbLine
 10
-268.7774862698301
 20
-468.691647503827
 30
0.0
 11
-267.2774328640684
 21
-468.691647503827
 31
0.0
  0
LINE
  5
313
330
1F
100
AcDbEntity
  8
D-0
  6
Continuous
 62
     7
370
     9
100
AcDbLine
 10
-267.2774328640684
 20
-468.691647503827
 30
0.0
 11
-267.2774328640684
 21
-470.1919297914246
 31
0.0
  0
LINE
  5
314
330
1F
100
AcDbEntity
  8
D-0
  6
Continuous
 62
     7
370
     9
100
AcDbLine
 10
-267.2774328640684
 20
-470.1919297914246
 30
0.0
 11
-268.7774862698301
 21
-470.1919297914246
 31
0.0
  0
LINE
  5
315
330
1F
100
AcDbEntity
  8
D-0
  6
Continuous
 62
     7
370
     9
100
AcDbLine
 10
-211.2540640286192
 20
-468.8383035402039
 30
0.0
 11
-211.2540640286192
 21
-467.3380212526063
 31
0.0
  0
LINE
  5
316
330
1F
100
AcDbEntity
  8
D-0
  6
Continuous
 62
     7
370
     9
100
AcDbLine
 10
-211.2540640286192
 20
-467.3380212526063
 30
0.0
 11
-209.7540106228575
 21
-467.3380212526063
 31
0.0
  0
LINE
  5
317
330
1F
100
AcDbEntity
  8
D-0
  6
Continuous
 62
     7
370
     9
100
AcDbLine
 10
-209.7540106228575
 20
-467.3380212526063
 30
0.0
 11
-209.7540106228575
 21
-468.8383035402039
 31
0.0
  0
LINE
  5
318
330
1F
100
AcDbEntity
  8
D-0
  6
Continuous
 62
     7
370
     9
100
AcDbLine
 10
-209.7540106228575
 20
-468.8383035402039
 30
0.0
 11
-211.2540640286192
 21
-468.8383035402039
 31
0.0
  0
LINE
  5
319
330
1F
100
AcDbEntity
  8
D-0
  6
Continuous
 62
     7
370
     9
100
AcDbLine
 10
-161.8513311794981
 20
-468.1614904145936
 30
0.0
 11
-161.8513311794981
 21
-466.6612176637391
 31
0.0
  0
LINE
  5
31A
330
1F
100
AcDbEntity
  8
D-0
  6
Continuous
 62
     7
370
     9
100
AcDbLine
 10
-161.8513311794981
 20
-466.6612176637391
 30
0.0
 11
-160.3515829495176
 21
-466.6612176637391
 31
0.0
  0
LINE
  5
31B
330
1F
100
AcDbEntity
  8
D-0
  6
Continuous
 62
     7
370
     9
100
AcDbLine
 10
-160.3515829495176
 20
-466.6612176637391
 30
0.0
 11
-160.3515829495176
 21
-468.1614904145936
 31
0.0
  0
LINE
  5
31C
330
1F
100
AcDbEntity
  8
D-0
  6
Continuous
 62
     7
370
     9
100
AcDbLine
 10
-160.3515829495176
 20
-468.1614904145936
 30
0.0
 11
-161.8513311794981
 21
-468.1614904145936
 31
0.0
  0
LINE
  5
31D
330
1F
100
AcDbEntity
  8
D-0
  6
Continuous
 62
     7
370
     9
100
AcDbLine
 10
-174.0329565457091
 20
-428.2336454133729
 30
0.0
 11
-174.0329565457091
 21
-426.7333631257752
 31
0.0
  0
LINE
  5
31E
330
1F
100
AcDbEntity
  8
D-0
  6
Continuous
 62
     7
370
     9
100
AcDbLine
 10
-174.0329565457091
 20
-426.7333631257752
 30
0.0
 11
-172.5329031399473
 21
-426.7333631257752
 31
0.0
  0
LINE
  5
31F
330
1F
100
AcDbEntity
  8
D-0
  6
Continuous
 62
     7
370
     9
100
AcDbLine
 10
-172.5329031399473
 20
-426.7333631257752
 30
0.0
 11
-172.5329031399473
 21
-428.2336454133729
 31
0.0
  0
LINE
  5
320
330
1F
100
AcDbEntity
  8
D-0
  6
Continuous
 62
     7
370
     9
100
AcDbLine
 10
-172.5329031399473
 20
-428.2336454133729
 30
0.0
 11
-174.0329565457091
 21
-428.2336454133729
 31
0.0
  0
LINE
  5
321
330
1F
100
AcDbEntity
  8
D-0
  6
Continuous
 62
     7
370
     9
100
AcDbLine
 10
-588.3905087015613
 20
-543.4298829774598
 30
0.0
 11
-588.3905087015613
 21
-541.9296197633485
 31
0.0
  0
LINE
  5
322
330
1F
100
AcDbEntity
  8
D-0
  6
Continuous
 62
     7
370
     9
100
AcDbLine
 10
-588.3905087015613
 20
-541.9296197633485
 30
0.0
 11
-586.8904768279775
 21
-541.9296197633485
 31
0.0
  0
LINE
  5
323
330
1F
100
AcDbEntity
  8
D-0
  6
Continuous
 62
     7
370
     9
100
AcDbLine
 10
-586.8904768279775
 20
-541.9296197633485
 30
0.0
 11
-586.8904768279775
 21
-543.4298829774598
 31
0.0
  0
LINE
  5
324
330
1F
100
AcDbEntity
  8
D-0
  6
Continuous
 62
     7
370
     9
100
AcDbLine
 10
-586.8904768279775
 20
-543.4298829774598
 30
0.0
 11
-588.3905087015613
 21
-543.4298829774598
 31
0.0
  0
LINE
  5
325
330
1F
100
AcDbEntity
  8
D-0
  6
Continuous
 62
     7
370
     9
100
AcDbLine
 10
-691.7862905911193
 20
-558.3063440065125
 30
0.0
 11
-691.7862905911193
 21
-556.8060617189149
 31
0.0
  0
LINE
  5
326
330
1F
100
AcDbEntity
  8
D-0
  6
Continuous
 62
     7
370
     9
100
AcDbLine
 10
-691.7862905911193
 20
-556.8060617189149
 30
0.0
 11
-690.286265795587
 21
-556.8060617189149
 31
0.0
  0
LINE
  5
327
330
1F
100
AcDbEntity
  8
D-0
  6
Continuous
 62
     7
370
     9
100
AcDbLine
 10
-690.286265795587
 20
-556.8060617189149
 30
0.0
 11
-690.286265795587
 21
-558.3063440065125
 31
0.0
  0
LINE
  5
328
330
1F
100
AcDbEntity
  8
D-0
  6
Continuous
 62
     7
370
     9
100
AcDbLine
 10
-690.286265795587
 20
-558.3063440065125
 30
0.0
 11
-691.7862905911193
 21
-558.3063440065125
 31
0.0
  0
LINE
  5
329
330
1F
100
AcDbEntity
  8
D-0
  6
Continuous
 62
     7
370
     9
100
AcDbLine
 10
-604.9935438088163
 20
-721.6138581971863
 30
0.0
 11
-604.9935438088163
 21
-720.1135759095887
 31
0.0
  0
LINE
  5
32A
330
1F
100
AcDbEntity
  8
D-0
  6
Continuous
 62
     7
370
     9
100
AcDbLine
 10
-604.9935438088163
 20
-720.1135759095887
 30
0.0
 11
-603.4935118607267
 21
-720.1135759095887
 31
0.0
  0
LINE
  5
32B
330
1F
100
AcDbEntity
  8
D-0
  6
Continuous
 62
     7
370
     9
100
AcDbLine
 10
-603.4935118607267
 20
-720.1135759095887
 30
0.0
 11
-603.4935118607267
 21
-721.6138581971863
 31
0.0
  0
LINE
  5
32C
330
1F
100
AcDbEntity
  8
D-0
  6
Continuous
 62
     7
370
     9
100
AcDbLine
 10
-603.4935118607267
 20
-721.6138581971863
 30
0.0
 11
-604.9935438088163
 21
-721.6138581971863
 31
0.0
  0
LINE
  5
32D
330
1F
100
AcDbEntity
  8
D-0
  6
Continuous
 62
     7
370
     9
100
AcDbLine
 10
-693.3089937618956
 20
-723.897946331952
 30
0.0
 11
-693.3089937618956
 21
-722.3976640443543
 31
0.0
  0
LINE
  5
32E
330
1F
100
AcDbEntity
  8
D-0
  6
Continuous
 62
     7
370
     9
100
AcDbLine
 10
-693.3089937618956
 20
-722.3976640443543
 30
0.0
 11
-691.8089594296202
 21
-722.3976640443543
 31
0.0
  0
LINE
  5
32F
330
1F
100
AcDbEntity
  8
D-0
  6
Continuous
 62
     7
370
     9
100
AcDbLine
 10
-691.8089594296202
 20
-722.3976640443543
 30
0.0
 11
-691.8089594296202
 21
-723.897946331952
 31
0.0
  0
LINE
  5
330
330
1F
100
AcDbEntity
  8
D-0
  6
Continuous
 62
     7
370
     9
100
AcDbLine
 10
-691.8089594296202
 20
-723.897946331952
 30
0.0
 11
-693.3089937618956
 21
-723.897946331952
 31
0.0
  0
LINE
  5
331
330
1F
100
AcDbEntity
  8
D-0
  6
Continuous
 62
     7
370
     9
100
AcDbLine
 10
-649.1512073925719
 20
-726.9431047181824
 30
0.0
 11
-649.1512073925719
 21
-725.4428224305848
 31
0.0
  0
LINE
  5
332
330
1F
100
AcDbEntity
  8
D-0
  6
Continuous
 62
     7
370
     9
100
AcDbLine
 10
-649.1512073925719
 20
-725.4428224305848
 30
0.0
 11
-647.6511778286681
 21
-725.4428224305848
 31
0.0
  0
LINE
  5
333
330
1F
100
AcDbEntity
  8
D-0
  6
Continuous
 62
     7
370
     9
100
AcDbLine
 10
-647.6511778286681
 20
-725.4428224305848
 30
0.0
 11
-647.6511778286681
 21
-726.9431047181824
 31
0.0
  0
LINE
  5
334
330
1F
100
AcDbEntity
  8
D-0
  6
Continuous
 62
     7
370
     9
100
AcDbLine
 10
-647.6511778286681
 20
-726.9431047181824
 30
0.0
 11
-649.1512073925719
 21
-726.9431047181824
 31
0.0
  0
LINE
  5
335
330
1F
100
AcDbEntity
  8
D-0
  6
Continuous
 62
     7
370
     9
100
AcDbLine
 10
-611.084217017053
 20
-833.1498079042176
 30
0.0
 11
-611.084217017053
 21
-831.6495256166199
 31
0.0
  0
LINE
  5
336
330
1F
100
AcDbEntity
  8
D-0
  6
Continuous
 62
     7
370
     9
100
AcDbLine
 10
-611.084217017053
 20
-831.6495256166199
 30
0.0
 11
-609.5841850689634
 21
-831.6495256166199
 31
0.0
  0
LINE
  5
337
330
1F
100
AcDbEntity
  8
D-0
  6
Continuous
 62
     7
370
     9
100
AcDbLine
 10
-609.5841850689634
 20
-831.6495256166199
 30
0.0
 11
-609.5841850689634
 21
-833.1498079042176
 31
0.0
  0
LINE
  5
338
330
1F
100
AcDbEntity
  8
D-0
  6
Continuous
 62
     7
370
     9
100
AcDbLine
 10
-609.5841850689634
 20
-833.1498079042176
 30
0.0
 11
-611.084217017053
 21
-833.1498079042176
 31
0.0
  0
LINE
  5
339
330
1F
100
AcDbEntity
  8
D-0
  6
Continuous
 62
     7
370
     9
100
AcDbLine
 10
-651.4351953915343
 20
-844.9508790712098
 30
0.0
 11
-651.4351953915343
 21
-843.4505967836121
 31
0.0
  0
LINE
  5
33A
330
1F
100
AcDbEntity
  8
D-0
  6
Continuous
 62
     7
370
     9
100
AcDbLine
 10
-651.4351953915343
 20
-843.4505967836121
 30
0.0
 11
-649.9351610592589
 21
-843.4505967836121
 31
0.0
  0
LINE
  5
33B
330
1F
100
AcDbEntity
  8
D-0
  6
Continuous
 62
     7
370
     9
100
AcDbLine
 10
-649.9351610592589
 20
-843.4505967836121
 30
0.0
 11
-649.9351610592589
 21
-844.9508790712098
 31
0.0
  0
LINE
  5
33C
330
1F
100
AcDbEntity
  8
D-0
  6
Continuous
 62
     7
370
     9
100
AcDbLine
 10
-649.9351610592589
 20
-844.9508790712098
 30
0.0
 11
-651.4351953915343
 21
-844.9508790712098
 31
0.0
  0
LINE
  5
33D
330
1F
100
AcDbEntity
  8
D-0
  6
Continuous
 62
     7
370
     9
100
AcDbLine
 10
-698.6383833340392
 20
-842.6667527894715
 30
0.0
 11
-698.6383833340392
 21
-841.1665086488465
 31
0.0
  0
LINE
  5
33E
330
1F
100
AcDbEntity
  8
D-0
  6
Continuous
 62
     7
370
     9
100
AcDbLine
 10
-698.6383833340392
 20
-841.1665086488465
 30
0.0
 11
-697.1383490017638
 21
-841.1665086488465
 31
0.0
  0
LINE
  5
33F
330
1F
100
AcDbEntity
  8
D-0
  6
Continuous
 62
     7
370
     9
100
AcDbLine
 10
-697.1383490017638
 20
-841.1665086488465
 30
0.0
 11
-697.1383490017638
 21
-842.6667527894715
 31
0.0
  0
LINE
  5
340
330
1F
100
AcDbEntity
  8
D-0
  6
Continuous
 62
     7
370
     9
100
AcDbLine
 10
-697.1383490017638
 20
-842.6667527894715
 30
0.0
 11
-698.6383833340392
 21
-842.6667527894715
 31
0.0
  0
LINE
  5
341
330
1F
100
AcDbEntity
  8
D-0
  6
Continuous
 62
     7
370
     9
100
AcDbLine
 10
-682.2694506100402
 20
-871.217167828534
 30
0.0
 11
-682.2694506100402
 21
-869.7168855409363
 31
0.0
  0
LINE
  5
342
330
1F
100
AcDbEntity
  8
D-0
  6
Continuous
 62
     7
370
     9
100
AcDbLine
 10
-682.2694506100402
 20
-869.7168855409363
 30
0.0
 11
-680.7694258145079
 21
-869.7168855409363
 31
0.0
  0
LINE
  5
343
330
1F
100
AcDbEntity
  8
D-0
  6
Continuous
 62
     7
370
     9
100
AcDbLine
 10
-680.7694258145079
 20
-869.7168855409363
 30
0.0
 11
-680.7694258145079
 21
-871.217167828534
 31
0.0
  0
LINE
  5
344
330
1F
100
AcDbEntity
  8
D-0
  6
Continuous
 62
     7
370
     9
100
AcDbLine
 10
-680.7694258145079
 20
-871.217167828534
 30
0.0
 11
-682.2694506100402
 21
-871.217167828534
 31
0.0
  0
LINE
  5
345
330
1F
100
AcDbEntity
  8
D-0
  6
Continuous
 62
     7
370
     9
100
AcDbLine
 10
-630.4984201840147
 20
-869.6946077089051
 30
0.0
 11
-630.4984201840147
 21
-868.1943254213074
 31
0.0
  0
LINE
  5
346
330
1F
100
AcDbEntity
  8
D-0
  6
Continuous
 62
     7
370
     9
100
AcDbLine
 10
-630.4984201840147
 20
-868.1943254213074
 30
0.0
 11
-628.9983858517393
 21
-868.1943254213074
 31
0.0
  0
LINE
  5
347
330
1F
100
AcDbEntity
  8
D-0
  6
Continuous
 62
     7
370
     9
100
AcDbLine
 10
-628.9983858517393
 20
-868.1943254213074
 30
0.0
 11
-628.9983858517393
 21
-869.6946077089051
 31
0.0
  0
LINE
  5
348
330
1F
100
AcDbEntity
  8
D-0
  6
Continuous
 62
     7
370
     9
100
AcDbLine
 10
-628.9983858517393
 20
-869.6946077089051
 30
0.0
 11
-630.4984201840147
 21
-869.6946077089051
 31
0.0
  0
LINE
  5
349
330
1F
100
AcDbEntity
  8
D-0
  6
Continuous
 62
     7
370
     9
100
AcDbLine
 10
-592.4314280203565
 20
-869.6946077089051
 30
0.0
 11
-592.4314280203565
 21
-868.1943254213074
 31
0.0
  0
LINE
  5
34A
330
1F
100
AcDbEntity
  8
D-0
  6
Continuous
 62
     7
370
     9
100
AcDbLine
 10
-592.4314280203565
 20
-868.1943254213074
 30
0.0
 11
-590.9313963702901
 21
-868.1943254213074
 31
0.0
  0
LINE
  5
34B
330
1F
100
AcDbEntity
  8
D-0
  6
Continuous
 62
     7
370
     9
100
AcDbLine
 10
-590.9313963702901
 20
-868.1943254213074
 30
0.0
 11
-590.9313963702901
 21
-869.6946077089051
 31
0.0
  0
LINE
  5
34C
330
1F
100
AcDbEntity
  8
D-0
  6
Continuous
 62
     7
370
     9
100
AcDbLine
 10
-590.9313963702901
 20
-869.6946077089051
 30
0.0
 11
-592.4314280203565
 21
-869.6946077089051
 31
0.0
  0
LINE
  5
34D
330
1F
100
AcDbEntity
  8
D-0
  6
Continuous
 62
     7
370
     9
100
AcDbLine
 10
-365.5043806484923
 20
-700.1608018617371
 30
0.0
 11
-365.5043806484923
 21
-698.6605195741395
 31
0.0
  0
LINE
  5
34E
330
1F
100
AcDbEntity
  8
D-0
  6
Continuous
 62
     7
370
     9
100
AcDbLine
 10
-365.5043806484923
 20
-698.6605195741395
 30
0.0
 11
-364.0045942715391
 21
-698.6605195741395
 31
0.0
  0
LINE
  5
34F
330
1F
100
AcDbEntity
  8
D-0
  6
Continuous
 62
     7
370
     9
100
AcDbLine
 10
-364.0045942715391
 20
-698.6605195741395
 30
0.0
 11
-364.0045942715391
 21
-700.1608018617371
 31
0.0
  0
LINE
  5
350
330
1F
100
AcDbEntity
  8
D-0
  6
Continuous
 62
     7
370
     9
100
AcDbLine
 10
-364.0045942715391
 20
-700.1608018617371
 30
0.0
 11
-365.5043806484923
 21
-700.1608018617371
 31
0.0
  0
LINE
  5
351
330
1F
100
AcDbEntity
  8
D-0
  6
Continuous
 62
     7
370
     9
100
AcDbLine
 10
-528.8728155544981
 20
-359.4197230081299
 30
0.0
 11
-528.8728155544981
 21
-357.9194431047181
 31
0.0
  0
LINE
  5
352
330
1F
100
AcDbEntity
  8
D-0
  6
Continuous
 62
     7
370
     9
100
AcDbLine
 10
-528.8728155544981
 20
-357.9194431047181
 30
0.0
 11
-527.3730339459165
 21
-357.9194431047181
 31
0.0
  0
LINE
  5
353
330
1F
100
AcDbEntity
  8
D-0
  6
Continuous
 62
     7
370
     9
100
AcDbLine
 10
-527.3730339459165
 20
-357.9194431047181
 30
0.0
 11
-527.3730339459165
 21
-359.4197230081299
 31
0.0
  0
LINE
  5
354
330
1F
100
AcDbEntity
  8
D-0
  6
Continuous
 62
     7
370
     9
100
AcDbLine
 10
-527.3730339459165
 20
-359.4197230081299
 30
0.0
 11
-528.8728155544981
 21
-359.4197230081299
 31
0.0
  0
LINE
  5
355
330
1F
100
AcDbEntity
  8
D-0
  6
Continuous
 62
     7
370
     9
100
AcDbLine
 10
-450.542670672296
 20
-367.5228671769837
 30
0.0
 11
-450.542670672296
 21
-366.0225872735718
 31
0.0
  0
LINE
  5
356
330
1F
100
AcDbEntity
  8
D-0
  6
Continuous
 62
     7
370
     9
100
AcDbLine
 10
-450.542670672296
 20
-366.0225872735718
 30
0.0
 11
-449.0428842953428
 21
-366.0225872735718
 31
0.0
  0
LINE
  5
357
330
1F
100
AcDbEntity
  8
D-0
  6
Continuous
 62
     7
370
     9
100
AcDbLine
 10
-449.0428842953428
 20
-366.0225872735718
 30
0.0
 11
-449.0428842953428
 21
-367.5228671769837
 31
0.0
  0
LINE
  5
358
330
1F
100
AcDbEntity
  8
D-0
  6
Continuous
 62
     7
370
     9
100
AcDbLine
 10
-449.0428842953428
 20
-367.5228671769837
 30
0.0
 11
-450.542670672296
 21
-367.5228671769837
 31
0.0
  0
LINE
  5
359
330
1F
100
AcDbEntity
  8
D-0
  6
Continuous
 62
     7
370
     9
100
AcDbLine
 10
-397.872353976129
 20
-363.4714178781251
 30
0.0
 11
-397.872353976129
 21
-361.971140358899
 31
0.0
  0
LINE
  5
35A
330
1F
100
AcDbEntity
  8
D-0
  6
Continuous
 62
     7
370
     9
100
AcDbLine
 10
-397.872353976129
 20
-361.971140358899
 30
0.0
 11
-396.3725675991759
 21
-361.971140358899
 31
0.0
  0
LINE
  5
35B
330
1F
100
AcDbEntity
  8
D-0
  6
Continuous
 62
     7
370
     9
100
AcDbLine
 10
-396.3725675991759
 20
-361.971140358899
 30
0.0
 11
-396.3725675991759
 21
-363.4714178781251
 31
0.0
  0
LINE
  5
35C
330
1F
100
AcDbEntity
  8
D-0
  6
Continuous
 62
     7
370
     9
100
AcDbLine
 10
-396.3725675991759
 20
-363.4714178781251
 30
0.0
 11
-397.872353976129
 21
-363.4714178781251
 31
0.0
  0
LINE
  5
35D
330
1F
100
AcDbEntity
  8
D-0
  6
Continuous
 62
     7
370
     9
100
AcDbLine
 10
-539.6770109585508
 20
-495.8222799043397
 30
0.0
 11
-539.6770109585508
 21
-494.321997616742
 31
0.0
  0
LINE
  5
35E
330
1F
100
AcDbEntity
  8
D-0
  6
Continuous
 62
     7
370
     9
100
AcDbLine
 10
-539.6770109585508
 20
-494.321997616742
 30
0.0
 11
-538.1772245815977
 21
-494.321997616742
 31
0.0
  0
LINE
  5
35F
330
1F
100
AcDbEntity
  8
D-0
  6
Continuous
 62
     7
370
     9
100
AcDbLine
 10
-538.1772245815977
 20
-494.321997616742
 30
0.0
 11
-538.1772245815977
 21
-495.8222799043397
 31
0.0
  0
LINE
  5
360
330
1F
100
AcDbEntity
  8
D-0
  6
Continuous
 62
     7
370
     9
100
AcDbLine
 10
-538.1772245815977
 20
-495.8222799043397
 30
0.0
 11
-539.6770109585508
 21
-495.8222799043397
 31
0.0
  0
ARC
  5
361
330
1F
100
AcDbEntity
  8
D-1
  6
Continuous
 62
     2
370
     9
100
AcDbCircle
 10
-579.5711650303587
 20
-501.7565088014344
 30
0.0
 40
15.0
100
AcDbArc
 50
270.0
 51
0.0
  0
LWPOLYLINE
  5
362
330
1F
100
AcDbEntity
  8
D-4
  6
Continuous
 62
     7
370
     9
100
AcDbPolyline
 90
        4
 70
     1
 43
2.0
 10
-578.5701732090696
 20
-114.5848207216004
 42
0.4142135623731
 10
-579.5701732090696
 20
-113.5848207216004
 42
0.4142135623731
 10
-580.5701732090697
 20
-114.5848207216004
 42
0.4142135623731
 10
-579.5701732090696
 20
-115.5848207216004
 42
0.4142135623731
  0
LWPOLYLINE
  5
363
330
1F
100
AcDbEntity
  8
D-4
  6
Continuous
 62
     7
370
     9
100
AcDbPolyline
 90
        4
 70
     1
 43
2.0
 10
-713.571048205255
 20
-223.3367471437195
 42
0.4142135623731
 10
-714.571048205255
 20
-222.3367471437195
 42
0.4142135623731
 10
-715.571048205255
 20
-223.3367471437195
 42
0.4142135623731
 10
-714.571048205255
 20
-224.3367471437195
 42
0.4142135623731
  0
LWPOLYLINE
  5
364
330
1F
100
AcDbEntity
  8
D-4
  6
Continuous
 62
     7
370
     9
100
AcDbPolyline
 90
        4
 70
     1
 43
2.0
 10
-588.5702198342791
 20
-223.3367471437195
 42
0.4142135623731
 10
-589.5702198342791
 20
-222.3367471437195
 42
0.4142135623731
 10
-590.5702198342792
 20
-223.3367471437195
 42
0.4142135623731
 10
-589.5702198342791
 20
-224.3367471437195
 42
0.4142135623731
  0
LWPOLYLINE
  5
365
330
1F
100
AcDbEntity
  8
D-4
  6
Continuous
 62
     7
370
     9
100
AcDbPolyline
 90
        4
 70
     1
 43
2.0
 10
-588.5702198342791
 20
-114.5848207216004
 42
0.4142135623731
 10
-589.5702198342791
 20
-113.5848207216004
 42
0.4142135623731
 10
-590.5702198342792
 20
-114.5848207216004
 42
0.4142135623731
 10
-589.5702198342791
 20
-115.5848207216004
 42
0.4142135623731
  0
LWPOLYLINE
  5
366
330
1F
100
AcDbEntity
  8
D-4
  6
Continuous
 62
     7
370
     9
100
AcDbPolyline
 90
        4
 70
     1
 43
2.0
 10
-563.571343844293
 20
-114.5848207216004
 42
0.4142135623731
 10
-564.571343844293
 20
-113.5848207216004
 42
0.4142135623731
 10
-565.5713438442931
 20
-114.5848207216004
 42
0.4142135623731
 10
-564.571343844293
 20
-115.5848207216004
 42
0.4142135623731
  0
LWPOLYLINE
  5
367
330
1F
100
AcDbEntity
  8
D-4
  6
Continuous
 62
     7
370
     9
100
AcDbPolyline
 90
        4
 70
     1
 43
2.0
 10
-563.571343844293
 20
-3.889172528241005
 42
0.4142135623731
 10
-564.571343844293
 20
-2.889172528241005
 42
0.4142135623731
 10
-565.5713438442931
 20
-3.889172528241005
 42
0.4142135623731
 10
-564.571343844293
 20
-4.889172528241005
 42
0.4142135623731
  0
LWPOLYLINE
  5
368
330
1F
100
AcDbEntity
  8
D-4
  6
Continuous
 62
     7
370
     9
100
AcDbPolyline
 90
        4
 70
     1
 43
2.0
 10
-41.88633484160748
 20
-341.756261287981
 42
0.4142135623731
 10
-42.88633484160748
 20
-340.756261287981
 42
0.4142135623731
 10
-43.88633484160748
 20
-341.756261287981
 42
0.4142135623731
 10
-42.88633484160748
 20
-342.756261287981
 42
0.4142135623731
  0
LWPOLYLINE
  5
369
330
1F
100
AcDbEntity
  8
D-4
  6
Continuous
 62
     7
370
     9
100
AcDbPolyline
 90
        4
 70
     1
 43
2.0
 10
-41.88633484160748
 20
-716.7562608461121
 42
0.4142135623731
 10
-42.88633484160748
 20
-715.7562608461121
 42
0.4142135623731
 10
-43.88633484160748
 20
-716.7562608461121
 42
0.4142135623731
 10
-42.88633484160748
 20
-717.756260846112
 42
0.4142135623731
  0
LWPOLYLINE
  5
36A
330
1F
100
AcDbEntity
  8
D-4
  6
Continuous
 62
     7
370
     9
100
AcDbPolyline
 90
        4
 70
     1
 43
2.0
 10
-313.570180361627
 20
-936.8392686586121
 42
0.4142135623731
 10
-314.570180361627
 20
-935.8392686586121
 42
0.4142135623731
 10
-315.570180361627
 20
-936.8392686586121
 42
0.4142135623731
 10
-314.570180361627
 20
-937.839268658612
 42
0.4142135623731
  0
LWPOLYLINE
  5
36B
330
1F
100
AcDbEntity
  8
D-4
  6
Continuous
 62
     7
370
     9
100
AcDbPolyline
 90
        4
 70
     1
 43
2.0
 10
-713.571048205255
 20
-936.8392686586121
 42
0.4142135623731
 10
-714.571048205255
 20
-935.8392686586121
 42
0.4142135623731
 10
-715.571048205255
 20
-936.8392686586121
 42
0.4142135623731
 10
-714.571048205255
 20
-937.839268658612
 42
0.4142135623731
  0
TEXT
  5
36C
330
1F
100
AcDbEntity
  8
D-4
  6
Continuous
 62
     2
370
     9
100
AcDbText
 10
-616.4107551029905
 20
-103.9455455140808
 30
0.0
 40
30.48
  1
2
 41
0.9999999999999998
  7
ＭＳ ゴシック
100
AcDbText
  0
TEXT
  5
36D
330
1F
100
AcDbEntity
  8
D-4
  6
Continuous
 62
     2
370
     9
100
AcDbText
 10
-551.2699880055173
 20
-103.9455455140808
 30
0.0
 40
30.48
  1
3
 41
0.9999999999999998
  7
ＭＳ ゴシック
100
AcDbText
  0
TEXT
  5
36E
330
1F
100
AcDbEntity
  8
D-4
  6
Continuous
 62
     2
370
     9
100
AcDbText
 10
-673.320294802545
 20
-212.6969664888123
 30
0.0
 40
30.48
  1
25
 41
1.062500000000002
  7
ＭＳ ゴシック
100
AcDbText
  0
TEXT
  5
36F
330
1F
100
AcDbEntity
  8
D-4
  6
Continuous
 62
     2
370
   211
100
AcDbText
 10
-350.2463150814756
 20
-450.5062992140192
 30
0.0
 40
30.48
  1
35
 50
90.0
 41
1.0625
  7
ＭＳ ゴシック
100
AcDbText
  0
TEXT
  5
370
330
1F
100
AcDbEntity
  8
D-4
  6
Continuous
 62
     2
370
     9
100
AcDbText
 10
-59.05653961455669
 20
-595.50612757824
 30
0.0
 40
30.48
  1
65～75
 50
90.00000250447756
 41
1.104166666666667
  7
ＭＳ ゴシック
100
AcDbText
  0
TEXT
  5
371
330
1F
100
AcDbEntity
  8
D-4
  6
Continuous
 62
     2
370
     9
100
AcDbText
 10
-346.2463188961729
 20
-619.9507267298512
 30
0.0
 40
30.48
  1
6.5
 50
90.00000250447674
 41
1.083333333333334
  7
ＭＳ ゴシック
100
AcDbText
  0
LINE
  5
372
330
1F
100
AcDbEntity
  8
D-4
  6
Continuous
 62
     7
370
     9
100
AcDbLine
 10
-331.6063227108702
 20
-548.2555131654481
 30
0.0
 11
-389.5622934750303
 21
-548.2555131654481
 31
0.0
  0
LINE
  5
373
330
1F
100
AcDbEntity
  8
D-4
  6
Continuous
 62
     7
370
     9
100
AcDbLine
 10
-334.6063150814757
 20
-516.7563371400574
 30
0.0
 11
-334.6063150814757
 21
-633.5064630250672
 31
0.0
  0
LINE
  5
374
330
1F
100
AcDbEntity
  8
D-9
  6
Continuous
 62
     4
370
     9
100
AcDbLine
 10
-524.5623363903745
 20
-548.2555131654481
 30
0.0
 11
-409.5622934750303
 21
-548.2555131654481
 31
0.0
  0
LINE
  5
375
330
1F
100
AcDbEntity
  8
D-9
  6
Continuous
 62
     4
370
     9
100
AcDbLine
 10
-539.5624079159483
 20
-533.2554464082459
 30
0.0
 11
-539.5624079159483
 21
-519.2554788331727
 31
0.0
  0
LINE
  5
376
330
1F
100
AcDbEntity
  8
D-9
  6
Continuous
 62
     4
370
     9
100
AcDbLine
 10
-394.5624842098936
 20
-533.2554464082459
 30
0.0
 11
-394.5624842098936
 21
-519.2554788331727
 31
0.0
  0
LINE
  5
377
330
1F
100
AcDbEntity
  8
D-9
  6
Continuous
 62
     4
370
     9
100
AcDbLine
 10
-559.5625008991941
 20
-529.2555265168885
 30
0.0
 11
-559.5625008991941
 21
-519.2554788331727
 31
0.0
  0
LINE
  5
378
330
1F
100
AcDbEntity
  8
D-9
  6
Continuous
 62
     4
370
     9
100
AcDbLine
 10
-539.5373835018858
 20
-529.2555265168885
 30
0.0
 11
-589.5622118811046
 21
-529.2555265168885
 31
0.0
  0
LINE
  5
379
330
1F
100
AcDbEntity
  8
D-9
  6
Continuous
 62
     4
370
     9
100
AcDbLine
 10
-394.5624842098936
 20
-519.2554788331727
 30
0.0
 11
-589.5622118811046
 21
-519.2554788331727
 31
0.0
  0
LINE
  5
37A
330
1F
100
AcDbEntity
  8
D-9
  6
Continuous
 62
     3
370
     9
100
AcDbLine
 10
-589.5622118811046
 20
-539.2568139772156
 30
0.0
 11
-689.5625414303527
 21
-539.2568139772156
 31
0.0
  0
LINE
  5
37B
330
1F
100
AcDbEntity
  8
D-9
  6
Continuous
 62
     3
370
     9
100
AcDbLine
 10
-589.5622118811046
 20
-516.756833050702
 30
0.0
 11
-689.5625414303527
 21
-516.756833050702
 31
0.0
  0
LINE
  5
37C
330
1F
100
AcDbEntity
  8
D-9
  6
Continuous
 62
     2
370
     9
100
AcDbLine
 10
-625.8126415661558
 20
-541.7554597596863
 30
0.0
 11
-625.8126415661558
 21
-539.2568139772156
 31
0.0
  0
LINE
  5
37D
330
1F
100
AcDbEntity
  8
D-9
  6
Continuous
 62
     2
370
     9
100
AcDbLine
 10
-634.5633520535215
 20
-549.2548684816102
 30
0.0
 11
-625.8126415661558
 21
-541.7554597596863
 31
0.0
  0
LINE
  5
37E
330
1F
100
AcDbEntity
  8
D-9
  6
Continuous
 62
     2
370
     9
100
AcDbLine
 10
-644.5622696331725
 20
-549.2548684816102
 30
0.0
 11
-634.5633520535215
 21
-549.2548684816102
 31
0.0
  0
LINE
  5
37F
330
1F
100
AcDbEntity
  8
D-9
  6
Continuous
 62
     2
370
     9
100
AcDbLine
 10
-653.312732165216
 20
-541.7554597596863
 30
0.0
 11
-644.5622696331725
 21
-549.2548684816102
 31
0.0
  0
LINE
  5
380
330
1F
100
AcDbEntity
  8
D-9
  6
Continuous
 62
     2
370
     9
100
AcDbLine
 10
-653.312732165216
 20
-541.7554597596863
 30
0.0
 11
-653.312732165216
 21
-539.2568139772156
 31
0.0
  0
LINE
  5
381
330
1F
100
AcDbEntity
  8
D-9
  6
Continuous
 62
     2
370
     9
100
AcDbLine
 10
-653.312732165216
 20
-541.7554597596863
 30
0.0
 11
-625.8126415661558
 21
-541.7554597596863
 31
0.0
  0
LINE
  5
382
330
1F
100
AcDbEntity
  8
D-9
  6
Continuous
 62
     3
370
     9
100
AcDbLine
 10
-589.5622118811046
 20
-516.756833050702
 30
0.0
 11
-589.5622118811046
 21
-539.2568139772156
 31
0.0
  0
LINE
  5
383
330
1F
100
AcDbEntity
  8
D-9
  6
JWW_DASHED2
 62
     3
370
     9
100
AcDbLine
 10
-589.5622118811046
 20
-529.2568139772156
 30
0.0
 11
-689.5625414303527
 21
-529.2568139772156
 31
0.0
  0
LINE
  5
384
330
1F
100
AcDbEntity
  8
D-9
  6
JWW_CENTER1
 62
     4
370
     9
100
AcDbLine
 10
-639.5623745373472
 20
-556.9958333711365
 30
0.0
 11
-639.5623745373472
 21
-516.756833050702
 31
0.0
  0
ARC
  5
385
330
1F
100
AcDbEntity
  8
D-9
  6
Continuous
 62
     4
370
     9
100
AcDbCircle
 10
-524.5623363903745
 20
-533.2554464082459
 30
0.0
 40
15.00000238418579
100
AcDbArc
 50
180.0
 51
270.0
  0
ARC
  5
386
330
1F
100
AcDbEntity
  8
D-9
  6
Continuous
 62
     4
370
     9
100
AcDbCircle
 10
-409.5622934750303
 20
-533.2554464082459
 30
0.0
 40
15.00000238418579
100
AcDbArc
 50
270.0
 51
0.0
  0
LWPOLYLINE
  5
387
330
1F
100
AcDbEntity
  8
D-4
  6
Continuous
 62
     7
370
     9
100
AcDbPolyline
 90
        4
 70
     1
 43
2.0
 10
-333.6063150814756
 20
-548.2555131654481
 42
0.4142135623731
 10
-334.6063150814757
 20
-547.2555131654481
 42
0.4142135623731
 10
-335.6063150814757
 20
-548.2555131654481
 42
0.4142135623731
 10
-334.6063150814757
 20
-549.2555131654481
 42
0.4142135623731
  0
TEXT
  5
388
330
1F
100
AcDbEntity
  8
D-4
  6
Continuous
 62
     2
370
     9
100
AcDbText
 10
-582.4389376095518
 20
-926.1992686586121
 30
0.0
 40
30.48
  1
75～80
 41
1.104166666666667
  7
ＭＳ ゴシック
100
AcDbText
  0
LINE
  5
389
330
1F
100
AcDbEntity
  8
D-4
  6
Continuous
 62
     7
370
     9
100
AcDbLine
 10
-530.5603804043516
 20
-516.7563371400574
 30
0.0
 11
-331.6057505062803
 21
-516.7563371400574
 31
0.0
  0
LWPOLYLINE
  5
38A
330
1F
100
AcDbEntity
  8
D-4
  6
Continuous
 62
     7
370
     9
100
AcDbPolyline
 90
        4
 70
     1
 43
2.0
 10
-333.6063150814756
 20
-516.7563371400574
 42
0.4142135623731
 10
-334.6063150814757
 20
-515.7563371400574
 42
0.4142135623731
 10
-335.6063150814757
 20
-516.7563371400574
 42
0.4142135623731
 10
-334.6063150814757
 20
-517.7563371400574
 42
0.4142135623731
  0
LINE
  5
38B
330
1F
100
AcDbEntity
  8
D-4
  6
Continuous
 62
     7
370
     9
100
AcDbLine
 10
-334.6063150814757
 20
-516.7563371400574
 30
0.0
 11
-334.6063150814757
 21
-341.756261287981
 31
0.0
  0
LWPOLYLINE
  5
38C
330
1F
100
AcDbEntity
  8
D-4
  6
Continuous
 62
     7
370
     9
100
AcDbPolyline
 90
        4
 70
     1
 43
2.0
 10
-333.6063150814756
 20
-341.756261287981
 42
0.4142135623731
 10
-334.6063150814757
 20
-340.756261287981
 42
0.4142135623731
 10
-335.6063150814757
 20
-341.756261287981
 42
0.4142135623731
 10
-334.6063150814757
 20
-342.756261287981
 42
0.4142135623731
  0
LINE
  5
38D
330
1F
100
AcDbEntity
  8
D-5
  6
Continuous
 62
     7
370
     9
100
AcDbLine
 10
-546.4524950436338
 20
-519.2554788331727
 30
0.0
 11
-532.6408066204771
 21
-498.4170560579041
 31
0.0
  0
LINE
  5
38E
330
1F
100
AcDbEntity
  8
D-5
  6
Continuous
 62
     7
370
     9
100
AcDbLine
 10
-546.4524950436338
 20
-519.2554788331727
 30
0.0
 11
-527.7188171795591
 21
-502.701371167157
 31
0.0
  0
LINE
  5
38F
330
1F
100
AcDbEntity
  8
D-0
  6
Continuous
 62
     7
370
     9
100
AcDbLine
 10
-603.3003334391309
 20
-575.7439614042919
 30
0.0
 11
-603.3003334391309
 21
-574.2436791166942
 31
0.0
  0
LINE
  5
390
330
1F
100
AcDbEntity
  8
D-0
  6
Continuous
 62
     7
370
     9
100
AcDbLine
 10
-603.3003334391309
 20
-574.2436791166942
 30
0.0
 11
-601.8005470621778
 21
-574.2436791166942
 31
0.0
  0
LINE
  5
391
330
1F
100
AcDbEntity
  8
D-0
  6
Continuous
 62
     7
370
     9
100
AcDbLine
 10
-601.8005470621778
 20
-574.2436791166942
 30
0.0
 11
-601.8005470621778
 21
-575.7439614042919
 31
0.0
  0
LINE
  5
392
330
1F
100
AcDbEntity
  8
D-0
  6
Continuous
 62
     7
370
     9
100
AcDbLine
 10
-601.8005470621778
 20
-575.7439614042919
 30
0.0
 11
-603.3003334391309
 21
-575.7439614042919
 31
0.0
  0
LINE
  5
393
330
1F
100
AcDbEntity
  8
D-0
  6
Continuous
 62
     7
370
     9
100
AcDbLine
 10
-411.6387441618076
 20
-588.5825209064142
 30
0.0
 11
-411.6387441618076
 21
-587.0822386188165
 31
0.0
  0
LINE
  5
394
330
1F
100
AcDbEntity
  8
D-0
  6
Continuous
 62
     7
370
     9
100
AcDbLine
 10
-411.6387441618076
 20
-587.0822386188165
 30
0.0
 11
-410.1384618742099
 21
-587.0822386188165
 31
0.0
  0
LINE
  5
395
330
1F
100
AcDbEntity
  8
D-0
  6
Continuous
 62
     7
370
     9
100
AcDbLine
 10
-410.1384618742099
 20
-587.0822386188165
 30
0.0
 11
-410.1384618742099
 21
-588.5825209064142
 31
0.0
  0
LINE
  5
396
330
1F
100
AcDbEntity
  8
D-0
  6
Continuous
 62
     7
370
     9
100
AcDbLine
 10
-410.1384618742099
 20
-588.5825209064142
 30
0.0
 11
-411.6387441618076
 21
-588.5825209064142
 31
0.0
  0
LINE
  5
397
330
1F
100
AcDbEntity
  8
D-0
  6
Continuous
 62
     7
370
     9
100
AcDbLine
 10
-383.7796729880073
 20
-476.2497137416931
 30
0.0
 11
-383.7796729880073
 21
-474.7494314540954
 31
0.0
  0
LINE
  5
398
330
1F
100
AcDbEntity
  8
D-0
  6
Continuous
 62
     7
370
     9
100
AcDbLine
 10
-383.7796729880073
 20
-474.7494314540954
 30
0.0
 11
-382.2798866110542
 21
-474.7494314540954
 31
0.0
  0
LINE
  5
399
330
1F
100
AcDbEntity
  8
D-0
  6
Continuous
 62
     7
370
     9
100
AcDbLine
 10
-382.2798866110542
 20
-474.7494314540954
 30
0.0
 11
-382.2798866110542
 21
-476.2497137416931
 31
0.0
  0
LINE
  5
39A
330
1F
100
AcDbEntity
  8
D-0
  6
Continuous
 62
     7
370
     9
100
AcDbLine
 10
-382.2798866110542
 20
-476.2497137416931
 30
0.0
 11
-383.7796729880073
 21
-476.2497137416931
 31
0.0
  0
LINE
  5
39B
330
1F
100
AcDbEntity
  8
D-0
  6
Continuous
 62
     7
370
     9
100
AcDbLine
 10
-360.9286540823677
 20
-500.2368353237243
 30
0.0
 11
-360.9286540823677
 21
-498.7365530361267
 31
0.0
  0
LINE
  5
39C
330
1F
100
AcDbEntity
  8
D-0
  6
Continuous
 62
     7
370
     9
100
AcDbLine
 10
-360.9286540823677
 20
-498.7365530361267
 30
0.0
 11
-359.42837179477
 21
-498.7365530361267
 31
0.0
  0
LINE
  5
39D
330
1F
100
AcDbEntity
  8
D-0
  6
Continuous
 62
     7
370
     9
100
AcDbLine
 10
-359.42837179477
 20
-498.7365530361267
 30
0.0
 11
-359.42837179477
 21
-500.2368353237243
 31
0.0
  0
LINE
  5
39E
330
1F
100
AcDbEntity
  8
D-0
  6
Continuous
 62
     7
370
     9
100
AcDbLine
 10
-359.42837179477
 20
-500.2368353237243
 30
0.0
 11
-360.9286540823677
 21
-500.2368353237243
 31
0.0
  0
LINE
  5
39F
330
1F
100
AcDbEntity
  8
D-0
  6
Continuous
 62
     7
370
     9
100
AcDbLine
 10
-347.8687931530544
 20
-362.924396229751
 30
0.0
 11
-347.8687931530544
 21
-361.4241139421533
 31
0.0
  0
LINE
  5
3A0
330
1F
100
AcDbEntity
  8
D-0
  6
Continuous
 62
     7
370
     9
100
AcDbLine
 10
-347.8687931530544
 20
-361.4241139421533
 30
0.0
 11
-346.3690067761012
 21
-361.4241139421533
 31
0.0
  0
LINE
  5
3A1
330
1F
100
AcDbEntity
  8
D-0
  6
Continuous
 62
     7
370
     9
100
AcDbLine
 10
-346.3690067761012
 20
-361.4241139421533
 30
0.0
 11
-346.3690067761012
 21
-362.924396229751
 31
0.0
  0
LINE
  5
3A2
330
1F
100
AcDbEntity
  8
D-0
  6
Continuous
 62
     7
370
     9
100
AcDbLine
 10
-346.3690067761012
 20
-362.924396229751
 30
0.0
 11
-347.8687931530544
 21
-362.924396229751
 31
0.0
  0
LINE
  5
3A3
330
1F
100
AcDbEntity
  8
D-0
  6
Continuous
 62
     7
370
     9
100
AcDbLine
 10
-325.0177742474147
 20
-386.9115178117822
 30
0.0
 11
-325.0177742474147
 21
-385.4112355241846
 31
0.0
  0
LINE
  5
3A4
330
1F
100
AcDbEntity
  8
D-0
  6
Continuous
 62
     7
370
     9
100
AcDbLine
 10
-325.0177742474147
 20
-385.4112355241846
 30
0.0
 11
-323.5174919598171
 21
-385.4112355241846
 31
0.0
  0
LINE
  5
3A5
330
1F
100
AcDbEntity
  8
D-0
  6
Continuous
 62
     7
370
     9
100
AcDbLine
 10
-323.5174919598171
 20
-385.4112355241846
 30
0.0
 11
-323.5174919598171
 21
-386.9115178117822
 31
0.0
  0
LINE
  5
3A6
330
1F
100
AcDbEntity
  8
D-0
  6
Continuous
 62
     7
370
     9
100
AcDbLine
 10
-323.5174919598171
 20
-386.9115178117822
 30
0.0
 11
-325.0177742474147
 21
-386.9115178117822
 31
0.0
  0
LINE
  5
3A7
330
1F
100
AcDbEntity
  8
D-0
  6
Continuous
 62
     7
370
     9
100
AcDbLine
 10
-305.4873108084984
 20
-452.4826318276
 30
0.0
 11
-305.4873108084984
 21
-450.9823590767455
 31
0.0
  0
LINE
  5
3A8
330
1F
100
AcDbEntity
  8
D-0
  6
Continuous
 62
     7
370
     9
100
AcDbLine
 10
-305.4873108084984
 20
-450.9823590767455
 30
0.0
 11
-303.9872955497094
 21
-450.9823590767455
 31
0.0
  0
LINE
  5
3A9
330
1F
100
AcDbEntity
  8
D-0
  6
Continuous
 62
     7
370
     9
100
AcDbLine
 10
-303.9872955497094
 20
-450.9823590767455
 30
0.0
 11
-303.9872955497094
 21
-452.4826318276
 31
0.0
  0
LINE
  5
3AA
330
1F
100
AcDbEntity
  8
D-0
  6
Continuous
 62
     7
370
     9
100
AcDbLine
 10
-303.9872955497094
 20
-452.4826318276
 30
0.0
 11
-305.4873108084984
 21
-452.4826318276
 31
0.0
  0
LINE
  5
3AB
330
1F
100
AcDbEntity
  8
D-5
  6
Continuous
 62
     7
370
     9
100
AcDbLine
 10
-623.8076042429747
 20
-341.7567567567567
 30
0.0
 11
-609.996907641107
 21
-320.9188257198075
 31
0.0
  0
LINE
  5
3AC
330
1F
100
AcDbEntity
  8
D-5
  6
Continuous
 62
     7
370
     9
100
AcDbLine
 10
-623.8076042429747
 20
-341.7567567567567
 30
0.0
 11
-605.0739287630857
 21
-325.2031450013856
 31
0.0
  0
LINE
  5
3AD
330
1F
100
AcDbEntity
  8
D-5
  6
Continuous
 62
     7
370
     9
100
AcDbLine
 10
-564.5713605335935
 20
-404.1529143080213
 30
0.0
 11
-550.7606639317258
 21
-383.3149832710722
 31
0.0
  0
LINE
  5
3AE
330
1F
100
AcDbEntity
  8
D-5
  6
Continuous
 62
     7
370
     9
100
AcDbLine
 10
-564.5713605335935
 20
-404.1529143080213
 30
0.0
 11
-545.8376850537046
 21
-387.5993025526502
 31
0.0
  0
LINE
  5
3AF
330
1F
100
AcDbEntity
  8
D-6
  6
JWW_DASHED3
 62
     6
370
     9
100
AcDbLine
 10
-467.0627130917296
 20
-819.2568711976746
 30
0.0
 11
-467.0627130917296
 21
-716.7562608461121
 31
0.0
  0
LINE
  5
3B0
330
1F
100
AcDbEntity
  8
D-6
  6
JWW_DASHED3
 62
     6
370
     9
100
AcDbLine
 10
-422.0622553280577
 20
-716.7562608461121
 30
0.0
 11
-422.0622553280577
 21
-819.2568711976746
 31
0.0
  0
LINE
  5
3B1
330
1F
100
AcDbEntity
  8
D-6
  6
Continuous
 62
     6
370
     9
100
AcDbLine
 10
-467.0627130917296
 20
-716.7562608461121
 30
0.0
 11
-467.0627130917296
 21
-548.2555131654481
 31
0.0
  0
LINE
  5
3B2
330
1F
100
AcDbEntity
  8
D-6
  6
Continuous
 62
     6
370
     9
100
AcDbLine
 10
-422.0622553280577
 20
-716.7562608461121
 30
0.0
 11
-422.0622553280577
 21
-548.2555131654481
 31
0.0
  0
LINE
  5
3B3
330
1F
100
AcDbEntity
  8
D-6
  6
Continuous
 62
     6
370
     9
100
AcDbLine
 10
-467.0627130917296
 20
-519.2554788331727
 30
0.0
 11
-467.0627130917296
 21
-484.2554788331727
 31
0.0
  0
LINE
  5
3B4
330
1F
100
AcDbEntity
  8
D-6
  6
Continuous
 62
     6
370
     9
100
AcDbLine
 10
-422.0622553280577
 20
-519.2554788331727
 30
0.0
 11
-422.0622553280577
 21
-484.2554788331727
 31
0.0
  0
LINE
  5
3B5
330
1F
100
AcDbEntity
  8
D-6
  6
Continuous
 62
     6
370
     9
100
AcDbLine
 10
-467.0627130917296
 20
-484.2554788331727
 30
0.0
 11
-422.0622553280577
 21
-484.2554788331727
 31
0.0
  0
LINE
  5
3B6
330
1F
100
AcDbEntity
  8
D-6
  6
JWW_CENTER2
 62
     6
370
     9
100
AcDbLine
 10
-444.5624842098936
 20
-472.0054940919617
 30
0.0
 11
-444.5624842098936
 21
-830.0888185243348
 31
0.0
  0
LINE
  5
3B7
330
1F
100
AcDbEntity
  8
D-5
  6
Continuous
 62
     7
370
     9
100
AcDbLine
 10
-546.4524950436338
 20
-519.2554788331727
 30
0.0
 11
-295.2240476171732
 21
-230.6077003877719
 31
0.0
  0
LINE
  5
3B8
330
1F
100
AcDbEntity
  8
D-5
  6
Continuous
 62
     7
370
     9
100
AcDbLine
 10
-336.0003901258983
 20
-11.08270291606729
 30
0.0
 11
-623.8076042429747
 21
-341.7567567567567
 31
0.0
  0
LINE
  5
3B9
330
1F
100
AcDbEntity
  8
D-5
  6
Continuous
 62
     7
370
     9
100
AcDbLine
 10
-329.1736718007086
 20
-133.6943874005924
 30
0.0
 11
-564.5713605335935
 21
-404.1529143080213
 31
0.0
  0
TEXT
  5
3BA
330
1F
100
AcDbEntity
  8
D-5
  6
Continuous
 62
     2
370
     9
100
AcDbText
 10
-1013.140050356744
 20
-1051.087612469647
 30
0.0
 40
30.48
  1
断面詳細図　Ｓ＝１：２
 41
1.113636363636364
  7
ＭＳ ゴシック
100
AcDbText
  0
LINE
  5
3BB
330
1F
100
AcDbEntity
  8
D-5
  6
Continuous
 62
     7
370
     9
100
AcDbLine
 10
-329.1736718007086
 20
-133.6943874005924
 30
0.0
 11
171.1989767575904
 21
-133.6943874005924
 31
0.0
  0
TEXT
  5
3BC
330
1F
100
AcDbEntity
  8
D-4
  6
Continuous
 62
     2
370
     9
100
AcDbText
 10
-660.8125700405822
 20
-687.0777408132802
 30
0.0
 40
30.48
  1
30
 41
1.062500000000002
  7
ＭＳ ゴシック
100
AcDbText
  0
TEXT
  5
3BD
330
1F
100
AcDbEntity
  8
D-4
  6
Continuous
 62
     2
370
     9
100
AcDbText
 10
-554.1963233402952
 20
-687.0777408132802
 30
0.0
 40
30.48
  1
34
 41
1.0625
  7
ＭＳ ゴシック
100
AcDbText
  0
LINE
  5
3BE
330
1F
100
AcDbEntity
  8
D-4
  6
Continuous
 62
     7
370
     9
100
AcDbLine
 10
-714.5626272610411
 20
-698.7177446279775
 30
0.0
 11
-564.5625152043089
 21
-698.7177446279775
 31
0.0
  0
LINE
  5
3BF
330
1F
100
AcDbEntity
  8
D-4
  6
Continuous
 62
     7
370
     9
100
AcDbLine
 10
-564.5625152043089
 20
-698.7177446279775
 30
0.0
 11
-394.5622934750303
 21
-698.7177446279775
 31
0.0
  0
LINE
  5
3C0
330
1F
100
AcDbEntity
  8
D-4
  6
Continuous
 62
     7
370
     9
100
AcDbLine
 10
-394.5622934750303
 20
-701.7177560720693
 30
0.0
 11
-394.5622934750303
 21
-553.2554464082459
 31
0.0
  0
LINE
  5
3C1
330
1F
100
AcDbEntity
  8
D-4
  6
Continuous
 62
     7
370
     9
100
AcDbLine
 10
-564.5625152043089
 20
-701.7177560720693
 30
0.0
 11
-564.5625152043089
 21
-553.2554464082459
 31
0.0
  0
LWPOLYLINE
  5
3C2
330
1F
100
AcDbEntity
  8
D-4
  6
Continuous
 62
     7
370
     9
100
AcDbPolyline
 90
        4
 70
     1
 43
2.0
 10
-713.5626272610411
 20
-698.7177446279775
 42
0.4142135623731
 10
-714.5626272610411
 20
-697.7177446279775
 42
0.4142135623731
 10
-715.5626272610411
 20
-698.7177446279775
 42
0.4142135623731
 10
-714.5626272610411
 20
-699.7177446279774
 42
0.4142135623731
  0
LWPOLYLINE
  5
3C3
330
1F
100
AcDbEntity
  8
D-4
  6
Continuous
 62
     7
370
     9
100
AcDbPolyline
 90
        4
 70
     1
 43
2.0
 10
-563.5625152043089
 20
-698.7177446279775
 42
0.4142135623731
 10
-564.5625152043089
 20
-697.7177446279775
 42
0.4142135623731
 10
-565.562515204309
 20
-698.7177446279775
 42
0.4142135623731
 10
-564.5625152043089
 20
-699.7177446279774
 42
0.4142135623731
  0
LWPOLYLINE
  5
3C4
330
1F
100
AcDbEntity
  8
D-4
  6
Continuous
 62
     7
370
     9
100
AcDbPolyline
 90
        4
 70
     1
 43
2.0
 10
-393.5622934750303
 20
-698.7177446279775
 42
0.4142135623731
 10
-394.5622934750303
 20
-697.7177446279775
 42
0.4142135623731
 10
-395.5622934750303
 20
-698.7177446279775
 42
0.4142135623731
 10
-394.5622934750303
 20
-699.7177446279774
 42
0.4142135623731
  0
LWPOLYLINE
  5
3C5
330
1F
100
AcDbEntity
  8
D-4
  6
Continuous
 62
     7
370
     9
100
AcDbPolyline
 90
        4
 70
     1
 43
2.0
 10
-671.0712361048697
 20
-621.3186224516317
 42
0.4142135623731
 10
-672.0712361048697
 20
-620.3186224516317
 42
0.4142135623731
 10
-673.0712361048697
 20
-621.3186224516317
 42
0.4142135623731
 10
-672.0712361048697
 20
-622.3186224516317
 42
0.4142135623731
  0
LWPOLYLINE
  5
3C6
330
1F
100
AcDbEntity
  8
D-4
  6
Continuous
 62
     7
370
     9
100
AcDbPolyline
 90
        4
 70
     1
 43
2.0
 10
-563.5713763207697
 20
-621.3186224516317
 42
0.4142135623731
 10
-564.5713763207697
 20
-620.3186224516317
 42
0.4142135623731
 10
-565.5713763207698
 20
-621.3186224516317
 42
0.4142135623731
 10
-564.5713763207697
 20
-622.3186224516317
 42
0.4142135623731
  0
LINE
  5
3C7
330
1F
100
AcDbEntity
  8
D-4
  6
Continuous
 62
     7
370
     9
100
AcDbLine
 10
-672.0712361048697
 20
-621.3186224516317
 30
0.0
 11
-564.5713763207697
 21
-621.3186224516317
 31
0.0
  0
LINE
  5
3C8
330
1F
100
AcDbEntity
  8
D-4
  6
Continuous
 62
     7
370
     9
100
AcDbLine
 10
-672.0712361048697
 20
-558.4534186285889
 30
0.0
 11
-672.0712361048697
 21
-624.3185828612609
 31
0.0
  0
LINE
  5
3C9
330
1F
100
AcDbEntity
  8
D-6
  6
Continuous
 62
     6
370
     9
100
AcDbLine
 10
-564.571343844293
 20
-716.7562608461121
 30
0.0
 11
-564.571343844293
 21
-880.4044084291199
 31
0.0
  0
LINE
  5
3CA
330
1F
100
AcDbEntity
  8
D-4
  6
Continuous
 62
     7
370
     9
100
AcDbLine
 10
-714.571048205255
 20
-807.7935647631425
 30
0.0
 11
-564.571343844293
 21
-807.7935647631425
 31
0.0
  0
LWPOLYLINE
  5
3CB
330
1F
100
AcDbEntity
  8
D-4
  6
Continuous
 62
     7
370
     9
100
AcDbPolyline
 90
        4
 70
     1
 43
2.0
 10
-563.571343844293
 20
-807.7935647631425
 42
0.4142135623731
 10
-564.571343844293
 20
-806.7935647631425
 42
0.4142135623731
 10
-565.5713438442931
 20
-807.7935647631425
 42
0.4142135623731
 10
-564.571343844293
 20
-808.7935647631424
 42
0.4142135623731
  0
LWPOLYLINE
  5
3CC
330
1F
100
AcDbEntity
  8
D-4
  6
Continuous
 62
     7
370
     9
100
AcDbPolyline
 90
        4
 70
     1
 43
2.0
 10
-713.571048205255
 20
-807.7935647631425
 42
0.4142135623731
 10
-714.571048205255
 20
-806.7935647631425
 42
0.4142135623731
 10
-715.571048205255
 20
-807.7935647631425
 42
0.4142135623731
 10
-714.571048205255
 20
-808.7935647631424
 42
0.4142135623731
  0
TEXT
  5
3CD
330
1F
100
AcDbEntity
  8
D-4
  6
Continuous
 62
     2
370
     9
100
AcDbText
 10
-705.821196024774
 20
-795.3020589568793
 30
0.0
 40
30.48
  1
25～30
 41
1.104166666666667
  7
ＭＳ ゴシック
100
AcDbText
  0
LINE
  5
3CE
330
1F
100
AcDbEntity
  8
D-0
  6
Continuous
 62
     7
370
     9
100
AcDbLine
 10
-695.1442487705606
 20
-606.135511060218
 30
0.0
 11
-695.1442487705606
 21
-604.6352287726204
 31
0.0
  0
LINE
  5
3CF
330
1F
100
AcDbEntity
  8
D-0
  6
Continuous
 62
     7
370
     9
100
AcDbLine
 10
-695.1442487705606
 20
-604.6352287726204
 30
0.0
 11
-693.6439664829629
 21
-604.6352287726204
 31
0.0
  0
LINE
  5
3D0
330
1F
100
AcDbEntity
  8
D-0
  6
Continuous
 62
     7
370
     9
100
AcDbLine
 10
-693.6439664829629
 20
-604.6352287726204
 30
0.0
 11
-693.6439664829629
 21
-606.135511060218
 31
0.0
  0
LINE
  5
3D1
330
1F
100
AcDbEntity
  8
D-0
  6
Continuous
 62
     7
370
     9
100
AcDbLine
 10
-693.6439664829629
 20
-606.135511060218
 30
0.0
 11
-695.1442487705606
 21
-606.135511060218
 31
0.0
  0
LINE
  5
3D2
330
1F
100
AcDbEntity
  8
D-0
  6
Continuous
 62
     7
370
     9
100
AcDbLine
 10
-521.7027281225329
 20
-584.2022448304094
 30
0.0
 11
-521.7027281225329
 21
-582.7019625428118
 31
0.0
  0
LINE
  5
3D3
330
1F
100
AcDbEntity
  8
D-0
  6
Continuous
 62
     7
370
     9
100
AcDbLine
 10
-521.7027281225329
 20
-582.7019625428118
 30
0.0
 11
-520.2024458349352
 21
-582.7019625428118
 31
0.0
  0
LINE
  5
3D4
330
1F
100
AcDbEntity
  8
D-0
  6
Continuous
 62
     7
370
     9
100
AcDbLine
 10
-520.2024458349352
 20
-582.7019625428118
 30
0.0
 11
-520.2024458349352
 21
-584.2022448304094
 31
0.0
  0
LINE
  5
3D5
330
1F
100
AcDbEntity
  8
D-0
  6
Continuous
 62
     7
370
     9
100
AcDbLine
 10
-520.2024458349352
 20
-584.2022448304094
 30
0.0
 11
-521.7027281225329
 21
-584.2022448304094
 31
0.0
  0
LINE
  5
3D6
330
1F
100
AcDbEntity
  8
D-0
  6
Continuous
 62
     7
370
     9
100
AcDbLine
 10
-483.9100232342468
 20
-613.5590780918465
 30
0.0
 11
-483.9100232342468
 21
-612.0587958042488
 31
0.0
  0
LINE
  5
3D7
330
1F
100
AcDbEntity
  8
D-0
  6
Continuous
 62
     7
370
     9
100
AcDbLine
 10
-483.9100232342468
 20
-612.0587958042488
 30
0.0
 11
-482.4097409466492
 21
-612.0587958042488
 31
0.0
  0
LINE
  5
3D8
330
1F
100
AcDbEntity
  8
D-0
  6
Continuous
 62
     7
370
     9
100
AcDbLine
 10
-482.4097409466492
 20
-612.0587958042488
 30
0.0
 11
-482.4097409466492
 21
-613.5590780918465
 31
0.0
  0
LINE
  5
3D9
330
1F
100
AcDbEntity
  8
D-0
  6
Continuous
 62
     7
370
     9
100
AcDbLine
 10
-482.4097409466492
 20
-613.5590780918465
 30
0.0
 11
-483.9100232342468
 21
-613.5590780918465
 31
0.0
  0
LINE
  5
3DA
330
1F
100
AcDbEntity
  8
D-0
  6
Continuous
 62
     7
370
     9
100
AcDbLine
 10
-548.4444411796459
 20
-623.1759717464552
 30
0.0
 11
-548.4444411796459
 21
-621.6756894588575
 31
0.0
  0
LINE
  5
3DB
330
1F
100
AcDbEntity
  8
D-0
  6
Continuous
 62
     7
370
     9
100
AcDbLine
 10
-548.4444411796459
 20
-621.6756894588575
 30
0.0
 11
-546.9441588920482
 21
-621.6756894588575
 31
0.0
  0
LINE
  5
3DC
330
1F
100
AcDbEntity
  8
D-0
  6
Continuous
 62
     7
370
     9
100
AcDbLine
 10
-546.9441588920482
 20
-621.6756894588575
 30
0.0
 11
-546.9441588920482
 21
-623.1759717464552
 31
0.0
  0
LINE
  5
3DD
330
1F
100
AcDbEntity
  8
D-0
  6
Continuous
 62
     7
370
     9
100
AcDbLine
 10
-546.9441588920482
 20
-623.1759717464552
 30
0.0
 11
-548.4444411796459
 21
-623.1759717464552
 31
0.0
  0
LINE
  5
3DE
330
1F
100
AcDbEntity
  8
D-0
  6
Continuous
 62
     7
370
     9
100
AcDbLine
 10
-602.3496608752145
 20
-635.3236268891185
 30
0.0
 11
-602.3496608752145
 21
-633.8233446015208
 31
0.0
  0
LINE
  5
3DF
330
1F
100
AcDbEntity
  8
D-0
  6
Continuous
 62
     7
370
     9
100
AcDbLine
 10
-602.3496608752145
 20
-633.8233446015208
 30
0.0
 11
-600.8493785876168
 21
-633.8233446015208
 31
0.0
  0
LINE
  5
3E0
330
1F
100
AcDbEntity
  8
D-0
  6
Continuous
 62
     7
370
     9
100
AcDbLine
 10
-600.8493785876168
 20
-633.8233446015208
 30
0.0
 11
-600.8493785876168
 21
-635.3236268891185
 31
0.0
  0
LINE
  5
3E1
330
1F
100
AcDbEntity
  8
D-0
  6
Continuous
 62
     7
370
     9
100
AcDbLine
 10
-600.8493785876168
 20
-635.3236268891185
 30
0.0
 11
-602.3496608752145
 21
-635.3236268891185
 31
0.0
  0
LINE
  5
3E2
330
1F
100
AcDbEntity
  8
D-9
  6
Continuous
 62
     3
370
     9
100
AcDbLine
 10
-689.5625414303527
 20
-528.2569761533994
 30
0.0
 11
-689.5625414303527
 21
-539.2568139772156
 31
0.0
  0
LINE
  5
3E3
330
1F
100
AcDbEntity
  8
D-9
  6
Continuous
 62
     3
370
     9
100
AcDbLine
 10
-589.5622118811046
 20
-526.756833050702
 30
0.0
 11
-634.571607264604
 21
-526.756833050702
 31
0.0
  0
LINE
  5
3E4
330
1F
100
AcDbEntity
  8
D-1
  6
Continuous
 62
     2
370
     9
100
AcDbLine
 10
-652.071541280651
 20
-501.7565088014344
 30
0.0
 11
-579.5711650303587
 21
-501.7565088014344
 31
0.0
  0
TEXT
  5
3E5
330
1F
100
AcDbEntity
  8
D-5
  6
Continuous
 62
     7
370
     9
100
AcDbText
 10
-280.9864063896816
 20
-221.7188106172641
 30
0.0
 40
22.86
  1
アンカー＠５００
 41
1.145833333333333
  7
ＭＳ ゴシック
100
AcDbText
  0
TEXT
  5
3E6
330
1F
100
AcDbEntity
  8
D-5
  6
Continuous
 62
     7
370
     9
100
AcDbText
 10
-324.7862782757945
 20
-124.7054190473235
 30
0.0
 40
22.86
  1
ステンレス製受枠ＲＬ－３２Ａ
 50
359.999936858693
 41
1.154761904761905
  7
ＭＳ ゴシック
100
AcDbText
  0
TEXT
  5
3E7
330
1F
100
AcDbEntity
  8
D-4
  6
Continuous
 62
     2
370
     9
100
AcDbText
 10
-662.0713268328052
 20
-610.6786059556442
 30
0.0
 40
30.48
  1
21.5
 41
1.093750000000001
  7
ＭＳ ゴシック
100
AcDbText
  0
LINE
  5
3E8
330
1F
100
AcDbEntity
  8
D-5
  6
Continuous
 62
     2
370
     9
100
AcDbLine
 10
-702.0713629177794
 20
-516.756604168866
 30
0.0
 11
-702.0713629177794
 21
-486.7566804628113
 31
0.0
  0
LINE
  5
3E9
330
1F
100
AcDbEntity
  8
D-5
  6
Continuous
 62
     2
370
     9
100
AcDbLine
 10
-642.0714392117247
 20
-516.756604168866
 30
0.0
 11
-642.0714392117247
 21
-486.7566804628113
 31
0.0
  0
LINE
  5
3EA
330
1F
100
AcDbEntity
  8
D-5
  6
Continuous
 62
     2
370
     9
100
AcDbLine
 10
-652.0714773586974
 20
-486.7566804628113
 30
0.0
 11
-609.571286623834
 21
-486.7566804628113
 31
0.0
  0
LINE
  5
3EB
330
1F
100
AcDbEntity
  8
D-5
  6
Continuous
 62
     2
370
     9
100
AcDbLine
 10
-687.07151550567
 20
-511.7567949037293
 30
0.0
 11
-687.07151550567
 21
-478.7568406800965
 31
0.0
  0
LINE
  5
3EC
330
1F
100
AcDbEntity
  8
D-5
  6
Continuous
 62
     2
370
     9
100
AcDbLine
 10
-692.0712866238341
 20
-516.756604168866
 30
0.0
 11
-687.07151550567
 21
-511.7567949037293
 31
0.0
  0
LINE
  5
3ED
330
1F
100
AcDbEntity
  8
D-5
  6
Continuous
 62
     2
370
     9
100
AcDbLine
 10
-657.0714010647521
 20
-511.7567949037293
 30
0.0
 11
-652.0714773586974
 21
-516.756604168866
 31
0.0
  0
LINE
  5
3EE
330
1F
100
AcDbEntity
  8
D-5
  6
Continuous
 62
     2
370
     9
100
AcDbLine
 10
-687.07151550567
 20
-511.7567949037293
 30
0.0
 11
-657.0714010647521
 21
-511.7567949037293
 31
0.0
  0
LINE
  5
3EF
330
1F
100
AcDbEntity
  8
D-5
  6
Continuous
 62
     2
370
     9
100
AcDbLine
 10
-634.5715155056699
 20
-528.2569246034363
 30
0.0
 11
-714.5714773586974
 21
-528.2569246034363
 31
0.0
  0
LINE
  5
3F0
330
1F
100
AcDbEntity
  8
D-5
  6
Continuous
 62
     2
370
     9
100
AcDbLine
 10
-634.5715155056699
 20
-528.2569246034363
 30
0.0
 11
-634.5715155056699
 21
-516.756604168866
 31
0.0
  0
LINE
  5
3F1
330
1F
100
AcDbEntity
  8
D-5
  6
Continuous
 62
     2
370
     9
100
AcDbLine
 10
-734.571629946588
 20
-486.7566804628113
 30
0.0
 11
-692.0712866238341
 21
-486.7566804628113
 31
0.0
  0
LINE
  5
3F2
330
1F
100
AcDbEntity
  8
D-5
  6
Continuous
 62
     2
370
     9
100
AcDbLine
 10
-714.5714773586974
 20
-486.7566804628113
 30
0.0
 11
-714.5714773586974
 21
-478.7568406800965
 31
0.0
  0
LINE
  5
3F3
330
1F
100
AcDbEntity
  8
D-5
  6
Continuous
 62
     2
370
     9
100
AcDbLine
 10
-714.5714773586974
 20
-478.7568406800965
 30
0.0
 11
-629.5712484768613
 21
-478.7568406800965
 31
0.0
  0
LINE
  5
3F4
330
1F
100
AcDbEntity
  8
D-5
  6
Continuous
 62
     2
370
     9
100
AcDbLine
 10
-629.5712484768613
 20
-486.7566804628113
 30
0.0
 11
-629.5712484768613
 21
-478.7568406800965
 31
0.0
  0
LINE
  5
3F5
330
1F
100
AcDbEntity
  8
D-5
  6
Continuous
 62
     2
370
     9
100
AcDbLine
 10
-694.5714392117247
 20
-486.7566804628113
 30
0.0
 11
-694.5714392117247
 21
-478.7568406800965
 31
0.0
  0
LINE
  5
3F6
330
1F
100
AcDbEntity
  8
D-5
  6
Continuous
 62
     2
370
     9
100
AcDbLine
 10
-714.5714773586974
 20
-528.2569246034363
 30
0.0
 11
-714.5714773586974
 21
-501.7562608461121
 31
0.0
  0
LINE
  5
3F7
330
1F
100
AcDbEntity
  8
D-5
  6
Continuous
 62
     2
370
     9
100
AcDbLine
 10
-692.0712866238341
 20
-516.756604168866
 30
0.0
 11
-692.0712866238341
 21
-478.7568406800965
 31
0.0
  0
LINE
  5
3F8
330
1F
100
AcDbEntity
  8
D-5
  6
Continuous
 62
     2
370
     9
100
AcDbLine
 10
-657.0714010647521
 20
-511.7567949037293
 30
0.0
 11
-657.0714010647521
 21
-478.7568406800965
 31
0.0
  0
LINE
  5
3F9
330
1F
100
AcDbEntity
  8
D-5
  6
Continuous
 62
     2
370
     9
100
AcDbLine
 10
-649.571858828424
 20
-486.7566804628113
 30
0.0
 11
-649.571858828424
 21
-478.7568406800965
 31
0.0
  0
LINE
  5
3FA
330
1F
100
AcDbEntity
  8
D-5
  6
Continuous
 62
     2
370
     9
100
AcDbLine
 10
-652.0714773586974
 20
-516.756604168866
 30
0.0
 11
-652.0714773586974
 21
-478.7568406800965
 31
0.0
  0
LINE
  5
3FB
330
1F
100
AcDbEntity
  8
D-5
  6
Continuous
 62
     2
370
     9
100
AcDbLine
 10
-699.2194189480529
 20
-448.2568101625184
 30
0.0
 11
-644.6442999294982
 21
-448.2568101625184
 31
0.0
  0
LINE
  5
3FC
330
1F
100
AcDbEntity
  8
D-5
  6
Continuous
 62
     2
370
     9
100
AcDbLine
 10
-709.5990194729552
 20
-451.1597566346863
 30
0.0
 11
-709.5990194729552
 21
-478.7568406800965
 31
0.0
  0
LINE
  5
3FD
330
1F
100
AcDbEntity
  8
D-5
  6
Continuous
 62
     2
370
     9
100
AcDbLine
 10
-690.8350958279357
 20
-451.1597566346863
 30
0.0
 11
-690.8350958279357
 21
-478.7568406800965
 31
0.0
  0
LINE
  5
3FE
330
1F
100
AcDbEntity
  8
D-5
  6
Continuous
 62
     2
370
     9
100
AcDbLine
 10
-653.3073248318419
 20
-451.1597566346863
 30
0.0
 11
-653.3073248318419
 21
-478.7568406800965
 31
0.0
  0
LINE
  5
3FF
330
1F
100
AcDbEntity
  8
D-5
  6
Continuous
 62
     2
370
     9
100
AcDbLine
 10
-634.5434011868223
 20
-451.1597566346863
 30
0.0
 11
-634.5434011868223
 21
-478.7568406800965
 31
0.0
  0
LINE
  5
400
330
1F
100
AcDbEntity
  8
D-5
  6
Continuous
 62
     2
370
     9
100
AcDbLine
 10
-649.1587652615294
 20
-434.7522859315613
 30
0.0
 11
-648.3211721829161
 21
-444.3252305726746
 31
0.0
  0
LINE
  5
401
330
1F
100
AcDbEntity
  8
D-5
  6
Continuous
 62
     2
370
     9
100
AcDbLine
 10
-694.9836553982482
 20
-434.7522859315613
 30
0.0
 11
-695.8212484768615
 21
-444.3252305726746
 31
0.0
  0
LINE
  5
402
330
1F
100
AcDbEntity
  8
D-5
  6
Continuous
 62
     2
370
     9
100
AcDbLine
 10
-699.5712103298888
 20
-444.3252305726746
 30
0.0
 11
-644.5712103298888
 21
-444.3252305726746
 31
0.0
  0
ARC
  5
403
330
1F
100
AcDbEntity
  8
D-5
  6
Continuous
 62
     2
370
     9
100
AcDbCircle
 10
-643.9256109646544
 20
-464.7806672792176
 30
0.0
 40
16.53966069221497
100
AcDbArc
 50
55.44186401367188
 51
124.5579528808594
  0
ARC
  5
404
330
1F
100
AcDbEntity
  8
D-5
  6
Continuous
 62
     2
370
     9
100
AcDbCircle
 10
-672.0712103298888
 20
-510.3543977479676
 30
0.0
 40
62.09776401519775
100
AcDbArc
 50
72.41233825683592
 51
107.587890625
  0
ARC
  5
405
330
1F
100
AcDbEntity
  8
D-5
  6
Continuous
 62
     2
370
     9
100
AcDbCircle
 10
-700.2170385769591
 20
-464.6984224061707
 30
0.0
 40
16.47186517715454
100
AcDbArc
 50
55.27946472167969
 51
124.7207183837891
  0
ARC
  5
406
330
1F
100
AcDbEntity
  8
D-5
  6
Continuous
 62
     2
370
     9
100
AcDbCircle
 10
-672.0712103298888
 20
-436.7569474916199
 30
0.0
 40
22.99999952316284
100
AcDbArc
 50
4.999969482421875
 51
175.0000305175781
  0
ARC
  5
407
330
1F
100
AcDbEntity
  8
D-5
  6
Continuous
 62
     2
370
     9
100
AcDbCircle
 10
-699.5712103298888
 20
-448.8250856141785
 30
0.0
 40
4.49999988079071
100
AcDbArc
 50
90.0
 51
178.1913146972657
  0
ARC
  5
408
330
1F
100
AcDbEntity
  8
D-5
  6
Continuous
 62
     2
370
     9
100
AcDbCircle
 10
-644.5712103298888
 20
-448.8250856141785
 30
0.0
 40
4.49999988079071
100
AcDbArc
 50
1.808685302734375
 51
90.0
  0
LWPOLYLINE
  5
409
330
1F
100
AcDbEntity
  8
D-4
  6
Continuous
 62
     7
370
     9
100
AcDbPolyline
 90
        4
 70
     1
 43
2.0
 10
-1346.641116822379
 20
-341.7567449002651
 42
0.4142135623731
 10
-1347.641116822379
 20
-340.7567449002651
 42
0.4142135623731
 10
-1348.641116822379
 20
-341.7567449002651
 42
0.4142135623731
 10
-1347.641116822379
 20
-342.7567449002651
 42
0.4142135623731
  0
LWPOLYLINE
  5
40A
330
1F
100
AcDbEntity
  8
D-4
  6
Continuous
 62
     7
370
     9
100
AcDbPolyline
 90
        4
 70
     1
 43
2.0
 10
-1346.641116822379
 20
-501.7565304524189
 42
0.4142135623731
 10
-1347.641116822379
 20
-500.7565304524189
 42
0.4142135623731
 10
-1348.641116822379
 20
-501.7565304524189
 42
0.4142135623731
 10
-1347.641116822379
 20
-502.7565304524189
 42
0.4142135623731
  0
LINE
  5
40B
330
1F
100
AcDbEntity
  8
D-4
  6
Continuous
 62
     7
370
     9
100
AcDbLine
 10
-1347.641116822379
 20
-501.7565304524189
 30
0.0
 11
-1347.641116822379
 21
-341.7567449002651
 31
0.0
  0
LINE
  5
40C
330
1F
100
AcDbEntity
  8
D-4
  6
Continuous
 62
     7
370
     9
100
AcDbLine
 10
-1292.590457642691
 20
-501.7565304524189
 30
0.0
 11
-1350.641077232007
 21
-501.7565304524189
 31
0.0
  0
LINE
  5
40D
330
1F
100
AcDbEntity
  8
D-4
  6
Continuous
 62
     7
370
     9
100
AcDbLine
 10
-1292.590457642691
 20
-341.7567449002651
 30
0.0
 11
-1350.641077232007
 21
-341.7567449002651
 31
0.0
  0
TEXT
  5
40E
330
1F
100
AcDbEntity
  8
D-5
  6
Continuous
 62
     7
370
     9
100
AcDbText
 10
-333.5939141308602
 20
104.4600832325743
 30
0.0
 40
22.86
  1
ステンレス製グレーチング
 41
1.152777777777778
  7
ＭＳ ゴシック
100
AcDbText
  0
TEXT
  5
40F
330
1F
100
AcDbEntity
  8
D-5
  6
Continuous
 62
     7
370
     9
100
AcDbText
 10
-333.5939141308602
 20
68.88244321462663
 30
0.0
 40
22.86
  1
ボルト固定式
 41
1.138888888888889
  7
ＭＳ ゴシック
100
AcDbText
  0
TEXT
  5
410
330
1F
100
AcDbEntity
  8
D-5
  6
Continuous
 62
     7
370
     9
100
AcDbText
 10
-333.5939141308602
 20
31.98827698372975
 30
0.0
 40
22.86
  1
プレーンタイプ　横断溝・側溝用
 41
1.155555555555555
  7
ＭＳ ゴシック
100
AcDbText
  0
LINE
  5
411
330
1F
100
AcDbEntity
  8
D-5
  6
Continuous
 62
     7
370
     9
100
AcDbLine
 10
-336.0003901258983
 20
-11.08270291606729
 30
0.0
 11
208.4041844515253
 21
-11.08270291606729
 31
0.0
  0
TEXT
  5
412
330
1F
100
AcDbEntity
  8
D-5
  6
Continuous
 62
     7
370
     9
100
AcDbText
 10
-333.5939141308602
 20
-3.332005399703508
 30
0.0
 40
22.86
  1
ＳＭＧＬ　１２５３２（Ｐ＝３０）
 41
1.15625
  7
ＭＳ ゴシック
100
AcDbText
  0
TEXT
  5
413
330
1F
100
AcDbEntity
  8
D-4
  6
Continuous
 62
     2
370
     9
100
AcDbText
 10
-1285.340223399659
 20
4.80707992553711
 30
0.0
 40
30.48
  1
260
 41
1.083333333333333
  7
ＭＳ ゴシック
100
AcDbText
  0
TEXT
  5
414
330
1F
100
AcDbEntity
  8
D-4
  6
Continuous
 62
     2
370
     9
100
AcDbText
 10
-1285.340223399659
 20
-103.9449490810085
 30
0.0
 40
30.48
  1
250
 41
1.083333333333333
  7
ＭＳ ゴシック
100
AcDbText
  0
TEXT
  5
415
330
1F
100
AcDbEntity
  8
D-4
  6
Continuous
 62
     2
370
     9
100
AcDbText
 10
-1285.340223399659
 20
-212.696978087554
 30
0.0
 40
30.48
  1
200
 41
1.083333333333333
  7
ＭＳ ゴシック
100
AcDbText
  0
TEXT
  5
416
330
1F
100
AcDbEntity
  8
D-4
  6
Continuous
 62
     2
370
     9
100
AcDbText
 10
-1358.281380758189
 20
-443.0065222044248
 30
0.0
 40
30.48
  1
32
 50
90.0
 41
1.0625
  7
ＭＳ ゴシック
100
AcDbText
  0
TEXT
  5
417
330
1F
100
AcDbEntity
  8
D-5
  6
Continuous
 62
     2
370
     9
100
AcDbText
 10
56.49441297927275
 20
-381.1162866210938
 30
0.0
 40
30.48
  1
仕　様
 41
1.083333333333333
  7
ＭＳ ゴシック
100
AcDbText
  0
TEXT
  5
418
330
1F
100
AcDbEntity
  8
D-5
  6
Continuous
 62
     2
370
     9
100
AcDbText
 10
170.7964883395449
 20
-889.0003773944271
 30
0.0
 40
30.48
  1
定尺：２０００
 41
1.107142857142857
  7
ＭＳ ゴシック
100
AcDbText
  0
TEXT
  5
419
330
1F
100
AcDbEntity
  8
D-5
  6
Continuous
 62
     2
370
     9
100
AcDbText
 10
170.7964883395449
 20
-834.0006444232357
 30
0.0
 40
30.48
  1
材質：ステンレス鋼板ｔ＝３．０（ＳＵＳ３０４）
 41
1.119565217391306
  7
ＭＳ ゴシック
100
AcDbText
  0
TEXT
  5
41A
330
1F
100
AcDbEntity
  8
D-5
  6
Continuous
 62
     2
370
     9
100
AcDbText
 10
111.0845742770449
 20
-779.0006444232357
 30
0.0
 40
30.48
  1
ステンレス製受枠　ＲＬ－３２Ａ
 41
1.116666666666668
  7
ＭＳ ゴシック
100
AcDbText
  0
TEXT
  5
41B
330
1F
100
AcDbEntity
  8
D-5
  6
Continuous
 62
     2
370
     9
100
AcDbText
 10
170.7970120871696
 20
-549.0005825632802
 30
0.0
 40
30.48
  1
材質：メインバー　ＦＢ４×３２（ＳＵＳ３０４）
 41
1.119565217391304
  7
ＭＳ ゴシック
100
AcDbText
  0
TEXT
  5
41C
330
1F
100
AcDbEntity
  8
D-5
  6
Continuous
 62
     2
370
     9
100
AcDbText
 10
170.7970120871696
 20
-604.0008877390615
 30
0.0
 40
30.48
  1
　　　クロスバー　ＦＢ３×２０（ＳＵＳ３０４）
 41
1.119565217391304
  7
ＭＳ ゴシック
100
AcDbText
  0
TEXT
  5
41D
330
1F
100
AcDbEntity
  8
D-5
  6
Continuous
 62
     2
370
     9
100
AcDbText
 10
170.7965172075243
 20
-714.0008794910674
 30
0.0
 40
30.48
  1
定尺：９９４
 41
1.104166666666667
  7
ＭＳ ゴシック
100
AcDbText
  0
TEXT
  5
41E
330
1F
100
AcDbEntity
  8
D-5
  6
Continuous
 62
     2
370
     9
100
AcDbText
 10
170.7970120871696
 20
-659.0008217551086
 30
0.0
 40
30.48
  1
　　　サイドバー　ＦＢ４×３２（ＳＵＳ３０４）
 41
1.119565217391304
  7
ＭＳ ゴシック
100
AcDbText
  0
TEXT
  5
41F
330
1F
100
AcDbEntity
  8
D-5
  6
Continuous
 62
     2
370
     9
100
AcDbText
 10
170.7964883395449
 20
-944.000720717181
 30
0.0
 40
30.48
  1
施工場所の状況に合わせて、アンカーをプライヤー等で折り曲げてご使用ください。
 41
1.12171052631579
  7
ＭＳ ゴシック
100
AcDbText
  0
TEXT
  5
420
330
1F
100
AcDbEntity
  8
D-5
  6
Continuous
 62
     2
370
     9
100
AcDbText
 10
111.0845866490363
 20
-444.036521919869
 30
0.0
 40
30.48
  1
ステンレス製グレーチング　ボルト固定式　プレーンタイプ　横断溝・側溝用
 41
1.121428571428571
  7
ＭＳ ゴシック
100
AcDbText
  0
TEXT
  5
421
330
1F
100
AcDbEntity
  8
D-5
  6
Continuous
 62
     2
370
     9
100
AcDbText
 10
111.0845866490362
 20
-497.1174647440233
 30
0.0
 40
30.48
  1
ＳＭＧＬ　１２５３２（Ｐ＝３０）
 41
1.1171875
  7
ＭＳ ゴシック
100
AcDbText
  0
TEXT
  5
422
330
1F
100
AcDbEntity
  8
F-5ﾚｲﾔ
  6
Continuous
 62
     2
370
     9
100
AcDbText
 10
-855.4741705734295
 20
-1327.017742059609
 30
0.0
 40
30.48
  1
ステンレス製グレーチング　ボルト固定式　プレーンタイプ　横断溝・側溝用
 41
0.8992857142857141
  7
ＭＳ ゴシック
100
AcDbText
  0
TEXT
  5
423
330
1F
100
AcDbEntity
  8
F-5ﾚｲﾔ
  6
Continuous
 62
     2
370
     9
100
AcDbText
 10
-855.4741705734295
 20
-1373.777081757788
 30
0.0
 40
30.48
  1
ＳＭＧＬ　１２５３２（Ｐ＝３０）＋ＲＬ－３２Ａ
 41
0.8989130434782607
  7
ＭＳ ゴシック
100
AcDbText
  0
TEXT
  5
424
330
1F
100
AcDbEntity
  8
D-5
  6
Continuous
 62
     7
370
     9
100
AcDbText
 10
-280.9864063896816
 20
-261.0367332094272
 30
0.0
 40
22.86
  1
ｔ＝２．０（ＳＥＣＣ）
 41
1.151515151515152
  7
ＭＳ ゴシック
100
AcDbText
  0
LINE
  5
425
330
1F
100
AcDbEntity
  8
D-5
  6
Continuous
 62
     7
370
     9
100
AcDbLine
 10
99.42294026610192
 20
-230.6077003877719
 30
0.0
 11
-295.2240476171732
 21
-230.6077003877719
 31
0.0
  0
TEXT
  5
426
330
1F
100
AcDbEntity
  8
D-5
  6
Continuous
 62
     3
370
     9
100
AcDbText
 10
283.9946274271188
 20
-316.9210316470139
 30
0.0
 40
38.1
  1
※適用荷重：Ｔ－１４（横断溝用）
 41
1.09375
  7
ＭＳ ゴシック
100
AcDbText
  0
TEXT
  5
427
330
1F
100
AcDbEntity
  8
D-5
  6
Continuous
 62
     3
370
     9
100
AcDbText
 10
283.9946274271188
 20
-384.7066742768159
 30
0.0
 40
38.1
  1
※適用荷重：Ｔ－２０（側溝用）
 41
1.093333333333333
  7
ＭＳ ゴシック
100
AcDbText
  0
ENDSEC
  0
SECTION
  2
OBJECTS
  0
DICTIONARY
  5
C
330
0
100
AcDbDictionary
281
     1
  3
ACAD_DETAILVIEWSTYLE
350
46D
  3
ACAD_GROUP
350
D
  3
ACAD_LAYOUT
350
1A
  3
ACAD_MATERIAL
350
43
  3
ACAD_MLEADERSTYLE
350
6B
  3
ACAD_MLINESTYLE
350
17
  3
ACAD_PLOTSETTINGS
350
19
  3
ACAD_PLOTSTYLENAME
350
E
  3
ACAD_SCALELIST
350
47
  3
ACAD_SECTIONVIEWSTYLE
350
46E
  3
ACAD_TABLESTYLE
350
69
  3
ACAD_VISUALSTYLE
350
2A
  3
ACDB_RECOMPOSE_DATA
350
46A
  3
AcDbVariableDictionary
350
42A
  0
DICTIONARY
  5
428
330
8
100
AcDbDictionary
280
     1
281
     1
  3
ACAD_XREC_ROUNDTRIP
360
429
  0
DICTIONARY
  5
46D
102
{ACAD_REACTORS
330
C
102
}
330
C
100
AcDbDictionary
281
     1
  0
DICTIONARY
  5
D
102
{ACAD_REACTORS
330
C
102
}
330
C
100
AcDbDictionary
281
     1
  0
DICTIONARY
  5
1A
102
{ACAD_REACTORS
330
C
102
}
330
C
100
AcDbDictionary
281
     1
  3
Layout1
350
1E
  3
Layout2
350
26
  3
Model
350
22
  0
DICTIONARY
  5
43
102
{ACAD_REACTORS
330
C
102
}
330
C
100
AcDbDictionary
281
     1
  3
ByBlock
350
45
  3
ByLayer
350
44
  3
Global
350
46
  0
DICTIONARY
  5
6B
102
{ACAD_REACTORS
330
C
102
}
330
C
100
AcDbDictionary
281
     1
  3
Standard
350
6C
  0
DICTIONARY
  5
17
102
{ACAD_REACTORS
330
C
102
}
330
C
100
AcDbDictionary
281
     1
  3
Standard
350
18
  0
DICTIONARY
  5
19
102
{ACAD_REACTORS
330
C
102
}
330
C
100
AcDbDictionary
281
     1
  0
ACDBDICTIONARYWDFLT
  5
E
102
{ACAD_REACTORS
330
C
102
}
330
C
100
AcDbDictionary
281
     1
  3
Normal
350
F
100
AcDbDictionaryWithDefault
340
F
  0
DICTIONARY
  5
47
102
{ACAD_REACTORS
330
C
102
}
330
C
100
AcDbDictionary
281
     1
  3
A0
350
48
  3
A1
350
49
  3
A2
350
4A
  3
A3
350
4B
  3
A4
350
4C
  3
A5
350
4D
  3
A6
350
4E
  3
A7
350
4F
  3
A8
350
50
  3
A9
350
51
  3
B0
350
52
  3
B1
350
53
  3
B2
350
54
  3
B3
350
55
  3
B4
350
56
  3
B5
350
57
  3
B6
350
58
  3
B7
350
59
  3
B8
350
5A
  3
B9
350
5B
  3
C0
350
5C
  3
C1
350
5D
  3
C2
350
5E
  3
C3
350
5F
  3
C4
350
60
  3
C5
350
61
  3
C6
350
62
  3
C7
350
63
  3
C8
350
64
  3
C9
350
65
  3
D0
350
66
  3
D1
350
67
  3
D2
350
68
  0
DICTIONARY
  5
46E
102
{ACAD_REACTORS
330
C
102
}
330
C
100
AcDbDictionary
281
     1
  0
DICTIONARY
  5
69
102
{ACAD_REACTORS
330
C
102
}
330
C
100
AcDbDictionary
281
     1
  3
Standard
350
6A
  0
DICTIONARY
  5
2A
102
{ACAD_REACTORS
330
C
102
}
330
C
100
AcDbDictionary
281
     1
  3
2dWireframe
350
2F
  3
Basic
350
32
  3
Brighten
350
36
  3
ColorChange
350
3A
  3
Conceptual
350
34
  3
Dim
350
35
  3
EdgeColorOff
350
3D
  3
Facepattern
350
39
  3
Flat
350
2B
  3
FlatWithEdges
350
2C
  3
Gouraud
350
2D
  3
GouraudWithEdges
350
2E
  3
Hidden
350
31
  3
JitterOff
350
3B
  3
Linepattern
350
38
  3
OverhangOff
350
3C
  3
Realistic
350
33
  3
Shaded
350
42
  3
Shaded with edges
350
41
  3
Shades of Gray
350
3E
  3
Sketchy
350
3F
  3
Thicken
350
37
  3
Wireframe
350
30
  3
X-Ray
350
40
  0
XRECORD
  5
46A
102
{ACAD_REACTORS
330
C
102
}
330
C
100
AcDbXrecord
280
     1
 90
        1
330
6A
  0
DICTIONARY
  5
42A
102
{ACAD_REACTORS
330
C
102
}
330
C
100
AcDbDictionary
281
     1
  3
CANNOSCALE
350
42B
  3
CENTEREXE
350
46F
  3
CENTERLTYPEFILE
350
470
  3
CMLEADERSTYLE
350
46C
  3
CTABLESTYLE
350
46B
  3
MSLTSCALE
350
42C
  3
XCLIPFRAME
350
42D
  0
XRECORD
  5
429
102
{ACAD_REACTORS
330
428
102
}
330
428
100
AcDbXrecord
280
     1
102
VTR_0.000_0.000_1.000_1.000_VISUALSTYLE
340
2F
102
VTR_0.000_0.000_1.000_1.000_GRIDDISPLAY
 70
     3
102
VTR_0.000_0.000_1.000_1.000_GRIDMAJOR
 70
     5
102
VTR_0.000_0.000_1.000_1.000_DEFAULTLIGHTING
280
     1
102
VTR_0.000_0.000_1.000_1.000_DEFAULTLIGHTINGTYPE
 70
     1
102
VTR_0.000_0.000_1.000_1.000_BRIGHTNESS
141
0.0
102
VTR_0.000_0.000_1.000_1.000_CONTRAST
142
0.0
  0
LAYOUT
  5
1E
102
{ACAD_REACTORS
330
1A
102
}
330
1A
100
AcDbPlotSettings
  1

  2
none_device
  4

  6

 40
0.0
 41
0.0
 42
0.0
 43
0.0
 44
0.0
 45
0.0
 46
0.0
 47
0.0
 48
0.0
 49
0.0
140
0.0
141
0.0
142
1.0
143
1.0
 70
   688
 72
     1
 73
     0
 74
     5
  7

 75
    16
 76
     0
 77
     5
 78
   300
147
1.0
148
0.0
149
0.0
100
AcDbLayout
  1
Layout1
 70
     1
 71
     1
 10
0.0
 20
0.0
 11
420.0
 21
297.0
 12
0.0
 22
0.0
 32
0.0
 14
1.000000000000000E+20
 24
1.000000000000000E+20
 34
1.000000000000000E+20
 15
-1.000000000000000E+20
 25
-1.000000000000000E+20
 35
-1.000000000000000E+20
146
0.0
 13
0.0
 23
0.0
 33
0.0
 16
1.0
 26
0.0
 36
0.0
 17
0.0
 27
1.0
 37
0.0
 76
     0
330
1B
  0
LAYOUT
  5
26
102
{ACAD_REACTORS
330
1A
102
}
330
1A
100
AcDbPlotSettings
  1

  2
none_device
  4

  6

 40
0.0
 41
0.0
 42
0.0
 43
0.0
 44
0.0
 45
0.0
 46
0.0
 47
0.0
 48
0.0
 49
0.0
140
0.0
141
0.0
142
1.0
143
1.0
 70
   688
 72
     1
 73
     0
 74
     5
  7

 75
    16
 76
     0
 77
     5
 78
   300
147
1.0
148
0.0
149
0.0
100
AcDbLayout
  1
Layout2
 70
     1
 71
     2
 10
0.0
 20
0.0
 11
0.0
 21
0.0
 12
0.0
 22
0.0
 32
0.0
 14
0.0
 24
0.0
 34
0.0
 15
0.0
 25
0.0
 35
0.0
146
0.0
 13
0.0
 23
0.0
 33
0.0
 16
1.0
 26
0.0
 36
0.0
 17
0.0
 27
1.0
 37
0.0
 76
     0
330
23
  0
LAYOUT
  5
22
102
{ACAD_REACTORS
330
1A
102
}
330
1A
100
AcDbPlotSettings
  1

  2
none_device
  4
Letter_(8.50_x_11.00_Inches)
  6

 40
6.35
 41
6.35
 42
6.35000508
 43
6.35000508
 44
215.9
 45
279.4
 46
0.0
 47
0.0
 48
0.0
 49
0.0
140
0.0
141
0.0
142
1.0
143
1.0
 70
  1712
 72
     1
 73
     0
 74
     0
  7

 75
     0
 76
     0
 77
     5
 78
   300
147
1.0
148
0.0
149
0.0
100
AcDbLayout
  1
Model
 70
     1
 71
     0
 10
-2100.0
 20
-1485.0
 11
2100.0
 21
1485.0
 12
0.0
 22
0.0
 32
0.0
 14
-2100.0
 24
-1485.0
 34
0.0
 15
2100.0
 25
1485.0
 35
0.0
146
0.0
 13
0.0
 23
0.0
 33
0.0
 16
1.0
 26
0.0
 36
0.0
 17
0.0
 27
1.0
 37
0.0
 76
     0
330
1F
331
29
  0
MATERIAL
  5
45
102
{ACAD_REACTORS
330
43
102
}
102
{ACAD_XDICTIONARY
360
460
102
}
330
43
100
AcDbMaterial
  1
ByBlock
  0
MATERIAL
  5
44
102
{ACAD_REACTORS
330
43
102
}
102
{ACAD_XDICTIONARY
360
45E
102
}
330
43
100
AcDbMaterial
  1
ByLayer
  0
MATERIAL
  5
46
102
{ACAD_REACTORS
330
43
102
}
102
{ACAD_XDICTIONARY
360
462
102
}
330
43
100
AcDbMaterial
  1
Global
  0
MLEADERSTYLE
  5
6C
102
{ACAD_REACTORS
330
6B
102
}
102
{ACAD_XDICTIONARY
360
468
102
}
330
6B
100
AcDbMLeaderStyle
170
     2
171
     1
172
     0
 90
        2
 40
0.0
 41
0.0
173
     1
 91
-1056964608
340
14
 92
       -2
290
     1
 42
2.0
291
     1
 43
8.0
  3
Standard
341
0
 44
4.0
300

342
11
174
     1
178
     6
175
     1
176
     0
 93
-1056964608
 45
4.0
292
     0
297
     0
 46
4.0
343
0
 94
-1056964608
 47
1.0
 49
1.0
140
1.0
293
     1
141
0.0
294
     1
177
     0
142
1.0
295
     0
296
     0
143
3.75
1001
ACAD_MLEADERVER
1070
     2
  0
MLINESTYLE
  5
18
102
{ACAD_REACTORS
330
17
102
}
330
17
100
AcDbMlineStyle
  2
Standard
 70
     0
  3

 62
   256
 51
90.0
 52
90.0
 71
     2
 49
0.5
 62
   256
  6
BYLAYER
 49
-0.5
 62
   256
  6
BYLAYER
  0
ACDBPLACEHOLDER
  5
F
102
{ACAD_REACTORS
330
E
102
}
330
E
  0
SCALE
  5
48
102
{ACAD_REACTORS
330
47
102
}
330
47
100
AcDbScale
 70
     0
300
1:1
140
1.0
141
1.0
290
     1
  0
SCALE
  5
49
102
{ACAD_REACTORS
330
47
102
}
330
47
100
AcDbScale
 70
     0
300
1:2
140
1.0
141
2.0
290
     0
  0
SCALE
  5
4A
102
{ACAD_REACTORS
330
47
102
}
330
47
100
AcDbScale
 70
     0
300
1:4
140
1.0
141
4.0
290
     0
  0
SCALE
  5
4B
102
{ACAD_REACTORS
330
47
102
}
330
47
100
AcDbScale
 70
     0
300
1:5
140
1.0
141
5.0
290
     0
  0
SCALE
  5
4C
102
{ACAD_REACTORS
330
47
102
}
330
47
100
AcDbScale
 70
     0
300
1:8
140
1.0
141
8.0
290
     0
  0
SCALE
  5
4D
102
{ACAD_REACTORS
330
47
102
}
330
47
100
AcDbScale
 70
     0
300
1:10
140
1.0
141
10.0
290
     0
  0
SCALE
  5
4E
102
{ACAD_REACTORS
330
47
102
}
330
47
100
AcDbScale
 70
     0
300
1:16
140
1.0
141
16.0
290
     0
  0
SCALE
  5
4F
102
{ACAD_REACTORS
330
47
102
}
330
47
100
AcDbScale
 70
     0
300
1:20
140
1.0
141
20.0
290
     0
  0
SCALE
  5
50
102
{ACAD_REACTORS
330
47
102
}
330
47
100
AcDbScale
 70
     0
300
1:30
140
1.0
141
30.0
290
     0
  0
SCALE
  5
51
102
{ACAD_REACTORS
330
47
102
}
330
47
100
AcDbScale
 70
     0
300
1:40
140
1.0
141
40.0
290
     0
  0
SCALE
  5
52
102
{ACAD_REACTORS
330
47
102
}
330
47
100
AcDbScale
 70
     0
300
1:50
140
1.0
141
50.0
290
     0
  0
SCALE
  5
53
102
{ACAD_REACTORS
330
47
102
}
330
47
100
AcDbScale
 70
     0
300
1:100
140
1.0
141
100.0
290
     0
  0
SCALE
  5
54
102
{ACAD_REACTORS
330
47
102
}
330
47
100
AcDbScale
 70
     0
300
2:1
140
2.0
141
1.0
290
     0
  0
SCALE
  5
55
102
{ACAD_REACTORS
330
47
102
}
330
47
100
AcDbScale
 70
     0
300
4:1
140
4.0
141
1.0
290
     0
  0
SCALE
  5
56
102
{ACAD_REACTORS
330
47
102
}
330
47
100
AcDbScale
 70
     0
300
8:1
140
8.0
141
1.0
290
     0
  0
SCALE
  5
57
102
{ACAD_REACTORS
330
47
102
}
330
47
100
AcDbScale
 70
     0
300
10:1
140
10.0
141
1.0
290
     0
  0
SCALE
  5
58
102
{ACAD_REACTORS
330
47
102
}
330
47
100
AcDbScale
 70
     0
300
100:1
140
100.0
141
1.0
290
     0
  0
SCALE
  5
59
102
{ACAD_REACTORS
330
47
102
}
330
47
100
AcDbScale
 70
     0
300
1/128" = 1'-0"
140
0.0078125
141
12.0
290
     0
  0
SCALE
  5
5A
102
{ACAD_REACTORS
330
47
102
}
330
47
100
AcDbScale
 70
     0
300
1/64" = 1'-0"
140
0.015625
141
12.0
290
     0
  0
SCALE
  5
5B
102
{ACAD_REACTORS
330
47
102
}
330
47
100
AcDbScale
 70
     0
300
1/32" = 1'-0"
140
0.03125
141
12.0
290
     0
  0
SCALE
  5
5C
102
{ACAD_REACTORS
330
47
102
}
330
47
100
AcDbScale
 70
     0
300
1/16" = 1'-0"
140
0.0625
141
12.0
290
     0
  0
SCALE
  5
5D
102
{ACAD_REACTORS
330
47
102
}
330
47
100
AcDbScale
 70
     0
300
3/32" = 1'-0"
140
0.09375
141
12.0
290
     0
  0
SCALE
  5
5E
102
{ACAD_REACTORS
330
47
102
}
330
47
100
AcDbScale
 70
     0
300
1/8" = 1'-0"
140
0.125
141
12.0
290
     0
  0
SCALE
  5
5F
102
{ACAD_REACTORS
330
47
102
}
330
47
100
AcDbScale
 70
     0
300
3/16" = 1'-0"
140
0.1875
141
12.0
290
     0
  0
SCALE
  5
60
102
{ACAD_REACTORS
330
47
102
}
330
47
100
AcDbScale
 70
     0
300
1/4" = 1'-0"
140
0.25
141
12.0
290
     0
  0
SCALE
  5
61
102
{ACAD_REACTORS
330
47
102
}
330
47
100
AcDbScale
 70
     0
300
3/8" = 1'-0"
140
0.375
141
12.0
290
     0
  0
SCALE
  5
62
102
{ACAD_REACTORS
330
47
102
}
330
47
100
AcDbScale
 70
     0
300
1/2" = 1'-0"
140
0.5
141
12.0
290
     0
  0
SCALE
  5
63
102
{ACAD_REACTORS
330
47
102
}
330
47
100
AcDbScale
 70
     0
300
3/4" = 1'-0"
140
0.75
141
12.0
290
     0
  0
SCALE
  5
64
102
{ACAD_REACTORS
330
47
102
}
330
47
100
AcDbScale
 70
     0
300
1" = 1'-0"
140
1.0
141
12.0
290
     0
  0
SCALE
  5
65
102
{ACAD_REACTORS
330
47
102
}
330
47
100
AcDbScale
 70
     0
300
1-1/2" = 1'-0"
140
1.5
141
12.0
290
     0
  0
SCALE
  5
66
102
{ACAD_REACTORS
330
47
102
}
330
47
100
AcDbScale
 70
     0
300
3" = 1'-0"
140
3.0
141
12.0
290
     0
  0
SCALE
  5
67
102
{ACAD_REACTORS
330
47
102
}
330
47
100
AcDbScale
 70
     0
300
6" = 1'-0"
140
6.0
141
12.0
290
     0
  0
SCALE
  5
68
102
{ACAD_REACTORS
330
47
102
}
330
47
100
AcDbScale
 70
     0
300
1'-0" = 1'-0"
140
12.0
141
12.0
290
     0
  0
TABLESTYLE
  5
6A
102
{ACAD_REACTORS
330
69
102
}
102
{ACAD_XDICTIONARY
360
464
102
}
330
69
100
AcDbTableStyle
  3
Standard
 70
     0
 71
     0
 40
0.06
 41
0.06
280
     0
281
     0
  7
Standard
140
4.5
170
     2
 62
     0
 63
   257
283
     0
274
    -2
284
     1
 64
     0
275
    -2
285
     1
 65
     0
276
    -2
286
     1
 66
     0
277
    -2
287
     1
 67
     0
278
    -2
288
     1
 68
     0
279
    -2
289
     1
 69
     0
  7
Standard
140
6.0
170
     5
 62
     0
 63
   257
283
     0
274
    -2
284
     1
 64
     0
275
    -2
285
     1
 65
     0
276
    -2
286
     1
 66
     0
277
    -2
287
     1
 67
     0
278
    -2
288
     1
 68
     0
279
    -2
289
     1
 69
     0
  7
Standard
140
4.5
170
     5
 62
     0
 63
   257
283
     0
274
    -2
284
     1
 64
     0
275
    -2
285
     1
 65
     0
276
    -2
286
     1
 66
     0
277
    -2
287
     1
 67
     0
278
    -2
288
     1
 68
     0
279
    -2
289
     1
 69
     0
  0
VISUALSTYLE
  5
2F
102
{ACAD_REACTORS
330
2A
102
}
102
{ACAD_XDICTIONARY
360
436
102
}
330
2A
100
AcDbVisualStyle
  2
2dWireframe
 70
     4
 71
     0
 72
     2
 73
     0
 90
        0
 40
0.6
 41
30.0
 62
     5
 63
     7
421
 16777215
 74
     1
 91
        4
 64
     7
 65
   257
 75
     1
175
     1
 42
1.0
 92
        0
 66
   257
 43
1.0
 76
     1
 77
     6
 78
     2
 67
     7
 79
     5
170
     0
171
     0
290
     0
174
     0
 93
        1
 44
0.0
173
     0
291
     0
 45
0.0
1001
ACAD
1000
AcDbSavedByObjectVersion
1070
     0
  0
VISUALSTYLE
  5
32
102
{ACAD_REACTORS
330
2A
102
}
102
{ACAD_XDICTIONARY
360
43C
102
}
330
2A
100
AcDbVisualStyle
  2
Basic
 70
     7
 71
     1
 72
     0
 73
     1
 90
        0
 40
0.6
 41
30.0
 62
     5
 63
     7
421
 16777215
 74
     0
 91
        4
 64
     7
 65
   257
 75
     1
175
     1
 42
1.0
 92
        8
 66
     7
 43
1.0
 76
     1
 77
     6
 78
     2
 67
     7
 79
     5
170
     0
171
     0
290
     0
174
     0
 93
        1
 44
0.0
173
     0
291
     1
 45
0.0
1001
ACAD
1000
AcDbSavedByObjectVersion
1070
     0
  0
VISUALSTYLE
  5
36
102
{ACAD_REACTORS
330
2A
102
}
102
{ACAD_XDICTIONARY
360
444
102
}
330
2A
100
AcDbVisualStyle
  2
Brighten
 70
    12
 71
     2
 72
     2
 73
     0
 90
        0
 40
0.6
 41
30.0
 62
     5
 63
     7
421
 16777215
 74
     1
 91
        4
 64
     7
 65
   257
 75
     1
175
     1
 42
1.0
 92
        8
 66
     7
 43
1.0
 76
     1
 77
     6
 78
     2
 67
     7
 79
     5
170
     0
171
     0
290
     0
174
     0
 93
        1
 44
50.0
173
     0
291
     1
 45
0.0
1001
ACAD
1000
AcDbSavedByObjectVersion
1070
     0
  0
VISUALSTYLE
  5
3A
102
{ACAD_REACTORS
330
2A
102
}
102
{ACAD_XDICTIONARY
360
44C
102
}
330
2A
100
AcDbVisualStyle
  2
ColorChange
 70
    16
 71
     2
 72
     2
 73
     3
 90
        0
 40
0.6
 41
30.0
 62
     5
 63
     8
421
  8421504
 74
     1
 91
        4
 64
     7
 65
   257
 75
     1
175
     1
 42
1.0
 92
        8
 66
     8
424
  8421504
 43
1.0
 76
     1
 77
     6
 78
     2
 67
     7
 79
     5
170
     0
171
     0
290
     0
174
     0
 93
        1
 44
0.0
173
     0
291
     1
 45
0.0
1001
ACAD
1000
AcDbSavedByObjectVersion
1070
     0
  0
VISUALSTYLE
  5
34
102
{ACAD_REACTORS
330
2A
102
}
102
{ACAD_XDICTIONARY
360
440
102
}
330
2A
100
AcDbVisualStyle
  2
Conceptual
 70
     9
 71
     3
 72
     2
 73
     0
 90
        0
 40
0.6
 41
30.0
 62
     5
 63
     7
421
 16777215
 74
     2
 91
        2
 64
     7
 65
   257
 75
     1
175
     1
 42
179.0
 92
        8
 66
     7
 43
1.0
 76
     1
 77
     6
 78
     2
 67
     7
 79
     3
170
     0
171
     0
290
     0
174
     0
 93
        1
 44
0.0
173
     0
291
     0
 45
0.0
1001
ACAD
1000
AcDbSavedByObjectVersion
1070
     0
  0
VISUALSTYLE
  5
35
102
{ACAD_REACTORS
330
2A
102
}
102
{ACAD_XDICTIONARY
360
442
102
}
330
2A
100
AcDbVisualStyle
  2
Dim
 70
    11
 71
     2
 72
     2
 73
     0
 90
        0
 40
0.6
 41
30.0
 62
     5
 63
     7
421
 16777215
 74
     1
 91
        4
 64
     7
 65
   257
 75
     1
175
     1
 42
1.0
 92
        8
 66
     7
 43
1.0
 76
     1
 77
     6
 78
     2
 67
     7
 79
     5
170
     0
171
     0
290
     0
174
     0
 93
        1
 44
-50.0
173
     0
291
     1
 45
0.0
1001
ACAD
1000
AcDbSavedByObjectVersion
1070
     0
  0
VISUALSTYLE
  5
3D
102
{ACAD_REACTORS
330
2A
102
}
102
{ACAD_XDICTIONARY
360
452
102
}
330
2A
100
AcDbVisualStyle
  2
EdgeColorOff
 70
    22
 71
     2
 72
     2
 73
     0
 90
        0
 40
0.6
 41
30.0
 62
     5
 63
     7
421
 16777215
 74
     1
 91
        4
 64
     7
 65
   257
 75
     1
175
     1
 42
1.0
 92
        8
 66
     7
 43
1.0
 76
     1
 77
     6
 78
     2
 67
     7
 79
     5
170
     0
171
     0
290
     0
174
     0
 93
        1
 44
0.0
173
     0
291
     1
 45
0.0
1001
ACAD
1000
AcDbSavedByObjectVersion
1070
     0
  0
VISUALSTYLE
  5
39
102
{ACAD_REACTORS
330
2A
102
}
102
{ACAD_XDICTIONARY
360
44A
102
}
330
2A
100
AcDbVisualStyle
  2
Facepattern
 70
    15
 71
     2
 72
     2
 73
     0
 90
        0
 40
0.6
 41
30.0
 62
     5
 63
     7
421
 16777215
 74
     1
 91
        4
 64
     7
 65
   257
 75
     1
175
     1
 42
1.0
 92
        8
 66
     7
 43
1.0
 76
     1
 77
     6
 78
     2
 67
     7
 79
     5
170
     0
171
     0
290
     0
174
     0
 93
        1
 44
0.0
173
     0
291
     1
 45
0.0
1001
ACAD
1000
AcDbSavedByObjectVersion
1070
     0
  0
VISUALSTYLE
  5
2B
102
{ACAD_REACTORS
330
2A
102
}
102
{ACAD_XDICTIONARY
360
42E
102
}
330
2A
100
AcDbVisualStyle
  2
Flat
 70
     0
 71
     2
 72
     1
 73
     1
 90
        2
 40
0.6
 41
30.0
 62
     5
 63
     7
421
 16777215
 74
     0
 91
        0
 64
     7
 65
   257
 75
     1
175
     1
 42
1.0
 92
        8
 66
     7
 43
1.0
 76
     1
 77
     6
 78
     2
 67
     7
 79
     5
170
     0
171
     0
290
     0
174
     0
 93
       13
 44
0.0
173
     0
291
     1
 45
0.0
1001
ACAD
1000
AcDbSavedByObjectVersion
1070
     0
  0
VISUALSTYLE
  5
2C
102
{ACAD_REACTORS
330
2A
102
}
102
{ACAD_XDICTIONARY
360
430
102
}
330
2A
100
AcDbVisualStyle
  2
FlatWithEdges
 70
     1
 71
     2
 72
     1
 73
     1
 90
        2
 40
0.6
 41
30.0
 62
     5
 63
     7
421
 16777215
 74
     1
 91
        0
 64
     7
 65
   257
 75
     1
175
     1
 42
1.0
 92
        0
 66
   257
 43
1.0
 76
     1
 77
     6
 78
     2
 67
     7
 79
     5
170
     0
171
     0
290
     0
174
     0
 93
       13
 44
0.0
173
     0
291
     1
 45
0.0
1001
ACAD
1000
AcDbSavedByObjectVersion
1070
     0
  0
VISUALSTYLE
  5
2D
102
{ACAD_REACTORS
330
2A
102
}
102
{ACAD_XDICTIONARY
360
432
102
}
330
2A
100
AcDbVisualStyle
  2
Gouraud
 70
     2
 71
     2
 72
     2
 73
     1
 90
        2
 40
0.6
 41
30.0
 62
     5
 63
     7
421
 16777215
 74
     0
 91
        0
 64
     7
 65
   257
 75
     1
175
     1
 42
1.0
 92
        0
 66
     7
 43
1.0
 76
     1
 77
     6
 78
     2
 67
     7
 79
     5
170
     0
171
     0
290
     0
174
     0
 93
       13
 44
0.0
173
     0
291
     1
 45
0.0
1001
ACAD
1000
AcDbSavedByObjectVersion
1070
     0
  0
VISUALSTYLE
  5
2E
102
{ACAD_REACTORS
330
2A
102
}
102
{ACAD_XDICTIONARY
360
434
102
}
330
2A
100
AcDbVisualStyle
  2
GouraudWithEdges
 70
     3
 71
     2
 72
     2
 73
     1
 90
        2
 40
0.6
 41
30.0
 62
     5
 63
     7
421
 16777215
 74
     1
 91
        0
 64
     7
 65
   257
 75
     1
175
     1
 42
1.0
 92
        0
 66
   257
 43
1.0
 76
     1
 77
     6
 78
     2
 67
     7
 79
     5
170
     0
171
     0
290
     0
174
     0
 93
       13
 44
0.0
173
     0
291
     1
 45
0.0
1001
ACAD
1000
AcDbSavedByObjectVersion
1070
     0
  0
VISUALSTYLE
  5
31
102
{ACAD_REACTORS
330
2A
102
}
102
{ACAD_XDICTIONARY
360
43A
102
}
330
2A
100
AcDbVisualStyle
  2
Hidden
 70
     6
 71
     1
 72
     2
 73
     2
 90
        0
 40
0.6
 41
30.0
 62
     5
 63
     7
421
 16777215
 74
     2
 91
        2
 64
     7
 65
   257
 75
     2
175
     1
 42
40.0
 92
        0
 66
   257
 43
1.0
 76
     1
 77
     6
 78
     2
 67
     7
 79
     3
170
     0
171
     0
290
     0
174
     0
 93
        1
 44
0.0
173
     0
291
     0
 45
0.0
1001
ACAD
1000
AcDbSavedByObjectVersion
1070
     0
  0
VISUALSTYLE
  5
3B
102
{ACAD_REACTORS
330
2A
102
}
102
{ACAD_XDICTIONARY
360
44E
102
}
330
2A
100
AcDbVisualStyle
  2
JitterOff
 70
    20
 71
     2
 72
     2
 73
     0
 90
        0
 40
0.6
 41
30.0
 62
     5
 63
     7
421
 16777215
 74
     1
 91
        4
 64
     7
 65
   257
 75
     1
175
     1
 42
1.0
 92
       10
 66
     7
 43
1.0
 76
     1
 77
     6
 78
     2
 67
     7
 79
     5
170
     0
171
     0
290
     0
174
     0
 93
        1
 44
0.0
173
     0
291
     1
 45
0.0
1001
ACAD
1000
AcDbSavedByObjectVersion
1070
     0
  0
VISUALSTYLE
  5
38
102
{ACAD_REACTORS
330
2A
102
}
102
{ACAD_XDICTIONARY
360
448
102
}
330
2A
100
AcDbVisualStyle
  2
Linepattern
 70
    14
 71
     2
 72
     2
 73
     0
 90
        0
 40
0.6
 41
30.0
 62
     5
 63
     7
421
 16777215
 74
     1
 91
        4
 64
     7
 65
   257
 75
     7
175
     7
 42
1.0
 92
        8
 66
     7
 43
1.0
 76
     1
 77
     6
 78
     2
 67
     7
 79
     5
170
     0
171
     0
290
     0
174
     0
 93
        1
 44
0.0
173
     0
291
     1
 45
0.0
1001
ACAD
1000
AcDbSavedByObjectVersion
1070
     0
  0
VISUALSTYLE
  5
3C
102
{ACAD_REACTORS
330
2A
102
}
102
{ACAD_XDICTIONARY
360
450
102
}
330
2A
100
AcDbVisualStyle
  2
OverhangOff
 70
    21
 71
     2
 72
     2
 73
     0
 90
        0
 40
0.6
 41
30.0
 62
     5
 63
     7
421
 16777215
 74
     1
 91
        4
 64
     7
 65
   257
 75
     1
175
     1
 42
1.0
 92
        9
 66
     7
 43
1.0
 76
     1
 77
     6
 78
     2
 67
     7
 79
     5
170
     0
171
     0
290
     0
174
     0
 93
        1
 44
0.0
173
     0
291
     1
 45
0.0
1001
ACAD
1000
AcDbSavedByObjectVersion
1070
     0
  0
VISUALSTYLE
  5
33
102
{ACAD_REACTORS
330
2A
102
}
102
{ACAD_XDICTIONARY
360
43E
102
}
330
2A
100
AcDbVisualStyle
  2
Realistic
 70
     8
 71
     2
 72
     3
 73
     0
 90
        2
 40
0.6
 41
30.0
 62
     5
 63
     7
421
 16777215
 74
     0
 91
        0
 64
     7
 65
   257
 75
     1
175
     1
 42
1.0
 92
        8
 66
   257
 43
1.0
 76
     1
 77
     6
 78
     2
 67
     7
 79
     3
170
     0
171
     0
290
     0
174
     0
 93
       13
 44
0.0
173
     0
291
     0
 45
0.0
1001
ACAD
1000
AcDbSavedByObjectVersion
1070
     0
  0
VISUALSTYLE
  5
42
102
{ACAD_REACTORS
330
2A
102
}
102
{ACAD_XDICTIONARY
360
45C
102
}
330
2A
100
AcDbVisualStyle
  2
Shaded
 70
    27
 71
     2
 72
     2
 73
     1
 90
        2
 40
0.6
 41
30.0
 62
     5
 63
     7
421
 16777215
 74
     0
 91
        4
 64
     7
 65
   257
 75
     1
175
     1
 42
1.0
 92
        8
 66
   257
 43
1.0
 76
     1
 77
     6
 78
     2
 67
     8
425
  7895160
 79
     3
170
     0
171
     0
290
     0
174
     0
 93
        5
 44
0.0
173
     0
291
     0
 45
0.0
1001
ACAD
1000
AcDbSavedByObjectVersion
1070
     0
  0
VISUALSTYLE
  5
41
102
{ACAD_REACTORS
330
2A
102
}
102
{ACAD_XDICTIONARY
360
45A
102
}
330
2A
100
AcDbVisualStyle
  2
Shaded with edges
 70
    26
 71
     2
 72
     2
 73
     1
 90
        2
 40
0.6
 41
30.0
 62
     5
 63
     7
421
 16777215
 74
     1
 91
       10
 64
     7
 65
   257
 75
     2
175
     1
 42
1.0
 92
        8
 66
   257
 43
1.0
 76
     1
 77
     6
 78
     2
 67
     7
 79
     3
170
     0
171
     0
290
     0
174
     0
 93
        5
 44
0.0
173
     0
291
     0
 45
0.0
1001
ACAD
1000
AcDbSavedByObjectVersion
1070
     0
  0
VISUALSTYLE
  5
3E
102
{ACAD_REACTORS
330
2A
102
}
102
{ACAD_XDICTIONARY
360
454
102
}
330
2A
100
AcDbVisualStyle
  2
Shades of Gray
 70
    23
 71
     2
 72
     2
 73
     3
 90
        0
 40
0.6
 41
30.0
 62
     5
 63
     7
421
 16777215
 74
     2
 91
        2
 64
     7
 65
     7
 75
     1
175
     1
 42
40.0
 92
        8
 66
     7
 43
1.0
 76
     1
 77
     6
 78
     2
 67
     7
 79
     3
170
     0
171
     0
290
     0
174
     0
 93
        1
 44
0.0
173
     0
291
     0
 45
0.0
1001
ACAD
1000
AcDbSavedByObjectVersion
1070
     0
  0
VISUALSTYLE
  5
3F
102
{ACAD_REACTORS
330
2A
102
}
102
{ACAD_XDICTIONARY
360
456
102
}
330
2A
100
AcDbVisualStyle
  2
Sketchy
 70
    24
 71
     1
 72
     2
 73
     2
 90
        0
 40
0.6
 41
30.0
 62
     5
 63
     7
421
 16777215
 74
     2
 91
        2
 64
     7
 65
     7
 75
     1
175
     1
 42
40.0
 92
       11
 66
     7
 43
1.0
 76
     1
 77
     6
 78
     2
 67
     7
 79
     6
170
     0
171
     0
290
     0
174
     0
 93
        1
 44
0.0
173
     0
291
     0
 45
0.0
1001
ACAD
1000
AcDbSavedByObjectVersion
1070
     0
  0
VISUALSTYLE
  5
37
102
{ACAD_REACTORS
330
2A
102
}
102
{ACAD_XDICTIONARY
360
446
102
}
330
2A
100
AcDbVisualStyle
  2
Thicken
 70
    13
 71
     2
 72
     2
 73
     0
 90
        0
 40
0.6
 41
30.0
 62
     5
 63
     7
421
 16777215
 74
     1
 91
        4
 64
     7
 65
   257
 75
     1
175
     1
 42
1.0
 92
       12
 66
     7
 43
1.0
 76
     1
 77
     6
 78
     2
 67
     7
 79
     5
170
     0
171
     0
290
     0
174
     0
 93
        1
 44
0.0
173
     0
291
     1
 45
0.0
1001
ACAD
1000
AcDbSavedByObjectVersion
1070
     0
  0
VISUALSTYLE
  5
30
102
{ACAD_REACTORS
330
2A
102
}
102
{ACAD_XDICTIONARY
360
438
102
}
330
2A
100
AcDbVisualStyle
  2
Wireframe
 70
     5
 71
     0
 72
     2
 73
     0
 90
        0
 40
0.6
 41
30.0
 62
     5
 63
     7
421
 16777215
 74
     1
 91
        4
 64
     7
 65
   257
 75
     1
175
     1
 42
1.0
 92
        0
 66
   257
 43
1.0
 76
     1
 77
     6
 78
     2
 67
     7
 79
     3
170
     0
171
     0
290
     0
174
     0
 93
        1
 44
0.0
173
     0
291
     0
 45
0.0
1001
ACAD
1000
AcDbSavedByObjectVersion
1070
     0
  0
VISUALSTYLE
  5
40
102
{ACAD_REACTORS
330
2A
102
}
102
{ACAD_XDICTIONARY
360
458
102
}
330
2A
100
AcDbVisualStyle
  2
X-Ray
 70
    25
 71
     2
 72
     2
 73
     1
 90
        1
 40
0.5
 41
30.0
 62
     5
 63
     7
421
 16777215
 74
     1
 91
        0
 64
     7
 65
   257
 75
     1
175
     1
 42
1.0
 92
        8
 66
     7
 43
1.0
 76
     1
 77
     6
 78
     2
 67
     7
 79
     3
170
     0
171
     0
290
     0
174
     0
 93
       13
 44
0.0
173
     0
291
     0
 45
0.0
1001
ACAD
1000
AcDbSavedByObjectVersion
1070
     0
  0
DICTIONARYVAR
  5
42B
102
{ACAD_REACTORS
330
42A
102
}
330
42A
100
DictionaryVariables
280
     0
  1
1:1
  0
DICTIONARYVAR
  5
46F
102
{ACAD_REACTORS
330
42A
102
}
330
42A
100
DictionaryVariables
280
     0
  1
3.500000
  0
DICTIONARYVAR
  5
470
102
{ACAD_REACTORS
330
42A
102
}
330
42A
100
DictionaryVariables
280
     0
  1
acadiso.lin
  0
DICTIONARYVAR
  5
46C
102
{ACAD_REACTORS
330
42A
102
}
330
42A
100
DictionaryVariables
280
     0
  1
Standard
  0
DICTIONARYVAR
  5
46B
102
{ACAD_REACTORS
330
42A
102
}
330
42A
100
DictionaryVariables
280
     0
  1
Standard
  0
DICTIONARYVAR
  5
42C
102
{ACAD_REACTORS
330
42A
102
}
330
42A
100
DictionaryVariables
280
     0
  1
1
  0
DICTIONARYVAR
  5
42D
102
{ACAD_REACTORS
330
42A
102
}
330
42A
100
DictionaryVariables
280
     0
  1
2
  0
DICTIONARY
  5
460
330
45
100
AcDbDictionary
280
     1
281
     1
  3
ACAD_XREC_ROUNDTRIP
360
461
  0
DICTIONARY
  5
45E
330
44
100
AcDbDictionary
280
     1
281
     1
  3
ACAD_XREC_ROUNDTRIP
360
45F
  0
DICTIONARY
  5
462
330
46
100
AcDbDictionary
280
     1
281
     1
  3
ACAD_XREC_ROUNDTRIP
360
463
  0
DICTIONARY
  5
468
330
6C
100
AcDbDictionary
280
     1
281
     1
  3
ACAD_XREC_ROUNDTRIP
360
469
  0
DICTIONARY
  5
464
330
6A
100
AcDbDictionary
280
     1
281
     1
  3
ACAD_ROUNDTRIP_2008_TABLESTYLE_CELLSTYLEMAP
360
466
  3
ACAD_XREC_ROUNDTRIP
360
465
  0
DICTIONARY
  5
436
330
2F
100
AcDbDictionary
280
     1
281
     1
  3
ACAD_XREC_ROUNDTRIP
360
437
  0
DICTIONARY
  5
43C
330
32
100
AcDbDictionary
280
     1
281
     1
  3
ACAD_XREC_ROUNDTRIP
360
43D
  0
DICTIONARY
  5
444
330
36
100
AcDbDictionary
280
     1
281
     1
  3
ACAD_XREC_ROUNDTRIP
360
445
  0
DICTIONARY
  5
44C
330
3A
100
AcDbDictionary
280
     1
281
     1
  3
ACAD_XREC_ROUNDTRIP
360
44D
  0
DICTIONARY
  5
440
330
34
100
AcDbDictionary
280
     1
281
     1
  3
ACAD_XREC_ROUNDTRIP
360
441
  0
DICTIONARY
  5
442
330
35
100
AcDbDictionary
280
     1
281
     1
  3
ACAD_XREC_ROUNDTRIP
360
443
  0
DICTIONARY
  5
452
330
3D
100
AcDbDictionary
280
     1
281
     1
  3
ACAD_XREC_ROUNDTRIP
360
453
  0
DICTIONARY
  5
44A
330
39
100
AcDbDictionary
280
     1
281
     1
  3
ACAD_XREC_ROUNDTRIP
360
44B
  0
DICTIONARY
  5
42E
330
2B
100
AcDbDictionary
280
     1
281
     1
  3
ACAD_XREC_ROUNDTRIP
360
42F
  0
DICTIONARY
  5
430
330
2C
100
AcDbDictionary
280
     1
281
     1
  3
ACAD_XREC_ROUNDTRIP
360
431
  0
DICTIONARY
  5
432
330
2D
100
AcDbDictionary
280
     1
281
     1
  3
ACAD_XREC_ROUNDTRIP
360
433
  0
DICTIONARY
  5
434
330
2E
100
AcDbDictionary
280
     1
281
     1
  3
ACAD_XREC_ROUNDTRIP
360
435
  0
DICTIONARY
  5
43A
330
31
100
AcDbDictionary
280
     1
281
     1
  3
ACAD_XREC_ROUNDTRIP
360
43B
  0
DICTIONARY
  5
44E
330
3B
100
AcDbDictionary
280
     1
281
     1
  3
ACAD_XREC_ROUNDTRIP
360
44F
  0
DICTIONARY
  5
448
330
38
100
AcDbDictionary
280
     1
281
     1
  3
ACAD_XREC_ROUNDTRIP
360
449
  0
DICTIONARY
  5
450
330
3C
100
AcDbDictionary
280
     1
281
     1
  3
ACAD_XREC_ROUNDTRIP
360
451
  0
DICTIONARY
  5
43E
330
33
100
AcDbDictionary
280
     1
281
     1
  3
ACAD_XREC_ROUNDTRIP
360
43F
  0
DICTIONARY
  5
45C
330
42
100
AcDbDictionary
280
     1
281
     1
  3
ACAD_XREC_ROUNDTRIP
360
45D
  0
DICTIONARY
  5
45A
330
41
100
AcDbDictionary
280
     1
281
     1
  3
ACAD_XREC_ROUNDTRIP
360
45B
  0
DICTIONARY
  5
454
330
3E
100
AcDbDictionary
280
     1
281
     1
  3
ACAD_XREC_ROUNDTRIP
360
455
  0
DICTIONARY
  5
456
330
3F
100
AcDbDictionary
280
     1
281
     1
  3
ACAD_XREC_ROUNDTRIP
360
457
  0
DICTIONARY
  5
446
330
37
100
AcDbDictionary
280
     1
281
     1
  3
ACAD_XREC_ROUNDTRIP
360
447
  0
DICTIONARY
  5
438
330
30
100
AcDbDictionary
280
     1
281
     1
  3
ACAD_XREC_ROUNDTRIP
360
439
  0
DICTIONARY
  5
458
330
40
100
AcDbDictionary
280
     1
281
     1
  3
ACAD_XREC_ROUNDTRIP
360
459
  0
XRECORD
  5
461
102
{ACAD_REACTORS
330
460
102
}
330
460
100
AcDbXrecord
280
     1
102
MATERIAL
148
0.0
149
0.0
149
0.0
 93
        0
 94
      127
282
     0
 72
     1
 77
     1
171
     1
175
     1
179
     1
273
     0
  0
XRECORD
  5
45F
102
{ACAD_REACTORS
330
45E
102
}
330
45E
100
AcDbXrecord
280
     1
102
MATERIAL
148
0.0
149
0.0
149
0.0
 93
        0
 94
      127
282
     0
 72
     1
 77
     1
171
     1
175
     1
179
     1
273
     0
  0
XRECORD
  5
463
102
{ACAD_REACTORS
330
462
102
}
330
462
100
AcDbXrecord
280
     1
102
MATERIAL
148
0.0
149
0.0
149
0.0
 93
        0
 94
      127
282
     0
 72
     1
 77
     1
171
     1
175
     1
179
     1
273
     0
  0
XRECORD
  5
469
102
{ACAD_REACTORS
330
468
102
}
330
468
100
AcDbXrecord
280
     1
102
ACAD_ROUNDTRIP_2010_MLEADER_STYLE
  0
CELLSTYLEMAP
  5
466
102
{ACAD_REACTORS
330
464
102
}
330
464
100
AcDbCellStyleMap
 90
        3
300
CELLSTYLE
  1
TABLEFORMAT_BEGIN
 90
        5
170
     1
 91
        0
 92
    32768
 62
   257
 93
        1
300
CONTENTFORMAT
  1
CONTENTFORMAT_BEGIN
 90
        0
 91
        0
 92
        4
 93
        0
300

 40
0.0
140
1.0
 94
        5
 62
     0
340
11
144
6.0
309
CONTENTFORMAT_END
171
     1
301
MARGIN
  1
CELLMARGIN_BEGIN
 40
1.5
 40
1.5
 40
1.5
 40
1.5
 40
1.5
 40
1.5
309
CELLMARGIN_END
 94
        6
 95
        1
302
GRIDFORMAT
  1
GRIDFORMAT_BEGIN
 90
        0
 91
        1
 62
     0
 92
       -2
340
14
 93
        0
 40
0.045
309
GRIDFORMAT_END
 95
        2
302
GRIDFORMAT
  1
GRIDFORMAT_BEGIN
 90
        0
 91
        1
 62
     0
 92
       -2
340
14
 93
        0
 40
0.045
309
GRIDFORMAT_END
 95
        4
302
GRIDFORMAT
  1
GRIDFORMAT_BEGIN
 90
        0
 91
        1
 62
     0
 92
       -2
340
14
 93
        0
 40
0.045
309
GRIDFORMAT_END
 95
        8
302
GRIDFORMAT
  1
GRIDFORMAT_BEGIN
 90
        0
 91
        1
 62
     0
 92
       -2
340
14
 93
        0
 40
0.045
309
GRIDFORMAT_END
 95
       16
302
GRIDFORMAT
  1
GRIDFORMAT_BEGIN
 90
        0
 91
        1
 62
     0
 92
       -2
340
14
 93
        0
 40
0.045
309
GRIDFORMAT_END
 95
       32
302
GRIDFORMAT
  1
GRIDFORMAT_BEGIN
 90
        0
 91
        1
 62
     0
 92
       -2
340
14
 93
        0
 40
0.045
309
GRIDFORMAT_END
309
TABLEFORMAT_END
  1
CELLSTYLE_BEGIN
 90
        1
 91
        1
300
_TITLE
309
CELLSTYLE_END
300
CELLSTYLE
  1
TABLEFORMAT_BEGIN
 90
        5
170
     1
 91
        0
 92
        0
 62
   257
 93
        1
300
CONTENTFORMAT
  1
CONTENTFORMAT_BEGIN
 90
        0
 91
        0
 92
        4
 93
        0
300

 40
0.0
140
1.0
 94
        5
 62
     0
340
11
144
4.5
309
CONTENTFORMAT_END
171
     1
301
MARGIN
  1
CELLMARGIN_BEGIN
 40
1.5
 40
1.5
 40
1.5
 40
1.5
 40
1.5
 40
1.5
309
CELLMARGIN_END
 94
        6
 95
        1
302
GRIDFORMAT
  1
GRIDFORMAT_BEGIN
 90
        0
 91
        1
 62
     0
 92
       -2
340
14
 93
        0
 40
0.045
309
GRIDFORMAT_END
 95
        2
302
GRIDFORMAT
  1
GRIDFORMAT_BEGIN
 90
        0
 91
        1
 62
     0
 92
       -2
340
14
 93
        0
 40
0.045
309
GRIDFORMAT_END
 95
        4
302
GRIDFORMAT
  1
GRIDFORMAT_BEGIN
 90
        0
 91
        1
 62
     0
 92
       -2
340
14
 93
        0
 40
0.045
309
GRIDFORMAT_END
 95
        8
302
GRIDFORMAT
  1
GRIDFORMAT_BEGIN
 90
        0
 91
        1
 62
     0
 92
       -2
340
14
 93
        0
 40
0.045
309
GRIDFORMAT_END
 95
       16
302
GRIDFORMAT
  1
GRIDFORMAT_BEGIN
 90
        0
 91
        1
 62
     0
 92
       -2
340
14
 93
        0
 40
0.045
309
GRIDFORMAT_END
 95
       32
302
GRIDFORMAT
  1
GRIDFORMAT_BEGIN
 90
        0
 91
        1
 62
     0
 92
       -2
340
14
 93
        0
 40
0.045
309
GRIDFORMAT_END
309
TABLEFORMAT_END
  1
CELLSTYLE_BEGIN
 90
        2
 91
        1
300
_HEADER
309
CELLSTYLE_END
300
CELLSTYLE
  1
TABLEFORMAT_BEGIN
 90
        5
170
     1
 91
        0
 92
        0
 62
   257
 93
        1
300
CONTENTFORMAT
  1
CONTENTFORMAT_BEGIN
 90
        0
 91
        0
 92
        4
 93
        0
300

 40
0.0
140
1.0
 94
        2
 62
     0
340
11
144
4.5
309
CONTENTFORMAT_END
171
     1
301
MARGIN
  1
CELLMARGIN_BEGIN
 40
1.5
 40
1.5
 40
1.5
 40
1.5
 40
1.5
 40
1.5
309
CELLMARGIN_END
 94
        6
 95
        1
302
GRIDFORMAT
  1
GRIDFORMAT_BEGIN
 90
        0
 91
        1
 62
     0
 92
       -2
340
14
 93
        0
 40
0.045
309
GRIDFORMAT_END
 95
        2
302
GRIDFORMAT
  1
GRIDFORMAT_BEGIN
 90
        0
 91
        1
 62
     0
 92
       -2
340
14
 93
        0
 40
0.045
309
GRIDFORMAT_END
 95
        4
302
GRIDFORMAT
  1
GRIDFORMAT_BEGIN
 90
        0
 91
        1
 62
     0
 92
       -2
340
14
 93
        0
 40
0.045
309
GRIDFORMAT_END
 95
        8
302
GRIDFORMAT
  1
GRIDFORMAT_BEGIN
 90
        0
 91
        1
 62
     0
 92
       -2
340
14
 93
        0
 40
0.045
309
GRIDFORMAT_END
 95
       16
302
GRIDFORMAT
  1
GRIDFORMAT_BEGIN
 90
        0
 91
        1
 62
     0
 92
       -2
340
14
 93
        0
 40
0.045
309
GRIDFORMAT_END
 95
       32
302
GRIDFORMAT
  1
GRIDFORMAT_BEGIN
 90
        0
 91
        1
 62
     0
 92
       -2
340
14
 93
        0
 40
0.045
309
GRIDFORMAT_END
309
TABLEFORMAT_END
  1
CELLSTYLE_BEGIN
 90
        3
 91
        2
300
_DATA
309
CELLSTYLE_END
  0
XRECORD
  5
465
102
{ACAD_REACTORS
330
464
102
}
330
464
100
AcDbXrecord
280
     1
102
ACAD_ROUNDTRIP_PRE2007_TABLESTYLE
 90
        4
 91
        0
  1

 92
        4
 93
        0
  2

 94
        4
 95
        0
  3

  0
XRECORD
  5
437
102
{ACAD_REACTORS
330
436
102
}
330
436
100
AcDbXrecord
280
     1
102
RTVSPropertyOp0
 70
     1
102
RTVSPropertyOp1
 70
     1
102
RTVSPropertyOp2
 70
     1
102
RTVSPropertyOp3
 70
     1
102
RTVSPropertyOp4
 70
     1
102
RTVSPropertyOp5
 70
     1
102
RTVSPropertyOp6
 70
     1
102
RTVSPropertyOp7
 70
     1
102
RTVSPropertyOp8
 70
     1
102
RTVSPropertyOp9
 70
     1
102
RTVSPropertyOp10
 70
     1
102
RTVSPropertyOp11
 70
     1
102
RTVSPropertyOp12
 70
     1
102
RTVSPropertyOp13
 70
     1
102
RTVSPropertyOp14
 70
     1
102
RTVSPropertyOp15
 70
     1
102
RTVSPropertyOp16
 70
     1
102
RTVSPropertyOp17
 70
     1
102
RTVSPropertyOp18
 70
     1
102
RTVSPropertyOp19
 70
     1
102
RTVSPropertyOp20
 70
     1
102
RTVSPropertyOp21
 70
     1
102
RTVSPropertyOp22
 70
     1
102
RTVSPropertyOp23
 70
     1
102
RTVSPropertyOp24
 70
     1
102
RTVSPropertyOp25
 70
     1
102
RTVSPropertyOp26
 70
     1
102
RTVSPropertyOp27
 70
     1
102
RTVSPropertyOp28
 70
     1
102
RTVSPropertyOp29
 70
     1
102
RTVSPropertyOp30
 70
     1
102
RTVSPropertyOp31
 70
     1
102
RTVSPropertyOp32
 70
     1
102
RTVSPropertyOp33
 70
     1
102
RTVSPropertyOp34
 70
     1
102
RTVSPropertyOp35
 70
     1
102
RTVSPropertyOp36
 70
     1
102
RTVSPropertyOp37
 70
     1
102
RTVSPropertyOp38
 70
     1
102
RTVSPropertyOp39
 70
     1
102
RTVSPropertyOp40
 70
     1
102
RTVSPropertyOp41
 70
     1
102
RTVSPropertyOp42
 70
     1
102
RTVSPropertyOp43
 70
     1
102
RTVSPropertyOp44
 70
     1
102
RTVSPropertyOp45
 70
     1
102
RTVSPropertyOp46
 70
     1
102
RTVSPropertyOp47
 70
     1
102
RTVSPropertyOp48
 70
     1
102
RTVSPropertyOp49
 70
     1
102
RTVSPropertyOp50
 70
     1
102
RTVSPropertyOp51
 70
     0
102
RTVSPropertyOp52
 70
     0
102
RTVSPropertyOp53
 70
     1
102
RTVSPropertyOp54
 70
     1
102
RTVSPropertyOp55
 70
     1
102
RTVSPropertyOp56
 70
     1
102
RTVSPropertyOp57
 70
     1
102
RTVSPost2010Prop28
280
     1
102
RTVSPost2010PropOp28
 70
     1
102
RTVSPost2010Prop29
280
     1
102
RTVSPost2010PropOp29
 70
     1
102
RTVSPost2010Prop30
280
     0
102
RTVSPost2010PropOp30
 70
     1
102
RTVSPost2010Prop31
280
     0
102
RTVSPost2010PropOp31
 70
     1
102
RTVSPost2010Prop32
280
     0
102
RTVSPost2010PropOp32
 70
     1
102
RTVSPost2010Prop33
280
     0
102
RTVSPost2010PropOp33
 70
     1
102
RTVSPost2010Prop34
280
     0
102
RTVSPost2010PropOp34
 70
     1
102
RTVSPost2010Prop35
280
     0
102
RTVSPost2010PropOp35
 70
     1
102
RTVSPost2010Prop36
280
     0
102
RTVSPost2010PropOp36
 70
     1
102
RTVSPost2010Prop37
 90
       50
102
RTVSPost2010PropOp37
 70
     1
102
RTVSPost2010Prop38
140
0.0
102
RTVSPost2010PropOp38
 70
     1
102
RTVSPost2010Prop39
140
1.0
102
RTVSPost2010PropOp39
 70
     1
102
RTVSPost2010Prop40
 90
        0
102
RTVSPost2010PropOp40
 70
     1
102
RTVSPost2010Prop41ColorIndex
 90
       18
102
RTVSPost2010Prop41ColorRGB
 90
        0
102
RTVSPost2010PropOp41
 70
     1
102
RTVSPost2010Prop42
 90
       50
102
RTVSPost2010PropOp42
 70
     1
102
RTVSPost2010Prop43
 90
        3
102
RTVSPost2010PropOp43
 70
     1
102
RTVSPost2010Prop44ColorIndex
 90
        5
102
RTVSPost2010Prop44ColorRGB
 90
      255
102
RTVSPost2010PropOp44
 70
     1
102
RTVSPost2010Prop45
280
     0
102
RTVSPost2010PropOp45
 70
     1
102
RTVSPost2010Prop46
 90
       50
102
RTVSPost2010PropOp46
 70
     1
102
RTVSPost2010Prop47
 90
       50
102
RTVSPost2010PropOp47
 70
     1
102
RTVSPost2010Prop48
 90
       50
102
RTVSPost2010PropOp48
 70
     1
102
RTVSPost2010Prop49
280
     0
102
RTVSPost2010PropOp49
 70
     1
102
RTVSPost2010Prop50
 90
       50
102
RTVSPost2010PropOp50
 70
     1
102
RTVSPost2010Prop51ColorIndex
 90
      256
102
RTVSPost2010Prop51ColorRGB
 90
-16777216
102
RTVSPost2010PropOp51
 70
     0
102
RTVSPost2010Prop52
140
1.0
102
RTVSPost2010PropOp52
 70
     0
102
RTVSPost2010Prop53
 90
        2
102
RTVSPost2010PropOp53
 70
     1
102
RTVSPost2010Prop54
  1
strokes_ogs.tif
102
RTVSPost2010PropOp54
 70
     1
102
RTVSPost2010Prop55
280
     0
102
RTVSPost2010PropOp55
 70
     1
102
RTVSPost2010Prop56
140
1.0
102
RTVSPost2010PropOp56
 70
     1
102
RTVSPost2010Prop57
140
1.0
102
RTVSPost2010PropOp57
 70
     1
  0
XRECORD
  5
43D
102
{ACAD_REACTORS
330
43C
102
}
330
43C
100
AcDbXrecord
280
     1
102
RTVSPropertyOp0
 70
     1
102
RTVSPropertyOp1
 70
     1
102
RTVSPropertyOp2
 70
     1
102
RTVSPropertyOp3
 70
     1
102
RTVSPropertyOp4
 70
     1
102
RTVSPropertyOp5
 70
     1
102
RTVSPropertyOp6
 70
     1
102
RTVSPropertyOp7
 70
     1
102
RTVSPropertyOp8
 70
     1
102
RTVSPropertyOp9
 70
     1
102
RTVSPropertyOp10
 70
     1
102
RTVSPropertyOp11
 70
     1
102
RTVSPropertyOp12
 70
     1
102
RTVSPropertyOp13
 70
     1
102
RTVSPropertyOp14
 70
     1
102
RTVSPropertyOp15
 70
     1
102
RTVSPropertyOp16
 70
     1
102
RTVSPropertyOp17
 70
     1
102
RTVSPropertyOp18
 70
     1
102
RTVSPropertyOp19
 70
     1
102
RTVSPropertyOp20
 70
     1
102
RTVSPropertyOp21
 70
     1
102
RTVSPropertyOp22
 70
     1
102
RTVSPropertyOp23
 70
     1
102
RTVSPropertyOp24
 70
     1
102
RTVSPropertyOp25
 70
     1
102
RTVSPropertyOp26
 70
     1
102
RTVSPropertyOp27
 70
     1
102
RTVSPropertyOp28
 70
     1
102
RTVSPropertyOp29
 70
     1
102
RTVSPropertyOp30
 70
     1
102
RTVSPropertyOp31
 70
     1
102
RTVSPropertyOp32
 70
     1
102
RTVSPropertyOp33
 70
     1
102
RTVSPropertyOp34
 70
     1
102
RTVSPropertyOp35
 70
     1
102
RTVSPropertyOp36
 70
     1
102
RTVSPropertyOp37
 70
     1
102
RTVSPropertyOp38
 70
     1
102
RTVSPropertyOp39
 70
     1
102
RTVSPropertyOp40
 70
     1
102
RTVSPropertyOp41
 70
     1
102
RTVSPropertyOp42
 70
     1
102
RTVSPropertyOp43
 70
     1
102
RTVSPropertyOp44
 70
     1
102
RTVSPropertyOp45
 70
     1
102
RTVSPropertyOp46
 70
     1
102
RTVSPropertyOp47
 70
     1
102
RTVSPropertyOp48
 70
     1
102
RTVSPropertyOp49
 70
     1
102
RTVSPropertyOp50
 70
     1
102
RTVSPropertyOp51
 70
     0
102
RTVSPropertyOp52
 70
     0
102
RTVSPropertyOp53
 70
     1
102
RTVSPropertyOp54
 70
     1
102
RTVSPropertyOp55
 70
     1
102
RTVSPropertyOp56
 70
     1
102
RTVSPropertyOp57
 70
     1
102
RTVSPost2010Prop28
280
     0
102
RTVSPost2010PropOp28
 70
     1
102
RTVSPost2010Prop29
280
     1
102
RTVSPost2010PropOp29
 70
     1
102
RTVSPost2010Prop30
280
     1
102
RTVSPost2010PropOp30
 70
     1
102
RTVSPost2010Prop31
280
     0
102
RTVSPost2010PropOp31
 70
     1
102
RTVSPost2010Prop32
280
     0
102
RTVSPost2010PropOp32
 70
     1
102
RTVSPost2010Prop33
280
     0
102
RTVSPost2010PropOp33
 70
     1
102
RTVSPost2010Prop34
280
     0
102
RTVSPost2010PropOp34
 70
     1
102
RTVSPost2010Prop35
280
     0
102
RTVSPost2010PropOp35
 70
     1
102
RTVSPost2010Prop36
280
     0
102
RTVSPost2010PropOp36
 70
     1
102
RTVSPost2010Prop37
 90
       50
102
RTVSPost2010PropOp37
 70
     1
102
RTVSPost2010Prop38
140
0.0
102
RTVSPost2010PropOp38
 70
     1
102
RTVSPost2010Prop39
140
1.0
102
RTVSPost2010PropOp39
 70
     1
102
RTVSPost2010Prop40
 90
        0
102
RTVSPost2010PropOp40
 70
     1
102
RTVSPost2010Prop41ColorIndex
 90
       18
102
RTVSPost2010Prop41ColorRGB
 90
        0
102
RTVSPost2010PropOp41
 70
     1
102
RTVSPost2010Prop42
 90
       50
102
RTVSPost2010PropOp42
 70
     1
102
RTVSPost2010Prop43
 90
        3
102
RTVSPost2010PropOp43
 70
     1
102
RTVSPost2010Prop44ColorIndex
 90
        5
102
RTVSPost2010Prop44ColorRGB
 90
      255
102
RTVSPost2010PropOp44
 70
     1
102
RTVSPost2010Prop45
280
     0
102
RTVSPost2010PropOp45
 70
     1
102
RTVSPost2010Prop46
 90
       50
102
RTVSPost2010PropOp46
 70
     1
102
RTVSPost2010Prop47
 90
       50
102
RTVSPost2010PropOp47
 70
     1
102
RTVSPost2010Prop48
 90
       50
102
RTVSPost2010PropOp48
 70
     1
102
RTVSPost2010Prop49
280
     0
102
RTVSPost2010PropOp49
 70
     1
102
RTVSPost2010Prop50
 90
       50
102
RTVSPost2010PropOp50
 70
     1
102
RTVSPost2010Prop51ColorIndex
 90
      256
102
RTVSPost2010Prop51ColorRGB
 90
-16777216
102
RTVSPost2010PropOp51
 70
     0
102
RTVSPost2010Prop52
140
1.0
102
RTVSPost2010PropOp52
 70
     0
102
RTVSPost2010Prop53
 90
        2
102
RTVSPost2010PropOp53
 70
     1
102
RTVSPost2010Prop54
  1
strokes_ogs.tif
102
RTVSPost2010PropOp54
 70
     1
102
RTVSPost2010Prop55
280
     0
102
RTVSPost2010PropOp55
 70
     1
102
RTVSPost2010Prop56
140
1.0
102
RTVSPost2010PropOp56
 70
     1
102
RTVSPost2010Prop57
140
1.0
102
RTVSPost2010PropOp57
 70
     1
  0
XRECORD
  5
445
102
{ACAD_REACTORS
330
444
102
}
330
444
100
AcDbXrecord
280
     1
102
RTVSPropertyOp0
 70
     1
102
RTVSPropertyOp1
 70
     1
102
RTVSPropertyOp2
 70
     1
102
RTVSPropertyOp3
 70
     1
102
RTVSPropertyOp4
 70
     1
102
RTVSPropertyOp5
 70
     1
102
RTVSPropertyOp6
 70
     1
102
RTVSPropertyOp7
 70
     1
102
RTVSPropertyOp8
 70
     1
102
RTVSPropertyOp9
 70
     1
102
RTVSPropertyOp10
 70
     1
102
RTVSPropertyOp11
 70
     1
102
RTVSPropertyOp12
 70
     1
102
RTVSPropertyOp13
 70
     1
102
RTVSPropertyOp14
 70
     1
102
RTVSPropertyOp15
 70
     1
102
RTVSPropertyOp16
 70
     1
102
RTVSPropertyOp17
 70
     1
102
RTVSPropertyOp18
 70
     1
102
RTVSPropertyOp19
 70
     1
102
RTVSPropertyOp20
 70
     1
102
RTVSPropertyOp21
 70
     1
102
RTVSPropertyOp22
 70
     1
102
RTVSPropertyOp23
 70
     1
102
RTVSPropertyOp24
 70
     1
102
RTVSPropertyOp25
 70
     1
102
RTVSPropertyOp26
 70
     1
102
RTVSPropertyOp27
 70
     1
102
RTVSPropertyOp28
 70
     1
102
RTVSPropertyOp29
 70
     1
102
RTVSPropertyOp30
 70
     1
102
RTVSPropertyOp31
 70
     1
102
RTVSPropertyOp32
 70
     1
102
RTVSPropertyOp33
 70
     1
102
RTVSPropertyOp34
 70
     1
102
RTVSPropertyOp35
 70
     1
102
RTVSPropertyOp36
 70
     1
102
RTVSPropertyOp37
 70
     1
102
RTVSPropertyOp38
 70
     1
102
RTVSPropertyOp39
 70
     1
102
RTVSPropertyOp40
 70
     1
102
RTVSPropertyOp41
 70
     1
102
RTVSPropertyOp42
 70
     1
102
RTVSPropertyOp43
 70
     1
102
RTVSPropertyOp44
 70
     1
102
RTVSPropertyOp45
 70
     1
102
RTVSPropertyOp46
 70
     1
102
RTVSPropertyOp47
 70
     1
102
RTVSPropertyOp48
 70
     1
102
RTVSPropertyOp49
 70
     1
102
RTVSPropertyOp50
 70
     1
102
RTVSPropertyOp51
 70
     0
102
RTVSPropertyOp52
 70
     0
102
RTVSPropertyOp53
 70
     1
102
RTVSPropertyOp54
 70
     1
102
RTVSPropertyOp55
 70
     1
102
RTVSPropertyOp56
 70
     1
102
RTVSPropertyOp57
 70
     1
102
RTVSPost2010Prop28
280
     0
102
RTVSPost2010PropOp28
 70
     1
102
RTVSPost2010Prop29
280
     1
102
RTVSPost2010PropOp29
 70
     1
102
RTVSPost2010Prop30
280
     1
102
RTVSPost2010PropOp30
 70
     1
102
RTVSPost2010Prop31
280
     0
102
RTVSPost2010PropOp31
 70
     1
102
RTVSPost2010Prop32
280
     0
102
RTVSPost2010PropOp32
 70
     1
102
RTVSPost2010Prop33
280
     0
102
RTVSPost2010PropOp33
 70
     1
102
RTVSPost2010Prop34
280
     0
102
RTVSPost2010PropOp34
 70
     1
102
RTVSPost2010Prop35
280
     0
102
RTVSPost2010PropOp35
 70
     1
102
RTVSPost2010Prop36
280
     0
102
RTVSPost2010PropOp36
 70
     1
102
RTVSPost2010Prop37
 90
       50
102
RTVSPost2010PropOp37
 70
     1
102
RTVSPost2010Prop38
140
0.0
102
RTVSPost2010PropOp38
 70
     1
102
RTVSPost2010Prop39
140
1.0
102
RTVSPost2010PropOp39
 70
     1
102
RTVSPost2010Prop40
 90
        0
102
RTVSPost2010PropOp40
 70
     1
102
RTVSPost2010Prop41ColorIndex
 90
       18
102
RTVSPost2010Prop41ColorRGB
 90
        0
102
RTVSPost2010PropOp41
 70
     1
102
RTVSPost2010Prop42
 90
       50
102
RTVSPost2010PropOp42
 70
     1
102
RTVSPost2010Prop43
 90
        3
102
RTVSPost2010PropOp43
 70
     1
102
RTVSPost2010Prop44ColorIndex
 90
        5
102
RTVSPost2010Prop44ColorRGB
 90
      255
102
RTVSPost2010PropOp44
 70
     1
102
RTVSPost2010Prop45
280
     0
102
RTVSPost2010PropOp45
 70
     1
102
RTVSPost2010Prop46
 90
       50
102
RTVSPost2010PropOp46
 70
     1
102
RTVSPost2010Prop47
 90
       50
102
RTVSPost2010PropOp47
 70
     1
102
RTVSPost2010Prop48
 90
       50
102
RTVSPost2010PropOp48
 70
     1
102
RTVSPost2010Prop49
280
     0
102
RTVSPost2010PropOp49
 70
     1
102
RTVSPost2010Prop50
 90
       50
102
RTVSPost2010PropOp50
 70
     1
102
RTVSPost2010Prop51ColorIndex
 90
      256
102
RTVSPost2010Prop51ColorRGB
 90
-16777216
102
RTVSPost2010PropOp51
 70
     0
102
RTVSPost2010Prop52
140
1.0
102
RTVSPost2010PropOp52
 70
     0
102
RTVSPost2010Prop53
 90
        2
102
RTVSPost2010PropOp53
 70
     1
102
RTVSPost2010Prop54
  1
strokes_ogs.tif
102
RTVSPost2010PropOp54
 70
     1
102
RTVSPost2010Prop55
280
     0
102
RTVSPost2010PropOp55
 70
     1
102
RTVSPost2010Prop56
140
1.0
102
RTVSPost2010PropOp56
 70
     1
102
RTVSPost2010Prop57
140
1.0
102
RTVSPost2010PropOp57
 70
     1
  0
XRECORD
  5
44D
102
{ACAD_REACTORS
330
44C
102
}
330
44C
100
AcDbXrecord
280
     1
102
RTVSPropertyOp0
 70
     1
102
RTVSPropertyOp1
 70
     1
102
RTVSPropertyOp2
 70
     1
102
RTVSPropertyOp3
 70
     1
102
RTVSPropertyOp4
 70
     1
102
RTVSPropertyOp5
 70
     1
102
RTVSPropertyOp6
 70
     1
102
RTVSPropertyOp7
 70
     1
102
RTVSPropertyOp8
 70
     1
102
RTVSPropertyOp9
 70
     1
102
RTVSPropertyOp10
 70
     1
102
RTVSPropertyOp11
 70
     1
102
RTVSPropertyOp12
 70
     1
102
RTVSPropertyOp13
 70
     1
102
RTVSPropertyOp14
 70
     1
102
RTVSPropertyOp15
 70
     1
102
RTVSPropertyOp16
 70
     1
102
RTVSPropertyOp17
 70
     1
102
RTVSPropertyOp18
 70
     1
102
RTVSPropertyOp19
 70
     1
102
RTVSPropertyOp20
 70
     1
102
RTVSPropertyOp21
 70
     1
102
RTVSPropertyOp22
 70
     1
102
RTVSPropertyOp23
 70
     1
102
RTVSPropertyOp24
 70
     1
102
RTVSPropertyOp25
 70
     1
102
RTVSPropertyOp26
 70
     1
102
RTVSPropertyOp27
 70
     1
102
RTVSPropertyOp28
 70
     1
102
RTVSPropertyOp29
 70
     1
102
RTVSPropertyOp30
 70
     1
102
RTVSPropertyOp31
 70
     1
102
RTVSPropertyOp32
 70
     1
102
RTVSPropertyOp33
 70
     1
102
RTVSPropertyOp34
 70
     1
102
RTVSPropertyOp35
 70
     1
102
RTVSPropertyOp36
 70
     1
102
RTVSPropertyOp37
 70
     1
102
RTVSPropertyOp38
 70
     1
102
RTVSPropertyOp39
 70
     1
102
RTVSPropertyOp40
 70
     1
102
RTVSPropertyOp41
 70
     1
102
RTVSPropertyOp42
 70
     1
102
RTVSPropertyOp43
 70
     1
102
RTVSPropertyOp44
 70
     1
102
RTVSPropertyOp45
 70
     1
102
RTVSPropertyOp46
 70
     1
102
RTVSPropertyOp47
 70
     1
102
RTVSPropertyOp48
 70
     1
102
RTVSPropertyOp49
 70
     1
102
RTVSPropertyOp50
 70
     1
102
RTVSPropertyOp51
 70
     0
102
RTVSPropertyOp52
 70
     0
102
RTVSPropertyOp53
 70
     1
102
RTVSPropertyOp54
 70
     1
102
RTVSPropertyOp55
 70
     1
102
RTVSPropertyOp56
 70
     1
102
RTVSPropertyOp57
 70
     1
102
RTVSPost2010Prop28
280
     0
102
RTVSPost2010PropOp28
 70
     1
102
RTVSPost2010Prop29
280
     1
102
RTVSPost2010PropOp29
 70
     1
102
RTVSPost2010Prop30
280
     1
102
RTVSPost2010PropOp30
 70
     1
102
RTVSPost2010Prop31
280
     0
102
RTVSPost2010PropOp31
 70
     1
102
RTVSPost2010Prop32
280
     0
102
RTVSPost2010PropOp32
 70
     1
102
RTVSPost2010Prop33
280
     0
102
RTVSPost2010PropOp33
 70
     1
102
RTVSPost2010Prop34
280
     0
102
RTVSPost2010PropOp34
 70
     1
102
RTVSPost2010Prop35
280
     0
102
RTVSPost2010PropOp35
 70
     1
102
RTVSPost2010Prop36
280
     0
102
RTVSPost2010PropOp36
 70
     1
102
RTVSPost2010Prop37
 90
       50
102
RTVSPost2010PropOp37
 70
     1
102
RTVSPost2010Prop38
140
0.0
102
RTVSPost2010PropOp38
 70
     1
102
RTVSPost2010Prop39
140
1.0
102
RTVSPost2010PropOp39
 70
     1
102
RTVSPost2010Prop40
 90
        0
102
RTVSPost2010PropOp40
 70
     1
102
RTVSPost2010Prop41ColorIndex
 90
       18
102
RTVSPost2010Prop41ColorRGB
 90
        0
102
RTVSPost2010PropOp41
 70
     1
102
RTVSPost2010Prop42
 90
       50
102
RTVSPost2010PropOp42
 70
     1
102
RTVSPost2010Prop43
 90
        3
102
RTVSPost2010PropOp43
 70
     1
102
RTVSPost2010Prop44ColorIndex
 90
        5
102
RTVSPost2010Prop44ColorRGB
 90
      255
102
RTVSPost2010PropOp44
 70
     1
102
RTVSPost2010Prop45
280
     0
102
RTVSPost2010PropOp45
 70
     1
102
RTVSPost2010Prop46
 90
       50
102
RTVSPost2010PropOp46
 70
     1
102
RTVSPost2010Prop47
 90
       50
102
RTVSPost2010PropOp47
 70
     1
102
RTVSPost2010Prop48
 90
       50
102
RTVSPost2010PropOp48
 70
     1
102
RTVSPost2010Prop49
280
     0
102
RTVSPost2010PropOp49
 70
     1
102
RTVSPost2010Prop50
 90
       50
102
RTVSPost2010PropOp50
 70
     1
102
RTVSPost2010Prop51ColorIndex
 90
      256
102
RTVSPost2010Prop51ColorRGB
 90
-16777216
102
RTVSPost2010PropOp51
 70
     0
102
RTVSPost2010Prop52
140
1.0
102
RTVSPost2010PropOp52
 70
     0
102
RTVSPost2010Prop53
 90
        2
102
RTVSPost2010PropOp53
 70
     1
102
RTVSPost2010Prop54
  1
strokes_ogs.tif
102
RTVSPost2010PropOp54
 70
     1
102
RTVSPost2010Prop55
280
     0
102
RTVSPost2010PropOp55
 70
     1
102
RTVSPost2010Prop56
140
1.0
102
RTVSPost2010PropOp56
 70
     1
102
RTVSPost2010Prop57
140
1.0
102
RTVSPost2010PropOp57
 70
     1
  0
XRECORD
  5
441
102
{ACAD_REACTORS
330
440
102
}
330
440
100
AcDbXrecord
280
     1
102
RTVSPropertyOp0
 70
     1
102
RTVSPropertyOp1
 70
     1
102
RTVSPropertyOp2
 70
     1
102
RTVSPropertyOp3
 70
     1
102
RTVSPropertyOp4
 70
     1
102
RTVSPropertyOp5
 70
     1
102
RTVSPropertyOp6
 70
     1
102
RTVSPropertyOp7
 70
     1
102
RTVSPropertyOp8
 70
     1
102
RTVSPropertyOp9
 70
     1
102
RTVSPropertyOp10
 70
     1
102
RTVSPropertyOp11
 70
     1
102
RTVSPropertyOp12
 70
     1
102
RTVSPropertyOp13
 70
     1
102
RTVSPropertyOp14
 70
     1
102
RTVSPropertyOp15
 70
     1
102
RTVSPropertyOp16
 70
     1
102
RTVSPropertyOp17
 70
     1
102
RTVSPropertyOp18
 70
     1
102
RTVSPropertyOp19
 70
     1
102
RTVSPropertyOp20
 70
     1
102
RTVSPropertyOp21
 70
     1
102
RTVSPropertyOp22
 70
     1
102
RTVSPropertyOp23
 70
     1
102
RTVSPropertyOp24
 70
     1
102
RTVSPropertyOp25
 70
     1
102
RTVSPropertyOp26
 70
     1
102
RTVSPropertyOp27
 70
     1
102
RTVSPropertyOp28
 70
     1
102
RTVSPropertyOp29
 70
     1
102
RTVSPropertyOp30
 70
     1
102
RTVSPropertyOp31
 70
     1
102
RTVSPropertyOp32
 70
     1
102
RTVSPropertyOp33
 70
     1
102
RTVSPropertyOp34
 70
     1
102
RTVSPropertyOp35
 70
     1
102
RTVSPropertyOp36
 70
     1
102
RTVSPropertyOp37
 70
     1
102
RTVSPropertyOp38
 70
     1
102
RTVSPropertyOp39
 70
     1
102
RTVSPropertyOp40
 70
     1
102
RTVSPropertyOp41
 70
     1
102
RTVSPropertyOp42
 70
     1
102
RTVSPropertyOp43
 70
     1
102
RTVSPropertyOp44
 70
     1
102
RTVSPropertyOp45
 70
     1
102
RTVSPropertyOp46
 70
     1
102
RTVSPropertyOp47
 70
     1
102
RTVSPropertyOp48
 70
     1
102
RTVSPropertyOp49
 70
     1
102
RTVSPropertyOp50
 70
     1
102
RTVSPropertyOp51
 70
     0
102
RTVSPropertyOp52
 70
     0
102
RTVSPropertyOp53
 70
     1
102
RTVSPropertyOp54
 70
     1
102
RTVSPropertyOp55
 70
     1
102
RTVSPropertyOp56
 70
     1
102
RTVSPropertyOp57
 70
     1
102
RTVSPost2010Prop28
280
     0
102
RTVSPost2010PropOp28
 70
     1
102
RTVSPost2010Prop29
280
     1
102
RTVSPost2010PropOp29
 70
     1
102
RTVSPost2010Prop30
280
     1
102
RTVSPost2010PropOp30
 70
     1
102
RTVSPost2010Prop31
280
     0
102
RTVSPost2010PropOp31
 70
     1
102
RTVSPost2010Prop32
280
     0
102
RTVSPost2010PropOp32
 70
     1
102
RTVSPost2010Prop33
280
     0
102
RTVSPost2010PropOp33
 70
     1
102
RTVSPost2010Prop34
280
     0
102
RTVSPost2010PropOp34
 70
     1
102
RTVSPost2010Prop35
280
     0
102
RTVSPost2010PropOp35
 70
     1
102
RTVSPost2010Prop36
280
     0
102
RTVSPost2010PropOp36
 70
     1
102
RTVSPost2010Prop37
 90
       50
102
RTVSPost2010PropOp37
 70
     1
102
RTVSPost2010Prop38
140
0.0
102
RTVSPost2010PropOp38
 70
     1
102
RTVSPost2010Prop39
140
1.0
102
RTVSPost2010PropOp39
 70
     1
102
RTVSPost2010Prop40
 90
        0
102
RTVSPost2010PropOp40
 70
     1
102
RTVSPost2010Prop41ColorIndex
 90
       18
102
RTVSPost2010Prop41ColorRGB
 90
        0
102
RTVSPost2010PropOp41
 70
     1
102
RTVSPost2010Prop42
 90
       50
102
RTVSPost2010PropOp42
 70
     1
102
RTVSPost2010Prop43
 90
        3
102
RTVSPost2010PropOp43
 70
     1
102
RTVSPost2010Prop44ColorIndex
 90
        5
102
RTVSPost2010Prop44ColorRGB
 90
      255
102
RTVSPost2010PropOp44
 70
     1
102
RTVSPost2010Prop45
280
     0
102
RTVSPost2010PropOp45
 70
     1
102
RTVSPost2010Prop46
 90
       50
102
RTVSPost2010PropOp46
 70
     1
102
RTVSPost2010Prop47
 90
       50
102
RTVSPost2010PropOp47
 70
     1
102
RTVSPost2010Prop48
 90
       50
102
RTVSPost2010PropOp48
 70
     1
102
RTVSPost2010Prop49
280
     0
102
RTVSPost2010PropOp49
 70
     1
102
RTVSPost2010Prop50
 90
       50
102
RTVSPost2010PropOp50
 70
     1
102
RTVSPost2010Prop51ColorIndex
 90
      256
102
RTVSPost2010Prop51ColorRGB
 90
-16777216
102
RTVSPost2010PropOp51
 70
     0
102
RTVSPost2010Prop52
140
1.0
102
RTVSPost2010PropOp52
 70
     0
102
RTVSPost2010Prop53
 90
        2
102
RTVSPost2010PropOp53
 70
     1
102
RTVSPost2010Prop54
  1
strokes_ogs.tif
102
RTVSPost2010PropOp54
 70
     1
102
RTVSPost2010Prop55
280
     0
102
RTVSPost2010PropOp55
 70
     1
102
RTVSPost2010Prop56
140
1.0
102
RTVSPost2010PropOp56
 70
     1
102
RTVSPost2010Prop57
140
1.0
102
RTVSPost2010PropOp57
 70
     1
  0
XRECORD
  5
443
102
{ACAD_REACTORS
330
442
102
}
330
442
100
AcDbXrecord
280
     1
102
RTVSPropertyOp0
 70
     1
102
RTVSPropertyOp1
 70
     1
102
RTVSPropertyOp2
 70
     1
102
RTVSPropertyOp3
 70
     1
102
RTVSPropertyOp4
 70
     1
102
RTVSPropertyOp5
 70
     1
102
RTVSPropertyOp6
 70
     1
102
RTVSPropertyOp7
 70
     1
102
RTVSPropertyOp8
 70
     1
102
RTVSPropertyOp9
 70
     1
102
RTVSPropertyOp10
 70
     1
102
RTVSPropertyOp11
 70
     1
102
RTVSPropertyOp12
 70
     1
102
RTVSPropertyOp13
 70
     1
102
RTVSPropertyOp14
 70
     1
102
RTVSPropertyOp15
 70
     1
102
RTVSPropertyOp16
 70
     1
102
RTVSPropertyOp17
 70
     1
102
RTVSPropertyOp18
 70
     1
102
RTVSPropertyOp19
 70
     1
102
RTVSPropertyOp20
 70
     1
102
RTVSPropertyOp21
 70
     1
102
RTVSPropertyOp22
 70
     1
102
RTVSPropertyOp23
 70
     1
102
RTVSPropertyOp24
 70
     1
102
RTVSPropertyOp25
 70
     1
102
RTVSPropertyOp26
 70
     1
102
RTVSPropertyOp27
 70
     1
102
RTVSPropertyOp28
 70
     1
102
RTVSPropertyOp29
 70
     1
102
RTVSPropertyOp30
 70
     1
102
RTVSPropertyOp31
 70
     1
102
RTVSPropertyOp32
 70
     1
102
RTVSPropertyOp33
 70
     1
102
RTVSPropertyOp34
 70
     1
102
RTVSPropertyOp35
 70
     1
102
RTVSPropertyOp36
 70
     1
102
RTVSPropertyOp37
 70
     1
102
RTVSPropertyOp38
 70
     1
102
RTVSPropertyOp39
 70
     1
102
RTVSPropertyOp40
 70
     1
102
RTVSPropertyOp41
 70
     1
102
RTVSPropertyOp42
 70
     1
102
RTVSPropertyOp43
 70
     1
102
RTVSPropertyOp44
 70
     1
102
RTVSPropertyOp45
 70
     1
102
RTVSPropertyOp46
 70
     1
102
RTVSPropertyOp47
 70
     1
102
RTVSPropertyOp48
 70
     1
102
RTVSPropertyOp49
 70
     1
102
RTVSPropertyOp50
 70
     1
102
RTVSPropertyOp51
 70
     0
102
RTVSPropertyOp52
 70
     0
102
RTVSPropertyOp53
 70
     1
102
RTVSPropertyOp54
 70
     1
102
RTVSPropertyOp55
 70
     1
102
RTVSPropertyOp56
 70
     1
102
RTVSPropertyOp57
 70
     1
102
RTVSPost2010Prop28
280
     0
102
RTVSPost2010PropOp28
 70
     1
102
RTVSPost2010Prop29
280
     1
102
RTVSPost2010PropOp29
 70
     1
102
RTVSPost2010Prop30
280
     1
102
RTVSPost2010PropOp30
 70
     1
102
RTVSPost2010Prop31
280
     0
102
RTVSPost2010PropOp31
 70
     1
102
RTVSPost2010Prop32
280
     0
102
RTVSPost2010PropOp32
 70
     1
102
RTVSPost2010Prop33
280
     0
102
RTVSPost2010PropOp33
 70
     1
102
RTVSPost2010Prop34
280
     0
102
RTVSPost2010PropOp34
 70
     1
102
RTVSPost2010Prop35
280
     0
102
RTVSPost2010PropOp35
 70
     1
102
RTVSPost2010Prop36
280
     0
102
RTVSPost2010PropOp36
 70
     1
102
RTVSPost2010Prop37
 90
       50
102
RTVSPost2010PropOp37
 70
     1
102
RTVSPost2010Prop38
140
0.0
102
RTVSPost2010PropOp38
 70
     1
102
RTVSPost2010Prop39
140
1.0
102
RTVSPost2010PropOp39
 70
     1
102
RTVSPost2010Prop40
 90
        0
102
RTVSPost2010PropOp40
 70
     1
102
RTVSPost2010Prop41ColorIndex
 90
       18
102
RTVSPost2010Prop41ColorRGB
 90
        0
102
RTVSPost2010PropOp41
 70
     1
102
RTVSPost2010Prop42
 90
       50
102
RTVSPost2010PropOp42
 70
     1
102
RTVSPost2010Prop43
 90
        3
102
RTVSPost2010PropOp43
 70
     1
102
RTVSPost2010Prop44ColorIndex
 90
        5
102
RTVSPost2010Prop44ColorRGB
 90
      255
102
RTVSPost2010PropOp44
 70
     1
102
RTVSPost2010Prop45
280
     0
102
RTVSPost2010PropOp45
 70
     1
102
RTVSPost2010Prop46
 90
       50
102
RTVSPost2010PropOp46
 70
     1
102
RTVSPost2010Prop47
 90
       50
102
RTVSPost2010PropOp47
 70
     1
102
RTVSPost2010Prop48
 90
       50
102
RTVSPost2010PropOp48
 70
     1
102
RTVSPost2010Prop49
280
     0
102
RTVSPost2010PropOp49
 70
     1
102
RTVSPost2010Prop50
 90
       50
102
RTVSPost2010PropOp50
 70
     1
102
RTVSPost2010Prop51ColorIndex
 90
      256
102
RTVSPost2010Prop51ColorRGB
 90
-16777216
102
RTVSPost2010PropOp51
 70
     0
102
RTVSPost2010Prop52
140
1.0
102
RTVSPost2010PropOp52
 70
     0
102
RTVSPost2010Prop53
 90
        2
102
RTVSPost2010PropOp53
 70
     1
102
RTVSPost2010Prop54
  1
strokes_ogs.tif
102
RTVSPost2010PropOp54
 70
     1
102
RTVSPost2010Prop55
280
     0
102
RTVSPost2010PropOp55
 70
     1
102
RTVSPost2010Prop56
140
1.0
102
RTVSPost2010PropOp56
 70
     1
102
RTVSPost2010Prop57
140
1.0
102
RTVSPost2010PropOp57
 70
     1
  0
XRECORD
  5
453
102
{ACAD_REACTORS
330
452
102
}
330
452
100
AcDbXrecord
280
     1
102
RTVSPropertyOp0
 70
     0
102
RTVSPropertyOp1
 70
     0
102
RTVSPropertyOp2
 70
     0
102
RTVSPropertyOp3
 70
     0
102
RTVSPropertyOp4
 70
     0
102
RTVSPropertyOp5
 70
     0
102
RTVSPropertyOp6
 70
     0
102
RTVSPropertyOp7
 70
     0
102
RTVSPropertyOp8
 70
     0
102
RTVSPropertyOp9
 70
     0
102
RTVSPropertyOp10
 70
     0
102
RTVSPropertyOp11
 70
     0
102
RTVSPropertyOp12
 70
     0
102
RTVSPropertyOp13
 70
     0
102
RTVSPropertyOp14
 70
     2
102
RTVSPropertyOp15
 70
     0
102
RTVSPropertyOp16
 70
     0
102
RTVSPropertyOp17
 70
     0
102
RTVSPropertyOp18
 70
     0
102
RTVSPropertyOp19
 70
     0
102
RTVSPropertyOp20
 70
     0
102
RTVSPropertyOp21
 70
     0
102
RTVSPropertyOp22
 70
     0
102
RTVSPropertyOp23
 70
     0
102
RTVSPropertyOp24
 70
     0
102
RTVSPropertyOp25
 70
     0
102
RTVSPropertyOp26
 70
     0
102
RTVSPropertyOp27
 70
     0
102
RTVSPropertyOp28
 70
     0
102
RTVSPropertyOp29
 70
     0
102
RTVSPropertyOp30
 70
     0
102
RTVSPropertyOp31
 70
     0
102
RTVSPropertyOp32
 70
     0
102
RTVSPropertyOp33
 70
     0
102
RTVSPropertyOp34
 70
     0
102
RTVSPropertyOp35
 70
     0
102
RTVSPropertyOp36
 70
     0
102
RTVSPropertyOp37
 70
     0
102
RTVSPropertyOp38
 70
     0
102
RTVSPropertyOp39
 70
     0
102
RTVSPropertyOp40
 70
     0
102
RTVSPropertyOp41
 70
     0
102
RTVSPropertyOp42
 70
     0
102
RTVSPropertyOp43
 70
     0
102
RTVSPropertyOp44
 70
     0
102
RTVSPropertyOp45
 70
     0
102
RTVSPropertyOp46
 70
     0
102
RTVSPropertyOp47
 70
     0
102
RTVSPropertyOp48
 70
     0
102
RTVSPropertyOp49
 70
     0
102
RTVSPropertyOp50
 70
     0
102
RTVSPropertyOp51
 70
     0
102
RTVSPropertyOp52
 70
     0
102
RTVSPropertyOp53
 70
     0
102
RTVSPropertyOp54
 70
     0
102
RTVSPropertyOp55
 70
     0
102
RTVSPropertyOp56
 70
     0
102
RTVSPropertyOp57
 70
     0
102
RTVSPost2010Prop28
280
     0
102
RTVSPost2010PropOp28
 70
     0
102
RTVSPost2010Prop29
280
     1
102
RTVSPost2010PropOp29
 70
     0
102
RTVSPost2010Prop30
280
     1
102
RTVSPost2010PropOp30
 70
     0
102
RTVSPost2010Prop31
280
     0
102
RTVSPost2010PropOp31
 70
     0
102
RTVSPost2010Prop32
280
     0
102
RTVSPost2010PropOp32
 70
     0
102
RTVSPost2010Prop33
280
     0
102
RTVSPost2010PropOp33
 70
     0
102
RTVSPost2010Prop34
280
     0
102
RTVSPost2010PropOp34
 70
     0
102
RTVSPost2010Prop35
280
     0
102
RTVSPost2010PropOp35
 70
     0
102
RTVSPost2010Prop36
280
     0
102
RTVSPost2010PropOp36
 70
     0
102
RTVSPost2010Prop37
 90
       50
102
RTVSPost2010PropOp37
 70
     0
102
RTVSPost2010Prop38
140
0.0
102
RTVSPost2010PropOp38
 70
     0
102
RTVSPost2010Prop39
140
1.0
102
RTVSPost2010PropOp39
 70
     0
102
RTVSPost2010Prop40
 90
        0
102
RTVSPost2010PropOp40
 70
     0
102
RTVSPost2010Prop41ColorIndex
 90
       18
102
RTVSPost2010Prop41ColorRGB
 90
        0
102
RTVSPost2010PropOp41
 70
     0
102
RTVSPost2010Prop42
 90
       50
102
RTVSPost2010PropOp42
 70
     0
102
RTVSPost2010Prop43
 90
        3
102
RTVSPost2010PropOp43
 70
     0
102
RTVSPost2010Prop44ColorIndex
 90
        5
102
RTVSPost2010Prop44ColorRGB
 90
      255
102
RTVSPost2010PropOp44
 70
     0
102
RTVSPost2010Prop45
280
     0
102
RTVSPost2010PropOp45
 70
     0
102
RTVSPost2010Prop46
 90
       50
102
RTVSPost2010PropOp46
 70
     0
102
RTVSPost2010Prop47
 90
       50
102
RTVSPost2010PropOp47
 70
     0
102
RTVSPost2010Prop48
 90
       50
102
RTVSPost2010PropOp48
 70
     0
102
RTVSPost2010Prop49
280
     0
102
RTVSPost2010PropOp49
 70
     0
102
RTVSPost2010Prop50
 90
       50
102
RTVSPost2010PropOp50
 70
     0
102
RTVSPost2010Prop51ColorIndex
 90
      256
102
RTVSPost2010Prop51ColorRGB
 90
-16777216
102
RTVSPost2010PropOp51
 70
     0
102
RTVSPost2010Prop52
140
1.0
102
RTVSPost2010PropOp52
 70
     0
102
RTVSPost2010Prop53
 90
        2
102
RTVSPost2010PropOp53
 70
     0
102
RTVSPost2010Prop54
  1
strokes_ogs.tif
102
RTVSPost2010PropOp54
 70
     0
102
RTVSPost2010Prop55
280
     0
102
RTVSPost2010PropOp55
 70
     0
102
RTVSPost2010Prop56
140
1.0
102
RTVSPost2010PropOp56
 70
     0
102
RTVSPost2010Prop57
140
1.0
102
RTVSPost2010PropOp57
 70
     0
  0
XRECORD
  5
44B
102
{ACAD_REACTORS
330
44A
102
}
330
44A
100
AcDbXrecord
280
     1
102
RTVSPropertyOp0
 70
     1
102
RTVSPropertyOp1
 70
     1
102
RTVSPropertyOp2
 70
     1
102
RTVSPropertyOp3
 70
     1
102
RTVSPropertyOp4
 70
     1
102
RTVSPropertyOp5
 70
     1
102
RTVSPropertyOp6
 70
     1
102
RTVSPropertyOp7
 70
     1
102
RTVSPropertyOp8
 70
     1
102
RTVSPropertyOp9
 70
     1
102
RTVSPropertyOp10
 70
     1
102
RTVSPropertyOp11
 70
     1
102
RTVSPropertyOp12
 70
     1
102
RTVSPropertyOp13
 70
     1
102
RTVSPropertyOp14
 70
     1
102
RTVSPropertyOp15
 70
     1
102
RTVSPropertyOp16
 70
     1
102
RTVSPropertyOp17
 70
     1
102
RTVSPropertyOp18
 70
     1
102
RTVSPropertyOp19
 70
     1
102
RTVSPropertyOp20
 70
     1
102
RTVSPropertyOp21
 70
     1
102
RTVSPropertyOp22
 70
     1
102
RTVSPropertyOp23
 70
     1
102
RTVSPropertyOp24
 70
     1
102
RTVSPropertyOp25
 70
     1
102
RTVSPropertyOp26
 70
     1
102
RTVSPropertyOp27
 70
     1
102
RTVSPropertyOp28
 70
     1
102
RTVSPropertyOp29
 70
     1
102
RTVSPropertyOp30
 70
     1
102
RTVSPropertyOp31
 70
     1
102
RTVSPropertyOp32
 70
     1
102
RTVSPropertyOp33
 70
     1
102
RTVSPropertyOp34
 70
     1
102
RTVSPropertyOp35
 70
     1
102
RTVSPropertyOp36
 70
     1
102
RTVSPropertyOp37
 70
     1
102
RTVSPropertyOp38
 70
     1
102
RTVSPropertyOp39
 70
     1
102
RTVSPropertyOp40
 70
     1
102
RTVSPropertyOp41
 70
     1
102
RTVSPropertyOp42
 70
     1
102
RTVSPropertyOp43
 70
     1
102
RTVSPropertyOp44
 70
     1
102
RTVSPropertyOp45
 70
     1
102
RTVSPropertyOp46
 70
     1
102
RTVSPropertyOp47
 70
     1
102
RTVSPropertyOp48
 70
     1
102
RTVSPropertyOp49
 70
     1
102
RTVSPropertyOp50
 70
     1
102
RTVSPropertyOp51
 70
     0
102
RTVSPropertyOp52
 70
     0
102
RTVSPropertyOp53
 70
     1
102
RTVSPropertyOp54
 70
     1
102
RTVSPropertyOp55
 70
     1
102
RTVSPropertyOp56
 70
     1
102
RTVSPropertyOp57
 70
     1
102
RTVSPost2010Prop28
280
     0
102
RTVSPost2010PropOp28
 70
     1
102
RTVSPost2010Prop29
280
     1
102
RTVSPost2010PropOp29
 70
     1
102
RTVSPost2010Prop30
280
     1
102
RTVSPost2010PropOp30
 70
     1
102
RTVSPost2010Prop31
280
     0
102
RTVSPost2010PropOp31
 70
     1
102
RTVSPost2010Prop32
280
     0
102
RTVSPost2010PropOp32
 70
     1
102
RTVSPost2010Prop33
280
     0
102
RTVSPost2010PropOp33
 70
     1
102
RTVSPost2010Prop34
280
     0
102
RTVSPost2010PropOp34
 70
     1
102
RTVSPost2010Prop35
280
     0
102
RTVSPost2010PropOp35
 70
     1
102
RTVSPost2010Prop36
280
     0
102
RTVSPost2010PropOp36
 70
     1
102
RTVSPost2010Prop37
 90
       50
102
RTVSPost2010PropOp37
 70
     1
102
RTVSPost2010Prop38
140
0.0
102
RTVSPost2010PropOp38
 70
     1
102
RTVSPost2010Prop39
140
1.0
102
RTVSPost2010PropOp39
 70
     1
102
RTVSPost2010Prop40
 90
        0
102
RTVSPost2010PropOp40
 70
     1
102
RTVSPost2010Prop41ColorIndex
 90
       18
102
RTVSPost2010Prop41ColorRGB
 90
        0
102
RTVSPost2010PropOp41
 70
     1
102
RTVSPost2010Prop42
 90
       50
102
RTVSPost2010PropOp42
 70
     1
102
RTVSPost2010Prop43
 90
        3
102
RTVSPost2010PropOp43
 70
     1
102
RTVSPost2010Prop44ColorIndex
 90
        5
102
RTVSPost2010Prop44ColorRGB
 90
      255
102
RTVSPost2010PropOp44
 70
     1
102
RTVSPost2010Prop45
280
     0
102
RTVSPost2010PropOp45
 70
     1
102
RTVSPost2010Prop46
 90
       50
102
RTVSPost2010PropOp46
 70
     1
102
RTVSPost2010Prop47
 90
       50
102
RTVSPost2010PropOp47
 70
     1
102
RTVSPost2010Prop48
 90
       50
102
RTVSPost2010PropOp48
 70
     1
102
RTVSPost2010Prop49
280
     0
102
RTVSPost2010PropOp49
 70
     1
102
RTVSPost2010Prop50
 90
       50
102
RTVSPost2010PropOp50
 70
     1
102
RTVSPost2010Prop51ColorIndex
 90
      256
102
RTVSPost2010Prop51ColorRGB
 90
-16777216
102
RTVSPost2010PropOp51
 70
     0
102
RTVSPost2010Prop52
140
1.0
102
RTVSPost2010PropOp52
 70
     0
102
RTVSPost2010Prop53
 90
        2
102
RTVSPost2010PropOp53
 70
     1
102
RTVSPost2010Prop54
  1
strokes_ogs.tif
102
RTVSPost2010PropOp54
 70
     1
102
RTVSPost2010Prop55
280
     0
102
RTVSPost2010PropOp55
 70
     1
102
RTVSPost2010Prop56
140
1.0
102
RTVSPost2010PropOp56
 70
     1
102
RTVSPost2010Prop57
140
1.0
102
RTVSPost2010PropOp57
 70
     1
  0
XRECORD
  5
42F
102
{ACAD_REACTORS
330
42E
102
}
330
42E
100
AcDbXrecord
280
     1
102
RTVSPropertyOp0
 70
     1
102
RTVSPropertyOp1
 70
     1
102
RTVSPropertyOp2
 70
     1
102
RTVSPropertyOp3
 70
     1
102
RTVSPropertyOp4
 70
     1
102
RTVSPropertyOp5
 70
     1
102
RTVSPropertyOp6
 70
     1
102
RTVSPropertyOp7
 70
     1
102
RTVSPropertyOp8
 70
     1
102
RTVSPropertyOp9
 70
     1
102
RTVSPropertyOp10
 70
     1
102
RTVSPropertyOp11
 70
     1
102
RTVSPropertyOp12
 70
     1
102
RTVSPropertyOp13
 70
     1
102
RTVSPropertyOp14
 70
     1
102
RTVSPropertyOp15
 70
     1
102
RTVSPropertyOp16
 70
     1
102
RTVSPropertyOp17
 70
     1
102
RTVSPropertyOp18
 70
     1
102
RTVSPropertyOp19
 70
     1
102
RTVSPropertyOp20
 70
     1
102
RTVSPropertyOp21
 70
     1
102
RTVSPropertyOp22
 70
     1
102
RTVSPropertyOp23
 70
     1
102
RTVSPropertyOp24
 70
     1
102
RTVSPropertyOp25
 70
     1
102
RTVSPropertyOp26
 70
     1
102
RTVSPropertyOp27
 70
     1
102
RTVSPropertyOp28
 70
     1
102
RTVSPropertyOp29
 70
     1
102
RTVSPropertyOp30
 70
     1
102
RTVSPropertyOp31
 70
     1
102
RTVSPropertyOp32
 70
     1
102
RTVSPropertyOp33
 70
     1
102
RTVSPropertyOp34
 70
     1
102
RTVSPropertyOp35
 70
     1
102
RTVSPropertyOp36
 70
     1
102
RTVSPropertyOp37
 70
     1
102
RTVSPropertyOp38
 70
     1
102
RTVSPropertyOp39
 70
     1
102
RTVSPropertyOp40
 70
     1
102
RTVSPropertyOp41
 70
     1
102
RTVSPropertyOp42
 70
     1
102
RTVSPropertyOp43
 70
     1
102
RTVSPropertyOp44
 70
     1
102
RTVSPropertyOp45
 70
     1
102
RTVSPropertyOp46
 70
     1
102
RTVSPropertyOp47
 70
     1
102
RTVSPropertyOp48
 70
     1
102
RTVSPropertyOp49
 70
     1
102
RTVSPropertyOp50
 70
     1
102
RTVSPropertyOp51
 70
     0
102
RTVSPropertyOp52
 70
     0
102
RTVSPropertyOp53
 70
     1
102
RTVSPropertyOp54
 70
     1
102
RTVSPropertyOp55
 70
     1
102
RTVSPropertyOp56
 70
     1
102
RTVSPropertyOp57
 70
     1
102
RTVSPost2010Prop28
280
     0
102
RTVSPost2010PropOp28
 70
     1
102
RTVSPost2010Prop29
280
     1
102
RTVSPost2010PropOp29
 70
     1
102
RTVSPost2010Prop30
280
     1
102
RTVSPost2010PropOp30
 70
     1
102
RTVSPost2010Prop31
280
     0
102
RTVSPost2010PropOp31
 70
     1
102
RTVSPost2010Prop32
280
     0
102
RTVSPost2010PropOp32
 70
     1
102
RTVSPost2010Prop33
280
     0
102
RTVSPost2010PropOp33
 70
     1
102
RTVSPost2010Prop34
280
     0
102
RTVSPost2010PropOp34
 70
     1
102
RTVSPost2010Prop35
280
     0
102
RTVSPost2010PropOp35
 70
     1
102
RTVSPost2010Prop36
280
     0
102
RTVSPost2010PropOp36
 70
     1
102
RTVSPost2010Prop37
 90
       50
102
RTVSPost2010PropOp37
 70
     1
102
RTVSPost2010Prop38
140
0.0
102
RTVSPost2010PropOp38
 70
     1
102
RTVSPost2010Prop39
140
1.0
102
RTVSPost2010PropOp39
 70
     1
102
RTVSPost2010Prop40
 90
        0
102
RTVSPost2010PropOp40
 70
     1
102
RTVSPost2010Prop41ColorIndex
 90
       18
102
RTVSPost2010Prop41ColorRGB
 90
        0
102
RTVSPost2010PropOp41
 70
     1
102
RTVSPost2010Prop42
 90
       50
102
RTVSPost2010PropOp42
 70
     1
102
RTVSPost2010Prop43
 90
        3
102
RTVSPost2010PropOp43
 70
     1
102
RTVSPost2010Prop44ColorIndex
 90
        5
102
RTVSPost2010Prop44ColorRGB
 90
      255
102
RTVSPost2010PropOp44
 70
     1
102
RTVSPost2010Prop45
280
     0
102
RTVSPost2010PropOp45
 70
     1
102
RTVSPost2010Prop46
 90
       50
102
RTVSPost2010PropOp46
 70
     1
102
RTVSPost2010Prop47
 90
       50
102
RTVSPost2010PropOp47
 70
     1
102
RTVSPost2010Prop48
 90
       50
102
RTVSPost2010PropOp48
 70
     1
102
RTVSPost2010Prop49
280
     0
102
RTVSPost2010PropOp49
 70
     1
102
RTVSPost2010Prop50
 90
       50
102
RTVSPost2010PropOp50
 70
     1
102
RTVSPost2010Prop51ColorIndex
 90
      256
102
RTVSPost2010Prop51ColorRGB
 90
-16777216
102
RTVSPost2010PropOp51
 70
     0
102
RTVSPost2010Prop52
140
1.0
102
RTVSPost2010PropOp52
 70
     0
102
RTVSPost2010Prop53
 90
        2
102
RTVSPost2010PropOp53
 70
     1
102
RTVSPost2010Prop54
  1
strokes_ogs.tif
102
RTVSPost2010PropOp54
 70
     1
102
RTVSPost2010Prop55
280
     0
102
RTVSPost2010PropOp55
 70
     1
102
RTVSPost2010Prop56
140
1.0
102
RTVSPost2010PropOp56
 70
     1
102
RTVSPost2010Prop57
140
1.0
102
RTVSPost2010PropOp57
 70
     1
  0
XRECORD
  5
431
102
{ACAD_REACTORS
330
430
102
}
330
430
100
AcDbXrecord
280
     1
102
RTVSPropertyOp0
 70
     1
102
RTVSPropertyOp1
 70
     1
102
RTVSPropertyOp2
 70
     1
102
RTVSPropertyOp3
 70
     1
102
RTVSPropertyOp4
 70
     1
102
RTVSPropertyOp5
 70
     1
102
RTVSPropertyOp6
 70
     1
102
RTVSPropertyOp7
 70
     1
102
RTVSPropertyOp8
 70
     1
102
RTVSPropertyOp9
 70
     1
102
RTVSPropertyOp10
 70
     1
102
RTVSPropertyOp11
 70
     1
102
RTVSPropertyOp12
 70
     1
102
RTVSPropertyOp13
 70
     1
102
RTVSPropertyOp14
 70
     1
102
RTVSPropertyOp15
 70
     1
102
RTVSPropertyOp16
 70
     1
102
RTVSPropertyOp17
 70
     1
102
RTVSPropertyOp18
 70
     1
102
RTVSPropertyOp19
 70
     1
102
RTVSPropertyOp20
 70
     1
102
RTVSPropertyOp21
 70
     1
102
RTVSPropertyOp22
 70
     1
102
RTVSPropertyOp23
 70
     1
102
RTVSPropertyOp24
 70
     1
102
RTVSPropertyOp25
 70
     1
102
RTVSPropertyOp26
 70
     1
102
RTVSPropertyOp27
 70
     1
102
RTVSPropertyOp28
 70
     1
102
RTVSPropertyOp29
 70
     1
102
RTVSPropertyOp30
 70
     1
102
RTVSPropertyOp31
 70
     1
102
RTVSPropertyOp32
 70
     1
102
RTVSPropertyOp33
 70
     1
102
RTVSPropertyOp34
 70
     1
102
RTVSPropertyOp35
 70
     1
102
RTVSPropertyOp36
 70
     1
102
RTVSPropertyOp37
 70
     1
102
RTVSPropertyOp38
 70
     1
102
RTVSPropertyOp39
 70
     1
102
RTVSPropertyOp40
 70
     1
102
RTVSPropertyOp41
 70
     1
102
RTVSPropertyOp42
 70
     1
102
RTVSPropertyOp43
 70
     1
102
RTVSPropertyOp44
 70
     1
102
RTVSPropertyOp45
 70
     1
102
RTVSPropertyOp46
 70
     1
102
RTVSPropertyOp47
 70
     1
102
RTVSPropertyOp48
 70
     1
102
RTVSPropertyOp49
 70
     1
102
RTVSPropertyOp50
 70
     1
102
RTVSPropertyOp51
 70
     0
102
RTVSPropertyOp52
 70
     0
102
RTVSPropertyOp53
 70
     1
102
RTVSPropertyOp54
 70
     1
102
RTVSPropertyOp55
 70
     1
102
RTVSPropertyOp56
 70
     1
102
RTVSPropertyOp57
 70
     1
102
RTVSPost2010Prop28
280
     0
102
RTVSPost2010PropOp28
 70
     1
102
RTVSPost2010Prop29
280
     1
102
RTVSPost2010PropOp29
 70
     1
102
RTVSPost2010Prop30
280
     1
102
RTVSPost2010PropOp30
 70
     1
102
RTVSPost2010Prop31
280
     0
102
RTVSPost2010PropOp31
 70
     1
102
RTVSPost2010Prop32
280
     0
102
RTVSPost2010PropOp32
 70
     1
102
RTVSPost2010Prop33
280
     0
102
RTVSPost2010PropOp33
 70
     1
102
RTVSPost2010Prop34
280
     0
102
RTVSPost2010PropOp34
 70
     1
102
RTVSPost2010Prop35
280
     0
102
RTVSPost2010PropOp35
 70
     1
102
RTVSPost2010Prop36
280
     0
102
RTVSPost2010PropOp36
 70
     1
102
RTVSPost2010Prop37
 90
       50
102
RTVSPost2010PropOp37
 70
     1
102
RTVSPost2010Prop38
140
0.0
102
RTVSPost2010PropOp38
 70
     1
102
RTVSPost2010Prop39
140
1.0
102
RTVSPost2010PropOp39
 70
     1
102
RTVSPost2010Prop40
 90
        0
102
RTVSPost2010PropOp40
 70
     1
102
RTVSPost2010Prop41ColorIndex
 90
       18
102
RTVSPost2010Prop41ColorRGB
 90
        0
102
RTVSPost2010PropOp41
 70
     1
102
RTVSPost2010Prop42
 90
       50
102
RTVSPost2010PropOp42
 70
     1
102
RTVSPost2010Prop43
 90
        3
102
RTVSPost2010PropOp43
 70
     1
102
RTVSPost2010Prop44ColorIndex
 90
        5
102
RTVSPost2010Prop44ColorRGB
 90
      255
102
RTVSPost2010PropOp44
 70
     1
102
RTVSPost2010Prop45
280
     0
102
RTVSPost2010PropOp45
 70
     1
102
RTVSPost2010Prop46
 90
       50
102
RTVSPost2010PropOp46
 70
     1
102
RTVSPost2010Prop47
 90
       50
102
RTVSPost2010PropOp47
 70
     1
102
RTVSPost2010Prop48
 90
       50
102
RTVSPost2010PropOp48
 70
     1
102
RTVSPost2010Prop49
280
     0
102
RTVSPost2010PropOp49
 70
     1
102
RTVSPost2010Prop50
 90
       50
102
RTVSPost2010PropOp50
 70
     1
102
RTVSPost2010Prop51ColorIndex
 90
      256
102
RTVSPost2010Prop51ColorRGB
 90
-16777216
102
RTVSPost2010PropOp51
 70
     0
102
RTVSPost2010Prop52
140
1.0
102
RTVSPost2010PropOp52
 70
     0
102
RTVSPost2010Prop53
 90
        2
102
RTVSPost2010PropOp53
 70
     1
102
RTVSPost2010Prop54
  1
strokes_ogs.tif
102
RTVSPost2010PropOp54
 70
     1
102
RTVSPost2010Prop55
280
     0
102
RTVSPost2010PropOp55
 70
     1
102
RTVSPost2010Prop56
140
1.0
102
RTVSPost2010PropOp56
 70
     1
102
RTVSPost2010Prop57
140
1.0
102
RTVSPost2010PropOp57
 70
     1
  0
XRECORD
  5
433
102
{ACAD_REACTORS
330
432
102
}
330
432
100
AcDbXrecord
280
     1
102
RTVSPropertyOp0
 70
     1
102
RTVSPropertyOp1
 70
     1
102
RTVSPropertyOp2
 70
     1
102
RTVSPropertyOp3
 70
     1
102
RTVSPropertyOp4
 70
     1
102
RTVSPropertyOp5
 70
     1
102
RTVSPropertyOp6
 70
     1
102
RTVSPropertyOp7
 70
     1
102
RTVSPropertyOp8
 70
     1
102
RTVSPropertyOp9
 70
     1
102
RTVSPropertyOp10
 70
     1
102
RTVSPropertyOp11
 70
     1
102
RTVSPropertyOp12
 70
     1
102
RTVSPropertyOp13
 70
     1
102
RTVSPropertyOp14
 70
     1
102
RTVSPropertyOp15
 70
     1
102
RTVSPropertyOp16
 70
     1
102
RTVSPropertyOp17
 70
     1
102
RTVSPropertyOp18
 70
     1
102
RTVSPropertyOp19
 70
     1
102
RTVSPropertyOp20
 70
     1
102
RTVSPropertyOp21
 70
     1
102
RTVSPropertyOp22
 70
     1
102
RTVSPropertyOp23
 70
     1
102
RTVSPropertyOp24
 70
     1
102
RTVSPropertyOp25
 70
     1
102
RTVSPropertyOp26
 70
     1
102
RTVSPropertyOp27
 70
     1
102
RTVSPropertyOp28
 70
     1
102
RTVSPropertyOp29
 70
     1
102
RTVSPropertyOp30
 70
     1
102
RTVSPropertyOp31
 70
     1
102
RTVSPropertyOp32
 70
     1
102
RTVSPropertyOp33
 70
     1
102
RTVSPropertyOp34
 70
     1
102
RTVSPropertyOp35
 70
     1
102
RTVSPropertyOp36
 70
     1
102
RTVSPropertyOp37
 70
     1
102
RTVSPropertyOp38
 70
     1
102
RTVSPropertyOp39
 70
     1
102
RTVSPropertyOp40
 70
     1
102
RTVSPropertyOp41
 70
     1
102
RTVSPropertyOp42
 70
     1
102
RTVSPropertyOp43
 70
     1
102
RTVSPropertyOp44
 70
     1
102
RTVSPropertyOp45
 70
     1
102
RTVSPropertyOp46
 70
     1
102
RTVSPropertyOp47
 70
     1
102
RTVSPropertyOp48
 70
     1
102
RTVSPropertyOp49
 70
     1
102
RTVSPropertyOp50
 70
     1
102
RTVSPropertyOp51
 70
     0
102
RTVSPropertyOp52
 70
     0
102
RTVSPropertyOp53
 70
     1
102
RTVSPropertyOp54
 70
     1
102
RTVSPropertyOp55
 70
     1
102
RTVSPropertyOp56
 70
     1
102
RTVSPropertyOp57
 70
     1
102
RTVSPost2010Prop28
280
     0
102
RTVSPost2010PropOp28
 70
     1
102
RTVSPost2010Prop29
280
     1
102
RTVSPost2010PropOp29
 70
     1
102
RTVSPost2010Prop30
280
     1
102
RTVSPost2010PropOp30
 70
     1
102
RTVSPost2010Prop31
280
     0
102
RTVSPost2010PropOp31
 70
     1
102
RTVSPost2010Prop32
280
     0
102
RTVSPost2010PropOp32
 70
     1
102
RTVSPost2010Prop33
280
     0
102
RTVSPost2010PropOp33
 70
     1
102
RTVSPost2010Prop34
280
     0
102
RTVSPost2010PropOp34
 70
     1
102
RTVSPost2010Prop35
280
     0
102
RTVSPost2010PropOp35
 70
     1
102
RTVSPost2010Prop36
280
     0
102
RTVSPost2010PropOp36
 70
     1
102
RTVSPost2010Prop37
 90
       50
102
RTVSPost2010PropOp37
 70
     1
102
RTVSPost2010Prop38
140
0.0
102
RTVSPost2010PropOp38
 70
     1
102
RTVSPost2010Prop39
140
1.0
102
RTVSPost2010PropOp39
 70
     1
102
RTVSPost2010Prop40
 90
        0
102
RTVSPost2010PropOp40
 70
     1
102
RTVSPost2010Prop41ColorIndex
 90
       18
102
RTVSPost2010Prop41ColorRGB
 90
        0
102
RTVSPost2010PropOp41
 70
     1
102
RTVSPost2010Prop42
 90
       50
102
RTVSPost2010PropOp42
 70
     1
102
RTVSPost2010Prop43
 90
        3
102
RTVSPost2010PropOp43
 70
     1
102
RTVSPost2010Prop44ColorIndex
 90
        5
102
RTVSPost2010Prop44ColorRGB
 90
      255
102
RTVSPost2010PropOp44
 70
     1
102
RTVSPost2010Prop45
280
     0
102
RTVSPost2010PropOp45
 70
     1
102
RTVSPost2010Prop46
 90
       50
102
RTVSPost2010PropOp46
 70
     1
102
RTVSPost2010Prop47
 90
       50
102
RTVSPost2010PropOp47
 70
     1
102
RTVSPost2010Prop48
 90
       50
102
RTVSPost2010PropOp48
 70
     1
102
RTVSPost2010Prop49
280
     0
102
RTVSPost2010PropOp49
 70
     1
102
RTVSPost2010Prop50
 90
       50
102
RTVSPost2010PropOp50
 70
     1
102
RTVSPost2010Prop51ColorIndex
 90
      256
102
RTVSPost2010Prop51ColorRGB
 90
-16777216
102
RTVSPost2010PropOp51
 70
     0
102
RTVSPost2010Prop52
140
1.0
102
RTVSPost2010PropOp52
 70
     0
102
RTVSPost2010Prop53
 90
        2
102
RTVSPost2010PropOp53
 70
     1
102
RTVSPost2010Prop54
  1
strokes_ogs.tif
102
RTVSPost2010PropOp54
 70
     1
102
RTVSPost2010Prop55
280
     0
102
RTVSPost2010PropOp55
 70
     1
102
RTVSPost2010Prop56
140
1.0
102
RTVSPost2010PropOp56
 70
     1
102
RTVSPost2010Prop57
140
1.0
102
RTVSPost2010PropOp57
 70
     1
  0
XRECORD
  5
435
102
{ACAD_REACTORS
330
434
102
}
330
434
100
AcDbXrecord
280
     1
102
RTVSPropertyOp0
 70
     1
102
RTVSPropertyOp1
 70
     1
102
RTVSPropertyOp2
 70
     1
102
RTVSPropertyOp3
 70
     1
102
RTVSPropertyOp4
 70
     1
102
RTVSPropertyOp5
 70
     1
102
RTVSPropertyOp6
 70
     1
102
RTVSPropertyOp7
 70
     1
102
RTVSPropertyOp8
 70
     1
102
RTVSPropertyOp9
 70
     1
102
RTVSPropertyOp10
 70
     1
102
RTVSPropertyOp11
 70
     1
102
RTVSPropertyOp12
 70
     1
102
RTVSPropertyOp13
 70
     1
102
RTVSPropertyOp14
 70
     1
102
RTVSPropertyOp15
 70
     1
102
RTVSPropertyOp16
 70
     1
102
RTVSPropertyOp17
 70
     1
102
RTVSPropertyOp18
 70
     1
102
RTVSPropertyOp19
 70
     1
102
RTVSPropertyOp20
 70
     1
102
RTVSPropertyOp21
 70
     1
102
RTVSPropertyOp22
 70
     1
102
RTVSPropertyOp23
 70
     1
102
RTVSPropertyOp24
 70
     1
102
RTVSPropertyOp25
 70
     1
102
RTVSPropertyOp26
 70
     1
102
RTVSPropertyOp27
 70
     1
102
RTVSPropertyOp28
 70
     1
102
RTVSPropertyOp29
 70
     1
102
RTVSPropertyOp30
 70
     1
102
RTVSPropertyOp31
 70
     1
102
RTVSPropertyOp32
 70
     1
102
RTVSPropertyOp33
 70
     1
102
RTVSPropertyOp34
 70
     1
102
RTVSPropertyOp35
 70
     1
102
RTVSPropertyOp36
 70
     1
102
RTVSPropertyOp37
 70
     1
102
RTVSPropertyOp38
 70
     1
102
RTVSPropertyOp39
 70
     1
102
RTVSPropertyOp40
 70
     1
102
RTVSPropertyOp41
 70
     1
102
RTVSPropertyOp42
 70
     1
102
RTVSPropertyOp43
 70
     1
102
RTVSPropertyOp44
 70
     1
102
RTVSPropertyOp45
 70
     1
102
RTVSPropertyOp46
 70
     1
102
RTVSPropertyOp47
 70
     1
102
RTVSPropertyOp48
 70
     1
102
RTVSPropertyOp49
 70
     1
102
RTVSPropertyOp50
 70
     1
102
RTVSPropertyOp51
 70
     0
102
RTVSPropertyOp52
 70
     0
102
RTVSPropertyOp53
 70
     1
102
RTVSPropertyOp54
 70
     1
102
RTVSPropertyOp55
 70
     1
102
RTVSPropertyOp56
 70
     1
102
RTVSPropertyOp57
 70
     1
102
RTVSPost2010Prop28
280
     0
102
RTVSPost2010PropOp28
 70
     1
102
RTVSPost2010Prop29
280
     1
102
RTVSPost2010PropOp29
 70
     1
102
RTVSPost2010Prop30
280
     1
102
RTVSPost2010PropOp30
 70
     1
102
RTVSPost2010Prop31
280
     0
102
RTVSPost2010PropOp31
 70
     1
102
RTVSPost2010Prop32
280
     0
102
RTVSPost2010PropOp32
 70
     1
102
RTVSPost2010Prop33
280
     0
102
RTVSPost2010PropOp33
 70
     1
102
RTVSPost2010Prop34
280
     0
102
RTVSPost2010PropOp34
 70
     1
102
RTVSPost2010Prop35
280
     0
102
RTVSPost2010PropOp35
 70
     1
102
RTVSPost2010Prop36
280
     0
102
RTVSPost2010PropOp36
 70
     1
102
RTVSPost2010Prop37
 90
       50
102
RTVSPost2010PropOp37
 70
     1
102
RTVSPost2010Prop38
140
0.0
102
RTVSPost2010PropOp38
 70
     1
102
RTVSPost2010Prop39
140
1.0
102
RTVSPost2010PropOp39
 70
     1
102
RTVSPost2010Prop40
 90
        0
102
RTVSPost2010PropOp40
 70
     1
102
RTVSPost2010Prop41ColorIndex
 90
       18
102
RTVSPost2010Prop41ColorRGB
 90
        0
102
RTVSPost2010PropOp41
 70
     1
102
RTVSPost2010Prop42
 90
       50
102
RTVSPost2010PropOp42
 70
     1
102
RTVSPost2010Prop43
 90
        3
102
RTVSPost2010PropOp43
 70
     1
102
RTVSPost2010Prop44ColorIndex
 90
        5
102
RTVSPost2010Prop44ColorRGB
 90
      255
102
RTVSPost2010PropOp44
 70
     1
102
RTVSPost2010Prop45
280
     0
102
RTVSPost2010PropOp45
 70
     1
102
RTVSPost2010Prop46
 90
       50
102
RTVSPost2010PropOp46
 70
     1
102
RTVSPost2010Prop47
 90
       50
102
RTVSPost2010PropOp47
 70
     1
102
RTVSPost2010Prop48
 90
       50
102
RTVSPost2010PropOp48
 70
     1
102
RTVSPost2010Prop49
280
     0
102
RTVSPost2010PropOp49
 70
     1
102
RTVSPost2010Prop50
 90
       50
102
RTVSPost2010PropOp50
 70
     1
102
RTVSPost2010Prop51ColorIndex
 90
      256
102
RTVSPost2010Prop51ColorRGB
 90
-16777216
102
RTVSPost2010PropOp51
 70
     0
102
RTVSPost2010Prop52
140
1.0
102
RTVSPost2010PropOp52
 70
     0
102
RTVSPost2010Prop53
 90
        2
102
RTVSPost2010PropOp53
 70
     1
102
RTVSPost2010Prop54
  1
strokes_ogs.tif
102
RTVSPost2010PropOp54
 70
     1
102
RTVSPost2010Prop55
280
     0
102
RTVSPost2010PropOp55
 70
     1
102
RTVSPost2010Prop56
140
1.0
102
RTVSPost2010PropOp56
 70
     1
102
RTVSPost2010Prop57
140
1.0
102
RTVSPost2010PropOp57
 70
     1
  0
XRECORD
  5
43B
102
{ACAD_REACTORS
330
43A
102
}
330
43A
100
AcDbXrecord
280
     1
102
RTVSPropertyOp0
 70
     1
102
RTVSPropertyOp1
 70
     1
102
RTVSPropertyOp2
 70
     1
102
RTVSPropertyOp3
 70
     1
102
RTVSPropertyOp4
 70
     1
102
RTVSPropertyOp5
 70
     1
102
RTVSPropertyOp6
 70
     1
102
RTVSPropertyOp7
 70
     1
102
RTVSPropertyOp8
 70
     1
102
RTVSPropertyOp9
 70
     1
102
RTVSPropertyOp10
 70
     1
102
RTVSPropertyOp11
 70
     1
102
RTVSPropertyOp12
 70
     1
102
RTVSPropertyOp13
 70
     1
102
RTVSPropertyOp14
 70
     1
102
RTVSPropertyOp15
 70
     1
102
RTVSPropertyOp16
 70
     1
102
RTVSPropertyOp17
 70
     1
102
RTVSPropertyOp18
 70
     1
102
RTVSPropertyOp19
 70
     1
102
RTVSPropertyOp20
 70
     1
102
RTVSPropertyOp21
 70
     1
102
RTVSPropertyOp22
 70
     1
102
RTVSPropertyOp23
 70
     1
102
RTVSPropertyOp24
 70
     1
102
RTVSPropertyOp25
 70
     1
102
RTVSPropertyOp26
 70
     1
102
RTVSPropertyOp27
 70
     1
102
RTVSPropertyOp28
 70
     1
102
RTVSPropertyOp29
 70
     1
102
RTVSPropertyOp30
 70
     1
102
RTVSPropertyOp31
 70
     1
102
RTVSPropertyOp32
 70
     1
102
RTVSPropertyOp33
 70
     1
102
RTVSPropertyOp34
 70
     1
102
RTVSPropertyOp35
 70
     1
102
RTVSPropertyOp36
 70
     1
102
RTVSPropertyOp37
 70
     1
102
RTVSPropertyOp38
 70
     1
102
RTVSPropertyOp39
 70
     1
102
RTVSPropertyOp40
 70
     1
102
RTVSPropertyOp41
 70
     1
102
RTVSPropertyOp42
 70
     1
102
RTVSPropertyOp43
 70
     1
102
RTVSPropertyOp44
 70
     1
102
RTVSPropertyOp45
 70
     1
102
RTVSPropertyOp46
 70
     1
102
RTVSPropertyOp47
 70
     1
102
RTVSPropertyOp48
 70
     1
102
RTVSPropertyOp49
 70
     1
102
RTVSPropertyOp50
 70
     1
102
RTVSPropertyOp51
 70
     0
102
RTVSPropertyOp52
 70
     0
102
RTVSPropertyOp53
 70
     1
102
RTVSPropertyOp54
 70
     1
102
RTVSPropertyOp55
 70
     1
102
RTVSPropertyOp56
 70
     1
102
RTVSPropertyOp57
 70
     1
102
RTVSPost2010Prop28
280
     0
102
RTVSPost2010PropOp28
 70
     1
102
RTVSPost2010Prop29
280
     1
102
RTVSPost2010PropOp29
 70
     1
102
RTVSPost2010Prop30
280
     1
102
RTVSPost2010PropOp30
 70
     1
102
RTVSPost2010Prop31
280
     0
102
RTVSPost2010PropOp31
 70
     1
102
RTVSPost2010Prop32
280
     0
102
RTVSPost2010PropOp32
 70
     1
102
RTVSPost2010Prop33
280
     0
102
RTVSPost2010PropOp33
 70
     1
102
RTVSPost2010Prop34
280
     0
102
RTVSPost2010PropOp34
 70
     1
102
RTVSPost2010Prop35
280
     0
102
RTVSPost2010PropOp35
 70
     1
102
RTVSPost2010Prop36
280
     0
102
RTVSPost2010PropOp36
 70
     1
102
RTVSPost2010Prop37
 90
       50
102
RTVSPost2010PropOp37
 70
     1
102
RTVSPost2010Prop38
140
0.0
102
RTVSPost2010PropOp38
 70
     1
102
RTVSPost2010Prop39
140
1.0
102
RTVSPost2010PropOp39
 70
     1
102
RTVSPost2010Prop40
 90
        0
102
RTVSPost2010PropOp40
 70
     1
102
RTVSPost2010Prop41ColorIndex
 90
       18
102
RTVSPost2010Prop41ColorRGB
 90
        0
102
RTVSPost2010PropOp41
 70
     1
102
RTVSPost2010Prop42
 90
       50
102
RTVSPost2010PropOp42
 70
     1
102
RTVSPost2010Prop43
 90
        3
102
RTVSPost2010PropOp43
 70
     1
102
RTVSPost2010Prop44ColorIndex
 90
        5
102
RTVSPost2010Prop44ColorRGB
 90
      255
102
RTVSPost2010PropOp44
 70
     1
102
RTVSPost2010Prop45
280
     0
102
RTVSPost2010PropOp45
 70
     1
102
RTVSPost2010Prop46
 90
       50
102
RTVSPost2010PropOp46
 70
     1
102
RTVSPost2010Prop47
 90
       50
102
RTVSPost2010PropOp47
 70
     1
102
RTVSPost2010Prop48
 90
       50
102
RTVSPost2010PropOp48
 70
     1
102
RTVSPost2010Prop49
280
     0
102
RTVSPost2010PropOp49
 70
     1
102
RTVSPost2010Prop50
 90
       50
102
RTVSPost2010PropOp50
 70
     1
102
RTVSPost2010Prop51ColorIndex
 90
      256
102
RTVSPost2010Prop51ColorRGB
 90
-16777216
102
RTVSPost2010PropOp51
 70
     0
102
RTVSPost2010Prop52
140
1.0
102
RTVSPost2010PropOp52
 70
     0
102
RTVSPost2010Prop53
 90
        2
102
RTVSPost2010PropOp53
 70
     1
102
RTVSPost2010Prop54
  1
strokes_ogs.tif
102
RTVSPost2010PropOp54
 70
     1
102
RTVSPost2010Prop55
280
     0
102
RTVSPost2010PropOp55
 70
     1
102
RTVSPost2010Prop56
140
1.0
102
RTVSPost2010PropOp56
 70
     1
102
RTVSPost2010Prop57
140
1.0
102
RTVSPost2010PropOp57
 70
     1
  0
XRECORD
  5
44F
102
{ACAD_REACTORS
330
44E
102
}
330
44E
100
AcDbXrecord
280
     1
102
RTVSPropertyOp0
 70
     0
102
RTVSPropertyOp1
 70
     0
102
RTVSPropertyOp2
 70
     0
102
RTVSPropertyOp3
 70
     0
102
RTVSPropertyOp4
 70
     0
102
RTVSPropertyOp5
 70
     0
102
RTVSPropertyOp6
 70
     0
102
RTVSPropertyOp7
 70
     0
102
RTVSPropertyOp8
 70
     0
102
RTVSPropertyOp9
 70
     0
102
RTVSPropertyOp10
 70
     0
102
RTVSPropertyOp11
 70
     0
102
RTVSPropertyOp12
 70
     0
102
RTVSPropertyOp13
 70
     0
102
RTVSPropertyOp14
 70
     2
102
RTVSPropertyOp15
 70
     0
102
RTVSPropertyOp16
 70
     0
102
RTVSPropertyOp17
 70
     0
102
RTVSPropertyOp18
 70
     0
102
RTVSPropertyOp19
 70
     0
102
RTVSPropertyOp20
 70
     0
102
RTVSPropertyOp21
 70
     0
102
RTVSPropertyOp22
 70
     0
102
RTVSPropertyOp23
 70
     0
102
RTVSPropertyOp24
 70
     0
102
RTVSPropertyOp25
 70
     0
102
RTVSPropertyOp26
 70
     0
102
RTVSPropertyOp27
 70
     0
102
RTVSPropertyOp28
 70
     0
102
RTVSPropertyOp29
 70
     0
102
RTVSPropertyOp30
 70
     0
102
RTVSPropertyOp31
 70
     0
102
RTVSPropertyOp32
 70
     0
102
RTVSPropertyOp33
 70
     0
102
RTVSPropertyOp34
 70
     0
102
RTVSPropertyOp35
 70
     0
102
RTVSPropertyOp36
 70
     0
102
RTVSPropertyOp37
 70
     0
102
RTVSPropertyOp38
 70
     0
102
RTVSPropertyOp39
 70
     0
102
RTVSPropertyOp40
 70
     0
102
RTVSPropertyOp41
 70
     0
102
RTVSPropertyOp42
 70
     0
102
RTVSPropertyOp43
 70
     0
102
RTVSPropertyOp44
 70
     0
102
RTVSPropertyOp45
 70
     0
102
RTVSPropertyOp46
 70
     0
102
RTVSPropertyOp47
 70
     0
102
RTVSPropertyOp48
 70
     0
102
RTVSPropertyOp49
 70
     0
102
RTVSPropertyOp50
 70
     0
102
RTVSPropertyOp51
 70
     0
102
RTVSPropertyOp52
 70
     0
102
RTVSPropertyOp53
 70
     0
102
RTVSPropertyOp54
 70
     0
102
RTVSPropertyOp55
 70
     0
102
RTVSPropertyOp56
 70
     0
102
RTVSPropertyOp57
 70
     0
102
RTVSPost2010Prop28
280
     0
102
RTVSPost2010PropOp28
 70
     0
102
RTVSPost2010Prop29
280
     1
102
RTVSPost2010PropOp29
 70
     0
102
RTVSPost2010Prop30
280
     1
102
RTVSPost2010PropOp30
 70
     0
102
RTVSPost2010Prop31
280
     0
102
RTVSPost2010PropOp31
 70
     0
102
RTVSPost2010Prop32
280
     0
102
RTVSPost2010PropOp32
 70
     0
102
RTVSPost2010Prop33
280
     0
102
RTVSPost2010PropOp33
 70
     0
102
RTVSPost2010Prop34
280
     0
102
RTVSPost2010PropOp34
 70
     0
102
RTVSPost2010Prop35
280
     0
102
RTVSPost2010PropOp35
 70
     0
102
RTVSPost2010Prop36
280
     0
102
RTVSPost2010PropOp36
 70
     0
102
RTVSPost2010Prop37
 90
       50
102
RTVSPost2010PropOp37
 70
     0
102
RTVSPost2010Prop38
140
0.0
102
RTVSPost2010PropOp38
 70
     0
102
RTVSPost2010Prop39
140
1.0
102
RTVSPost2010PropOp39
 70
     0
102
RTVSPost2010Prop40
 90
        0
102
RTVSPost2010PropOp40
 70
     0
102
RTVSPost2010Prop41ColorIndex
 90
       18
102
RTVSPost2010Prop41ColorRGB
 90
        0
102
RTVSPost2010PropOp41
 70
     0
102
RTVSPost2010Prop42
 90
       50
102
RTVSPost2010PropOp42
 70
     0
102
RTVSPost2010Prop43
 90
        3
102
RTVSPost2010PropOp43
 70
     0
102
RTVSPost2010Prop44ColorIndex
 90
        5
102
RTVSPost2010Prop44ColorRGB
 90
      255
102
RTVSPost2010PropOp44
 70
     0
102
RTVSPost2010Prop45
280
     0
102
RTVSPost2010PropOp45
 70
     0
102
RTVSPost2010Prop46
 90
       50
102
RTVSPost2010PropOp46
 70
     0
102
RTVSPost2010Prop47
 90
       50
102
RTVSPost2010PropOp47
 70
     0
102
RTVSPost2010Prop48
 90
       50
102
RTVSPost2010PropOp48
 70
     0
102
RTVSPost2010Prop49
280
     0
102
RTVSPost2010PropOp49
 70
     0
102
RTVSPost2010Prop50
 90
       50
102
RTVSPost2010PropOp50
 70
     0
102
RTVSPost2010Prop51ColorIndex
 90
      256
102
RTVSPost2010Prop51ColorRGB
 90
-16777216
102
RTVSPost2010PropOp51
 70
     0
102
RTVSPost2010Prop52
140
1.0
102
RTVSPost2010PropOp52
 70
     0
102
RTVSPost2010Prop53
 90
        2
102
RTVSPost2010PropOp53
 70
     0
102
RTVSPost2010Prop54
  1
strokes_ogs.tif
102
RTVSPost2010PropOp54
 70
     0
102
RTVSPost2010Prop55
280
     0
102
RTVSPost2010PropOp55
 70
     0
102
RTVSPost2010Prop56
140
1.0
102
RTVSPost2010PropOp56
 70
     0
102
RTVSPost2010Prop57
140
1.0
102
RTVSPost2010PropOp57
 70
     0
  0
XRECORD
  5
449
102
{ACAD_REACTORS
330
448
102
}
330
448
100
AcDbXrecord
280
     1
102
RTVSPropertyOp0
 70
     1
102
RTVSPropertyOp1
 70
     1
102
RTVSPropertyOp2
 70
     1
102
RTVSPropertyOp3
 70
     1
102
RTVSPropertyOp4
 70
     1
102
RTVSPropertyOp5
 70
     1
102
RTVSPropertyOp6
 70
     1
102
RTVSPropertyOp7
 70
     1
102
RTVSPropertyOp8
 70
     1
102
RTVSPropertyOp9
 70
     1
102
RTVSPropertyOp10
 70
     1
102
RTVSPropertyOp11
 70
     1
102
RTVSPropertyOp12
 70
     1
102
RTVSPropertyOp13
 70
     1
102
RTVSPropertyOp14
 70
     1
102
RTVSPropertyOp15
 70
     1
102
RTVSPropertyOp16
 70
     1
102
RTVSPropertyOp17
 70
     1
102
RTVSPropertyOp18
 70
     1
102
RTVSPropertyOp19
 70
     1
102
RTVSPropertyOp20
 70
     1
102
RTVSPropertyOp21
 70
     1
102
RTVSPropertyOp22
 70
     1
102
RTVSPropertyOp23
 70
     1
102
RTVSPropertyOp24
 70
     1
102
RTVSPropertyOp25
 70
     1
102
RTVSPropertyOp26
 70
     1
102
RTVSPropertyOp27
 70
     1
102
RTVSPropertyOp28
 70
     1
102
RTVSPropertyOp29
 70
     1
102
RTVSPropertyOp30
 70
     1
102
RTVSPropertyOp31
 70
     1
102
RTVSPropertyOp32
 70
     1
102
RTVSPropertyOp33
 70
     1
102
RTVSPropertyOp34
 70
     1
102
RTVSPropertyOp35
 70
     1
102
RTVSPropertyOp36
 70
     1
102
RTVSPropertyOp37
 70
     1
102
RTVSPropertyOp38
 70
     1
102
RTVSPropertyOp39
 70
     1
102
RTVSPropertyOp40
 70
     1
102
RTVSPropertyOp41
 70
     1
102
RTVSPropertyOp42
 70
     1
102
RTVSPropertyOp43
 70
     1
102
RTVSPropertyOp44
 70
     1
102
RTVSPropertyOp45
 70
     1
102
RTVSPropertyOp46
 70
     1
102
RTVSPropertyOp47
 70
     1
102
RTVSPropertyOp48
 70
     1
102
RTVSPropertyOp49
 70
     1
102
RTVSPropertyOp50
 70
     1
102
RTVSPropertyOp51
 70
     0
102
RTVSPropertyOp52
 70
     0
102
RTVSPropertyOp53
 70
     1
102
RTVSPropertyOp54
 70
     1
102
RTVSPropertyOp55
 70
     1
102
RTVSPropertyOp56
 70
     1
102
RTVSPropertyOp57
 70
     1
102
RTVSPost2010Prop28
280
     0
102
RTVSPost2010PropOp28
 70
     1
102
RTVSPost2010Prop29
280
     1
102
RTVSPost2010PropOp29
 70
     1
102
RTVSPost2010Prop30
280
     1
102
RTVSPost2010PropOp30
 70
     1
102
RTVSPost2010Prop31
280
     0
102
RTVSPost2010PropOp31
 70
     1
102
RTVSPost2010Prop32
280
     0
102
RTVSPost2010PropOp32
 70
     1
102
RTVSPost2010Prop33
280
     0
102
RTVSPost2010PropOp33
 70
     1
102
RTVSPost2010Prop34
280
     0
102
RTVSPost2010PropOp34
 70
     1
102
RTVSPost2010Prop35
280
     0
102
RTVSPost2010PropOp35
 70
     1
102
RTVSPost2010Prop36
280
     0
102
RTVSPost2010PropOp36
 70
     1
102
RTVSPost2010Prop37
 90
       50
102
RTVSPost2010PropOp37
 70
     1
102
RTVSPost2010Prop38
140
0.0
102
RTVSPost2010PropOp38
 70
     1
102
RTVSPost2010Prop39
140
1.0
102
RTVSPost2010PropOp39
 70
     1
102
RTVSPost2010Prop40
 90
        0
102
RTVSPost2010PropOp40
 70
     1
102
RTVSPost2010Prop41ColorIndex
 90
       18
102
RTVSPost2010Prop41ColorRGB
 90
        0
102
RTVSPost2010PropOp41
 70
     1
102
RTVSPost2010Prop42
 90
       50
102
RTVSPost2010PropOp42
 70
     1
102
RTVSPost2010Prop43
 90
        3
102
RTVSPost2010PropOp43
 70
     1
102
RTVSPost2010Prop44ColorIndex
 90
        5
102
RTVSPost2010Prop44ColorRGB
 90
      255
102
RTVSPost2010PropOp44
 70
     1
102
RTVSPost2010Prop45
280
     0
102
RTVSPost2010PropOp45
 70
     1
102
RTVSPost2010Prop46
 90
       50
102
RTVSPost2010PropOp46
 70
     1
102
RTVSPost2010Prop47
 90
       50
102
RTVSPost2010PropOp47
 70
     1
102
RTVSPost2010Prop48
 90
       50
102
RTVSPost2010PropOp48
 70
     1
102
RTVSPost2010Prop49
280
     0
102
RTVSPost2010PropOp49
 70
     1
102
RTVSPost2010Prop50
 90
       50
102
RTVSPost2010PropOp50
 70
     1
102
RTVSPost2010Prop51ColorIndex
 90
      256
102
RTVSPost2010Prop51ColorRGB
 90
-16777216
102
RTVSPost2010PropOp51
 70
     0
102
RTVSPost2010Prop52
140
1.0
102
RTVSPost2010PropOp52
 70
     0
102
RTVSPost2010Prop53
 90
        2
102
RTVSPost2010PropOp53
 70
     1
102
RTVSPost2010Prop54
  1
strokes_ogs.tif
102
RTVSPost2010PropOp54
 70
     1
102
RTVSPost2010Prop55
280
     0
102
RTVSPost2010PropOp55
 70
     1
102
RTVSPost2010Prop56
140
1.0
102
RTVSPost2010PropOp56
 70
     1
102
RTVSPost2010Prop57
140
1.0
102
RTVSPost2010PropOp57
 70
     1
  0
XRECORD
  5
451
102
{ACAD_REACTORS
330
450
102
}
330
450
100
AcDbXrecord
280
     1
102
RTVSPropertyOp0
 70
     0
102
RTVSPropertyOp1
 70
     0
102
RTVSPropertyOp2
 70
     0
102
RTVSPropertyOp3
 70
     0
102
RTVSPropertyOp4
 70
     0
102
RTVSPropertyOp5
 70
     0
102
RTVSPropertyOp6
 70
     0
102
RTVSPropertyOp7
 70
     0
102
RTVSPropertyOp8
 70
     0
102
RTVSPropertyOp9
 70
     0
102
RTVSPropertyOp10
 70
     0
102
RTVSPropertyOp11
 70
     0
102
RTVSPropertyOp12
 70
     0
102
RTVSPropertyOp13
 70
     0
102
RTVSPropertyOp14
 70
     2
102
RTVSPropertyOp15
 70
     0
102
RTVSPropertyOp16
 70
     0
102
RTVSPropertyOp17
 70
     0
102
RTVSPropertyOp18
 70
     0
102
RTVSPropertyOp19
 70
     0
102
RTVSPropertyOp20
 70
     0
102
RTVSPropertyOp21
 70
     0
102
RTVSPropertyOp22
 70
     0
102
RTVSPropertyOp23
 70
     0
102
RTVSPropertyOp24
 70
     0
102
RTVSPropertyOp25
 70
     0
102
RTVSPropertyOp26
 70
     0
102
RTVSPropertyOp27
 70
     0
102
RTVSPropertyOp28
 70
     0
102
RTVSPropertyOp29
 70
     0
102
RTVSPropertyOp30
 70
     0
102
RTVSPropertyOp31
 70
     0
102
RTVSPropertyOp32
 70
     0
102
RTVSPropertyOp33
 70
     0
102
RTVSPropertyOp34
 70
     0
102
RTVSPropertyOp35
 70
     0
102
RTVSPropertyOp36
 70
     0
102
RTVSPropertyOp37
 70
     0
102
RTVSPropertyOp38
 70
     0
102
RTVSPropertyOp39
 70
     0
102
RTVSPropertyOp40
 70
     0
102
RTVSPropertyOp41
 70
     0
102
RTVSPropertyOp42
 70
     0
102
RTVSPropertyOp43
 70
     0
102
RTVSPropertyOp44
 70
     0
102
RTVSPropertyOp45
 70
     0
102
RTVSPropertyOp46
 70
     0
102
RTVSPropertyOp47
 70
     0
102
RTVSPropertyOp48
 70
     0
102
RTVSPropertyOp49
 70
     0
102
RTVSPropertyOp50
 70
     0
102
RTVSPropertyOp51
 70
     0
102
RTVSPropertyOp52
 70
     0
102
RTVSPropertyOp53
 70
     0
102
RTVSPropertyOp54
 70
     0
102
RTVSPropertyOp55
 70
     0
102
RTVSPropertyOp56
 70
     0
102
RTVSPropertyOp57
 70
     0
102
RTVSPost2010Prop28
280
     0
102
RTVSPost2010PropOp28
 70
     0
102
RTVSPost2010Prop29
280
     1
102
RTVSPost2010PropOp29
 70
     0
102
RTVSPost2010Prop30
280
     1
102
RTVSPost2010PropOp30
 70
     0
102
RTVSPost2010Prop31
280
     0
102
RTVSPost2010PropOp31
 70
     0
102
RTVSPost2010Prop32
280
     0
102
RTVSPost2010PropOp32
 70
     0
102
RTVSPost2010Prop33
280
     0
102
RTVSPost2010PropOp33
 70
     0
102
RTVSPost2010Prop34
280
     0
102
RTVSPost2010PropOp34
 70
     0
102
RTVSPost2010Prop35
280
     0
102
RTVSPost2010PropOp35
 70
     0
102
RTVSPost2010Prop36
280
     0
102
RTVSPost2010PropOp36
 70
     0
102
RTVSPost2010Prop37
 90
       50
102
RTVSPost2010PropOp37
 70
     0
102
RTVSPost2010Prop38
140
0.0
102
RTVSPost2010PropOp38
 70
     0
102
RTVSPost2010Prop39
140
1.0
102
RTVSPost2010PropOp39
 70
     0
102
RTVSPost2010Prop40
 90
        0
102
RTVSPost2010PropOp40
 70
     0
102
RTVSPost2010Prop41ColorIndex
 90
       18
102
RTVSPost2010Prop41ColorRGB
 90
        0
102
RTVSPost2010PropOp41
 70
     0
102
RTVSPost2010Prop42
 90
       50
102
RTVSPost2010PropOp42
 70
     0
102
RTVSPost2010Prop43
 90
        3
102
RTVSPost2010PropOp43
 70
     0
102
RTVSPost2010Prop44ColorIndex
 90
        5
102
RTVSPost2010Prop44ColorRGB
 90
      255
102
RTVSPost2010PropOp44
 70
     0
102
RTVSPost2010Prop45
280
     0
102
RTVSPost2010PropOp45
 70
     0
102
RTVSPost2010Prop46
 90
       50
102
RTVSPost2010PropOp46
 70
     0
102
RTVSPost2010Prop47
 90
       50
102
RTVSPost2010PropOp47
 70
     0
102
RTVSPost2010Prop48
 90
       50
102
RTVSPost2010PropOp48
 70
     0
102
RTVSPost2010Prop49
280
     0
102
RTVSPost2010PropOp49
 70
     0
102
RTVSPost2010Prop50
 90
       50
102
RTVSPost2010PropOp50
 70
     0
102
RTVSPost2010Prop51ColorIndex
 90
      256
102
RTVSPost2010Prop51ColorRGB
 90
-16777216
102
RTVSPost2010PropOp51
 70
     0
102
RTVSPost2010Prop52
140
1.0
102
RTVSPost2010PropOp52
 70
     0
102
RTVSPost2010Prop53
 90
        2
102
RTVSPost2010PropOp53
 70
     0
102
RTVSPost2010Prop54
  1
strokes_ogs.tif
102
RTVSPost2010PropOp54
 70
     0
102
RTVSPost2010Prop55
280
     0
102
RTVSPost2010PropOp55
 70
     0
102
RTVSPost2010Prop56
140
1.0
102
RTVSPost2010PropOp56
 70
     0
102
RTVSPost2010Prop57
140
1.0
102
RTVSPost2010PropOp57
 70
     0
  0
XRECORD
  5
43F
102
{ACAD_REACTORS
330
43E
102
}
330
43E
100
AcDbXrecord
280
     1
102
RTVSPropertyOp0
 70
     1
102
RTVSPropertyOp1
 70
     1
102
RTVSPropertyOp2
 70
     1
102
RTVSPropertyOp3
 70
     1
102
RTVSPropertyOp4
 70
     1
102
RTVSPropertyOp5
 70
     1
102
RTVSPropertyOp6
 70
     1
102
RTVSPropertyOp7
 70
     1
102
RTVSPropertyOp8
 70
     1
102
RTVSPropertyOp9
 70
     1
102
RTVSPropertyOp10
 70
     1
102
RTVSPropertyOp11
 70
     1
102
RTVSPropertyOp12
 70
     1
102
RTVSPropertyOp13
 70
     1
102
RTVSPropertyOp14
 70
     1
102
RTVSPropertyOp15
 70
     1
102
RTVSPropertyOp16
 70
     1
102
RTVSPropertyOp17
 70
     1
102
RTVSPropertyOp18
 70
     1
102
RTVSPropertyOp19
 70
     1
102
RTVSPropertyOp20
 70
     1
102
RTVSPropertyOp21
 70
     1
102
RTVSPropertyOp22
 70
     1
102
RTVSPropertyOp23
 70
     1
102
RTVSPropertyOp24
 70
     1
102
RTVSPropertyOp25
 70
     1
102
RTVSPropertyOp26
 70
     1
102
RTVSPropertyOp27
 70
     1
102
RTVSPropertyOp28
 70
     1
102
RTVSPropertyOp29
 70
     1
102
RTVSPropertyOp30
 70
     1
102
RTVSPropertyOp31
 70
     1
102
RTVSPropertyOp32
 70
     1
102
RTVSPropertyOp33
 70
     1
102
RTVSPropertyOp34
 70
     1
102
RTVSPropertyOp35
 70
     1
102
RTVSPropertyOp36
 70
     1
102
RTVSPropertyOp37
 70
     1
102
RTVSPropertyOp38
 70
     1
102
RTVSPropertyOp39
 70
     1
102
RTVSPropertyOp40
 70
     1
102
RTVSPropertyOp41
 70
     1
102
RTVSPropertyOp42
 70
     1
102
RTVSPropertyOp43
 70
     1
102
RTVSPropertyOp44
 70
     1
102
RTVSPropertyOp45
 70
     1
102
RTVSPropertyOp46
 70
     1
102
RTVSPropertyOp47
 70
     1
102
RTVSPropertyOp48
 70
     1
102
RTVSPropertyOp49
 70
     1
102
RTVSPropertyOp50
 70
     1
102
RTVSPropertyOp51
 70
     0
102
RTVSPropertyOp52
 70
     0
102
RTVSPropertyOp53
 70
     1
102
RTVSPropertyOp54
 70
     1
102
RTVSPropertyOp55
 70
     1
102
RTVSPropertyOp56
 70
     1
102
RTVSPropertyOp57
 70
     1
102
RTVSPost2010Prop28
280
     0
102
RTVSPost2010PropOp28
 70
     1
102
RTVSPost2010Prop29
280
     1
102
RTVSPost2010PropOp29
 70
     1
102
RTVSPost2010Prop30
280
     1
102
RTVSPost2010PropOp30
 70
     1
102
RTVSPost2010Prop31
280
     0
102
RTVSPost2010PropOp31
 70
     1
102
RTVSPost2010Prop32
280
     0
102
RTVSPost2010PropOp32
 70
     1
102
RTVSPost2010Prop33
280
     0
102
RTVSPost2010PropOp33
 70
     1
102
RTVSPost2010Prop34
280
     0
102
RTVSPost2010PropOp34
 70
     1
102
RTVSPost2010Prop35
280
     0
102
RTVSPost2010PropOp35
 70
     1
102
RTVSPost2010Prop36
280
     0
102
RTVSPost2010PropOp36
 70
     1
102
RTVSPost2010Prop37
 90
       50
102
RTVSPost2010PropOp37
 70
     1
102
RTVSPost2010Prop38
140
0.0
102
RTVSPost2010PropOp38
 70
     1
102
RTVSPost2010Prop39
140
1.0
102
RTVSPost2010PropOp39
 70
     1
102
RTVSPost2010Prop40
 90
        0
102
RTVSPost2010PropOp40
 70
     1
102
RTVSPost2010Prop41ColorIndex
 90
       18
102
RTVSPost2010Prop41ColorRGB
 90
        0
102
RTVSPost2010PropOp41
 70
     1
102
RTVSPost2010Prop42
 90
       50
102
RTVSPost2010PropOp42
 70
     1
102
RTVSPost2010Prop43
 90
        3
102
RTVSPost2010PropOp43
 70
     1
102
RTVSPost2010Prop44ColorIndex
 90
        5
102
RTVSPost2010Prop44ColorRGB
 90
      255
102
RTVSPost2010PropOp44
 70
     1
102
RTVSPost2010Prop45
280
     0
102
RTVSPost2010PropOp45
 70
     1
102
RTVSPost2010Prop46
 90
       50
102
RTVSPost2010PropOp46
 70
     1
102
RTVSPost2010Prop47
 90
       50
102
RTVSPost2010PropOp47
 70
     1
102
RTVSPost2010Prop48
 90
       50
102
RTVSPost2010PropOp48
 70
     1
102
RTVSPost2010Prop49
280
     0
102
RTVSPost2010PropOp49
 70
     1
102
RTVSPost2010Prop50
 90
       50
102
RTVSPost2010PropOp50
 70
     1
102
RTVSPost2010Prop51ColorIndex
 90
      256
102
RTVSPost2010Prop51ColorRGB
 90
-16777216
102
RTVSPost2010PropOp51
 70
     0
102
RTVSPost2010Prop52
140
1.0
102
RTVSPost2010PropOp52
 70
     0
102
RTVSPost2010Prop53
 90
        2
102
RTVSPost2010PropOp53
 70
     1
102
RTVSPost2010Prop54
  1
strokes_ogs.tif
102
RTVSPost2010PropOp54
 70
     1
102
RTVSPost2010Prop55
280
     0
102
RTVSPost2010PropOp55
 70
     1
102
RTVSPost2010Prop56
140
1.0
102
RTVSPost2010PropOp56
 70
     1
102
RTVSPost2010Prop57
140
1.0
102
RTVSPost2010PropOp57
 70
     1
  0
XRECORD
  5
45D
102
{ACAD_REACTORS
330
45C
102
}
330
45C
100
AcDbXrecord
280
     1
102
RTVSPropertyOp0
 70
     1
102
RTVSPropertyOp1
 70
     1
102
RTVSPropertyOp2
 70
     1
102
RTVSPropertyOp3
 70
     1
102
RTVSPropertyOp4
 70
     1
102
RTVSPropertyOp5
 70
     1
102
RTVSPropertyOp6
 70
     1
102
RTVSPropertyOp7
 70
     1
102
RTVSPropertyOp8
 70
     1
102
RTVSPropertyOp9
 70
     1
102
RTVSPropertyOp10
 70
     1
102
RTVSPropertyOp11
 70
     1
102
RTVSPropertyOp12
 70
     1
102
RTVSPropertyOp13
 70
     1
102
RTVSPropertyOp14
 70
     1
102
RTVSPropertyOp15
 70
     1
102
RTVSPropertyOp16
 70
     1
102
RTVSPropertyOp17
 70
     1
102
RTVSPropertyOp18
 70
     1
102
RTVSPropertyOp19
 70
     1
102
RTVSPropertyOp20
 70
     1
102
RTVSPropertyOp21
 70
     1
102
RTVSPropertyOp22
 70
     1
102
RTVSPropertyOp23
 70
     1
102
RTVSPropertyOp24
 70
     1
102
RTVSPropertyOp25
 70
     1
102
RTVSPropertyOp26
 70
     1
102
RTVSPropertyOp27
 70
     1
102
RTVSPropertyOp28
 70
     1
102
RTVSPropertyOp29
 70
     1
102
RTVSPropertyOp30
 70
     1
102
RTVSPropertyOp31
 70
     1
102
RTVSPropertyOp32
 70
     1
102
RTVSPropertyOp33
 70
     1
102
RTVSPropertyOp34
 70
     1
102
RTVSPropertyOp35
 70
     1
102
RTVSPropertyOp36
 70
     1
102
RTVSPropertyOp37
 70
     1
102
RTVSPropertyOp38
 70
     1
102
RTVSPropertyOp39
 70
     1
102
RTVSPropertyOp40
 70
     1
102
RTVSPropertyOp41
 70
     1
102
RTVSPropertyOp42
 70
     1
102
RTVSPropertyOp43
 70
     1
102
RTVSPropertyOp44
 70
     1
102
RTVSPropertyOp45
 70
     1
102
RTVSPropertyOp46
 70
     1
102
RTVSPropertyOp47
 70
     1
102
RTVSPropertyOp48
 70
     1
102
RTVSPropertyOp49
 70
     1
102
RTVSPropertyOp50
 70
     1
102
RTVSPropertyOp51
 70
     0
102
RTVSPropertyOp52
 70
     0
102
RTVSPropertyOp53
 70
     1
102
RTVSPropertyOp54
 70
     1
102
RTVSPropertyOp55
 70
     1
102
RTVSPropertyOp56
 70
     1
102
RTVSPropertyOp57
 70
     1
102
RTVSPost2010Prop28
280
     0
102
RTVSPost2010PropOp28
 70
     1
102
RTVSPost2010Prop29
280
     1
102
RTVSPost2010PropOp29
 70
     1
102
RTVSPost2010Prop30
280
     1
102
RTVSPost2010PropOp30
 70
     1
102
RTVSPost2010Prop31
280
     0
102
RTVSPost2010PropOp31
 70
     1
102
RTVSPost2010Prop32
280
     0
102
RTVSPost2010PropOp32
 70
     1
102
RTVSPost2010Prop33
280
     0
102
RTVSPost2010PropOp33
 70
     1
102
RTVSPost2010Prop34
280
     0
102
RTVSPost2010PropOp34
 70
     1
102
RTVSPost2010Prop35
280
     0
102
RTVSPost2010PropOp35
 70
     1
102
RTVSPost2010Prop36
280
     0
102
RTVSPost2010PropOp36
 70
     1
102
RTVSPost2010Prop37
 90
       50
102
RTVSPost2010PropOp37
 70
     1
102
RTVSPost2010Prop38
140
0.0
102
RTVSPost2010PropOp38
 70
     1
102
RTVSPost2010Prop39
140
1.0
102
RTVSPost2010PropOp39
 70
     1
102
RTVSPost2010Prop40
 90
        0
102
RTVSPost2010PropOp40
 70
     1
102
RTVSPost2010Prop41ColorIndex
 90
       18
102
RTVSPost2010Prop41ColorRGB
 90
        0
102
RTVSPost2010PropOp41
 70
     1
102
RTVSPost2010Prop42
 90
       50
102
RTVSPost2010PropOp42
 70
     1
102
RTVSPost2010Prop43
 90
        3
102
RTVSPost2010PropOp43
 70
     1
102
RTVSPost2010Prop44ColorIndex
 90
        5
102
RTVSPost2010Prop44ColorRGB
 90
      255
102
RTVSPost2010PropOp44
 70
     1
102
RTVSPost2010Prop45
280
     0
102
RTVSPost2010PropOp45
 70
     1
102
RTVSPost2010Prop46
 90
       50
102
RTVSPost2010PropOp46
 70
     1
102
RTVSPost2010Prop47
 90
       50
102
RTVSPost2010PropOp47
 70
     1
102
RTVSPost2010Prop48
 90
       50
102
RTVSPost2010PropOp48
 70
     1
102
RTVSPost2010Prop49
280
     0
102
RTVSPost2010PropOp49
 70
     1
102
RTVSPost2010Prop50
 90
       50
102
RTVSPost2010PropOp50
 70
     1
102
RTVSPost2010Prop51ColorIndex
 90
      256
102
RTVSPost2010Prop51ColorRGB
 90
-16777216
102
RTVSPost2010PropOp51
 70
     0
102
RTVSPost2010Prop52
140
1.0
102
RTVSPost2010PropOp52
 70
     0
102
RTVSPost2010Prop53
 90
        2
102
RTVSPost2010PropOp53
 70
     1
102
RTVSPost2010Prop54
  1
strokes_ogs.tif
102
RTVSPost2010PropOp54
 70
     1
102
RTVSPost2010Prop55
280
     0
102
RTVSPost2010PropOp55
 70
     1
102
RTVSPost2010Prop56
140
1.0
102
RTVSPost2010PropOp56
 70
     1
102
RTVSPost2010Prop57
140
1.0
102
RTVSPost2010PropOp57
 70
     1
  0
XRECORD
  5
45B
102
{ACAD_REACTORS
330
45A
102
}
330
45A
100
AcDbXrecord
280
     1
102
RTVSPropertyOp0
 70
     1
102
RTVSPropertyOp1
 70
     1
102
RTVSPropertyOp2
 70
     1
102
RTVSPropertyOp3
 70
     1
102
RTVSPropertyOp4
 70
     1
102
RTVSPropertyOp5
 70
     1
102
RTVSPropertyOp6
 70
     1
102
RTVSPropertyOp7
 70
     1
102
RTVSPropertyOp8
 70
     1
102
RTVSPropertyOp9
 70
     1
102
RTVSPropertyOp10
 70
     1
102
RTVSPropertyOp11
 70
     1
102
RTVSPropertyOp12
 70
     1
102
RTVSPropertyOp13
 70
     1
102
RTVSPropertyOp14
 70
     1
102
RTVSPropertyOp15
 70
     1
102
RTVSPropertyOp16
 70
     1
102
RTVSPropertyOp17
 70
     1
102
RTVSPropertyOp18
 70
     1
102
RTVSPropertyOp19
 70
     1
102
RTVSPropertyOp20
 70
     1
102
RTVSPropertyOp21
 70
     1
102
RTVSPropertyOp22
 70
     1
102
RTVSPropertyOp23
 70
     1
102
RTVSPropertyOp24
 70
     1
102
RTVSPropertyOp25
 70
     1
102
RTVSPropertyOp26
 70
     1
102
RTVSPropertyOp27
 70
     1
102
RTVSPropertyOp28
 70
     1
102
RTVSPropertyOp29
 70
     1
102
RTVSPropertyOp30
 70
     1
102
RTVSPropertyOp31
 70
     1
102
RTVSPropertyOp32
 70
     1
102
RTVSPropertyOp33
 70
     1
102
RTVSPropertyOp34
 70
     1
102
RTVSPropertyOp35
 70
     1
102
RTVSPropertyOp36
 70
     1
102
RTVSPropertyOp37
 70
     1
102
RTVSPropertyOp38
 70
     1
102
RTVSPropertyOp39
 70
     1
102
RTVSPropertyOp40
 70
     1
102
RTVSPropertyOp41
 70
     1
102
RTVSPropertyOp42
 70
     1
102
RTVSPropertyOp43
 70
     1
102
RTVSPropertyOp44
 70
     1
102
RTVSPropertyOp45
 70
     1
102
RTVSPropertyOp46
 70
     1
102
RTVSPropertyOp47
 70
     1
102
RTVSPropertyOp48
 70
     1
102
RTVSPropertyOp49
 70
     1
102
RTVSPropertyOp50
 70
     1
102
RTVSPropertyOp51
 70
     0
102
RTVSPropertyOp52
 70
     0
102
RTVSPropertyOp53
 70
     1
102
RTVSPropertyOp54
 70
     1
102
RTVSPropertyOp55
 70
     1
102
RTVSPropertyOp56
 70
     1
102
RTVSPropertyOp57
 70
     1
102
RTVSPost2010Prop28
280
     0
102
RTVSPost2010PropOp28
 70
     1
102
RTVSPost2010Prop29
280
     1
102
RTVSPost2010PropOp29
 70
     1
102
RTVSPost2010Prop30
280
     1
102
RTVSPost2010PropOp30
 70
     1
102
RTVSPost2010Prop31
280
     0
102
RTVSPost2010PropOp31
 70
     1
102
RTVSPost2010Prop32
280
     0
102
RTVSPost2010PropOp32
 70
     1
102
RTVSPost2010Prop33
280
     0
102
RTVSPost2010PropOp33
 70
     1
102
RTVSPost2010Prop34
280
     0
102
RTVSPost2010PropOp34
 70
     1
102
RTVSPost2010Prop35
280
     0
102
RTVSPost2010PropOp35
 70
     1
102
RTVSPost2010Prop36
280
     0
102
RTVSPost2010PropOp36
 70
     1
102
RTVSPost2010Prop37
 90
       50
102
RTVSPost2010PropOp37
 70
     1
102
RTVSPost2010Prop38
140
0.0
102
RTVSPost2010PropOp38
 70
     1
102
RTVSPost2010Prop39
140
1.0
102
RTVSPost2010PropOp39
 70
     1
102
RTVSPost2010Prop40
 90
        0
102
RTVSPost2010PropOp40
 70
     1
102
RTVSPost2010Prop41ColorIndex
 90
       18
102
RTVSPost2010Prop41ColorRGB
 90
        0
102
RTVSPost2010PropOp41
 70
     1
102
RTVSPost2010Prop42
 90
       50
102
RTVSPost2010PropOp42
 70
     1
102
RTVSPost2010Prop43
 90
        3
102
RTVSPost2010PropOp43
 70
     1
102
RTVSPost2010Prop44ColorIndex
 90
        5
102
RTVSPost2010Prop44ColorRGB
 90
      255
102
RTVSPost2010PropOp44
 70
     1
102
RTVSPost2010Prop45
280
     0
102
RTVSPost2010PropOp45
 70
     1
102
RTVSPost2010Prop46
 90
       50
102
RTVSPost2010PropOp46
 70
     1
102
RTVSPost2010Prop47
 90
       50
102
RTVSPost2010PropOp47
 70
     1
102
RTVSPost2010Prop48
 90
       50
102
RTVSPost2010PropOp48
 70
     1
102
RTVSPost2010Prop49
280
     0
102
RTVSPost2010PropOp49
 70
     1
102
RTVSPost2010Prop50
 90
       50
102
RTVSPost2010PropOp50
 70
     1
102
RTVSPost2010Prop51ColorIndex
 90
      256
102
RTVSPost2010Prop51ColorRGB
 90
-16777216
102
RTVSPost2010PropOp51
 70
     0
102
RTVSPost2010Prop52
140
1.0
102
RTVSPost2010PropOp52
 70
     0
102
RTVSPost2010Prop53
 90
        2
102
RTVSPost2010PropOp53
 70
     1
102
RTVSPost2010Prop54
  1
strokes_ogs.tif
102
RTVSPost2010PropOp54
 70
     1
102
RTVSPost2010Prop55
280
     0
102
RTVSPost2010PropOp55
 70
     1
102
RTVSPost2010Prop56
140
1.0
102
RTVSPost2010PropOp56
 70
     1
102
RTVSPost2010Prop57
140
1.0
102
RTVSPost2010PropOp57
 70
     1
  0
XRECORD
  5
455
102
{ACAD_REACTORS
330
454
102
}
330
454
100
AcDbXrecord
280
     1
102
RTVSPropertyOp0
 70
     1
102
RTVSPropertyOp1
 70
     1
102
RTVSPropertyOp2
 70
     1
102
RTVSPropertyOp3
 70
     1
102
RTVSPropertyOp4
 70
     1
102
RTVSPropertyOp5
 70
     1
102
RTVSPropertyOp6
 70
     1
102
RTVSPropertyOp7
 70
     1
102
RTVSPropertyOp8
 70
     1
102
RTVSPropertyOp9
 70
     1
102
RTVSPropertyOp10
 70
     1
102
RTVSPropertyOp11
 70
     1
102
RTVSPropertyOp12
 70
     1
102
RTVSPropertyOp13
 70
     1
102
RTVSPropertyOp14
 70
     1
102
RTVSPropertyOp15
 70
     1
102
RTVSPropertyOp16
 70
     1
102
RTVSPropertyOp17
 70
     1
102
RTVSPropertyOp18
 70
     1
102
RTVSPropertyOp19
 70
     1
102
RTVSPropertyOp20
 70
     1
102
RTVSPropertyOp21
 70
     1
102
RTVSPropertyOp22
 70
     1
102
RTVSPropertyOp23
 70
     1
102
RTVSPropertyOp24
 70
     1
102
RTVSPropertyOp25
 70
     1
102
RTVSPropertyOp26
 70
     1
102
RTVSPropertyOp27
 70
     1
102
RTVSPropertyOp28
 70
     1
102
RTVSPropertyOp29
 70
     1
102
RTVSPropertyOp30
 70
     1
102
RTVSPropertyOp31
 70
     1
102
RTVSPropertyOp32
 70
     1
102
RTVSPropertyOp33
 70
     1
102
RTVSPropertyOp34
 70
     1
102
RTVSPropertyOp35
 70
     1
102
RTVSPropertyOp36
 70
     1
102
RTVSPropertyOp37
 70
     1
102
RTVSPropertyOp38
 70
     1
102
RTVSPropertyOp39
 70
     1
102
RTVSPropertyOp40
 70
     1
102
RTVSPropertyOp41
 70
     1
102
RTVSPropertyOp42
 70
     1
102
RTVSPropertyOp43
 70
     1
102
RTVSPropertyOp44
 70
     1
102
RTVSPropertyOp45
 70
     1
102
RTVSPropertyOp46
 70
     1
102
RTVSPropertyOp47
 70
     1
102
RTVSPropertyOp48
 70
     1
102
RTVSPropertyOp49
 70
     1
102
RTVSPropertyOp50
 70
     1
102
RTVSPropertyOp51
 70
     0
102
RTVSPropertyOp52
 70
     0
102
RTVSPropertyOp53
 70
     1
102
RTVSPropertyOp54
 70
     1
102
RTVSPropertyOp55
 70
     1
102
RTVSPropertyOp56
 70
     1
102
RTVSPropertyOp57
 70
     1
102
RTVSPost2010Prop28
280
     0
102
RTVSPost2010PropOp28
 70
     1
102
RTVSPost2010Prop29
280
     1
102
RTVSPost2010PropOp29
 70
     1
102
RTVSPost2010Prop30
280
     1
102
RTVSPost2010PropOp30
 70
     1
102
RTVSPost2010Prop31
280
     0
102
RTVSPost2010PropOp31
 70
     1
102
RTVSPost2010Prop32
280
     0
102
RTVSPost2010PropOp32
 70
     1
102
RTVSPost2010Prop33
280
     0
102
RTVSPost2010PropOp33
 70
     1
102
RTVSPost2010Prop34
280
     0
102
RTVSPost2010PropOp34
 70
     1
102
RTVSPost2010Prop35
280
     0
102
RTVSPost2010PropOp35
 70
     1
102
RTVSPost2010Prop36
280
     0
102
RTVSPost2010PropOp36
 70
     1
102
RTVSPost2010Prop37
 90
       50
102
RTVSPost2010PropOp37
 70
     1
102
RTVSPost2010Prop38
140
0.0
102
RTVSPost2010PropOp38
 70
     1
102
RTVSPost2010Prop39
140
1.0
102
RTVSPost2010PropOp39
 70
     1
102
RTVSPost2010Prop40
 90
        0
102
RTVSPost2010PropOp40
 70
     1
102
RTVSPost2010Prop41ColorIndex
 90
       18
102
RTVSPost2010Prop41ColorRGB
 90
        0
102
RTVSPost2010PropOp41
 70
     1
102
RTVSPost2010Prop42
 90
       50
102
RTVSPost2010PropOp42
 70
     1
102
RTVSPost2010Prop43
 90
        3
102
RTVSPost2010PropOp43
 70
     1
102
RTVSPost2010Prop44ColorIndex
 90
        5
102
RTVSPost2010Prop44ColorRGB
 90
      255
102
RTVSPost2010PropOp44
 70
     1
102
RTVSPost2010Prop45
280
     0
102
RTVSPost2010PropOp45
 70
     1
102
RTVSPost2010Prop46
 90
       50
102
RTVSPost2010PropOp46
 70
     1
102
RTVSPost2010Prop47
 90
       50
102
RTVSPost2010PropOp47
 70
     1
102
RTVSPost2010Prop48
 90
       50
102
RTVSPost2010PropOp48
 70
     1
102
RTVSPost2010Prop49
280
     0
102
RTVSPost2010PropOp49
 70
     1
102
RTVSPost2010Prop50
 90
       50
102
RTVSPost2010PropOp50
 70
     1
102
RTVSPost2010Prop51ColorIndex
 90
      256
102
RTVSPost2010Prop51ColorRGB
 90
-16777216
102
RTVSPost2010PropOp51
 70
     0
102
RTVSPost2010Prop52
140
1.0
102
RTVSPost2010PropOp52
 70
     0
102
RTVSPost2010Prop53
 90
        2
102
RTVSPost2010PropOp53
 70
     1
102
RTVSPost2010Prop54
  1
strokes_ogs.tif
102
RTVSPost2010PropOp54
 70
     1
102
RTVSPost2010Prop55
280
     0
102
RTVSPost2010PropOp55
 70
     1
102
RTVSPost2010Prop56
140
1.0
102
RTVSPost2010PropOp56
 70
     1
102
RTVSPost2010Prop57
140
1.0
102
RTVSPost2010PropOp57
 70
     1
  0
XRECORD
  5
457
102
{ACAD_REACTORS
330
456
102
}
330
456
100
AcDbXrecord
280
     1
102
RTVSPropertyOp0
 70
     1
102
RTVSPropertyOp1
 70
     1
102
RTVSPropertyOp2
 70
     1
102
RTVSPropertyOp3
 70
     1
102
RTVSPropertyOp4
 70
     1
102
RTVSPropertyOp5
 70
     1
102
RTVSPropertyOp6
 70
     1
102
RTVSPropertyOp7
 70
     1
102
RTVSPropertyOp8
 70
     1
102
RTVSPropertyOp9
 70
     1
102
RTVSPropertyOp10
 70
     1
102
RTVSPropertyOp11
 70
     1
102
RTVSPropertyOp12
 70
     1
102
RTVSPropertyOp13
 70
     1
102
RTVSPropertyOp14
 70
     1
102
RTVSPropertyOp15
 70
     1
102
RTVSPropertyOp16
 70
     1
102
RTVSPropertyOp17
 70
     1
102
RTVSPropertyOp18
 70
     1
102
RTVSPropertyOp19
 70
     1
102
RTVSPropertyOp20
 70
     1
102
RTVSPropertyOp21
 70
     1
102
RTVSPropertyOp22
 70
     1
102
RTVSPropertyOp23
 70
     1
102
RTVSPropertyOp24
 70
     1
102
RTVSPropertyOp25
 70
     1
102
RTVSPropertyOp26
 70
     1
102
RTVSPropertyOp27
 70
     1
102
RTVSPropertyOp28
 70
     1
102
RTVSPropertyOp29
 70
     1
102
RTVSPropertyOp30
 70
     1
102
RTVSPropertyOp31
 70
     1
102
RTVSPropertyOp32
 70
     1
102
RTVSPropertyOp33
 70
     1
102
RTVSPropertyOp34
 70
     1
102
RTVSPropertyOp35
 70
     1
102
RTVSPropertyOp36
 70
     1
102
RTVSPropertyOp37
 70
     1
102
RTVSPropertyOp38
 70
     1
102
RTVSPropertyOp39
 70
     1
102
RTVSPropertyOp40
 70
     1
102
RTVSPropertyOp41
 70
     1
102
RTVSPropertyOp42
 70
     1
102
RTVSPropertyOp43
 70
     1
102
RTVSPropertyOp44
 70
     1
102
RTVSPropertyOp45
 70
     1
102
RTVSPropertyOp46
 70
     1
102
RTVSPropertyOp47
 70
     1
102
RTVSPropertyOp48
 70
     1
102
RTVSPropertyOp49
 70
     1
102
RTVSPropertyOp50
 70
     1
102
RTVSPropertyOp51
 70
     0
102
RTVSPropertyOp52
 70
     0
102
RTVSPropertyOp53
 70
     1
102
RTVSPropertyOp54
 70
     1
102
RTVSPropertyOp55
 70
     1
102
RTVSPropertyOp56
 70
     1
102
RTVSPropertyOp57
 70
     1
102
RTVSPost2010Prop28
280
     0
102
RTVSPost2010PropOp28
 70
     1
102
RTVSPost2010Prop29
280
     1
102
RTVSPost2010PropOp29
 70
     1
102
RTVSPost2010Prop30
280
     1
102
RTVSPost2010PropOp30
 70
     1
102
RTVSPost2010Prop31
280
     0
102
RTVSPost2010PropOp31
 70
     1
102
RTVSPost2010Prop32
280
     0
102
RTVSPost2010PropOp32
 70
     1
102
RTVSPost2010Prop33
280
     0
102
RTVSPost2010PropOp33
 70
     1
102
RTVSPost2010Prop34
280
     0
102
RTVSPost2010PropOp34
 70
     1
102
RTVSPost2010Prop35
280
     0
102
RTVSPost2010PropOp35
 70
     1
102
RTVSPost2010Prop36
280
     0
102
RTVSPost2010PropOp36
 70
     1
102
RTVSPost2010Prop37
 90
       50
102
RTVSPost2010PropOp37
 70
     1
102
RTVSPost2010Prop38
140
0.0
102
RTVSPost2010PropOp38
 70
     1
102
RTVSPost2010Prop39
140
1.0
102
RTVSPost2010PropOp39
 70
     1
102
RTVSPost2010Prop40
 90
        0
102
RTVSPost2010PropOp40
 70
     1
102
RTVSPost2010Prop41ColorIndex
 90
       18
102
RTVSPost2010Prop41ColorRGB
 90
        0
102
RTVSPost2010PropOp41
 70
     1
102
RTVSPost2010Prop42
 90
       50
102
RTVSPost2010PropOp42
 70
     1
102
RTVSPost2010Prop43
 90
        3
102
RTVSPost2010PropOp43
 70
     1
102
RTVSPost2010Prop44ColorIndex
 90
        5
102
RTVSPost2010Prop44ColorRGB
 90
      255
102
RTVSPost2010PropOp44
 70
     1
102
RTVSPost2010Prop45
280
     0
102
RTVSPost2010PropOp45
 70
     1
102
RTVSPost2010Prop46
 90
       50
102
RTVSPost2010PropOp46
 70
     1
102
RTVSPost2010Prop47
 90
       50
102
RTVSPost2010PropOp47
 70
     1
102
RTVSPost2010Prop48
 90
       50
102
RTVSPost2010PropOp48
 70
     1
102
RTVSPost2010Prop49
280
     0
102
RTVSPost2010PropOp49
 70
     1
102
RTVSPost2010Prop50
 90
       50
102
RTVSPost2010PropOp50
 70
     1
102
RTVSPost2010Prop51ColorIndex
 90
      256
102
RTVSPost2010Prop51ColorRGB
 90
-16777216
102
RTVSPost2010PropOp51
 70
     0
102
RTVSPost2010Prop52
140
1.0
102
RTVSPost2010PropOp52
 70
     0
102
RTVSPost2010Prop53
 90
        2
102
RTVSPost2010PropOp53
 70
     1
102
RTVSPost2010Prop54
  1
strokes_ogs.tif
102
RTVSPost2010PropOp54
 70
     1
102
RTVSPost2010Prop55
280
     0
102
RTVSPost2010PropOp55
 70
     1
102
RTVSPost2010Prop56
140
1.0
102
RTVSPost2010PropOp56
 70
     1
102
RTVSPost2010Prop57
140
1.0
102
RTVSPost2010PropOp57
 70
     1
  0
XRECORD
  5
447
102
{ACAD_REACTORS
330
446
102
}
330
446
100
AcDbXrecord
280
     1
102
RTVSPropertyOp0
 70
     1
102
RTVSPropertyOp1
 70
     1
102
RTVSPropertyOp2
 70
     1
102
RTVSPropertyOp3
 70
     1
102
RTVSPropertyOp4
 70
     1
102
RTVSPropertyOp5
 70
     1
102
RTVSPropertyOp6
 70
     1
102
RTVSPropertyOp7
 70
     1
102
RTVSPropertyOp8
 70
     1
102
RTVSPropertyOp9
 70
     1
102
RTVSPropertyOp10
 70
     1
102
RTVSPropertyOp11
 70
     1
102
RTVSPropertyOp12
 70
     1
102
RTVSPropertyOp13
 70
     1
102
RTVSPropertyOp14
 70
     1
102
RTVSPropertyOp15
 70
     1
102
RTVSPropertyOp16
 70
     1
102
RTVSPropertyOp17
 70
     1
102
RTVSPropertyOp18
 70
     1
102
RTVSPropertyOp19
 70
     1
102
RTVSPropertyOp20
 70
     1
102
RTVSPropertyOp21
 70
     1
102
RTVSPropertyOp22
 70
     1
102
RTVSPropertyOp23
 70
     1
102
RTVSPropertyOp24
 70
     1
102
RTVSPropertyOp25
 70
     1
102
RTVSPropertyOp26
 70
     1
102
RTVSPropertyOp27
 70
     1
102
RTVSPropertyOp28
 70
     1
102
RTVSPropertyOp29
 70
     1
102
RTVSPropertyOp30
 70
     1
102
RTVSPropertyOp31
 70
     1
102
RTVSPropertyOp32
 70
     1
102
RTVSPropertyOp33
 70
     1
102
RTVSPropertyOp34
 70
     1
102
RTVSPropertyOp35
 70
     1
102
RTVSPropertyOp36
 70
     1
102
RTVSPropertyOp37
 70
     1
102
RTVSPropertyOp38
 70
     1
102
RTVSPropertyOp39
 70
     1
102
RTVSPropertyOp40
 70
     1
102
RTVSPropertyOp41
 70
     1
102
RTVSPropertyOp42
 70
     1
102
RTVSPropertyOp43
 70
     1
102
RTVSPropertyOp44
 70
     1
102
RTVSPropertyOp45
 70
     1
102
RTVSPropertyOp46
 70
     1
102
RTVSPropertyOp47
 70
     1
102
RTVSPropertyOp48
 70
     1
102
RTVSPropertyOp49
 70
     1
102
RTVSPropertyOp50
 70
     1
102
RTVSPropertyOp51
 70
     0
102
RTVSPropertyOp52
 70
     0
102
RTVSPropertyOp53
 70
     1
102
RTVSPropertyOp54
 70
     1
102
RTVSPropertyOp55
 70
     1
102
RTVSPropertyOp56
 70
     1
102
RTVSPropertyOp57
 70
     1
102
RTVSPost2010Prop28
280
     0
102
RTVSPost2010PropOp28
 70
     1
102
RTVSPost2010Prop29
280
     1
102
RTVSPost2010PropOp29
 70
     1
102
RTVSPost2010Prop30
280
     1
102
RTVSPost2010PropOp30
 70
     1
102
RTVSPost2010Prop31
280
     0
102
RTVSPost2010PropOp31
 70
     1
102
RTVSPost2010Prop32
280
     0
102
RTVSPost2010PropOp32
 70
     1
102
RTVSPost2010Prop33
280
     0
102
RTVSPost2010PropOp33
 70
     1
102
RTVSPost2010Prop34
280
     0
102
RTVSPost2010PropOp34
 70
     1
102
RTVSPost2010Prop35
280
     0
102
RTVSPost2010PropOp35
 70
     1
102
RTVSPost2010Prop36
280
     0
102
RTVSPost2010PropOp36
 70
     1
102
RTVSPost2010Prop37
 90
       50
102
RTVSPost2010PropOp37
 70
     1
102
RTVSPost2010Prop38
140
0.0
102
RTVSPost2010PropOp38
 70
     1
102
RTVSPost2010Prop39
140
1.0
102
RTVSPost2010PropOp39
 70
     1
102
RTVSPost2010Prop40
 90
        0
102
RTVSPost2010PropOp40
 70
     1
102
RTVSPost2010Prop41ColorIndex
 90
       18
102
RTVSPost2010Prop41ColorRGB
 90
        0
102
RTVSPost2010PropOp41
 70
     1
102
RTVSPost2010Prop42
 90
       50
102
RTVSPost2010PropOp42
 70
     1
102
RTVSPost2010Prop43
 90
        3
102
RTVSPost2010PropOp43
 70
     1
102
RTVSPost2010Prop44ColorIndex
 90
        5
102
RTVSPost2010Prop44ColorRGB
 90
      255
102
RTVSPost2010PropOp44
 70
     1
102
RTVSPost2010Prop45
280
     0
102
RTVSPost2010PropOp45
 70
     1
102
RTVSPost2010Prop46
 90
       50
102
RTVSPost2010PropOp46
 70
     1
102
RTVSPost2010Prop47
 90
       50
102
RTVSPost2010PropOp47
 70
     1
102
RTVSPost2010Prop48
 90
       50
102
RTVSPost2010PropOp48
 70
     1
102
RTVSPost2010Prop49
280
     0
102
RTVSPost2010PropOp49
 70
     1
102
RTVSPost2010Prop50
 90
       50
102
RTVSPost2010PropOp50
 70
     1
102
RTVSPost2010Prop51ColorIndex
 90
      256
102
RTVSPost2010Prop51ColorRGB
 90
-16777216
102
RTVSPost2010PropOp51
 70
     0
102
RTVSPost2010Prop52
140
1.0
102
RTVSPost2010PropOp52
 70
     0
102
RTVSPost2010Prop53
 90
        2
102
RTVSPost2010PropOp53
 70
     1
102
RTVSPost2010Prop54
  1
strokes_ogs.tif
102
RTVSPost2010PropOp54
 70
     1
102
RTVSPost2010Prop55
280
     0
102
RTVSPost2010PropOp55
 70
     1
102
RTVSPost2010Prop56
140
1.0
102
RTVSPost2010PropOp56
 70
     1
102
RTVSPost2010Prop57
140
1.0
102
RTVSPost2010PropOp57
 70
     1
  0
XRECORD
  5
439
102
{ACAD_REACTORS
330
438
102
}
330
438
100
AcDbXrecord
280
     1
102
RTVSPropertyOp0
 70
     1
102
RTVSPropertyOp1
 70
     1
102
RTVSPropertyOp2
 70
     1
102
RTVSPropertyOp3
 70
     1
102
RTVSPropertyOp4
 70
     1
102
RTVSPropertyOp5
 70
     1
102
RTVSPropertyOp6
 70
     1
102
RTVSPropertyOp7
 70
     1
102
RTVSPropertyOp8
 70
     1
102
RTVSPropertyOp9
 70
     1
102
RTVSPropertyOp10
 70
     1
102
RTVSPropertyOp11
 70
     1
102
RTVSPropertyOp12
 70
     1
102
RTVSPropertyOp13
 70
     1
102
RTVSPropertyOp14
 70
     1
102
RTVSPropertyOp15
 70
     1
102
RTVSPropertyOp16
 70
     1
102
RTVSPropertyOp17
 70
     1
102
RTVSPropertyOp18
 70
     1
102
RTVSPropertyOp19
 70
     1
102
RTVSPropertyOp20
 70
     1
102
RTVSPropertyOp21
 70
     1
102
RTVSPropertyOp22
 70
     1
102
RTVSPropertyOp23
 70
     1
102
RTVSPropertyOp24
 70
     1
102
RTVSPropertyOp25
 70
     1
102
RTVSPropertyOp26
 70
     1
102
RTVSPropertyOp27
 70
     1
102
RTVSPropertyOp28
 70
     1
102
RTVSPropertyOp29
 70
     1
102
RTVSPropertyOp30
 70
     1
102
RTVSPropertyOp31
 70
     1
102
RTVSPropertyOp32
 70
     1
102
RTVSPropertyOp33
 70
     1
102
RTVSPropertyOp34
 70
     1
102
RTVSPropertyOp35
 70
     1
102
RTVSPropertyOp36
 70
     1
102
RTVSPropertyOp37
 70
     1
102
RTVSPropertyOp38
 70
     1
102
RTVSPropertyOp39
 70
     1
102
RTVSPropertyOp40
 70
     1
102
RTVSPropertyOp41
 70
     1
102
RTVSPropertyOp42
 70
     1
102
RTVSPropertyOp43
 70
     1
102
RTVSPropertyOp44
 70
     1
102
RTVSPropertyOp45
 70
     1
102
RTVSPropertyOp46
 70
     1
102
RTVSPropertyOp47
 70
     1
102
RTVSPropertyOp48
 70
     1
102
RTVSPropertyOp49
 70
     1
102
RTVSPropertyOp50
 70
     1
102
RTVSPropertyOp51
 70
     0
102
RTVSPropertyOp52
 70
     0
102
RTVSPropertyOp53
 70
     1
102
RTVSPropertyOp54
 70
     1
102
RTVSPropertyOp55
 70
     1
102
RTVSPropertyOp56
 70
     1
102
RTVSPropertyOp57
 70
     1
102
RTVSPost2010Prop28
280
     0
102
RTVSPost2010PropOp28
 70
     1
102
RTVSPost2010Prop29
280
     1
102
RTVSPost2010PropOp29
 70
     1
102
RTVSPost2010Prop30
280
     1
102
RTVSPost2010PropOp30
 70
     1
102
RTVSPost2010Prop31
280
     0
102
RTVSPost2010PropOp31
 70
     1
102
RTVSPost2010Prop32
280
     0
102
RTVSPost2010PropOp32
 70
     1
102
RTVSPost2010Prop33
280
     0
102
RTVSPost2010PropOp33
 70
     1
102
RTVSPost2010Prop34
280
     0
102
RTVSPost2010PropOp34
 70
     1
102
RTVSPost2010Prop35
280
     0
102
RTVSPost2010PropOp35
 70
     1
102
RTVSPost2010Prop36
280
     0
102
RTVSPost2010PropOp36
 70
     1
102
RTVSPost2010Prop37
 90
       50
102
RTVSPost2010PropOp37
 70
     1
102
RTVSPost2010Prop38
140
0.0
102
RTVSPost2010PropOp38
 70
     1
102
RTVSPost2010Prop39
140
1.0
102
RTVSPost2010PropOp39
 70
     1
102
RTVSPost2010Prop40
 90
        0
102
RTVSPost2010PropOp40
 70
     1
102
RTVSPost2010Prop41ColorIndex
 90
       18
102
RTVSPost2010Prop41ColorRGB
 90
        0
102
RTVSPost2010PropOp41
 70
     1
102
RTVSPost2010Prop42
 90
       50
102
RTVSPost2010PropOp42
 70
     1
102
RTVSPost2010Prop43
 90
        3
102
RTVSPost2010PropOp43
 70
     1
102
RTVSPost2010Prop44ColorIndex
 90
        5
102
RTVSPost2010Prop44ColorRGB
 90
      255
102
RTVSPost2010PropOp44
 70
     1
102
RTVSPost2010Prop45
280
     0
102
RTVSPost2010PropOp45
 70
     1
102
RTVSPost2010Prop46
 90
       50
102
RTVSPost2010PropOp46
 70
     1
102
RTVSPost2010Prop47
 90
       50
102
RTVSPost2010PropOp47
 70
     1
102
RTVSPost2010Prop48
 90
       50
102
RTVSPost2010PropOp48
 70
     1
102
RTVSPost2010Prop49
280
     0
102
RTVSPost2010PropOp49
 70
     1
102
RTVSPost2010Prop50
 90
       50
102
RTVSPost2010PropOp50
 70
     1
102
RTVSPost2010Prop51ColorIndex
 90
      256
102
RTVSPost2010Prop51ColorRGB
 90
-16777216
102
RTVSPost2010PropOp51
 70
     0
102
RTVSPost2010Prop52
140
1.0
102
RTVSPost2010PropOp52
 70
     0
102
RTVSPost2010Prop53
 90
        2
102
RTVSPost2010PropOp53
 70
     1
102
RTVSPost2010Prop54
  1
strokes_ogs.tif
102
RTVSPost2010PropOp54
 70
     1
102
RTVSPost2010Prop55
280
     0
102
RTVSPost2010PropOp55
 70
     1
102
RTVSPost2010Prop56
140
1.0
102
RTVSPost2010PropOp56
 70
     1
102
RTVSPost2010Prop57
140
1.0
102
RTVSPost2010PropOp57
 70
     1
  0
XRECORD
  5
459
102
{ACAD_REACTORS
330
458
102
}
330
458
100
AcDbXrecord
280
     1
102
RTVSPropertyOp0
 70
     1
102
RTVSPropertyOp1
 70
     1
102
RTVSPropertyOp2
 70
     1
102
RTVSPropertyOp3
 70
     1
102
RTVSPropertyOp4
 70
     1
102
RTVSPropertyOp5
 70
     1
102
RTVSPropertyOp6
 70
     1
102
RTVSPropertyOp7
 70
     1
102
RTVSPropertyOp8
 70
     1
102
RTVSPropertyOp9
 70
     1
102
RTVSPropertyOp10
 70
     1
102
RTVSPropertyOp11
 70
     1
102
RTVSPropertyOp12
 70
     1
102
RTVSPropertyOp13
 70
     1
102
RTVSPropertyOp14
 70
     1
102
RTVSPropertyOp15
 70
     1
102
RTVSPropertyOp16
 70
     1
102
RTVSPropertyOp17
 70
     1
102
RTVSPropertyOp18
 70
     1
102
RTVSPropertyOp19
 70
     1
102
RTVSPropertyOp20
 70
     1
102
RTVSPropertyOp21
 70
     1
102
RTVSPropertyOp22
 70
     1
102
RTVSPropertyOp23
 70
     1
102
RTVSPropertyOp24
 70
     1
102
RTVSPropertyOp25
 70
     1
102
RTVSPropertyOp26
 70
     1
102
RTVSPropertyOp27
 70
     1
102
RTVSPropertyOp28
 70
     1
102
RTVSPropertyOp29
 70
     1
102
RTVSPropertyOp30
 70
     1
102
RTVSPropertyOp31
 70
     1
102
RTVSPropertyOp32
 70
     1
102
RTVSPropertyOp33
 70
     1
102
RTVSPropertyOp34
 70
     1
102
RTVSPropertyOp35
 70
     1
102
RTVSPropertyOp36
 70
     1
102
RTVSPropertyOp37
 70
     1
102
RTVSPropertyOp38
 70
     1
102
RTVSPropertyOp39
 70
     1
102
RTVSPropertyOp40
 70
     1
102
RTVSPropertyOp41
 70
     1
102
RTVSPropertyOp42
 70
     1
102
RTVSPropertyOp43
 70
     1
102
RTVSPropertyOp44
 70
     1
102
RTVSPropertyOp45
 70
     1
102
RTVSPropertyOp46
 70
     1
102
RTVSPropertyOp47
 70
     1
102
RTVSPropertyOp48
 70
     1
102
RTVSPropertyOp49
 70
     1
102
RTVSPropertyOp50
 70
     1
102
RTVSPropertyOp51
 70
     0
102
RTVSPropertyOp52
 70
     0
102
RTVSPropertyOp53
 70
     1
102
RTVSPropertyOp54
 70
     1
102
RTVSPropertyOp55
 70
     1
102
RTVSPropertyOp56
 70
     1
102
RTVSPropertyOp57
 70
     1
102
RTVSPost2010Prop28
280
     0
102
RTVSPost2010PropOp28
 70
     1
102
RTVSPost2010Prop29
280
     1
102
RTVSPost2010PropOp29
 70
     1
102
RTVSPost2010Prop30
280
     1
102
RTVSPost2010PropOp30
 70
     1
102
RTVSPost2010Prop31
280
     0
102
RTVSPost2010PropOp31
 70
     1
102
RTVSPost2010Prop32
280
     0
102
RTVSPost2010PropOp32
 70
     1
102
RTVSPost2010Prop33
280
     0
102
RTVSPost2010PropOp33
 70
     1
102
RTVSPost2010Prop34
280
     0
102
RTVSPost2010PropOp34
 70
     1
102
RTVSPost2010Prop35
280
     0
102
RTVSPost2010PropOp35
 70
     1
102
RTVSPost2010Prop36
280
     0
102
RTVSPost2010PropOp36
 70
     1
102
RTVSPost2010Prop37
 90
       50
102
RTVSPost2010PropOp37
 70
     1
102
RTVSPost2010Prop38
140
0.0
102
RTVSPost2010PropOp38
 70
     1
102
RTVSPost2010Prop39
140
1.0
102
RTVSPost2010PropOp39
 70
     1
102
RTVSPost2010Prop40
 90
        0
102
RTVSPost2010PropOp40
 70
     1
102
RTVSPost2010Prop41ColorIndex
 90
       18
102
RTVSPost2010Prop41ColorRGB
 90
        0
102
RTVSPost2010PropOp41
 70
     1
102
RTVSPost2010Prop42
 90
       50
102
RTVSPost2010PropOp42
 70
     1
102
RTVSPost2010Prop43
 90
        3
102
RTVSPost2010PropOp43
 70
     1
102
RTVSPost2010Prop44ColorIndex
 90
        5
102
RTVSPost2010Prop44ColorRGB
 90
      255
102
RTVSPost2010PropOp44
 70
     1
102
RTVSPost2010Prop45
280
     0
102
RTVSPost2010PropOp45
 70
     1
102
RTVSPost2010Prop46
 90
       50
102
RTVSPost2010PropOp46
 70
     1
102
RTVSPost2010Prop47
 90
       50
102
RTVSPost2010PropOp47
 70
     1
102
RTVSPost2010Prop48
 90
       50
102
RTVSPost2010PropOp48
 70
     1
102
RTVSPost2010Prop49
280
     0
102
RTVSPost2010PropOp49
 70
     1
102
RTVSPost2010Prop50
 90
       50
102
RTVSPost2010PropOp50
 70
     1
102
RTVSPost2010Prop51ColorIndex
 90
      256
102
RTVSPost2010Prop51ColorRGB
 90
-16777216
102
RTVSPost2010PropOp51
 70
     0
102
RTVSPost2010Prop52
140
1.0
102
RTVSPost2010PropOp52
 70
     0
102
RTVSPost2010Prop53
 90
        2
102
RTVSPost2010PropOp53
 70
     1
102
RTVSPost2010Prop54
  1
strokes_ogs.tif
102
RTVSPost2010PropOp54
 70
     1
102
RTVSPost2010Prop55
280
     0
102
RTVSPost2010PropOp55
 70
     1
102
RTVSPost2010Prop56
140
1.0
102
RTVSPost2010PropOp56
 70
     1
102
RTVSPost2010Prop57
140
1.0
102
RTVSPost2010PropOp57
 70
     1
  0
ENDSEC
  0
EOF
