  0
SECTION
  2
HEADER
  9
$ACADVER
  1
AC1018
  9
$ACADMAINTVER
 70
     0
  9
$DWGCODEPAGE
  3
ANSI_932
  9
$INSBASE
 10
0.0
 20
0.0
 30
0.0
  9
$EXTMIN
 10
-2100.0
 20
-1485.0
 30
0.0
  9
$EXTMAX
 10
2100.0
 20
1485.0
 30
0.0
  9
$LIMMIN
 10
-2100.0
 20
-1485.0
  9
$LIMMAX
 10
2100.0
 20
1485.0
  9
$ORTHOMODE
 70
     0
  9
$REGENMODE
 70
     1
  9
$FILLMODE
 70
     1
  9
$QTEXTMODE
 70
     0
  9
$MIRRTEXT
 70
     1
  9
$LTSCALE
 40
10.0
  9
$ATTMODE
 70
     1
  9
$TEXTSIZE
 40
2.5
  9
$TRACEWID
 40
1.0
  9
$TEXTSTYLE
  7
Standard
  9
$CLAYER
  8
0
  9
$CELTYPE
  6
ByLayer
  9
$CECOLOR
 62
   256
  9
$CELTSCALE
 40
1.0
  9
$DISPSILH
 70
     0
  9
$DIMSCALE
 40
1.0
  9
$DIMASZ
 40
2.5
  9
$DIMEXO
 40
0.625
  9
$DIMDLI
 40
3.75
  9
$DIMRND
 40
0.0
  9
$DIMDLE
 40
0.0
  9
$DIMEXE
 40
1.25
  9
$DIMTP
 40
0.0
  9
$DIMTM
 40
0.0
  9
$DIMTXT
 40
2.5
  9
$DIMCEN
 40
2.5
  9
$DIMTSZ
 40
0.0
  9
$DIMTOL
 70
     0
  9
$DIMLIM
 70
     0
  9
$DIMTIH
 70
     0
  9
$DIMTOH
 70
     0
  9
$DIMSE1
 70
     0
  9
$DIMSE2
 70
     0
  9
$DIMTAD
 70
     1
  9
$DIMZIN
 70
     8
  9
$DIMBLK
  1

  9
$DIMASO
 70
     1
  9
$DIMSHO
 70
     1
  9
$DIMPOST
  1

  9
$DIMAPOST
  1

  9
$DIMALT
 70
     0
  9
$DIMALTD
 70
     3
  9
$DIMALTF
 40
0.03937007874016
  9
$DIMLFAC
 40
1.0
  9
$DIMTOFL
 70
     1
  9
$DIMTVP
 40
0.0
  9
$DIMTIX
 70
     0
  9
$DIMSOXD
 70
     0
  9
$DIMSAH
 70
     0
  9
$DIMBLK1
  1

  9
$DIMBLK2
  1

  9
$DIMSTYLE
  2
ISO-25
  9
$DIMCLRD
 70
     0
  9
$DIMCLRE
 70
     0
  9
$DIMCLRT
 70
     0
  9
$DIMTFAC
 40
1.0
  9
$DIMGAP
 40
0.625
  9
$DIMJUST
 70
     0
  9
$DIMSD1
 70
     0
  9
$DIMSD2
 70
     0
  9
$DIMTOLJ
 70
     0
  9
$DIMTZIN
 70
     8
  9
$DIMALTZ
 70
     0
  9
$DIMALTTZ
 70
     0
  9
$DIMUPT
 70
     0
  9
$DIMDEC
 70
     2
  9
$DIMTDEC
 70
     2
  9
$DIMALTU
 70
     2
  9
$DIMALTTD
 70
     3
  9
$DIMTXSTY
  7
Standard
  9
$DIMAUNIT
 70
     0
  9
$DIMADEC
 70
     0
  9
$DIMALTRND
 40
0.0
  9
$DIMAZIN
 70
     0
  9
$DIMDSEP
 70
    44
  9
$DIMATFIT
 70
     3
  9
$DIMFRAC
 70
     0
  9
$DIMLDRBLK
  1

  9
$DIMLUNIT
 70
     2
  9
$DIMLWD
 70
    -2
  9
$DIMLWE
 70
    -2
  9
$DIMTMOVE
 70
     0
  9
$LUNITS
 70
     2
  9
$LUPREC
 70
     4
  9
$SKETCHINC
 40
1.0
  9
$FILLETRAD
 40
10.0
  9
$AUNITS
 70
     0
  9
$AUPREC
 70
     0
  9
$MENU
  1
.
  9
$ELEVATION
 40
0.0
  9
$PELEVATION
 40
0.0
  9
$THICKNESS
 40
0.0
  9
$LIMCHECK
 70
     0
  9
$CHAMFERA
 40
0.0
  9
$CHAMFERB
 40
0.0
  9
$CHAMFERC
 40
0.0
  9
$CHAMFERD
 40
0.0
  9
$SKPOLY
 70
     0
  9
$TDCREATE
 40
2459961.397717153
  9
$TDUCREATE
 40
2459961.022717153
  9
$TDUPDATE
 40
2459961.397717361
  9
$TDUUPDATE
 40
2459961.022717361
  9
$TDINDWG
 40
0.0000000116
  9
$TDUSRTIMER
 40
0.0000000116
  9
$USRTIMER
 70
     1
  9
$ANGBASE
 50
0.0
  9
$ANGDIR
 70
     0
  9
$PDMODE
 70
     0
  9
$PDSIZE
 40
0.0
  9
$PLINEWID
 40
0.0
  9
$SPLFRAME
 70
     0
  9
$SPLINETYPE
 70
     6
  9
$SPLINESEGS
 70
     8
  9
$HANDSEED
  5
45D
  9
$SURFTAB1
 70
     6
  9
$SURFTAB2
 70
     6
  9
$SURFTYPE
 70
     6
  9
$SURFU
 70
     6
  9
$SURFV
 70
     6
  9
$UCSBASE
  2

  9
$UCSNAME
  2

  9
$UCSORG
 10
0.0
 20
0.0
 30
0.0
  9
$UCSXDIR
 10
1.0
 20
0.0
 30
0.0
  9
$UCSYDIR
 10
0.0
 20
1.0
 30
0.0
  9
$UCSORTHOREF
  2

  9
$UCSORTHOVIEW
 70
     0
  9
$UCSORGTOP
 10
0.0
 20
0.0
 30
0.0
  9
$UCSORGBOTTOM
 10
0.0
 20
0.0
 30
0.0
  9
$UCSORGLEFT
 10
0.0
 20
0.0
 30
0.0
  9
$UCSORGRIGHT
 10
0.0
 20
0.0
 30
0.0
  9
$UCSORGFRONT
 10
0.0
 20
0.0
 30
0.0
  9
$UCSORGBACK
 10
0.0
 20
0.0
 30
0.0
  9
$PUCSBASE
  2

  9
$PUCSNAME
  2

  9
$PUCSORG
 10
0.0
 20
0.0
 30
0.0
  9
$PUCSXDIR
 10
1.0
 20
0.0
 30
0.0
  9
$PUCSYDIR
 10
0.0
 20
1.0
 30
0.0
  9
$PUCSORTHOREF
  2

  9
$PUCSORTHOVIEW
 70
     0
  9
$PUCSORGTOP
 10
0.0
 20
0.0
 30
0.0
  9
$PUCSORGBOTTOM
 10
0.0
 20
0.0
 30
0.0
  9
$PUCSORGLEFT
 10
0.0
 20
0.0
 30
0.0
  9
$PUCSORGRIGHT
 10
0.0
 20
0.0
 30
0.0
  9
$PUCSORGFRONT
 10
0.0
 20
0.0
 30
0.0
  9
$PUCSORGBACK
 10
0.0
 20
0.0
 30
0.0
  9
$USERI1
 70
     0
  9
$USERI2
 70
     0
  9
$USERI3
 70
     0
  9
$USERI4
 70
     0
  9
$USERI5
 70
     0
  9
$USERR1
 40
0.0
  9
$USERR2
 40
0.0
  9
$USERR3
 40
0.0
  9
$USERR4
 40
0.0
  9
$USERR5
 40
0.0
  9
$WORLDVIEW
 70
     1
  9
$SHADEDGE
 70
     3
  9
$SHADEDIF
 70
    70
  9
$TILEMODE
 70
     1
  9
$MAXACTVP
 70
    64
  9
$PINSBASE
 10
0.0
 20
0.0
 30
0.0
  9
$PLIMCHECK
 70
     0
  9
$PEXTMIN
 10
1.000000000000000E+20
 20
1.000000000000000E+20
 30
1.000000000000000E+20
  9
$PEXTMAX
 10
-1.000000000000000E+20
 20
-1.000000000000000E+20
 30
-1.000000000000000E+20
  9
$PLIMMIN
 10
0.0
 20
0.0
  9
$PLIMMAX
 10
420.0
 20
297.0
  9
$UNITMODE
 70
     0
  9
$VISRETAIN
 70
     1
  9
$PLINEGEN
 70
     0
  9
$PSLTSCALE
 70
     1
  9
$TREEDEPTH
 70
  3020
  9
$CMLSTYLE
  2
Standard
  9
$CMLJUST
 70
     0
  9
$CMLSCALE
 40
20.0
  9
$PROXYGRAPHICS
 70
     1
  9
$MEASUREMENT
 70
     1
  9
$CELWEIGHT
370
    -1
  9
$ENDCAPS
280
     0
  9
$JOINSTYLE
280
     0
  9
$LWDISPLAY
290
     0
  9
$INSUNITS
 70
     4
  9
$HYPERLINKBASE
  1

  9
$STYLESHEET
  1

  9
$XEDIT
290
     1
  9
$CEPSNTYPE
380
     0
  9
$PSTYLEMODE
290
     1
  9
$FINGERPRINTGUID
  2
{F0589D62-7264-47BB-8FA9-DA3A91450B51}
  9
$VERSIONGUID
  2
{FAEB1C32-E019-11D5-929B-00C0DF256EC4}
  9
$EXTNAMES
290
     1
  9
$PSVPSCALE
 40
0.0
  9
$OLESTARTUP
290
     0
  9
$SORTENTS
280
   127
  9
$INDEXCTL
280
     0
  9
$HIDETEXT
280
     1
  9
$XCLIPFRAME
290
     0
  9
$HALOGAP
280
     0
  9
$OBSCOLOR
 70
   257
  9
$OBSLTYPE
280
     0
  9
$INTERSECTIONDISPLAY
280
     0
  9
$INTERSECTIONCOLOR
 70
   257
  9
$DIMASSOC
280
     2
  9
$PROJECTNAME
  1

  0
ENDSEC
  0
SECTION
  2
CLASSES
  0
CLASS
  1
ACDBDICTIONARYWDFLT
  2
AcDbDictionaryWithDefault
  3
ObjectDBX Classes
 90
        0
 91
        4
280
     0
281
     0
  0
CLASS
  1
VISUALSTYLE
  2
AcDbVisualStyle
  3
ObjectDBX Classes
 90
     4095
 91
        4
280
     0
281
     0
  0
CLASS
  1
MATERIAL
  2
AcDbMaterial
  3
ObjectDBX Classes
 90
     1153
 91
        4
280
     0
281
     0
  0
CLASS
  1
SCALE
  2
AcDbScale
  3
ObjectDBX Classes
 90
     1153
 91
        4
280
     0
281
     0
  0
CLASS
  1
TABLESTYLE
  2
AcDbTableStyle
  3
ObjectDBX Classes
 90
     4095
 91
        4
280
     0
281
     0
  0
CLASS
  1
MLEADERSTYLE
  2
AcDbMLeaderStyle
  3
ACDB_MLEADERSTYLE_CLASS
 90
     4095
 91
        4
280
     0
281
     0
  0
CLASS
  1
SUN
  2
AcDbSun
  3
SCENEOE
 90
     1153
 91
        4
280
     0
281
     0
  0
CLASS
  1
DICTIONARYVAR
  2
AcDbDictionaryVar
  3
ObjectDBX Classes
 90
        0
 91
        4
280
     0
281
     0
  0
CLASS
  1
CELLSTYLEMAP
  2
AcDbCellStyleMap
  3
ObjectDBX Classes
 90
     1152
 91
        4
280
     0
281
     0
  0
ENDSEC
  0
SECTION
  2
TABLES
  0
TABLE
  2
VPORT
  5
8
102
{ACAD_XDICTIONARY
360
414
102
}
330
0
100
AcDbSymbolTable
 70
     1
  0
VPORT
  5
29
330
8
100
AcDbSymbolTableRecord
100
AcDbViewportTableRecord
  2
*Active
 70
     0
 10
0.0
 20
0.0
 11
1.0
 21
1.0
 12
0.0
 22
0.0
 13
0.0
 23
0.0
 14
10.0
 24
10.0
 15
10.0
 25
10.0
 16
0.0
 26
0.0
 36
1.0
 17
0.0
 27
0.0
 37
0.0
 40
3267.0
 41
1.414141414141414
 42
50.0
 43
0.0
 44
0.0
 50
0.0
 51
0.0
 71
     0
 72
 10000
 73
     1
 74
     3
 75
     0
 76
     0
 77
     0
 78
     0
281
     0
 65
     1
110
0.0
120
0.0
130
0.0
111
1.0
121
0.0
131
0.0
112
0.0
122
1.0
132
0.0
 79
     0
146
0.0
  0
ENDTAB
  0
TABLE
  2
LTYPE
  5
5
330
0
100
AcDbSymbolTable
 70
     5
  0
LTYPE
  5
14
330
5
100
AcDbSymbolTableRecord
100
AcDbLinetypeTableRecord
  2
ByBlock
 70
     0
  3

 72
    65
 73
     0
 40
0.0
  0
LTYPE
  5
15
330
5
100
AcDbSymbolTableRecord
100
AcDbLinetypeTableRecord
  2
ByLayer
 70
     0
  3

 72
    65
 73
     0
 40
0.0
  0
LTYPE
  5
16
330
5
100
AcDbSymbolTableRecord
100
AcDbLinetypeTableRecord
  2
Continuous
 70
     0
  3
Solid line
 72
    65
 73
     0
 40
0.0
  0
LTYPE
  5
6F
330
5
100
AcDbSymbolTableRecord
100
AcDbLinetypeTableRecord
  2
JWW_DASHED2
 70
     0
  3
--    ----    ----    ----    --
 72
    65
 73
     2
 40
3.386666666666667
 49
1.693333333333333
 74
     0
 49
-1.693333333333333
 74
     0
  0
LTYPE
  5
70
330
5
100
AcDbSymbolTableRecord
100
AcDbLinetypeTableRecord
  2
JWW_CENTER1
 70
     0
  3
-----  --  ----------  --  -----
 72
    65
 73
     4
 40
6.773333333333333
 49
4.233333333333333
 74
     0
 49
-0.8466666666666667
 74
     0
 49
0.8466666666666667
 74
     0
 49
-0.8466666666666667
 74
     0
  0
LTYPE
  5
71
330
5
100
AcDbSymbolTableRecord
100
AcDbLinetypeTableRecord
  2
JWW_CENTER2
 70
     0
  3
-------------  --  -------------
 72
    65
 73
     4
 40
13.54666666666667
 49
11.00666666666667
 74
     0
 49
-0.8466666666666667
 74
     0
 49
0.8466666666666667
 74
     0
 49
-0.8466666666666667
 74
     0
  0
LTYPE
  5
72
330
5
100
AcDbSymbolTableRecord
100
AcDbLinetypeTableRecord
  2
JWW_DASHED3
 70
     0
  3
---  ------  ------  ------  ---
 72
    65
 73
     2
 40
3.386666666666667
 49
2.54
 74
     0
 49
-0.8466666666666667
 74
     0
  0
ENDTAB
  0
TABLE
  2
LAYER
  5
2
330
0
100
AcDbSymbolTable
 70
    15
  0
LAYER
  5
10
330
2
100
AcDbSymbolTableRecord
100
AcDbLayerTableRecord
  2
0
 70
     0
 62
     7
  6
Continuous
370
    -3
390
F
  0
LAYER
  5
73
330
2
100
AcDbSymbolTableRecord
100
AcDbLayerTableRecord
  2
D-2
 70
     0
 62
     7
  6
Continuous
370
    -3
390
F
  0
LAYER
  5
74
330
2
100
AcDbSymbolTableRecord
100
AcDbLayerTableRecord
  2
D-5
 70
     0
 62
     7
  6
Continuous
370
    -3
390
F
  0
LAYER
  5
75
330
2
100
AcDbSymbolTableRecord
100
AcDbLayerTableRecord
  2
D-1
 70
     0
 62
     7
  6
Continuous
370
    -3
390
F
  0
LAYER
  5
76
330
2
100
AcDbSymbolTableRecord
100
AcDbLayerTableRecord
  2
D-4
 70
     0
 62
     7
  6
Continuous
370
    -3
390
F
  0
LAYER
  5
77
330
2
100
AcDbSymbolTableRecord
100
AcDbLayerTableRecord
  2
D-6
 70
     0
 62
     7
  6
Continuous
370
    -3
390
F
  0
LAYER
  5
78
330
2
100
AcDbSymbolTableRecord
100
AcDbLayerTableRecord
  2
D-0
 70
     0
 62
     7
  6
Continuous
370
    -3
390
F
  0
LAYER
  5
79
330
2
100
AcDbSymbolTableRecord
100
AcDbLayerTableRecord
  2
D-9
 70
     0
 62
     7
  6
Continuous
370
    -3
390
F
  0
LAYER
  5
7A
330
2
100
AcDbSymbolTableRecord
100
AcDbLayerTableRecord
  2
F-5ﾚｲﾔ
 70
     0
 62
     7
  6
Continuous
370
    -3
390
F
  0
LAYER
  5
7B
330
2
100
AcDbSymbolTableRecord
100
AcDbLayerTableRecord
  2
C-4
 70
     0
 62
     7
  6
Continuous
370
    -3
390
F
  0
LAYER
  5
7C
330
2
100
AcDbSymbolTableRecord
100
AcDbLayerTableRecord
  2
C-5
 70
     0
 62
     7
  6
Continuous
370
    -3
390
F
  0
LAYER
  5
7D
330
2
100
AcDbSymbolTableRecord
100
AcDbLayerTableRecord
  2
C-2
 70
     0
 62
     7
  6
Continuous
370
    -3
390
F
  0
LAYER
  5
7E
330
2
100
AcDbSymbolTableRecord
100
AcDbLayerTableRecord
  2
C-1
 70
     0
 62
     7
  6
Continuous
370
    -3
390
F
  0
LAYER
  5
7F
330
2
100
AcDbSymbolTableRecord
100
AcDbLayerTableRecord
  2
C-9
 70
     0
 62
     7
  6
Continuous
370
    -3
390
F
  0
LAYER
  5
80
330
2
100
AcDbSymbolTableRecord
100
AcDbLayerTableRecord
  2
C-A
 70
     0
 62
     7
  6
Continuous
370
    -3
390
F
  0
ENDTAB
  0
TABLE
  2
STYLE
  5
3
330
0
100
AcDbSymbolTable
 70
     2
  0
STYLE
  5
11
330
3
100
AcDbSymbolTableRecord
100
AcDbTextStyleTableRecord
  2
Standard
 70
     0
 40
0.0
 41
1.0
 50
0.0
 71
     0
 42
2.5
  3
txt
  4

  0
STYLE
  5
6E
330
3
100
AcDbSymbolTableRecord
100
AcDbTextStyleTableRecord
  2
ＭＳ ゴシック
 70
     0
 40
1.0
 41
1.0
 50
0.0
 71
     0
 42
2.5
  3

  4

1001
ACAD
1000
MS Gothic
1071
    32817
  0
ENDTAB
  0
TABLE
  2
VIEW
  5
6
330
0
100
AcDbSymbolTable
 70
     0
  0
ENDTAB
  0
TABLE
  2
UCS
  5
7
330
0
100
AcDbSymbolTable
 70
     0
  0
ENDTAB
  0
TABLE
  2
APPID
  5
9
330
0
100
AcDbSymbolTable
 70
     2
  0
APPID
  5
12
330
9
100
AcDbSymbolTableRecord
100
AcDbRegAppTableRecord
  2
ACAD
 70
     0
  0
APPID
  5
453
330
9
100
AcDbSymbolTableRecord
100
AcDbRegAppTableRecord
  2
ACAD_MLEADERVER
 70
     0
  0
ENDTAB
  0
TABLE
  2
DIMSTYLE
  5
A
330
0
100
AcDbSymbolTable
 70
     1
100
AcDbDimStyleTable
  0
DIMSTYLE
105
27
330
A
100
AcDbSymbolTableRecord
100
AcDbDimStyleTableRecord
  2
ISO-25
 70
     0
 41
2.5
 42
0.625
 43
3.75
 44
1.25
 73
     0
 74
     0
 77
     1
 78
     8
140
2.5
141
2.5
143
0.03937007874016
147
0.625
171
     3
172
     1
178
     0
271
     2
272
     2
274
     3
278
    44
283
     0
284
     8
340
11
  0
ENDTAB
  0
TABLE
  2
BLOCK_RECORD
  5
1
330
0
100
AcDbSymbolTable
 70
     1
  0
BLOCK_RECORD
  5
1F
330
1
100
AcDbSymbolTableRecord
100
AcDbBlockTableRecord
  2
*Model_Space
340
22
  0
BLOCK_RECORD
  5
1B
330
1
100
AcDbSymbolTableRecord
100
AcDbBlockTableRecord
  2
*Paper_Space
340
1E
  0
BLOCK_RECORD
  5
23
330
1
100
AcDbSymbolTableRecord
100
AcDbBlockTableRecord
  2
*Paper_Space0
340
26
  0
ENDTAB
  0
ENDSEC
  0
SECTION
  2
BLOCKS
  0
BLOCK
  5
20
330
1F
100
AcDbEntity
  8
0
100
AcDbBlockBegin
  2
*Model_Space
 70
     0
 10
0.0
 20
0.0
 30
0.0
  3
*Model_Space
  1

  0
ENDBLK
  5
21
330
1F
100
AcDbEntity
  8
0
100
AcDbBlockEnd
  0
BLOCK
  5
1C
330
1B
100
AcDbEntity
 67
     1
  8
0
100
AcDbBlockBegin
  2
*Paper_Space
 70
     0
 10
0.0
 20
0.0
 30
0.0
  3
*Paper_Space
  1

  0
ENDBLK
  5
1D
330
1B
100
AcDbEntity
 67
     1
  8
0
100
AcDbBlockEnd
  0
BLOCK
  5
24
330
23
100
AcDbEntity
  8
0
100
AcDbBlockBegin
  2
*Paper_Space0
 70
     0
 10
0.0
 20
0.0
 30
0.0
  3
*Paper_Space0
  1

  0
ENDBLK
  5
25
330
23
100
AcDbEntity
  8
0
100
AcDbBlockEnd
  0
ENDSEC
  0
SECTION
  2
ENTITIES
  0
LINE
  5
81
330
1F
100
AcDbEntity
  8
D-2
  6
Continuous
 62
     3
370
     9
100
AcDbLine
 10
-644.3240191485429
 20
-449.8646999049831
 30
0.0
 11
-644.3240191485429
 21
-349.8648648648648
 31
0.0
  0
LINE
  5
82
330
1F
100
AcDbEntity
  8
D-2
  6
Continuous
 62
     3
370
     9
100
AcDbLine
 10
-624.3239531645904
 20
-349.8648648648648
 30
0.0
 11
-624.3239531645904
 21
-449.8646999049831
 31
0.0
  0
LINE
  5
83
330
1F
100
AcDbEntity
  8
D-2
  6
Continuous
 62
     3
370
     9
100
AcDbLine
 10
-1321.992533915752
 20
-505.1086095861485
 30
0.0
 11
-1321.992533915752
 21
-281.1660436681798
 31
0.0
  0
LINE
  5
84
330
1F
100
AcDbEntity
  8
D-2
  6
Continuous
 62
     3
370
     9
100
AcDbLine
 10
-1321.992533915752
 20
-449.8646999049831
 30
0.0
 11
-624.3239531645904
 21
-449.8646999049831
 31
0.0
  0
LINE
  5
85
330
1F
100
AcDbEntity
  8
D-2
  6
Continuous
 62
     3
370
     9
100
AcDbLine
 10
-624.3239531645904
 20
-349.8648648648648
 30
0.0
 11
-1321.992533915752
 21
-349.8648648648648
 31
0.0
  0
LINE
  5
86
330
1F
100
AcDbEntity
  8
D-5
  6
Continuous
 62
     7
370
     9
100
AcDbLine
 10
-25.75799065667212
 20
-483.2934487832558
 30
0.0
 11
-25.75799065667212
 21
-433.2931601034628
 31
0.0
  0
LINE
  5
87
330
1F
100
AcDbEntity
  8
D-5
  6
Continuous
 62
     7
370
     9
100
AcDbLine
 10
-25.75799065667212
 20
-433.2931601034628
 30
0.0
 11
199.2417619035052
 21
-433.2931601034628
 31
0.0
  0
LINE
  5
88
330
1F
100
AcDbEntity
  8
D-5
  6
Continuous
 62
     7
370
     9
100
AcDbLine
 10
199.2417619035052
 20
-433.2931601034628
 30
0.0
 11
199.2417619035052
 21
-483.2934487832558
 31
0.0
  0
LINE
  5
89
330
1F
100
AcDbEntity
  8
D-5
  6
Continuous
 62
     7
370
     9
100
AcDbLine
 10
199.2417619035052
 20
-483.2934487832558
 30
0.0
 11
-25.75799065667212
 21
-483.2934487832558
 31
0.0
  0
LINE
  5
8A
330
1F
100
AcDbEntity
  8
D-2
  6
Continuous
 62
     3
370
     9
100
AcDbLine
 10
-1131.824761468011
 20
-349.8648648648648
 30
0.0
 11
-1131.824761468011
 21
-424.8648648648648
 31
0.0
  0
LINE
  5
8B
330
1F
100
AcDbEntity
  8
D-2
  6
Continuous
 62
     3
370
     9
100
AcDbLine
 10
-1116.824588260135
 20
-349.8648648648648
 30
0.0
 11
-1116.824588260135
 21
-424.8648648648648
 31
0.0
  0
LINE
  5
8C
330
1F
100
AcDbEntity
  8
D-2
  6
Continuous
 62
     3
370
     9
100
AcDbLine
 10
-1111.824448044236
 20
-377.3647081529771
 30
0.0
 11
-1081.824596508129
 21
-387.3648648648648
 31
0.0
  0
LINE
  5
8D
330
1F
100
AcDbEntity
  8
D-2
  6
Continuous
 62
     3
370
     9
100
AcDbLine
 10
-1081.824596508129
 20
-387.3648648648648
 30
0.0
 11
-1081.824596508129
 21
-414.8647081529771
 31
0.0
  0
LINE
  5
8E
330
1F
100
AcDbEntity
  8
D-2
  6
Continuous
 62
     3
370
     9
100
AcDbLine
 10
-1111.824448044236
 20
-414.8647081529771
 30
0.0
 11
-1081.824596508129
 21
-414.8647081529771
 31
0.0
  0
LINE
  5
8F
330
1F
100
AcDbEntity
  8
D-2
  6
Continuous
 62
     3
370
     9
100
AcDbLine
 10
-1111.824448044236
 20
-414.8647081529771
 30
0.0
 11
-1111.824448044236
 21
-424.8648648648648
 31
0.0
  0
LINE
  5
90
330
1F
100
AcDbEntity
  8
D-2
  6
Continuous
 62
     3
370
     9
100
AcDbLine
 10
-1111.824448044236
 20
-424.8648648648648
 30
0.0
 11
-1136.824159364442
 21
-424.8648648648648
 31
0.0
  0
LINE
  5
91
330
1F
100
AcDbEntity
  8
D-2
  6
Continuous
 62
     3
370
     9
100
AcDbLine
 10
-1136.824159364442
 20
-424.8648648648648
 30
0.0
 11
-1166.824382060283
 21
-414.8647081529771
 31
0.0
  0
LINE
  5
92
330
1F
100
AcDbEntity
  8
D-2
  6
Continuous
 62
     3
370
     9
100
AcDbLine
 10
-1166.824382060283
 20
-387.3648648648648
 30
0.0
 11
-1166.824382060283
 21
-414.8647081529771
 31
0.0
  0
LINE
  5
93
330
1F
100
AcDbEntity
  8
D-2
  6
Continuous
 62
     3
370
     9
100
AcDbLine
 10
-1166.824382060283
 20
-387.3648648648648
 30
0.0
 11
-1136.824159364442
 21
-387.3648648648648
 31
0.0
  0
LINE
  5
94
330
1F
100
AcDbEntity
  8
D-2
  6
Continuous
 62
     3
370
     9
100
AcDbLine
 10
-1136.824159364442
 20
-377.3647081529771
 30
0.0
 11
-1136.824159364442
 21
-387.3648648648648
 31
0.0
  0
LINE
  5
95
330
1F
100
AcDbEntity
  8
D-2
  6
Continuous
 62
     3
370
     9
100
AcDbLine
 10
-1131.824761468011
 20
-377.3647081529771
 30
0.0
 11
-1136.824159364442
 21
-377.3647081529771
 31
0.0
  0
LINE
  5
96
330
1F
100
AcDbEntity
  8
D-2
  6
Continuous
 62
     3
370
     9
100
AcDbLine
 10
-1111.824448044236
 20
-377.3647081529771
 30
0.0
 11
-1116.824588260135
 21
-377.3647081529771
 31
0.0
  0
TEXT
  5
97
330
1F
100
AcDbEntity
  8
D-5
  6
Continuous
 62
     2
370
     9
100
AcDbText
 10
21.74204233530418
 20
-472.6533085673564
 30
0.0
 40
30.48
  1
仕　様
 41
1.083333333333333
  7
ＭＳ ゴシック
100
AcDbText
  0
LINE
  5
98
330
1F
100
AcDbEntity
  8
D-1
  6
Continuous
 62
     2
370
     9
100
AcDbLine
 10
-619.3245277533657
 20
-464.864464321652
 30
0.0
 11
-614.324256552232
 21
-464.864464321652
 31
0.0
  0
LINE
  5
99
330
1F
100
AcDbEntity
  8
D-1
  6
Continuous
 62
     2
370
     9
100
AcDbLine
 10
-614.324256552232
 20
-349.8651700406461
 30
0.0
 11
-614.324256552232
 21
-449.8646455197721
 31
0.0
  0
LINE
  5
9A
330
1F
100
AcDbEntity
  8
D-4
  6
Continuous
 62
     7
370
     9
100
AcDbLine
 10
-624.323312177608
 20
-122.6937871365922
 30
0.0
 11
-619.323041213525
 21
-122.6937871365922
 31
0.0
  0
LINE
  5
9B
330
1F
100
AcDbEntity
  8
D-4
  6
Continuous
 62
     7
370
     9
100
AcDbLine
 10
-749.3241438994534
 20
-231.4461522488969
 30
0.0
 11
-624.323312177608
 21
-231.4461522488969
 31
0.0
  0
LINE
  5
9C
330
1F
100
AcDbEntity
  8
D-4
  6
Continuous
 62
     7
370
     9
100
AcDbLine
 10
-624.323312177608
 20
-336.9096522717862
 30
0.0
 11
-624.323312177608
 21
-119.694214382686
 31
0.0
  0
LINE
  5
9D
330
1F
100
AcDbEntity
  8
D-4
  6
Continuous
 62
     7
370
     9
100
AcDbLine
 10
-614.3232665190823
 20
-336.9096522717862
 30
0.0
 11
-614.3232665190823
 21
-119.694214382686
 31
0.0
  0
LINE
  5
9E
330
1F
100
AcDbEntity
  8
D-4
  6
Continuous
 62
     7
370
     9
100
AcDbLine
 10
-599.3244323859341
 20
-336.9096522717862
 30
0.0
 11
-599.3244323859341
 21
-8.997593441523861
 31
0.0
  0
LINE
  5
9F
330
1F
100
AcDbEntity
  8
D-6
  6
Continuous
 62
     6
370
     5
100
AcDbLine
 10
-349.3242583403713
 20
-595.8743291287808
 30
0.0
 11
-253.3133635649807
 21
-499.8643784909635
 31
0.0
  0
LINE
  5
A0
330
1F
100
AcDbEntity
  8
D-6
  6
Continuous
 62
     6
370
     5
100
AcDbLine
 10
-349.3242583403713
 20
-499.8643784909635
 30
0.0
 11
-184.3232665190823
 21
-499.8643784909635
 31
0.0
  0
LINE
  5
A1
330
1F
100
AcDbEntity
  8
D-6
  6
Continuous
 62
     6
370
     5
100
AcDbLine
 10
-349.3242583403713
 20
-610.0160031705288
 30
0.0
 11
-239.1726241240627
 21
-499.8643784909635
 31
0.0
  0
LINE
  5
A2
330
1F
100
AcDbEntity
  8
D-6
  6
Continuous
 62
     6
370
     5
100
AcDbLine
 10
-599.3239412436611
 20
-674.8649411588101
 30
0.0
 11
-599.3239412436611
 21
-849.8645215421109
 31
0.0
  0
LINE
  5
A3
330
1F
100
AcDbEntity
  8
D-6
  6
Continuous
 62
     6
370
     5
100
AcDbLine
 10
-349.3242583403713
 20
-499.8643784909635
 30
0.0
 11
-349.3242583403713
 21
-674.8649411588101
 31
0.0
  0
LINE
  5
A4
330
1F
100
AcDbEntity
  8
D-6
  6
Continuous
 62
     6
370
     5
100
AcDbLine
 10
-599.3239412436611
 20
-674.8649411588101
 30
0.0
 11
-349.3242583403713
 21
-674.8649411588101
 31
0.0
  0
LINE
  5
A5
330
1F
100
AcDbEntity
  8
D-4
  6
Continuous
 62
     7
370
     9
100
AcDbLine
 10
-749.3241438994534
 20
-336.9096522717862
 30
0.0
 11
-749.3241438994534
 21
-228.4455876737016
 31
0.0
  0
LINE
  5
A6
330
1F
100
AcDbEntity
  8
D-4
  6
Continuous
 62
     7
370
     9
100
AcDbLine
 10
-619.323041213525
 20
-122.6937871365922
 30
0.0
 11
-561.6628632674343
 21
-122.6937871365922
 31
0.0
  0
LINE
  5
A7
330
1F
100
AcDbEntity
  8
D-4
  6
Continuous
 62
     7
370
     9
100
AcDbLine
 10
-1321.992410195841
 20
-231.4461522488969
 30
0.0
 11
-749.3241438994534
 21
-231.4461522488969
 31
0.0
  0
LINE
  5
A8
330
1F
100
AcDbEntity
  8
D-4
  6
Continuous
 62
     7
370
     9
100
AcDbLine
 10
-1321.992410195841
 20
-122.6937871365922
 30
0.0
 11
-624.323312177608
 21
-122.6937871365922
 31
0.0
  0
LINE
  5
A9
330
1F
100
AcDbEntity
  8
D-4
  6
Continuous
 62
     7
370
     9
100
AcDbLine
 10
-1321.992410195841
 20
-11.99808172277386
 30
0.0
 11
-599.3244323859341
 21
-11.99808172277386
 31
0.0
  0
LINE
  5
AA
330
1F
100
AcDbEntity
  8
D-1
  6
Continuous
 62
     2
370
     9
100
AcDbLine
 10
-614.324256552232
 20
-449.8646455197721
 30
0.0
 11
-749.3246398100979
 21
-449.8646455197721
 31
0.0
  0
LINE
  5
AB
330
1F
100
AcDbEntity
  8
D-1
  6
Continuous
 62
     2
370
     9
100
AcDbLine
 10
-749.3246398100979
 20
-464.864464321652
 30
0.0
 11
-749.3246398100979
 21
-449.8646455197721
 31
0.0
  0
LINE
  5
AC
330
1F
100
AcDbEntity
  8
D-1
  6
Continuous
 62
     2
370
     9
100
AcDbLine
 10
-749.3246398100979
 20
-464.864464321652
 30
0.0
 11
-619.3245277533657
 21
-464.864464321652
 31
0.0
  0
LINE
  5
AD
330
1F
100
AcDbEntity
  8
D-5
  6
Continuous
 62
     7
370
     9
100
AcDbLine
 10
-1091.318467629923
 20
-1045.806561031857
 30
0.0
 11
-1091.318467629923
 21
-980.8070187955288
 31
0.0
  0
LINE
  5
AE
330
1F
100
AcDbEntity
  8
D-5
  6
Continuous
 62
     7
370
     9
100
AcDbLine
 10
-1091.318467629923
 20
-980.8070187955288
 30
0.0
 11
-516.318057549966
 21
-980.8070187955288
 31
0.0
  0
LINE
  5
AF
330
1F
100
AcDbEntity
  8
D-5
  6
Continuous
 62
     7
370
     9
100
AcDbLine
 10
-516.318057549966
 20
-980.8070187955288
 30
0.0
 11
-516.318057549966
 21
-1045.806561031857
 31
0.0
  0
LINE
  5
B0
330
1F
100
AcDbEntity
  8
D-5
  6
Continuous
 62
     7
370
     9
100
AcDbLine
 10
-516.318057549966
 20
-1045.806561031857
 30
0.0
 11
-1091.318467629923
 21
-1045.806561031857
 31
0.0
  0
LINE
  5
B1
330
1F
100
AcDbEntity
  8
D-6
  6
Continuous
 62
     6
370
     5
100
AcDbLine
 10
-599.3239412436611
 20
-845.8730130582242
 30
0.0
 11
-428.3144316802151
 21
-674.8649411588101
 31
0.0
  0
LINE
  5
B2
330
1F
100
AcDbEntity
  8
D-6
  6
Continuous
 62
     6
370
     5
100
AcDbLine
 10
-589.1742620597012
 20
-849.8645215421109
 30
0.0
 11
-414.1736922392971
 21
-674.8649411588101
 31
0.0
  0
LINE
  5
B3
330
1F
100
AcDbEntity
  8
D-6
  6
Continuous
 62
     6
370
     5
100
AcDbLine
 10
-349.3242583403713
 20
-624.1566853909878
 30
0.0
 11
-225.0319609770901
 21
-499.8643784909635
 31
0.0
  0
LINE
  5
B4
330
1F
100
AcDbEntity
  8
D-6
  6
Continuous
 62
     6
370
     5
100
AcDbLine
 10
-575.0343308577663
 20
-849.8645215421109
 30
0.0
 11
-400.0335631499416
 21
-674.8649411588101
 31
0.0
  0
LINE
  5
B5
330
1F
100
AcDbEntity
  8
D-0
  6
Continuous
 62
     7
370
     9
100
AcDbLine
 10
-449.0305457244045
 20
-598.2010655789761
 30
0.0
 11
-449.0305457244045
 21
-596.7007832913785
 31
0.0
  0
LINE
  5
B6
330
1F
100
AcDbEntity
  8
D-0
  6
Continuous
 62
     7
370
     9
100
AcDbLine
 10
-449.0305457244045
 20
-596.7007832913785
 30
0.0
 11
-447.5305113921291
 21
-596.7007832913785
 31
0.0
  0
LINE
  5
B7
330
1F
100
AcDbEntity
  8
D-0
  6
Continuous
 62
     7
370
     9
100
AcDbLine
 10
-447.5305113921291
 20
-596.7007832913785
 30
0.0
 11
-447.5305113921291
 21
-598.2010655789761
 31
0.0
  0
LINE
  5
B8
330
1F
100
AcDbEntity
  8
D-0
  6
Continuous
 62
     7
370
     9
100
AcDbLine
 10
-447.5305113921291
 20
-598.2010655789761
 30
0.0
 11
-449.0305457244045
 21
-598.2010655789761
 31
0.0
  0
LINE
  5
B9
330
1F
100
AcDbEntity
  8
D-0
  6
Continuous
 62
     7
370
     9
100
AcDbLine
 10
-409.1024527678616
 20
-627.9777341275601
 30
0.0
 11
-409.1024527678616
 21
-626.4774518399624
 31
0.0
  0
LINE
  5
BA
330
1F
100
AcDbEntity
  8
D-0
  6
Continuous
 62
     7
370
     9
100
AcDbLine
 10
-409.1024527678616
 20
-626.4774518399624
 30
0.0
 11
-407.6024184355862
 21
-626.4774518399624
 31
0.0
  0
LINE
  5
BB
330
1F
100
AcDbEntity
  8
D-0
  6
Continuous
 62
     7
370
     9
100
AcDbLine
 10
-407.6024184355862
 20
-626.4774518399624
 30
0.0
 11
-407.6024184355862
 21
-627.9777341275601
 31
0.0
  0
LINE
  5
BC
330
1F
100
AcDbEntity
  8
D-0
  6
Continuous
 62
     7
370
     9
100
AcDbLine
 10
-407.6024184355862
 20
-627.9777341275601
 30
0.0
 11
-409.1024527678616
 21
-627.9777341275601
 31
0.0
  0
LINE
  5
BD
330
1F
100
AcDbEntity
  8
D-0
  6
Continuous
 62
     7
370
     9
100
AcDbLine
 10
-443.6165557036526
 20
-648.2800679593472
 30
0.0
 11
-443.6165557036526
 21
-646.7797856717496
 31
0.0
  0
LINE
  5
BE
330
1F
100
AcDbEntity
  8
D-0
  6
Continuous
 62
     7
370
     9
100
AcDbLine
 10
-443.6165557036526
 20
-646.7797856717496
 30
0.0
 11
-442.1165213713772
 21
-646.7797856717496
 31
0.0
  0
LINE
  5
BF
330
1F
100
AcDbEntity
  8
D-0
  6
Continuous
 62
     7
370
     9
100
AcDbLine
 10
-442.1165213713772
 20
-646.7797856717496
 30
0.0
 11
-442.1165213713772
 21
-648.2800679593472
 31
0.0
  0
LINE
  5
C0
330
1F
100
AcDbEntity
  8
D-0
  6
Continuous
 62
     7
370
     9
100
AcDbLine
 10
-442.1165213713772
 20
-648.2800679593472
 30
0.0
 11
-443.6165557036526
 21
-648.2800679593472
 31
0.0
  0
LINE
  5
C1
330
1F
100
AcDbEntity
  8
D-0
  6
Continuous
 62
     7
370
     9
100
AcDbLine
 10
-378.6488280425198
 20
-650.3104977994351
 30
0.0
 11
-378.6488280425198
 21
-648.8102155118374
 31
0.0
  0
LINE
  5
C2
330
1F
100
AcDbEntity
  8
D-0
  6
Continuous
 62
     7
370
     9
100
AcDbLine
 10
-378.6488280425198
 20
-648.8102155118374
 30
0.0
 11
-377.1487937102444
 21
-648.8102155118374
 31
0.0
  0
LINE
  5
C3
330
1F
100
AcDbEntity
  8
D-0
  6
Continuous
 62
     7
370
     9
100
AcDbLine
 10
-377.1487937102444
 20
-648.8102155118374
 30
0.0
 11
-377.1487937102444
 21
-650.3104977994351
 31
0.0
  0
LINE
  5
C4
330
1F
100
AcDbEntity
  8
D-0
  6
Continuous
 62
     7
370
     9
100
AcDbLine
 10
-377.1487937102444
 20
-650.3104977994351
 30
0.0
 11
-378.6488280425198
 21
-650.3104977994351
 31
0.0
  0
LINE
  5
C5
330
1F
100
AcDbEntity
  8
D-0
  6
Continuous
 62
     7
370
     9
100
AcDbLine
 10
-572.1983895430691
 20
-370.814147511044
 30
0.0
 11
-572.1983895430691
 21
-369.3138056188016
 31
0.0
  0
LINE
  5
C6
330
1F
100
AcDbEntity
  8
D-0
  6
Continuous
 62
     7
370
     9
100
AcDbLine
 10
-572.1983895430691
 20
-369.3138056188016
 30
0.0
 11
-570.6983599791653
 21
-369.3138056188016
 31
0.0
  0
LINE
  5
C7
330
1F
100
AcDbEntity
  8
D-0
  6
Continuous
 62
     7
370
     9
100
AcDbLine
 10
-570.6983599791653
 20
-369.3138056188016
 30
0.0
 11
-570.6983599791653
 21
-370.814147511044
 31
0.0
  0
LINE
  5
C8
330
1F
100
AcDbEntity
  8
D-0
  6
Continuous
 62
     7
370
     9
100
AcDbLine
 10
-570.6983599791653
 20
-370.814147511044
 30
0.0
 11
-572.1983895430691
 21
-370.814147511044
 31
0.0
  0
LINE
  5
C9
330
1F
100
AcDbEntity
  8
D-0
  6
Continuous
 62
     7
370
     9
100
AcDbLine
 10
-518.0586371550686
 20
-370.1373367696195
 30
0.0
 11
-518.0586371550686
 21
-368.6369960694699
 31
0.0
  0
LINE
  5
CA
330
1F
100
AcDbEntity
  8
D-0
  6
Continuous
 62
     7
370
     9
100
AcDbLine
 10
-518.0586371550686
 20
-368.6369960694699
 30
0.0
 11
-516.5586123595364
 21
-368.6369960694699
 31
0.0
  0
LINE
  5
CB
330
1F
100
AcDbEntity
  8
D-0
  6
Continuous
 62
     7
370
     9
100
AcDbLine
 10
-516.5586123595364
 20
-368.6369960694699
 30
0.0
 11
-516.5586123595364
 21
-370.1373367696195
 31
0.0
  0
LINE
  5
CC
330
1F
100
AcDbEntity
  8
D-0
  6
Continuous
 62
     7
370
     9
100
AcDbLine
 10
-516.5586123595364
 20
-370.1373367696195
 30
0.0
 11
-518.0586371550686
 21
-370.1373367696195
 31
0.0
  0
LINE
  5
CD
330
1F
100
AcDbEntity
  8
D-0
  6
Continuous
 62
     7
370
     9
100
AcDbLine
 10
-475.4235491881497
 20
-393.8237195401578
 30
0.0
 11
-475.4235491881497
 21
-392.3233752637296
 31
0.0
  0
LINE
  5
CE
330
1F
100
AcDbEntity
  8
D-0
  6
Continuous
 62
     7
370
     9
100
AcDbLine
 10
-475.4235491881497
 20
-392.3233752637296
 30
0.0
 11
-473.9235243926174
 21
-392.3233752637296
 31
0.0
  0
LINE
  5
CF
330
1F
100
AcDbEntity
  8
D-0
  6
Continuous
 62
     7
370
     9
100
AcDbLine
 10
-473.9235243926174
 20
-392.3233752637296
 30
0.0
 11
-473.9235243926174
 21
-393.8237195401578
 31
0.0
  0
LINE
  5
D0
330
1F
100
AcDbEntity
  8
D-0
  6
Continuous
 62
     7
370
     9
100
AcDbLine
 10
-473.9235243926174
 20
-393.8237195401578
 30
0.0
 11
-475.4235491881497
 21
-393.8237195401578
 31
0.0
  0
LINE
  5
D1
330
1F
100
AcDbEntity
  8
D-0
  6
Continuous
 62
     7
370
     9
100
AcDbLine
 10
-451.7374167571194
 20
-372.8445153623014
 30
0.0
 11
-451.7374167571194
 21
-371.3442378430753
 31
0.0
  0
LINE
  5
D2
330
1F
100
AcDbEntity
  8
D-0
  6
Continuous
 62
     7
370
     9
100
AcDbLine
 10
-451.7374167571194
 20
-371.3442378430753
 30
0.0
 11
-450.237382424844
 21
-371.3442378430753
 31
0.0
  0
LINE
  5
D3
330
1F
100
AcDbEntity
  8
D-0
  6
Continuous
 62
     7
370
     9
100
AcDbLine
 10
-450.237382424844
 20
-371.3442378430753
 30
0.0
 11
-450.237382424844
 21
-372.8445153623014
 31
0.0
  0
LINE
  5
D4
330
1F
100
AcDbEntity
  8
D-0
  6
Continuous
 62
     7
370
     9
100
AcDbLine
 10
-450.237382424844
 20
-372.8445153623014
 30
0.0
 11
-451.7374167571194
 21
-372.8445153623014
 31
0.0
  0
LINE
  5
D5
330
1F
100
AcDbEntity
  8
D-0
  6
Continuous
 62
     7
370
     9
100
AcDbLine
 10
-451.0607848296291
 20
-441.8727307706266
 30
0.0
 11
-451.0607848296291
 21
-440.3724484830289
 31
0.0
  0
LINE
  5
D6
330
1F
100
AcDbEntity
  8
D-0
  6
Continuous
 62
     7
370
     9
100
AcDbLine
 10
-451.0607848296291
 20
-440.3724484830289
 30
0.0
 11
-449.5606932768948
 21
-440.3724484830289
 31
0.0
  0
LINE
  5
D7
330
1F
100
AcDbEntity
  8
D-0
  6
Continuous
 62
     7
370
     9
100
AcDbLine
 10
-449.5606932768948
 20
-440.3724484830289
 30
0.0
 11
-449.5606932768948
 21
-441.8727307706266
 31
0.0
  0
LINE
  5
D8
330
1F
100
AcDbEntity
  8
D-0
  6
Continuous
 62
     7
370
     9
100
AcDbLine
 10
-449.5606932768948
 20
-441.8727307706266
 30
0.0
 11
-451.0607848296291
 21
-441.8727307706266
 31
0.0
  0
LINE
  5
D9
330
1F
100
AcDbEntity
  8
D-0
  6
Continuous
 62
     7
370
     9
100
AcDbLine
 10
-322.4788985381252
 20
-370.814147511044
 30
0.0
 11
-322.4788985381252
 21
-369.3138056188016
 31
0.0
  0
LINE
  5
DA
330
1F
100
AcDbEntity
  8
D-0
  6
Continuous
 62
     7
370
     9
100
AcDbLine
 10
-322.4788985381252
 20
-369.3138056188016
 30
0.0
 11
-320.9789214263088
 21
-369.3138056188016
 31
0.0
  0
LINE
  5
DB
330
1F
100
AcDbEntity
  8
D-0
  6
Continuous
 62
     7
370
     9
100
AcDbLine
 10
-320.9789214263088
 20
-369.3138056188016
 30
0.0
 11
-320.9789214263088
 21
-370.814147511044
 31
0.0
  0
LINE
  5
DC
330
1F
100
AcDbEntity
  8
D-0
  6
Continuous
 62
     7
370
     9
100
AcDbLine
 10
-320.9789214263088
 20
-370.814147511044
 30
0.0
 11
-322.4788985381252
 21
-370.814147511044
 31
0.0
  0
LINE
  5
DD
330
1F
100
AcDbEntity
  8
D-0
  6
Continuous
 62
     7
370
     9
100
AcDbLine
 10
-271.7229399809963
 20
-373.5213261037259
 30
0.0
 11
-271.7229399809963
 21
-372.0211081891446
 31
0.0
  0
LINE
  5
DE
330
1F
100
AcDbEntity
  8
D-0
  6
Continuous
 62
     7
370
     9
100
AcDbLine
 10
-271.7229399809963
 20
-372.0211081891446
 30
0.0
 11
-270.2229247222073
 21
-372.0211081891446
 31
0.0
  0
LINE
  5
DF
330
1F
100
AcDbEntity
  8
D-0
  6
Continuous
 62
     7
370
     9
100
AcDbLine
 10
-270.2229247222073
 20
-372.0211081891446
 30
0.0
 11
-270.2229247222073
 21
-373.5213261037259
 31
0.0
  0
LINE
  5
E0
330
1F
100
AcDbEntity
  8
D-0
  6
Continuous
 62
     7
370
     9
100
AcDbLine
 10
-270.2229247222073
 20
-373.5213261037259
 30
0.0
 11
-271.7229399809963
 21
-373.5213261037259
 31
0.0
  0
LINE
  5
E1
330
1F
100
AcDbEntity
  8
D-0
  6
Continuous
 62
     7
370
     9
100
AcDbLine
 10
-206.7552886138088
 20
-371.490896263638
 30
0.0
 11
-206.7552886138088
 21
-369.9906163602262
 31
0.0
  0
LINE
  5
E2
330
1F
100
AcDbEntity
  8
D-0
  6
Continuous
 62
     7
370
     9
100
AcDbLine
 10
-206.7552886138088
 20
-369.9906163602262
 30
0.0
 11
-205.2551970610745
 21
-369.9906163602262
 31
0.0
  0
LINE
  5
E3
330
1F
100
AcDbEntity
  8
D-0
  6
Continuous
 62
     7
370
     9
100
AcDbLine
 10
-205.2551970610745
 20
-369.9906163602262
 30
0.0
 11
-205.2551970610745
 21
-371.490896263638
 31
0.0
  0
LINE
  5
E4
330
1F
100
AcDbEntity
  8
D-0
  6
Continuous
 62
     7
370
     9
100
AcDbLine
 10
-205.2551970610745
 20
-371.490896263638
 30
0.0
 11
-206.7552886138088
 21
-371.490896263638
 31
0.0
  0
LINE
  5
E5
330
1F
100
AcDbEntity
  8
D-0
  6
Continuous
 62
     7
370
     9
100
AcDbLine
 10
-231.1181578765041
 20
-403.9748196988492
 30
0.0
 11
-231.1181578765041
 21
-402.4746041684537
 31
0.0
  0
LINE
  5
E6
330
1F
100
AcDbEntity
  8
D-0
  6
Continuous
 62
     7
370
     9
100
AcDbLine
 10
-231.1181578765041
 20
-402.4746041684537
 30
0.0
 11
-229.6181426177151
 21
-402.4746041684537
 31
0.0
  0
LINE
  5
E7
330
1F
100
AcDbEntity
  8
D-0
  6
Continuous
 62
     7
370
     9
100
AcDbLine
 10
-229.6181426177151
 20
-402.4746041684537
 30
0.0
 11
-229.6181426177151
 21
-403.9748196988492
 31
0.0
  0
LINE
  5
E8
330
1F
100
AcDbEntity
  8
D-0
  6
Continuous
 62
     7
370
     9
100
AcDbLine
 10
-229.6181426177151
 20
-403.9748196988492
 30
0.0
 11
-231.1181578765041
 21
-403.9748196988492
 31
0.0
  0
LINE
  5
E9
330
1F
100
AcDbEntity
  8
D-0
  6
Continuous
 62
     7
370
     9
100
AcDbLine
 10
-271.0461363921291
 20
-427.6607041745572
 30
0.0
 11
-271.0461363921291
 21
-426.1604266553312
 31
0.0
  0
LINE
  5
EA
330
1F
100
AcDbEntity
  8
D-0
  6
Continuous
 62
     7
370
     9
100
AcDbLine
 10
-271.0461363921291
 20
-426.1604266553312
 30
0.0
 11
-269.5461211333401
 21
-426.1604266553312
 31
0.0
  0
LINE
  5
EB
330
1F
100
AcDbEntity
  8
D-0
  6
Continuous
 62
     7
370
     9
100
AcDbLine
 10
-269.5461211333401
 20
-426.1604266553312
 30
0.0
 11
-269.5461211333401
 21
-427.6607041745572
 31
0.0
  0
LINE
  5
EC
330
1F
100
AcDbEntity
  8
D-0
  6
Continuous
 62
     7
370
     9
100
AcDbLine
 10
-269.5461211333401
 20
-427.6607041745572
 30
0.0
 11
-271.0461363921291
 21
-427.6607041745572
 31
0.0
  0
LINE
  5
ED
330
1F
100
AcDbEntity
  8
D-0
  6
Continuous
 62
     7
370
     9
100
AcDbLine
 10
-298.7927565703518
 20
-441.8727307706266
 30
0.0
 11
-298.7927565703518
 21
-440.3724484830289
 31
0.0
  0
LINE
  5
EE
330
1F
100
AcDbEntity
  8
D-0
  6
Continuous
 62
     7
370
     9
100
AcDbLine
 10
-298.7927565703518
 20
-440.3724484830289
 30
0.0
 11
-297.2927794585354
 21
-440.3724484830289
 31
0.0
  0
LINE
  5
EF
330
1F
100
AcDbEntity
  8
D-0
  6
Continuous
 62
     7
370
     9
100
AcDbLine
 10
-297.2927794585354
 20
-440.3724484830289
 30
0.0
 11
-297.2927794585354
 21
-441.8727307706266
 31
0.0
  0
LINE
  5
F0
330
1F
100
AcDbEntity
  8
D-0
  6
Continuous
 62
     7
370
     9
100
AcDbLine
 10
-297.2927794585354
 20
-441.8727307706266
 30
0.0
 11
-298.7927565703518
 21
-441.8727307706266
 31
0.0
  0
LINE
  5
F1
330
1F
100
AcDbEntity
  8
D-0
  6
Continuous
 62
     7
370
     9
100
AcDbLine
 10
-323.8323912749416
 20
-412.7723651318937
 30
0.0
 11
-323.8323912749416
 21
-411.272082844296
 31
0.0
  0
LINE
  5
F2
330
1F
100
AcDbEntity
  8
D-0
  6
Continuous
 62
     7
370
     9
100
AcDbLine
 10
-323.8323912749416
 20
-411.272082844296
 30
0.0
 11
-322.3323569426663
 21
-411.272082844296
 31
0.0
  0
LINE
  5
F3
330
1F
100
AcDbEntity
  8
D-0
  6
Continuous
 62
     7
370
     9
100
AcDbLine
 10
-322.3323569426663
 20
-411.272082844296
 30
0.0
 11
-322.3323569426663
 21
-412.7723651318937
 31
0.0
  0
LINE
  5
F4
330
1F
100
AcDbEntity
  8
D-0
  6
Continuous
 62
     7
370
     9
100
AcDbLine
 10
-322.3323569426663
 20
-412.7723651318937
 30
0.0
 11
-323.8323912749416
 21
-412.7723651318937
 31
0.0
  0
LINE
  5
F5
330
1F
100
AcDbEntity
  8
D-0
  6
Continuous
 62
     7
370
     9
100
AcDbLine
 10
-303.5301146636135
 20
-477.0633988767057
 30
0.0
 11
-303.5301146636135
 21
-475.563116589108
 31
0.0
  0
LINE
  5
F6
330
1F
100
AcDbEntity
  8
D-0
  6
Continuous
 62
     7
370
     9
100
AcDbLine
 10
-303.5301146636135
 20
-475.563116589108
 30
0.0
 11
-302.0300231108791
 21
-475.563116589108
 31
0.0
  0
LINE
  5
F7
330
1F
100
AcDbEntity
  8
D-0
  6
Continuous
 62
     7
370
     9
100
AcDbLine
 10
-302.0300231108791
 20
-475.563116589108
 30
0.0
 11
-302.0300231108791
 21
-477.0633988767057
 31
0.0
  0
LINE
  5
F8
330
1F
100
AcDbEntity
  8
D-0
  6
Continuous
 62
     7
370
     9
100
AcDbLine
 10
-302.0300231108791
 20
-477.0633988767057
 30
0.0
 11
-303.5301146636135
 21
-477.0633988767057
 31
0.0
  0
LINE
  5
F9
330
1F
100
AcDbEntity
  8
D-0
  6
Continuous
 62
     7
370
     9
100
AcDbLine
 10
-246.0065016875393
 20
-475.7097821622281
 30
0.0
 11
-246.0065016875393
 21
-474.2094998746305
 31
0.0
  0
LINE
  5
FA
330
1F
100
AcDbEntity
  8
D-0
  6
Continuous
 62
     7
370
     9
100
AcDbLine
 10
-246.0065016875393
 20
-474.2094998746305
 30
0.0
 11
-244.5065245757229
 21
-474.2094998746305
 31
0.0
  0
LINE
  5
FB
330
1F
100
AcDbEntity
  8
D-0
  6
Continuous
 62
     7
370
     9
100
AcDbLine
 10
-244.5065245757229
 20
-474.2094998746305
 30
0.0
 11
-244.5065245757229
 21
-475.7097821622281
 31
0.0
  0
LINE
  5
FC
330
1F
100
AcDbEntity
  8
D-0
  6
Continuous
 62
     7
370
     9
100
AcDbLine
 10
-244.5065245757229
 20
-475.7097821622281
 30
0.0
 11
-246.0065016875393
 21
-475.7097821622281
 31
0.0
  0
LINE
  5
FD
330
1F
100
AcDbEntity
  8
D-0
  6
Continuous
 62
     7
370
     9
100
AcDbLine
 10
-196.6040740141995
 20
-475.0329690366178
 30
0.0
 11
-196.6040740141995
 21
-473.5326867490201
 31
0.0
  0
LINE
  5
FE
330
1F
100
AcDbEntity
  8
D-0
  6
Continuous
 62
     7
370
     9
100
AcDbLine
 10
-196.6040740141995
 20
-473.5326867490201
 30
0.0
 11
-195.1040206084377
 21
-473.5326867490201
 31
0.0
  0
LINE
  5
FF
330
1F
100
AcDbEntity
  8
D-0
  6
Continuous
 62
     7
370
     9
100
AcDbLine
 10
-195.1040206084377
 20
-473.5326867490201
 30
0.0
 11
-195.1040206084377
 21
-475.0329690366178
 31
0.0
  0
LINE
  5
100
330
1F
100
AcDbEntity
  8
D-0
  6
Continuous
 62
     7
370
     9
100
AcDbLine
 10
-195.1040206084377
 20
-475.0329690366178
 30
0.0
 11
-196.6040740141995
 21
-475.0329690366178
 31
0.0
  0
LINE
  5
101
330
1F
100
AcDbEntity
  8
D-0
  6
Continuous
 62
     7
370
     9
100
AcDbLine
 10
-208.7855467925198
 20
-435.1051240353971
 30
0.0
 11
-208.7855467925198
 21
-433.6048417477994
 31
0.0
  0
LINE
  5
102
330
1F
100
AcDbEntity
  8
D-0
  6
Continuous
 62
     7
370
     9
100
AcDbLine
 10
-208.7855467925198
 20
-433.6048417477994
 30
0.0
 11
-207.285493386758
 21
-433.6048417477994
 31
0.0
  0
LINE
  5
103
330
1F
100
AcDbEntity
  8
D-0
  6
Continuous
 62
     7
370
     9
100
AcDbLine
 10
-207.285493386758
 20
-433.6048417477994
 30
0.0
 11
-207.285493386758
 21
-435.1051240353971
 31
0.0
  0
LINE
  5
104
330
1F
100
AcDbEntity
  8
D-0
  6
Continuous
 62
     7
370
     9
100
AcDbLine
 10
-207.285493386758
 20
-435.1051240353971
 30
0.0
 11
-208.7855467925198
 21
-435.1051240353971
 31
0.0
  0
LINE
  5
105
330
1F
100
AcDbEntity
  8
D-0
  6
Continuous
 62
     7
370
     9
100
AcDbLine
 10
-730.3455863127834
 20
-606.4065175443081
 30
0.0
 11
-730.3455863127834
 21
-604.9062352567105
 31
0.0
  0
LINE
  5
106
330
1F
100
AcDbEntity
  8
D-0
  6
Continuous
 62
     7
370
     9
100
AcDbLine
 10
-730.3455863127834
 20
-604.9062352567105
 30
0.0
 11
-728.845551980508
 21
-604.9062352567105
 31
0.0
  0
LINE
  5
107
330
1F
100
AcDbEntity
  8
D-0
  6
Continuous
 62
     7
370
     9
100
AcDbLine
 10
-728.845551980508
 20
-604.9062352567105
 30
0.0
 11
-728.845551980508
 21
-606.4065175443081
 31
0.0
  0
LINE
  5
108
330
1F
100
AcDbEntity
  8
D-0
  6
Continuous
 62
     7
370
     9
100
AcDbLine
 10
-728.845551980508
 20
-606.4065175443081
 30
0.0
 11
-730.3455863127834
 21
-606.4065175443081
 31
0.0
  0
LINE
  5
109
330
1F
100
AcDbEntity
  8
D-0
  6
Continuous
 62
     7
370
     9
100
AcDbLine
 10
-625.6613255272038
 20
-606.4065175443081
 30
0.0
 11
-625.6613255272038
 21
-604.9062352567105
 31
0.0
  0
LINE
  5
10A
330
1F
100
AcDbEntity
  8
D-0
  6
Continuous
 62
     7
370
     9
100
AcDbLine
 10
-625.6613255272038
 20
-604.9062352567105
 30
0.0
 11
-624.1612938957638
 21
-604.9062352567105
 31
0.0
  0
LINE
  5
10B
330
1F
100
AcDbEntity
  8
D-0
  6
Continuous
 62
     7
370
     9
100
AcDbLine
 10
-624.1612938957638
 20
-604.9062352567105
 30
0.0
 11
-624.1612938957638
 21
-606.4065175443081
 31
0.0
  0
LINE
  5
10C
330
1F
100
AcDbEntity
  8
D-0
  6
Continuous
 62
     7
370
     9
100
AcDbLine
 10
-624.1612938957638
 20
-606.4065175443081
 30
0.0
 11
-625.6613255272038
 21
-606.4065175443081
 31
0.0
  0
LINE
  5
10D
330
1F
100
AcDbEntity
  8
D-0
  6
Continuous
 62
     7
370
     9
100
AcDbLine
 10
-639.7461412081844
 20
-694.722347775021
 30
0.0
 11
-639.7461412081844
 21
-693.2220654874234
 31
0.0
  0
LINE
  5
10E
330
1F
100
AcDbEntity
  8
D-0
  6
Continuous
 62
     7
370
     9
100
AcDbLine
 10
-639.7461412081844
 20
-693.2220654874234
 30
0.0
 11
-638.2461092600948
 21
-693.2220654874234
 31
0.0
  0
LINE
  5
10F
330
1F
100
AcDbEntity
  8
D-0
  6
Continuous
 62
     7
370
     9
100
AcDbLine
 10
-638.2461092600948
 20
-693.2220654874234
 30
0.0
 11
-638.2461092600948
 21
-694.722347775021
 31
0.0
  0
LINE
  5
110
330
1F
100
AcDbEntity
  8
D-0
  6
Continuous
 62
     7
370
     9
100
AcDbLine
 10
-638.2461092600948
 20
-694.722347775021
 30
0.0
 11
-639.7461412081844
 21
-694.722347775021
 31
0.0
  0
LINE
  5
111
330
1F
100
AcDbEntity
  8
D-0
  6
Continuous
 62
     7
370
     9
100
AcDbLine
 10
-627.5646687278874
 20
-659.3201070218472
 30
0.0
 11
-627.5646687278874
 21
-657.8198247342496
 31
0.0
  0
LINE
  5
112
330
1F
100
AcDbEntity
  8
D-0
  6
Continuous
 62
     7
370
     9
100
AcDbLine
 10
-627.5646687278874
 20
-657.8198247342496
 30
0.0
 11
-626.064637077821
 21
-657.8198247342496
 31
0.0
  0
LINE
  5
113
330
1F
100
AcDbEntity
  8
D-0
  6
Continuous
 62
     7
370
     9
100
AcDbLine
 10
-626.064637077821
 20
-657.8198247342496
 30
0.0
 11
-626.064637077821
 21
-659.3201070218472
 31
0.0
  0
LINE
  5
114
330
1F
100
AcDbEntity
  8
D-0
  6
Continuous
 62
     7
370
     9
100
AcDbLine
 10
-626.064637077821
 20
-659.3201070218472
 30
0.0
 11
-627.5646687278874
 21
-659.3201070218472
 31
0.0
  0
LINE
  5
115
330
1F
100
AcDbEntity
  8
D-0
  6
Continuous
 62
     7
370
     9
100
AcDbLine
 10
-728.0615935454495
 20
-697.0064359097867
 30
0.0
 11
-728.0615935454495
 21
-695.506153622189
 31
0.0
  0
LINE
  5
116
330
1F
100
AcDbEntity
  8
D-0
  6
Continuous
 62
     7
370
     9
100
AcDbLine
 10
-728.0615935454495
 20
-695.506153622189
 30
0.0
 11
-726.5615592131741
 21
-695.506153622189
 31
0.0
  0
LINE
  5
117
330
1F
100
AcDbEntity
  8
D-0
  6
Continuous
 62
     7
370
     9
100
AcDbLine
 10
-726.5615592131741
 20
-695.506153622189
 30
0.0
 11
-726.5615592131741
 21
-697.0064359097867
 31
0.0
  0
LINE
  5
118
330
1F
100
AcDbEntity
  8
D-0
  6
Continuous
 62
     7
370
     9
100
AcDbLine
 10
-726.5615592131741
 20
-697.0064359097867
 30
0.0
 11
-728.0615935454495
 21
-697.0064359097867
 31
0.0
  0
LINE
  5
119
330
1F
100
AcDbEntity
  8
D-0
  6
Continuous
 62
     7
370
     9
100
AcDbLine
 10
-683.9038071761257
 20
-700.0515942960171
 30
0.0
 11
-683.9038071761257
 21
-698.5513120084195
 31
0.0
  0
LINE
  5
11A
330
1F
100
AcDbEntity
  8
D-0
  6
Continuous
 62
     7
370
     9
100
AcDbLine
 10
-683.9038071761257
 20
-698.5513120084195
 30
0.0
 11
-682.4037776122219
 21
-698.5513120084195
 31
0.0
  0
LINE
  5
11B
330
1F
100
AcDbEntity
  8
D-0
  6
Continuous
 62
     7
370
     9
100
AcDbLine
 10
-682.4037776122219
 20
-698.5513120084195
 30
0.0
 11
-682.4037776122219
 21
-700.0515942960171
 31
0.0
  0
LINE
  5
11C
330
1F
100
AcDbEntity
  8
D-0
  6
Continuous
 62
     7
370
     9
100
AcDbLine
 10
-682.4037776122219
 20
-700.0515942960171
 30
0.0
 11
-683.9038071761257
 21
-700.0515942960171
 31
0.0
  0
LINE
  5
11D
330
1F
100
AcDbEntity
  8
D-0
  6
Continuous
 62
     7
370
     9
100
AcDbLine
 10
-680.4777655730373
 20
-662.3652463345913
 30
0.0
 11
-680.4777655730373
 21
-660.86498312048
 31
0.0
  0
LINE
  5
11E
330
1F
100
AcDbEntity
  8
D-0
  6
Continuous
 62
     7
370
     9
100
AcDbLine
 10
-680.4777655730373
 20
-660.86498312048
 30
0.0
 11
-678.977731240762
 21
-660.86498312048
 31
0.0
  0
LINE
  5
11F
330
1F
100
AcDbEntity
  8
D-0
  6
Continuous
 62
     7
370
     9
100
AcDbLine
 10
-678.977731240762
 20
-660.86498312048
 30
0.0
 11
-678.977731240762
 21
-662.3652463345913
 31
0.0
  0
LINE
  5
120
330
1F
100
AcDbEntity
  8
D-0
  6
Continuous
 62
     7
370
     9
100
AcDbLine
 10
-678.977731240762
 20
-662.3652463345913
 30
0.0
 11
-680.4777655730373
 21
-662.3652463345913
 31
0.0
  0
LINE
  5
121
330
1F
100
AcDbEntity
  8
D-0
  6
Continuous
 62
     7
370
     9
100
AcDbLine
 10
-731.1068663725979
 20
-660.8421903043179
 30
0.0
 11
-731.1068663725979
 21
-659.3419080167203
 31
0.0
  0
LINE
  5
122
330
1F
100
AcDbEntity
  8
D-0
  6
Continuous
 62
     7
370
     9
100
AcDbLine
 10
-731.1068663725979
 20
-659.3419080167203
 30
0.0
 11
-729.6068415770657
 21
-659.3419080167203
 31
0.0
  0
LINE
  5
123
330
1F
100
AcDbEntity
  8
D-0
  6
Continuous
 62
     7
370
     9
100
AcDbLine
 10
-729.6068415770657
 20
-659.3419080167203
 30
0.0
 11
-729.6068415770657
 21
-660.8421903043179
 31
0.0
  0
LINE
  5
124
330
1F
100
AcDbEntity
  8
D-0
  6
Continuous
 62
     7
370
     9
100
AcDbLine
 10
-729.6068415770657
 20
-660.8421903043179
 30
0.0
 11
-731.1068663725979
 21
-660.8421903043179
 31
0.0
  0
LINE
  5
125
330
1F
100
AcDbEntity
  8
D-0
  6
Continuous
 62
     7
370
     9
100
AcDbLine
 10
-722.7322039733059
 20
-782.2766309171109
 30
0.0
 11
-722.7322039733059
 21
-780.7763486295132
 31
0.0
  0
LINE
  5
126
330
1F
100
AcDbEntity
  8
D-0
  6
Continuous
 62
     7
370
     9
100
AcDbLine
 10
-722.7322039733059
 20
-780.7763486295132
 30
0.0
 11
-721.2321791777737
 21
-780.7763486295132
 31
0.0
  0
LINE
  5
127
330
1F
100
AcDbEntity
  8
D-0
  6
Continuous
 62
     7
370
     9
100
AcDbLine
 10
-721.2321791777737
 20
-780.7763486295132
 30
0.0
 11
-721.2321791777737
 21
-782.2766309171109
 31
0.0
  0
LINE
  5
128
330
1F
100
AcDbEntity
  8
D-0
  6
Continuous
 62
     7
370
     9
100
AcDbLine
 10
-721.2321791777737
 20
-782.2766309171109
 30
0.0
 11
-722.7322039733059
 21
-782.2766309171109
 31
0.0
  0
LINE
  5
129
330
1F
100
AcDbEntity
  8
D-0
  6
Continuous
 62
     7
370
     9
100
AcDbLine
 10
-670.9610495696194
 20
-778.4694486050992
 30
0.0
 11
-670.9610495696194
 21
-776.9691663175015
 31
0.0
  0
LINE
  5
12A
330
1F
100
AcDbEntity
  8
D-0
  6
Continuous
 62
     7
370
     9
100
AcDbLine
 10
-670.9610495696194
 20
-776.9691663175015
 30
0.0
 11
-669.461015237344
 21
-776.9691663175015
 31
0.0
  0
LINE
  5
12B
330
1F
100
AcDbEntity
  8
D-0
  6
Continuous
 62
     7
370
     9
100
AcDbLine
 10
-669.461015237344
 20
-776.9691663175015
 30
0.0
 11
-669.461015237344
 21
-778.4694486050992
 31
0.0
  0
LINE
  5
12C
330
1F
100
AcDbEntity
  8
D-0
  6
Continuous
 62
     7
370
     9
100
AcDbLine
 10
-669.461015237344
 20
-778.4694486050992
 30
0.0
 11
-670.9610495696194
 21
-778.4694486050992
 31
0.0
  0
LINE
  5
12D
330
1F
100
AcDbEntity
  8
D-0
  6
Continuous
 62
     7
370
     9
100
AcDbLine
 10
-621.0932273397572
 20
-780.3730206876187
 30
0.0
 11
-621.0932273397572
 21
-778.872738400021
 31
0.0
  0
LINE
  5
12E
330
1F
100
AcDbEntity
  8
D-0
  6
Continuous
 62
     7
370
     9
100
AcDbLine
 10
-621.0932273397572
 20
-778.872738400021
 30
0.0
 11
-619.5931956896908
 21
-778.872738400021
 31
0.0
  0
LINE
  5
12F
330
1F
100
AcDbEntity
  8
D-0
  6
Continuous
 62
     7
370
     9
100
AcDbLine
 10
-619.5931956896908
 20
-778.872738400021
 30
0.0
 11
-619.5931956896908
 21
-780.3730206876187
 31
0.0
  0
LINE
  5
130
330
1F
100
AcDbEntity
  8
D-0
  6
Continuous
 62
     7
370
     9
100
AcDbLine
 10
-619.5931956896908
 20
-780.3730206876187
 30
0.0
 11
-621.0932273397572
 21
-780.3730206876187
 31
0.0
  0
LINE
  5
131
330
1F
100
AcDbEntity
  8
D-0
  6
Continuous
 62
     7
370
     9
100
AcDbLine
 10
-645.8368120322353
 20
-806.2582974820523
 30
0.0
 11
-645.8368120322353
 21
-804.7580151944546
 31
0.0
  0
LINE
  5
132
330
1F
100
AcDbEntity
  8
D-0
  6
Continuous
 62
     7
370
     9
100
AcDbLine
 10
-645.8368120322353
 20
-804.7580151944546
 30
0.0
 11
-644.3367824683315
 21
-804.7580151944546
 31
0.0
  0
LINE
  5
133
330
1F
100
AcDbEntity
  8
D-0
  6
Continuous
 62
     7
370
     9
100
AcDbLine
 10
-644.3367824683315
 20
-804.7580151944546
 30
0.0
 11
-644.3367824683315
 21
-806.2582974820523
 31
0.0
  0
LINE
  5
134
330
1F
100
AcDbEntity
  8
D-0
  6
Continuous
 62
     7
370
     9
100
AcDbLine
 10
-644.3367824683315
 20
-806.2582974820523
 30
0.0
 11
-645.8368120322353
 21
-806.2582974820523
 31
0.0
  0
LINE
  5
135
330
1F
100
AcDbEntity
  8
D-0
  6
Continuous
 62
     7
370
     9
100
AcDbLine
 10
-686.1877951750881
 20
-818.0593686490445
 30
0.0
 11
-686.1877951750881
 21
-816.5590863614468
 31
0.0
  0
LINE
  5
136
330
1F
100
AcDbEntity
  8
D-0
  6
Continuous
 62
     7
370
     9
100
AcDbLine
 10
-686.1877951750881
 20
-816.5590863614468
 30
0.0
 11
-684.6877608428127
 21
-816.5590863614468
 31
0.0
  0
LINE
  5
137
330
1F
100
AcDbEntity
  8
D-0
  6
Continuous
 62
     7
370
     9
100
AcDbLine
 10
-684.6877608428127
 20
-816.5590863614468
 30
0.0
 11
-684.6877608428127
 21
-818.0593686490445
 31
0.0
  0
LINE
  5
138
330
1F
100
AcDbEntity
  8
D-0
  6
Continuous
 62
     7
370
     9
100
AcDbLine
 10
-684.6877608428127
 20
-818.0593686490445
 30
0.0
 11
-686.1877951750881
 21
-818.0593686490445
 31
0.0
  0
LINE
  5
139
330
1F
100
AcDbEntity
  8
D-0
  6
Continuous
 62
     7
370
     9
100
AcDbLine
 10
-733.390983117593
 20
-815.7752805142788
 30
0.0
 11
-733.390983117593
 21
-814.2749982266812
 31
0.0
  0
LINE
  5
13A
330
1F
100
AcDbEntity
  8
D-0
  6
Continuous
 62
     7
370
     9
100
AcDbLine
 10
-733.390983117593
 20
-814.2749982266812
 30
0.0
 11
-731.8909487853176
 21
-814.2749982266812
 31
0.0
  0
LINE
  5
13B
330
1F
100
AcDbEntity
  8
D-0
  6
Continuous
 62
     7
370
     9
100
AcDbLine
 10
-731.8909487853176
 20
-814.2749982266812
 30
0.0
 11
-731.8909487853176
 21
-815.7752805142788
 31
0.0
  0
LINE
  5
13C
330
1F
100
AcDbEntity
  8
D-0
  6
Continuous
 62
     7
370
     9
100
AcDbLine
 10
-731.8909487853176
 20
-815.7752805142788
 30
0.0
 11
-733.390983117593
 21
-815.7752805142788
 31
0.0
  0
LINE
  5
13D
330
1F
100
AcDbEntity
  8
D-0
  6
Continuous
 62
     7
370
     9
100
AcDbLine
 10
-717.022050393594
 20
-844.3256574063687
 30
0.0
 11
-717.022050393594
 21
-842.825375118771
 31
0.0
  0
LINE
  5
13E
330
1F
100
AcDbEntity
  8
D-0
  6
Continuous
 62
     7
370
     9
100
AcDbLine
 10
-717.022050393594
 20
-842.825375118771
 30
0.0
 11
-715.5220255980618
 21
-842.825375118771
 31
0.0
  0
LINE
  5
13F
330
1F
100
AcDbEntity
  8
D-0
  6
Continuous
 62
     7
370
     9
100
AcDbLine
 10
-715.5220255980618
 20
-842.825375118771
 30
0.0
 11
-715.5220255980618
 21
-844.3256574063687
 31
0.0
  0
LINE
  5
140
330
1F
100
AcDbEntity
  8
D-0
  6
Continuous
 62
     7
370
     9
100
AcDbLine
 10
-715.5220255980618
 20
-844.3256574063687
 30
0.0
 11
-717.022050393594
 21
-844.3256574063687
 31
0.0
  0
LINE
  5
141
330
1F
100
AcDbEntity
  8
D-0
  6
Continuous
 62
     7
370
     9
100
AcDbLine
 10
-665.2510199675686
 20
-842.8030972867398
 30
0.0
 11
-665.2510199675686
 21
-841.3028149991421
 31
0.0
  0
LINE
  5
142
330
1F
100
AcDbEntity
  8
D-0
  6
Continuous
 62
     7
370
     9
100
AcDbLine
 10
-665.2510199675686
 20
-841.3028149991421
 30
0.0
 11
-663.7509832511074
 21
-841.3028149991421
 31
0.0
  0
LINE
  5
143
330
1F
100
AcDbEntity
  8
D-0
  6
Continuous
 62
     7
370
     9
100
AcDbLine
 10
-663.7509832511074
 20
-841.3028149991421
 30
0.0
 11
-663.7509832511074
 21
-842.8030972867398
 31
0.0
  0
LINE
  5
144
330
1F
100
AcDbEntity
  8
D-0
  6
Continuous
 62
     7
370
     9
100
AcDbLine
 10
-663.7509832511074
 20
-842.8030972867398
 30
0.0
 11
-665.2510199675686
 21
-842.8030972867398
 31
0.0
  0
LINE
  5
145
330
1F
100
AcDbEntity
  8
D-0
  6
Continuous
 62
     7
370
     9
100
AcDbLine
 10
-627.1840248236782
 20
-842.8030972867398
 30
0.0
 11
-627.1840248236782
 21
-841.3028149991421
 31
0.0
  0
LINE
  5
146
330
1F
100
AcDbEntity
  8
D-0
  6
Continuous
 62
     7
370
     9
100
AcDbLine
 10
-627.1840248236782
 20
-841.3028149991421
 30
0.0
 11
-625.6839931736118
 21
-841.3028149991421
 31
0.0
  0
LINE
  5
147
330
1F
100
AcDbEntity
  8
D-0
  6
Continuous
 62
     7
370
     9
100
AcDbLine
 10
-625.6839931736118
 20
-841.3028149991421
 30
0.0
 11
-625.6839931736118
 21
-842.8030972867398
 31
0.0
  0
LINE
  5
148
330
1F
100
AcDbEntity
  8
D-0
  6
Continuous
 62
     7
370
     9
100
AcDbLine
 10
-625.6839931736118
 20
-842.8030972867398
 30
0.0
 11
-627.1840248236782
 21
-842.8030972867398
 31
0.0
  0
LINE
  5
149
330
1F
100
AcDbEntity
  8
D-0
  6
Continuous
 62
     7
370
     9
100
AcDbLine
 10
-570.159781945718
 20
-659.7982221036343
 30
0.0
 11
-570.159781945718
 21
-658.2974629788785
 31
0.0
  0
LINE
  5
14A
330
1F
100
AcDbEntity
  8
D-0
  6
Continuous
 62
     7
370
     9
100
AcDbLine
 10
-570.159781945718
 20
-658.2974629788785
 30
0.0
 11
-568.6597523818142
 21
-658.2974629788785
 31
0.0
  0
LINE
  5
14B
330
1F
100
AcDbEntity
  8
D-0
  6
Continuous
 62
     7
370
     9
100
AcDbLine
 10
-568.6597523818142
 20
-658.2974629788785
 30
0.0
 11
-568.6597523818142
 21
-659.7982221036343
 31
0.0
  0
LINE
  5
14C
330
1F
100
AcDbEntity
  8
D-0
  6
Continuous
 62
     7
370
     9
100
AcDbLine
 10
-568.6597523818142
 20
-659.7982221036343
 30
0.0
 11
-570.159781945718
 21
-659.7982221036343
 31
0.0
  0
LINE
  5
14D
330
1F
100
AcDbEntity
  8
D-6
  6
Continuous
 62
     6
370
     5
100
AcDbLine
 10
-749.3246398100979
 20
-464.864464321652
 30
0.0
 11
-749.3246398100979
 21
-849.8645215421109
 31
0.0
  0
LINE
  5
14E
330
1F
100
AcDbEntity
  8
D-4
  6
Continuous
 62
     7
370
     9
100
AcDbLine
 10
-749.3246398100979
 20
-754.6201138883023
 30
0.0
 11
-599.3239412436611
 21
-754.6201138883023
 31
0.0
  0
LINE
  5
14F
330
1F
100
AcDbEntity
  8
D-4
  6
Continuous
 62
     7
370
     9
100
AcDbLine
 10
-749.3246398100979
 20
-908.2170682340054
 30
0.0
 11
-349.3242583403713
 21
-908.2170682340054
 31
0.0
  0
LINE
  5
150
330
1F
100
AcDbEntity
  8
D-4
  6
Continuous
 62
     7
370
     9
100
AcDbLine
 10
-749.3246398100979
 20
-911.2170606046109
 30
0.0
 11
-749.3246398100979
 21
-869.8645215421109
 31
0.0
  0
LINE
  5
151
330
1F
100
AcDbEntity
  8
D-4
  6
Continuous
 62
     7
370
     9
100
AcDbLine
 10
-349.3242583403713
 20
-911.2170606046109
 30
0.0
 11
-349.3242583403713
 21
-694.8649411588101
 31
0.0
  0
LINE
  5
152
330
1F
100
AcDbEntity
  8
D-1
  6
Continuous
 62
     2
370
     9
100
AcDbLine
 10
-599.3244323859341
 20
-449.8646455197721
 30
0.0
 11
-599.3244323859341
 21
-349.8651700406461
 31
0.0
  0
LINE
  5
153
330
1F
100
AcDbEntity
  8
D-1
  6
Continuous
 62
     2
370
     9
100
AcDbLine
 10
-614.324256552232
 20
-349.8651700406461
 30
0.0
 11
-599.3244323859341
 21
-349.8651700406461
 31
0.0
  0
LINE
  5
154
330
1F
100
AcDbEntity
  8
D-6
  6
Continuous
 62
     6
370
     5
100
AcDbLine
 10
-599.3244323859341
 20
-349.8651700406461
 30
0.0
 11
-184.3237624297268
 21
-349.8651700406461
 31
0.0
  0
LINE
  5
155
330
1F
100
AcDbEntity
  8
D-4
  6
Continuous
 62
     7
370
     9
100
AcDbLine
 10
-80.56174613334008
 20
-349.8651700406461
 30
0.0
 11
-80.56174613334008
 21
-674.8649411588101
 31
0.0
  0
LINE
  5
156
330
1F
100
AcDbEntity
  8
D-4
  6
Continuous
 62
     7
370
     9
100
AcDbLine
 10
-77.56175376273461
 20
-349.8651700406461
 30
0.0
 11
-164.3237624297268
 21
-349.8651700406461
 31
0.0
  0
LINE
  5
157
330
1F
100
AcDbEntity
  8
D-4
  6
Continuous
 62
     7
370
     9
100
AcDbLine
 10
-77.56175376273461
 20
-674.8649411588101
 30
0.0
 11
-329.3242583403713
 21
-674.8649411588101
 31
0.0
  0
ARC
  5
158
330
1F
100
AcDbEntity
  8
D-1
  6
Continuous
 62
     2
370
     9
100
AcDbCircle
 10
-614.324256552232
 20
-449.8646455197721
 30
0.0
 40
15.0
100
AcDbArc
 50
270.0
 51
0.0
  0
LWPOLYLINE
  5
159
330
1F
100
AcDbEntity
  8
D-4
  6
Continuous
 62
     7
370
     9
100
AcDbPolyline
 90
        4
 70
     1
 43
2.0
 10
-613.3232665190823
 20
-122.6937871365922
 42
0.4142135623731
 10
-614.3232665190823
 20
-121.6937871365922
 42
0.4142135623731
 10
-615.3232665190823
 20
-122.6937871365922
 42
0.4142135623731
 10
-614.3232665190823
 20
-123.6937871365922
 42
0.4142135623731
  0
LWPOLYLINE
  5
15A
330
1F
100
AcDbEntity
  8
D-4
  6
Continuous
 62
     7
370
     9
100
AcDbPolyline
 90
        4
 70
     1
 43
2.0
 10
-748.3241438994535
 20
-231.4461522488969
 42
0.4142135623731
 10
-749.3241438994534
 20
-230.4461522488969
 42
0.4142135623731
 10
-750.3241438994532
 20
-231.4461522488969
 42
0.4142135623731
 10
-749.3241438994534
 20
-232.4461522488969
 42
0.4142135623731
  0
LWPOLYLINE
  5
15B
330
1F
100
AcDbEntity
  8
D-4
  6
Continuous
 62
     7
370
     9
100
AcDbPolyline
 90
        4
 70
     1
 43
2.0
 10
-623.323312177608
 20
-231.4461522488969
 42
0.4142135623731
 10
-624.323312177608
 20
-230.4461522488969
 42
0.4142135623731
 10
-625.323312177608
 20
-231.4461522488969
 42
0.4142135623731
 10
-624.323312177608
 20
-232.4461522488969
 42
0.4142135623731
  0
LWPOLYLINE
  5
15C
330
1F
100
AcDbEntity
  8
D-4
  6
Continuous
 62
     7
370
     9
100
AcDbPolyline
 90
        4
 70
     1
 43
2.0
 10
-623.323312177608
 20
-122.6937871365922
 42
0.4142135623731
 10
-624.323312177608
 20
-121.6937871365922
 42
0.4142135623731
 10
-625.323312177608
 20
-122.6937871365922
 42
0.4142135623731
 10
-624.323312177608
 20
-123.6937871365922
 42
0.4142135623731
  0
LWPOLYLINE
  5
15D
330
1F
100
AcDbEntity
  8
D-4
  6
Continuous
 62
     7
370
     9
100
AcDbPolyline
 90
        4
 70
     1
 43
2.0
 10
-598.3244323859341
 20
-122.6937871365922
 42
0.4142135623731
 10
-599.3244323859341
 20
-121.6937871365922
 42
0.4142135623731
 10
-600.3244323859341
 20
-122.6937871365922
 42
0.4142135623731
 10
-599.3244323859341
 20
-123.6937871365922
 42
0.4142135623731
  0
LWPOLYLINE
  5
15E
330
1F
100
AcDbEntity
  8
D-4
  6
Continuous
 62
     7
370
     9
100
AcDbPolyline
 90
        4
 70
     1
 43
2.0
 10
-598.3244323859341
 20
-11.99808172277386
 42
0.4142135623731
 10
-599.3244323859341
 20
-10.99808172277386
 42
0.4142135623731
 10
-600.3244323859341
 20
-11.99808172277386
 42
0.4142135623731
 10
-599.3244323859341
 20
-12.99808172277386
 42
0.4142135623731
  0
LWPOLYLINE
  5
15F
330
1F
100
AcDbEntity
  8
D-4
  6
Continuous
 62
     7
370
     9
100
AcDbPolyline
 90
        4
 70
     1
 43
2.0
 10
-748.324639810098
 20
-754.6201138883023
 42
0.4142135623731
 10
-749.3246398100979
 20
-753.6201138883024
 42
0.4142135623731
 10
-750.3246398100978
 20
-754.6201138883023
 42
0.4142135623731
 10
-749.3246398100979
 20
-755.6201138883023
 42
0.4142135623731
  0
LWPOLYLINE
  5
160
330
1F
100
AcDbEntity
  8
D-4
  6
Continuous
 62
     7
370
     9
100
AcDbPolyline
 90
        4
 70
     1
 43
2.0
 10
-598.3239412436611
 20
-754.6201138883023
 42
0.4142135623731
 10
-599.3239412436611
 20
-753.6201138883024
 42
0.4142135623731
 10
-600.3239412436611
 20
-754.6201138883023
 42
0.4142135623731
 10
-599.3239412436611
 20
-755.6201138883023
 42
0.4142135623731
  0
LWPOLYLINE
  5
161
330
1F
100
AcDbEntity
  8
D-4
  6
Continuous
 62
     7
370
     9
100
AcDbPolyline
 90
        4
 70
     1
 43
2.0
 10
-748.324639810098
 20
-908.2170682340054
 42
0.4142135623731
 10
-749.3246398100979
 20
-907.2170682340055
 42
0.4142135623731
 10
-750.3246398100978
 20
-908.2170682340054
 42
0.4142135623731
 10
-749.3246398100979
 20
-909.2170682340054
 42
0.4142135623731
  0
LWPOLYLINE
  5
162
330
1F
100
AcDbEntity
  8
D-4
  6
Continuous
 62
     7
370
     9
100
AcDbPolyline
 90
        4
 70
     1
 43
2.0
 10
-348.3242583403713
 20
-908.2170682340054
 42
0.4142135623731
 10
-349.3242583403713
 20
-907.2170682340055
 42
0.4142135623731
 10
-350.3242583403713
 20
-908.2170682340054
 42
0.4142135623731
 10
-349.3242583403713
 20
-909.2170682340054
 42
0.4142135623731
  0
LWPOLYLINE
  5
163
330
1F
100
AcDbEntity
  8
D-4
  6
Continuous
 62
     7
370
     9
100
AcDbPolyline
 90
        4
 70
     1
 43
2.0
 10
-79.56174613334008
 20
-349.8651700406461
 42
0.4142135623731
 10
-80.56174613334008
 20
-348.8651700406461
 42
0.4142135623731
 10
-81.56174613334008
 20
-349.8651700406461
 42
0.4142135623731
 10
-80.56174613334008
 20
-350.8651700406461
 42
0.4142135623731
  0
LWPOLYLINE
  5
164
330
1F
100
AcDbEntity
  8
D-4
  6
Continuous
 62
     7
370
     9
100
AcDbPolyline
 90
        4
 70
     1
 43
2.0
 10
-79.56174613334008
 20
-674.8649411588101
 42
0.4142135623731
 10
-80.56174613334008
 20
-673.8649411588102
 42
0.4142135623731
 10
-81.56174613334008
 20
-674.8649411588101
 42
0.4142135623731
 10
-80.56174613334008
 20
-675.8649411588101
 42
0.4142135623731
  0
TEXT
  5
165
330
1F
100
AcDbEntity
  8
D-4
  6
Continuous
 62
     2
370
     9
100
AcDbText
 10
-708.0733904967434
 20
-220.8059424405473
 30
0.0
 40
30.48
  1
25
 41
1.0625
  7
ＭＳ ゴシック
100
AcDbText
  0
TEXT
  5
166
330
1F
100
AcDbEntity
  8
D-4
  6
Continuous
 62
     2
370
     9
100
AcDbText
 10
-617.1920297274715
 20
-899.3077582364468
 30
0.0
 40
30.48
  1
75～80
 41
1.104166666666667
  7
ＭＳ ゴシック
100
AcDbText
  0
TEXT
  5
167
330
1F
100
AcDbEntity
  8
D-4
  6
Continuous
 62
     2
370
     9
100
AcDbText
 10
-93.80916800834008
 20
-572.8697212210161
 30
0.0
 40
30.48
  1
55～65
 50
90.00000250447756
 41
1.104166666666667
  7
ＭＳ ゴシック
100
AcDbText
  0
TEXT
  5
168
330
1F
100
AcDbEntity
  8
D-4
  6
Continuous
 62
     2
370
     9
100
AcDbText
 10
-586.0230789313442
 20
-112.0544547086137
 30
0.0
 40
30.48
  1
3
 41
0.9999999999999998
  7
ＭＳ ゴシック
100
AcDbText
  0
TEXT
  5
169
330
1F
100
AcDbEntity
  8
D-4
  6
Continuous
 62
     2
370
     9
100
AcDbText
 10
-651.1643419394619
 20
-112.0544547086137
 30
0.0
 40
30.48
  1
2
 41
0.9999999999999998
  7
ＭＳ ゴシック
100
AcDbText
  0
TEXT
  5
16A
330
1F
100
AcDbEntity
  8
D-5
  6
Continuous
 62
     2
370
     9
100
AcDbText
 10
-1047.892640603555
 20
-1024.19564428381
 30
0.0
 40
30.48
  1
断面詳細図　Ｓ＝１：２
 41
1.113636363636365
  7
ＭＳ ゴシック
100
AcDbText
  0
LINE
  5
16B
330
1F
100
AcDbEntity
  8
D-4
  6
Continuous
 62
     7
370
     9
100
AcDbLine
 10
-749.3157229552395
 20
-582.9667477994351
 30
0.0
 11
-599.3156108985073
 21
-582.9667477994351
 31
0.0
  0
LINE
  5
16C
330
1F
100
AcDbEntity
  8
D-4
  6
Continuous
 62
     7
370
     9
100
AcDbLine
 10
-599.3156108985073
 20
-582.9667477994351
 30
0.0
 11
-429.3153891692288
 21
-582.9667477994351
 31
0.0
  0
LINE
  5
16D
330
1F
100
AcDbEntity
  8
D-4
  6
Continuous
 62
     7
370
     9
100
AcDbLine
 10
-429.3153891692288
 20
-585.9667592435269
 30
0.0
 11
-429.3153891692288
 21
-501.3630776791959
 31
0.0
  0
LINE
  5
16E
330
1F
100
AcDbEntity
  8
D-4
  6
Continuous
 62
     7
370
     9
100
AcDbLine
 10
-366.3594184050686
 20
-496.363144436398
 30
0.0
 11
-424.3153891692288
 21
-496.363144436398
 31
0.0
  0
LINE
  5
16F
330
1F
100
AcDbEntity
  8
D-4
  6
Continuous
 62
     7
370
     9
100
AcDbLine
 10
-369.3594107756741
 20
-464.8639684110074
 30
0.0
 11
-369.3594107756741
 21
-581.6140942960171
 31
0.0
  0
LINE
  5
170
330
1F
100
AcDbEntity
  8
D-4
  6
Continuous
 62
     7
370
     9
100
AcDbLine
 10
-599.3156108985073
 20
-585.9667592435269
 30
0.0
 11
-599.3156108985073
 21
-501.3630776791959
 31
0.0
  0
LINE
  5
171
330
1F
100
AcDbEntity
  8
D-9
  6
Continuous
 62
     4
370
     9
100
AcDbLine
 10
-559.315432084573
 20
-496.363144436398
 30
0.0
 11
-444.3153891692288
 21
-496.363144436398
 31
0.0
  0
LINE
  5
172
330
1F
100
AcDbEntity
  8
D-9
  6
Continuous
 62
     4
370
     9
100
AcDbLine
 10
-574.3155036101467
 20
-481.3630776791959
 30
0.0
 11
-574.3155036101467
 21
-467.3631101041227
 31
0.0
  0
LINE
  5
173
330
1F
100
AcDbEntity
  8
D-9
  6
Continuous
 62
     4
370
     9
100
AcDbLine
 10
-429.315579904092
 20
-481.3630776791959
 30
0.0
 11
-429.315579904092
 21
-467.3631101041227
 31
0.0
  0
LINE
  5
174
330
1F
100
AcDbEntity
  8
D-9
  6
Continuous
 62
     4
370
     9
100
AcDbLine
 10
-594.3155965933926
 20
-477.3631577878385
 30
0.0
 11
-594.3155965933926
 21
-467.3631101041227
 31
0.0
  0
LINE
  5
175
330
1F
100
AcDbEntity
  8
D-9
  6
Continuous
 62
     4
370
     9
100
AcDbLine
 10
-574.2904791960842
 20
-477.3631577878385
 30
0.0
 11
-624.3153075753031
 21
-477.3631577878385
 31
0.0
  0
LINE
  5
176
330
1F
100
AcDbEntity
  8
D-9
  6
Continuous
 62
     4
370
     9
100
AcDbLine
 10
-429.315579904092
 20
-467.3631101041227
 30
0.0
 11
-624.3153075753031
 21
-467.3631101041227
 31
0.0
  0
LINE
  5
177
330
1F
100
AcDbEntity
  8
D-9
  6
Continuous
 62
     3
370
     9
100
AcDbLine
 10
-724.315637124551
 20
-464.864464321652
 30
0.0
 11
-724.315637124551
 21
-487.3644452481656
 31
0.0
  0
LINE
  5
178
330
1F
100
AcDbEntity
  8
D-9
  6
Continuous
 62
     3
370
     9
100
AcDbLine
 10
-624.3153075753031
 20
-487.3644452481656
 30
0.0
 11
-724.315637124551
 21
-487.3644452481656
 31
0.0
  0
LINE
  5
179
330
1F
100
AcDbEntity
  8
D-9
  6
Continuous
 62
     3
370
     9
100
AcDbLine
 10
-624.3153075753031
 20
-464.864464321652
 30
0.0
 11
-724.315637124551
 21
-464.864464321652
 31
0.0
  0
LINE
  5
17A
330
1F
100
AcDbEntity
  8
D-9
  6
Continuous
 62
     2
370
     9
100
AcDbLine
 10
-660.5657372603542
 20
-489.8630910306363
 30
0.0
 11
-660.5657372603542
 21
-487.3644452481656
 31
0.0
  0
LINE
  5
17B
330
1F
100
AcDbEntity
  8
D-9
  6
Continuous
 62
     2
370
     9
100
AcDbLine
 10
-669.31644774772
 20
-497.3624997525602
 30
0.0
 11
-660.5657372603542
 21
-489.8630910306363
 31
0.0
  0
LINE
  5
17C
330
1F
100
AcDbEntity
  8
D-9
  6
Continuous
 62
     2
370
     9
100
AcDbLine
 10
-679.3153653273708
 20
-497.3624997525602
 30
0.0
 11
-669.31644774772
 21
-497.3624997525602
 31
0.0
  0
LINE
  5
17D
330
1F
100
AcDbEntity
  8
D-9
  6
Continuous
 62
     2
370
     9
100
AcDbLine
 10
-688.0658278594143
 20
-489.8630910306363
 30
0.0
 11
-679.3153653273708
 21
-497.3624997525602
 31
0.0
  0
LINE
  5
17E
330
1F
100
AcDbEntity
  8
D-9
  6
Continuous
 62
     2
370
     9
100
AcDbLine
 10
-688.0658278594143
 20
-489.8630910306363
 30
0.0
 11
-688.0658278594143
 21
-487.3644452481656
 31
0.0
  0
LINE
  5
17F
330
1F
100
AcDbEntity
  8
D-9
  6
Continuous
 62
     2
370
     9
100
AcDbLine
 10
-688.0658278594143
 20
-489.8630910306363
 30
0.0
 11
-660.5657372603542
 21
-489.8630910306363
 31
0.0
  0
LINE
  5
180
330
1F
100
AcDbEntity
  8
D-9
  6
Continuous
 62
     3
370
     9
100
AcDbLine
 10
-624.3153075753031
 20
-464.864464321652
 30
0.0
 11
-624.3153075753031
 21
-487.3644452481656
 31
0.0
  0
LINE
  5
181
330
1F
100
AcDbEntity
  8
D-9
  6
Continuous
 62
     3
370
     9
100
AcDbLine
 10
-624.3153075753031
 20
-474.864464321652
 30
0.0
 11
-724.315637124551
 21
-474.864464321652
 31
0.0
  0
LINE
  5
182
330
1F
100
AcDbEntity
  8
D-9
  6
JWW_DASHED2
 62
     3
370
     9
100
AcDbLine
 10
-624.3153075753031
 20
-477.3644452481656
 30
0.0
 11
-724.315637124551
 21
-477.3644452481656
 31
0.0
  0
LINE
  5
183
330
1F
100
AcDbEntity
  8
D-9
  6
JWW_CENTER1
 62
     4
370
     9
100
AcDbLine
 10
-674.3154702315456
 20
-505.1034646420865
 30
0.0
 11
-674.3154702315456
 21
-464.864464321652
 31
0.0
  0
ARC
  5
184
330
1F
100
AcDbEntity
  8
D-9
  6
Continuous
 62
     4
370
     9
100
AcDbCircle
 10
-559.315432084573
 20
-481.3630776791959
 30
0.0
 40
15.00000238418579
100
AcDbArc
 50
180.0
 51
270.0
  0
ARC
  5
185
330
1F
100
AcDbEntity
  8
D-9
  6
Continuous
 62
     4
370
     9
100
AcDbCircle
 10
-444.3153891692288
 20
-481.3630776791959
 30
0.0
 40
15.00000238418579
100
AcDbArc
 50
270.0
 51
0.0
  0
LWPOLYLINE
  5
186
330
1F
100
AcDbEntity
  8
D-4
  6
Continuous
 62
     7
370
     9
100
AcDbPolyline
 90
        4
 70
     1
 43
2.0
 10
-748.3157229552396
 20
-582.9667477994351
 42
0.4142135623731
 10
-749.3157229552395
 20
-581.9667477994351
 42
0.4142135623731
 10
-750.3157229552394
 20
-582.9667477994351
 42
0.4142135623731
 10
-749.3157229552395
 20
-583.9667477994352
 42
0.4142135623731
  0
LWPOLYLINE
  5
187
330
1F
100
AcDbEntity
  8
D-4
  6
Continuous
 62
     7
370
     9
100
AcDbPolyline
 90
        4
 70
     1
 43
2.0
 10
-598.3156108985073
 20
-582.9667477994351
 42
0.4142135623731
 10
-599.3156108985073
 20
-581.9667477994351
 42
0.4142135623731
 10
-600.3156108985073
 20
-582.9667477994351
 42
0.4142135623731
 10
-599.3156108985073
 20
-583.9667477994352
 42
0.4142135623731
  0
LWPOLYLINE
  5
188
330
1F
100
AcDbEntity
  8
D-4
  6
Continuous
 62
     7
370
     9
100
AcDbPolyline
 90
        4
 70
     1
 43
2.0
 10
-428.3153891692288
 20
-582.9667477994351
 42
0.4142135623731
 10
-429.3153891692288
 20
-581.9667477994351
 42
0.4142135623731
 10
-430.3153891692288
 20
-582.9667477994351
 42
0.4142135623731
 10
-429.3153891692288
 20
-583.9667477994352
 42
0.4142135623731
  0
LWPOLYLINE
  5
189
330
1F
100
AcDbEntity
  8
D-4
  6
Continuous
 62
     7
370
     9
100
AcDbPolyline
 90
        4
 70
     1
 43
2.0
 10
-368.3594107756741
 20
-496.363144436398
 42
0.4142135623731
 10
-369.3594107756741
 20
-495.363144436398
 42
0.4142135623731
 10
-370.3594107756741
 20
-496.363144436398
 42
0.4142135623731
 10
-369.3594107756741
 20
-497.363144436398
 42
0.4142135623731
  0
TEXT
  5
18A
330
1F
100
AcDbEntity
  8
D-4
  6
Continuous
 62
     2
370
     9
100
AcDbText
 10
-695.5656657347805
 20
-571.3267439847378
 30
0.0
 40
30.48
  1
30
 41
1.0625
  7
ＭＳ ゴシック
100
AcDbText
  0
TEXT
  5
18B
330
1F
100
AcDbEntity
  8
D-4
  6
Continuous
 62
     2
370
     9
100
AcDbText
 10
-588.9494190344936
 20
-571.3267439847378
 30
0.0
 40
30.48
  1
34
 41
1.0625
  7
ＭＳ ゴシック
100
AcDbText
  0
TEXT
  5
18C
330
1F
100
AcDbEntity
  8
D-4
  6
Continuous
 62
     2
370
     9
100
AcDbText
 10
-380.9994145903713
 20
-568.0583580008011
 30
0.0
 40
30.48
  1
6.5
 50
90.00000250447674
 41
1.083333333333334
  7
ＭＳ ゴシック
100
AcDbText
  0
LINE
  5
18D
330
1F
100
AcDbEntity
  8
D-4
  6
Continuous
 62
     7
370
     9
100
AcDbLine
 10
-565.31347609855
 20
-464.8639684110074
 30
0.0
 11
-366.3588462004788
 21
-464.8639684110074
 31
0.0
  0
LWPOLYLINE
  5
18E
330
1F
100
AcDbEntity
  8
D-4
  6
Continuous
 62
     7
370
     9
100
AcDbPolyline
 90
        4
 70
     1
 43
2.0
 10
-368.3594107756741
 20
-464.8639684110074
 42
0.4142135623731
 10
-369.3594107756741
 20
-463.8639684110074
 42
0.4142135623731
 10
-370.3594107756741
 20
-464.8639684110074
 42
0.4142135623731
 10
-369.3594107756741
 20
-465.8639684110074
 42
0.4142135623731
  0
LINE
  5
18F
330
1F
100
AcDbEntity
  8
D-4
  6
Continuous
 62
     7
370
     9
100
AcDbLine
 10
-369.3594107756741
 20
-464.8639684110074
 30
0.0
 11
-369.3594107756741
 21
-349.8651700406461
 31
0.0
  0
LWPOLYLINE
  5
190
330
1F
100
AcDbEntity
  8
D-4
  6
Continuous
 62
     7
370
     9
100
AcDbPolyline
 90
        4
 70
     1
 43
2.0
 10
-368.3594107756741
 20
-349.8651700406461
 42
0.4142135623731
 10
-369.3594107756741
 20
-348.8651700406461
 42
0.4142135623731
 10
-370.3594107756741
 20
-349.8651700406461
 42
0.4142135623731
 10
-369.3594107756741
 20
-350.8651700406461
 42
0.4142135623731
  0
TEXT
  5
191
330
1F
100
AcDbEntity
  8
D-4
  6
Continuous
 62
     2
370
   211
100
AcDbText
 10
-384.9994107756741
 20
-428.6145692258268
 30
0.0
 40
30.48
  1
23
 50
90.0
 41
1.0625
  7
ＭＳ ゴシック
100
AcDbText
  0
LINE
  5
192
330
1F
100
AcDbEntity
  8
D-5
  6
Continuous
 62
     7
370
     9
100
AcDbLine
 10
-581.2045989165432
 20
-467.3631101041227
 30
0.0
 11
-567.3929104933865
 21
-446.5246873288541
 31
0.0
  0
LINE
  5
193
330
1F
100
AcDbEntity
  8
D-5
  6
Continuous
 62
     7
370
     9
100
AcDbLine
 10
-581.2045989165432
 20
-467.3631101041227
 30
0.0
 11
-562.4709210524685
 21
-450.809002438107
 31
0.0
  0
LINE
  5
194
330
1F
100
AcDbEntity
  8
D-5
  6
Continuous
 62
     7
370
     9
100
AcDbLine
 10
-406.6554675231106
 20
-266.815681973018
 30
0.0
 11
-581.2045989165432
 21
-467.3631101041227
 31
0.0
  0
LINE
  5
195
330
1F
100
AcDbEntity
  8
D-5
  6
Continuous
 62
     7
370
     9
100
AcDbLine
 10
-416.0617541684047
 20
-71.24755018925185
 30
0.0
 11
-658.56069040043
 21
-349.8648648648648
 31
0.0
  0
LINE
  5
196
330
1F
100
AcDbEntity
  8
D-5
  6
Continuous
 62
     7
370
     9
100
AcDbLine
 10
-658.56069040043
 20
-349.8648648648648
 30
0.0
 11
-644.7499937985623
 21
-329.0269338279157
 31
0.0
  0
LINE
  5
197
330
1F
100
AcDbEntity
  8
D-5
  6
Continuous
 62
     7
370
     9
100
AcDbLine
 10
-658.56069040043
 20
-349.8648648648648
 30
0.0
 11
-639.827014920541
 21
-333.3112531094937
 31
0.0
  0
LINE
  5
198
330
1F
100
AcDbEntity
  8
D-5
  6
Continuous
 62
     7
370
     9
100
AcDbLine
 10
-409.2350358432151
 20
-160.6264573174454
 30
0.0
 11
45.36202785534385
 21
-160.6264573174454
 31
0.0
  0
LINE
  5
199
330
1F
100
AcDbEntity
  8
D-5
  6
Continuous
 62
     7
370
     9
100
AcDbLine
 10
-599.3244466910488
 20
-379.0282450597979
 30
0.0
 11
-585.5137500891811
 21
-358.1903140228488
 31
0.0
  0
LINE
  5
19A
330
1F
100
AcDbEntity
  8
D-5
  6
Continuous
 62
     7
370
     9
100
AcDbLine
 10
-409.2350358432151
 20
-160.6264573174454
 30
0.0
 11
-599.3244466910488
 21
-379.0282450597979
 31
0.0
  0
LINE
  5
19B
330
1F
100
AcDbEntity
  8
D-5
  6
Continuous
 62
     7
370
     9
100
AcDbLine
 10
-599.3244466910488
 20
-379.0282450597979
 30
0.0
 11
-580.5907712111599
 21
-362.4746333044268
 31
0.0
  0
TEXT
  5
19C
330
1F
100
AcDbEntity
  8
D-5
  6
Continuous
 62
     7
370
     9
100
AcDbText
 10
-404.8476423183009
 20
-151.6374889641765
 30
0.0
 40
22.86
  1
ステンレス製受枠ＲＬ－２０
 50
359.9999368586928
 41
1.153846153846155
  7
ＭＳ ゴシック
100
AcDbText
  0
TEXT
  5
19D
330
1F
100
AcDbEntity
  8
D-4
  6
Continuous
 62
     2
370
     9
100
AcDbText
 10
-740.5742905268795
 20
-742.073086954873
 30
0.0
 40
30.48
  1
25～30
 41
1.104166666666667
  7
ＭＳ ゴシック
100
AcDbText
  0
LINE
  5
19E
330
1F
100
AcDbEntity
  8
D-6
  6
Continuous
 62
     6
370
     5
100
AcDbLine
 10
-456.8153510222538
 20
-674.8649411588101
 30
0.0
 11
-456.8153510222538
 21
-496.363144436398
 31
0.0
  0
LINE
  5
19F
330
1F
100
AcDbEntity
  8
D-6
  6
Continuous
 62
     6
370
     5
100
AcDbLine
 10
-501.8158087859257
 20
-674.8649411588101
 30
0.0
 11
-501.8158087859257
 21
-496.363144436398
 31
0.0
  0
LINE
  5
1A0
330
1F
100
AcDbEntity
  8
D-6
  6
Continuous
 62
     6
370
     5
100
AcDbLine
 10
-501.8158087859257
 20
-467.3631101041227
 30
0.0
 11
-501.8158087859257
 21
-432.3631101041227
 31
0.0
  0
LINE
  5
1A1
330
1F
100
AcDbEntity
  8
D-6
  6
Continuous
 62
     6
370
     5
100
AcDbLine
 10
-456.8153510222538
 20
-467.3631101041227
 30
0.0
 11
-456.8153510222538
 21
-432.3631101041227
 31
0.0
  0
LINE
  5
1A2
330
1F
100
AcDbEntity
  8
D-6
  6
Continuous
 62
     6
370
     5
100
AcDbLine
 10
-501.8158087859257
 20
-432.3631101041227
 30
0.0
 11
-456.8153510222538
 21
-432.3631101041227
 31
0.0
  0
LINE
  5
1A3
330
1F
100
AcDbEntity
  8
D-6
  6
JWW_CENTER2
 62
     6
370
     5
100
AcDbLine
 10
-479.3155799040898
 20
-420.0497155576139
 30
0.0
 11
-479.3155799040898
 21
-788.1974606900601
 31
0.0
  0
LINE
  5
1A4
330
1F
100
AcDbEntity
  8
D-6
  6
JWW_DASHED3
 62
     6
370
     5
100
AcDbLine
 10
-501.8158087859257
 20
-777.3645596890835
 30
0.0
 11
-501.8158087859257
 21
-674.8649411588101
 31
0.0
  0
LINE
  5
1A5
330
1F
100
AcDbEntity
  8
D-6
  6
JWW_DASHED3
 62
     6
370
     5
100
AcDbLine
 10
-456.8153510222538
 20
-674.8649411588101
 30
0.0
 11
-456.8153510222538
 21
-777.3645596890835
 31
0.0
  0
LWPOLYLINE
  5
1A6
330
1F
100
AcDbEntity
  8
D-4
  6
Continuous
 62
     7
370
     9
100
AcDbPolyline
 90
        4
 70
     1
 43
2.0
 10
-1381.393584380278
 20
-349.865160246152
 42
0.4142135623731
 10
-1382.393584380278
 20
-348.865160246152
 42
0.4142135623731
 10
-1383.393584380278
 20
-349.865160246152
 42
0.4142135623731
 10
-1382.393584380278
 20
-350.865160246152
 42
0.4142135623731
  0
LWPOLYLINE
  5
1A7
330
1F
100
AcDbEntity
  8
D-4
  6
Continuous
 62
     7
370
     9
100
AcDbPolyline
 90
        4
 70
     1
 43
2.0
 10
-1381.393584380278
 20
-449.8649952862702
 42
0.4142135623731
 10
-1382.393584380278
 20
-448.8649952862702
 42
0.4142135623731
 10
-1383.393584380278
 20
-449.8649952862702
 42
0.4142135623731
 10
-1382.393584380278
 20
-450.8649952862702
 42
0.4142135623731
  0
LINE
  5
1A8
330
1F
100
AcDbEntity
  8
D-4
  6
Continuous
 62
     7
370
     9
100
AcDbLine
 10
-1382.393584380278
 20
-449.8649952862702
 30
0.0
 11
-1382.393584380278
 21
-349.865160246152
 31
0.0
  0
LINE
  5
1A9
330
1F
100
AcDbEntity
  8
D-4
  6
Continuous
 62
     7
370
     9
100
AcDbLine
 10
-1327.342430320946
 20
-449.8649952862702
 30
0.0
 11
-1385.393421069996
 21
-449.8649952862702
 31
0.0
  0
LINE
  5
1AA
330
1F
100
AcDbEntity
  8
D-4
  6
Continuous
 62
     7
370
     9
100
AcDbLine
 10
-1327.342430320946
 20
-349.865160246152
 30
0.0
 11
-1385.393421069996
 21
-349.865160246152
 31
0.0
  0
TEXT
  5
1AB
330
1F
100
AcDbEntity
  8
D-4
  6
Continuous
 62
     2
370
     9
100
AcDbText
 10
-1393.033724596178
 20
-421.1150860142051
 30
0.0
 40
30.48
  1
20
 50
90.0
 41
1.0625
  7
ＭＳ ゴシック
100
AcDbText
  0
TEXT
  5
1AC
330
1F
100
AcDbEntity
  8
D-4
  6
Continuous
 62
     2
370
     9
100
AcDbText
 10
-1322.461803539379
 20
-112.0534881468064
 30
0.0
 40
30.48
  1
□300
 41
1.099999917520063
  7
ＭＳ ゴシック
100
AcDbText
  0
TEXT
  5
1AD
330
1F
100
AcDbEntity
  8
D-4
  6
Continuous
 62
     2
370
     9
100
AcDbText
 10
-1322.461803539379
 20
-220.8058883130861
 30
0.0
 40
30.48
  1
□250
 41
1.099999917520063
  7
ＭＳ ゴシック
100
AcDbText
  0
TEXT
  5
1AE
330
1F
100
AcDbEntity
  8
D-4
  6
Continuous
 62
     2
370
     9
100
AcDbText
 10
-1322.461803539379
 20
-3.301087980526987
 30
0.0
 40
30.48
  1
□310
 41
1.099999917520063
  7
ＭＳ ゴシック
100
AcDbText
  0
LINE
  5
1AF
330
1F
100
AcDbEntity
  8
D-5
  6
Continuous
 62
     7
370
     9
100
AcDbLine
 10
-416.0617541684047
 20
-71.24755018925185
 30
0.0
 11
103.8241719280097
 21
-71.24755018925185
 31
0.0
  0
TEXT
  5
1B0
330
1F
100
AcDbEntity
  8
D-5
  6
Continuous
 62
     7
370
     0
100
AcDbText
 10
-413.6548033388573
 20
-63.49696608284587
 30
0.0
 40
22.86
  1
ＳＭＱＷ　３３２０（Ｐ＝３０）
 50
0.0002470746691
 41
1.155555555555555
  7
ＭＳ ゴシック
100
AcDbText
  0
TEXT
  5
1B1
330
1F
100
AcDbEntity
  8
D-5
  6
Continuous
 62
     2
370
     9
100
AcDbText
 10
136.0438991237334
 20
-756.6780788488122
 30
0.0
 40
30.48
  1
　　　サイドバー　ＦＢ４×２０（ＳＵＳ３０４）
 41
1.119565217391304
  7
ＭＳ ゴシック
100
AcDbText
  0
TEXT
  5
1B2
330
1F
100
AcDbEntity
  8
D-5
  6
Continuous
 62
     2
370
     9
100
AcDbText
 10
136.0438991237334
 20
-646.6778396569836
 30
0.0
 40
30.48
  1
材質：メインバー　ＦＢ４×２０（ＳＵＳ３０４）
 41
1.119565217391304
  7
ＭＳ ゴシック
100
AcDbText
  0
TEXT
  5
1B3
330
1F
100
AcDbEntity
  8
D-5
  6
Continuous
 62
     2
370
     9
100
AcDbText
 10
136.0438991237334
 20
-701.6781448327648
 30
0.0
 40
30.48
  1
　　　クロスバー　ＦＢ３×１５（ＳＵＳ３０４）
 41
1.119565217391304
  7
ＭＳ ゴシック
100
AcDbText
  0
TEXT
  5
1B4
330
1F
100
AcDbEntity
  8
D-5
  6
Continuous
 62
     2
370
     9
100
AcDbText
 10
76.33194588326148
 20
-858.7456935944798
 30
0.0
 40
30.48
  1
ステンレス製受枠　ＲＬ－２０（四方枠）
 41
1.118421052631579
  7
ＭＳ ゴシック
100
AcDbText
  0
TEXT
  5
1B5
330
1F
100
AcDbEntity
  8
D-5
  6
Continuous
 62
     2
370
     9
100
AcDbText
 10
136.0438599457615
 20
-913.7466854157691
 30
0.0
 40
30.48
  1
材質：ステンレス鋼板ｔ＝３．０（ＳＵＳ３０４）
 41
1.119565217391304
  7
ＭＳ ゴシック
100
AcDbText
  0
TEXT
  5
1B6
330
1F
100
AcDbEntity
  8
D-5
  6
Continuous
 62
     2
370
     9
100
AcDbText
 10
136.0438599457615
 20
-1023.745769888425
 30
0.0
 40
30.48
  1
施工場所の状況に合わせて、アンカーをプライヤー等で折り曲げてご使用ください。
 41
1.121710526315789
  7
ＭＳ ゴシック
100
AcDbText
  0
TEXT
  5
1B7
330
1F
100
AcDbEntity
  8
D-5
  6
Continuous
 62
     7
370
     9
100
AcDbText
 10
-393.0112300048
 20
-257.9267922025102
 30
0.0
 40
22.86
  1
アンカー
 41
1.125
  7
ＭＳ ゴシック
100
AcDbText
  0
TEXT
  5
1B8
330
1F
100
AcDbEntity
  8
D-5
  6
Continuous
 62
     7
370
     0
100
AcDbText
 10
-413.6547983712708
 20
10.60829667352029
 30
0.0
 40
22.86
  1
ステンレス製グレーチング
 50
0.0001797882051987
 41
1.152777777777778
  7
ＭＳ ゴシック
100
AcDbText
  0
TEXT
  5
1B9
330
1F
100
AcDbEntity
  8
D-5
  6
Continuous
 62
     7
370
     0
100
AcDbText
 10
-413.6547901526743
 20
-26.85855360722362
 30
0.0
 40
22.86
  1
滑り止め模様付　集水桝用
 50
0.0000684664808697
 41
1.152777777777778
  7
ＭＳ ゴシック
100
AcDbText
  0
TEXT
  5
1BA
330
1F
100
AcDbEntity
  8
D-5
  6
Continuous
 62
     2
370
     9
100
AcDbText
 10
76.33221600506765
 20
-540.1147605842124
 30
0.0
 40
30.48
  1
ステンレス製グレーチング　滑り止め模様付　集水桝用
 41
1.12
  7
ＭＳ ゴシック
100
AcDbText
  0
TEXT
  5
1BB
330
1F
100
AcDbEntity
  8
D-5
  6
Continuous
 62
     2
370
     9
100
AcDbText
 10
76.33221600506772
 20
-591.6775344812024
 30
0.0
 40
30.48
  1
ＳＭＱＷ　３３２０（Ｐ＝３０）
 41
1.116666666666666
  7
ＭＳ ゴシック
100
AcDbText
  0
TEXT
  5
1BC
330
1F
100
AcDbEntity
  8
D-5
  6
Continuous
 62
     7
370
     9
100
AcDbText
 10
-393.0112300048
 20
-297.2447147946733
 30
0.0
 40
22.86
  1
ｔ＝２．０（ＳＥＣＣ）
 41
1.151515151515152
  7
ＭＳ ゴシック
100
AcDbText
  0
TEXT
  5
1BD
330
1F
100
AcDbEntity
  8
F-5ﾚｲﾔ
  6
Continuous
 62
     2
370
     9
100
AcDbText
 10
-836.3349794238684
 20
-1323.666995884774
 30
0.0
 40
30.48
  1
ステンレス製グレーチング　滑り止め模様付　集水桝用
 41
0.8989999999999999
  7
ＭＳ ゴシック
100
AcDbText
  0
TEXT
  5
1BE
330
1F
100
AcDbEntity
  8
F-5ﾚｲﾔ
  6
Continuous
 62
     2
370
     9
100
AcDbText
 10
-526.4337448559671
 20
-1373.841481481481
 30
0.0
 40
30.48
  1
ＳＭＱＷ　３３２０（Ｐ＝３０）＋ＲＬ－２０（四方枠）
 41
0.8990384615384615
  7
ＭＳ ゴシック
100
AcDbText
  0
LWPOLYLINE
  5
1BF
330
1F
100
AcDbEntity
  8
C-4
  6
Continuous
 62
     7
370
     9
100
AcDbPolyline
 90
        4
 70
     1
 43
2.0
 10
-140.243475925856
 20
1205.333922142112
 42
0.4142135623731
 10
-141.243475925856
 20
1206.333922142112
 42
0.4142135623731
 10
-142.243475925856
 20
1205.333922142112
 42
0.4142135623731
 10
-141.243475925856
 20
1204.333922142112
 42
0.4142135623731
  0
LWPOLYLINE
  5
1C0
330
1F
100
AcDbEntity
  8
C-4
  6
Continuous
 62
     7
370
     9
100
AcDbPolyline
 90
        4
 70
     1
 43
2.0
 10
159.7564003542325
 20
1205.333922142112
 42
0.4142135623731
 10
158.7564003542325
 20
1206.333922142112
 42
0.4142135623731
 10
157.7564003542325
 20
1205.333922142112
 42
0.4142135623731
 10
158.7564003542325
 20
1204.333922142112
 42
0.4142135623731
  0
LWPOLYLINE
  5
1C1
330
1F
100
AcDbEntity
  8
C-4
  6
Continuous
 62
     7
370
     9
100
AcDbPolyline
 90
        4
 70
     1
 43
2.0
 10
-145.2432449820217
 20
1260.334103597982
 42
0.4142135623731
 10
-146.2432449820216
 20
1261.334103597982
 42
0.4142135623731
 10
-147.2432449820216
 20
1260.334103597982
 42
0.4142135623731
 10
-146.2432449820216
 20
1259.334103597983
 42
0.4142135623731
  0
LWPOLYLINE
  5
1C2
330
1F
100
AcDbEntity
  8
C-4
  6
Continuous
 62
     7
370
     9
100
AcDbPolyline
 90
        4
 70
     1
 43
2.0
 10
164.7566642900435
 20
1260.334103597982
 42
0.4142135623731
 10
163.7566642900435
 20
1261.334103597982
 42
0.4142135623731
 10
162.7566642900435
 20
1260.334103597982
 42
0.4142135623731
 10
163.7566642900435
 20
1259.334103597983
 42
0.4142135623731
  0
LWPOLYLINE
  5
1C3
330
1F
100
AcDbEntity
  8
C-4
  6
Continuous
 62
     7
370
     9
100
AcDbPolyline
 90
        4
 70
     1
 43
2.0
 10
-115.2430222861813
 20
1150.333988126065
 42
0.4142135623731
 10
-116.2430222861813
 20
1151.333988126065
 42
0.4142135623731
 10
-117.2430222861813
 20
1150.333988126065
 42
0.4142135623731
 10
-116.2430222861813
 20
1149.333988126065
 42
0.4142135623731
  0
LWPOLYLINE
  5
1C4
330
1F
100
AcDbEntity
  8
C-4
  6
Continuous
 62
     7
370
     9
100
AcDbPolyline
 90
        4
 70
     1
 43
2.0
 10
134.7570601937596
 20
1150.333988126065
 42
0.4142135623731
 10
133.7570601937596
 20
1151.333988126065
 42
0.4142135623731
 10
132.7570601937596
 20
1150.333988126065
 42
0.4142135623731
 10
133.7570601937596
 20
1149.333988126065
 42
0.4142135623731
  0
LWPOLYLINE
  5
1C5
330
1F
100
AcDbEntity
  8
C-4
  6
Continuous
 62
     7
370
     9
100
AcDbPolyline
 90
        4
 70
     1
 43
2.0
 10
-140.243475925856
 20
1150.333988126065
 42
0.4142135623731
 10
-141.243475925856
 20
1151.333988126065
 42
0.4142135623731
 10
-142.243475925856
 20
1150.333988126065
 42
0.4142135623731
 10
-141.243475925856
 20
1149.333988126065
 42
0.4142135623731
  0
LWPOLYLINE
  5
1C6
330
1F
100
AcDbEntity
  8
C-4
  6
Continuous
 62
     7
370
     9
100
AcDbPolyline
 90
        4
 70
     1
 43
2.0
 10
159.7559054745872
 20
1150.333988126065
 42
0.4142135623731
 10
158.7559054745872
 20
1151.333988126065
 42
0.4142135623731
 10
157.7559054745872
 20
1150.333988126065
 42
0.4142135623731
 10
158.7559054745872
 20
1149.333988126065
 42
0.4142135623731
  0
LWPOLYLINE
  5
1C7
330
1F
100
AcDbEntity
  8
C-4
  6
Continuous
 62
     7
370
     9
100
AcDbPolyline
 90
        4
 70
     1
 43
2.0
 10
-142.2431608524821
 20
1205.333922142112
 42
0.4142135623731
 10
-143.243160852482
 20
1206.333922142112
 42
0.4142135623731
 10
-144.243160852482
 20
1205.333922142112
 42
0.4142135623731
 10
-143.243160852482
 20
1204.333922142112
 42
0.4142135623731
  0
LWPOLYLINE
  5
1C8
330
1F
100
AcDbEntity
  8
C-4
  6
Continuous
 62
     7
370
     9
100
AcDbPolyline
 90
        4
 70
     1
 43
2.0
 10
-145.2432449820217
 20
1205.333922142112
 42
0.4142135623731
 10
-146.2432449820216
 20
1206.333922142112
 42
0.4142135623731
 10
-147.2432449820216
 20
1205.333922142112
 42
0.4142135623731
 10
-146.2432449820216
 20
1204.333922142112
 42
0.4142135623731
  0
LWPOLYLINE
  5
1C9
330
1F
100
AcDbEntity
  8
C-4
  6
Continuous
 62
     7
370
     9
100
AcDbPolyline
 90
        4
 70
     1
 43
2.0
 10
161.7571987600604
 20
1205.333922142112
 42
0.4142135623731
 10
160.7571987600604
 20
1206.333922142112
 42
0.4142135623731
 10
159.7571987600604
 20
1205.333922142112
 42
0.4142135623731
 10
160.7571987600604
 20
1204.333922142112
 42
0.4142135623731
  0
LWPOLYLINE
  5
1CA
330
1F
100
AcDbEntity
  8
C-4
  6
Continuous
 62
     7
370
     9
100
AcDbPolyline
 90
        4
 70
     1
 43
2.0
 10
164.7566642900435
 20
1205.333922142112
 42
0.4142135623731
 10
163.7566642900435
 20
1206.333922142112
 42
0.4142135623731
 10
162.7566642900435
 20
1205.333922142112
 42
0.4142135623731
 10
163.7566642900435
 20
1204.333922142112
 42
0.4142135623731
  0
LWPOLYLINE
  5
1CB
330
1F
100
AcDbEntity
  8
C-4
  6
Continuous
 62
     7
370
     9
100
AcDbPolyline
 90
        4
 70
     1
 43
2.0
 10
-275.2423129586896
 20
770.3347139495447
 42
0.4142135623731
 10
-276.2423129586896
 20
771.3347139495447
 42
0.4142135623731
 10
-277.2423129586896
 20
770.3347139495447
 42
0.4142135623731
 10
-276.2423129586896
 20
769.3347139495448
 42
0.4142135623731
  0
LWPOLYLINE
  5
1CC
330
1F
100
AcDbEntity
  8
C-4
  6
Continuous
 62
     7
370
     9
100
AcDbPolyline
 90
        4
 70
     1
 43
2.0
 10
-275.2423129586896
 20
1070.33520882919
 42
0.4142135623731
 10
-276.2423129586896
 20
1071.33520882919
 42
0.4142135623731
 10
-277.2423129586896
 20
1070.33520882919
 42
0.4142135623731
 10
-276.2423129586896
 20
1069.33520882919
 42
0.4142135623731
  0
LWPOLYLINE
  5
1CD
330
1F
100
AcDbEntity
  8
C-4
  6
Continuous
 62
     7
370
     9
100
AcDbPolyline
 90
        4
 70
     1
 43
2.0
 10
-330.2423706946485
 20
765.3354397730247
 42
0.4142135623731
 10
-331.2423706946485
 20
766.3354397730246
 42
0.4142135623731
 10
-332.2423706946485
 20
765.3354397730247
 42
0.4142135623731
 10
-331.2423706946485
 20
764.3354397730247
 42
0.4142135623731
  0
LWPOLYLINE
  5
1CE
330
1F
100
AcDbEntity
  8
C-4
  6
Continuous
 62
     7
370
     9
100
AcDbPolyline
 90
        4
 70
     1
 43
2.0
 10
-330.2423706946485
 20
1075.334977885356
 42
0.4142135623731
 10
-331.2423706946485
 20
1076.334977885356
 42
0.4142135623731
 10
-332.2423706946485
 20
1075.334977885356
 42
0.4142135623731
 10
-331.2423706946485
 20
1074.334977885356
 42
0.4142135623731
  0
LWPOLYLINE
  5
1CF
330
1F
100
AcDbEntity
  8
C-4
  6
Continuous
 62
     7
370
     9
100
AcDbPolyline
 90
        4
 70
     1
 43
2.0
 10
-220.242255222731
 20
795.3350438693083
 42
0.4142135623731
 10
-221.242255222731
 20
796.3350438693083
 42
0.4142135623731
 10
-222.242255222731
 20
795.3350438693083
 42
0.4142135623731
 10
-221.242255222731
 20
794.3350438693084
 42
0.4142135623731
  0
LWPOLYLINE
  5
1D0
330
1F
100
AcDbEntity
  8
C-4
  6
Continuous
 62
     7
370
     9
100
AcDbPolyline
 90
        4
 70
     1
 43
2.0
 10
-220.242255222731
 20
1045.335126349249
 42
0.4142135623731
 10
-221.242255222731
 20
1046.335126349249
 42
0.4142135623731
 10
-222.242255222731
 20
1045.335126349249
 42
0.4142135623731
 10
-221.242255222731
 20
1044.335126349249
 42
0.4142135623731
  0
LWPOLYLINE
  5
1D1
330
1F
100
AcDbEntity
  8
C-4
  6
Continuous
 62
     7
370
     9
100
AcDbPolyline
 90
        4
 70
     1
 43
2.0
 10
-220.242255222731
 20
770.3347139495447
 42
0.4142135623731
 10
-221.242255222731
 20
771.3347139495447
 42
0.4142135623731
 10
-222.242255222731
 20
770.3347139495447
 42
0.4142135623731
 10
-221.242255222731
 20
769.3347139495448
 42
0.4142135623731
  0
LWPOLYLINE
  5
1D2
330
1F
100
AcDbEntity
  8
C-4
  6
Continuous
 62
     7
370
     9
100
AcDbPolyline
 90
        4
 70
     1
 43
2.0
 10
-220.242255222731
 20
1070.333971630077
 42
0.4142135623731
 10
-221.242255222731
 20
1071.333971630077
 42
0.4142135623731
 10
-222.242255222731
 20
1070.333971630077
 42
0.4142135623731
 10
-221.242255222731
 20
1069.333971630077
 42
0.4142135623731
  0
LWPOLYLINE
  5
1D3
330
1F
100
AcDbEntity
  8
C-4
  6
Continuous
 62
     7
370
     9
100
AcDbPolyline
 90
        4
 70
     1
 43
2.0
 10
-275.2423129586896
 20
768.335029022919
 42
0.4142135623731
 10
-276.2423129586896
 20
769.3350290229189
 42
0.4142135623731
 10
-277.2423129586896
 20
768.335029022919
 42
0.4142135623731
 10
-276.2423129586896
 20
767.335029022919
 42
0.4142135623731
  0
LWPOLYLINE
  5
1D4
330
1F
100
AcDbEntity
  8
C-4
  6
Continuous
 62
     7
370
     9
100
AcDbPolyline
 90
        4
 70
     1
 43
2.0
 10
-275.2423129586896
 20
765.3354397730247
 42
0.4142135623731
 10
-276.2423129586896
 20
766.3354397730246
 42
0.4142135623731
 10
-277.2423129586896
 20
765.3354397730247
 42
0.4142135623731
 10
-276.2423129586896
 20
764.3354397730247
 42
0.4142135623731
  0
LWPOLYLINE
  5
1D5
330
1F
100
AcDbEntity
  8
C-4
  6
Continuous
 62
     7
370
     9
100
AcDbPolyline
 90
        4
 70
     1
 43
2.0
 10
-275.2423129586896
 20
1072.33526491555
 42
0.4142135623731
 10
-276.2423129586896
 20
1073.33526491555
 42
0.4142135623731
 10
-277.2423129586896
 20
1072.33526491555
 42
0.4142135623731
 10
-276.2423129586896
 20
1071.33526491555
 42
0.4142135623731
  0
LWPOLYLINE
  5
1D6
330
1F
100
AcDbEntity
  8
C-4
  6
Continuous
 62
     7
370
     9
100
AcDbPolyline
 90
        4
 70
     1
 43
2.0
 10
-275.2423129586896
 20
1075.334977885356
 42
0.4142135623731
 10
-276.2423129586896
 20
1076.334977885356
 42
0.4142135623731
 10
-277.2423129586896
 20
1075.334977885356
 42
0.4142135623731
 10
-276.2423129586896
 20
1074.334977885356
 42
0.4142135623731
  0
LWPOLYLINE
  5
1D7
330
1F
100
AcDbEntity
  8
C-4
  6
Continuous
 62
     7
370
     9
100
AcDbPolyline
 90
        4
 70
     1
 43
2.0
 10
9.757266393611681
 20
1097.752283496631
 42
0.4142135623731
 10
8.757266393611683
 20
1098.752283496631
 42
0.4142135623731
 10
7.757266393611682
 20
1097.752283496631
 42
0.4142135623731
 10
8.757266393611683
 20
1096.752283496631
 42
0.4142135623731
  0
LWPOLYLINE
  5
1D8
330
1F
100
AcDbEntity
  8
C-4
  6
Continuous
 62
     7
370
     9
100
AcDbPolyline
 90
        4
 70
     1
 43
2.0
 10
39.75699420980702
 20
1097.752283496631
 42
0.4142135623731
 10
38.75699420980701
 20
1098.752283496631
 42
0.4142135623731
 10
37.75699420980701
 20
1097.752283496631
 42
0.4142135623731
 10
38.75699420980701
 20
1096.752283496631
 42
0.4142135623731
  0
LWPOLYLINE
  5
1D9
330
1F
100
AcDbEntity
  8
C-4
  6
Continuous
 62
     7
370
     9
100
AcDbPolyline
 90
        4
 70
     1
 43
2.0
 10
-45.24378110163725
 20
680.3362728204276
 42
0.4142135623731
 10
-46.24378110163725
 20
681.3362728204276
 42
0.4142135623731
 10
-47.24378110163725
 20
680.3362728204276
 42
0.4142135623731
 10
-46.24378110163725
 20
679.3362728204277
 42
0.4142135623731
  0
LWPOLYLINE
  5
1DA
330
1F
100
AcDbEntity
  8
C-4
  6
Continuous
 62
     7
370
     9
100
AcDbPolyline
 90
        4
 70
     1
 43
2.0
 10
-145.2432449820217
 20
680.3362728204276
 42
0.4142135623731
 10
-146.2432449820216
 20
681.3362728204276
 42
0.4142135623731
 10
-147.2432449820216
 20
680.3362728204276
 42
0.4142135623731
 10
-146.2432449820216
 20
679.3362728204277
 42
0.4142135623731
  0
LWPOLYLINE
  5
1DB
330
1F
100
AcDbEntity
  8
C-4
  6
Continuous
 62
     7
370
     9
100
AcDbPolyline
 90
        4
 70
     1
 43
2.0
 10
64.75633437027993
 20
680.3362728204276
 42
0.4142135623731
 10
63.75633437027993
 20
681.3362728204276
 42
0.4142135623731
 10
62.75633437027993
 20
680.3362728204276
 42
0.4142135623731
 10
63.75633437027993
 20
679.3362728204277
 42
0.4142135623731
  0
LWPOLYLINE
  5
1DC
330
1F
100
AcDbEntity
  8
C-4
  6
Continuous
 62
     7
370
     9
100
AcDbPolyline
 90
        4
 70
     1
 43
2.0
 10
164.7556745307529
 20
680.3362728204276
 42
0.4142135623731
 10
163.7556745307529
 20
681.3362728204276
 42
0.4142135623731
 10
162.7556745307528
 20
680.3362728204276
 42
0.4142135623731
 10
163.7556745307529
 20
679.3362728204277
 42
0.4142135623731
  0
LWPOLYLINE
  5
1DD
330
1F
100
AcDbEntity
  8
C-4
  6
Continuous
 62
     7
370
     9
100
AcDbPolyline
 90
        4
 70
     1
 43
2.0
 10
462.3837163909724
 20
1088.732359642112
 42
0.4142135623731
 10
461.3837163909724
 20
1089.732359642112
 42
0.4142135623731
 10
460.3837163909724
 20
1088.732359642112
 42
0.4142135623731
 10
461.3837163909724
 20
1087.732359642112
 42
0.4142135623731
  0
LWPOLYLINE
  5
1DE
330
1F
100
AcDbEntity
  8
C-4
  6
Continuous
 62
     7
370
     9
100
AcDbPolyline
 90
        4
 70
     1
 43
2.0
 10
502.3826111597648
 20
1088.732359642112
 42
0.4142135623731
 10
501.3826111597648
 20
1089.732359642112
 42
0.4142135623731
 10
500.3826111597648
 20
1088.732359642112
 42
0.4142135623731
 10
501.3826111597648
 20
1087.732359642112
 42
0.4142135623731
  0
LINE
  5
1DF
330
1F
100
AcDbEntity
  8
C-5
  6
Continuous
 62
     7
370
     9
100
AcDbLine
 10
-278.7434346858857
 20
580.3348294214622
 30
0.0
 11
-278.7434346858857
 21
645.3344252697518
 31
0.0
  0
LINE
  5
1E0
330
1F
100
AcDbEntity
  8
C-5
  6
Continuous
 62
     7
370
     9
100
AcDbLine
 10
-278.7434346858857
 20
645.3344252697518
 30
0.0
 11
296.2569777138187
 21
645.3344252697518
 31
0.0
  0
LINE
  5
1E1
330
1F
100
AcDbEntity
  8
C-5
  6
Continuous
 62
     7
370
     9
100
AcDbLine
 10
296.2569777138187
 20
645.3344252697518
 30
0.0
 11
296.2569777138187
 21
580.3348294214622
 31
0.0
  0
LINE
  5
1E2
330
1F
100
AcDbEntity
  8
C-5
  6
Continuous
 62
     7
370
     9
100
AcDbLine
 10
296.2569777138187
 20
580.3348294214622
 30
0.0
 11
-278.7434346858857
 21
580.3348294214622
 31
0.0
  0
LINE
  5
1E3
330
1F
100
AcDbEntity
  8
C-2
  6
Continuous
 62
     3
370
     9
100
AcDbLine
 10
-141.2428573262995
 20
770.3347139495447
 30
0.0
 11
-141.2428573262995
 21
1070.334713949545
 31
0.0
  0
LINE
  5
1E4
330
1F
100
AcDbEntity
  8
C-2
  6
Continuous
 62
     3
370
     9
100
AcDbLine
 10
-141.2428573262995
 20
1070.334713949545
 30
0.0
 11
158.7568952338779
 21
1070.334713949545
 31
0.0
  0
LINE
  5
1E5
330
1F
100
AcDbEntity
  8
C-2
  6
Continuous
 62
     3
370
     9
100
AcDbLine
 10
158.7568952338779
 20
1070.334713949545
 30
0.0
 11
158.7568952338779
 21
770.3347139495447
 31
0.0
  0
LINE
  5
1E6
330
1F
100
AcDbEntity
  8
C-2
  6
Continuous
 62
     3
370
     9
100
AcDbLine
 10
158.7568952338779
 20
770.3347139495447
 30
0.0
 11
-141.2428573262995
 21
770.3347139495447
 31
0.0
  0
LINE
  5
1E7
330
1F
100
AcDbEntity
  8
C-2
  6
Continuous
 62
     3
370
     9
100
AcDbLine
 10
-141.2428573262995
 20
1066.334601776825
 30
0.0
 11
158.7568952338779
 21
1066.334601776825
 31
0.0
  0
LINE
  5
1E8
330
1F
100
AcDbEntity
  8
C-2
  6
Continuous
 62
     3
370
     9
100
AcDbLine
 10
158.7568952338779
 20
774.3345786824419
 30
0.0
 11
-141.2428573262995
 21
774.3345786824419
 31
0.0
  0
LINE
  5
1E9
330
1F
100
AcDbEntity
  8
C-2
  6
Continuous
 62
     3
370
     9
100
AcDbLine
 10
-137.2429925934026
 20
774.3345786824419
 30
0.0
 11
-137.2429925934026
 21
1066.334601776825
 31
0.0
  0
LINE
  5
1EA
330
1F
100
AcDbEntity
  8
C-1
  6
JWW_DASHED3
 62
     2
370
     9
100
AcDbLine
 10
-116.2430222861813
 20
795.3350438693083
 30
0.0
 11
-116.2430222861813
 21
1045.334631469604
 31
0.0
  0
LINE
  5
1EB
330
1F
100
AcDbEntity
  8
C-1
  6
JWW_DASHED3
 62
     2
370
     9
100
AcDbLine
 10
-116.2430222861813
 20
1045.334631469604
 30
0.0
 11
133.7570601937596
 21
1045.334631469604
 31
0.0
  0
LINE
  5
1EC
330
1F
100
AcDbEntity
  8
C-1
  6
JWW_DASHED3
 62
     2
370
     9
100
AcDbLine
 10
133.7570601937596
 20
1045.334631469604
 30
0.0
 11
133.7570601937596
 21
795.3350438693083
 31
0.0
  0
LINE
  5
1ED
330
1F
100
AcDbEntity
  8
C-1
  6
JWW_DASHED3
 62
     2
370
     9
100
AcDbLine
 10
133.7570601937596
 20
795.3350438693083
 30
0.0
 11
-116.2430222861813
 21
795.3350438693083
 31
0.0
  0
LINE
  5
1EE
330
1F
100
AcDbEntity
  8
C-1
  6
Continuous
 62
     2
370
     9
100
AcDbLine
 10
-146.2432449820216
 20
765.3344500137341
 30
0.0
 11
-146.2432449820216
 21
1075.334977885356
 31
0.0
  0
LINE
  5
1EF
330
1F
100
AcDbEntity
  8
C-1
  6
Continuous
 62
     2
370
     9
100
AcDbLine
 10
-146.2432449820216
 20
1075.334977885356
 30
0.0
 11
163.7566642900435
 21
1075.334977885356
 31
0.0
  0
LINE
  5
1F0
330
1F
100
AcDbEntity
  8
C-1
  6
Continuous
 62
     2
370
     9
100
AcDbLine
 10
163.7566642900435
 20
1075.334977885356
 30
0.0
 11
163.7566642900435
 21
765.3344500137341
 31
0.0
  0
LINE
  5
1F1
330
1F
100
AcDbEntity
  8
C-1
  6
Continuous
 62
     2
370
     9
100
AcDbLine
 10
163.7566642900435
 20
765.3344500137341
 30
0.0
 11
-146.2432449820216
 21
765.3344500137341
 31
0.0
  0
LINE
  5
1F2
330
1F
100
AcDbEntity
  8
C-1
  6
Continuous
 62
     2
370
     9
100
AcDbLine
 10
-143.243160852482
 20
768.3345341432737
 30
0.0
 11
-143.243160852482
 21
1072.334770035905
 31
0.0
  0
LINE
  5
1F3
330
1F
100
AcDbEntity
  8
C-1
  6
Continuous
 62
     2
370
     9
100
AcDbLine
 10
-143.243160852482
 20
1072.334770035905
 30
0.0
 11
160.7571987600604
 21
1072.334770035905
 31
0.0
  0
LINE
  5
1F4
330
1F
100
AcDbEntity
  8
C-1
  6
Continuous
 62
     2
370
     9
100
AcDbLine
 10
160.7571987600604
 20
1072.334770035905
 30
0.0
 11
160.7571987600604
 21
768.3345341432737
 31
0.0
  0
LINE
  5
1F5
330
1F
100
AcDbEntity
  8
C-1
  6
Continuous
 62
     2
370
     9
100
AcDbLine
 10
160.7571987600604
 20
768.3345341432737
 30
0.0
 11
-143.243160852482
 21
768.3345341432737
 31
0.0
  0
LINE
  5
1F6
330
1F
100
AcDbEntity
  8
C-4
  6
Continuous
 62
     7
370
     9
100
AcDbLine
 10
-187.5603754059026
 20
1205.333922142112
 30
0.0
 11
208.5073934127208
 21
1205.333922142112
 31
0.0
  0
LINE
  5
1F7
330
1F
100
AcDbEntity
  8
C-4
  6
Continuous
 62
     7
370
     9
100
AcDbLine
 10
-141.243475925856
 20
1090.334285053852
 30
0.0
 11
-141.243475925856
 21
1208.334129991563
 31
0.0
  0
LINE
  5
1F8
330
1F
100
AcDbEntity
  8
C-4
  6
Continuous
 62
     7
370
     9
100
AcDbLine
 10
158.7564003542325
 20
1090.334285053852
 30
0.0
 11
158.7564003542325
 21
1208.334129991563
 31
0.0
  0
LINE
  5
1F9
330
1F
100
AcDbEntity
  8
C-4
  6
Continuous
 62
     7
370
     9
100
AcDbLine
 10
-146.2432449820216
 20
1260.334103597982
 30
0.0
 11
163.7566642900435
 21
1260.334103597982
 31
0.0
  0
LINE
  5
1FA
330
1F
100
AcDbEntity
  8
C-4
  6
Continuous
 62
     7
370
     9
100
AcDbLine
 10
163.7566642900435
 20
1090.334285053852
 30
0.0
 11
163.7566642900435
 21
1263.334064007611
 31
0.0
  0
LINE
  5
1FB
330
1F
100
AcDbEntity
  8
C-4
  6
Continuous
 62
     7
370
     9
100
AcDbLine
 10
-141.243475925856
 20
1150.333988126065
 30
0.0
 11
158.7559054745872
 21
1150.333988126065
 31
0.0
  0
LINE
  5
1FC
330
1F
100
AcDbEntity
  8
C-4
  6
Continuous
 62
     7
370
     9
100
AcDbLine
 10
-116.2430222861813
 20
1090.334285053852
 30
0.0
 11
-116.2430222861813
 21
1153.334195975516
 31
0.0
  0
LINE
  5
1FD
330
1F
100
AcDbEntity
  8
C-4
  6
Continuous
 62
     7
370
     9
100
AcDbLine
 10
133.7570601937596
 20
1090.334285053852
 30
0.0
 11
133.7570601937596
 21
1153.334195975516
 31
0.0
  0
LINE
  5
1FE
330
1F
100
AcDbEntity
  8
C-4
  6
Continuous
 62
     7
370
     9
100
AcDbLine
 10
-143.243160852482
 20
1090.334285053852
 30
0.0
 11
-143.243160852482
 21
1208.334129991563
 31
0.0
  0
LINE
  5
1FF
330
1F
100
AcDbEntity
  8
C-4
  6
Continuous
 62
     7
370
     9
100
AcDbLine
 10
-146.2432449820216
 20
1090.334285053852
 30
0.0
 11
-146.2432449820216
 21
1263.334064007611
 31
0.0
  0
LINE
  5
200
330
1F
100
AcDbEntity
  8
C-4
  6
Continuous
 62
     7
370
     9
100
AcDbLine
 10
160.7571987600604
 20
1090.334285053852
 30
0.0
 11
160.7571987600604
 21
1208.334129991563
 31
0.0
  0
LINE
  5
201
330
1F
100
AcDbEntity
  8
C-2
  6
Continuous
 62
     3
370
     9
100
AcDbLine
 10
-109.2430734237445
 20
774.3345786824419
 30
0.0
 11
-109.2430734237445
 21
1066.334601776825
 31
0.0
  0
LINE
  5
202
330
1F
100
AcDbEntity
  8
C-2
  6
Continuous
 62
     3
370
     9
100
AcDbLine
 10
-113.2430618765529
 20
774.3345786824419
 30
0.0
 11
-113.2430618765529
 21
1066.334601776825
 31
0.0
  0
LINE
  5
203
330
1F
100
AcDbEntity
  8
C-2
  6
Continuous
 62
     3
370
     9
100
AcDbLine
 10
-137.2429925934026
 20
971.8343642345956
 30
0.0
 11
-113.2430618765529
 21
971.8343642345956
 31
0.0
  0
LINE
  5
204
330
1F
100
AcDbEntity
  8
C-2
  6
Continuous
 62
     3
370
     9
100
AcDbLine
 10
-137.2429925934026
 20
968.8348987046124
 30
0.0
 11
-113.2430618765529
 21
968.8348987046124
 31
0.0
  0
LINE
  5
205
330
1F
100
AcDbEntity
  8
C-2
  6
Continuous
 62
     3
370
     9
100
AcDbLine
 10
-137.2429925934026
 20
871.8345291944773
 30
0.0
 11
-113.2430618765529
 21
871.8345291944773
 31
0.0
  0
LINE
  5
206
330
1F
100
AcDbEntity
  8
C-2
  6
Continuous
 62
     3
370
     9
100
AcDbLine
 10
-137.2429925934026
 20
868.8343213450263
 30
0.0
 11
-113.2430618765529
 21
868.8343213450263
 31
0.0
  0
LINE
  5
207
330
1F
100
AcDbEntity
  8
C-2
  6
Continuous
 62
     3
370
     9
100
AcDbLine
 10
-79.24297444781566
 20
774.3345786824419
 30
0.0
 11
-79.24297444781566
 21
1066.334601776825
 31
0.0
  0
LINE
  5
208
330
1F
100
AcDbEntity
  8
C-2
  6
Continuous
 62
     3
370
     9
100
AcDbLine
 10
-83.24333406035784
 20
774.3345786824419
 30
0.0
 11
-83.24333406035784
 21
1066.334601776825
 31
0.0
  0
LINE
  5
209
330
1F
100
AcDbEntity
  8
C-2
  6
Continuous
 62
     3
370
     9
100
AcDbLine
 10
-109.2430734237445
 20
971.8343642345956
 30
0.0
 11
-83.24333406035784
 21
971.8343642345956
 31
0.0
  0
LINE
  5
20A
330
1F
100
AcDbEntity
  8
C-2
  6
Continuous
 62
     3
370
     9
100
AcDbLine
 10
-109.2430734237445
 20
968.8348987046124
 30
0.0
 11
-83.24333406035784
 21
968.8348987046124
 31
0.0
  0
LINE
  5
20B
330
1F
100
AcDbEntity
  8
C-2
  6
Continuous
 62
     3
370
     9
100
AcDbLine
 10
-109.2430734237445
 20
871.8345291944773
 30
0.0
 11
-83.24333406035784
 21
871.8345291944773
 31
0.0
  0
LINE
  5
20C
330
1F
100
AcDbEntity
  8
C-2
  6
Continuous
 62
     3
370
     9
100
AcDbLine
 10
-109.2430734237445
 20
868.8343213450263
 30
0.0
 11
-83.24333406035784
 21
868.8343213450263
 31
0.0
  0
LINE
  5
20D
330
1F
100
AcDbEntity
  8
C-2
  6
Continuous
 62
     3
370
     9
100
AcDbLine
 10
-49.24324663162032
 20
774.3345786824419
 30
0.0
 11
-49.24324663162032
 21
1066.334601776825
 31
0.0
  0
LINE
  5
20E
330
1F
100
AcDbEntity
  8
C-2
  6
Continuous
 62
     3
370
     9
100
AcDbLine
 10
-53.24323508442866
 20
774.3345786824419
 30
0.0
 11
-53.24323508442866
 21
1066.334601776825
 31
0.0
  0
LINE
  5
20F
330
1F
100
AcDbEntity
  8
C-2
  6
Continuous
 62
     3
370
     9
100
AcDbLine
 10
-79.24297444781566
 20
971.8343642345956
 30
0.0
 11
-53.24323508442866
 21
971.8343642345956
 31
0.0
  0
LINE
  5
210
330
1F
100
AcDbEntity
  8
C-2
  6
Continuous
 62
     3
370
     9
100
AcDbLine
 10
-79.24297444781566
 20
968.8348987046124
 30
0.0
 11
-53.24323508442866
 21
968.8348987046124
 31
0.0
  0
LINE
  5
211
330
1F
100
AcDbEntity
  8
C-2
  6
Continuous
 62
     3
370
     9
100
AcDbLine
 10
-79.24297444781566
 20
871.8345291944773
 30
0.0
 11
-53.24323508442866
 21
871.8345291944773
 31
0.0
  0
LINE
  5
212
330
1F
100
AcDbEntity
  8
C-2
  6
Continuous
 62
     3
370
     9
100
AcDbLine
 10
-79.24297444781566
 20
868.8343213450263
 30
0.0
 11
-53.24323508442866
 21
868.8343213450263
 31
0.0
  0
LINE
  5
213
330
1F
100
AcDbEntity
  8
C-2
  6
Continuous
 62
     3
370
     9
100
AcDbLine
 10
-19.24314765569143
 20
774.3345786824419
 30
0.0
 11
-19.24314765569143
 21
1066.334601776825
 31
0.0
  0
LINE
  5
214
330
1F
100
AcDbEntity
  8
C-2
  6
Continuous
 62
     3
370
     9
100
AcDbLine
 10
-23.2430123885883
 20
774.3345786824419
 30
0.0
 11
-23.2430123885883
 21
1066.334601776825
 31
0.0
  0
LINE
  5
215
330
1F
100
AcDbEntity
  8
C-2
  6
Continuous
 62
     3
370
     9
100
AcDbLine
 10
-49.24324663162032
 20
971.8343642345956
 30
0.0
 11
-23.2430123885883
 21
971.8343642345956
 31
0.0
  0
LINE
  5
216
330
1F
100
AcDbEntity
  8
C-2
  6
Continuous
 62
     3
370
     9
100
AcDbLine
 10
-49.24324663162032
 20
968.8348987046124
 30
0.0
 11
-23.2430123885883
 21
968.8348987046124
 31
0.0
  0
LINE
  5
217
330
1F
100
AcDbEntity
  8
C-2
  6
Continuous
 62
     3
370
     9
100
AcDbLine
 10
-49.24324663162032
 20
871.8345291944773
 30
0.0
 11
-23.2430123885883
 21
871.8345291944773
 31
0.0
  0
LINE
  5
218
330
1F
100
AcDbEntity
  8
C-2
  6
Continuous
 62
     3
370
     9
100
AcDbLine
 10
-49.24324663162032
 20
868.8343213450263
 30
0.0
 11
-23.2430123885883
 21
868.8343213450263
 31
0.0
  0
LINE
  5
219
330
1F
100
AcDbEntity
  8
C-2
  6
Continuous
 62
     3
370
     9
100
AcDbLine
 10
10.75695132023774
 20
774.3345786824419
 30
0.0
 11
10.75695132023774
 21
1066.334601776825
 31
0.0
  0
LINE
  5
21A
330
1F
100
AcDbEntity
  8
C-2
  6
Continuous
 62
     3
370
     9
100
AcDbLine
 10
6.757086587340591
 20
774.3345786824419
 30
0.0
 11
6.757086587340591
 21
1066.334601776825
 31
0.0
  0
LINE
  5
21B
330
1F
100
AcDbEntity
  8
C-2
  6
Continuous
 62
     3
370
     9
100
AcDbLine
 10
-19.24314765569143
 20
971.8343642345956
 30
0.0
 11
6.757086587340591
 21
971.8343642345956
 31
0.0
  0
LINE
  5
21C
330
1F
100
AcDbEntity
  8
C-2
  6
Continuous
 62
     3
370
     9
100
AcDbLine
 10
-19.24314765569143
 20
968.8348987046124
 30
0.0
 11
6.757086587340591
 21
968.8348987046124
 31
0.0
  0
LINE
  5
21D
330
1F
100
AcDbEntity
  8
C-2
  6
Continuous
 62
     3
370
     9
100
AcDbLine
 10
-19.24314765569143
 20
871.8345291944773
 30
0.0
 11
6.757086587340591
 21
871.8345291944773
 31
0.0
  0
LINE
  5
21E
330
1F
100
AcDbEntity
  8
C-2
  6
Continuous
 62
     3
370
     9
100
AcDbLine
 10
-19.24314765569143
 20
868.8343213450263
 30
0.0
 11
6.757086587340591
 21
868.8343213450263
 31
0.0
  0
LINE
  5
21F
330
1F
100
AcDbEntity
  8
C-2
  6
Continuous
 62
     3
370
     9
100
AcDbLine
 10
40.75705029616664
 20
774.3345786824419
 30
0.0
 11
40.75705029616664
 21
1066.334601776825
 31
0.0
  0
LINE
  5
220
330
1F
100
AcDbEntity
  8
C-2
  6
Continuous
 62
     3
370
     9
100
AcDbLine
 10
36.75669068362445
 20
774.3345786824419
 30
0.0
 11
36.75669068362445
 21
1066.334601776825
 31
0.0
  0
LINE
  5
221
330
1F
100
AcDbEntity
  8
C-2
  6
Continuous
 62
     3
370
     9
100
AcDbLine
 10
10.75695132023774
 20
971.8343642345956
 30
0.0
 11
36.75669068362445
 21
971.8343642345956
 31
0.0
  0
LINE
  5
222
330
1F
100
AcDbEntity
  8
C-2
  6
Continuous
 62
     3
370
     9
100
AcDbLine
 10
10.75695132023774
 20
968.8348987046124
 30
0.0
 11
36.75669068362445
 21
968.8348987046124
 31
0.0
  0
LINE
  5
223
330
1F
100
AcDbEntity
  8
C-2
  6
Continuous
 62
     3
370
     9
100
AcDbLine
 10
10.75695132023774
 20
871.8345291944773
 30
0.0
 11
36.75669068362445
 21
871.8345291944773
 31
0.0
  0
LINE
  5
224
330
1F
100
AcDbEntity
  8
C-2
  6
Continuous
 62
     3
370
     9
100
AcDbLine
 10
10.75695132023774
 20
868.8343213450263
 30
0.0
 11
36.75669068362445
 21
868.8343213450263
 31
0.0
  0
LINE
  5
225
330
1F
100
AcDbEntity
  8
C-2
  6
Continuous
 62
     3
370
     9
100
AcDbLine
 10
70.7566543924505
 20
774.3345786824419
 30
0.0
 11
70.7566543924505
 21
1066.334601776825
 31
0.0
  0
LINE
  5
226
330
1F
100
AcDbEntity
  8
C-2
  6
Continuous
 62
     3
370
     9
100
AcDbLine
 10
66.75678965955363
 20
774.3345786824419
 30
0.0
 11
66.75678965955363
 21
1066.334601776825
 31
0.0
  0
LINE
  5
227
330
1F
100
AcDbEntity
  8
C-2
  6
Continuous
 62
     3
370
     9
100
AcDbLine
 10
40.75705029616664
 20
971.8343642345956
 30
0.0
 11
66.75678965955363
 21
971.8343642345956
 31
0.0
  0
LINE
  5
228
330
1F
100
AcDbEntity
  8
C-2
  6
Continuous
 62
     3
370
     9
100
AcDbLine
 10
40.75705029616664
 20
968.8348987046124
 30
0.0
 11
66.75678965955363
 21
968.8348987046124
 31
0.0
  0
LINE
  5
229
330
1F
100
AcDbEntity
  8
C-2
  6
Continuous
 62
     3
370
     9
100
AcDbLine
 10
40.75705029616664
 20
871.8345291944773
 30
0.0
 11
66.75678965955363
 21
871.8345291944773
 31
0.0
  0
LINE
  5
22A
330
1F
100
AcDbEntity
  8
C-2
  6
Continuous
 62
     3
370
     9
100
AcDbLine
 10
40.75705029616664
 20
868.8343213450263
 30
0.0
 11
66.75678965955363
 21
868.8343213450263
 31
0.0
  0
LINE
  5
22B
330
1F
100
AcDbEntity
  8
C-2
  6
Continuous
 62
     3
370
     9
100
AcDbLine
 10
100.7570008082021
 20
774.3345786824419
 30
0.0
 11
100.7570008082021
 21
1066.334601776825
 31
0.0
  0
LINE
  5
22C
330
1F
100
AcDbEntity
  8
C-2
  6
Continuous
 62
     3
370
     9
100
AcDbLine
 10
96.75688863548253
 20
774.3345786824419
 30
0.0
 11
96.75688863548253
 21
1066.334601776825
 31
0.0
  0
LINE
  5
22D
330
1F
100
AcDbEntity
  8
C-2
  6
Continuous
 62
     3
370
     9
100
AcDbLine
 10
70.7566543924505
 20
971.8343642345956
 30
0.0
 11
96.75688863548253
 21
971.8343642345956
 31
0.0
  0
LINE
  5
22E
330
1F
100
AcDbEntity
  8
C-2
  6
Continuous
 62
     3
370
     9
100
AcDbLine
 10
70.7566543924505
 20
968.8348987046124
 30
0.0
 11
96.75688863548253
 21
968.8348987046124
 31
0.0
  0
LINE
  5
22F
330
1F
100
AcDbEntity
  8
C-2
  6
Continuous
 62
     3
370
     9
100
AcDbLine
 10
70.7566543924505
 20
871.8345291944773
 30
0.0
 11
96.75688863548253
 21
871.8345291944773
 31
0.0
  0
LINE
  5
230
330
1F
100
AcDbEntity
  8
C-2
  6
Continuous
 62
     3
370
     9
100
AcDbLine
 10
70.7566543924505
 20
868.8343213450263
 30
0.0
 11
96.75688863548253
 21
868.8343213450263
 31
0.0
  0
LINE
  5
231
330
1F
100
AcDbEntity
  8
C-2
  6
Continuous
 62
     3
370
     9
100
AcDbLine
 10
130.7570997841312
 20
774.3345786824419
 30
0.0
 11
130.7570997841312
 21
1066.334601776825
 31
0.0
  0
LINE
  5
232
330
1F
100
AcDbEntity
  8
C-2
  6
Continuous
 62
     3
370
     9
100
AcDbLine
 10
126.7569876114117
 20
774.3345786824419
 30
0.0
 11
126.7569876114117
 21
1066.334601776825
 31
0.0
  0
LINE
  5
233
330
1F
100
AcDbEntity
  8
C-2
  6
Continuous
 62
     3
370
     9
100
AcDbLine
 10
100.7570008082021
 20
971.8343642345956
 30
0.0
 11
126.7569876114117
 21
971.8343642345956
 31
0.0
  0
LINE
  5
234
330
1F
100
AcDbEntity
  8
C-2
  6
Continuous
 62
     3
370
     9
100
AcDbLine
 10
100.7570008082021
 20
968.8348987046124
 30
0.0
 11
126.7569876114117
 21
968.8348987046124
 31
0.0
  0
LINE
  5
235
330
1F
100
AcDbEntity
  8
C-2
  6
Continuous
 62
     3
370
     9
100
AcDbLine
 10
100.7570008082021
 20
871.8345291944773
 30
0.0
 11
126.7569876114117
 21
871.8345291944773
 31
0.0
  0
LINE
  5
236
330
1F
100
AcDbEntity
  8
C-2
  6
Continuous
 62
     3
370
     9
100
AcDbLine
 10
100.7570008082021
 20
868.8343213450263
 30
0.0
 11
126.7569876114117
 21
868.8343213450263
 31
0.0
  0
LINE
  5
237
330
1F
100
AcDbEntity
  8
C-2
  6
Continuous
 62
     3
370
     9
100
AcDbLine
 10
154.757030500981
 20
774.3345786824419
 30
0.0
 11
154.757030500981
 21
1066.334601776825
 31
0.0
  0
LINE
  5
238
330
1F
100
AcDbEntity
  8
C-2
  6
Continuous
 62
     3
370
     9
100
AcDbLine
 10
130.7570997841312
 20
971.8343642345956
 30
0.0
 11
154.757030500981
 21
971.8343642345956
 31
0.0
  0
LINE
  5
239
330
1F
100
AcDbEntity
  8
C-2
  6
Continuous
 62
     3
370
     9
100
AcDbLine
 10
130.7570997841312
 20
968.8348987046124
 30
0.0
 11
154.757030500981
 21
968.8348987046124
 31
0.0
  0
LINE
  5
23A
330
1F
100
AcDbEntity
  8
C-2
  6
Continuous
 62
     3
370
     9
100
AcDbLine
 10
130.7570997841312
 20
871.8345291944773
 30
0.0
 11
154.757030500981
 21
871.8345291944773
 31
0.0
  0
LINE
  5
23B
330
1F
100
AcDbEntity
  8
C-2
  6
Continuous
 62
     3
370
     9
100
AcDbLine
 10
130.7570997841312
 20
868.8343213450263
 30
0.0
 11
154.757030500981
 21
868.8343213450263
 31
0.0
  0
LINE
  5
23C
330
1F
100
AcDbEntity
  8
C-4
  6
Continuous
 62
     7
370
     9
100
AcDbLine
 10
-276.2423129586896
 20
724.0178144694984
 30
0.0
 11
-276.2423129586896
 21
1120.086201887678
 31
0.0
  0
LINE
  5
23D
330
1F
100
AcDbEntity
  8
C-4
  6
Continuous
 62
     7
370
     9
100
AcDbLine
 10
-161.2425521505182
 20
770.3347139495447
 30
0.0
 11
-279.2423970882294
 21
770.3347139495447
 31
0.0
  0
LINE
  5
23E
330
1F
100
AcDbEntity
  8
C-4
  6
Continuous
 62
     7
370
     9
100
AcDbLine
 10
-161.2425521505182
 20
1070.33520882919
 30
0.0
 11
-279.2423970882294
 21
1070.33520882919
 31
0.0
  0
LINE
  5
23F
330
1F
100
AcDbEntity
  8
C-4
  6
Continuous
 62
     7
370
     9
100
AcDbLine
 10
-331.2423706946485
 20
765.3354397730247
 30
0.0
 11
-331.2423706946485
 21
1075.334977885356
 31
0.0
  0
LINE
  5
240
330
1F
100
AcDbEntity
  8
C-4
  6
Continuous
 62
     7
370
     9
100
AcDbLine
 10
-161.2425521505182
 20
1075.334977885356
 30
0.0
 11
-334.2423311042768
 21
1075.334977885356
 31
0.0
  0
LINE
  5
241
330
1F
100
AcDbEntity
  8
C-4
  6
Continuous
 62
     7
370
     9
100
AcDbLine
 10
-221.242255222731
 20
770.3347139495447
 30
0.0
 11
-221.242255222731
 21
1070.333971630077
 31
0.0
  0
LINE
  5
242
330
1F
100
AcDbEntity
  8
C-4
  6
Continuous
 62
     7
370
     9
100
AcDbLine
 10
-161.2425521505182
 20
795.3350438693083
 30
0.0
 11
-224.2423393522708
 21
795.3350438693083
 31
0.0
  0
LINE
  5
243
330
1F
100
AcDbEntity
  8
C-4
  6
Continuous
 62
     7
370
     9
100
AcDbLine
 10
-161.2425521505182
 20
1045.335126349249
 30
0.0
 11
-224.2423393522708
 21
1045.335126349249
 31
0.0
  0
LINE
  5
244
330
1F
100
AcDbEntity
  8
C-4
  6
Continuous
 62
     7
370
     9
100
AcDbLine
 10
-161.2425521505182
 20
768.335029022919
 30
0.0
 11
-279.2423970882294
 21
768.335029022919
 31
0.0
  0
LINE
  5
245
330
1F
100
AcDbEntity
  8
C-4
  6
Continuous
 62
     7
370
     9
100
AcDbLine
 10
-161.2425521505182
 20
765.3354397730247
 30
0.0
 11
-334.2423311042768
 21
765.3354397730247
 31
0.0
  0
LINE
  5
246
330
1F
100
AcDbEntity
  8
C-4
  6
Continuous
 62
     7
370
     9
100
AcDbLine
 10
-161.2425521505182
 20
1072.33526491555
 30
0.0
 11
-279.2423970882294
 21
1072.33526491555
 31
0.0
  0
LINE
  5
247
330
1F
100
AcDbEntity
  8
C-4
  6
Continuous
 62
     7
370
     9
100
AcDbLine
 10
8.757266393611683
 20
1097.752283496631
 30
0.0
 11
38.75699420980701
 21
1097.752283496631
 31
0.0
  0
LINE
  5
248
330
1F
100
AcDbEntity
  8
C-4
  6
Continuous
 62
     7
370
     9
100
AcDbLine
 10
8.757266393611683
 20
1060.334433517746
 30
0.0
 11
8.757266393611683
 21
1100.752491346082
 31
0.0
  0
LINE
  5
249
330
1F
100
AcDbEntity
  8
C-4
  6
Continuous
 62
     7
370
     9
100
AcDbLine
 10
38.75699420980701
 20
1060.334433517746
 30
0.0
 11
38.75699420980701
 21
1100.752491346082
 31
0.0
  0
LINE
  5
24A
330
1F
100
AcDbEntity
  8
C-4
  6
Continuous
 62
     7
370
     9
100
AcDbLine
 10
-46.24378110163725
 20
720.6168778272898
 30
0.0
 11
-46.24378110163725
 21
677.3356938112424
 31
0.0
  0
LINE
  5
24B
330
1F
100
AcDbEntity
  8
C-4
  6
Continuous
 62
     7
370
     9
100
AcDbLine
 10
-146.2432449820216
 20
680.3362728204276
 30
0.0
 11
-46.24378110163725
 21
680.3362728204276
 31
0.0
  0
LINE
  5
24C
330
1F
100
AcDbEntity
  8
C-4
  6
Continuous
 62
     7
370
     9
100
AcDbLine
 10
63.75633437027993
 20
720.6168778272898
 30
0.0
 11
63.75633437027993
 21
677.3356938112424
 31
0.0
  0
LINE
  5
24D
330
1F
100
AcDbEntity
  8
C-4
  6
Continuous
 62
     7
370
     9
100
AcDbLine
 10
63.75633437027993
 20
680.3362728204276
 30
0.0
 11
163.7556745307529
 21
680.3362728204276
 31
0.0
  0
LINE
  5
24E
330
1F
100
AcDbEntity
  8
C-4
  6
Continuous
 62
     7
370
     9
100
AcDbLine
 10
-146.2432449820216
 20
750.3341530859468
 30
0.0
 11
-146.2432449820216
 21
677.3356938112424
 31
0.0
  0
LINE
  5
24F
330
1F
100
AcDbEntity
  8
C-4
  6
Continuous
 62
     7
370
     9
100
AcDbLine
 10
163.7556745307529
 20
750.3341530859468
 30
0.0
 11
163.7556745307529
 21
677.3356938112424
 31
0.0
  0
LINE
  5
250
330
1F
100
AcDbEntity
  8
C-4
  6
Continuous
 62
     7
370
     9
100
AcDbLine
 10
-46.24378110163725
 20
680.3362728204276
 30
0.0
 11
63.75633437027993
 21
680.3362728204276
 31
0.0
  0
LINE
  5
251
330
1F
100
AcDbEntity
  8
C-9
  6
Continuous
 62
     6
370
     5
100
AcDbLine
 10
-141.2428573262995
 20
960.4444617588775
 30
0.0
 11
-140.7291722545089
 21
959.9307766870872
 31
0.0
  0
LINE
  5
252
330
1F
100
AcDbEntity
  8
C-9
  6
Continuous
 62
     6
370
     5
100
AcDbLine
 10
-141.2428573262995
 20
963.2726989315973
 30
0.0
 11
-139.1411034728367
 21
961.1709450781343
 31
0.0
  0
LINE
  5
253
330
1F
100
AcDbEntity
  8
C-9
  6
Continuous
 62
     6
370
     5
100
AcDbLine
 10
-141.2428573262995
 20
966.1009361043169
 30
0.0
 11
-137.5531584110758
 21
962.4111134691817
 31
0.0
  0
LINE
  5
254
330
1F
100
AcDbEntity
  8
C-9
  6
Continuous
 62
     6
370
     5
100
AcDbLine
 10
-141.2428573262995
 20
968.9299155965044
 30
0.0
 11
-137.2429925934026
 21
964.9295559839622
 31
0.0
  0
LINE
  5
255
330
1F
100
AcDbEntity
  8
C-9
  6
Continuous
 62
     6
370
     5
100
AcDbLine
 10
-141.2428573262995
 20
971.7581527692239
 30
0.0
 11
-137.2429925934026
 21
967.7577931566817
 31
0.0
  0
LINE
  5
256
330
1F
100
AcDbEntity
  8
C-9
  6
Continuous
 62
     6
370
     5
100
AcDbLine
 10
-141.2428573262995
 20
974.5861425021208
 30
0.0
 11
-137.2429925934026
 21
970.5862777692239
 31
0.0
  0
LINE
  5
257
330
1F
100
AcDbEntity
  8
C-9
  6
Continuous
 62
     6
370
     5
100
AcDbLine
 10
-141.2428573262995
 20
977.4148745544857
 30
0.0
 11
-137.2429925934026
 21
973.4150098215888
 31
0.0
  0
LINE
  5
258
330
1F
100
AcDbEntity
  8
C-9
  6
Continuous
 62
     6
370
     5
100
AcDbLine
 10
-141.2428573262995
 20
980.2436066068508
 30
0.0
 11
-137.2429925934026
 21
976.2429995544857
 31
0.0
  0
LINE
  5
259
330
1F
100
AcDbEntity
  8
C-9
  6
Continuous
 62
     6
370
     5
100
AcDbLine
 10
-141.2428573262995
 20
983.0715963397477
 30
0.0
 11
-137.2429925934026
 21
979.0717316068508
 31
0.0
  0
LINE
  5
25A
330
1F
100
AcDbEntity
  8
C-9
  6
Continuous
 62
     6
370
     5
100
AcDbLine
 10
-141.2428573262995
 20
985.8998335124671
 30
0.0
 11
-137.2429925934026
 21
981.9004636592156
 31
0.0
  0
LINE
  5
25B
330
1F
100
AcDbEntity
  8
C-9
  6
Continuous
 62
     6
370
     5
100
AcDbLine
 10
-141.2428573262995
 20
988.7283181250093
 30
0.0
 11
-137.2429925934026
 21
984.7284533921124
 31
0.0
  0
LINE
  5
25C
330
1F
100
AcDbEntity
  8
C-9
  6
Continuous
 62
     6
370
     5
100
AcDbLine
 10
-141.2428573262995
 20
991.5570501773742
 30
0.0
 11
-137.2429925934026
 21
987.556690564832
 31
0.0
  0
LINE
  5
25D
330
1F
100
AcDbEntity
  8
C-9
  6
Continuous
 62
     6
370
     5
100
AcDbLine
 10
-141.2428573262995
 20
994.385287350094
 30
0.0
 11
-137.2429925934026
 21
990.3856700570195
 31
0.0
  0
LINE
  5
25E
330
1F
100
AcDbEntity
  8
C-9
  6
Continuous
 62
     6
370
     5
100
AcDbLine
 10
-141.2428573262995
 20
997.2137719626362
 30
0.0
 11
-137.2429925934026
 21
993.213907229739
 31
0.0
  0
LINE
  5
25F
330
1F
100
AcDbEntity
  8
C-9
  6
Continuous
 62
     6
370
     5
100
AcDbLine
 10
-141.2428573262995
 20
1000.042504015001
 30
0.0
 11
-137.2429925934026
 21
996.0421444024588
 31
0.0
  0
LINE
  5
260
330
1F
100
AcDbEntity
  8
C-9
  6
Continuous
 62
     6
370
     5
100
AcDbLine
 10
-141.2428573262995
 20
1002.870493747898
 30
0.0
 11
-137.2429925934026
 21
998.870629015001
 31
0.0
  0
LINE
  5
261
330
1F
100
AcDbEntity
  8
C-9
  6
Continuous
 62
     6
370
     5
100
AcDbLine
 10
-141.2428573262995
 20
1005.698730920617
 30
0.0
 11
-137.2429925934026
 21
1001.699361067366
 31
0.0
  0
LINE
  5
262
330
1F
100
AcDbEntity
  8
C-9
  6
Continuous
 62
     6
370
     5
100
AcDbLine
 10
-141.2428573262995
 20
1008.527462972983
 30
0.0
 11
-137.2429925934026
 21
1004.527350800263
 31
0.0
  0
LINE
  5
263
330
1F
100
AcDbEntity
  8
C-9
  6
Continuous
 62
     6
370
     5
100
AcDbLine
 10
-141.2428573262995
 20
1011.355947585525
 30
0.0
 11
-137.2429925934026
 21
1007.355587972983
 31
0.0
  0
LINE
  5
264
330
1F
100
AcDbEntity
  8
C-9
  6
Continuous
 62
     6
370
     5
100
AcDbLine
 10
-141.2428573262995
 20
1014.184184758244
 30
0.0
 11
-137.2429925934026
 21
1010.184814904992
 31
0.0
  0
LINE
  5
265
330
1F
100
AcDbEntity
  8
C-9
  6
Continuous
 62
     6
370
     5
100
AcDbLine
 10
-141.2428573262995
 20
1017.012669370786
 30
0.0
 11
-137.2429925934026
 21
1013.01280463789
 31
0.0
  0
LINE
  5
266
330
1F
100
AcDbEntity
  8
C-9
  6
Continuous
 62
     6
370
     5
100
AcDbLine
 10
-141.2428573262995
 20
1019.841401423151
 30
0.0
 11
-137.2429925934026
 21
1015.841041810609
 31
0.0
  0
LINE
  5
267
330
1F
100
AcDbEntity
  8
C-9
  6
Continuous
 62
     6
370
     5
100
AcDbLine
 10
-141.2428573262995
 20
1022.669638595871
 30
0.0
 11
-137.2429925934026
 21
1018.669526423151
 31
0.0
  0
LINE
  5
268
330
1F
100
AcDbEntity
  8
C-9
  6
Continuous
 62
     6
370
     5
100
AcDbLine
 10
-141.2428573262995
 20
1025.497628328768
 30
0.0
 11
-137.2429925934026
 21
1021.498258475516
 31
0.0
  0
LINE
  5
269
330
1F
100
AcDbEntity
  8
C-9
  6
Continuous
 62
     6
370
     5
100
AcDbLine
 10
-141.2428573262995
 20
1028.326360381133
 30
0.0
 11
-137.2429925934026
 21
1024.326495648236
 31
0.0
  0
LINE
  5
26A
330
1F
100
AcDbEntity
  8
C-9
  6
Continuous
 62
     6
370
     5
100
AcDbLine
 10
-141.2428573262995
 20
1031.154844993675
 30
0.0
 11
-137.2429925934026
 21
1027.154485381133
 31
0.0
  0
LINE
  5
26B
330
1F
100
AcDbEntity
  8
C-9
  6
Continuous
 62
     6
370
     5
100
AcDbLine
 10
-141.2428573262995
 20
1033.983082166395
 30
0.0
 11
-137.2429925934026
 21
1029.983217433498
 31
0.0
  0
LINE
  5
26C
330
1F
100
AcDbEntity
  8
C-9
  6
Continuous
 62
     6
370
     5
100
AcDbLine
 10
-141.2428573262995
 20
1036.811814218759
 30
0.0
 11
-137.2429925934026
 21
1032.81170204604
 31
0.0
  0
LINE
  5
26D
330
1F
100
AcDbEntity
  8
C-9
  6
Continuous
 62
     6
370
     5
100
AcDbLine
 10
-141.2428573262995
 20
1039.640298831302
 30
0.0
 11
-137.2429925934026
 21
1035.639939218759
 31
0.0
  0
LINE
  5
26E
330
1F
100
AcDbEntity
  8
C-9
  6
Continuous
 62
     6
370
     5
100
AcDbLine
 10
-141.2428573262995
 20
1042.468536004021
 30
0.0
 11
-137.2429925934026
 21
1038.468671271124
 31
0.0
  0
LINE
  5
26F
330
1F
100
AcDbEntity
  8
C-9
  6
Continuous
 62
     6
370
     5
100
AcDbLine
 10
-141.2428573262995
 20
1045.296525736918
 30
0.0
 11
-137.2429925934026
 21
1041.297155883667
 31
0.0
  0
LINE
  5
270
330
1F
100
AcDbEntity
  8
C-9
  6
Continuous
 62
     6
370
     5
100
AcDbLine
 10
-141.2428573262995
 20
1048.125752668928
 30
0.0
 11
-137.2429925934026
 21
1044.125393056386
 31
0.0
  0
LINE
  5
271
330
1F
100
AcDbEntity
  8
C-9
  6
Continuous
 62
     6
370
     5
100
AcDbLine
 10
-141.2428573262995
 20
1050.953989841648
 30
0.0
 11
-137.2429925934026
 21
1046.953382789283
 31
0.0
  0
LINE
  5
272
330
1F
100
AcDbEntity
  8
C-9
  6
Continuous
 62
     6
370
     5
100
AcDbLine
 10
-141.2428573262995
 20
1053.781979574545
 30
0.0
 11
-137.2429925934026
 21
1049.782114841648
 31
0.0
  0
LINE
  5
273
330
1F
100
AcDbEntity
  8
C-9
  6
Continuous
 62
     6
370
     5
100
AcDbLine
 10
-141.2428573262995
 20
1056.61071162691
 30
0.0
 11
-137.2429925934026
 21
1052.610846894013
 31
0.0
  0
LINE
  5
274
330
1F
100
AcDbEntity
  8
C-9
  6
Continuous
 62
     6
370
     5
100
AcDbLine
 10
-141.2428573262995
 20
1059.439196239452
 30
0.0
 11
-137.2429925934026
 21
1055.43883662691
 31
0.0
  0
LINE
  5
275
330
1F
100
AcDbEntity
  8
C-9
  6
Continuous
 62
     6
370
     5
100
AcDbLine
 10
-141.2428573262995
 20
1062.267433412172
 30
0.0
 11
-137.2429925934026
 21
1058.267073799629
 31
0.0
  0
LINE
  5
276
330
1F
100
AcDbEntity
  8
C-9
  6
Continuous
 62
     6
370
     5
100
AcDbLine
 10
-141.2428573262995
 20
1065.095423145068
 30
0.0
 11
-137.2429925934026
 21
1061.096053291817
 31
0.0
  0
LINE
  5
277
330
1F
100
AcDbEntity
  8
C-9
  6
Continuous
 62
     6
370
     5
100
AcDbLine
 10
-139.6534276256026
 20
1066.335096656471
 30
0.0
 11
-137.2429925934026
 21
1063.924290464536
 31
0.0
  0
LINE
  5
278
330
1F
100
AcDbEntity
  8
C-9
  6
Continuous
 62
     6
370
     5
100
AcDbLine
 10
-141.2428573262995
 20
960.7210994805838
 30
0.0
 11
-137.2429925934026
 21
964.721459093126
 31
0.0
  0
LINE
  5
279
330
1F
100
AcDbEntity
  8
C-9
  6
Continuous
 62
     6
370
     5
100
AcDbLine
 10
-141.2428573262995
 20
963.549584093126
 30
0.0
 11
-137.2429925934026
 21
967.5496962658456
 31
0.0
  0
LINE
  5
27A
330
1F
100
AcDbEntity
  8
C-9
  6
Continuous
 62
     6
370
     5
100
AcDbLine
 10
-141.2428573262995
 20
966.3783161454909
 30
0.0
 11
-137.2429925934026
 21
970.3781808783878
 31
0.0
  0
LINE
  5
27B
330
1F
100
AcDbEntity
  8
C-9
  6
Continuous
 62
     6
370
     5
100
AcDbLine
 10
-141.2428573262995
 20
969.2065533182104
 30
0.0
 11
-137.2429925934026
 21
973.2069129307525
 31
0.0
  0
LINE
  5
27C
330
1F
100
AcDbEntity
  8
C-9
  6
Continuous
 62
     6
370
     5
100
AcDbLine
 10
-141.2428573262995
 20
972.0350379307525
 30
0.0
 11
-137.2429925934026
 21
976.0349026636497
 31
0.0
  0
LINE
  5
27D
330
1F
100
AcDbEntity
  8
C-9
  6
Continuous
 62
     6
370
     5
100
AcDbLine
 10
-141.2428573262995
 20
974.8637699831174
 30
0.0
 11
-137.2429925934026
 21
978.8631398363692
 31
0.0
  0
LINE
  5
27E
330
1F
100
AcDbEntity
  8
C-9
  6
Continuous
 62
     6
370
     5
100
AcDbLine
 10
-141.2428573262995
 20
977.6917597160145
 30
0.0
 11
-137.2429925934026
 21
981.6918718887341
 31
0.0
  0
LINE
  5
27F
330
1F
100
AcDbEntity
  8
C-9
  6
Continuous
 62
     6
370
     5
100
AcDbLine
 10
-141.2428573262995
 20
980.5199968887341
 30
0.0
 11
-137.2429925934026
 21
984.5203565012763
 31
0.0
  0
LINE
  5
280
330
1F
100
AcDbEntity
  8
C-9
  6
Continuous
 62
     6
370
     5
100
AcDbLine
 10
-141.2428573262995
 20
983.3487289410989
 30
0.0
 11
-137.2429925934026
 21
987.3485936739958
 31
0.0
  0
LINE
  5
281
330
1F
100
AcDbEntity
  8
C-9
  6
Continuous
 62
     6
370
     5
100
AcDbLine
 10
-141.2428573262995
 20
986.1772135536411
 30
0.0
 11
-137.2429925934026
 21
990.1773257263607
 31
0.0
  0
LINE
  5
282
330
1F
100
AcDbEntity
  8
C-9
  6
Continuous
 62
     6
370
     5
100
AcDbLine
 10
-141.2428573262995
 20
989.0054507263607
 30
0.0
 11
-137.2429925934026
 21
993.0058103389031
 31
0.0
  0
LINE
  5
283
330
1F
100
AcDbEntity
  8
C-9
  6
Continuous
 62
     6
370
     5
100
AcDbLine
 10
-141.2428573262995
 20
991.8339353389031
 30
0.0
 11
-137.2429925934026
 21
995.8340475116227
 31
0.0
  0
LINE
  5
284
330
1F
100
AcDbEntity
  8
C-9
  6
Continuous
 62
     6
370
     5
100
AcDbLine
 10
-141.2428573262995
 20
994.662667391268
 30
0.0
 11
-137.2429925934026
 21
998.6620372445195
 31
0.0
  0
LINE
  5
285
330
1F
100
AcDbEntity
  8
C-9
  6
Continuous
 62
     6
370
     5
100
AcDbLine
 10
-141.2428573262995
 20
997.4906571241648
 30
0.0
 11
-137.2429925934026
 21
1001.490769296884
 31
0.0
  0
LINE
  5
286
330
1F
100
AcDbEntity
  8
C-9
  6
Continuous
 62
     6
370
     5
100
AcDbLine
 10
-141.2428573262995
 20
1000.318894296884
 30
0.0
 11
-137.2429925934026
 21
1004.319253909426
 31
0.0
  0
LINE
  5
287
330
1F
100
AcDbEntity
  8
C-9
  6
Continuous
 62
     6
370
     5
100
AcDbLine
 10
-141.2428573262995
 20
1003.147626349249
 30
0.0
 11
-137.2429925934026
 21
1007.147491082146
 31
0.0
  0
LINE
  5
288
330
1F
100
AcDbEntity
  8
C-9
  6
Continuous
 62
     6
370
     5
100
AcDbLine
 10
-141.2428573262995
 20
1005.976110961792
 30
0.0
 11
-137.2429925934026
 21
1009.975975694688
 31
0.0
  0
LINE
  5
289
330
1F
100
AcDbEntity
  8
C-9
  6
Continuous
 62
     6
370
     5
100
AcDbLine
 10
-141.2428573262995
 20
1008.804348134511
 30
0.0
 11
-137.2429925934026
 21
1012.804707747053
 31
0.0
  0
LINE
  5
28A
330
1F
100
AcDbEntity
  8
C-9
  6
Continuous
 62
     6
370
     5
100
AcDbLine
 10
-141.2428573262995
 20
1011.632832747053
 30
0.0
 11
-137.2429925934026
 21
1015.632944919773
 31
0.0
  0
LINE
  5
28B
330
1F
100
AcDbEntity
  8
C-9
  6
Continuous
 62
     6
370
     5
100
AcDbLine
 10
-141.2428573262995
 20
1014.461564799418
 30
0.0
 11
-137.2429925934026
 21
1018.46093465267
 31
0.0
  0
LINE
  5
28C
330
1F
100
AcDbEntity
  8
C-9
  6
Continuous
 62
     6
370
     5
100
AcDbLine
 10
-141.2428573262995
 20
1017.289801972138
 30
0.0
 11
-137.2429925934026
 21
1021.289666705035
 31
0.0
  0
LINE
  5
28D
330
1F
100
AcDbEntity
  8
C-9
  6
Continuous
 62
     6
370
     5
100
AcDbLine
 10
-141.2428573262995
 20
1020.117791705035
 30
0.0
 11
-137.2429925934026
 21
1024.118151317577
 31
0.0
  0
LINE
  5
28E
330
1F
100
AcDbEntity
  8
C-9
  6
Continuous
 62
     6
370
     5
100
AcDbLine
 10
-141.2428573262995
 20
1022.9465237574
 30
0.0
 11
-137.2429925934026
 21
1026.946388490297
 31
0.0
  0
LINE
  5
28F
330
1F
100
AcDbEntity
  8
C-9
  6
Continuous
 62
     6
370
     5
100
AcDbLine
 10
-141.2428573262995
 20
1025.775008369942
 30
0.0
 11
-137.2429925934026
 21
1029.775120542661
 31
0.0
  0
LINE
  5
290
330
1F
100
AcDbEntity
  8
C-9
  6
Continuous
 62
     6
370
     5
100
AcDbLine
 10
-141.2428573262995
 20
1028.603245542661
 30
0.0
 11
-137.2429925934026
 21
1032.603605155204
 31
0.0
  0
LINE
  5
291
330
1F
100
AcDbEntity
  8
C-9
  6
Continuous
 62
     6
370
     5
100
AcDbLine
 10
-141.2428573262995
 20
1031.431482715381
 30
0.0
 11
-137.2429925934026
 21
1035.431842327923
 31
0.0
  0
LINE
  5
292
330
1F
100
AcDbEntity
  8
C-9
  6
Continuous
 62
     6
370
     5
100
AcDbLine
 10
-141.2428573262995
 20
1034.260462207568
 30
0.0
 11
-137.2429925934026
 21
1038.25983206082
 31
0.0
  0
LINE
  5
293
330
1F
100
AcDbEntity
  8
C-9
  6
Continuous
 62
     6
370
     5
100
AcDbLine
 10
-141.2428573262995
 20
1037.088699380288
 30
0.0
 11
-137.2429925934026
 21
1041.08905899283
 31
0.0
  0
LINE
  5
294
330
1F
100
AcDbEntity
  8
C-9
  6
Continuous
 62
     6
370
     5
100
AcDbLine
 10
-141.2428573262995
 20
1039.916689113185
 30
0.0
 11
-137.2429925934026
 21
1043.91729616555
 31
0.0
  0
LINE
  5
295
330
1F
100
AcDbEntity
  8
C-9
  6
Continuous
 62
     6
370
     5
100
AcDbLine
 10
-141.2428573262995
 20
1042.74542116555
 30
0.0
 11
-137.2429925934026
 21
1046.745285898447
 31
0.0
  0
LINE
  5
296
330
1F
100
AcDbEntity
  8
C-9
  6
Continuous
 62
     6
370
     5
100
AcDbLine
 10
-141.2428573262995
 20
1045.574153217915
 30
0.0
 11
-137.2429925934026
 21
1049.574017950812
 31
0.0
  0
LINE
  5
297
330
1F
100
AcDbEntity
  8
C-9
  6
Continuous
 62
     6
370
     5
100
AcDbLine
 10
-141.2428573262995
 20
1048.402142950812
 30
0.0
 11
-137.2429925934026
 21
1052.402502563354
 31
0.0
  0
LINE
  5
298
330
1F
100
AcDbEntity
  8
C-9
  6
Continuous
 62
     6
370
     5
100
AcDbLine
 10
-141.2428573262995
 20
1051.230875003177
 30
0.0
 11
-137.2429925934026
 21
1055.230739736074
 31
0.0
  0
LINE
  5
299
330
1F
100
AcDbEntity
  8
C-9
  6
Continuous
 62
     6
370
     5
100
AcDbLine
 10
-141.2428573262995
 20
1054.059359615719
 30
0.0
 11
-137.2429925934026
 21
1058.058976908793
 31
0.0
  0
LINE
  5
29A
330
1F
100
AcDbEntity
  8
C-9
  6
Continuous
 62
     6
370
     5
100
AcDbLine
 10
-141.2428573262995
 20
1056.887596788438
 30
0.0
 11
-137.2429925934026
 21
1060.887461521335
 31
0.0
  0
LINE
  5
29B
330
1F
100
AcDbEntity
  8
C-9
  6
Continuous
 62
     6
370
     5
100
AcDbLine
 10
-141.2428573262995
 20
1059.716328840803
 30
0.0
 11
-137.2429925934026
 21
1063.7161935737
 31
0.0
  0
LINE
  5
29C
330
1F
100
AcDbEntity
  8
C-9
  6
Continuous
 62
     6
370
     5
100
AcDbLine
 10
-141.2428573262995
 20
1062.5443185737
 30
0.0
 11
-137.4525741231745
 21
1066.335096656471
 31
0.0
  0
LINE
  5
29D
330
1F
100
AcDbEntity
  8
C-9
  6
Continuous
 62
     6
370
     5
100
AcDbLine
 10
-141.2428573262995
 20
1065.373050626065
 30
0.0
 11
-140.2806875759828
 21
1066.335096656471
 31
0.0
  0
LINE
  5
29E
330
1F
100
AcDbEntity
  8
C-9
  6
Continuous
 62
     6
370
     5
100
AcDbLine
 10
-113.2424432769964
 20
973.1485171326107
 30
0.0
 11
-109.2430734237445
 21
977.1488767451531
 31
0.0
  0
LINE
  5
29F
330
1F
100
AcDbEntity
  8
C-9
  6
Continuous
 62
     6
370
     5
100
AcDbLine
 10
-113.2424432769964
 20
975.9770017451531
 30
0.0
 11
-109.2430734237445
 21
979.9768664780499
 31
0.0
  0
LINE
  5
2A0
330
1F
100
AcDbEntity
  8
C-9
  6
Continuous
 62
     6
370
     5
100
AcDbLine
 10
-113.2424432769964
 20
978.805733797518
 30
0.0
 11
-109.2430734237445
 21
982.8055985304148
 31
0.0
  0
LINE
  5
2A1
330
1F
100
AcDbEntity
  8
C-9
  6
Continuous
 62
     6
370
     5
100
AcDbLine
 10
-113.2424432769964
 20
981.6337235304148
 30
0.0
 11
-109.2430734237445
 21
985.6338357031343
 31
0.0
  0
LINE
  5
2A2
330
1F
100
AcDbEntity
  8
C-9
  6
Continuous
 62
     6
370
     5
100
AcDbLine
 10
-113.2424432769964
 20
984.4619607031343
 30
0.0
 11
-109.2430734237445
 21
988.4623203156765
 31
0.0
  0
LINE
  5
2A3
330
1F
100
AcDbEntity
  8
C-9
  6
Continuous
 62
     6
370
     5
100
AcDbLine
 10
-113.2424432769964
 20
987.2906927554992
 30
0.0
 11
-109.2430734237445
 21
991.2905574883963
 31
0.0
  0
LINE
  5
2A4
330
1F
100
AcDbEntity
  8
C-9
  6
Continuous
 62
     6
370
     5
100
AcDbLine
 10
-113.2424432769964
 20
990.1191773680416
 30
0.0
 11
-109.2430734237445
 21
994.1190421009385
 31
0.0
  0
LINE
  5
2A5
330
1F
100
AcDbEntity
  8
C-9
  6
Continuous
 62
     6
370
     5
100
AcDbLine
 10
-113.2424432769964
 20
992.9474145407612
 30
0.0
 11
-109.2430734237445
 21
996.9477741533034
 31
0.0
  0
LINE
  5
2A6
330
1F
100
AcDbEntity
  8
C-9
  6
Continuous
 62
     6
370
     5
100
AcDbLine
 10
-113.2424432769964
 20
995.7758991533034
 30
0.0
 11
-109.2430734237445
 21
999.7760113260229
 31
0.0
  0
LINE
  5
2A7
330
1F
100
AcDbEntity
  8
C-9
  6
Continuous
 62
     6
370
     5
100
AcDbLine
 10
-113.2424432769964
 20
998.6046312056682
 30
0.0
 11
-109.2430734237445
 21
1002.60400105892
 31
0.0
  0
LINE
  5
2A8
330
1F
100
AcDbEntity
  8
C-9
  6
Continuous
 62
     6
370
     5
100
AcDbLine
 10
-113.2424432769964
 20
1001.432868378388
 30
0.0
 11
-109.2430734237445
 21
1005.432733111285
 31
0.0
  0
LINE
  5
2A9
330
1F
100
AcDbEntity
  8
C-9
  6
Continuous
 62
     6
370
     5
100
AcDbLine
 10
-113.2424432769964
 20
1004.260858111285
 30
0.0
 11
-109.2430734237445
 21
1008.261217723827
 31
0.0
  0
LINE
  5
2AA
330
1F
100
AcDbEntity
  8
C-9
  6
Continuous
 62
     6
370
     5
100
AcDbLine
 10
-113.2424432769964
 20
1007.08959016365
 30
0.0
 11
-109.2430734237445
 21
1011.089454896547
 31
0.0
  0
LINE
  5
2AB
330
1F
100
AcDbEntity
  8
C-9
  6
Continuous
 62
     6
370
     5
100
AcDbLine
 10
-113.2424432769964
 20
1009.918074776192
 30
0.0
 11
-109.2430734237445
 21
1013.918186948911
 31
0.0
  0
LINE
  5
2AC
330
1F
100
AcDbEntity
  8
C-9
  6
Continuous
 62
     6
370
     5
100
AcDbLine
 10
-113.2424432769964
 20
1012.746311948911
 30
0.0
 11
-109.2430734237445
 21
1016.746671561454
 31
0.0
  0
LINE
  5
2AD
330
1F
100
AcDbEntity
  8
C-9
  6
Continuous
 62
     6
370
     5
100
AcDbLine
 10
-113.2424432769964
 20
1015.575044001276
 30
0.0
 11
-109.2430734237445
 21
1019.574908734173
 31
0.0
  0
LINE
  5
2AE
330
1F
100
AcDbEntity
  8
C-9
  6
Continuous
 62
     6
370
     5
100
AcDbLine
 10
-113.2424432769964
 20
1018.403528613818
 30
0.0
 11
-109.2430734237445
 21
1022.403393346716
 31
0.0
  0
LINE
  5
2AF
330
1F
100
AcDbEntity
  8
C-9
  6
Continuous
 62
     6
370
     5
100
AcDbLine
 10
-113.2424432769964
 20
1021.231765786538
 30
0.0
 11
-109.2430734237445
 21
1025.231630519435
 31
0.0
  0
LINE
  5
2B0
330
1F
100
AcDbEntity
  8
C-9
  6
Continuous
 62
     6
370
     5
100
AcDbLine
 10
-113.2424432769964
 20
1024.059755519435
 30
0.0
 11
-109.2430734237445
 21
1028.060115131977
 31
0.0
  0
LINE
  5
2B1
330
1F
100
AcDbEntity
  8
C-9
  6
Continuous
 62
     6
370
     5
100
AcDbLine
 10
-113.2424432769964
 20
1026.8884875718
 30
0.0
 11
-109.2430734237445
 21
1030.888352304697
 31
0.0
  0
LINE
  5
2B2
330
1F
100
AcDbEntity
  8
C-9
  6
Continuous
 62
     6
370
     5
100
AcDbLine
 10
-113.2424432769964
 20
1029.716972184342
 30
0.0
 11
-109.2430734237445
 21
1033.717084357062
 31
0.0
  0
LINE
  5
2B3
330
1F
100
AcDbEntity
  8
C-9
  6
Continuous
 62
     6
370
     5
100
AcDbLine
 10
-113.2424432769964
 20
1032.545209357062
 30
0.0
 11
-109.2430734237445
 21
1036.545568969604
 31
0.0
  0
LINE
  5
2B4
330
1F
100
AcDbEntity
  8
C-9
  6
Continuous
 62
     6
370
     5
100
AcDbLine
 10
-113.2424432769964
 20
1035.373941409427
 30
0.0
 11
-109.2430734237445
 21
1039.373806142324
 31
0.0
  0
LINE
  5
2B5
330
1F
100
AcDbEntity
  8
C-9
  6
Continuous
 62
     6
370
     5
100
AcDbLine
 10
-113.2424432769964
 20
1038.202426021969
 30
0.0
 11
-109.2430734237445
 21
1042.201795875221
 31
0.0
  0
LINE
  5
2B6
330
1F
100
AcDbEntity
  8
C-9
  6
Continuous
 62
     6
370
     5
100
AcDbLine
 10
-113.2424432769964
 20
1041.030663194688
 30
0.0
 11
-109.2430734237445
 21
1045.031022807231
 31
0.0
  0
LINE
  5
2B7
330
1F
100
AcDbEntity
  8
C-9
  6
Continuous
 62
     6
370
     5
100
AcDbLine
 10
-113.2424432769964
 20
1043.858652927585
 30
0.0
 11
-109.2430734237445
 21
1047.85925997995
 31
0.0
  0
LINE
  5
2B8
330
1F
100
AcDbEntity
  8
C-9
  6
Continuous
 62
     6
370
     5
100
AcDbLine
 10
-113.2424432769964
 20
1046.68738497995
 30
0.0
 11
-109.2430734237445
 21
1050.687249712847
 31
0.0
  0
LINE
  5
2B9
330
1F
100
AcDbEntity
  8
C-9
  6
Continuous
 62
     6
370
     5
100
AcDbLine
 10
-113.2424432769964
 20
1049.515869592492
 30
0.0
 11
-109.2430734237445
 21
1053.515981765212
 31
0.0
  0
LINE
  5
2BA
330
1F
100
AcDbEntity
  8
C-9
  6
Continuous
 62
     6
370
     5
100
AcDbLine
 10
-113.2424432769964
 20
1052.344106765212
 30
0.0
 11
-109.2430734237445
 21
1056.344466377754
 31
0.0
  0
LINE
  5
2BB
330
1F
100
AcDbEntity
  8
C-9
  6
Continuous
 62
     6
370
     5
100
AcDbLine
 10
-113.2424432769964
 20
1055.172838817577
 30
0.0
 11
-109.2430734237445
 21
1059.172703550474
 31
0.0
  0
LINE
  5
2BC
330
1F
100
AcDbEntity
  8
C-9
  6
Continuous
 62
     6
370
     5
100
AcDbLine
 10
-113.2424432769964
 20
1058.001323430119
 30
0.0
 11
-109.2430734237445
 21
1062.000693283371
 31
0.0
  0
LINE
  5
2BD
330
1F
100
AcDbEntity
  8
C-9
  6
Continuous
 62
     6
370
     5
100
AcDbLine
 10
-113.2424432769964
 20
1060.829560602839
 30
0.0
 11
-109.2430734237445
 21
1064.829920215381
 31
0.0
  0
LINE
  5
2BE
330
1F
100
AcDbEntity
  8
C-9
  6
Continuous
 62
     6
370
     5
100
AcDbLine
 10
-113.2424432769964
 20
973.9843688534723
 30
0.0
 11
-111.8462640777776
 21
972.5880659343421
 31
0.0
  0
LINE
  5
2BF
330
1F
100
AcDbEntity
  8
C-9
  6
Continuous
 62
     6
370
     5
100
AcDbLine
 10
-113.2424432769964
 20
976.8128534660145
 30
0.0
 11
-110.2583190160167
 21
973.8282343253895
 31
0.0
  0
LINE
  5
2C0
330
1F
100
AcDbEntity
  8
C-9
  6
Continuous
 62
     6
370
     5
100
AcDbLine
 10
-113.2424432769964
 20
979.6410906387341
 30
0.0
 11
-109.2430734237445
 21
975.6412259058372
 31
0.0
  0
LINE
  5
2C1
330
1F
100
AcDbEntity
  8
C-9
  6
Continuous
 62
     6
370
     5
100
AcDbLine
 10
-113.2424432769964
 20
982.469080371631
 30
0.0
 11
-109.2430734237445
 21
978.4697105183794
 31
0.0
  0
LINE
  5
2C2
330
1F
100
AcDbEntity
  8
C-9
  6
Continuous
 62
     6
370
     5
100
AcDbLine
 10
-113.2424432769964
 20
985.2983073036411
 30
0.0
 11
-109.2430734237445
 21
981.2979476910989
 31
0.0
  0
LINE
  5
2C3
330
1F
100
AcDbEntity
  8
C-9
  6
Continuous
 62
     6
370
     5
100
AcDbLine
 10
-113.2424432769964
 20
988.1265444763607
 30
0.0
 11
-109.2430734237445
 21
984.1259374239958
 31
0.0
  0
LINE
  5
2C4
330
1F
100
AcDbEntity
  8
C-9
  6
Continuous
 62
     6
370
     5
100
AcDbLine
 10
-113.2424432769964
 20
990.9545342092578
 30
0.0
 11
-109.2430734237445
 21
986.955164356006
 31
0.0
  0
LINE
  5
2C5
330
1F
100
AcDbEntity
  8
C-9
  6
Continuous
 62
     6
370
     5
100
AcDbLine
 10
-113.2424432769964
 20
993.7832662616227
 30
0.0
 11
-109.2430734237445
 21
989.7834015287258
 31
0.0
  0
LINE
  5
2C6
330
1F
100
AcDbEntity
  8
C-9
  6
Continuous
 62
     6
370
     5
100
AcDbLine
 10
-113.2424432769964
 20
996.6117508741648
 30
0.0
 11
-109.2430734237445
 21
992.6113912616227
 31
0.0
  0
LINE
  5
2C7
330
1F
100
AcDbEntity
  8
C-9
  6
Continuous
 62
     6
370
     5
100
AcDbLine
 10
-113.2424432769964
 20
999.4399880468843
 30
0.0
 11
-109.2430734237445
 21
995.4401233139874
 31
0.0
  0
LINE
  5
2C8
330
1F
100
AcDbEntity
  8
C-9
  6
Continuous
 62
     6
370
     5
100
AcDbLine
 10
-113.2424432769964
 20
1002.268225219604
 30
0.0
 11
-109.2430734237445
 21
998.2686079265296
 31
0.0
  0
LINE
  5
2C9
330
1F
100
AcDbEntity
  8
C-9
  6
Continuous
 62
     6
370
     5
100
AcDbLine
 10
-113.2424432769964
 20
1005.096709832146
 30
0.0
 11
-109.2430734237445
 21
1001.096845099249
 31
0.0
  0
LINE
  5
2CA
330
1F
100
AcDbEntity
  8
C-9
  6
Continuous
 62
     6
370
     5
100
AcDbLine
 10
-113.2424432769964
 20
1007.925441884511
 30
0.0
 11
-109.2430734237445
 21
1003.925082271969
 31
0.0
  0
LINE
  5
2CB
330
1F
100
AcDbEntity
  8
C-9
  6
Continuous
 62
     6
370
     5
100
AcDbLine
 10
-113.2424432769964
 20
1010.753431617408
 30
0.0
 11
-109.2430734237445
 21
1006.754061764157
 31
0.0
  0
LINE
  5
2CC
330
1F
100
AcDbEntity
  8
C-9
  6
Continuous
 62
     6
370
     5
100
AcDbLine
 10
-113.2424432769964
 20
1013.582163669773
 30
0.0
 11
-109.2430734237445
 21
1009.582298936876
 31
0.0
  0
LINE
  5
2CD
330
1F
100
AcDbEntity
  8
C-9
  6
Continuous
 62
     6
370
     5
100
AcDbLine
 10
-113.2424432769964
 20
1016.410895722138
 30
0.0
 11
-109.2430734237445
 21
1012.410288669773
 31
0.0
  0
LINE
  5
2CE
330
1F
100
AcDbEntity
  8
C-9
  6
Continuous
 62
     6
370
     5
100
AcDbLine
 10
-113.2424432769964
 20
1019.238885455035
 30
0.0
 11
-109.2430734237445
 21
1015.239020722138
 31
0.0
  0
LINE
  5
2CF
330
1F
100
AcDbEntity
  8
C-9
  6
Continuous
 62
     6
370
     5
100
AcDbLine
 10
-113.2424432769964
 20
1022.0676175074
 30
0.0
 11
-109.2430734237445
 21
1018.06750533468
 31
0.0
  0
LINE
  5
2D0
330
1F
100
AcDbEntity
  8
C-9
  6
Continuous
 62
     6
370
     5
100
AcDbLine
 10
-113.2424432769964
 20
1024.896102119942
 30
0.0
 11
-109.2430734237445
 21
1020.8957425074
 31
0.0
  0
LINE
  5
2D1
330
1F
100
AcDbEntity
  8
C-9
  6
Continuous
 62
     6
370
     5
100
AcDbLine
 10
-113.2424432769964
 20
1027.724339292661
 30
0.0
 11
-109.2430734237445
 21
1023.724227119942
 31
0.0
  0
LINE
  5
2D2
330
1F
100
AcDbEntity
  8
C-9
  6
Continuous
 62
     6
370
     5
100
AcDbLine
 10
-113.2424432769964
 20
1030.552329025558
 30
0.0
 11
-109.2430734237445
 21
1026.552959172307
 31
0.0
  0
LINE
  5
2D3
330
1F
100
AcDbEntity
  8
C-9
  6
Continuous
 62
     6
370
     5
100
AcDbLine
 10
-113.2424432769964
 20
1033.381061077923
 30
0.0
 11
-109.2430734237445
 21
1029.381196345026
 31
0.0
  0
LINE
  5
2D4
330
1F
100
AcDbEntity
  8
C-9
  6
Continuous
 62
     6
370
     5
100
AcDbLine
 10
-113.2424432769964
 20
1036.209793130288
 30
0.0
 11
-109.2430734237445
 21
1032.209186077923
 31
0.0
  0
LINE
  5
2D5
330
1F
100
AcDbEntity
  8
C-9
  6
Continuous
 62
     6
370
     5
100
AcDbLine
 10
-113.2424432769964
 20
1039.037782863185
 30
0.0
 11
-109.2430734237445
 21
1035.037918130288
 31
0.0
  0
LINE
  5
2D6
330
1F
100
AcDbEntity
  8
C-9
  6
Continuous
 62
     6
370
     5
100
AcDbLine
 10
-113.2424432769964
 20
1041.86651491555
 30
0.0
 11
-109.2430734237445
 21
1037.866650182653
 31
0.0
  0
LINE
  5
2D7
330
1F
100
AcDbEntity
  8
C-9
  6
Continuous
 62
     6
370
     5
100
AcDbLine
 10
-113.2424432769964
 20
1044.694504648447
 30
0.0
 11
-109.2430734237445
 21
1040.69463991555
 31
0.0
  0
LINE
  5
2D8
330
1F
100
AcDbEntity
  8
C-9
  6
Continuous
 62
     6
370
     5
100
AcDbLine
 10
-113.2424432769964
 20
1047.523236700812
 30
0.0
 11
-109.2430734237445
 21
1043.523371967915
 31
0.0
  0
LINE
  5
2D9
330
1F
100
AcDbEntity
  8
C-9
  6
Continuous
 62
     6
370
     5
100
AcDbLine
 10
-113.2424432769964
 20
1050.351473873531
 30
0.0
 11
-109.2430734237445
 21
1046.351361700812
 31
0.0
  0
LINE
  5
2DA
330
1F
100
AcDbEntity
  8
C-9
  6
Continuous
 62
     6
370
     5
100
AcDbLine
 10
-113.2424432769964
 20
1053.179958486074
 30
0.0
 11
-109.2430734237445
 21
1049.180093753177
 31
0.0
  0
LINE
  5
2DB
330
1F
100
AcDbEntity
  8
C-9
  6
Continuous
 62
     6
370
     5
100
AcDbLine
 10
-113.2424432769964
 20
1056.008690538438
 30
0.0
 11
-109.2430734237445
 21
1052.008083486074
 31
0.0
  0
LINE
  5
2DC
330
1F
100
AcDbEntity
  8
C-9
  6
Continuous
 62
     6
370
     5
100
AcDbLine
 10
-113.2424432769964
 20
1058.836680271335
 30
0.0
 11
-109.2430734237445
 21
1054.836815538438
 31
0.0
  0
LINE
  5
2DD
330
1F
100
AcDbEntity
  8
C-9
  6
Continuous
 62
     6
370
     5
100
AcDbLine
 10
-113.2424432769964
 20
1061.664917444055
 30
0.0
 11
-109.2430734237445
 21
1057.665547590803
 31
0.0
  0
LINE
  5
2DE
330
1F
100
AcDbEntity
  8
C-9
  6
Continuous
 62
     6
370
     5
100
AcDbLine
 10
-113.2424432769964
 20
1064.493896936242
 30
0.0
 11
-109.2430734237445
 21
1060.4935373237
 31
0.0
  0
LINE
  5
2DF
330
1F
100
AcDbEntity
  8
C-9
  6
Continuous
 62
     6
370
     5
100
AcDbLine
 10
-113.2424432769964
 20
1063.657550335736
 30
0.0
 11
-110.5665053151086
 21
1066.33410689718
 31
0.0
  0
LINE
  5
2E0
330
1F
100
AcDbEntity
  8
C-9
  6
Continuous
 62
     6
370
     5
100
AcDbLine
 10
-112.2550346647709
 20
1066.33410689718
 30
0.0
 11
-109.2430734237445
 21
1063.32177449642
 31
0.0
  0
LINE
  5
2E1
330
1F
100
AcDbEntity
  8
C-9
  6
Continuous
 62
     6
370
     5
100
AcDbLine
 10
-109.4264263323172
 20
1066.33410689718
 30
0.0
 11
-109.2430734237445
 21
1066.150753988607
 31
0.0
  0
LINE
  5
2E2
330
1F
100
AcDbEntity
  8
C-9
  6
Continuous
 62
     6
370
     5
100
AcDbLine
 10
-83.24283918071252
 20
984.6502624081598
 30
0.0
 11
-82.55211091582659
 21
983.9596578631852
 31
0.0
  0
LINE
  5
2E3
330
1F
100
AcDbEntity
  8
C-9
  6
Continuous
 62
     6
370
     5
100
AcDbLine
 10
-83.24283918071252
 20
987.4782521410567
 30
0.0
 11
-80.96367097442034
 21
985.1990839347645
 31
0.0
  0
LINE
  5
2E4
330
1F
100
AcDbEntity
  8
C-9
  6
Continuous
 62
     6
370
     5
100
AcDbLine
 10
-83.24283918071252
 20
990.3064893137763
 30
0.0
 11
-79.3757259126594
 21
986.439747205457
 31
0.0
  0
LINE
  5
2E5
330
1F
100
AcDbEntity
  8
C-9
  6
Continuous
 62
     6
370
     5
100
AcDbLine
 10
-83.24283918071252
 20
993.1352213661411
 30
0.0
 11
-79.24297444781566
 21
989.1351091934216
 31
0.0
  0
LINE
  5
2E6
330
1F
100
AcDbEntity
  8
C-9
  6
Continuous
 62
     6
370
     5
100
AcDbLine
 10
-83.24283918071252
 20
995.9637059786833
 30
0.0
 11
-79.24297444781566
 21
991.9633463661411
 31
0.0
  0
LINE
  5
2E7
330
1F
100
AcDbEntity
  8
C-9
  6
Continuous
 62
     6
370
     5
100
AcDbLine
 10
-83.24283918071252
 20
998.7919431514031
 30
0.0
 11
-79.24297444781566
 21
994.792078418506
 31
0.0
  0
LINE
  5
2E8
330
1F
100
AcDbEntity
  8
C-9
  6
Continuous
 62
     6
370
     5
100
AcDbLine
 10
-83.24283918071252
 20
1001.620427763945
 30
0.0
 11
-79.24297444781566
 21
997.6205630310482
 31
0.0
  0
LINE
  5
2E9
330
1F
100
AcDbEntity
  8
C-9
  6
Continuous
 62
     6
370
     5
100
AcDbLine
 10
-83.24283918071252
 20
1004.44915981631
 30
0.0
 11
-79.24297444781566
 21
1000.448800203768
 31
0.0
  0
LINE
  5
2EA
330
1F
100
AcDbEntity
  8
C-9
  6
Continuous
 62
     6
370
     5
100
AcDbLine
 10
-83.24283918071252
 20
1007.27739698903
 30
0.0
 11
-79.24297444781566
 21
1003.27728481631
 31
0.0
  0
LINE
  5
2EB
330
1F
100
AcDbEntity
  8
C-9
  6
Continuous
 62
     6
370
     5
100
AcDbLine
 10
-83.24283918071252
 20
1010.105386721926
 30
0.0
 11
-79.24297444781566
 21
1006.106016868675
 31
0.0
  0
LINE
  5
2EC
330
1F
100
AcDbEntity
  8
C-9
  6
Continuous
 62
     6
370
     5
100
AcDbLine
 10
-83.24283918071252
 20
1012.934118774292
 30
0.0
 11
-79.24297444781566
 21
1008.934254041395
 31
0.0
  0
LINE
  5
2ED
330
1F
100
AcDbEntity
  8
C-9
  6
Continuous
 62
     6
370
     5
100
AcDbLine
 10
-83.24283918071252
 20
1015.762603386834
 30
0.0
 11
-79.24297444781566
 21
1011.762243774292
 31
0.0
  0
LINE
  5
2EE
330
1F
100
AcDbEntity
  8
C-9
  6
Continuous
 62
     6
370
     5
100
AcDbLine
 10
-83.24283918071252
 20
1018.590840559553
 30
0.0
 11
-79.24297444781566
 21
1014.590975826657
 31
0.0
  0
LINE
  5
2EF
330
1F
100
AcDbEntity
  8
C-9
  6
Continuous
 62
     6
370
     5
100
AcDbLine
 10
-83.24283918071252
 20
1021.419572611918
 30
0.0
 11
-79.24297444781566
 21
1017.419460439199
 31
0.0
  0
LINE
  5
2F0
330
1F
100
AcDbEntity
  8
C-9
  6
Continuous
 62
     6
370
     5
100
AcDbLine
 10
-83.24283918071252
 20
1024.24805722446
 30
0.0
 11
-79.24297444781566
 21
1020.247697611918
 31
0.0
  0
LINE
  5
2F1
330
1F
100
AcDbEntity
  8
C-9
  6
Continuous
 62
     6
370
     5
100
AcDbLine
 10
-83.24283918071252
 20
1027.07629439718
 30
0.0
 11
-79.24297444781566
 21
1023.076429664283
 31
0.0
  0
LINE
  5
2F2
330
1F
100
AcDbEntity
  8
C-9
  6
Continuous
 62
     6
370
     5
100
AcDbLine
 10
-83.24283918071252
 20
1029.904779009722
 30
0.0
 11
-79.24297444781566
 21
1025.904914276825
 31
0.0
  0
LINE
  5
2F3
330
1F
100
AcDbEntity
  8
C-9
  6
Continuous
 62
     6
370
     5
100
AcDbLine
 10
-83.24283918071252
 20
1032.733016182442
 30
0.0
 11
-79.24297444781566
 21
1028.733151449545
 31
0.0
  0
LINE
  5
2F4
330
1F
100
AcDbEntity
  8
C-9
  6
Continuous
 62
     6
370
     5
100
AcDbLine
 10
-83.24283918071252
 20
1035.561748234807
 30
0.0
 11
-79.24297444781566
 21
1031.561141182442
 31
0.0
  0
LINE
  5
2F5
330
1F
100
AcDbEntity
  8
C-9
  6
Continuous
 62
     6
370
     5
100
AcDbLine
 10
-83.24283918071252
 20
1038.389737967704
 30
0.0
 11
-79.24297444781566
 21
1034.389873234807
 31
0.0
  0
LINE
  5
2F6
330
1F
100
AcDbEntity
  8
C-9
  6
Continuous
 62
     6
370
     5
100
AcDbLine
 10
-83.24283918071252
 20
1041.218470020068
 30
0.0
 11
-79.24297444781566
 21
1037.218605287172
 31
0.0
  0
LINE
  5
2F7
330
1F
100
AcDbEntity
  8
C-9
  6
Continuous
 62
     6
370
     5
100
AcDbLine
 10
-83.24283918071252
 20
1044.046954632611
 30
0.0
 11
-79.24297444781566
 21
1040.046595020068
 31
0.0
  0
LINE
  5
2F8
330
1F
100
AcDbEntity
  8
C-9
  6
Continuous
 62
     6
370
     5
100
AcDbLine
 10
-83.24283918071252
 20
1046.87519180533
 30
0.0
 11
-79.24297444781566
 21
1042.875327072433
 31
0.0
  0
LINE
  5
2F9
330
1F
100
AcDbEntity
  8
C-9
  6
Continuous
 62
     6
370
     5
100
AcDbLine
 10
-83.24283918071252
 20
1049.70342897805
 30
0.0
 11
-79.24297444781566
 21
1045.703811684976
 31
0.0
  0
LINE
  5
2FA
330
1F
100
AcDbEntity
  8
C-9
  6
Continuous
 62
     6
370
     5
100
AcDbLine
 10
-83.24283918071252
 20
1052.531913590592
 30
0.0
 11
-79.24297444781566
 21
1048.532048857695
 31
0.0
  0
LINE
  5
2FB
330
1F
100
AcDbEntity
  8
C-9
  6
Continuous
 62
     6
370
     5
100
AcDbLine
 10
-83.24283918071252
 20
1055.360645642957
 30
0.0
 11
-79.24297444781566
 21
1051.360038590592
 31
0.0
  0
LINE
  5
2FC
330
1F
100
AcDbEntity
  8
C-9
  6
Continuous
 62
     6
370
     5
100
AcDbLine
 10
-83.24283918071252
 20
1058.188635375854
 30
0.0
 11
-79.24297444781566
 21
1054.188770642957
 31
0.0
  0
LINE
  5
2FD
330
1F
100
AcDbEntity
  8
C-9
  6
Continuous
 62
     6
370
     5
100
AcDbLine
 10
-83.24283918071252
 20
1061.017367428219
 30
0.0
 11
-79.24297444781566
 21
1057.017255255499
 31
0.0
  0
LINE
  5
2FE
330
1F
100
AcDbEntity
  8
C-9
  6
Continuous
 62
     6
370
     5
100
AcDbLine
 10
-83.24283918071252
 20
1063.845852040761
 30
0.0
 11
-79.24297444781566
 21
1059.845492428219
 31
0.0
  0
LINE
  5
2FF
330
1F
100
AcDbEntity
  8
C-9
  6
Continuous
 62
     6
370
     5
100
AcDbLine
 10
-79.96488013035368
 20
985.9795091353557
 30
0.0
 11
-79.24297444781566
 21
986.7015385378049
 31
0.0
  0
LINE
  5
300
330
1F
100
AcDbEntity
  8
C-9
  6
Continuous
 62
     6
370
     5
100
AcDbLine
 10
-83.24283918071252
 20
985.5301584174503
 30
0.0
 11
-79.24297444781566
 21
989.529528270702
 31
0.0
  0
LINE
  5
301
330
1F
100
AcDbEntity
  8
C-9
  6
Continuous
 62
     6
370
     5
100
AcDbLine
 10
-83.24283918071252
 20
988.3583955901697
 30
0.0
 11
-79.24297444781566
 21
992.3582603230669
 31
0.0
  0
LINE
  5
302
330
1F
100
AcDbEntity
  8
C-9
  6
Continuous
 62
     6
370
     5
100
AcDbLine
 10
-83.24283918071252
 20
991.1863853230669
 30
0.0
 11
-79.24297444781566
 21
995.1869923754317
 31
0.0
  0
LINE
  5
303
330
1F
100
AcDbEntity
  8
C-9
  6
Continuous
 62
     6
370
     5
100
AcDbLine
 10
-83.24283918071252
 20
994.0151173754317
 30
0.0
 11
-79.24297444781566
 21
998.0149821083286
 31
0.0
  0
LINE
  5
304
330
1F
100
AcDbEntity
  8
C-9
  6
Continuous
 62
     6
370
     5
100
AcDbLine
 10
-83.24283918071252
 20
996.8438494277966
 30
0.0
 11
-79.24297444781566
 21
1000.843714160693
 31
0.0
  0
LINE
  5
305
330
1F
100
AcDbEntity
  8
C-9
  6
Continuous
 62
     6
370
     5
100
AcDbLine
 10
-83.24283918071252
 20
999.6718391606935
 30
0.0
 11
-79.24297444781566
 21
1003.672198773236
 31
0.0
  0
LINE
  5
306
330
1F
100
AcDbEntity
  8
C-9
  6
Continuous
 62
     6
370
     5
100
AcDbLine
 10
-83.24283918071252
 20
1002.500571213058
 30
0.0
 11
-79.24297444781566
 21
1006.500435945955
 31
0.0
  0
LINE
  5
307
330
1F
100
AcDbEntity
  8
C-9
  6
Continuous
 62
     6
370
     5
100
AcDbLine
 10
-83.24283918071252
 20
1005.329055825601
 30
0.0
 11
-79.24297444781566
 21
1009.328425678852
 31
0.0
  0
LINE
  5
308
330
1F
100
AcDbEntity
  8
C-9
  6
Continuous
 62
     6
370
     5
100
AcDbLine
 10
-83.24283918071252
 20
1008.15729299832
 30
0.0
 11
-79.24297444781566
 21
1012.157652610862
 31
0.0
  0
LINE
  5
309
330
1F
100
AcDbEntity
  8
C-9
  6
Continuous
 62
     6
370
     5
100
AcDbLine
 10
-83.24283918071252
 20
1010.985282731217
 30
0.0
 11
-79.24297444781566
 21
1014.985889783582
 31
0.0
  0
LINE
  5
30A
330
1F
100
AcDbEntity
  8
C-9
  6
Continuous
 62
     6
370
     5
100
AcDbLine
 10
-83.24283918071252
 20
1013.814509663227
 30
0.0
 11
-79.24297444781566
 21
1017.813879516479
 31
0.0
  0
LINE
  5
30B
330
1F
100
AcDbEntity
  8
C-9
  6
Continuous
 62
     6
370
     5
100
AcDbLine
 10
-83.24283918071252
 20
1016.642746835947
 30
0.0
 11
-79.24297444781566
 21
1020.642611568844
 31
0.0
  0
LINE
  5
30C
330
1F
100
AcDbEntity
  8
C-9
  6
Continuous
 62
     6
370
     5
100
AcDbLine
 10
-83.24283918071252
 20
1019.470736568844
 30
0.0
 11
-79.24297444781566
 21
1023.471096181386
 31
0.0
  0
LINE
  5
30D
330
1F
100
AcDbEntity
  8
C-9
  6
Continuous
 62
     6
370
     5
100
AcDbLine
 10
-83.24283918071252
 20
1022.299468621209
 30
0.0
 11
-79.24297444781566
 21
1026.299333354106
 31
0.0
  0
LINE
  5
30E
330
1F
100
AcDbEntity
  8
C-9
  6
Continuous
 62
     6
370
     5
100
AcDbLine
 10
-83.24283918071252
 20
1025.127953233751
 30
0.0
 11
-79.24297444781566
 21
1029.128065406471
 31
0.0
  0
LINE
  5
30F
330
1F
100
AcDbEntity
  8
C-9
  6
Continuous
 62
     6
370
     5
100
AcDbLine
 10
-83.24283918071252
 20
1027.956190406471
 30
0.0
 11
-79.24297444781566
 21
1031.956550019013
 31
0.0
  0
LINE
  5
310
330
1F
100
AcDbEntity
  8
C-9
  6
Continuous
 62
     6
370
     5
100
AcDbLine
 10
-83.24283918071252
 20
1030.784922458835
 30
0.0
 11
-79.24297444781566
 21
1034.784787191732
 31
0.0
  0
LINE
  5
311
330
1F
100
AcDbEntity
  8
C-9
  6
Continuous
 62
     6
370
     5
100
AcDbLine
 10
-83.24283918071252
 20
1033.613407071378
 30
0.0
 11
-79.24297444781566
 21
1037.612776924629
 31
0.0
  0
LINE
  5
312
330
1F
100
AcDbEntity
  8
C-9
  6
Continuous
 62
     6
370
     5
100
AcDbLine
 10
-83.24283918071252
 20
1036.441644244097
 30
0.0
 11
-79.24297444781566
 21
1040.441508976994
 31
0.0
  0
LINE
  5
313
330
1F
100
AcDbEntity
  8
C-9
  6
Continuous
 62
     6
370
     5
100
AcDbLine
 10
-83.24283918071252
 20
1039.269633976994
 30
0.0
 11
-79.24297444781566
 21
1043.270241029359
 31
0.0
  0
LINE
  5
314
330
1F
100
AcDbEntity
  8
C-9
  6
Continuous
 62
     6
370
     5
100
AcDbLine
 10
-83.24283918071252
 20
1042.098366029359
 30
0.0
 11
-79.24297444781566
 21
1046.098230762256
 31
0.0
  0
LINE
  5
315
330
1F
100
AcDbEntity
  8
C-9
  6
Continuous
 62
     6
370
     5
100
AcDbLine
 10
-83.24283918071252
 20
1044.926850641901
 30
0.0
 11
-79.24297444781566
 21
1048.926962814621
 31
0.0
  0
LINE
  5
316
330
1F
100
AcDbEntity
  8
C-9
  6
Continuous
 62
     6
370
     5
100
AcDbLine
 10
-83.24283918071252
 20
1047.755087814621
 30
0.0
 11
-79.24297444781566
 21
1051.755447427163
 31
0.0
  0
LINE
  5
317
330
1F
100
AcDbEntity
  8
C-9
  6
Continuous
 62
     6
370
     5
100
AcDbLine
 10
-83.24283918071252
 20
1050.583819866986
 30
0.0
 11
-79.24297444781566
 21
1054.583684599883
 31
0.0
  0
LINE
  5
318
330
1F
100
AcDbEntity
  8
C-9
  6
Continuous
 62
     6
370
     5
100
AcDbLine
 10
-83.24283918071252
 20
1053.412304479528
 30
0.0
 11
-79.24297444781566
 21
1057.41167433278
 31
0.0
  0
LINE
  5
319
330
1F
100
AcDbEntity
  8
C-9
  6
Continuous
 62
     6
370
     5
100
AcDbLine
 10
-83.24283918071252
 20
1056.240541652248
 30
0.0
 11
-79.24297444781566
 21
1060.240406385145
 31
0.0
  0
LINE
  5
31A
330
1F
100
AcDbEntity
  8
C-9
  6
Continuous
 62
     6
370
     5
100
AcDbLine
 10
-83.24283918071252
 20
1059.068531385145
 30
0.0
 11
-79.24297444781566
 21
1063.069138437509
 31
0.0
  0
LINE
  5
31B
330
1F
100
AcDbEntity
  8
C-9
  6
Continuous
 62
     6
370
     5
100
AcDbLine
 10
-83.24283918071252
 20
1061.897263437509
 30
0.0
 11
-79.24297444781566
 21
1065.897128170406
 31
0.0
  0
LINE
  5
31C
330
1F
100
AcDbEntity
  8
C-9
  6
Continuous
 62
     6
370
     5
100
AcDbLine
 10
-82.9029805843232
 20
1066.33410689718
 30
0.0
 11
-79.24297444781566
 21
1062.674224480584
 31
0.0
  0
LINE
  5
31D
330
1F
100
AcDbEntity
  8
C-9
  6
Continuous
 62
     6
370
     5
100
AcDbLine
 10
-80.07486713151486
 20
1066.33410689718
 30
0.0
 11
-79.24297444781566
 21
1065.502709093126
 31
0.0
  0
LINE
  5
31E
330
1F
100
AcDbEntity
  8
C-9
  6
Continuous
 62
     6
370
     5
100
AcDbLine
 10
-83.24283918071252
 20
1064.725995489874
 30
0.0
 11
-81.63460405349561
 21
1066.33410689718
 31
0.0
  0
LINE
  5
31F
330
1F
100
AcDbEntity
  8
C-9
  6
Continuous
 62
     6
370
     5
100
AcDbLine
 10
-52.06010157249871
 20
995.5898244066817
 30
0.0
 11
-49.24275175197529
 21
998.4064319077374
 31
0.0
  0
LINE
  5
320
330
1F
100
AcDbEntity
  8
C-9
  6
Continuous
 62
     6
370
     5
100
AcDbLine
 10
-53.24274020478335
 20
997.2350517873828
 30
0.0
 11
-49.24275175197529
 21
1001.23491652028
 31
0.0
  0
LINE
  5
321
330
1F
100
AcDbEntity
  8
C-9
  6
Continuous
 62
     6
370
     5
100
AcDbLine
 10
-53.24274020478335
 20
1000.063288960102
 30
0.0
 11
-49.24275175197529
 21
1004.063648572645
 31
0.0
  0
LINE
  5
322
330
1F
100
AcDbEntity
  8
C-9
  6
Continuous
 62
     6
370
     5
100
AcDbLine
 10
-53.24274020478335
 20
1002.891773572645
 30
0.0
 11
-49.24275175197529
 21
1006.891885745364
 31
0.0
  0
LINE
  5
323
330
1F
100
AcDbEntity
  8
C-9
  6
Continuous
 62
     6
370
     5
100
AcDbLine
 10
-53.24274020478335
 20
1005.720505625009
 30
0.0
 11
-49.24275175197529
 21
1009.720370357907
 31
0.0
  0
LINE
  5
324
330
1F
100
AcDbEntity
  8
C-9
  6
Continuous
 62
     6
370
     5
100
AcDbLine
 10
-53.24274020478335
 20
1008.548742797729
 30
0.0
 11
-49.24275175197529
 21
1012.549102410271
 31
0.0
  0
LINE
  5
325
330
1F
100
AcDbEntity
  8
C-9
  6
Continuous
 62
     6
370
     5
100
AcDbLine
 10
-53.24274020478335
 20
1011.376732530626
 30
0.0
 11
-49.24275175197529
 21
1015.377092143168
 31
0.0
  0
LINE
  5
326
330
1F
100
AcDbEntity
  8
C-9
  6
Continuous
 62
     6
370
     5
100
AcDbLine
 10
-53.24274020478335
 20
1014.205959462636
 30
0.0
 11
-49.24275175197529
 21
1018.205329315888
 31
0.0
  0
LINE
  5
327
330
1F
100
AcDbEntity
  8
C-9
  6
Continuous
 62
     6
370
     5
100
AcDbLine
 10
-53.24274020478335
 20
1017.033949195533
 30
0.0
 11
-49.24275175197529
 21
1021.034061368253
 31
0.0
  0
LINE
  5
328
330
1F
100
AcDbEntity
  8
C-9
  6
Continuous
 62
     6
370
     5
100
AcDbLine
 10
-53.24274020478335
 20
1019.862186368253
 30
0.0
 11
-49.24275175197529
 21
1023.862545980795
 31
0.0
  0
LINE
  5
329
330
1F
100
AcDbEntity
  8
C-9
  6
Continuous
 62
     6
370
     5
100
AcDbLine
 10
-53.24274020478335
 20
1022.690918420617
 30
0.0
 11
-49.24275175197529
 21
1026.690783153515
 31
0.0
  0
LINE
  5
32A
330
1F
100
AcDbEntity
  8
C-9
  6
Continuous
 62
     6
370
     5
100
AcDbLine
 10
-53.24274020478335
 20
1025.51940303316
 30
0.0
 11
-49.24275175197529
 21
1029.519267766057
 31
0.0
  0
LINE
  5
32B
330
1F
100
AcDbEntity
  8
C-9
  6
Continuous
 62
     6
370
     5
100
AcDbLine
 10
-53.24274020478335
 20
1028.347640205879
 30
0.0
 11
-49.24275175197529
 21
1032.347999818422
 31
0.0
  0
LINE
  5
32C
330
1F
100
AcDbEntity
  8
C-9
  6
Continuous
 62
     6
370
     5
100
AcDbLine
 10
-53.24274020478335
 20
1031.176124818422
 30
0.0
 11
-49.24275175197529
 21
1035.176236991141
 31
0.0
  0
LINE
  5
32D
330
1F
100
AcDbEntity
  8
C-9
  6
Continuous
 62
     6
370
     5
100
AcDbLine
 10
-53.24274020478335
 20
1034.004856870786
 30
0.0
 11
-49.24275175197529
 21
1038.004226724038
 31
0.0
  0
LINE
  5
32E
330
1F
100
AcDbEntity
  8
C-9
  6
Continuous
 62
     6
370
     5
100
AcDbLine
 10
-53.24274020478335
 20
1036.833094043506
 30
0.0
 11
-49.24275175197529
 21
1040.832958776403
 31
0.0
  0
LINE
  5
32F
330
1F
100
AcDbEntity
  8
C-9
  6
Continuous
 62
     6
370
     5
100
AcDbLine
 10
-53.24274020478335
 20
1039.661083776403
 30
0.0
 11
-49.24275175197529
 21
1043.661443388945
 31
0.0
  0
LINE
  5
330
330
1F
100
AcDbEntity
  8
C-9
  6
Continuous
 62
     6
370
     5
100
AcDbLine
 10
-53.24274020478335
 20
1042.489815828768
 30
0.0
 11
-49.24275175197529
 21
1046.489680561665
 31
0.0
  0
LINE
  5
331
330
1F
100
AcDbEntity
  8
C-9
  6
Continuous
 62
     6
370
     5
100
AcDbLine
 10
-53.24274020478335
 20
1045.31830044131
 30
0.0
 11
-49.24275175197529
 21
1049.317917734384
 31
0.0
  0
LINE
  5
332
330
1F
100
AcDbEntity
  8
C-9
  6
Continuous
 62
     6
370
     5
100
AcDbLine
 10
-53.24274020478335
 20
1048.14653761403
 30
0.0
 11
-49.24275175197529
 21
1052.146897226572
 31
0.0
  0
LINE
  5
333
330
1F
100
AcDbEntity
  8
C-9
  6
Continuous
 62
     6
370
     5
100
AcDbLine
 10
-53.24274020478335
 20
1050.975269666395
 30
0.0
 11
-49.24275175197529
 21
1054.975134399292
 31
0.0
  0
LINE
  5
334
330
1F
100
AcDbEntity
  8
C-9
  6
Continuous
 62
     6
370
     5
100
AcDbLine
 10
-53.24274020478335
 20
1053.803754278937
 30
0.0
 11
-49.24275175197529
 21
1057.803124132188
 31
0.0
  0
LINE
  5
335
330
1F
100
AcDbEntity
  8
C-9
  6
Continuous
 62
     6
370
     5
100
AcDbLine
 10
-53.24274020478335
 20
1056.631991451656
 30
0.0
 11
-49.24275175197529
 21
1060.631856184553
 31
0.0
  0
LINE
  5
336
330
1F
100
AcDbEntity
  8
C-9
  6
Continuous
 62
     6
370
     5
100
AcDbLine
 10
-53.24274020478335
 20
1059.459981184553
 30
0.0
 11
-49.24275175197529
 21
1063.460588236918
 31
0.0
  0
LINE
  5
337
330
1F
100
AcDbEntity
  8
C-9
  6
Continuous
 62
     6
370
     5
100
AcDbLine
 10
-53.24274020478335
 20
1062.288713236918
 30
0.0
 11
-49.24275175197529
 21
1066.288577969815
 31
0.0
  0
LINE
  5
338
330
1F
100
AcDbEntity
  8
C-9
  6
Continuous
 62
     6
370
     5
100
AcDbLine
 10
-53.24274020478335
 20
1065.117445289283
 30
0.0
 11
-52.02632603670914
 21
1066.33410689718
 31
0.0
  0
LINE
  5
339
330
1F
100
AcDbEntity
  8
C-9
  6
Continuous
 62
     6
370
     5
100
AcDbLine
 10
-53.24274020478335
 20
997.4678926604826
 30
0.0
 11
-51.66964153238048
 21
995.8944228283456
 31
0.0
  0
LINE
  5
33A
330
1F
100
AcDbEntity
  8
C-9
  6
Continuous
 62
     6
370
     5
100
AcDbLine
 10
-53.24274020478335
 20
1000.296129833202
 30
0.0
 11
-50.08107787106304
 21
997.134591219393
 31
0.0
  0
LINE
  5
33B
330
1F
100
AcDbEntity
  8
C-9
  6
Continuous
 62
     6
370
     5
100
AcDbLine
 10
-53.24274020478335
 20
1003.124367005922
 30
0.0
 11
-49.24275175197529
 21
999.1247497128473
 31
0.0
  0
LINE
  5
33C
330
1F
100
AcDbEntity
  8
C-9
  6
Continuous
 62
     6
370
     5
100
AcDbLine
 10
-53.24274020478335
 20
1005.952851618464
 30
0.0
 11
-49.24275175197529
 21
1001.952986885567
 31
0.0
  0
LINE
  5
33D
330
1F
100
AcDbEntity
  8
C-9
  6
Continuous
 62
     6
370
     5
100
AcDbLine
 10
-53.24274020478335
 20
1008.781583670829
 30
0.0
 11
-49.24275175197529
 21
1004.781224058286
 31
0.0
  0
LINE
  5
33E
330
1F
100
AcDbEntity
  8
C-9
  6
Continuous
 62
     6
370
     5
100
AcDbLine
 10
-53.24274020478335
 20
1011.609573403726
 30
0.0
 11
-49.24275175197529
 21
1007.609708670829
 31
0.0
  0
LINE
  5
33F
330
1F
100
AcDbEntity
  8
C-9
  6
Continuous
 62
     6
370
     5
100
AcDbLine
 10
-53.24274020478335
 20
1014.438305456091
 30
0.0
 11
-49.24275175197529
 21
1010.438440723193
 31
0.0
  0
LINE
  5
340
330
1F
100
AcDbEntity
  8
C-9
  6
Continuous
 62
     6
370
     5
100
AcDbLine
 10
-53.24274020478335
 20
1017.267037508455
 30
0.0
 11
-49.24275175197529
 21
1013.266430456091
 31
0.0
  0
LINE
  5
341
330
1F
100
AcDbEntity
  8
C-9
  6
Continuous
 62
     6
370
     5
100
AcDbLine
 10
-53.24274020478335
 20
1020.095027241352
 30
0.0
 11
-49.24275175197529
 21
1016.095162508455
 31
0.0
  0
LINE
  5
342
330
1F
100
AcDbEntity
  8
C-9
  6
Continuous
 62
     6
370
     5
100
AcDbLine
 10
-53.24274020478335
 20
1022.923264414072
 30
0.0
 11
-49.24275175197529
 21
1018.92389456082
 31
0.0
  0
LINE
  5
343
330
1F
100
AcDbEntity
  8
C-9
  6
Continuous
 62
     6
370
     5
100
AcDbLine
 10
-53.24274020478335
 20
1025.751749026614
 30
0.0
 11
-49.24275175197529
 21
1021.751884293717
 31
0.0
  0
LINE
  5
344
330
1F
100
AcDbEntity
  8
C-9
  6
Continuous
 62
     6
370
     5
100
AcDbLine
 10
-53.24274020478335
 20
1028.580481078979
 30
0.0
 11
-49.24275175197529
 21
1024.580121466437
 31
0.0
  0
LINE
  5
345
330
1F
100
AcDbEntity
  8
C-9
  6
Continuous
 62
     6
370
     5
100
AcDbLine
 10
-53.24274020478335
 20
1031.408718251699
 30
0.0
 11
-49.24275175197529
 21
1027.408606078979
 31
0.0
  0
LINE
  5
346
330
1F
100
AcDbEntity
  8
C-9
  6
Continuous
 62
     6
370
     5
100
AcDbLine
 10
-53.24274020478335
 20
1034.237202864241
 30
0.0
 11
-49.24275175197529
 21
1030.237338131344
 31
0.0
  0
LINE
  5
347
330
1F
100
AcDbEntity
  8
C-9
  6
Continuous
 62
     6
370
     5
100
AcDbLine
 10
-53.24274020478335
 20
1037.065934916606
 30
0.0
 11
-49.24275175197529
 21
1033.065575304063
 31
0.0
  0
LINE
  5
348
330
1F
100
AcDbEntity
  8
C-9
  6
Continuous
 62
     6
370
     5
100
AcDbLine
 10
-53.24274020478335
 20
1039.893924649503
 30
0.0
 11
-49.24275175197529
 21
1035.894059916606
 31
0.0
  0
LINE
  5
349
330
1F
100
AcDbEntity
  8
C-9
  6
Continuous
 62
     6
370
     5
100
AcDbLine
 10
-53.24274020478335
 20
1042.722161822222
 30
0.0
 11
-49.24275175197529
 21
1038.722791968971
 31
0.0
  0
LINE
  5
34A
330
1F
100
AcDbEntity
  8
C-9
  6
Continuous
 62
     6
370
     5
100
AcDbLine
 10
-53.24274020478335
 20
1045.551388754232
 30
0.0
 11
-49.24275175197529
 21
1041.550781701867
 31
0.0
  0
LINE
  5
34B
330
1F
100
AcDbEntity
  8
C-9
  6
Continuous
 62
     6
370
     5
100
AcDbLine
 10
-53.24274020478335
 20
1048.379378487129
 30
0.0
 11
-49.24275175197529
 21
1044.379018874587
 31
0.0
  0
LINE
  5
34C
330
1F
100
AcDbEntity
  8
C-9
  6
Continuous
 62
     6
370
     5
100
AcDbLine
 10
-53.24274020478335
 20
1051.207615659849
 30
0.0
 11
-49.24275175197529
 21
1047.207998366775
 31
0.0
  0
LINE
  5
34D
330
1F
100
AcDbEntity
  8
C-9
  6
Continuous
 62
     6
370
     5
100
AcDbLine
 10
-53.24274020478335
 20
1054.036100272391
 30
0.0
 11
-49.24275175197529
 21
1050.036235539494
 31
0.0
  0
LINE
  5
34E
330
1F
100
AcDbEntity
  8
C-9
  6
Continuous
 62
     6
370
     5
100
AcDbLine
 10
-53.24274020478335
 20
1056.864832324756
 30
0.0
 11
-49.24275175197529
 21
1052.864472712214
 31
0.0
  0
LINE
  5
34F
330
1F
100
AcDbEntity
  8
C-9
  6
Continuous
 62
     6
370
     5
100
AcDbLine
 10
-53.24274020478335
 20
1059.693069497476
 30
0.0
 11
-49.24275175197529
 21
1055.692957324756
 31
0.0
  0
LINE
  5
350
330
1F
100
AcDbEntity
  8
C-9
  6
Continuous
 62
     6
370
     5
100
AcDbLine
 10
-53.24274020478335
 20
1062.521554110018
 30
0.0
 11
-49.24275175197529
 21
1058.521689377121
 31
0.0
  0
LINE
  5
351
330
1F
100
AcDbEntity
  8
C-9
  6
Continuous
 62
     6
370
     5
100
AcDbLine
 10
-53.24274020478335
 20
1065.349791282737
 30
0.0
 11
-49.24275175197529
 21
1061.349926549841
 31
0.0
  0
LINE
  5
352
330
1F
100
AcDbEntity
  8
C-9
  6
Continuous
 62
     6
370
     5
100
AcDbLine
 10
-51.39857120668388
 20
1066.33410689718
 30
0.0
 11
-49.24275175197529
 21
1064.177916282737
 31
0.0
  0
LINE
  5
353
330
1F
100
AcDbEntity
  8
C-9
  6
Continuous
 62
     6
370
     5
100
AcDbLine
 10
-23.24251750894298
 20
1008.361430851994
 30
0.0
 11
-22.37449861113909
 21
1007.49341195419
 31
0.0
  0
LINE
  5
354
330
1F
100
AcDbEntity
  8
C-9
  6
Continuous
 62
     6
370
     5
100
AcDbLine
 10
-23.24251750894298
 20
1011.189420584891
 30
0.0
 11
-20.78655354937816
 21
1008.734075224883
 31
0.0
  0
LINE
  5
355
330
1F
100
AcDbEntity
  8
C-9
  6
Continuous
 62
     6
370
     5
100
AcDbLine
 10
-23.24251750894298
 20
1014.018152637256
 30
0.0
 11
-19.24265277604612
 21
1010.018287904359
 31
0.0
  0
LINE
  5
356
330
1F
100
AcDbEntity
  8
C-9
  6
Continuous
 62
     6
370
     5
100
AcDbLine
 10
-23.24251750894298
 20
1016.846884689621
 30
0.0
 11
-19.24265277604612
 21
1012.846277637256
 31
0.0
  0
LINE
  5
357
330
1F
100
AcDbEntity
  8
C-9
  6
Continuous
 62
     6
370
     5
100
AcDbLine
 10
-23.24251750894298
 20
1019.674874422518
 30
0.0
 11
-19.24265277604612
 21
1015.675009689621
 31
0.0
  0
LINE
  5
358
330
1F
100
AcDbEntity
  8
C-9
  6
Continuous
 62
     6
370
     5
100
AcDbLine
 10
-23.24251750894298
 20
1022.503606474883
 30
0.0
 11
-19.24265277604612
 21
1018.503741741986
 31
0.0
  0
LINE
  5
359
330
1F
100
AcDbEntity
  8
C-9
  6
Continuous
 62
     6
370
     5
100
AcDbLine
 10
-23.24251750894298
 20
1025.332091087425
 30
0.0
 11
-19.24265277604612
 21
1021.331731474883
 31
0.0
  0
LINE
  5
35A
330
1F
100
AcDbEntity
  8
C-9
  6
Continuous
 62
     6
370
     5
100
AcDbLine
 10
-23.24251750894298
 20
1028.160328260145
 30
0.0
 11
-19.24265277604612
 21
1024.159968647602
 31
0.0
  0
LINE
  5
35B
330
1F
100
AcDbEntity
  8
C-9
  6
Continuous
 62
     6
370
     5
100
AcDbLine
 10
-23.24251750894298
 20
1030.988565432864
 30
0.0
 11
-19.24265277604612
 21
1026.98894813979
 31
0.0
  0
LINE
  5
35C
330
1F
100
AcDbEntity
  8
C-9
  6
Continuous
 62
     6
370
     5
100
AcDbLine
 10
-23.24251750894298
 20
1033.817050045406
 30
0.0
 11
-19.24265277604612
 21
1029.817185312509
 31
0.0
  0
LINE
  5
35D
330
1F
100
AcDbEntity
  8
C-9
  6
Continuous
 62
     6
370
     5
100
AcDbLine
 10
-23.24251750894298
 20
1036.645782097771
 30
0.0
 11
-19.24265277604612
 21
1032.645422485229
 31
0.0
  0
LINE
  5
35E
330
1F
100
AcDbEntity
  8
C-9
  6
Continuous
 62
     6
370
     5
100
AcDbLine
 10
-23.24251750894298
 20
1039.473771830668
 30
0.0
 11
-19.24265277604612
 21
1035.473907097771
 31
0.0
  0
LINE
  5
35F
330
1F
100
AcDbEntity
  8
C-9
  6
Continuous
 62
     6
370
     5
100
AcDbLine
 10
-23.24251750894298
 20
1042.302503883033
 30
0.0
 11
-19.24265277604612
 21
1038.302639150136
 31
0.0
  0
LINE
  5
360
330
1F
100
AcDbEntity
  8
C-9
  6
Continuous
 62
     6
370
     5
100
AcDbLine
 10
-23.24251750894298
 20
1045.131235935398
 30
0.0
 11
-19.24265277604612
 21
1041.130628883033
 31
0.0
  0
LINE
  5
361
330
1F
100
AcDbEntity
  8
C-9
  6
Continuous
 62
     6
370
     5
100
AcDbLine
 10
-23.24251750894298
 20
1047.959225668295
 30
0.0
 11
-19.24265277604612
 21
1043.958866055753
 31
0.0
  0
LINE
  5
362
330
1F
100
AcDbEntity
  8
C-9
  6
Continuous
 62
     6
370
     5
100
AcDbLine
 10
-23.24251750894298
 20
1050.787462841015
 30
0.0
 11
-19.24265277604612
 21
1046.788092987763
 31
0.0
  0
LINE
  5
363
330
1F
100
AcDbEntity
  8
C-9
  6
Continuous
 62
     6
370
     5
100
AcDbLine
 10
-23.24251750894298
 20
1053.615947453557
 30
0.0
 11
-19.24265277604612
 21
1049.61608272066
 31
0.0
  0
LINE
  5
364
330
1F
100
AcDbEntity
  8
C-9
  6
Continuous
 62
     6
370
     5
100
AcDbLine
 10
-23.24251750894298
 20
1056.444679505922
 30
0.0
 11
-19.24265277604612
 21
1052.444319893379
 31
0.0
  0
LINE
  5
365
330
1F
100
AcDbEntity
  8
C-9
  6
Continuous
 62
     6
370
     5
100
AcDbLine
 10
-23.24251750894298
 20
1059.272669238818
 30
0.0
 11
-19.24265277604612
 21
1055.272804505922
 31
0.0
  0
LINE
  5
366
330
1F
100
AcDbEntity
  8
C-9
  6
Continuous
 62
     6
370
     5
100
AcDbLine
 10
-23.24251750894298
 20
1062.101401291183
 30
0.0
 11
-19.24265277604612
 21
1058.101536558286
 31
0.0
  0
LINE
  5
367
330
1F
100
AcDbEntity
  8
C-9
  6
Continuous
 62
     6
370
     5
100
AcDbLine
 10
-23.24251750894298
 20
1064.930133343548
 30
0.0
 11
-19.24265277604612
 21
1060.929526291183
 31
0.0
  0
LINE
  5
368
330
1F
100
AcDbEntity
  8
C-9
  6
Continuous
 62
     6
370
     5
100
AcDbLine
 10
-23.24251750894298
 20
1007.015605656682
 30
0.0
 11
-19.24265277604612
 21
1011.016212709047
 31
0.0
  0
LINE
  5
369
330
1F
100
AcDbEntity
  8
C-9
  6
Continuous
 62
     6
370
     5
100
AcDbLine
 10
-23.24251750894298
 20
1009.844337709047
 30
0.0
 11
-19.24265277604612
 21
1013.844202441943
 31
0.0
  0
LINE
  5
36A
330
1F
100
AcDbEntity
  8
C-9
  6
Continuous
 62
     6
370
     5
100
AcDbLine
 10
-23.24251750894298
 20
1012.673069761411
 30
0.0
 11
-19.24265277604612
 21
1016.672439614663
 31
0.0
  0
LINE
  5
36B
330
1F
100
AcDbEntity
  8
C-9
  6
Continuous
 62
     6
370
     5
100
AcDbLine
 10
-23.24251750894298
 20
1015.501059494308
 30
0.0
 11
-19.24265277604612
 21
1019.501419106851
 31
0.0
  0
LINE
  5
36C
330
1F
100
AcDbEntity
  8
C-9
  6
Continuous
 62
     6
370
     5
100
AcDbLine
 10
-23.24251750894298
 20
1018.329296667028
 30
0.0
 11
-19.24265277604612
 21
1022.32965627957
 31
0.0
  0
LINE
  5
36D
330
1F
100
AcDbEntity
  8
C-9
  6
Continuous
 62
     6
370
     5
100
AcDbLine
 10
-23.24251750894298
 20
1021.158276159216
 30
0.0
 11
-19.24265277604612
 21
1025.15789345229
 31
0.0
  0
LINE
  5
36E
330
1F
100
AcDbEntity
  8
C-9
  6
Continuous
 62
     6
370
     5
100
AcDbLine
 10
-23.24251750894298
 20
1023.986513331935
 30
0.0
 11
-19.24265277604612
 21
1027.986378064832
 31
0.0
  0
LINE
  5
36F
330
1F
100
AcDbEntity
  8
C-9
  6
Continuous
 62
     6
370
     5
100
AcDbLine
 10
-23.24251750894298
 20
1026.814503064832
 30
0.0
 11
-19.24265277604612
 21
1030.815110117197
 31
0.0
  0
LINE
  5
370
330
1F
100
AcDbEntity
  8
C-9
  6
Continuous
 62
     6
370
     5
100
AcDbLine
 10
-23.24251750894298
 20
1029.643235117197
 30
0.0
 11
-19.24265277604612
 21
1033.643099850094
 31
0.0
  0
LINE
  5
371
330
1F
100
AcDbEntity
  8
C-9
  6
Continuous
 62
     6
370
     5
100
AcDbLine
 10
-23.24251750894298
 20
1032.471967169562
 30
0.0
 11
-19.24265277604612
 21
1036.471831902459
 31
0.0
  0
LINE
  5
372
330
1F
100
AcDbEntity
  8
C-9
  6
Continuous
 62
     6
370
     5
100
AcDbLine
 10
-23.24251750894298
 20
1035.299956902459
 30
0.0
 11
-19.24265277604612
 21
1039.300563954824
 31
0.0
  0
LINE
  5
373
330
1F
100
AcDbEntity
  8
C-9
  6
Continuous
 62
     6
370
     5
100
AcDbLine
 10
-23.24251750894298
 20
1038.128688954824
 30
0.0
 11
-19.24265277604612
 21
1042.128553687721
 31
0.0
  0
LINE
  5
374
330
1F
100
AcDbEntity
  8
C-9
  6
Continuous
 62
     6
370
     5
100
AcDbLine
 10
-23.24251750894298
 20
1040.957173567366
 30
0.0
 11
-19.24265277604612
 21
1044.95679086044
 31
0.0
  0
LINE
  5
375
330
1F
100
AcDbEntity
  8
C-9
  6
Continuous
 62
     6
370
     5
100
AcDbLine
 10
-23.24251750894298
 20
1043.785410740085
 30
0.0
 11
-19.24265277604612
 21
1047.785275472982
 31
0.0
  0
LINE
  5
376
330
1F
100
AcDbEntity
  8
C-9
  6
Continuous
 62
     6
370
     5
100
AcDbLine
 10
-23.24251750894298
 20
1046.613647912805
 30
0.0
 11
-19.24265277604612
 21
1050.614007525347
 31
0.0
  0
LINE
  5
377
330
1F
100
AcDbEntity
  8
C-9
  6
Continuous
 62
     6
370
     5
100
AcDbLine
 10
-23.24251750894298
 20
1049.442132525347
 30
0.0
 11
-19.24265277604612
 21
1053.442244698067
 31
0.0
  0
LINE
  5
378
330
1F
100
AcDbEntity
  8
C-9
  6
Continuous
 62
     6
370
     5
100
AcDbLine
 10
-23.24251750894298
 20
1052.270864577712
 30
0.0
 11
-19.24265277604612
 21
1056.270729310609
 31
0.0
  0
LINE
  5
379
330
1F
100
AcDbEntity
  8
C-9
  6
Continuous
 62
     6
370
     5
100
AcDbLine
 10
-23.24251750894298
 20
1055.098854310609
 30
0.0
 11
-19.24265277604612
 21
1059.099461362974
 31
0.0
  0
LINE
  5
37A
330
1F
100
AcDbEntity
  8
C-9
  6
Continuous
 62
     6
370
     5
100
AcDbLine
 10
-23.24251750894298
 20
1057.927586362974
 30
0.0
 11
-19.24265277604612
 21
1061.927451095871
 31
0.0
  0
LINE
  5
37B
330
1F
100
AcDbEntity
  8
C-9
  6
Continuous
 62
     6
370
     5
100
AcDbLine
 10
-23.24251750894298
 20
1060.756318415339
 30
0.0
 11
-19.24265277604612
 21
1064.755688268591
 31
0.0
  0
LINE
  5
37C
330
1F
100
AcDbEntity
  8
C-9
  6
Continuous
 62
     6
370
     5
100
AcDbLine
 10
-23.24251750894298
 20
1063.584308148236
 30
0.0
 11
-20.49271875999871
 21
1066.33410689718
 31
0.0
  0
LINE
  5
37D
330
1F
100
AcDbEntity
  8
C-9
  6
Continuous
 62
     6
370
     5
100
AcDbLine
 10
-21.81862504958908
 20
1066.33410689718
 30
0.0
 11
-19.24265277604612
 21
1063.758258343548
 31
0.0
  0
LINE
  5
37E
330
1F
100
AcDbEntity
  8
C-2
  6
Continuous
 62
     3
370
     9
100
AcDbLine
 10
501.3826111597648
 20
801.2951268771208
 30
0.0
 11
501.3826111597648
 21
1031.294153613818
 31
0.0
  0
LINE
  5
37F
330
1F
100
AcDbEntity
  8
C-2
  6
Continuous
 62
     3
370
     9
100
AcDbLine
 10
461.3837163909724
 20
818.5030819024588
 30
0.0
 11
461.3837163909724
 21
1048.50334583827
 31
0.0
  0
LINE
  5
380
330
1F
100
AcDbEntity
  8
C-5
  6
Continuous
 62
     7
370
     9
100
AcDbLine
 10
589.7000698538101
 20
1020.40185262142
 30
0.0
 11
497.7261929006851
 21
937.2709800496294
 31
0.0
  0
LINE
  5
381
330
1F
100
AcDbEntity
  8
C-5
  6
Continuous
 62
     7
370
     9
100
AcDbLine
 10
497.7261929006851
 20
937.2709800496294
 30
0.0
 11
513.9250883293168
 21
956.3119692810482
 31
0.0
  0
LINE
  5
382
330
1F
100
AcDbEntity
  8
C-5
  6
Continuous
 62
     7
370
     9
100
AcDbLine
 10
497.7261929006851
 20
937.2709800496294
 30
0.0
 11
518.3020513519101
 21
951.4700668317239
 31
0.0
  0
LINE
  5
383
330
1F
100
AcDbEntity
  8
C-5
  6
Continuous
 62
     7
370
     9
100
AcDbLine
 10
263.756994209807
 20
740.3351098532612
 30
0.0
 11
701.7908043871715
 21
740.3351098532612
 31
0.0
  0
LINE
  5
384
330
1F
100
AcDbEntity
  8
C-9
  6
Continuous
 62
     6
370
     5
100
AcDbLine
 10
466.5730243512766
 20
817.8943799387763
 30
0.0
 11
461.3837163909724
 21
822.2488259375093
 31
0.0
  0
LINE
  5
385
330
1F
100
AcDbEntity
  8
C-9
  6
Continuous
 62
     6
370
     5
100
AcDbLine
 10
500.0033815883966
 20
801.8429586444352
 30
0.0
 11
461.3837163909724
 21
834.2491624556682
 31
0.0
  0
LINE
  5
386
330
1F
100
AcDbEntity
  8
C-9
  6
Continuous
 62
     6
370
     5
100
AcDbLine
 10
465.9160716221802
 20
1048.044097527459
 30
0.0
 11
461.3837163909724
 21
1045.426926523447
 31
0.0
  0
LINE
  5
387
330
1F
100
AcDbEntity
  8
C-9
  6
Continuous
 62
     6
370
     5
100
AcDbLine
 10
478.1621158842156
 20
1043.114106501276
 30
0.0
 11
461.3837163909724
 21
1033.426590005288
 31
0.0
  0
LINE
  5
388
330
1F
100
AcDbEntity
  8
C-9
  6
Continuous
 62
     6
370
     5
100
AcDbLine
 10
487.553199472687
 20
1036.535671376699
 30
0.0
 11
461.3837163909724
 21
1021.426995806597
 31
0.0
  0
LINE
  5
389
330
1F
100
AcDbEntity
  8
C-9
  6
Continuous
 62
     6
370
     5
100
AcDbLine
 10
500.1580314775435
 20
1031.81352980153
 30
0.0
 11
461.3837163909724
 21
1009.426659288438
 31
0.0
  0
LINE
  5
38A
330
1F
100
AcDbEntity
  8
C-9
  6
Continuous
 62
     6
370
     5
100
AcDbLine
 10
501.3826111597648
 20
1028.685395563776
 30
0.0
 11
496.6659132606937
 21
1032.643690406471
 31
0.0
  0
LINE
  5
38B
330
1F
100
AcDbEntity
  8
C-9
  6
Continuous
 62
     6
370
     5
100
AcDbLine
 10
501.3826111597648
 20
1016.68530648544
 30
0.0
 11
463.4674071373831
 21
1048.500871440043
 31
0.0
  0
LINE
  5
38C
330
1F
100
AcDbEntity
  8
C-9
  6
Continuous
 62
     6
370
     5
100
AcDbLine
 10
501.3826111597648
 20
804.520999844815
 30
0.0
 11
497.6616111069773
 21
802.3727273046968
 31
0.0
  0
LINE
  5
38D
330
1F
100
AcDbEntity
  8
C-9
  6
Continuous
 62
     6
370
     5
100
AcDbLine
 10
501.3826111597648
 20
816.5208414833286
 30
0.0
 11
485.8795165123831
 21
807.5702007791479
 31
0.0
  0
LINE
  5
38E
330
1F
100
AcDbEntity
  8
C-9
  6
Continuous
 62
     6
370
     5
100
AcDbLine
 10
501.3826111597648
 20
828.5206831218421
 30
0.0
 11
476.4317692045281
 21
814.1152315276697
 31
0.0
  0
LINE
  5
38F
330
1F
100
AcDbEntity
  8
C-9
  6
Continuous
 62
     6
370
     5
100
AcDbLine
 10
501.3826111597648
 20
840.5207722001784
 30
0.0
 11
463.289003025263
 21
818.5275784448997
 31
0.0
  0
LINE
  5
390
330
1F
100
AcDbEntity
  8
C-9
  6
Continuous
 62
     6
370
     5
100
AcDbLine
 10
501.3826111597648
 20
812.6852767926614
 30
0.0
 11
461.3837163909724
 21
846.2490040941817
 31
0.0
  0
LINE
  5
391
330
1F
100
AcDbEntity
  8
C-9
  6
Continuous
 62
     6
370
     5
100
AcDbLine
 10
501.3826111597648
 20
824.6856133108203
 30
0.0
 11
461.3837163909724
 21
858.2493406123406
 31
0.0
  0
LINE
  5
392
330
1F
100
AcDbEntity
  8
C-9
  6
Continuous
 62
     6
370
     5
100
AcDbLine
 10
501.3826111597648
 20
836.6854549493338
 30
0.0
 11
461.3837163909724
 21
870.2489348110315
 31
0.0
  0
LINE
  5
393
330
1F
100
AcDbEntity
  8
C-9
  6
Continuous
 62
     6
370
     5
100
AcDbLine
 10
501.3826111597648
 20
848.6857914674924
 30
0.0
 11
461.3837163909724
 21
882.24927132919
 31
0.0
  0
LINE
  5
394
330
1F
100
AcDbEntity
  8
C-9
  6
Continuous
 62
     6
370
     5
100
AcDbLine
 10
501.3826111597648
 20
1004.685464846926
 30
0.0
 11
461.3837163909724
 21
1038.248944708624
 31
0.0
  0
LINE
  5
395
330
1F
100
AcDbEntity
  8
C-9
  6
Continuous
 62
     6
370
     5
100
AcDbLine
 10
501.3826111597648
 20
992.6853757685906
 30
0.0
 11
461.3837163909724
 21
1026.249350509933
 31
0.0
  0
LINE
  5
396
330
1F
100
AcDbEntity
  8
C-9
  6
Continuous
 62
     6
370
     5
100
AcDbLine
 10
501.3826111597648
 20
980.685534130077
 30
0.0
 11
461.3837163909724
 21
1014.249013991775
 31
0.0
  0
LINE
  5
397
330
1F
100
AcDbEntity
  8
C-9
  6
Continuous
 62
     6
370
     5
100
AcDbLine
 10
501.3826111597648
 20
968.6856924915635
 30
0.0
 11
461.3837163909724
 21
1002.249172353261
 31
0.0
  0
LINE
  5
398
330
1F
100
AcDbEntity
  8
C-9
  6
Continuous
 62
     6
370
     5
100
AcDbLine
 10
501.3826111597648
 20
956.6853559734046
 30
0.0
 11
461.3837163909724
 21
990.2490832749249
 31
0.0
  0
LINE
  5
399
330
1F
100
AcDbEntity
  8
C-9
  6
Continuous
 62
     6
370
     5
100
AcDbLine
 10
501.3826111597648
 20
944.6857617747138
 30
0.0
 11
461.3837163909724
 21
978.2492416364114
 31
0.0
  0
LINE
  5
39A
330
1F
100
AcDbEntity
  8
C-9
  6
Continuous
 62
     6
370
     5
100
AcDbLine
 10
501.3826111597648
 20
932.6854252565549
 30
0.0
 11
461.3837163909724
 21
966.2489051182525
 31
0.0
  0
LINE
  5
39B
330
1F
100
AcDbEntity
  8
C-9
  6
Continuous
 62
     6
370
     5
100
AcDbLine
 10
501.3826111597648
 20
920.685831057864
 30
0.0
 11
461.3837163909724
 21
954.2493109195617
 31
0.0
  0
LINE
  5
39C
330
1F
100
AcDbEntity
  8
C-9
  6
Continuous
 62
     6
370
     5
100
AcDbLine
 10
501.3826111597648
 20
908.6854945397055
 30
0.0
 11
461.3837163909724
 21
942.2489744014031
 31
0.0
  0
LINE
  5
39D
330
1F
100
AcDbEntity
  8
C-9
  6
Continuous
 62
     6
370
     5
100
AcDbLine
 10
501.3826111597648
 20
896.6851580215466
 30
0.0
 11
461.3837163909724
 21
930.2488853230669
 31
0.0
  0
LINE
  5
39E
330
1F
100
AcDbEntity
  8
C-9
  6
Continuous
 62
     6
370
     5
100
AcDbLine
 10
501.3826111597648
 20
884.6853163830331
 30
0.0
 11
461.3837163909724
 21
918.2490436845534
 31
0.0
  0
LINE
  5
39F
330
1F
100
AcDbEntity
  8
C-9
  6
Continuous
 62
     6
370
     5
100
AcDbLine
 10
501.3826111597648
 20
872.6857221843421
 30
0.0
 11
461.3837163909724
 21
906.2492020460398
 31
0.0
  0
LINE
  5
3A0
330
1F
100
AcDbEntity
  8
C-9
  6
Continuous
 62
     6
370
     5
100
AcDbLine
 10
501.3826111597648
 20
860.6853856661833
 30
0.0
 11
461.3837163909724
 21
894.248865527881
 31
0.0
  0
LINE
  5
3A1
330
1F
100
AcDbEntity
  8
C-9
  6
Continuous
 62
     6
370
     5
100
AcDbLine
 10
501.3826111597648
 20
852.5206138386919
 30
0.0
 11
461.3837163909724
 21
829.426807752332
 31
0.0
  0
LINE
  5
3A2
330
1F
100
AcDbEntity
  8
C-9
  6
Continuous
 62
     6
370
     5
100
AcDbLine
 10
501.3826111597648
 20
864.5209503568508
 30
0.0
 11
461.3837163909724
 21
841.4271442704909
 31
0.0
  0
LINE
  5
3A3
330
1F
100
AcDbEntity
  8
C-9
  6
Continuous
 62
     6
370
     5
100
AcDbLine
 10
501.3826111597648
 20
876.5205445555416
 30
0.0
 11
461.3837163909724
 21
853.427233348827
 31
0.0
  0
LINE
  5
3A4
330
1F
100
AcDbEntity
  8
C-9
  6
Continuous
 62
     6
370
     5
100
AcDbLine
 10
501.3826111597648
 20
888.5203861940549
 30
0.0
 11
461.3837163909724
 21
865.4265801076953
 31
0.0
  0
LINE
  5
3A5
330
1F
100
AcDbEntity
  8
C-9
  6
Continuous
 62
     6
370
     5
100
AcDbLine
 10
501.3826111597648
 20
1020.520623736285
 30
0.0
 11
461.3837163909724
 21
997.4268176499249
 31
0.0
  0
LINE
  5
3A6
330
1F
100
AcDbEntity
  8
C-9
  6
Continuous
 62
     6
370
     5
100
AcDbLine
 10
501.3826111597648
 20
900.5204752723911
 30
0.0
 11
461.3837163909724
 21
877.4269166258541
 31
0.0
  0
LINE
  5
3A7
330
1F
100
AcDbEntity
  8
C-9
  6
Continuous
 62
     6
370
     5
100
AcDbLine
 10
501.3826111597648
 20
912.5208117905499
 30
0.0
 11
461.3837163909724
 21
889.42700570419
 31
0.0
  0
LINE
  5
3A8
330
1F
100
AcDbEntity
  8
C-9
  6
Continuous
 62
     6
370
     5
100
AcDbLine
 10
501.3826111597648
 20
924.5206534290635
 30
0.0
 11
461.3837163909724
 21
901.4268473427036
 31
0.0
  0
LINE
  5
3A9
330
1F
100
AcDbEntity
  8
C-9
  6
Continuous
 62
     6
370
     5
100
AcDbLine
 10
501.3826111597648
 20
936.520495067577
 30
0.0
 11
461.3837163909724
 21
913.4264415413945
 31
0.0
  0
LINE
  5
3AA
330
1F
100
AcDbEntity
  8
C-9
  6
Continuous
 62
     6
370
     5
100
AcDbLine
 10
501.3826111597648
 20
948.5205841459133
 30
0.0
 11
461.3837163909724
 21
925.4267780595534
 31
0.0
  0
LINE
  5
3AB
330
1F
100
AcDbEntity
  8
C-9
  6
Continuous
 62
     6
370
     5
100
AcDbLine
 10
501.3826111597648
 20
960.5204257844265
 30
0.0
 11
461.3837163909724
 21
937.4271145777122
 31
0.0
  0
LINE
  5
3AC
330
1F
100
AcDbEntity
  8
C-9
  6
Continuous
 62
     6
370
     5
100
AcDbLine
 10
501.3826111597648
 20
972.5200199831174
 30
0.0
 11
461.3837163909724
 21
949.4269562162258
 31
0.0
  0
LINE
  5
3AD
330
1F
100
AcDbEntity
  8
C-9
  6
Continuous
 62
     6
370
     5
100
AcDbLine
 10
501.3826111597648
 20
984.5203565012763
 30
0.0
 11
461.3837163909724
 21
961.4265504149166
 31
0.0
  0
LINE
  5
3AE
330
1F
100
AcDbEntity
  8
C-9
  6
Continuous
 62
     6
370
     5
100
AcDbLine
 10
501.3826111597648
 20
996.5206930194352
 30
0.0
 11
461.3837163909724
 21
973.4268869330753
 31
0.0
  0
LINE
  5
3AF
330
1F
100
AcDbEntity
  8
C-9
  6
Continuous
 62
     6
370
     5
100
AcDbLine
 10
501.3826111597648
 20
1008.520534657949
 30
0.0
 11
461.3837163909724
 21
985.4272234512341
 31
0.0
  0
LINE
  5
3B0
330
1F
100
AcDbEntity
  8
C-4
  6
Continuous
 62
     7
370
     9
100
AcDbLine
 10
461.3837163909724
 20
1088.732359642112
 30
0.0
 11
501.3826111597648
 21
1088.732359642112
 31
0.0
  0
LINE
  5
3B1
330
1F
100
AcDbEntity
  8
C-4
  6
Continuous
 62
     7
370
     9
100
AcDbLine
 10
461.3837163909724
 20
1063.503642766057
 30
0.0
 11
461.3837163909724
 21
1091.732320051741
 31
0.0
  0
LINE
  5
3B2
330
1F
100
AcDbEntity
  8
C-4
  6
Continuous
 62
     7
370
     9
100
AcDbLine
 10
501.3826111597648
 20
1046.29395566196
 30
0.0
 11
501.3826111597648
 21
1091.732320051741
 31
0.0
  0
ARC
  5
3B3
330
1F
100
AcDbEntity
  8
C-2
  6
Continuous
 62
     3
370
     9
100
AcDbCircle
 10
457.4157713951956
 20
779.2521977174924
 30
0.0
 40
39.7122589317528
100
AcDbArc
 50
50.82627868652344
 51
129.1737060546875
  0
ARC
  5
3B4
330
1F
100
AcDbEntity
  8
C-2
  6
Continuous
 62
     3
370
     9
100
AcDbCircle
 10
507.586917272518
 20
840.8246283023742
 30
0.0
 40
39.7122589317528
100
AcDbArc
 50
230.8262786865234
 51
309.1737060546875
  0
ARC
  5
3B5
330
1F
100
AcDbEntity
  8
C-2
  6
Continuous
 62
     3
370
     9
100
AcDbCircle
 10
507.586917272518
 20
1070.824644798362
 30
0.0
 40
39.7122589317528
100
AcDbArc
 50
230.8262786865234
 51
309.1737060546875
  0
ARC
  5
3B6
330
1F
100
AcDbEntity
  8
C-2
  6
Continuous
 62
     3
370
     9
100
AcDbCircle
 10
457.4157713951956
 20
1009.251719333835
 30
0.0
 40
39.7122589317528
100
AcDbArc
 50
50.82627868652344
 51
129.1737060546875
  0
TEXT
  5
3B7
330
1F
100
AcDbEntity
  8
C-5
  6
Continuous
 62
     2
370
     9
100
AcDbText
 10
-258.7433687019331
 20
598.4744995016987
 30
0.0
 40
30.48
  1
平面詳細図　Ｓ＝１：１０
 41
1.114583333333333
  7
ＭＳ ゴシック
100
AcDbText
  0
TEXT
  5
3B8
330
1F
100
AcDbEntity
  8
C-4
  6
Continuous
 62
     2
370
     9
100
AcDbText
 10
-133.7801959955352
 20
1160.974252061876
 30
0.0
 40
30.48
  1
25
 41
1.0625
  7
ＭＳ ゴシック
100
AcDbText
  0
TEXT
  5
3B9
330
1F
100
AcDbEntity
  8
C-4
  6
Continuous
 62
     2
370
     9
100
AcDbText
 10
-23.74296455022268
 20
1160.974252061876
 30
0.0
 40
30.48
  1
250
 41
1.083333333333333
  7
ＭＳ ゴシック
100
AcDbText
  0
TEXT
  5
3BA
330
1F
100
AcDbEntity
  8
C-4
  6
Continuous
 62
     2
370
     9
100
AcDbText
 10
111.0774683704911
 20
1160.974252061876
 30
0.0
 40
30.48
  1
25
 41
1.0625
  7
ＭＳ ゴシック
100
AcDbText
  0
TEXT
  5
3BB
330
1F
100
AcDbEntity
  8
C-4
  6
Continuous
 62
     2
370
     9
100
AcDbText
 10
-175.762692102482
 20
1215.973691198278
 30
0.0
 40
30.48
  1
3
 41
0.9999999999999998
  7
ＭＳ ゴシック
100
AcDbText
  0
TEXT
  5
3BC
330
1F
100
AcDbEntity
  8
C-4
  6
Continuous
 62
     2
370
     9
100
AcDbText
 10
-134.6709793570216
 20
1215.973691198278
 30
0.0
 40
30.48
  1
2
 41
0.9999999999999998
  7
ＭＳ ゴシック
100
AcDbText
  0
TEXT
  5
3BD
330
1F
100
AcDbEntity
  8
C-4
  6
Continuous
 62
     2
370
     9
100
AcDbText
 10
-23.74296455022268
 20
1215.973691198278
 30
0.0
 40
30.48
  1
300
 41
1.083333333333333
  7
ＭＳ ゴシック
100
AcDbText
  0
TEXT
  5
3BE
330
1F
100
AcDbEntity
  8
C-4
  6
Continuous
 62
     2
370
     9
100
AcDbText
 10
132.1900237970112
 20
1215.973691198278
 30
0.0
 40
30.48
  1
2
 41
0.9999999999999998
  7
ＭＳ ゴシック
100
AcDbText
  0
TEXT
  5
3BF
330
1F
100
AcDbEntity
  8
C-4
  6
Continuous
 62
     2
370
     9
100
AcDbText
 10
176.525548897307
 20
1215.973691198278
 30
0.0
 40
30.48
  1
3
 41
0.9999999999999998
  7
ＭＳ ゴシック
100
AcDbText
  0
TEXT
  5
3C0
330
1F
100
AcDbEntity
  8
C-4
  6
Continuous
 62
     2
370
     9
100
AcDbText
 10
-23.74296455022268
 20
1270.973872654148
 30
0.0
 40
30.48
  1
310
 41
1.083333333333333
  7
ＭＳ ゴシック
100
AcDbText
  0
TEXT
  5
3C1
330
1F
100
AcDbEntity
  8
C-4
  6
Continuous
 62
     2
370
     9
100
AcDbText
 10
-231.8825191585419
 20
777.7984887595112
 30
0.0
 40
30.48
  1
25
 50
90.0
 41
1.0625
  7
ＭＳ ゴシック
100
AcDbText
  0
TEXT
  5
3C2
330
1F
100
AcDbEntity
  8
C-4
  6
Continuous
 62
     2
370
     9
100
AcDbText
 10
-231.8825191585419
 20
887.8352253251784
 30
0.0
 40
30.48
  1
250
 50
90.0
 41
1.083333333333333
  7
ＭＳ ゴシック
100
AcDbText
  0
TEXT
  5
3C3
330
1F
100
AcDbEntity
  8
C-4
  6
Continuous
 62
     2
370
     9
100
AcDbText
 10
-231.8825191585419
 20
1022.655534525981
 30
0.0
 40
30.48
  1
25
 50
90.0
 41
1.0625
  7
ＭＳ ゴシック
100
AcDbText
  0
TEXT
  5
3C4
330
1F
100
AcDbEntity
  8
C-4
  6
Continuous
 62
     2
370
     9
100
AcDbText
 10
-286.8820820148552
 20
735.8153740530078
 30
0.0
 40
30.48
  1
3
 50
90.0
 41
0.9999999999999998
  7
ＭＳ ゴシック
100
AcDbText
  0
TEXT
  5
3C5
330
1F
100
AcDbEntity
  8
C-4
  6
Continuous
 62
     2
370
     9
100
AcDbText
 10
-286.8820820148552
 20
776.9075816781133
 30
0.0
 40
30.48
  1
2
 50
90.0
 41
0.9999999999999998
  7
ＭＳ ゴシック
100
AcDbText
  0
TEXT
  5
3C6
330
1F
100
AcDbEntity
  8
C-4
  6
Continuous
 62
     2
370
     9
100
AcDbText
 10
-286.8820820148552
 20
887.8352253251784
 30
0.0
 40
30.48
  1
300
 50
90.0
 41
1.083333333333333
  7
ＭＳ ゴシック
100
AcDbText
  0
TEXT
  5
3C7
330
1F
100
AcDbEntity
  8
C-4
  6
Continuous
 62
     2
370
     9
100
AcDbText
 10
-286.8820820148552
 20
1043.768089952501
 30
0.0
 40
30.48
  1
2
 50
90.0
 41
0.9999999999999998
  7
ＭＳ ゴシック
100
AcDbText
  0
TEXT
  5
3C8
330
1F
100
AcDbEntity
  8
C-4
  6
Continuous
 62
     2
370
     9
100
AcDbText
 10
-286.8820820148552
 20
1088.103615052797
 30
0.0
 40
30.48
  1
3
 50
90.0
 41
0.9999999999999998
  7
ＭＳ ゴシック
100
AcDbText
  0
TEXT
  5
3C9
330
1F
100
AcDbEntity
  8
C-4
  6
Continuous
 62
     2
370
     9
100
AcDbText
 10
-341.8821397508138
 20
887.8352253251784
 30
0.0
 40
30.48
  1
310
 50
90.0
 41
1.083333333333333
  7
ＭＳ ゴシック
100
AcDbText
  0
TEXT
  5
3CA
330
1F
100
AcDbEntity
  8
C-4
  6
Continuous
 62
     2
370
     9
100
AcDbText
 10
2.506936473848422
 20
1108.392052552797
 30
0.0
 40
30.48
  1
30
 41
1.0625
  7
ＭＳ ゴシック
100
AcDbText
  0
TEXT
  5
3CB
330
1F
100
AcDbEntity
  8
C-4
  6
Continuous
 62
     2
370
     9
100
AcDbText
 10
-128.743187246063
 20
690.976041876593
 30
0.0
 40
30.48
  1
100
 41
1.083333333333333
  7
ＭＳ ゴシック
100
AcDbText
  0
TEXT
  5
3CC
330
1F
100
AcDbEntity
  8
C-4
  6
Continuous
 62
     2
370
     9
100
AcDbText
 10
81.25626838632705
 20
690.976041876593
 30
0.0
 40
30.48
  1
100
 41
1.083333333333333
  7
ＭＳ ゴシック
100
AcDbText
  0
TEXT
  5
3CD
330
1F
100
AcDbEntity
  8
C-4
  6
Continuous
 62
     2
370
     9
100
AcDbText
 10
-23.743459429868
 20
690.976041876593
 30
0.0
 40
30.48
  1
110
 41
1.083333333333333
  7
ＭＳ ゴシック
100
AcDbText
  0
TEXT
  5
3CE
330
1F
100
AcDbEntity
  8
C-5
  6
Continuous
 62
     7
370
     9
100
AcDbText
 10
596.7743743829486
 20
1031.707146909849
 30
0.0
 40
22.86
  1
ローレット模様
 41
1.142857142857143
  7
ＭＳ ゴシック
100
AcDbText
  0
TEXT
  5
3CF
330
1F
100
AcDbEntity
  8
C-5
  6
Continuous
 62
     7
370
     9
100
AcDbText
 10
260.1953454027969
 20
751.2657802502206
 30
0.0
 40
22.86
  1
メインバー表面　Ｓ＝１：１
 41
1.153846153846153
  7
ＭＳ ゴシック
100
AcDbText
  0
TEXT
  5
3D0
330
1F
100
AcDbEntity
  8
C-4
  6
Continuous
 62
     2
370
     9
100
AcDbText
 10
471.383007063481
 20
1099.372128698278
 30
0.0
 40
30.48
  1
4
 41
0.9999999999999998
  7
ＭＳ ゴシック
100
AcDbText
  0
LINE
  5
3D1
330
1F
100
AcDbEntity
  8
C-A
  6
Continuous
 62
     3
370
     9
100
AcDbLine
 10
72.50633437027993
 20
1080.334987595295
 30
0.0
 11
71.25633437027993
 21
1080.334987595295
 31
0.0
  0
LINE
  5
3D2
330
1F
100
AcDbEntity
  8
C-A
  6
Continuous
 62
     3
370
     9
100
AcDbLine
 10
72.50633437027993
 20
1080.334987595295
 30
0.0
 11
72.50633437027993
 21
1109.334971859669
 31
0.0
  0
LINE
  5
3D3
330
1F
100
AcDbEntity
  8
C-A
  6
Continuous
 62
     3
370
     9
100
AcDbLine
 10
71.25166518082771
 20
1076.334974243853
 30
0.0
 11
71.76481825699959
 21
1076.334974243853
 31
0.0
  0
LINE
  5
3D4
330
1F
100
AcDbEntity
  8
C-A
  6
Continuous
 62
     3
370
     9
100
AcDbLine
 10
55.75639540543754
 20
1076.334974243853
 30
0.0
 11
56.25636488785851
 21
1076.334974243853
 31
0.0
  0
LINE
  5
3D5
330
1F
100
AcDbEntity
  8
C-A
  6
Continuous
 62
     3
370
     9
100
AcDbLine
 10
55.00627333512504
 20
1080.334987595295
 30
0.0
 11
56.25624281754646
 21
1080.334987595295
 31
0.0
  0
LINE
  5
3D6
330
1F
100
AcDbEntity
  8
C-A
  6
Continuous
 62
     3
370
     9
100
AcDbLine
 10
55.00627333512504
 20
1080.334987595295
 30
0.0
 11
55.00627333512504
 21
1109.334971859669
 31
0.0
  0
LINE
  5
3D7
330
1F
100
AcDbEntity
  8
C-A
  6
Continuous
 62
     3
370
     9
100
AcDbLine
 10
72.50633437027993
 20
1109.334971859669
 30
0.0
 11
55.00627333512504
 21
1109.334971859669
 31
0.0
  0
LINE
  5
3D8
330
1F
100
AcDbEntity
  8
C-A
  6
JWW_DASHED2
 62
     3
370
     9
100
AcDbLine
 10
70.50630385270317
 20
1080.189072087023
 30
0.0
 11
70.50630385270317
 21
1109.334971859669
 31
0.0
  0
LINE
  5
3D9
330
1F
100
AcDbEntity
  8
C-A
  6
JWW_DASHED2
 62
     3
370
     9
100
AcDbLine
 10
57.00627333512323
 20
1080.189072087023
 30
0.0
 11
57.00627333512323
 21
1109.334971859669
 31
0.0
  0
LINE
  5
3DA
330
1F
100
AcDbEntity
  8
C-A
  6
JWW_CENTER2
 62
     7
370
     9
100
AcDbLine
 10
63.75633437027993
 20
1066.866793110582
 30
0.0
 11
63.75633437027993
 21
1114.267192318653
 31
0.0
  0
LINE
  5
3DB
330
1F
100
AcDbEntity
  8
C-A
  6
JWW_CENTER2
 62
     7
370
     9
100
AcDbLine
 10
57.98033339371834
 20
1099.3349260833
 30
0.0
 11
69.5323658644201
 21
1099.3349260833
 31
0.0
  0
ARC
  5
3DC
330
1F
100
AcDbEntity
  8
C-A
  6
Continuous
 62
     3
370
     9
100
AcDbCircle
 10
71.75639540543663
 20
1074.334992363665
 30
0.0
 40
1.999999642372131
100
AcDbArc
 50
29.99926757812499
 51
89.75836181640624
  0
ARC
  5
3DD
330
1F
100
AcDbEntity
  8
C-A
  6
Continuous
 62
     3
370
     9
100
AcDbCircle
 10
71.25633437027993
 20
1078.334968521808
 30
0.0
 40
1.999999642372131
100
AcDbArc
 50
90.0
 51
269.86669921875
  0
ARC
  5
3DE
330
1F
100
AcDbEntity
  8
C-A
  6
Continuous
 62
     3
370
     9
100
AcDbCircle
 10
55.75639540543754
 20
1074.334992363665
 30
0.0
 40
1.999999642372131
100
AcDbArc
 50
90.2759552001953
 51
150.0004730224609
  0
ARC
  5
3DF
330
1F
100
AcDbEntity
  8
C-A
  6
Continuous
 62
     3
370
     9
100
AcDbCircle
 10
56.25624281754646
 20
1078.334968521808
 30
0.0
 40
1.999999642372131
100
AcDbArc
 50
270.0
 51
90.0
  0
CIRCLE
  5
3E0
330
1F
100
AcDbEntity
  8
C-A
  6
Continuous
 62
     3
370
     9
100
AcDbCircle
 10
63.75633437027993
 20
1099.3349260833
 30
0.0
 40
4.249999523162842
  0
LINE
  5
3E1
330
1F
100
AcDbEntity
  8
C-A
  6
Continuous
 62
     3
370
     9
100
AcDbLine
 10
72.50633437027993
 20
760.334505680064
 30
0.0
 11
71.25633437027993
 21
760.334505680064
 31
0.0
  0
LINE
  5
3E2
330
1F
100
AcDbEntity
  8
C-A
  6
Continuous
 62
     3
370
     9
100
AcDbLine
 10
72.50633437027993
 20
760.334505680064
 30
0.0
 11
72.50633437027993
 21
731.3345209388535
 31
0.0
  0
LINE
  5
3E3
330
1F
100
AcDbEntity
  8
C-A
  6
Continuous
 62
     3
370
     9
100
AcDbLine
 10
71.25166518082771
 20
764.3345209388531
 30
0.0
 11
71.76481825699959
 21
764.3345209388531
 31
0.0
  0
LINE
  5
3E4
330
1F
100
AcDbEntity
  8
C-A
  6
Continuous
 62
     3
370
     9
100
AcDbLine
 10
55.75639540543754
 20
764.3345209388531
 30
0.0
 11
56.25636488785851
 21
764.3345209388531
 31
0.0
  0
LINE
  5
3E5
330
1F
100
AcDbEntity
  8
C-A
  6
Continuous
 62
     3
370
     9
100
AcDbLine
 10
55.00627333512504
 20
760.334505680064
 30
0.0
 11
56.25624281754646
 21
760.334505680064
 31
0.0
  0
LINE
  5
3E6
330
1F
100
AcDbEntity
  8
C-A
  6
Continuous
 62
     3
370
     9
100
AcDbLine
 10
55.00627333512504
 20
760.334505680064
 30
0.0
 11
55.00627333512504
 21
731.3345209388535
 31
0.0
  0
LINE
  5
3E7
330
1F
100
AcDbEntity
  8
C-A
  6
Continuous
 62
     3
370
     9
100
AcDbLine
 10
72.50633437027993
 20
731.3345209388535
 30
0.0
 11
55.00627333512504
 21
731.3345209388535
 31
0.0
  0
LINE
  5
3E8
330
1F
100
AcDbEntity
  8
C-A
  6
JWW_DASHED2
 62
     3
370
     9
100
AcDbLine
 10
70.50630385270317
 20
760.4804102210801
 30
0.0
 11
70.50630385270317
 21
731.3345209388535
 31
0.0
  0
LINE
  5
3E9
330
1F
100
AcDbEntity
  8
C-A
  6
JWW_DASHED2
 62
     3
370
     9
100
AcDbLine
 10
57.00627333512323
 20
760.4804102210801
 30
0.0
 11
57.00627333512323
 21
731.3345209388535
 31
0.0
  0
LINE
  5
3EA
330
1F
100
AcDbEntity
  8
C-A
  6
JWW_CENTER2
 62
     7
370
     9
100
AcDbLine
 10
57.98033339371834
 20
741.3345667152203
 30
0.0
 11
69.5323658644201
 21
741.3345667152203
 31
0.0
  0
LINE
  5
3EB
330
1F
100
AcDbEntity
  8
C-A
  6
JWW_CENTER2
 62
     7
370
     9
100
AcDbLine
 10
63.75633437027993
 20
773.8026911048701
 30
0.0
 11
63.75633437027993
 21
726.4023004798696
 31
0.0
  0
ARC
  5
3EC
330
1F
100
AcDbEntity
  8
C-A
  6
Continuous
 62
     3
370
     9
100
AcDbCircle
 10
71.75639540543663
 20
766.334490421275
 30
0.0
 40
1.999999642372131
100
AcDbArc
 50
270.2416229248047
 51
330.0007171630859
  0
ARC
  5
3ED
330
1F
100
AcDbEntity
  8
C-A
  6
Continuous
 62
     3
370
     9
100
AcDbCircle
 10
71.25633437027993
 20
762.3345209388549
 30
0.0
 40
1.999999642372131
100
AcDbArc
 50
90.13328552246095
 51
270.0
  0
ARC
  5
3EE
330
1F
100
AcDbEntity
  8
C-A
  6
Continuous
 62
     3
370
     9
100
AcDbCircle
 10
55.75639540543754
 20
766.334490421275
 30
0.0
 40
1.999999642372131
100
AcDbArc
 50
209.99951171875
 51
269.7240295410157
  0
ARC
  5
3EF
330
1F
100
AcDbEntity
  8
C-A
  6
Continuous
 62
     3
370
     9
100
AcDbCircle
 10
56.25624281754646
 20
762.3345209388549
 30
0.0
 40
1.999999642372131
100
AcDbArc
 50
270.0
 51
90.0
  0
CIRCLE
  5
3F0
330
1F
100
AcDbEntity
  8
C-A
  6
Continuous
 62
     3
370
     9
100
AcDbCircle
 10
63.75633437027993
 20
741.3345667152203
 30
0.0
 40
4.249999523162842
  0
LINE
  5
3F1
330
1F
100
AcDbEntity
  8
C-A
  6
Continuous
 62
     3
370
     9
100
AcDbLine
 10
-37.49378110163726
 20
1080.334987595295
 30
0.0
 11
-38.74378110163726
 21
1080.334987595295
 31
0.0
  0
LINE
  5
3F2
330
1F
100
AcDbEntity
  8
C-A
  6
Continuous
 62
     3
370
     9
100
AcDbLine
 10
-37.49378110163726
 20
1080.334987595295
 30
0.0
 11
-37.49378110163726
 21
1109.334971859669
 31
0.0
  0
LINE
  5
3F3
330
1F
100
AcDbEntity
  8
C-A
  6
Continuous
 62
     3
370
     9
100
AcDbLine
 10
-38.74845029108948
 20
1076.334974243853
 30
0.0
 11
-38.2352972149176
 21
1076.334974243853
 31
0.0
  0
LINE
  5
3F4
330
1F
100
AcDbEntity
  8
C-A
  6
Continuous
 62
     3
370
     9
100
AcDbLine
 10
-54.24372006647964
 20
1076.334974243853
 30
0.0
 11
-53.74375058405867
 21
1076.334974243853
 31
0.0
  0
LINE
  5
3F5
330
1F
100
AcDbEntity
  8
C-A
  6
Continuous
 62
     3
370
     9
100
AcDbLine
 10
-54.99384213679214
 20
1080.334987595295
 30
0.0
 11
-53.74387265437072
 21
1080.334987595295
 31
0.0
  0
LINE
  5
3F6
330
1F
100
AcDbEntity
  8
C-A
  6
Continuous
 62
     3
370
     9
100
AcDbLine
 10
-54.99384213679214
 20
1080.334987595295
 30
0.0
 11
-54.99384213679214
 21
1109.334971859669
 31
0.0
  0
LINE
  5
3F7
330
1F
100
AcDbEntity
  8
C-A
  6
Continuous
 62
     3
370
     9
100
AcDbLine
 10
-37.49378110163726
 20
1109.334971859669
 30
0.0
 11
-54.99384213679214
 21
1109.334971859669
 31
0.0
  0
LINE
  5
3F8
330
1F
100
AcDbEntity
  8
C-A
  6
JWW_DASHED2
 62
     3
370
     9
100
AcDbLine
 10
-39.49381161921402
 20
1080.189072087023
 30
0.0
 11
-39.49381161921402
 21
1109.334971859669
 31
0.0
  0
LINE
  5
3F9
330
1F
100
AcDbEntity
  8
C-A
  6
JWW_DASHED2
 62
     3
370
     9
100
AcDbLine
 10
-52.99384213679396
 20
1080.189072087023
 30
0.0
 11
-52.99384213679396
 21
1109.334971859669
 31
0.0
  0
LINE
  5
3FA
330
1F
100
AcDbEntity
  8
C-A
  6
JWW_CENTER2
 62
     7
370
     9
100
AcDbLine
 10
-46.24378110163725
 20
1066.866793110582
 30
0.0
 11
-46.24378110163725
 21
1114.267192318653
 31
0.0
  0
LINE
  5
3FB
330
1F
100
AcDbEntity
  8
C-A
  6
JWW_CENTER2
 62
     7
370
     9
100
AcDbLine
 10
-52.01978207819884
 20
1099.3349260833
 30
0.0
 11
-40.46774960749708
 21
1099.3349260833
 31
0.0
  0
ARC
  5
3FC
330
1F
100
AcDbEntity
  8
C-A
  6
Continuous
 62
     3
370
     9
100
AcDbCircle
 10
-38.24372006648056
 20
1074.334992363665
 30
0.0
 40
1.999999642372131
100
AcDbArc
 50
29.99926757812499
 51
89.75836181640624
  0
ARC
  5
3FD
330
1F
100
AcDbEntity
  8
C-A
  6
Continuous
 62
     3
370
     9
100
AcDbCircle
 10
-38.74378110163726
 20
1078.334968521808
 30
0.0
 40
1.999999642372131
100
AcDbArc
 50
90.0
 51
269.86669921875
  0
ARC
  5
3FE
330
1F
100
AcDbEntity
  8
C-A
  6
Continuous
 62
     3
370
     9
100
AcDbCircle
 10
-54.24372006647964
 20
1074.334992363665
 30
0.0
 40
1.999999642372131
100
AcDbArc
 50
90.2759552001953
 51
150.0004730224609
  0
ARC
  5
3FF
330
1F
100
AcDbEntity
  8
C-A
  6
Continuous
 62
     3
370
     9
100
AcDbCircle
 10
-53.74387265437072
 20
1078.334968521808
 30
0.0
 40
1.999999642372131
100
AcDbArc
 50
270.0
 51
90.0
  0
CIRCLE
  5
400
330
1F
100
AcDbEntity
  8
C-A
  6
Continuous
 62
     3
370
     9
100
AcDbCircle
 10
-46.24378110163725
 20
1099.3349260833
 30
0.0
 40
4.249999523162842
  0
LINE
  5
401
330
1F
100
AcDbEntity
  8
C-A
  6
Continuous
 62
     3
370
     9
100
AcDbLine
 10
-37.49378110163726
 20
760.334505680064
 30
0.0
 11
-38.74378110163726
 21
760.334505680064
 31
0.0
  0
LINE
  5
402
330
1F
100
AcDbEntity
  8
C-A
  6
Continuous
 62
     3
370
     9
100
AcDbLine
 10
-37.49378110163726
 20
760.334505680064
 30
0.0
 11
-37.49378110163726
 21
731.3345209388535
 31
0.0
  0
LINE
  5
403
330
1F
100
AcDbEntity
  8
C-A
  6
Continuous
 62
     3
370
     9
100
AcDbLine
 10
-38.74845029108948
 20
764.3345209388531
 30
0.0
 11
-38.2352972149176
 21
764.3345209388531
 31
0.0
  0
LINE
  5
404
330
1F
100
AcDbEntity
  8
C-A
  6
Continuous
 62
     3
370
     9
100
AcDbLine
 10
-54.24372006647964
 20
764.3345209388531
 30
0.0
 11
-53.74375058405867
 21
764.3345209388531
 31
0.0
  0
LINE
  5
405
330
1F
100
AcDbEntity
  8
C-A
  6
Continuous
 62
     3
370
     9
100
AcDbLine
 10
-54.99384213679214
 20
760.334505680064
 30
0.0
 11
-53.74387265437072
 21
760.334505680064
 31
0.0
  0
LINE
  5
406
330
1F
100
AcDbEntity
  8
C-A
  6
Continuous
 62
     3
370
     9
100
AcDbLine
 10
-54.99384213679214
 20
760.334505680064
 30
0.0
 11
-54.99384213679214
 21
731.3345209388535
 31
0.0
  0
LINE
  5
407
330
1F
100
AcDbEntity
  8
C-A
  6
Continuous
 62
     3
370
     9
100
AcDbLine
 10
-37.49378110163726
 20
731.3345209388535
 30
0.0
 11
-54.99384213679214
 21
731.3345209388535
 31
0.0
  0
LINE
  5
408
330
1F
100
AcDbEntity
  8
C-A
  6
JWW_DASHED2
 62
     3
370
     9
100
AcDbLine
 10
-39.49381161921402
 20
760.4804102210801
 30
0.0
 11
-39.49381161921402
 21
731.3345209388535
 31
0.0
  0
LINE
  5
409
330
1F
100
AcDbEntity
  8
C-A
  6
JWW_DASHED2
 62
     3
370
     9
100
AcDbLine
 10
-52.99384213679396
 20
760.4804102210801
 30
0.0
 11
-52.99384213679396
 21
731.3345209388535
 31
0.0
  0
LINE
  5
40A
330
1F
100
AcDbEntity
  8
C-A
  6
JWW_CENTER2
 62
     7
370
     9
100
AcDbLine
 10
-52.01978207819884
 20
741.3345667152203
 30
0.0
 11
-40.46774960749708
 21
741.3345667152203
 31
0.0
  0
LINE
  5
40B
330
1F
100
AcDbEntity
  8
C-A
  6
JWW_CENTER2
 62
     7
370
     9
100
AcDbLine
 10
-46.24378110163725
 20
773.8026911048701
 30
0.0
 11
-46.24378110163725
 21
726.4023004798696
 31
0.0
  0
ARC
  5
40C
330
1F
100
AcDbEntity
  8
C-A
  6
Continuous
 62
     3
370
     9
100
AcDbCircle
 10
-38.24372006648056
 20
766.334490421275
 30
0.0
 40
1.999999642372131
100
AcDbArc
 50
270.2416229248047
 51
330.0007171630859
  0
ARC
  5
40D
330
1F
100
AcDbEntity
  8
C-A
  6
Continuous
 62
     3
370
     9
100
AcDbCircle
 10
-38.74378110163726
 20
762.3345209388549
 30
0.0
 40
1.999999642372131
100
AcDbArc
 50
90.13328552246095
 51
270.0
  0
ARC
  5
40E
330
1F
100
AcDbEntity
  8
C-A
  6
Continuous
 62
     3
370
     9
100
AcDbCircle
 10
-54.24372006647964
 20
766.334490421275
 30
0.0
 40
1.999999642372131
100
AcDbArc
 50
209.99951171875
 51
269.7240295410157
  0
ARC
  5
40F
330
1F
100
AcDbEntity
  8
C-A
  6
Continuous
 62
     3
370
     9
100
AcDbCircle
 10
-53.74387265437072
 20
762.3345209388549
 30
0.0
 40
1.999999642372131
100
AcDbArc
 50
270.0
 51
90.0
  0
CIRCLE
  5
410
330
1F
100
AcDbEntity
  8
C-A
  6
Continuous
 62
     3
370
     9
100
AcDbCircle
 10
-46.24378110163725
 20
741.3345667152203
 30
0.0
 40
4.249999523162842
  0
LINE
  5
411
330
1F
100
AcDbEntity
  8
D-5
  6
Continuous
 62
     7
370
     9
100
AcDbLine
 10
-406.6554675231106
 20
-266.815681973018
 30
0.0
 11
-25.66666666666663
 21
-266.815681973018
 31
0.0
  0
TEXT
  5
412
330
1F
100
AcDbEntity
  8
D-5
  6
Continuous
 62
     3
370
     9
100
AcDbText
 10
249.2417619035052
 20
-476.2434487832558
 30
0.0
 40
38.1
  1
※適用荷重：歩行用
 41
1.088888888888889
  7
ＭＳ ゴシック
100
AcDbText
  0
LINE
  5
413
330
1F
100
AcDbEntity
  8
C-5
  6
Continuous
 62
     7
370
     9
100
AcDbLine
 10
589.7000698538101
 20
1020.40185262142
 30
0.0
 11
836.7743743829487
 21
1020.40185262142
 31
0.0
  0
ENDSEC
  0
SECTION
  2
OBJECTS
  0
DICTIONARY
  5
C
330
0
100
AcDbDictionary
281
     1
  3
ACAD_DETAILVIEWSTYLE
350
459
  3
ACAD_GROUP
350
D
  3
ACAD_LAYOUT
350
1A
  3
ACAD_MATERIAL
350
43
  3
ACAD_MLEADERSTYLE
350
6B
  3
ACAD_MLINESTYLE
350
17
  3
ACAD_PLOTSETTINGS
350
19
  3
ACAD_PLOTSTYLENAME
350
E
  3
ACAD_SCALELIST
350
47
  3
ACAD_SECTIONVIEWSTYLE
350
45A
  3
ACAD_TABLESTYLE
350
69
  3
ACAD_VISUALSTYLE
350
2A
  3
ACDB_RECOMPOSE_DATA
350
456
  3
AcDbVariableDictionary
350
416
  0
DICTIONARY
  5
414
330
8
100
AcDbDictionary
280
     1
281
     1
  3
ACAD_XREC_ROUNDTRIP
360
415
  0
DICTIONARY
  5
459
102
{ACAD_REACTORS
330
C
102
}
330
C
100
AcDbDictionary
281
     1
  0
DICTIONARY
  5
D
102
{ACAD_REACTORS
330
C
102
}
330
C
100
AcDbDictionary
281
     1
  0
DICTIONARY
  5
1A
102
{ACAD_REACTORS
330
C
102
}
330
C
100
AcDbDictionary
281
     1
  3
Layout1
350
1E
  3
Layout2
350
26
  3
Model
350
22
  0
DICTIONARY
  5
43
102
{ACAD_REACTORS
330
C
102
}
330
C
100
AcDbDictionary
281
     1
  3
ByBlock
350
45
  3
ByLayer
350
44
  3
Global
350
46
  0
DICTIONARY
  5
6B
102
{ACAD_REACTORS
330
C
102
}
330
C
100
AcDbDictionary
281
     1
  3
Standard
350
6C
  0
DICTIONARY
  5
17
102
{ACAD_REACTORS
330
C
102
}
330
C
100
AcDbDictionary
281
     1
  3
Standard
350
18
  0
DICTIONARY
  5
19
102
{ACAD_REACTORS
330
C
102
}
330
C
100
AcDbDictionary
281
     1
  0
ACDBDICTIONARYWDFLT
  5
E
102
{ACAD_REACTORS
330
C
102
}
330
C
100
AcDbDictionary
281
     1
  3
Normal
350
F
100
AcDbDictionaryWithDefault
340
F
  0
DICTIONARY
  5
47
102
{ACAD_REACTORS
330
C
102
}
330
C
100
AcDbDictionary
281
     1
  3
A0
350
48
  3
A1
350
49
  3
A2
350
4A
  3
A3
350
4B
  3
A4
350
4C
  3
A5
350
4D
  3
A6
350
4E
  3
A7
350
4F
  3
A8
350
50
  3
A9
350
51
  3
B0
350
52
  3
B1
350
53
  3
B2
350
54
  3
B3
350
55
  3
B4
350
56
  3
B5
350
57
  3
B6
350
58
  3
B7
350
59
  3
B8
350
5A
  3
B9
350
5B
  3
C0
350
5C
  3
C1
350
5D
  3
C2
350
5E
  3
C3
350
5F
  3
C4
350
60
  3
C5
350
61
  3
C6
350
62
  3
C7
350
63
  3
C8
350
64
  3
C9
350
65
  3
D0
350
66
  3
D1
350
67
  3
D2
350
68
  0
DICTIONARY
  5
45A
102
{ACAD_REACTORS
330
C
102
}
330
C
100
AcDbDictionary
281
     1
  0
DICTIONARY
  5
69
102
{ACAD_REACTORS
330
C
102
}
330
C
100
AcDbDictionary
281
     1
  3
Standard
350
6A
  0
DICTIONARY
  5
2A
102
{ACAD_REACTORS
330
C
102
}
330
C
100
AcDbDictionary
281
     1
  3
2dWireframe
350
2F
  3
Basic
350
32
  3
Brighten
350
36
  3
ColorChange
350
3A
  3
Conceptual
350
34
  3
Dim
350
35
  3
EdgeColorOff
350
3D
  3
Facepattern
350
39
  3
Flat
350
2B
  3
FlatWithEdges
350
2C
  3
Gouraud
350
2D
  3
GouraudWithEdges
350
2E
  3
Hidden
350
31
  3
JitterOff
350
3B
  3
Linepattern
350
38
  3
OverhangOff
350
3C
  3
Realistic
350
33
  3
Shaded
350
42
  3
Shaded with edges
350
41
  3
Shades of Gray
350
3E
  3
Sketchy
350
3F
  3
Thicken
350
37
  3
Wireframe
350
30
  3
X-Ray
350
40
  0
XRECORD
  5
456
102
{ACAD_REACTORS
330
C
102
}
330
C
100
AcDbXrecord
280
     1
 90
        1
330
6A
  0
DICTIONARY
  5
416
102
{ACAD_REACTORS
330
C
102
}
330
C
100
AcDbDictionary
281
     1
  3
CANNOSCALE
350
417
  3
CENTEREXE
350
45B
  3
CENTERLTYPEFILE
350
45C
  3
CMLEADERSTYLE
350
458
  3
CTABLESTYLE
350
457
  3
MSLTSCALE
350
418
  3
XCLIPFRAME
350
419
  0
XRECORD
  5
415
102
{ACAD_REACTORS
330
414
102
}
330
414
100
AcDbXrecord
280
     1
102
VTR_0.000_0.000_1.000_1.000_VISUALSTYLE
340
2F
102
VTR_0.000_0.000_1.000_1.000_GRIDDISPLAY
 70
     3
102
VTR_0.000_0.000_1.000_1.000_GRIDMAJOR
 70
     5
102
VTR_0.000_0.000_1.000_1.000_DEFAULTLIGHTING
280
     1
102
VTR_0.000_0.000_1.000_1.000_DEFAULTLIGHTINGTYPE
 70
     1
102
VTR_0.000_0.000_1.000_1.000_BRIGHTNESS
141
0.0
102
VTR_0.000_0.000_1.000_1.000_CONTRAST
142
0.0
  0
LAYOUT
  5
1E
102
{ACAD_REACTORS
330
1A
102
}
330
1A
100
AcDbPlotSettings
  1

  2
none_device
  4

  6

 40
0.0
 41
0.0
 42
0.0
 43
0.0
 44
0.0
 45
0.0
 46
0.0
 47
0.0
 48
0.0
 49
0.0
140
0.0
141
0.0
142
1.0
143
1.0
 70
   688
 72
     1
 73
     0
 74
     5
  7

 75
    16
 76
     0
 77
     5
 78
   300
147
1.0
148
0.0
149
0.0
100
AcDbLayout
  1
Layout1
 70
     1
 71
     1
 10
0.0
 20
0.0
 11
420.0
 21
297.0
 12
0.0
 22
0.0
 32
0.0
 14
1.000000000000000E+20
 24
1.000000000000000E+20
 34
1.000000000000000E+20
 15
-1.000000000000000E+20
 25
-1.000000000000000E+20
 35
-1.000000000000000E+20
146
0.0
 13
0.0
 23
0.0
 33
0.0
 16
1.0
 26
0.0
 36
0.0
 17
0.0
 27
1.0
 37
0.0
 76
     0
330
1B
  0
LAYOUT
  5
26
102
{ACAD_REACTORS
330
1A
102
}
330
1A
100
AcDbPlotSettings
  1

  2
none_device
  4

  6

 40
0.0
 41
0.0
 42
0.0
 43
0.0
 44
0.0
 45
0.0
 46
0.0
 47
0.0
 48
0.0
 49
0.0
140
0.0
141
0.0
142
1.0
143
1.0
 70
   688
 72
     1
 73
     0
 74
     5
  7

 75
    16
 76
     0
 77
     5
 78
   300
147
1.0
148
0.0
149
0.0
100
AcDbLayout
  1
Layout2
 70
     1
 71
     2
 10
0.0
 20
0.0
 11
0.0
 21
0.0
 12
0.0
 22
0.0
 32
0.0
 14
0.0
 24
0.0
 34
0.0
 15
0.0
 25
0.0
 35
0.0
146
0.0
 13
0.0
 23
0.0
 33
0.0
 16
1.0
 26
0.0
 36
0.0
 17
0.0
 27
1.0
 37
0.0
 76
     0
330
23
  0
LAYOUT
  5
22
102
{ACAD_REACTORS
330
1A
102
}
330
1A
100
AcDbPlotSettings
  1

  2
none_device
  4
Letter_(8.50_x_11.00_Inches)
  6

 40
6.35
 41
6.35
 42
6.35000508
 43
6.35000508
 44
215.9
 45
279.4
 46
0.0
 47
0.0
 48
0.0
 49
0.0
140
0.0
141
0.0
142
1.0
143
1.0
 70
  1712
 72
     1
 73
     0
 74
     0
  7

 75
     0
 76
     0
 77
     5
 78
   300
147
1.0
148
0.0
149
0.0
100
AcDbLayout
  1
Model
 70
     1
 71
     0
 10
-2100.0
 20
-1485.0
 11
2100.0
 21
1485.0
 12
0.0
 22
0.0
 32
0.0
 14
-2100.0
 24
-1485.0
 34
0.0
 15
2100.0
 25
1485.0
 35
0.0
146
0.0
 13
0.0
 23
0.0
 33
0.0
 16
1.0
 26
0.0
 36
0.0
 17
0.0
 27
1.0
 37
0.0
 76
     0
330
1F
331
29
  0
MATERIAL
  5
45
102
{ACAD_REACTORS
330
43
102
}
102
{ACAD_XDICTIONARY
360
44C
102
}
330
43
100
AcDbMaterial
  1
ByBlock
  0
MATERIAL
  5
44
102
{ACAD_REACTORS
330
43
102
}
102
{ACAD_XDICTIONARY
360
44A
102
}
330
43
100
AcDbMaterial
  1
ByLayer
  0
MATERIAL
  5
46
102
{ACAD_REACTORS
330
43
102
}
102
{ACAD_XDICTIONARY
360
44E
102
}
330
43
100
AcDbMaterial
  1
Global
  0
MLEADERSTYLE
  5
6C
102
{ACAD_REACTORS
330
6B
102
}
102
{ACAD_XDICTIONARY
360
454
102
}
330
6B
100
AcDbMLeaderStyle
170
     2
171
     1
172
     0
 90
        2
 40
0.0
 41
0.0
173
     1
 91
-1056964608
340
14
 92
       -2
290
     1
 42
2.0
291
     1
 43
8.0
  3
Standard
341
0
 44
4.0
300

342
11
174
     1
178
     6
175
     1
176
     0
 93
-1056964608
 45
4.0
292
     0
297
     0
 46
4.0
343
0
 94
-1056964608
 47
1.0
 49
1.0
140
1.0
293
     1
141
0.0
294
     1
177
     0
142
1.0
295
     0
296
     0
143
3.75
1001
ACAD_MLEADERVER
1070
     2
  0
MLINESTYLE
  5
18
102
{ACAD_REACTORS
330
17
102
}
330
17
100
AcDbMlineStyle
  2
Standard
 70
     0
  3

 62
   256
 51
90.0
 52
90.0
 71
     2
 49
0.5
 62
   256
  6
BYLAYER
 49
-0.5
 62
   256
  6
BYLAYER
  0
ACDBPLACEHOLDER
  5
F
102
{ACAD_REACTORS
330
E
102
}
330
E
  0
SCALE
  5
48
102
{ACAD_REACTORS
330
47
102
}
330
47
100
AcDbScale
 70
     0
300
1:1
140
1.0
141
1.0
290
     1
  0
SCALE
  5
49
102
{ACAD_REACTORS
330
47
102
}
330
47
100
AcDbScale
 70
     0
300
1:2
140
1.0
141
2.0
290
     0
  0
SCALE
  5
4A
102
{ACAD_REACTORS
330
47
102
}
330
47
100
AcDbScale
 70
     0
300
1:4
140
1.0
141
4.0
290
     0
  0
SCALE
  5
4B
102
{ACAD_REACTORS
330
47
102
}
330
47
100
AcDbScale
 70
     0
300
1:5
140
1.0
141
5.0
290
     0
  0
SCALE
  5
4C
102
{ACAD_REACTORS
330
47
102
}
330
47
100
AcDbScale
 70
     0
300
1:8
140
1.0
141
8.0
290
     0
  0
SCALE
  5
4D
102
{ACAD_REACTORS
330
47
102
}
330
47
100
AcDbScale
 70
     0
300
1:10
140
1.0
141
10.0
290
     0
  0
SCALE
  5
4E
102
{ACAD_REACTORS
330
47
102
}
330
47
100
AcDbScale
 70
     0
300
1:16
140
1.0
141
16.0
290
     0
  0
SCALE
  5
4F
102
{ACAD_REACTORS
330
47
102
}
330
47
100
AcDbScale
 70
     0
300
1:20
140
1.0
141
20.0
290
     0
  0
SCALE
  5
50
102
{ACAD_REACTORS
330
47
102
}
330
47
100
AcDbScale
 70
     0
300
1:30
140
1.0
141
30.0
290
     0
  0
SCALE
  5
51
102
{ACAD_REACTORS
330
47
102
}
330
47
100
AcDbScale
 70
     0
300
1:40
140
1.0
141
40.0
290
     0
  0
SCALE
  5
52
102
{ACAD_REACTORS
330
47
102
}
330
47
100
AcDbScale
 70
     0
300
1:50
140
1.0
141
50.0
290
     0
  0
SCALE
  5
53
102
{ACAD_REACTORS
330
47
102
}
330
47
100
AcDbScale
 70
     0
300
1:100
140
1.0
141
100.0
290
     0
  0
SCALE
  5
54
102
{ACAD_REACTORS
330
47
102
}
330
47
100
AcDbScale
 70
     0
300
2:1
140
2.0
141
1.0
290
     0
  0
SCALE
  5
55
102
{ACAD_REACTORS
330
47
102
}
330
47
100
AcDbScale
 70
     0
300
4:1
140
4.0
141
1.0
290
     0
  0
SCALE
  5
56
102
{ACAD_REACTORS
330
47
102
}
330
47
100
AcDbScale
 70
     0
300
8:1
140
8.0
141
1.0
290
     0
  0
SCALE
  5
57
102
{ACAD_REACTORS
330
47
102
}
330
47
100
AcDbScale
 70
     0
300
10:1
140
10.0
141
1.0
290
     0
  0
SCALE
  5
58
102
{ACAD_REACTORS
330
47
102
}
330
47
100
AcDbScale
 70
     0
300
100:1
140
100.0
141
1.0
290
     0
  0
SCALE
  5
59
102
{ACAD_REACTORS
330
47
102
}
330
47
100
AcDbScale
 70
     0
300
1/128" = 1'-0"
140
0.0078125
141
12.0
290
     0
  0
SCALE
  5
5A
102
{ACAD_REACTORS
330
47
102
}
330
47
100
AcDbScale
 70
     0
300
1/64" = 1'-0"
140
0.015625
141
12.0
290
     0
  0
SCALE
  5
5B
102
{ACAD_REACTORS
330
47
102
}
330
47
100
AcDbScale
 70
     0
300
1/32" = 1'-0"
140
0.03125
141
12.0
290
     0
  0
SCALE
  5
5C
102
{ACAD_REACTORS
330
47
102
}
330
47
100
AcDbScale
 70
     0
300
1/16" = 1'-0"
140
0.0625
141
12.0
290
     0
  0
SCALE
  5
5D
102
{ACAD_REACTORS
330
47
102
}
330
47
100
AcDbScale
 70
     0
300
3/32" = 1'-0"
140
0.09375
141
12.0
290
     0
  0
SCALE
  5
5E
102
{ACAD_REACTORS
330
47
102
}
330
47
100
AcDbScale
 70
     0
300
1/8" = 1'-0"
140
0.125
141
12.0
290
     0
  0
SCALE
  5
5F
102
{ACAD_REACTORS
330
47
102
}
330
47
100
AcDbScale
 70
     0
300
3/16" = 1'-0"
140
0.1875
141
12.0
290
     0
  0
SCALE
  5
60
102
{ACAD_REACTORS
330
47
102
}
330
47
100
AcDbScale
 70
     0
300
1/4" = 1'-0"
140
0.25
141
12.0
290
     0
  0
SCALE
  5
61
102
{ACAD_REACTORS
330
47
102
}
330
47
100
AcDbScale
 70
     0
300
3/8" = 1'-0"
140
0.375
141
12.0
290
     0
  0
SCALE
  5
62
102
{ACAD_REACTORS
330
47
102
}
330
47
100
AcDbScale
 70
     0
300
1/2" = 1'-0"
140
0.5
141
12.0
290
     0
  0
SCALE
  5
63
102
{ACAD_REACTORS
330
47
102
}
330
47
100
AcDbScale
 70
     0
300
3/4" = 1'-0"
140
0.75
141
12.0
290
     0
  0
SCALE
  5
64
102
{ACAD_REACTORS
330
47
102
}
330
47
100
AcDbScale
 70
     0
300
1" = 1'-0"
140
1.0
141
12.0
290
     0
  0
SCALE
  5
65
102
{ACAD_REACTORS
330
47
102
}
330
47
100
AcDbScale
 70
     0
300
1-1/2" = 1'-0"
140
1.5
141
12.0
290
     0
  0
SCALE
  5
66
102
{ACAD_REACTORS
330
47
102
}
330
47
100
AcDbScale
 70
     0
300
3" = 1'-0"
140
3.0
141
12.0
290
     0
  0
SCALE
  5
67
102
{ACAD_REACTORS
330
47
102
}
330
47
100
AcDbScale
 70
     0
300
6" = 1'-0"
140
6.0
141
12.0
290
     0
  0
SCALE
  5
68
102
{ACAD_REACTORS
330
47
102
}
330
47
100
AcDbScale
 70
     0
300
1'-0" = 1'-0"
140
12.0
141
12.0
290
     0
  0
TABLESTYLE
  5
6A
102
{ACAD_REACTORS
330
69
102
}
102
{ACAD_XDICTIONARY
360
450
102
}
330
69
100
AcDbTableStyle
  3
Standard
 70
     0
 71
     0
 40
0.06
 41
0.06
280
     0
281
     0
  7
Standard
140
4.5
170
     2
 62
     0
 63
   257
283
     0
274
    -2
284
     1
 64
     0
275
    -2
285
     1
 65
     0
276
    -2
286
     1
 66
     0
277
    -2
287
     1
 67
     0
278
    -2
288
     1
 68
     0
279
    -2
289
     1
 69
     0
  7
Standard
140
6.0
170
     5
 62
     0
 63
   257
283
     0
274
    -2
284
     1
 64
     0
275
    -2
285
     1
 65
     0
276
    -2
286
     1
 66
     0
277
    -2
287
     1
 67
     0
278
    -2
288
     1
 68
     0
279
    -2
289
     1
 69
     0
  7
Standard
140
4.5
170
     5
 62
     0
 63
   257
283
     0
274
    -2
284
     1
 64
     0
275
    -2
285
     1
 65
     0
276
    -2
286
     1
 66
     0
277
    -2
287
     1
 67
     0
278
    -2
288
     1
 68
     0
279
    -2
289
     1
 69
     0
  0
VISUALSTYLE
  5
2F
102
{ACAD_REACTORS
330
2A
102
}
102
{ACAD_XDICTIONARY
360
422
102
}
330
2A
100
AcDbVisualStyle
  2
2dWireframe
 70
     4
 71
     0
 72
     2
 73
     0
 90
        0
 40
0.6
 41
30.0
 62
     5
 63
     7
421
 16777215
 74
     1
 91
        4
 64
     7
 65
   257
 75
     1
175
     1
 42
1.0
 92
        0
 66
   257
 43
1.0
 76
     1
 77
     6
 78
     2
 67
     7
 79
     5
170
     0
171
     0
290
     0
174
     0
 93
        1
 44
0.0
173
     0
291
     0
 45
0.0
1001
ACAD
1000
AcDbSavedByObjectVersion
1070
     0
  0
VISUALSTYLE
  5
32
102
{ACAD_REACTORS
330
2A
102
}
102
{ACAD_XDICTIONARY
360
428
102
}
330
2A
100
AcDbVisualStyle
  2
Basic
 70
     7
 71
     1
 72
     0
 73
     1
 90
        0
 40
0.6
 41
30.0
 62
     5
 63
     7
421
 16777215
 74
     0
 91
        4
 64
     7
 65
   257
 75
     1
175
     1
 42
1.0
 92
        8
 66
     7
 43
1.0
 76
     1
 77
     6
 78
     2
 67
     7
 79
     5
170
     0
171
     0
290
     0
174
     0
 93
        1
 44
0.0
173
     0
291
     1
 45
0.0
1001
ACAD
1000
AcDbSavedByObjectVersion
1070
     0
  0
VISUALSTYLE
  5
36
102
{ACAD_REACTORS
330
2A
102
}
102
{ACAD_XDICTIONARY
360
430
102
}
330
2A
100
AcDbVisualStyle
  2
Brighten
 70
    12
 71
     2
 72
     2
 73
     0
 90
        0
 40
0.6
 41
30.0
 62
     5
 63
     7
421
 16777215
 74
     1
 91
        4
 64
     7
 65
   257
 75
     1
175
     1
 42
1.0
 92
        8
 66
     7
 43
1.0
 76
     1
 77
     6
 78
     2
 67
     7
 79
     5
170
     0
171
     0
290
     0
174
     0
 93
        1
 44
50.0
173
     0
291
     1
 45
0.0
1001
ACAD
1000
AcDbSavedByObjectVersion
1070
     0
  0
VISUALSTYLE
  5
3A
102
{ACAD_REACTORS
330
2A
102
}
102
{ACAD_XDICTIONARY
360
438
102
}
330
2A
100
AcDbVisualStyle
  2
ColorChange
 70
    16
 71
     2
 72
     2
 73
     3
 90
        0
 40
0.6
 41
30.0
 62
     5
 63
     8
421
  8421504
 74
     1
 91
        4
 64
     7
 65
   257
 75
     1
175
     1
 42
1.0
 92
        8
 66
     8
424
  8421504
 43
1.0
 76
     1
 77
     6
 78
     2
 67
     7
 79
     5
170
     0
171
     0
290
     0
174
     0
 93
        1
 44
0.0
173
     0
291
     1
 45
0.0
1001
ACAD
1000
AcDbSavedByObjectVersion
1070
     0
  0
VISUALSTYLE
  5
34
102
{ACAD_REACTORS
330
2A
102
}
102
{ACAD_XDICTIONARY
360
42C
102
}
330
2A
100
AcDbVisualStyle
  2
Conceptual
 70
     9
 71
     3
 72
     2
 73
     0
 90
        0
 40
0.6
 41
30.0
 62
     5
 63
     7
421
 16777215
 74
     2
 91
        2
 64
     7
 65
   257
 75
     1
175
     1
 42
179.0
 92
        8
 66
     7
 43
1.0
 76
     1
 77
     6
 78
     2
 67
     7
 79
     3
170
     0
171
     0
290
     0
174
     0
 93
        1
 44
0.0
173
     0
291
     0
 45
0.0
1001
ACAD
1000
AcDbSavedByObjectVersion
1070
     0
  0
VISUALSTYLE
  5
35
102
{ACAD_REACTORS
330
2A
102
}
102
{ACAD_XDICTIONARY
360
42E
102
}
330
2A
100
AcDbVisualStyle
  2
Dim
 70
    11
 71
     2
 72
     2
 73
     0
 90
        0
 40
0.6
 41
30.0
 62
     5
 63
     7
421
 16777215
 74
     1
 91
        4
 64
     7
 65
   257
 75
     1
175
     1
 42
1.0
 92
        8
 66
     7
 43
1.0
 76
     1
 77
     6
 78
     2
 67
     7
 79
     5
170
     0
171
     0
290
     0
174
     0
 93
        1
 44
-50.0
173
     0
291
     1
 45
0.0
1001
ACAD
1000
AcDbSavedByObjectVersion
1070
     0
  0
VISUALSTYLE
  5
3D
102
{ACAD_REACTORS
330
2A
102
}
102
{ACAD_XDICTIONARY
360
43E
102
}
330
2A
100
AcDbVisualStyle
  2
EdgeColorOff
 70
    22
 71
     2
 72
     2
 73
     0
 90
        0
 40
0.6
 41
30.0
 62
     5
 63
     7
421
 16777215
 74
     1
 91
        4
 64
     7
 65
   257
 75
     1
175
     1
 42
1.0
 92
        8
 66
     7
 43
1.0
 76
     1
 77
     6
 78
     2
 67
     7
 79
     5
170
     0
171
     0
290
     0
174
     0
 93
        1
 44
0.0
173
     0
291
     1
 45
0.0
1001
ACAD
1000
AcDbSavedByObjectVersion
1070
     0
  0
VISUALSTYLE
  5
39
102
{ACAD_REACTORS
330
2A
102
}
102
{ACAD_XDICTIONARY
360
436
102
}
330
2A
100
AcDbVisualStyle
  2
Facepattern
 70
    15
 71
     2
 72
     2
 73
     0
 90
        0
 40
0.6
 41
30.0
 62
     5
 63
     7
421
 16777215
 74
     1
 91
        4
 64
     7
 65
   257
 75
     1
175
     1
 42
1.0
 92
        8
 66
     7
 43
1.0
 76
     1
 77
     6
 78
     2
 67
     7
 79
     5
170
     0
171
     0
290
     0
174
     0
 93
        1
 44
0.0
173
     0
291
     1
 45
0.0
1001
ACAD
1000
AcDbSavedByObjectVersion
1070
     0
  0
VISUALSTYLE
  5
2B
102
{ACAD_REACTORS
330
2A
102
}
102
{ACAD_XDICTIONARY
360
41A
102
}
330
2A
100
AcDbVisualStyle
  2
Flat
 70
     0
 71
     2
 72
     1
 73
     1
 90
        2
 40
0.6
 41
30.0
 62
     5
 63
     7
421
 16777215
 74
     0
 91
        0
 64
     7
 65
   257
 75
     1
175
     1
 42
1.0
 92
        8
 66
     7
 43
1.0
 76
     1
 77
     6
 78
     2
 67
     7
 79
     5
170
     0
171
     0
290
     0
174
     0
 93
       13
 44
0.0
173
     0
291
     1
 45
0.0
1001
ACAD
1000
AcDbSavedByObjectVersion
1070
     0
  0
VISUALSTYLE
  5
2C
102
{ACAD_REACTORS
330
2A
102
}
102
{ACAD_XDICTIONARY
360
41C
102
}
330
2A
100
AcDbVisualStyle
  2
FlatWithEdges
 70
     1
 71
     2
 72
     1
 73
     1
 90
        2
 40
0.6
 41
30.0
 62
     5
 63
     7
421
 16777215
 74
     1
 91
        0
 64
     7
 65
   257
 75
     1
175
     1
 42
1.0
 92
        0
 66
   257
 43
1.0
 76
     1
 77
     6
 78
     2
 67
     7
 79
     5
170
     0
171
     0
290
     0
174
     0
 93
       13
 44
0.0
173
     0
291
     1
 45
0.0
1001
ACAD
1000
AcDbSavedByObjectVersion
1070
     0
  0
VISUALSTYLE
  5
2D
102
{ACAD_REACTORS
330
2A
102
}
102
{ACAD_XDICTIONARY
360
41E
102
}
330
2A
100
AcDbVisualStyle
  2
Gouraud
 70
     2
 71
     2
 72
     2
 73
     1
 90
        2
 40
0.6
 41
30.0
 62
     5
 63
     7
421
 16777215
 74
     0
 91
        0
 64
     7
 65
   257
 75
     1
175
     1
 42
1.0
 92
        0
 66
     7
 43
1.0
 76
     1
 77
     6
 78
     2
 67
     7
 79
     5
170
     0
171
     0
290
     0
174
     0
 93
       13
 44
0.0
173
     0
291
     1
 45
0.0
1001
ACAD
1000
AcDbSavedByObjectVersion
1070
     0
  0
VISUALSTYLE
  5
2E
102
{ACAD_REACTORS
330
2A
102
}
102
{ACAD_XDICTIONARY
360
420
102
}
330
2A
100
AcDbVisualStyle
  2
GouraudWithEdges
 70
     3
 71
     2
 72
     2
 73
     1
 90
        2
 40
0.6
 41
30.0
 62
     5
 63
     7
421
 16777215
 74
     1
 91
        0
 64
     7
 65
   257
 75
     1
175
     1
 42
1.0
 92
        0
 66
   257
 43
1.0
 76
     1
 77
     6
 78
     2
 67
     7
 79
     5
170
     0
171
     0
290
     0
174
     0
 93
       13
 44
0.0
173
     0
291
     1
 45
0.0
1001
ACAD
1000
AcDbSavedByObjectVersion
1070
     0
  0
VISUALSTYLE
  5
31
102
{ACAD_REACTORS
330
2A
102
}
102
{ACAD_XDICTIONARY
360
426
102
}
330
2A
100
AcDbVisualStyle
  2
Hidden
 70
     6
 71
     1
 72
     2
 73
     2
 90
        0
 40
0.6
 41
30.0
 62
     5
 63
     7
421
 16777215
 74
     2
 91
        2
 64
     7
 65
   257
 75
     2
175
     1
 42
40.0
 92
        0
 66
   257
 43
1.0
 76
     1
 77
     6
 78
     2
 67
     7
 79
     3
170
     0
171
     0
290
     0
174
     0
 93
        1
 44
0.0
173
     0
291
     0
 45
0.0
1001
ACAD
1000
AcDbSavedByObjectVersion
1070
     0
  0
VISUALSTYLE
  5
3B
102
{ACAD_REACTORS
330
2A
102
}
102
{ACAD_XDICTIONARY
360
43A
102
}
330
2A
100
AcDbVisualStyle
  2
JitterOff
 70
    20
 71
     2
 72
     2
 73
     0
 90
        0
 40
0.6
 41
30.0
 62
     5
 63
     7
421
 16777215
 74
     1
 91
        4
 64
     7
 65
   257
 75
     1
175
     1
 42
1.0
 92
       10
 66
     7
 43
1.0
 76
     1
 77
     6
 78
     2
 67
     7
 79
     5
170
     0
171
     0
290
     0
174
     0
 93
        1
 44
0.0
173
     0
291
     1
 45
0.0
1001
ACAD
1000
AcDbSavedByObjectVersion
1070
     0
  0
VISUALSTYLE
  5
38
102
{ACAD_REACTORS
330
2A
102
}
102
{ACAD_XDICTIONARY
360
434
102
}
330
2A
100
AcDbVisualStyle
  2
Linepattern
 70
    14
 71
     2
 72
     2
 73
     0
 90
        0
 40
0.6
 41
30.0
 62
     5
 63
     7
421
 16777215
 74
     1
 91
        4
 64
     7
 65
   257
 75
     7
175
     7
 42
1.0
 92
        8
 66
     7
 43
1.0
 76
     1
 77
     6
 78
     2
 67
     7
 79
     5
170
     0
171
     0
290
     0
174
     0
 93
        1
 44
0.0
173
     0
291
     1
 45
0.0
1001
ACAD
1000
AcDbSavedByObjectVersion
1070
     0
  0
VISUALSTYLE
  5
3C
102
{ACAD_REACTORS
330
2A
102
}
102
{ACAD_XDICTIONARY
360
43C
102
}
330
2A
100
AcDbVisualStyle
  2
OverhangOff
 70
    21
 71
     2
 72
     2
 73
     0
 90
        0
 40
0.6
 41
30.0
 62
     5
 63
     7
421
 16777215
 74
     1
 91
        4
 64
     7
 65
   257
 75
     1
175
     1
 42
1.0
 92
        9
 66
     7
 43
1.0
 76
     1
 77
     6
 78
     2
 67
     7
 79
     5
170
     0
171
     0
290
     0
174
     0
 93
        1
 44
0.0
173
     0
291
     1
 45
0.0
1001
ACAD
1000
AcDbSavedByObjectVersion
1070
     0
  0
VISUALSTYLE
  5
33
102
{ACAD_REACTORS
330
2A
102
}
102
{ACAD_XDICTIONARY
360
42A
102
}
330
2A
100
AcDbVisualStyle
  2
Realistic
 70
     8
 71
     2
 72
     3
 73
     0
 90
        2
 40
0.6
 41
30.0
 62
     5
 63
     7
421
 16777215
 74
     0
 91
        0
 64
     7
 65
   257
 75
     1
175
     1
 42
1.0
 92
        8
 66
   257
 43
1.0
 76
     1
 77
     6
 78
     2
 67
     7
 79
     3
170
     0
171
     0
290
     0
174
     0
 93
       13
 44
0.0
173
     0
291
     0
 45
0.0
1001
ACAD
1000
AcDbSavedByObjectVersion
1070
     0
  0
VISUALSTYLE
  5
42
102
{ACAD_REACTORS
330
2A
102
}
102
{ACAD_XDICTIONARY
360
448
102
}
330
2A
100
AcDbVisualStyle
  2
Shaded
 70
    27
 71
     2
 72
     2
 73
     1
 90
        2
 40
0.6
 41
30.0
 62
     5
 63
     7
421
 16777215
 74
     0
 91
        4
 64
     7
 65
   257
 75
     1
175
     1
 42
1.0
 92
        8
 66
   257
 43
1.0
 76
     1
 77
     6
 78
     2
 67
     8
425
  7895160
 79
     3
170
     0
171
     0
290
     0
174
     0
 93
        5
 44
0.0
173
     0
291
     0
 45
0.0
1001
ACAD
1000
AcDbSavedByObjectVersion
1070
     0
  0
VISUALSTYLE
  5
41
102
{ACAD_REACTORS
330
2A
102
}
102
{ACAD_XDICTIONARY
360
446
102
}
330
2A
100
AcDbVisualStyle
  2
Shaded with edges
 70
    26
 71
     2
 72
     2
 73
     1
 90
        2
 40
0.6
 41
30.0
 62
     5
 63
     7
421
 16777215
 74
     1
 91
       10
 64
     7
 65
   257
 75
     2
175
     1
 42
1.0
 92
        8
 66
   257
 43
1.0
 76
     1
 77
     6
 78
     2
 67
     7
 79
     3
170
     0
171
     0
290
     0
174
     0
 93
        5
 44
0.0
173
     0
291
     0
 45
0.0
1001
ACAD
1000
AcDbSavedByObjectVersion
1070
     0
  0
VISUALSTYLE
  5
3E
102
{ACAD_REACTORS
330
2A
102
}
102
{ACAD_XDICTIONARY
360
440
102
}
330
2A
100
AcDbVisualStyle
  2
Shades of Gray
 70
    23
 71
     2
 72
     2
 73
     3
 90
        0
 40
0.6
 41
30.0
 62
     5
 63
     7
421
 16777215
 74
     2
 91
        2
 64
     7
 65
     7
 75
     1
175
     1
 42
40.0
 92
        8
 66
     7
 43
1.0
 76
     1
 77
     6
 78
     2
 67
     7
 79
     3
170
     0
171
     0
290
     0
174
     0
 93
        1
 44
0.0
173
     0
291
     0
 45
0.0
1001
ACAD
1000
AcDbSavedByObjectVersion
1070
     0
  0
VISUALSTYLE
  5
3F
102
{ACAD_REACTORS
330
2A
102
}
102
{ACAD_XDICTIONARY
360
442
102
}
330
2A
100
AcDbVisualStyle
  2
Sketchy
 70
    24
 71
     1
 72
     2
 73
     2
 90
        0
 40
0.6
 41
30.0
 62
     5
 63
     7
421
 16777215
 74
     2
 91
        2
 64
     7
 65
     7
 75
     1
175
     1
 42
40.0
 92
       11
 66
     7
 43
1.0
 76
     1
 77
     6
 78
     2
 67
     7
 79
     6
170
     0
171
     0
290
     0
174
     0
 93
        1
 44
0.0
173
     0
291
     0
 45
0.0
1001
ACAD
1000
AcDbSavedByObjectVersion
1070
     0
  0
VISUALSTYLE
  5
37
102
{ACAD_REACTORS
330
2A
102
}
102
{ACAD_XDICTIONARY
360
432
102
}
330
2A
100
AcDbVisualStyle
  2
Thicken
 70
    13
 71
     2
 72
     2
 73
     0
 90
        0
 40
0.6
 41
30.0
 62
     5
 63
     7
421
 16777215
 74
     1
 91
        4
 64
     7
 65
   257
 75
     1
175
     1
 42
1.0
 92
       12
 66
     7
 43
1.0
 76
     1
 77
     6
 78
     2
 67
     7
 79
     5
170
     0
171
     0
290
     0
174
     0
 93
        1
 44
0.0
173
     0
291
     1
 45
0.0
1001
ACAD
1000
AcDbSavedByObjectVersion
1070
     0
  0
VISUALSTYLE
  5
30
102
{ACAD_REACTORS
330
2A
102
}
102
{ACAD_XDICTIONARY
360
424
102
}
330
2A
100
AcDbVisualStyle
  2
Wireframe
 70
     5
 71
     0
 72
     2
 73
     0
 90
        0
 40
0.6
 41
30.0
 62
     5
 63
     7
421
 16777215
 74
     1
 91
        4
 64
     7
 65
   257
 75
     1
175
     1
 42
1.0
 92
        0
 66
   257
 43
1.0
 76
     1
 77
     6
 78
     2
 67
     7
 79
     3
170
     0
171
     0
290
     0
174
     0
 93
        1
 44
0.0
173
     0
291
     0
 45
0.0
1001
ACAD
1000
AcDbSavedByObjectVersion
1070
     0
  0
VISUALSTYLE
  5
40
102
{ACAD_REACTORS
330
2A
102
}
102
{ACAD_XDICTIONARY
360
444
102
}
330
2A
100
AcDbVisualStyle
  2
X-Ray
 70
    25
 71
     2
 72
     2
 73
     1
 90
        1
 40
0.5
 41
30.0
 62
     5
 63
     7
421
 16777215
 74
     1
 91
        0
 64
     7
 65
   257
 75
     1
175
     1
 42
1.0
 92
        8
 66
     7
 43
1.0
 76
     1
 77
     6
 78
     2
 67
     7
 79
     3
170
     0
171
     0
290
     0
174
     0
 93
       13
 44
0.0
173
     0
291
     0
 45
0.0
1001
ACAD
1000
AcDbSavedByObjectVersion
1070
     0
  0
DICTIONARYVAR
  5
417
102
{ACAD_REACTORS
330
416
102
}
330
416
100
DictionaryVariables
280
     0
  1
1:1
  0
DICTIONARYVAR
  5
45B
102
{ACAD_REACTORS
330
416
102
}
330
416
100
DictionaryVariables
280
     0
  1
3.500000
  0
DICTIONARYVAR
  5
45C
102
{ACAD_REACTORS
330
416
102
}
330
416
100
DictionaryVariables
280
     0
  1
acadiso.lin
  0
DICTIONARYVAR
  5
458
102
{ACAD_REACTORS
330
416
102
}
330
416
100
DictionaryVariables
280
     0
  1
Standard
  0
DICTIONARYVAR
  5
457
102
{ACAD_REACTORS
330
416
102
}
330
416
100
DictionaryVariables
280
     0
  1
Standard
  0
DICTIONARYVAR
  5
418
102
{ACAD_REACTORS
330
416
102
}
330
416
100
DictionaryVariables
280
     0
  1
1
  0
DICTIONARYVAR
  5
419
102
{ACAD_REACTORS
330
416
102
}
330
416
100
DictionaryVariables
280
     0
  1
2
  0
DICTIONARY
  5
44C
330
45
100
AcDbDictionary
280
     1
281
     1
  3
ACAD_XREC_ROUNDTRIP
360
44D
  0
DICTIONARY
  5
44A
330
44
100
AcDbDictionary
280
     1
281
     1
  3
ACAD_XREC_ROUNDTRIP
360
44B
  0
DICTIONARY
  5
44E
330
46
100
AcDbDictionary
280
     1
281
     1
  3
ACAD_XREC_ROUNDTRIP
360
44F
  0
DICTIONARY
  5
454
330
6C
100
AcDbDictionary
280
     1
281
     1
  3
ACAD_XREC_ROUNDTRIP
360
455
  0
DICTIONARY
  5
450
330
6A
100
AcDbDictionary
280
     1
281
     1
  3
ACAD_ROUNDTRIP_2008_TABLESTYLE_CELLSTYLEMAP
360
452
  3
ACAD_XREC_ROUNDTRIP
360
451
  0
DICTIONARY
  5
422
330
2F
100
AcDbDictionary
280
     1
281
     1
  3
ACAD_XREC_ROUNDTRIP
360
423
  0
DICTIONARY
  5
428
330
32
100
AcDbDictionary
280
     1
281
     1
  3
ACAD_XREC_ROUNDTRIP
360
429
  0
DICTIONARY
  5
430
330
36
100
AcDbDictionary
280
     1
281
     1
  3
ACAD_XREC_ROUNDTRIP
360
431
  0
DICTIONARY
  5
438
330
3A
100
AcDbDictionary
280
     1
281
     1
  3
ACAD_XREC_ROUNDTRIP
360
439
  0
DICTIONARY
  5
42C
330
34
100
AcDbDictionary
280
     1
281
     1
  3
ACAD_XREC_ROUNDTRIP
360
42D
  0
DICTIONARY
  5
42E
330
35
100
AcDbDictionary
280
     1
281
     1
  3
ACAD_XREC_ROUNDTRIP
360
42F
  0
DICTIONARY
  5
43E
330
3D
100
AcDbDictionary
280
     1
281
     1
  3
ACAD_XREC_ROUNDTRIP
360
43F
  0
DICTIONARY
  5
436
330
39
100
AcDbDictionary
280
     1
281
     1
  3
ACAD_XREC_ROUNDTRIP
360
437
  0
DICTIONARY
  5
41A
330
2B
100
AcDbDictionary
280
     1
281
     1
  3
ACAD_XREC_ROUNDTRIP
360
41B
  0
DICTIONARY
  5
41C
330
2C
100
AcDbDictionary
280
     1
281
     1
  3
ACAD_XREC_ROUNDTRIP
360
41D
  0
DICTIONARY
  5
41E
330
2D
100
AcDbDictionary
280
     1
281
     1
  3
ACAD_XREC_ROUNDTRIP
360
41F
  0
DICTIONARY
  5
420
330
2E
100
AcDbDictionary
280
     1
281
     1
  3
ACAD_XREC_ROUNDTRIP
360
421
  0
DICTIONARY
  5
426
330
31
100
AcDbDictionary
280
     1
281
     1
  3
ACAD_XREC_ROUNDTRIP
360
427
  0
DICTIONARY
  5
43A
330
3B
100
AcDbDictionary
280
     1
281
     1
  3
ACAD_XREC_ROUNDTRIP
360
43B
  0
DICTIONARY
  5
434
330
38
100
AcDbDictionary
280
     1
281
     1
  3
ACAD_XREC_ROUNDTRIP
360
435
  0
DICTIONARY
  5
43C
330
3C
100
AcDbDictionary
280
     1
281
     1
  3
ACAD_XREC_ROUNDTRIP
360
43D
  0
DICTIONARY
  5
42A
330
33
100
AcDbDictionary
280
     1
281
     1
  3
ACAD_XREC_ROUNDTRIP
360
42B
  0
DICTIONARY
  5
448
330
42
100
AcDbDictionary
280
     1
281
     1
  3
ACAD_XREC_ROUNDTRIP
360
449
  0
DICTIONARY
  5
446
330
41
100
AcDbDictionary
280
     1
281
     1
  3
ACAD_XREC_ROUNDTRIP
360
447
  0
DICTIONARY
  5
440
330
3E
100
AcDbDictionary
280
     1
281
     1
  3
ACAD_XREC_ROUNDTRIP
360
441
  0
DICTIONARY
  5
442
330
3F
100
AcDbDictionary
280
     1
281
     1
  3
ACAD_XREC_ROUNDTRIP
360
443
  0
DICTIONARY
  5
432
330
37
100
AcDbDictionary
280
     1
281
     1
  3
ACAD_XREC_ROUNDTRIP
360
433
  0
DICTIONARY
  5
424
330
30
100
AcDbDictionary
280
     1
281
     1
  3
ACAD_XREC_ROUNDTRIP
360
425
  0
DICTIONARY
  5
444
330
40
100
AcDbDictionary
280
     1
281
     1
  3
ACAD_XREC_ROUNDTRIP
360
445
  0
XRECORD
  5
44D
102
{ACAD_REACTORS
330
44C
102
}
330
44C
100
AcDbXrecord
280
     1
102
MATERIAL
148
0.0
149
0.0
149
0.0
 93
        0
 94
      127
282
     0
 72
     1
 77
     1
171
     1
175
     1
179
     1
273
     0
  0
XRECORD
  5
44B
102
{ACAD_REACTORS
330
44A
102
}
330
44A
100
AcDbXrecord
280
     1
102
MATERIAL
148
0.0
149
0.0
149
0.0
 93
        0
 94
      127
282
     0
 72
     1
 77
     1
171
     1
175
     1
179
     1
273
     0
  0
XRECORD
  5
44F
102
{ACAD_REACTORS
330
44E
102
}
330
44E
100
AcDbXrecord
280
     1
102
MATERIAL
148
0.0
149
0.0
149
0.0
 93
        0
 94
      127
282
     0
 72
     1
 77
     1
171
     1
175
     1
179
     1
273
     0
  0
XRECORD
  5
455
102
{ACAD_REACTORS
330
454
102
}
330
454
100
AcDbXrecord
280
     1
102
ACAD_ROUNDTRIP_2010_MLEADER_STYLE
  0
CELLSTYLEMAP
  5
452
102
{ACAD_REACTORS
330
450
102
}
330
450
100
AcDbCellStyleMap
 90
        3
300
CELLSTYLE
  1
TABLEFORMAT_BEGIN
 90
        5
170
     1
 91
        0
 92
    32768
 62
   257
 93
        1
300
CONTENTFORMAT
  1
CONTENTFORMAT_BEGIN
 90
        0
 91
        0
 92
        4
 93
        0
300

 40
0.0
140
1.0
 94
        5
 62
     0
340
11
144
6.0
309
CONTENTFORMAT_END
171
     1
301
MARGIN
  1
CELLMARGIN_BEGIN
 40
1.5
 40
1.5
 40
1.5
 40
1.5
 40
1.5
 40
1.5
309
CELLMARGIN_END
 94
        6
 95
        1
302
GRIDFORMAT
  1
GRIDFORMAT_BEGIN
 90
        0
 91
        1
 62
     0
 92
       -2
340
14
 93
        0
 40
0.045
309
GRIDFORMAT_END
 95
        2
302
GRIDFORMAT
  1
GRIDFORMAT_BEGIN
 90
        0
 91
        1
 62
     0
 92
       -2
340
14
 93
        0
 40
0.045
309
GRIDFORMAT_END
 95
        4
302
GRIDFORMAT
  1
GRIDFORMAT_BEGIN
 90
        0
 91
        1
 62
     0
 92
       -2
340
14
 93
        0
 40
0.045
309
GRIDFORMAT_END
 95
        8
302
GRIDFORMAT
  1
GRIDFORMAT_BEGIN
 90
        0
 91
        1
 62
     0
 92
       -2
340
14
 93
        0
 40
0.045
309
GRIDFORMAT_END
 95
       16
302
GRIDFORMAT
  1
GRIDFORMAT_BEGIN
 90
        0
 91
        1
 62
     0
 92
       -2
340
14
 93
        0
 40
0.045
309
GRIDFORMAT_END
 95
       32
302
GRIDFORMAT
  1
GRIDFORMAT_BEGIN
 90
        0
 91
        1
 62
     0
 92
       -2
340
14
 93
        0
 40
0.045
309
GRIDFORMAT_END
309
TABLEFORMAT_END
  1
CELLSTYLE_BEGIN
 90
        1
 91
        1
300
_TITLE
309
CELLSTYLE_END
300
CELLSTYLE
  1
TABLEFORMAT_BEGIN
 90
        5
170
     1
 91
        0
 92
        0
 62
   257
 93
        1
300
CONTENTFORMAT
  1
CONTENTFORMAT_BEGIN
 90
        0
 91
        0
 92
        4
 93
        0
300

 40
0.0
140
1.0
 94
        5
 62
     0
340
11
144
4.5
309
CONTENTFORMAT_END
171
     1
301
MARGIN
  1
CELLMARGIN_BEGIN
 40
1.5
 40
1.5
 40
1.5
 40
1.5
 40
1.5
 40
1.5
309
CELLMARGIN_END
 94
        6
 95
        1
302
GRIDFORMAT
  1
GRIDFORMAT_BEGIN
 90
        0
 91
        1
 62
     0
 92
       -2
340
14
 93
        0
 40
0.045
309
GRIDFORMAT_END
 95
        2
302
GRIDFORMAT
  1
GRIDFORMAT_BEGIN
 90
        0
 91
        1
 62
     0
 92
       -2
340
14
 93
        0
 40
0.045
309
GRIDFORMAT_END
 95
        4
302
GRIDFORMAT
  1
GRIDFORMAT_BEGIN
 90
        0
 91
        1
 62
     0
 92
       -2
340
14
 93
        0
 40
0.045
309
GRIDFORMAT_END
 95
        8
302
GRIDFORMAT
  1
GRIDFORMAT_BEGIN
 90
        0
 91
        1
 62
     0
 92
       -2
340
14
 93
        0
 40
0.045
309
GRIDFORMAT_END
 95
       16
302
GRIDFORMAT
  1
GRIDFORMAT_BEGIN
 90
        0
 91
        1
 62
     0
 92
       -2
340
14
 93
        0
 40
0.045
309
GRIDFORMAT_END
 95
       32
302
GRIDFORMAT
  1
GRIDFORMAT_BEGIN
 90
        0
 91
        1
 62
     0
 92
       -2
340
14
 93
        0
 40
0.045
309
GRIDFORMAT_END
309
TABLEFORMAT_END
  1
CELLSTYLE_BEGIN
 90
        2
 91
        1
300
_HEADER
309
CELLSTYLE_END
300
CELLSTYLE
  1
TABLEFORMAT_BEGIN
 90
        5
170
     1
 91
        0
 92
        0
 62
   257
 93
        1
300
CONTENTFORMAT
  1
CONTENTFORMAT_BEGIN
 90
        0
 91
        0
 92
        4
 93
        0
300

 40
0.0
140
1.0
 94
        2
 62
     0
340
11
144
4.5
309
CONTENTFORMAT_END
171
     1
301
MARGIN
  1
CELLMARGIN_BEGIN
 40
1.5
 40
1.5
 40
1.5
 40
1.5
 40
1.5
 40
1.5
309
CELLMARGIN_END
 94
        6
 95
        1
302
GRIDFORMAT
  1
GRIDFORMAT_BEGIN
 90
        0
 91
        1
 62
     0
 92
       -2
340
14
 93
        0
 40
0.045
309
GRIDFORMAT_END
 95
        2
302
GRIDFORMAT
  1
GRIDFORMAT_BEGIN
 90
        0
 91
        1
 62
     0
 92
       -2
340
14
 93
        0
 40
0.045
309
GRIDFORMAT_END
 95
        4
302
GRIDFORMAT
  1
GRIDFORMAT_BEGIN
 90
        0
 91
        1
 62
     0
 92
       -2
340
14
 93
        0
 40
0.045
309
GRIDFORMAT_END
 95
        8
302
GRIDFORMAT
  1
GRIDFORMAT_BEGIN
 90
        0
 91
        1
 62
     0
 92
       -2
340
14
 93
        0
 40
0.045
309
GRIDFORMAT_END
 95
       16
302
GRIDFORMAT
  1
GRIDFORMAT_BEGIN
 90
        0
 91
        1
 62
     0
 92
       -2
340
14
 93
        0
 40
0.045
309
GRIDFORMAT_END
 95
       32
302
GRIDFORMAT
  1
GRIDFORMAT_BEGIN
 90
        0
 91
        1
 62
     0
 92
       -2
340
14
 93
        0
 40
0.045
309
GRIDFORMAT_END
309
TABLEFORMAT_END
  1
CELLSTYLE_BEGIN
 90
        3
 91
        2
300
_DATA
309
CELLSTYLE_END
  0
XRECORD
  5
451
102
{ACAD_REACTORS
330
450
102
}
330
450
100
AcDbXrecord
280
     1
102
ACAD_ROUNDTRIP_PRE2007_TABLESTYLE
 90
        4
 91
        0
  1

 92
        4
 93
        0
  2

 94
        4
 95
        0
  3

  0
XRECORD
  5
423
102
{ACAD_REACTORS
330
422
102
}
330
422
100
AcDbXrecord
280
     1
102
RTVSPropertyOp0
 70
     1
102
RTVSPropertyOp1
 70
     1
102
RTVSPropertyOp2
 70
     1
102
RTVSPropertyOp3
 70
     1
102
RTVSPropertyOp4
 70
     1
102
RTVSPropertyOp5
 70
     1
102
RTVSPropertyOp6
 70
     1
102
RTVSPropertyOp7
 70
     1
102
RTVSPropertyOp8
 70
     1
102
RTVSPropertyOp9
 70
     1
102
RTVSPropertyOp10
 70
     1
102
RTVSPropertyOp11
 70
     1
102
RTVSPropertyOp12
 70
     1
102
RTVSPropertyOp13
 70
     1
102
RTVSPropertyOp14
 70
     1
102
RTVSPropertyOp15
 70
     1
102
RTVSPropertyOp16
 70
     1
102
RTVSPropertyOp17
 70
     1
102
RTVSPropertyOp18
 70
     1
102
RTVSPropertyOp19
 70
     1
102
RTVSPropertyOp20
 70
     1
102
RTVSPropertyOp21
 70
     1
102
RTVSPropertyOp22
 70
     1
102
RTVSPropertyOp23
 70
     1
102
RTVSPropertyOp24
 70
     1
102
RTVSPropertyOp25
 70
     1
102
RTVSPropertyOp26
 70
     1
102
RTVSPropertyOp27
 70
     1
102
RTVSPropertyOp28
 70
     1
102
RTVSPropertyOp29
 70
     1
102
RTVSPropertyOp30
 70
     1
102
RTVSPropertyOp31
 70
     1
102
RTVSPropertyOp32
 70
     1
102
RTVSPropertyOp33
 70
     1
102
RTVSPropertyOp34
 70
     1
102
RTVSPropertyOp35
 70
     1
102
RTVSPropertyOp36
 70
     1
102
RTVSPropertyOp37
 70
     1
102
RTVSPropertyOp38
 70
     1
102
RTVSPropertyOp39
 70
     1
102
RTVSPropertyOp40
 70
     1
102
RTVSPropertyOp41
 70
     1
102
RTVSPropertyOp42
 70
     1
102
RTVSPropertyOp43
 70
     1
102
RTVSPropertyOp44
 70
     1
102
RTVSPropertyOp45
 70
     1
102
RTVSPropertyOp46
 70
     1
102
RTVSPropertyOp47
 70
     1
102
RTVSPropertyOp48
 70
     1
102
RTVSPropertyOp49
 70
     1
102
RTVSPropertyOp50
 70
     1
102
RTVSPropertyOp51
 70
     0
102
RTVSPropertyOp52
 70
     0
102
RTVSPropertyOp53
 70
     1
102
RTVSPropertyOp54
 70
     1
102
RTVSPropertyOp55
 70
     1
102
RTVSPropertyOp56
 70
     1
102
RTVSPropertyOp57
 70
     1
102
RTVSPost2010Prop28
280
     1
102
RTVSPost2010PropOp28
 70
     1
102
RTVSPost2010Prop29
280
     1
102
RTVSPost2010PropOp29
 70
     1
102
RTVSPost2010Prop30
280
     0
102
RTVSPost2010PropOp30
 70
     1
102
RTVSPost2010Prop31
280
     0
102
RTVSPost2010PropOp31
 70
     1
102
RTVSPost2010Prop32
280
     0
102
RTVSPost2010PropOp32
 70
     1
102
RTVSPost2010Prop33
280
     0
102
RTVSPost2010PropOp33
 70
     1
102
RTVSPost2010Prop34
280
     0
102
RTVSPost2010PropOp34
 70
     1
102
RTVSPost2010Prop35
280
     0
102
RTVSPost2010PropOp35
 70
     1
102
RTVSPost2010Prop36
280
     0
102
RTVSPost2010PropOp36
 70
     1
102
RTVSPost2010Prop37
 90
       50
102
RTVSPost2010PropOp37
 70
     1
102
RTVSPost2010Prop38
140
0.0
102
RTVSPost2010PropOp38
 70
     1
102
RTVSPost2010Prop39
140
1.0
102
RTVSPost2010PropOp39
 70
     1
102
RTVSPost2010Prop40
 90
        0
102
RTVSPost2010PropOp40
 70
     1
102
RTVSPost2010Prop41ColorIndex
 90
       18
102
RTVSPost2010Prop41ColorRGB
 90
        0
102
RTVSPost2010PropOp41
 70
     1
102
RTVSPost2010Prop42
 90
       50
102
RTVSPost2010PropOp42
 70
     1
102
RTVSPost2010Prop43
 90
        3
102
RTVSPost2010PropOp43
 70
     1
102
RTVSPost2010Prop44ColorIndex
 90
        5
102
RTVSPost2010Prop44ColorRGB
 90
      255
102
RTVSPost2010PropOp44
 70
     1
102
RTVSPost2010Prop45
280
     0
102
RTVSPost2010PropOp45
 70
     1
102
RTVSPost2010Prop46
 90
       50
102
RTVSPost2010PropOp46
 70
     1
102
RTVSPost2010Prop47
 90
       50
102
RTVSPost2010PropOp47
 70
     1
102
RTVSPost2010Prop48
 90
       50
102
RTVSPost2010PropOp48
 70
     1
102
RTVSPost2010Prop49
280
     0
102
RTVSPost2010PropOp49
 70
     1
102
RTVSPost2010Prop50
 90
       50
102
RTVSPost2010PropOp50
 70
     1
102
RTVSPost2010Prop51ColorIndex
 90
      256
102
RTVSPost2010Prop51ColorRGB
 90
-16777216
102
RTVSPost2010PropOp51
 70
     0
102
RTVSPost2010Prop52
140
1.0
102
RTVSPost2010PropOp52
 70
     0
102
RTVSPost2010Prop53
 90
        2
102
RTVSPost2010PropOp53
 70
     1
102
RTVSPost2010Prop54
  1
strokes_ogs.tif
102
RTVSPost2010PropOp54
 70
     1
102
RTVSPost2010Prop55
280
     0
102
RTVSPost2010PropOp55
 70
     1
102
RTVSPost2010Prop56
140
1.0
102
RTVSPost2010PropOp56
 70
     1
102
RTVSPost2010Prop57
140
1.0
102
RTVSPost2010PropOp57
 70
     1
  0
XRECORD
  5
429
102
{ACAD_REACTORS
330
428
102
}
330
428
100
AcDbXrecord
280
     1
102
RTVSPropertyOp0
 70
     1
102
RTVSPropertyOp1
 70
     1
102
RTVSPropertyOp2
 70
     1
102
RTVSPropertyOp3
 70
     1
102
RTVSPropertyOp4
 70
     1
102
RTVSPropertyOp5
 70
     1
102
RTVSPropertyOp6
 70
     1
102
RTVSPropertyOp7
 70
     1
102
RTVSPropertyOp8
 70
     1
102
RTVSPropertyOp9
 70
     1
102
RTVSPropertyOp10
 70
     1
102
RTVSPropertyOp11
 70
     1
102
RTVSPropertyOp12
 70
     1
102
RTVSPropertyOp13
 70
     1
102
RTVSPropertyOp14
 70
     1
102
RTVSPropertyOp15
 70
     1
102
RTVSPropertyOp16
 70
     1
102
RTVSPropertyOp17
 70
     1
102
RTVSPropertyOp18
 70
     1
102
RTVSPropertyOp19
 70
     1
102
RTVSPropertyOp20
 70
     1
102
RTVSPropertyOp21
 70
     1
102
RTVSPropertyOp22
 70
     1
102
RTVSPropertyOp23
 70
     1
102
RTVSPropertyOp24
 70
     1
102
RTVSPropertyOp25
 70
     1
102
RTVSPropertyOp26
 70
     1
102
RTVSPropertyOp27
 70
     1
102
RTVSPropertyOp28
 70
     1
102
RTVSPropertyOp29
 70
     1
102
RTVSPropertyOp30
 70
     1
102
RTVSPropertyOp31
 70
     1
102
RTVSPropertyOp32
 70
     1
102
RTVSPropertyOp33
 70
     1
102
RTVSPropertyOp34
 70
     1
102
RTVSPropertyOp35
 70
     1
102
RTVSPropertyOp36
 70
     1
102
RTVSPropertyOp37
 70
     1
102
RTVSPropertyOp38
 70
     1
102
RTVSPropertyOp39
 70
     1
102
RTVSPropertyOp40
 70
     1
102
RTVSPropertyOp41
 70
     1
102
RTVSPropertyOp42
 70
     1
102
RTVSPropertyOp43
 70
     1
102
RTVSPropertyOp44
 70
     1
102
RTVSPropertyOp45
 70
     1
102
RTVSPropertyOp46
 70
     1
102
RTVSPropertyOp47
 70
     1
102
RTVSPropertyOp48
 70
     1
102
RTVSPropertyOp49
 70
     1
102
RTVSPropertyOp50
 70
     1
102
RTVSPropertyOp51
 70
     0
102
RTVSPropertyOp52
 70
     0
102
RTVSPropertyOp53
 70
     1
102
RTVSPropertyOp54
 70
     1
102
RTVSPropertyOp55
 70
     1
102
RTVSPropertyOp56
 70
     1
102
RTVSPropertyOp57
 70
     1
102
RTVSPost2010Prop28
280
     0
102
RTVSPost2010PropOp28
 70
     1
102
RTVSPost2010Prop29
280
     1
102
RTVSPost2010PropOp29
 70
     1
102
RTVSPost2010Prop30
280
     1
102
RTVSPost2010PropOp30
 70
     1
102
RTVSPost2010Prop31
280
     0
102
RTVSPost2010PropOp31
 70
     1
102
RTVSPost2010Prop32
280
     0
102
RTVSPost2010PropOp32
 70
     1
102
RTVSPost2010Prop33
280
     0
102
RTVSPost2010PropOp33
 70
     1
102
RTVSPost2010Prop34
280
     0
102
RTVSPost2010PropOp34
 70
     1
102
RTVSPost2010Prop35
280
     0
102
RTVSPost2010PropOp35
 70
     1
102
RTVSPost2010Prop36
280
     0
102
RTVSPost2010PropOp36
 70
     1
102
RTVSPost2010Prop37
 90
       50
102
RTVSPost2010PropOp37
 70
     1
102
RTVSPost2010Prop38
140
0.0
102
RTVSPost2010PropOp38
 70
     1
102
RTVSPost2010Prop39
140
1.0
102
RTVSPost2010PropOp39
 70
     1
102
RTVSPost2010Prop40
 90
        0
102
RTVSPost2010PropOp40
 70
     1
102
RTVSPost2010Prop41ColorIndex
 90
       18
102
RTVSPost2010Prop41ColorRGB
 90
        0
102
RTVSPost2010PropOp41
 70
     1
102
RTVSPost2010Prop42
 90
       50
102
RTVSPost2010PropOp42
 70
     1
102
RTVSPost2010Prop43
 90
        3
102
RTVSPost2010PropOp43
 70
     1
102
RTVSPost2010Prop44ColorIndex
 90
        5
102
RTVSPost2010Prop44ColorRGB
 90
      255
102
RTVSPost2010PropOp44
 70
     1
102
RTVSPost2010Prop45
280
     0
102
RTVSPost2010PropOp45
 70
     1
102
RTVSPost2010Prop46
 90
       50
102
RTVSPost2010PropOp46
 70
     1
102
RTVSPost2010Prop47
 90
       50
102
RTVSPost2010PropOp47
 70
     1
102
RTVSPost2010Prop48
 90
       50
102
RTVSPost2010PropOp48
 70
     1
102
RTVSPost2010Prop49
280
     0
102
RTVSPost2010PropOp49
 70
     1
102
RTVSPost2010Prop50
 90
       50
102
RTVSPost2010PropOp50
 70
     1
102
RTVSPost2010Prop51ColorIndex
 90
      256
102
RTVSPost2010Prop51ColorRGB
 90
-16777216
102
RTVSPost2010PropOp51
 70
     0
102
RTVSPost2010Prop52
140
1.0
102
RTVSPost2010PropOp52
 70
     0
102
RTVSPost2010Prop53
 90
        2
102
RTVSPost2010PropOp53
 70
     1
102
RTVSPost2010Prop54
  1
strokes_ogs.tif
102
RTVSPost2010PropOp54
 70
     1
102
RTVSPost2010Prop55
280
     0
102
RTVSPost2010PropOp55
 70
     1
102
RTVSPost2010Prop56
140
1.0
102
RTVSPost2010PropOp56
 70
     1
102
RTVSPost2010Prop57
140
1.0
102
RTVSPost2010PropOp57
 70
     1
  0
XRECORD
  5
431
102
{ACAD_REACTORS
330
430
102
}
330
430
100
AcDbXrecord
280
     1
102
RTVSPropertyOp0
 70
     1
102
RTVSPropertyOp1
 70
     1
102
RTVSPropertyOp2
 70
     1
102
RTVSPropertyOp3
 70
     1
102
RTVSPropertyOp4
 70
     1
102
RTVSPropertyOp5
 70
     1
102
RTVSPropertyOp6
 70
     1
102
RTVSPropertyOp7
 70
     1
102
RTVSPropertyOp8
 70
     1
102
RTVSPropertyOp9
 70
     1
102
RTVSPropertyOp10
 70
     1
102
RTVSPropertyOp11
 70
     1
102
RTVSPropertyOp12
 70
     1
102
RTVSPropertyOp13
 70
     1
102
RTVSPropertyOp14
 70
     1
102
RTVSPropertyOp15
 70
     1
102
RTVSPropertyOp16
 70
     1
102
RTVSPropertyOp17
 70
     1
102
RTVSPropertyOp18
 70
     1
102
RTVSPropertyOp19
 70
     1
102
RTVSPropertyOp20
 70
     1
102
RTVSPropertyOp21
 70
     1
102
RTVSPropertyOp22
 70
     1
102
RTVSPropertyOp23
 70
     1
102
RTVSPropertyOp24
 70
     1
102
RTVSPropertyOp25
 70
     1
102
RTVSPropertyOp26
 70
     1
102
RTVSPropertyOp27
 70
     1
102
RTVSPropertyOp28
 70
     1
102
RTVSPropertyOp29
 70
     1
102
RTVSPropertyOp30
 70
     1
102
RTVSPropertyOp31
 70
     1
102
RTVSPropertyOp32
 70
     1
102
RTVSPropertyOp33
 70
     1
102
RTVSPropertyOp34
 70
     1
102
RTVSPropertyOp35
 70
     1
102
RTVSPropertyOp36
 70
     1
102
RTVSPropertyOp37
 70
     1
102
RTVSPropertyOp38
 70
     1
102
RTVSPropertyOp39
 70
     1
102
RTVSPropertyOp40
 70
     1
102
RTVSPropertyOp41
 70
     1
102
RTVSPropertyOp42
 70
     1
102
RTVSPropertyOp43
 70
     1
102
RTVSPropertyOp44
 70
     1
102
RTVSPropertyOp45
 70
     1
102
RTVSPropertyOp46
 70
     1
102
RTVSPropertyOp47
 70
     1
102
RTVSPropertyOp48
 70
     1
102
RTVSPropertyOp49
 70
     1
102
RTVSPropertyOp50
 70
     1
102
RTVSPropertyOp51
 70
     0
102
RTVSPropertyOp52
 70
     0
102
RTVSPropertyOp53
 70
     1
102
RTVSPropertyOp54
 70
     1
102
RTVSPropertyOp55
 70
     1
102
RTVSPropertyOp56
 70
     1
102
RTVSPropertyOp57
 70
     1
102
RTVSPost2010Prop28
280
     0
102
RTVSPost2010PropOp28
 70
     1
102
RTVSPost2010Prop29
280
     1
102
RTVSPost2010PropOp29
 70
     1
102
RTVSPost2010Prop30
280
     1
102
RTVSPost2010PropOp30
 70
     1
102
RTVSPost2010Prop31
280
     0
102
RTVSPost2010PropOp31
 70
     1
102
RTVSPost2010Prop32
280
     0
102
RTVSPost2010PropOp32
 70
     1
102
RTVSPost2010Prop33
280
     0
102
RTVSPost2010PropOp33
 70
     1
102
RTVSPost2010Prop34
280
     0
102
RTVSPost2010PropOp34
 70
     1
102
RTVSPost2010Prop35
280
     0
102
RTVSPost2010PropOp35
 70
     1
102
RTVSPost2010Prop36
280
     0
102
RTVSPost2010PropOp36
 70
     1
102
RTVSPost2010Prop37
 90
       50
102
RTVSPost2010PropOp37
 70
     1
102
RTVSPost2010Prop38
140
0.0
102
RTVSPost2010PropOp38
 70
     1
102
RTVSPost2010Prop39
140
1.0
102
RTVSPost2010PropOp39
 70
     1
102
RTVSPost2010Prop40
 90
        0
102
RTVSPost2010PropOp40
 70
     1
102
RTVSPost2010Prop41ColorIndex
 90
       18
102
RTVSPost2010Prop41ColorRGB
 90
        0
102
RTVSPost2010PropOp41
 70
     1
102
RTVSPost2010Prop42
 90
       50
102
RTVSPost2010PropOp42
 70
     1
102
RTVSPost2010Prop43
 90
        3
102
RTVSPost2010PropOp43
 70
     1
102
RTVSPost2010Prop44ColorIndex
 90
        5
102
RTVSPost2010Prop44ColorRGB
 90
      255
102
RTVSPost2010PropOp44
 70
     1
102
RTVSPost2010Prop45
280
     0
102
RTVSPost2010PropOp45
 70
     1
102
RTVSPost2010Prop46
 90
       50
102
RTVSPost2010PropOp46
 70
     1
102
RTVSPost2010Prop47
 90
       50
102
RTVSPost2010PropOp47
 70
     1
102
RTVSPost2010Prop48
 90
       50
102
RTVSPost2010PropOp48
 70
     1
102
RTVSPost2010Prop49
280
     0
102
RTVSPost2010PropOp49
 70
     1
102
RTVSPost2010Prop50
 90
       50
102
RTVSPost2010PropOp50
 70
     1
102
RTVSPost2010Prop51ColorIndex
 90
      256
102
RTVSPost2010Prop51ColorRGB
 90
-16777216
102
RTVSPost2010PropOp51
 70
     0
102
RTVSPost2010Prop52
140
1.0
102
RTVSPost2010PropOp52
 70
     0
102
RTVSPost2010Prop53
 90
        2
102
RTVSPost2010PropOp53
 70
     1
102
RTVSPost2010Prop54
  1
strokes_ogs.tif
102
RTVSPost2010PropOp54
 70
     1
102
RTVSPost2010Prop55
280
     0
102
RTVSPost2010PropOp55
 70
     1
102
RTVSPost2010Prop56
140
1.0
102
RTVSPost2010PropOp56
 70
     1
102
RTVSPost2010Prop57
140
1.0
102
RTVSPost2010PropOp57
 70
     1
  0
XRECORD
  5
439
102
{ACAD_REACTORS
330
438
102
}
330
438
100
AcDbXrecord
280
     1
102
RTVSPropertyOp0
 70
     1
102
RTVSPropertyOp1
 70
     1
102
RTVSPropertyOp2
 70
     1
102
RTVSPropertyOp3
 70
     1
102
RTVSPropertyOp4
 70
     1
102
RTVSPropertyOp5
 70
     1
102
RTVSPropertyOp6
 70
     1
102
RTVSPropertyOp7
 70
     1
102
RTVSPropertyOp8
 70
     1
102
RTVSPropertyOp9
 70
     1
102
RTVSPropertyOp10
 70
     1
102
RTVSPropertyOp11
 70
     1
102
RTVSPropertyOp12
 70
     1
102
RTVSPropertyOp13
 70
     1
102
RTVSPropertyOp14
 70
     1
102
RTVSPropertyOp15
 70
     1
102
RTVSPropertyOp16
 70
     1
102
RTVSPropertyOp17
 70
     1
102
RTVSPropertyOp18
 70
     1
102
RTVSPropertyOp19
 70
     1
102
RTVSPropertyOp20
 70
     1
102
RTVSPropertyOp21
 70
     1
102
RTVSPropertyOp22
 70
     1
102
RTVSPropertyOp23
 70
     1
102
RTVSPropertyOp24
 70
     1
102
RTVSPropertyOp25
 70
     1
102
RTVSPropertyOp26
 70
     1
102
RTVSPropertyOp27
 70
     1
102
RTVSPropertyOp28
 70
     1
102
RTVSPropertyOp29
 70
     1
102
RTVSPropertyOp30
 70
     1
102
RTVSPropertyOp31
 70
     1
102
RTVSPropertyOp32
 70
     1
102
RTVSPropertyOp33
 70
     1
102
RTVSPropertyOp34
 70
     1
102
RTVSPropertyOp35
 70
     1
102
RTVSPropertyOp36
 70
     1
102
RTVSPropertyOp37
 70
     1
102
RTVSPropertyOp38
 70
     1
102
RTVSPropertyOp39
 70
     1
102
RTVSPropertyOp40
 70
     1
102
RTVSPropertyOp41
 70
     1
102
RTVSPropertyOp42
 70
     1
102
RTVSPropertyOp43
 70
     1
102
RTVSPropertyOp44
 70
     1
102
RTVSPropertyOp45
 70
     1
102
RTVSPropertyOp46
 70
     1
102
RTVSPropertyOp47
 70
     1
102
RTVSPropertyOp48
 70
     1
102
RTVSPropertyOp49
 70
     1
102
RTVSPropertyOp50
 70
     1
102
RTVSPropertyOp51
 70
     0
102
RTVSPropertyOp52
 70
     0
102
RTVSPropertyOp53
 70
     1
102
RTVSPropertyOp54
 70
     1
102
RTVSPropertyOp55
 70
     1
102
RTVSPropertyOp56
 70
     1
102
RTVSPropertyOp57
 70
     1
102
RTVSPost2010Prop28
280
     0
102
RTVSPost2010PropOp28
 70
     1
102
RTVSPost2010Prop29
280
     1
102
RTVSPost2010PropOp29
 70
     1
102
RTVSPost2010Prop30
280
     1
102
RTVSPost2010PropOp30
 70
     1
102
RTVSPost2010Prop31
280
     0
102
RTVSPost2010PropOp31
 70
     1
102
RTVSPost2010Prop32
280
     0
102
RTVSPost2010PropOp32
 70
     1
102
RTVSPost2010Prop33
280
     0
102
RTVSPost2010PropOp33
 70
     1
102
RTVSPost2010Prop34
280
     0
102
RTVSPost2010PropOp34
 70
     1
102
RTVSPost2010Prop35
280
     0
102
RTVSPost2010PropOp35
 70
     1
102
RTVSPost2010Prop36
280
     0
102
RTVSPost2010PropOp36
 70
     1
102
RTVSPost2010Prop37
 90
       50
102
RTVSPost2010PropOp37
 70
     1
102
RTVSPost2010Prop38
140
0.0
102
RTVSPost2010PropOp38
 70
     1
102
RTVSPost2010Prop39
140
1.0
102
RTVSPost2010PropOp39
 70
     1
102
RTVSPost2010Prop40
 90
        0
102
RTVSPost2010PropOp40
 70
     1
102
RTVSPost2010Prop41ColorIndex
 90
       18
102
RTVSPost2010Prop41ColorRGB
 90
        0
102
RTVSPost2010PropOp41
 70
     1
102
RTVSPost2010Prop42
 90
       50
102
RTVSPost2010PropOp42
 70
     1
102
RTVSPost2010Prop43
 90
        3
102
RTVSPost2010PropOp43
 70
     1
102
RTVSPost2010Prop44ColorIndex
 90
        5
102
RTVSPost2010Prop44ColorRGB
 90
      255
102
RTVSPost2010PropOp44
 70
     1
102
RTVSPost2010Prop45
280
     0
102
RTVSPost2010PropOp45
 70
     1
102
RTVSPost2010Prop46
 90
       50
102
RTVSPost2010PropOp46
 70
     1
102
RTVSPost2010Prop47
 90
       50
102
RTVSPost2010PropOp47
 70
     1
102
RTVSPost2010Prop48
 90
       50
102
RTVSPost2010PropOp48
 70
     1
102
RTVSPost2010Prop49
280
     0
102
RTVSPost2010PropOp49
 70
     1
102
RTVSPost2010Prop50
 90
       50
102
RTVSPost2010PropOp50
 70
     1
102
RTVSPost2010Prop51ColorIndex
 90
      256
102
RTVSPost2010Prop51ColorRGB
 90
-16777216
102
RTVSPost2010PropOp51
 70
     0
102
RTVSPost2010Prop52
140
1.0
102
RTVSPost2010PropOp52
 70
     0
102
RTVSPost2010Prop53
 90
        2
102
RTVSPost2010PropOp53
 70
     1
102
RTVSPost2010Prop54
  1
strokes_ogs.tif
102
RTVSPost2010PropOp54
 70
     1
102
RTVSPost2010Prop55
280
     0
102
RTVSPost2010PropOp55
 70
     1
102
RTVSPost2010Prop56
140
1.0
102
RTVSPost2010PropOp56
 70
     1
102
RTVSPost2010Prop57
140
1.0
102
RTVSPost2010PropOp57
 70
     1
  0
XRECORD
  5
42D
102
{ACAD_REACTORS
330
42C
102
}
330
42C
100
AcDbXrecord
280
     1
102
RTVSPropertyOp0
 70
     1
102
RTVSPropertyOp1
 70
     1
102
RTVSPropertyOp2
 70
     1
102
RTVSPropertyOp3
 70
     1
102
RTVSPropertyOp4
 70
     1
102
RTVSPropertyOp5
 70
     1
102
RTVSPropertyOp6
 70
     1
102
RTVSPropertyOp7
 70
     1
102
RTVSPropertyOp8
 70
     1
102
RTVSPropertyOp9
 70
     1
102
RTVSPropertyOp10
 70
     1
102
RTVSPropertyOp11
 70
     1
102
RTVSPropertyOp12
 70
     1
102
RTVSPropertyOp13
 70
     1
102
RTVSPropertyOp14
 70
     1
102
RTVSPropertyOp15
 70
     1
102
RTVSPropertyOp16
 70
     1
102
RTVSPropertyOp17
 70
     1
102
RTVSPropertyOp18
 70
     1
102
RTVSPropertyOp19
 70
     1
102
RTVSPropertyOp20
 70
     1
102
RTVSPropertyOp21
 70
     1
102
RTVSPropertyOp22
 70
     1
102
RTVSPropertyOp23
 70
     1
102
RTVSPropertyOp24
 70
     1
102
RTVSPropertyOp25
 70
     1
102
RTVSPropertyOp26
 70
     1
102
RTVSPropertyOp27
 70
     1
102
RTVSPropertyOp28
 70
     1
102
RTVSPropertyOp29
 70
     1
102
RTVSPropertyOp30
 70
     1
102
RTVSPropertyOp31
 70
     1
102
RTVSPropertyOp32
 70
     1
102
RTVSPropertyOp33
 70
     1
102
RTVSPropertyOp34
 70
     1
102
RTVSPropertyOp35
 70
     1
102
RTVSPropertyOp36
 70
     1
102
RTVSPropertyOp37
 70
     1
102
RTVSPropertyOp38
 70
     1
102
RTVSPropertyOp39
 70
     1
102
RTVSPropertyOp40
 70
     1
102
RTVSPropertyOp41
 70
     1
102
RTVSPropertyOp42
 70
     1
102
RTVSPropertyOp43
 70
     1
102
RTVSPropertyOp44
 70
     1
102
RTVSPropertyOp45
 70
     1
102
RTVSPropertyOp46
 70
     1
102
RTVSPropertyOp47
 70
     1
102
RTVSPropertyOp48
 70
     1
102
RTVSPropertyOp49
 70
     1
102
RTVSPropertyOp50
 70
     1
102
RTVSPropertyOp51
 70
     0
102
RTVSPropertyOp52
 70
     0
102
RTVSPropertyOp53
 70
     1
102
RTVSPropertyOp54
 70
     1
102
RTVSPropertyOp55
 70
     1
102
RTVSPropertyOp56
 70
     1
102
RTVSPropertyOp57
 70
     1
102
RTVSPost2010Prop28
280
     0
102
RTVSPost2010PropOp28
 70
     1
102
RTVSPost2010Prop29
280
     1
102
RTVSPost2010PropOp29
 70
     1
102
RTVSPost2010Prop30
280
     1
102
RTVSPost2010PropOp30
 70
     1
102
RTVSPost2010Prop31
280
     0
102
RTVSPost2010PropOp31
 70
     1
102
RTVSPost2010Prop32
280
     0
102
RTVSPost2010PropOp32
 70
     1
102
RTVSPost2010Prop33
280
     0
102
RTVSPost2010PropOp33
 70
     1
102
RTVSPost2010Prop34
280
     0
102
RTVSPost2010PropOp34
 70
     1
102
RTVSPost2010Prop35
280
     0
102
RTVSPost2010PropOp35
 70
     1
102
RTVSPost2010Prop36
280
     0
102
RTVSPost2010PropOp36
 70
     1
102
RTVSPost2010Prop37
 90
       50
102
RTVSPost2010PropOp37
 70
     1
102
RTVSPost2010Prop38
140
0.0
102
RTVSPost2010PropOp38
 70
     1
102
RTVSPost2010Prop39
140
1.0
102
RTVSPost2010PropOp39
 70
     1
102
RTVSPost2010Prop40
 90
        0
102
RTVSPost2010PropOp40
 70
     1
102
RTVSPost2010Prop41ColorIndex
 90
       18
102
RTVSPost2010Prop41ColorRGB
 90
        0
102
RTVSPost2010PropOp41
 70
     1
102
RTVSPost2010Prop42
 90
       50
102
RTVSPost2010PropOp42
 70
     1
102
RTVSPost2010Prop43
 90
        3
102
RTVSPost2010PropOp43
 70
     1
102
RTVSPost2010Prop44ColorIndex
 90
        5
102
RTVSPost2010Prop44ColorRGB
 90
      255
102
RTVSPost2010PropOp44
 70
     1
102
RTVSPost2010Prop45
280
     0
102
RTVSPost2010PropOp45
 70
     1
102
RTVSPost2010Prop46
 90
       50
102
RTVSPost2010PropOp46
 70
     1
102
RTVSPost2010Prop47
 90
       50
102
RTVSPost2010PropOp47
 70
     1
102
RTVSPost2010Prop48
 90
       50
102
RTVSPost2010PropOp48
 70
     1
102
RTVSPost2010Prop49
280
     0
102
RTVSPost2010PropOp49
 70
     1
102
RTVSPost2010Prop50
 90
       50
102
RTVSPost2010PropOp50
 70
     1
102
RTVSPost2010Prop51ColorIndex
 90
      256
102
RTVSPost2010Prop51ColorRGB
 90
-16777216
102
RTVSPost2010PropOp51
 70
     0
102
RTVSPost2010Prop52
140
1.0
102
RTVSPost2010PropOp52
 70
     0
102
RTVSPost2010Prop53
 90
        2
102
RTVSPost2010PropOp53
 70
     1
102
RTVSPost2010Prop54
  1
strokes_ogs.tif
102
RTVSPost2010PropOp54
 70
     1
102
RTVSPost2010Prop55
280
     0
102
RTVSPost2010PropOp55
 70
     1
102
RTVSPost2010Prop56
140
1.0
102
RTVSPost2010PropOp56
 70
     1
102
RTVSPost2010Prop57
140
1.0
102
RTVSPost2010PropOp57
 70
     1
  0
XRECORD
  5
42F
102
{ACAD_REACTORS
330
42E
102
}
330
42E
100
AcDbXrecord
280
     1
102
RTVSPropertyOp0
 70
     1
102
RTVSPropertyOp1
 70
     1
102
RTVSPropertyOp2
 70
     1
102
RTVSPropertyOp3
 70
     1
102
RTVSPropertyOp4
 70
     1
102
RTVSPropertyOp5
 70
     1
102
RTVSPropertyOp6
 70
     1
102
RTVSPropertyOp7
 70
     1
102
RTVSPropertyOp8
 70
     1
102
RTVSPropertyOp9
 70
     1
102
RTVSPropertyOp10
 70
     1
102
RTVSPropertyOp11
 70
     1
102
RTVSPropertyOp12
 70
     1
102
RTVSPropertyOp13
 70
     1
102
RTVSPropertyOp14
 70
     1
102
RTVSPropertyOp15
 70
     1
102
RTVSPropertyOp16
 70
     1
102
RTVSPropertyOp17
 70
     1
102
RTVSPropertyOp18
 70
     1
102
RTVSPropertyOp19
 70
     1
102
RTVSPropertyOp20
 70
     1
102
RTVSPropertyOp21
 70
     1
102
RTVSPropertyOp22
 70
     1
102
RTVSPropertyOp23
 70
     1
102
RTVSPropertyOp24
 70
     1
102
RTVSPropertyOp25
 70
     1
102
RTVSPropertyOp26
 70
     1
102
RTVSPropertyOp27
 70
     1
102
RTVSPropertyOp28
 70
     1
102
RTVSPropertyOp29
 70
     1
102
RTVSPropertyOp30
 70
     1
102
RTVSPropertyOp31
 70
     1
102
RTVSPropertyOp32
 70
     1
102
RTVSPropertyOp33
 70
     1
102
RTVSPropertyOp34
 70
     1
102
RTVSPropertyOp35
 70
     1
102
RTVSPropertyOp36
 70
     1
102
RTVSPropertyOp37
 70
     1
102
RTVSPropertyOp38
 70
     1
102
RTVSPropertyOp39
 70
     1
102
RTVSPropertyOp40
 70
     1
102
RTVSPropertyOp41
 70
     1
102
RTVSPropertyOp42
 70
     1
102
RTVSPropertyOp43
 70
     1
102
RTVSPropertyOp44
 70
     1
102
RTVSPropertyOp45
 70
     1
102
RTVSPropertyOp46
 70
     1
102
RTVSPropertyOp47
 70
     1
102
RTVSPropertyOp48
 70
     1
102
RTVSPropertyOp49
 70
     1
102
RTVSPropertyOp50
 70
     1
102
RTVSPropertyOp51
 70
     0
102
RTVSPropertyOp52
 70
     0
102
RTVSPropertyOp53
 70
     1
102
RTVSPropertyOp54
 70
     1
102
RTVSPropertyOp55
 70
     1
102
RTVSPropertyOp56
 70
     1
102
RTVSPropertyOp57
 70
     1
102
RTVSPost2010Prop28
280
     0
102
RTVSPost2010PropOp28
 70
     1
102
RTVSPost2010Prop29
280
     1
102
RTVSPost2010PropOp29
 70
     1
102
RTVSPost2010Prop30
280
     1
102
RTVSPost2010PropOp30
 70
     1
102
RTVSPost2010Prop31
280
     0
102
RTVSPost2010PropOp31
 70
     1
102
RTVSPost2010Prop32
280
     0
102
RTVSPost2010PropOp32
 70
     1
102
RTVSPost2010Prop33
280
     0
102
RTVSPost2010PropOp33
 70
     1
102
RTVSPost2010Prop34
280
     0
102
RTVSPost2010PropOp34
 70
     1
102
RTVSPost2010Prop35
280
     0
102
RTVSPost2010PropOp35
 70
     1
102
RTVSPost2010Prop36
280
     0
102
RTVSPost2010PropOp36
 70
     1
102
RTVSPost2010Prop37
 90
       50
102
RTVSPost2010PropOp37
 70
     1
102
RTVSPost2010Prop38
140
0.0
102
RTVSPost2010PropOp38
 70
     1
102
RTVSPost2010Prop39
140
1.0
102
RTVSPost2010PropOp39
 70
     1
102
RTVSPost2010Prop40
 90
        0
102
RTVSPost2010PropOp40
 70
     1
102
RTVSPost2010Prop41ColorIndex
 90
       18
102
RTVSPost2010Prop41ColorRGB
 90
        0
102
RTVSPost2010PropOp41
 70
     1
102
RTVSPost2010Prop42
 90
       50
102
RTVSPost2010PropOp42
 70
     1
102
RTVSPost2010Prop43
 90
        3
102
RTVSPost2010PropOp43
 70
     1
102
RTVSPost2010Prop44ColorIndex
 90
        5
102
RTVSPost2010Prop44ColorRGB
 90
      255
102
RTVSPost2010PropOp44
 70
     1
102
RTVSPost2010Prop45
280
     0
102
RTVSPost2010PropOp45
 70
     1
102
RTVSPost2010Prop46
 90
       50
102
RTVSPost2010PropOp46
 70
     1
102
RTVSPost2010Prop47
 90
       50
102
RTVSPost2010PropOp47
 70
     1
102
RTVSPost2010Prop48
 90
       50
102
RTVSPost2010PropOp48
 70
     1
102
RTVSPost2010Prop49
280
     0
102
RTVSPost2010PropOp49
 70
     1
102
RTVSPost2010Prop50
 90
       50
102
RTVSPost2010PropOp50
 70
     1
102
RTVSPost2010Prop51ColorIndex
 90
      256
102
RTVSPost2010Prop51ColorRGB
 90
-16777216
102
RTVSPost2010PropOp51
 70
     0
102
RTVSPost2010Prop52
140
1.0
102
RTVSPost2010PropOp52
 70
     0
102
RTVSPost2010Prop53
 90
        2
102
RTVSPost2010PropOp53
 70
     1
102
RTVSPost2010Prop54
  1
strokes_ogs.tif
102
RTVSPost2010PropOp54
 70
     1
102
RTVSPost2010Prop55
280
     0
102
RTVSPost2010PropOp55
 70
     1
102
RTVSPost2010Prop56
140
1.0
102
RTVSPost2010PropOp56
 70
     1
102
RTVSPost2010Prop57
140
1.0
102
RTVSPost2010PropOp57
 70
     1
  0
XRECORD
  5
43F
102
{ACAD_REACTORS
330
43E
102
}
330
43E
100
AcDbXrecord
280
     1
102
RTVSPropertyOp0
 70
     0
102
RTVSPropertyOp1
 70
     0
102
RTVSPropertyOp2
 70
     0
102
RTVSPropertyOp3
 70
     0
102
RTVSPropertyOp4
 70
     0
102
RTVSPropertyOp5
 70
     0
102
RTVSPropertyOp6
 70
     0
102
RTVSPropertyOp7
 70
     0
102
RTVSPropertyOp8
 70
     0
102
RTVSPropertyOp9
 70
     0
102
RTVSPropertyOp10
 70
     0
102
RTVSPropertyOp11
 70
     0
102
RTVSPropertyOp12
 70
     0
102
RTVSPropertyOp13
 70
     0
102
RTVSPropertyOp14
 70
     2
102
RTVSPropertyOp15
 70
     0
102
RTVSPropertyOp16
 70
     0
102
RTVSPropertyOp17
 70
     0
102
RTVSPropertyOp18
 70
     0
102
RTVSPropertyOp19
 70
     0
102
RTVSPropertyOp20
 70
     0
102
RTVSPropertyOp21
 70
     0
102
RTVSPropertyOp22
 70
     0
102
RTVSPropertyOp23
 70
     0
102
RTVSPropertyOp24
 70
     0
102
RTVSPropertyOp25
 70
     0
102
RTVSPropertyOp26
 70
     0
102
RTVSPropertyOp27
 70
     0
102
RTVSPropertyOp28
 70
     0
102
RTVSPropertyOp29
 70
     0
102
RTVSPropertyOp30
 70
     0
102
RTVSPropertyOp31
 70
     0
102
RTVSPropertyOp32
 70
     0
102
RTVSPropertyOp33
 70
     0
102
RTVSPropertyOp34
 70
     0
102
RTVSPropertyOp35
 70
     0
102
RTVSPropertyOp36
 70
     0
102
RTVSPropertyOp37
 70
     0
102
RTVSPropertyOp38
 70
     0
102
RTVSPropertyOp39
 70
     0
102
RTVSPropertyOp40
 70
     0
102
RTVSPropertyOp41
 70
     0
102
RTVSPropertyOp42
 70
     0
102
RTVSPropertyOp43
 70
     0
102
RTVSPropertyOp44
 70
     0
102
RTVSPropertyOp45
 70
     0
102
RTVSPropertyOp46
 70
     0
102
RTVSPropertyOp47
 70
     0
102
RTVSPropertyOp48
 70
     0
102
RTVSPropertyOp49
 70
     0
102
RTVSPropertyOp50
 70
     0
102
RTVSPropertyOp51
 70
     0
102
RTVSPropertyOp52
 70
     0
102
RTVSPropertyOp53
 70
     0
102
RTVSPropertyOp54
 70
     0
102
RTVSPropertyOp55
 70
     0
102
RTVSPropertyOp56
 70
     0
102
RTVSPropertyOp57
 70
     0
102
RTVSPost2010Prop28
280
     0
102
RTVSPost2010PropOp28
 70
     0
102
RTVSPost2010Prop29
280
     1
102
RTVSPost2010PropOp29
 70
     0
102
RTVSPost2010Prop30
280
     1
102
RTVSPost2010PropOp30
 70
     0
102
RTVSPost2010Prop31
280
     0
102
RTVSPost2010PropOp31
 70
     0
102
RTVSPost2010Prop32
280
     0
102
RTVSPost2010PropOp32
 70
     0
102
RTVSPost2010Prop33
280
     0
102
RTVSPost2010PropOp33
 70
     0
102
RTVSPost2010Prop34
280
     0
102
RTVSPost2010PropOp34
 70
     0
102
RTVSPost2010Prop35
280
     0
102
RTVSPost2010PropOp35
 70
     0
102
RTVSPost2010Prop36
280
     0
102
RTVSPost2010PropOp36
 70
     0
102
RTVSPost2010Prop37
 90
       50
102
RTVSPost2010PropOp37
 70
     0
102
RTVSPost2010Prop38
140
0.0
102
RTVSPost2010PropOp38
 70
     0
102
RTVSPost2010Prop39
140
1.0
102
RTVSPost2010PropOp39
 70
     0
102
RTVSPost2010Prop40
 90
        0
102
RTVSPost2010PropOp40
 70
     0
102
RTVSPost2010Prop41ColorIndex
 90
       18
102
RTVSPost2010Prop41ColorRGB
 90
        0
102
RTVSPost2010PropOp41
 70
     0
102
RTVSPost2010Prop42
 90
       50
102
RTVSPost2010PropOp42
 70
     0
102
RTVSPost2010Prop43
 90
        3
102
RTVSPost2010PropOp43
 70
     0
102
RTVSPost2010Prop44ColorIndex
 90
        5
102
RTVSPost2010Prop44ColorRGB
 90
      255
102
RTVSPost2010PropOp44
 70
     0
102
RTVSPost2010Prop45
280
     0
102
RTVSPost2010PropOp45
 70
     0
102
RTVSPost2010Prop46
 90
       50
102
RTVSPost2010PropOp46
 70
     0
102
RTVSPost2010Prop47
 90
       50
102
RTVSPost2010PropOp47
 70
     0
102
RTVSPost2010Prop48
 90
       50
102
RTVSPost2010PropOp48
 70
     0
102
RTVSPost2010Prop49
280
     0
102
RTVSPost2010PropOp49
 70
     0
102
RTVSPost2010Prop50
 90
       50
102
RTVSPost2010PropOp50
 70
     0
102
RTVSPost2010Prop51ColorIndex
 90
      256
102
RTVSPost2010Prop51ColorRGB
 90
-16777216
102
RTVSPost2010PropOp51
 70
     0
102
RTVSPost2010Prop52
140
1.0
102
RTVSPost2010PropOp52
 70
     0
102
RTVSPost2010Prop53
 90
        2
102
RTVSPost2010PropOp53
 70
     0
102
RTVSPost2010Prop54
  1
strokes_ogs.tif
102
RTVSPost2010PropOp54
 70
     0
102
RTVSPost2010Prop55
280
     0
102
RTVSPost2010PropOp55
 70
     0
102
RTVSPost2010Prop56
140
1.0
102
RTVSPost2010PropOp56
 70
     0
102
RTVSPost2010Prop57
140
1.0
102
RTVSPost2010PropOp57
 70
     0
  0
XRECORD
  5
437
102
{ACAD_REACTORS
330
436
102
}
330
436
100
AcDbXrecord
280
     1
102
RTVSPropertyOp0
 70
     1
102
RTVSPropertyOp1
 70
     1
102
RTVSPropertyOp2
 70
     1
102
RTVSPropertyOp3
 70
     1
102
RTVSPropertyOp4
 70
     1
102
RTVSPropertyOp5
 70
     1
102
RTVSPropertyOp6
 70
     1
102
RTVSPropertyOp7
 70
     1
102
RTVSPropertyOp8
 70
     1
102
RTVSPropertyOp9
 70
     1
102
RTVSPropertyOp10
 70
     1
102
RTVSPropertyOp11
 70
     1
102
RTVSPropertyOp12
 70
     1
102
RTVSPropertyOp13
 70
     1
102
RTVSPropertyOp14
 70
     1
102
RTVSPropertyOp15
 70
     1
102
RTVSPropertyOp16
 70
     1
102
RTVSPropertyOp17
 70
     1
102
RTVSPropertyOp18
 70
     1
102
RTVSPropertyOp19
 70
     1
102
RTVSPropertyOp20
 70
     1
102
RTVSPropertyOp21
 70
     1
102
RTVSPropertyOp22
 70
     1
102
RTVSPropertyOp23
 70
     1
102
RTVSPropertyOp24
 70
     1
102
RTVSPropertyOp25
 70
     1
102
RTVSPropertyOp26
 70
     1
102
RTVSPropertyOp27
 70
     1
102
RTVSPropertyOp28
 70
     1
102
RTVSPropertyOp29
 70
     1
102
RTVSPropertyOp30
 70
     1
102
RTVSPropertyOp31
 70
     1
102
RTVSPropertyOp32
 70
     1
102
RTVSPropertyOp33
 70
     1
102
RTVSPropertyOp34
 70
     1
102
RTVSPropertyOp35
 70
     1
102
RTVSPropertyOp36
 70
     1
102
RTVSPropertyOp37
 70
     1
102
RTVSPropertyOp38
 70
     1
102
RTVSPropertyOp39
 70
     1
102
RTVSPropertyOp40
 70
     1
102
RTVSPropertyOp41
 70
     1
102
RTVSPropertyOp42
 70
     1
102
RTVSPropertyOp43
 70
     1
102
RTVSPropertyOp44
 70
     1
102
RTVSPropertyOp45
 70
     1
102
RTVSPropertyOp46
 70
     1
102
RTVSPropertyOp47
 70
     1
102
RTVSPropertyOp48
 70
     1
102
RTVSPropertyOp49
 70
     1
102
RTVSPropertyOp50
 70
     1
102
RTVSPropertyOp51
 70
     0
102
RTVSPropertyOp52
 70
     0
102
RTVSPropertyOp53
 70
     1
102
RTVSPropertyOp54
 70
     1
102
RTVSPropertyOp55
 70
     1
102
RTVSPropertyOp56
 70
     1
102
RTVSPropertyOp57
 70
     1
102
RTVSPost2010Prop28
280
     0
102
RTVSPost2010PropOp28
 70
     1
102
RTVSPost2010Prop29
280
     1
102
RTVSPost2010PropOp29
 70
     1
102
RTVSPost2010Prop30
280
     1
102
RTVSPost2010PropOp30
 70
     1
102
RTVSPost2010Prop31
280
     0
102
RTVSPost2010PropOp31
 70
     1
102
RTVSPost2010Prop32
280
     0
102
RTVSPost2010PropOp32
 70
     1
102
RTVSPost2010Prop33
280
     0
102
RTVSPost2010PropOp33
 70
     1
102
RTVSPost2010Prop34
280
     0
102
RTVSPost2010PropOp34
 70
     1
102
RTVSPost2010Prop35
280
     0
102
RTVSPost2010PropOp35
 70
     1
102
RTVSPost2010Prop36
280
     0
102
RTVSPost2010PropOp36
 70
     1
102
RTVSPost2010Prop37
 90
       50
102
RTVSPost2010PropOp37
 70
     1
102
RTVSPost2010Prop38
140
0.0
102
RTVSPost2010PropOp38
 70
     1
102
RTVSPost2010Prop39
140
1.0
102
RTVSPost2010PropOp39
 70
     1
102
RTVSPost2010Prop40
 90
        0
102
RTVSPost2010PropOp40
 70
     1
102
RTVSPost2010Prop41ColorIndex
 90
       18
102
RTVSPost2010Prop41ColorRGB
 90
        0
102
RTVSPost2010PropOp41
 70
     1
102
RTVSPost2010Prop42
 90
       50
102
RTVSPost2010PropOp42
 70
     1
102
RTVSPost2010Prop43
 90
        3
102
RTVSPost2010PropOp43
 70
     1
102
RTVSPost2010Prop44ColorIndex
 90
        5
102
RTVSPost2010Prop44ColorRGB
 90
      255
102
RTVSPost2010PropOp44
 70
     1
102
RTVSPost2010Prop45
280
     0
102
RTVSPost2010PropOp45
 70
     1
102
RTVSPost2010Prop46
 90
       50
102
RTVSPost2010PropOp46
 70
     1
102
RTVSPost2010Prop47
 90
       50
102
RTVSPost2010PropOp47
 70
     1
102
RTVSPost2010Prop48
 90
       50
102
RTVSPost2010PropOp48
 70
     1
102
RTVSPost2010Prop49
280
     0
102
RTVSPost2010PropOp49
 70
     1
102
RTVSPost2010Prop50
 90
       50
102
RTVSPost2010PropOp50
 70
     1
102
RTVSPost2010Prop51ColorIndex
 90
      256
102
RTVSPost2010Prop51ColorRGB
 90
-16777216
102
RTVSPost2010PropOp51
 70
     0
102
RTVSPost2010Prop52
140
1.0
102
RTVSPost2010PropOp52
 70
     0
102
RTVSPost2010Prop53
 90
        2
102
RTVSPost2010PropOp53
 70
     1
102
RTVSPost2010Prop54
  1
strokes_ogs.tif
102
RTVSPost2010PropOp54
 70
     1
102
RTVSPost2010Prop55
280
     0
102
RTVSPost2010PropOp55
 70
     1
102
RTVSPost2010Prop56
140
1.0
102
RTVSPost2010PropOp56
 70
     1
102
RTVSPost2010Prop57
140
1.0
102
RTVSPost2010PropOp57
 70
     1
  0
XRECORD
  5
41B
102
{ACAD_REACTORS
330
41A
102
}
330
41A
100
AcDbXrecord
280
     1
102
RTVSPropertyOp0
 70
     1
102
RTVSPropertyOp1
 70
     1
102
RTVSPropertyOp2
 70
     1
102
RTVSPropertyOp3
 70
     1
102
RTVSPropertyOp4
 70
     1
102
RTVSPropertyOp5
 70
     1
102
RTVSPropertyOp6
 70
     1
102
RTVSPropertyOp7
 70
     1
102
RTVSPropertyOp8
 70
     1
102
RTVSPropertyOp9
 70
     1
102
RTVSPropertyOp10
 70
     1
102
RTVSPropertyOp11
 70
     1
102
RTVSPropertyOp12
 70
     1
102
RTVSPropertyOp13
 70
     1
102
RTVSPropertyOp14
 70
     1
102
RTVSPropertyOp15
 70
     1
102
RTVSPropertyOp16
 70
     1
102
RTVSPropertyOp17
 70
     1
102
RTVSPropertyOp18
 70
     1
102
RTVSPropertyOp19
 70
     1
102
RTVSPropertyOp20
 70
     1
102
RTVSPropertyOp21
 70
     1
102
RTVSPropertyOp22
 70
     1
102
RTVSPropertyOp23
 70
     1
102
RTVSPropertyOp24
 70
     1
102
RTVSPropertyOp25
 70
     1
102
RTVSPropertyOp26
 70
     1
102
RTVSPropertyOp27
 70
     1
102
RTVSPropertyOp28
 70
     1
102
RTVSPropertyOp29
 70
     1
102
RTVSPropertyOp30
 70
     1
102
RTVSPropertyOp31
 70
     1
102
RTVSPropertyOp32
 70
     1
102
RTVSPropertyOp33
 70
     1
102
RTVSPropertyOp34
 70
     1
102
RTVSPropertyOp35
 70
     1
102
RTVSPropertyOp36
 70
     1
102
RTVSPropertyOp37
 70
     1
102
RTVSPropertyOp38
 70
     1
102
RTVSPropertyOp39
 70
     1
102
RTVSPropertyOp40
 70
     1
102
RTVSPropertyOp41
 70
     1
102
RTVSPropertyOp42
 70
     1
102
RTVSPropertyOp43
 70
     1
102
RTVSPropertyOp44
 70
     1
102
RTVSPropertyOp45
 70
     1
102
RTVSPropertyOp46
 70
     1
102
RTVSPropertyOp47
 70
     1
102
RTVSPropertyOp48
 70
     1
102
RTVSPropertyOp49
 70
     1
102
RTVSPropertyOp50
 70
     1
102
RTVSPropertyOp51
 70
     0
102
RTVSPropertyOp52
 70
     0
102
RTVSPropertyOp53
 70
     1
102
RTVSPropertyOp54
 70
     1
102
RTVSPropertyOp55
 70
     1
102
RTVSPropertyOp56
 70
     1
102
RTVSPropertyOp57
 70
     1
102
RTVSPost2010Prop28
280
     0
102
RTVSPost2010PropOp28
 70
     1
102
RTVSPost2010Prop29
280
     1
102
RTVSPost2010PropOp29
 70
     1
102
RTVSPost2010Prop30
280
     1
102
RTVSPost2010PropOp30
 70
     1
102
RTVSPost2010Prop31
280
     0
102
RTVSPost2010PropOp31
 70
     1
102
RTVSPost2010Prop32
280
     0
102
RTVSPost2010PropOp32
 70
     1
102
RTVSPost2010Prop33
280
     0
102
RTVSPost2010PropOp33
 70
     1
102
RTVSPost2010Prop34
280
     0
102
RTVSPost2010PropOp34
 70
     1
102
RTVSPost2010Prop35
280
     0
102
RTVSPost2010PropOp35
 70
     1
102
RTVSPost2010Prop36
280
     0
102
RTVSPost2010PropOp36
 70
     1
102
RTVSPost2010Prop37
 90
       50
102
RTVSPost2010PropOp37
 70
     1
102
RTVSPost2010Prop38
140
0.0
102
RTVSPost2010PropOp38
 70
     1
102
RTVSPost2010Prop39
140
1.0
102
RTVSPost2010PropOp39
 70
     1
102
RTVSPost2010Prop40
 90
        0
102
RTVSPost2010PropOp40
 70
     1
102
RTVSPost2010Prop41ColorIndex
 90
       18
102
RTVSPost2010Prop41ColorRGB
 90
        0
102
RTVSPost2010PropOp41
 70
     1
102
RTVSPost2010Prop42
 90
       50
102
RTVSPost2010PropOp42
 70
     1
102
RTVSPost2010Prop43
 90
        3
102
RTVSPost2010PropOp43
 70
     1
102
RTVSPost2010Prop44ColorIndex
 90
        5
102
RTVSPost2010Prop44ColorRGB
 90
      255
102
RTVSPost2010PropOp44
 70
     1
102
RTVSPost2010Prop45
280
     0
102
RTVSPost2010PropOp45
 70
     1
102
RTVSPost2010Prop46
 90
       50
102
RTVSPost2010PropOp46
 70
     1
102
RTVSPost2010Prop47
 90
       50
102
RTVSPost2010PropOp47
 70
     1
102
RTVSPost2010Prop48
 90
       50
102
RTVSPost2010PropOp48
 70
     1
102
RTVSPost2010Prop49
280
     0
102
RTVSPost2010PropOp49
 70
     1
102
RTVSPost2010Prop50
 90
       50
102
RTVSPost2010PropOp50
 70
     1
102
RTVSPost2010Prop51ColorIndex
 90
      256
102
RTVSPost2010Prop51ColorRGB
 90
-16777216
102
RTVSPost2010PropOp51
 70
     0
102
RTVSPost2010Prop52
140
1.0
102
RTVSPost2010PropOp52
 70
     0
102
RTVSPost2010Prop53
 90
        2
102
RTVSPost2010PropOp53
 70
     1
102
RTVSPost2010Prop54
  1
strokes_ogs.tif
102
RTVSPost2010PropOp54
 70
     1
102
RTVSPost2010Prop55
280
     0
102
RTVSPost2010PropOp55
 70
     1
102
RTVSPost2010Prop56
140
1.0
102
RTVSPost2010PropOp56
 70
     1
102
RTVSPost2010Prop57
140
1.0
102
RTVSPost2010PropOp57
 70
     1
  0
XRECORD
  5
41D
102
{ACAD_REACTORS
330
41C
102
}
330
41C
100
AcDbXrecord
280
     1
102
RTVSPropertyOp0
 70
     1
102
RTVSPropertyOp1
 70
     1
102
RTVSPropertyOp2
 70
     1
102
RTVSPropertyOp3
 70
     1
102
RTVSPropertyOp4
 70
     1
102
RTVSPropertyOp5
 70
     1
102
RTVSPropertyOp6
 70
     1
102
RTVSPropertyOp7
 70
     1
102
RTVSPropertyOp8
 70
     1
102
RTVSPropertyOp9
 70
     1
102
RTVSPropertyOp10
 70
     1
102
RTVSPropertyOp11
 70
     1
102
RTVSPropertyOp12
 70
     1
102
RTVSPropertyOp13
 70
     1
102
RTVSPropertyOp14
 70
     1
102
RTVSPropertyOp15
 70
     1
102
RTVSPropertyOp16
 70
     1
102
RTVSPropertyOp17
 70
     1
102
RTVSPropertyOp18
 70
     1
102
RTVSPropertyOp19
 70
     1
102
RTVSPropertyOp20
 70
     1
102
RTVSPropertyOp21
 70
     1
102
RTVSPropertyOp22
 70
     1
102
RTVSPropertyOp23
 70
     1
102
RTVSPropertyOp24
 70
     1
102
RTVSPropertyOp25
 70
     1
102
RTVSPropertyOp26
 70
     1
102
RTVSPropertyOp27
 70
     1
102
RTVSPropertyOp28
 70
     1
102
RTVSPropertyOp29
 70
     1
102
RTVSPropertyOp30
 70
     1
102
RTVSPropertyOp31
 70
     1
102
RTVSPropertyOp32
 70
     1
102
RTVSPropertyOp33
 70
     1
102
RTVSPropertyOp34
 70
     1
102
RTVSPropertyOp35
 70
     1
102
RTVSPropertyOp36
 70
     1
102
RTVSPropertyOp37
 70
     1
102
RTVSPropertyOp38
 70
     1
102
RTVSPropertyOp39
 70
     1
102
RTVSPropertyOp40
 70
     1
102
RTVSPropertyOp41
 70
     1
102
RTVSPropertyOp42
 70
     1
102
RTVSPropertyOp43
 70
     1
102
RTVSPropertyOp44
 70
     1
102
RTVSPropertyOp45
 70
     1
102
RTVSPropertyOp46
 70
     1
102
RTVSPropertyOp47
 70
     1
102
RTVSPropertyOp48
 70
     1
102
RTVSPropertyOp49
 70
     1
102
RTVSPropertyOp50
 70
     1
102
RTVSPropertyOp51
 70
     0
102
RTVSPropertyOp52
 70
     0
102
RTVSPropertyOp53
 70
     1
102
RTVSPropertyOp54
 70
     1
102
RTVSPropertyOp55
 70
     1
102
RTVSPropertyOp56
 70
     1
102
RTVSPropertyOp57
 70
     1
102
RTVSPost2010Prop28
280
     0
102
RTVSPost2010PropOp28
 70
     1
102
RTVSPost2010Prop29
280
     1
102
RTVSPost2010PropOp29
 70
     1
102
RTVSPost2010Prop30
280
     1
102
RTVSPost2010PropOp30
 70
     1
102
RTVSPost2010Prop31
280
     0
102
RTVSPost2010PropOp31
 70
     1
102
RTVSPost2010Prop32
280
     0
102
RTVSPost2010PropOp32
 70
     1
102
RTVSPost2010Prop33
280
     0
102
RTVSPost2010PropOp33
 70
     1
102
RTVSPost2010Prop34
280
     0
102
RTVSPost2010PropOp34
 70
     1
102
RTVSPost2010Prop35
280
     0
102
RTVSPost2010PropOp35
 70
     1
102
RTVSPost2010Prop36
280
     0
102
RTVSPost2010PropOp36
 70
     1
102
RTVSPost2010Prop37
 90
       50
102
RTVSPost2010PropOp37
 70
     1
102
RTVSPost2010Prop38
140
0.0
102
RTVSPost2010PropOp38
 70
     1
102
RTVSPost2010Prop39
140
1.0
102
RTVSPost2010PropOp39
 70
     1
102
RTVSPost2010Prop40
 90
        0
102
RTVSPost2010PropOp40
 70
     1
102
RTVSPost2010Prop41ColorIndex
 90
       18
102
RTVSPost2010Prop41ColorRGB
 90
        0
102
RTVSPost2010PropOp41
 70
     1
102
RTVSPost2010Prop42
 90
       50
102
RTVSPost2010PropOp42
 70
     1
102
RTVSPost2010Prop43
 90
        3
102
RTVSPost2010PropOp43
 70
     1
102
RTVSPost2010Prop44ColorIndex
 90
        5
102
RTVSPost2010Prop44ColorRGB
 90
      255
102
RTVSPost2010PropOp44
 70
     1
102
RTVSPost2010Prop45
280
     0
102
RTVSPost2010PropOp45
 70
     1
102
RTVSPost2010Prop46
 90
       50
102
RTVSPost2010PropOp46
 70
     1
102
RTVSPost2010Prop47
 90
       50
102
RTVSPost2010PropOp47
 70
     1
102
RTVSPost2010Prop48
 90
       50
102
RTVSPost2010PropOp48
 70
     1
102
RTVSPost2010Prop49
280
     0
102
RTVSPost2010PropOp49
 70
     1
102
RTVSPost2010Prop50
 90
       50
102
RTVSPost2010PropOp50
 70
     1
102
RTVSPost2010Prop51ColorIndex
 90
      256
102
RTVSPost2010Prop51ColorRGB
 90
-16777216
102
RTVSPost2010PropOp51
 70
     0
102
RTVSPost2010Prop52
140
1.0
102
RTVSPost2010PropOp52
 70
     0
102
RTVSPost2010Prop53
 90
        2
102
RTVSPost2010PropOp53
 70
     1
102
RTVSPost2010Prop54
  1
strokes_ogs.tif
102
RTVSPost2010PropOp54
 70
     1
102
RTVSPost2010Prop55
280
     0
102
RTVSPost2010PropOp55
 70
     1
102
RTVSPost2010Prop56
140
1.0
102
RTVSPost2010PropOp56
 70
     1
102
RTVSPost2010Prop57
140
1.0
102
RTVSPost2010PropOp57
 70
     1
  0
XRECORD
  5
41F
102
{ACAD_REACTORS
330
41E
102
}
330
41E
100
AcDbXrecord
280
     1
102
RTVSPropertyOp0
 70
     1
102
RTVSPropertyOp1
 70
     1
102
RTVSPropertyOp2
 70
     1
102
RTVSPropertyOp3
 70
     1
102
RTVSPropertyOp4
 70
     1
102
RTVSPropertyOp5
 70
     1
102
RTVSPropertyOp6
 70
     1
102
RTVSPropertyOp7
 70
     1
102
RTVSPropertyOp8
 70
     1
102
RTVSPropertyOp9
 70
     1
102
RTVSPropertyOp10
 70
     1
102
RTVSPropertyOp11
 70
     1
102
RTVSPropertyOp12
 70
     1
102
RTVSPropertyOp13
 70
     1
102
RTVSPropertyOp14
 70
     1
102
RTVSPropertyOp15
 70
     1
102
RTVSPropertyOp16
 70
     1
102
RTVSPropertyOp17
 70
     1
102
RTVSPropertyOp18
 70
     1
102
RTVSPropertyOp19
 70
     1
102
RTVSPropertyOp20
 70
     1
102
RTVSPropertyOp21
 70
     1
102
RTVSPropertyOp22
 70
     1
102
RTVSPropertyOp23
 70
     1
102
RTVSPropertyOp24
 70
     1
102
RTVSPropertyOp25
 70
     1
102
RTVSPropertyOp26
 70
     1
102
RTVSPropertyOp27
 70
     1
102
RTVSPropertyOp28
 70
     1
102
RTVSPropertyOp29
 70
     1
102
RTVSPropertyOp30
 70
     1
102
RTVSPropertyOp31
 70
     1
102
RTVSPropertyOp32
 70
     1
102
RTVSPropertyOp33
 70
     1
102
RTVSPropertyOp34
 70
     1
102
RTVSPropertyOp35
 70
     1
102
RTVSPropertyOp36
 70
     1
102
RTVSPropertyOp37
 70
     1
102
RTVSPropertyOp38
 70
     1
102
RTVSPropertyOp39
 70
     1
102
RTVSPropertyOp40
 70
     1
102
RTVSPropertyOp41
 70
     1
102
RTVSPropertyOp42
 70
     1
102
RTVSPropertyOp43
 70
     1
102
RTVSPropertyOp44
 70
     1
102
RTVSPropertyOp45
 70
     1
102
RTVSPropertyOp46
 70
     1
102
RTVSPropertyOp47
 70
     1
102
RTVSPropertyOp48
 70
     1
102
RTVSPropertyOp49
 70
     1
102
RTVSPropertyOp50
 70
     1
102
RTVSPropertyOp51
 70
     0
102
RTVSPropertyOp52
 70
     0
102
RTVSPropertyOp53
 70
     1
102
RTVSPropertyOp54
 70
     1
102
RTVSPropertyOp55
 70
     1
102
RTVSPropertyOp56
 70
     1
102
RTVSPropertyOp57
 70
     1
102
RTVSPost2010Prop28
280
     0
102
RTVSPost2010PropOp28
 70
     1
102
RTVSPost2010Prop29
280
     1
102
RTVSPost2010PropOp29
 70
     1
102
RTVSPost2010Prop30
280
     1
102
RTVSPost2010PropOp30
 70
     1
102
RTVSPost2010Prop31
280
     0
102
RTVSPost2010PropOp31
 70
     1
102
RTVSPost2010Prop32
280
     0
102
RTVSPost2010PropOp32
 70
     1
102
RTVSPost2010Prop33
280
     0
102
RTVSPost2010PropOp33
 70
     1
102
RTVSPost2010Prop34
280
     0
102
RTVSPost2010PropOp34
 70
     1
102
RTVSPost2010Prop35
280
     0
102
RTVSPost2010PropOp35
 70
     1
102
RTVSPost2010Prop36
280
     0
102
RTVSPost2010PropOp36
 70
     1
102
RTVSPost2010Prop37
 90
       50
102
RTVSPost2010PropOp37
 70
     1
102
RTVSPost2010Prop38
140
0.0
102
RTVSPost2010PropOp38
 70
     1
102
RTVSPost2010Prop39
140
1.0
102
RTVSPost2010PropOp39
 70
     1
102
RTVSPost2010Prop40
 90
        0
102
RTVSPost2010PropOp40
 70
     1
102
RTVSPost2010Prop41ColorIndex
 90
       18
102
RTVSPost2010Prop41ColorRGB
 90
        0
102
RTVSPost2010PropOp41
 70
     1
102
RTVSPost2010Prop42
 90
       50
102
RTVSPost2010PropOp42
 70
     1
102
RTVSPost2010Prop43
 90
        3
102
RTVSPost2010PropOp43
 70
     1
102
RTVSPost2010Prop44ColorIndex
 90
        5
102
RTVSPost2010Prop44ColorRGB
 90
      255
102
RTVSPost2010PropOp44
 70
     1
102
RTVSPost2010Prop45
280
     0
102
RTVSPost2010PropOp45
 70
     1
102
RTVSPost2010Prop46
 90
       50
102
RTVSPost2010PropOp46
 70
     1
102
RTVSPost2010Prop47
 90
       50
102
RTVSPost2010PropOp47
 70
     1
102
RTVSPost2010Prop48
 90
       50
102
RTVSPost2010PropOp48
 70
     1
102
RTVSPost2010Prop49
280
     0
102
RTVSPost2010PropOp49
 70
     1
102
RTVSPost2010Prop50
 90
       50
102
RTVSPost2010PropOp50
 70
     1
102
RTVSPost2010Prop51ColorIndex
 90
      256
102
RTVSPost2010Prop51ColorRGB
 90
-16777216
102
RTVSPost2010PropOp51
 70
     0
102
RTVSPost2010Prop52
140
1.0
102
RTVSPost2010PropOp52
 70
     0
102
RTVSPost2010Prop53
 90
        2
102
RTVSPost2010PropOp53
 70
     1
102
RTVSPost2010Prop54
  1
strokes_ogs.tif
102
RTVSPost2010PropOp54
 70
     1
102
RTVSPost2010Prop55
280
     0
102
RTVSPost2010PropOp55
 70
     1
102
RTVSPost2010Prop56
140
1.0
102
RTVSPost2010PropOp56
 70
     1
102
RTVSPost2010Prop57
140
1.0
102
RTVSPost2010PropOp57
 70
     1
  0
XRECORD
  5
421
102
{ACAD_REACTORS
330
420
102
}
330
420
100
AcDbXrecord
280
     1
102
RTVSPropertyOp0
 70
     1
102
RTVSPropertyOp1
 70
     1
102
RTVSPropertyOp2
 70
     1
102
RTVSPropertyOp3
 70
     1
102
RTVSPropertyOp4
 70
     1
102
RTVSPropertyOp5
 70
     1
102
RTVSPropertyOp6
 70
     1
102
RTVSPropertyOp7
 70
     1
102
RTVSPropertyOp8
 70
     1
102
RTVSPropertyOp9
 70
     1
102
RTVSPropertyOp10
 70
     1
102
RTVSPropertyOp11
 70
     1
102
RTVSPropertyOp12
 70
     1
102
RTVSPropertyOp13
 70
     1
102
RTVSPropertyOp14
 70
     1
102
RTVSPropertyOp15
 70
     1
102
RTVSPropertyOp16
 70
     1
102
RTVSPropertyOp17
 70
     1
102
RTVSPropertyOp18
 70
     1
102
RTVSPropertyOp19
 70
     1
102
RTVSPropertyOp20
 70
     1
102
RTVSPropertyOp21
 70
     1
102
RTVSPropertyOp22
 70
     1
102
RTVSPropertyOp23
 70
     1
102
RTVSPropertyOp24
 70
     1
102
RTVSPropertyOp25
 70
     1
102
RTVSPropertyOp26
 70
     1
102
RTVSPropertyOp27
 70
     1
102
RTVSPropertyOp28
 70
     1
102
RTVSPropertyOp29
 70
     1
102
RTVSPropertyOp30
 70
     1
102
RTVSPropertyOp31
 70
     1
102
RTVSPropertyOp32
 70
     1
102
RTVSPropertyOp33
 70
     1
102
RTVSPropertyOp34
 70
     1
102
RTVSPropertyOp35
 70
     1
102
RTVSPropertyOp36
 70
     1
102
RTVSPropertyOp37
 70
     1
102
RTVSPropertyOp38
 70
     1
102
RTVSPropertyOp39
 70
     1
102
RTVSPropertyOp40
 70
     1
102
RTVSPropertyOp41
 70
     1
102
RTVSPropertyOp42
 70
     1
102
RTVSPropertyOp43
 70
     1
102
RTVSPropertyOp44
 70
     1
102
RTVSPropertyOp45
 70
     1
102
RTVSPropertyOp46
 70
     1
102
RTVSPropertyOp47
 70
     1
102
RTVSPropertyOp48
 70
     1
102
RTVSPropertyOp49
 70
     1
102
RTVSPropertyOp50
 70
     1
102
RTVSPropertyOp51
 70
     0
102
RTVSPropertyOp52
 70
     0
102
RTVSPropertyOp53
 70
     1
102
RTVSPropertyOp54
 70
     1
102
RTVSPropertyOp55
 70
     1
102
RTVSPropertyOp56
 70
     1
102
RTVSPropertyOp57
 70
     1
102
RTVSPost2010Prop28
280
     0
102
RTVSPost2010PropOp28
 70
     1
102
RTVSPost2010Prop29
280
     1
102
RTVSPost2010PropOp29
 70
     1
102
RTVSPost2010Prop30
280
     1
102
RTVSPost2010PropOp30
 70
     1
102
RTVSPost2010Prop31
280
     0
102
RTVSPost2010PropOp31
 70
     1
102
RTVSPost2010Prop32
280
     0
102
RTVSPost2010PropOp32
 70
     1
102
RTVSPost2010Prop33
280
     0
102
RTVSPost2010PropOp33
 70
     1
102
RTVSPost2010Prop34
280
     0
102
RTVSPost2010PropOp34
 70
     1
102
RTVSPost2010Prop35
280
     0
102
RTVSPost2010PropOp35
 70
     1
102
RTVSPost2010Prop36
280
     0
102
RTVSPost2010PropOp36
 70
     1
102
RTVSPost2010Prop37
 90
       50
102
RTVSPost2010PropOp37
 70
     1
102
RTVSPost2010Prop38
140
0.0
102
RTVSPost2010PropOp38
 70
     1
102
RTVSPost2010Prop39
140
1.0
102
RTVSPost2010PropOp39
 70
     1
102
RTVSPost2010Prop40
 90
        0
102
RTVSPost2010PropOp40
 70
     1
102
RTVSPost2010Prop41ColorIndex
 90
       18
102
RTVSPost2010Prop41ColorRGB
 90
        0
102
RTVSPost2010PropOp41
 70
     1
102
RTVSPost2010Prop42
 90
       50
102
RTVSPost2010PropOp42
 70
     1
102
RTVSPost2010Prop43
 90
        3
102
RTVSPost2010PropOp43
 70
     1
102
RTVSPost2010Prop44ColorIndex
 90
        5
102
RTVSPost2010Prop44ColorRGB
 90
      255
102
RTVSPost2010PropOp44
 70
     1
102
RTVSPost2010Prop45
280
     0
102
RTVSPost2010PropOp45
 70
     1
102
RTVSPost2010Prop46
 90
       50
102
RTVSPost2010PropOp46
 70
     1
102
RTVSPost2010Prop47
 90
       50
102
RTVSPost2010PropOp47
 70
     1
102
RTVSPost2010Prop48
 90
       50
102
RTVSPost2010PropOp48
 70
     1
102
RTVSPost2010Prop49
280
     0
102
RTVSPost2010PropOp49
 70
     1
102
RTVSPost2010Prop50
 90
       50
102
RTVSPost2010PropOp50
 70
     1
102
RTVSPost2010Prop51ColorIndex
 90
      256
102
RTVSPost2010Prop51ColorRGB
 90
-16777216
102
RTVSPost2010PropOp51
 70
     0
102
RTVSPost2010Prop52
140
1.0
102
RTVSPost2010PropOp52
 70
     0
102
RTVSPost2010Prop53
 90
        2
102
RTVSPost2010PropOp53
 70
     1
102
RTVSPost2010Prop54
  1
strokes_ogs.tif
102
RTVSPost2010PropOp54
 70
     1
102
RTVSPost2010Prop55
280
     0
102
RTVSPost2010PropOp55
 70
     1
102
RTVSPost2010Prop56
140
1.0
102
RTVSPost2010PropOp56
 70
     1
102
RTVSPost2010Prop57
140
1.0
102
RTVSPost2010PropOp57
 70
     1
  0
XRECORD
  5
427
102
{ACAD_REACTORS
330
426
102
}
330
426
100
AcDbXrecord
280
     1
102
RTVSPropertyOp0
 70
     1
102
RTVSPropertyOp1
 70
     1
102
RTVSPropertyOp2
 70
     1
102
RTVSPropertyOp3
 70
     1
102
RTVSPropertyOp4
 70
     1
102
RTVSPropertyOp5
 70
     1
102
RTVSPropertyOp6
 70
     1
102
RTVSPropertyOp7
 70
     1
102
RTVSPropertyOp8
 70
     1
102
RTVSPropertyOp9
 70
     1
102
RTVSPropertyOp10
 70
     1
102
RTVSPropertyOp11
 70
     1
102
RTVSPropertyOp12
 70
     1
102
RTVSPropertyOp13
 70
     1
102
RTVSPropertyOp14
 70
     1
102
RTVSPropertyOp15
 70
     1
102
RTVSPropertyOp16
 70
     1
102
RTVSPropertyOp17
 70
     1
102
RTVSPropertyOp18
 70
     1
102
RTVSPropertyOp19
 70
     1
102
RTVSPropertyOp20
 70
     1
102
RTVSPropertyOp21
 70
     1
102
RTVSPropertyOp22
 70
     1
102
RTVSPropertyOp23
 70
     1
102
RTVSPropertyOp24
 70
     1
102
RTVSPropertyOp25
 70
     1
102
RTVSPropertyOp26
 70
     1
102
RTVSPropertyOp27
 70
     1
102
RTVSPropertyOp28
 70
     1
102
RTVSPropertyOp29
 70
     1
102
RTVSPropertyOp30
 70
     1
102
RTVSPropertyOp31
 70
     1
102
RTVSPropertyOp32
 70
     1
102
RTVSPropertyOp33
 70
     1
102
RTVSPropertyOp34
 70
     1
102
RTVSPropertyOp35
 70
     1
102
RTVSPropertyOp36
 70
     1
102
RTVSPropertyOp37
 70
     1
102
RTVSPropertyOp38
 70
     1
102
RTVSPropertyOp39
 70
     1
102
RTVSPropertyOp40
 70
     1
102
RTVSPropertyOp41
 70
     1
102
RTVSPropertyOp42
 70
     1
102
RTVSPropertyOp43
 70
     1
102
RTVSPropertyOp44
 70
     1
102
RTVSPropertyOp45
 70
     1
102
RTVSPropertyOp46
 70
     1
102
RTVSPropertyOp47
 70
     1
102
RTVSPropertyOp48
 70
     1
102
RTVSPropertyOp49
 70
     1
102
RTVSPropertyOp50
 70
     1
102
RTVSPropertyOp51
 70
     0
102
RTVSPropertyOp52
 70
     0
102
RTVSPropertyOp53
 70
     1
102
RTVSPropertyOp54
 70
     1
102
RTVSPropertyOp55
 70
     1
102
RTVSPropertyOp56
 70
     1
102
RTVSPropertyOp57
 70
     1
102
RTVSPost2010Prop28
280
     0
102
RTVSPost2010PropOp28
 70
     1
102
RTVSPost2010Prop29
280
     1
102
RTVSPost2010PropOp29
 70
     1
102
RTVSPost2010Prop30
280
     1
102
RTVSPost2010PropOp30
 70
     1
102
RTVSPost2010Prop31
280
     0
102
RTVSPost2010PropOp31
 70
     1
102
RTVSPost2010Prop32
280
     0
102
RTVSPost2010PropOp32
 70
     1
102
RTVSPost2010Prop33
280
     0
102
RTVSPost2010PropOp33
 70
     1
102
RTVSPost2010Prop34
280
     0
102
RTVSPost2010PropOp34
 70
     1
102
RTVSPost2010Prop35
280
     0
102
RTVSPost2010PropOp35
 70
     1
102
RTVSPost2010Prop36
280
     0
102
RTVSPost2010PropOp36
 70
     1
102
RTVSPost2010Prop37
 90
       50
102
RTVSPost2010PropOp37
 70
     1
102
RTVSPost2010Prop38
140
0.0
102
RTVSPost2010PropOp38
 70
     1
102
RTVSPost2010Prop39
140
1.0
102
RTVSPost2010PropOp39
 70
     1
102
RTVSPost2010Prop40
 90
        0
102
RTVSPost2010PropOp40
 70
     1
102
RTVSPost2010Prop41ColorIndex
 90
       18
102
RTVSPost2010Prop41ColorRGB
 90
        0
102
RTVSPost2010PropOp41
 70
     1
102
RTVSPost2010Prop42
 90
       50
102
RTVSPost2010PropOp42
 70
     1
102
RTVSPost2010Prop43
 90
        3
102
RTVSPost2010PropOp43
 70
     1
102
RTVSPost2010Prop44ColorIndex
 90
        5
102
RTVSPost2010Prop44ColorRGB
 90
      255
102
RTVSPost2010PropOp44
 70
     1
102
RTVSPost2010Prop45
280
     0
102
RTVSPost2010PropOp45
 70
     1
102
RTVSPost2010Prop46
 90
       50
102
RTVSPost2010PropOp46
 70
     1
102
RTVSPost2010Prop47
 90
       50
102
RTVSPost2010PropOp47
 70
     1
102
RTVSPost2010Prop48
 90
       50
102
RTVSPost2010PropOp48
 70
     1
102
RTVSPost2010Prop49
280
     0
102
RTVSPost2010PropOp49
 70
     1
102
RTVSPost2010Prop50
 90
       50
102
RTVSPost2010PropOp50
 70
     1
102
RTVSPost2010Prop51ColorIndex
 90
      256
102
RTVSPost2010Prop51ColorRGB
 90
-16777216
102
RTVSPost2010PropOp51
 70
     0
102
RTVSPost2010Prop52
140
1.0
102
RTVSPost2010PropOp52
 70
     0
102
RTVSPost2010Prop53
 90
        2
102
RTVSPost2010PropOp53
 70
     1
102
RTVSPost2010Prop54
  1
strokes_ogs.tif
102
RTVSPost2010PropOp54
 70
     1
102
RTVSPost2010Prop55
280
     0
102
RTVSPost2010PropOp55
 70
     1
102
RTVSPost2010Prop56
140
1.0
102
RTVSPost2010PropOp56
 70
     1
102
RTVSPost2010Prop57
140
1.0
102
RTVSPost2010PropOp57
 70
     1
  0
XRECORD
  5
43B
102
{ACAD_REACTORS
330
43A
102
}
330
43A
100
AcDbXrecord
280
     1
102
RTVSPropertyOp0
 70
     0
102
RTVSPropertyOp1
 70
     0
102
RTVSPropertyOp2
 70
     0
102
RTVSPropertyOp3
 70
     0
102
RTVSPropertyOp4
 70
     0
102
RTVSPropertyOp5
 70
     0
102
RTVSPropertyOp6
 70
     0
102
RTVSPropertyOp7
 70
     0
102
RTVSPropertyOp8
 70
     0
102
RTVSPropertyOp9
 70
     0
102
RTVSPropertyOp10
 70
     0
102
RTVSPropertyOp11
 70
     0
102
RTVSPropertyOp12
 70
     0
102
RTVSPropertyOp13
 70
     0
102
RTVSPropertyOp14
 70
     2
102
RTVSPropertyOp15
 70
     0
102
RTVSPropertyOp16
 70
     0
102
RTVSPropertyOp17
 70
     0
102
RTVSPropertyOp18
 70
     0
102
RTVSPropertyOp19
 70
     0
102
RTVSPropertyOp20
 70
     0
102
RTVSPropertyOp21
 70
     0
102
RTVSPropertyOp22
 70
     0
102
RTVSPropertyOp23
 70
     0
102
RTVSPropertyOp24
 70
     0
102
RTVSPropertyOp25
 70
     0
102
RTVSPropertyOp26
 70
     0
102
RTVSPropertyOp27
 70
     0
102
RTVSPropertyOp28
 70
     0
102
RTVSPropertyOp29
 70
     0
102
RTVSPropertyOp30
 70
     0
102
RTVSPropertyOp31
 70
     0
102
RTVSPropertyOp32
 70
     0
102
RTVSPropertyOp33
 70
     0
102
RTVSPropertyOp34
 70
     0
102
RTVSPropertyOp35
 70
     0
102
RTVSPropertyOp36
 70
     0
102
RTVSPropertyOp37
 70
     0
102
RTVSPropertyOp38
 70
     0
102
RTVSPropertyOp39
 70
     0
102
RTVSPropertyOp40
 70
     0
102
RTVSPropertyOp41
 70
     0
102
RTVSPropertyOp42
 70
     0
102
RTVSPropertyOp43
 70
     0
102
RTVSPropertyOp44
 70
     0
102
RTVSPropertyOp45
 70
     0
102
RTVSPropertyOp46
 70
     0
102
RTVSPropertyOp47
 70
     0
102
RTVSPropertyOp48
 70
     0
102
RTVSPropertyOp49
 70
     0
102
RTVSPropertyOp50
 70
     0
102
RTVSPropertyOp51
 70
     0
102
RTVSPropertyOp52
 70
     0
102
RTVSPropertyOp53
 70
     0
102
RTVSPropertyOp54
 70
     0
102
RTVSPropertyOp55
 70
     0
102
RTVSPropertyOp56
 70
     0
102
RTVSPropertyOp57
 70
     0
102
RTVSPost2010Prop28
280
     0
102
RTVSPost2010PropOp28
 70
     0
102
RTVSPost2010Prop29
280
     1
102
RTVSPost2010PropOp29
 70
     0
102
RTVSPost2010Prop30
280
     1
102
RTVSPost2010PropOp30
 70
     0
102
RTVSPost2010Prop31
280
     0
102
RTVSPost2010PropOp31
 70
     0
102
RTVSPost2010Prop32
280
     0
102
RTVSPost2010PropOp32
 70
     0
102
RTVSPost2010Prop33
280
     0
102
RTVSPost2010PropOp33
 70
     0
102
RTVSPost2010Prop34
280
     0
102
RTVSPost2010PropOp34
 70
     0
102
RTVSPost2010Prop35
280
     0
102
RTVSPost2010PropOp35
 70
     0
102
RTVSPost2010Prop36
280
     0
102
RTVSPost2010PropOp36
 70
     0
102
RTVSPost2010Prop37
 90
       50
102
RTVSPost2010PropOp37
 70
     0
102
RTVSPost2010Prop38
140
0.0
102
RTVSPost2010PropOp38
 70
     0
102
RTVSPost2010Prop39
140
1.0
102
RTVSPost2010PropOp39
 70
     0
102
RTVSPost2010Prop40
 90
        0
102
RTVSPost2010PropOp40
 70
     0
102
RTVSPost2010Prop41ColorIndex
 90
       18
102
RTVSPost2010Prop41ColorRGB
 90
        0
102
RTVSPost2010PropOp41
 70
     0
102
RTVSPost2010Prop42
 90
       50
102
RTVSPost2010PropOp42
 70
     0
102
RTVSPost2010Prop43
 90
        3
102
RTVSPost2010PropOp43
 70
     0
102
RTVSPost2010Prop44ColorIndex
 90
        5
102
RTVSPost2010Prop44ColorRGB
 90
      255
102
RTVSPost2010PropOp44
 70
     0
102
RTVSPost2010Prop45
280
     0
102
RTVSPost2010PropOp45
 70
     0
102
RTVSPost2010Prop46
 90
       50
102
RTVSPost2010PropOp46
 70
     0
102
RTVSPost2010Prop47
 90
       50
102
RTVSPost2010PropOp47
 70
     0
102
RTVSPost2010Prop48
 90
       50
102
RTVSPost2010PropOp48
 70
     0
102
RTVSPost2010Prop49
280
     0
102
RTVSPost2010PropOp49
 70
     0
102
RTVSPost2010Prop50
 90
       50
102
RTVSPost2010PropOp50
 70
     0
102
RTVSPost2010Prop51ColorIndex
 90
      256
102
RTVSPost2010Prop51ColorRGB
 90
-16777216
102
RTVSPost2010PropOp51
 70
     0
102
RTVSPost2010Prop52
140
1.0
102
RTVSPost2010PropOp52
 70
     0
102
RTVSPost2010Prop53
 90
        2
102
RTVSPost2010PropOp53
 70
     0
102
RTVSPost2010Prop54
  1
strokes_ogs.tif
102
RTVSPost2010PropOp54
 70
     0
102
RTVSPost2010Prop55
280
     0
102
RTVSPost2010PropOp55
 70
     0
102
RTVSPost2010Prop56
140
1.0
102
RTVSPost2010PropOp56
 70
     0
102
RTVSPost2010Prop57
140
1.0
102
RTVSPost2010PropOp57
 70
     0
  0
XRECORD
  5
435
102
{ACAD_REACTORS
330
434
102
}
330
434
100
AcDbXrecord
280
     1
102
RTVSPropertyOp0
 70
     1
102
RTVSPropertyOp1
 70
     1
102
RTVSPropertyOp2
 70
     1
102
RTVSPropertyOp3
 70
     1
102
RTVSPropertyOp4
 70
     1
102
RTVSPropertyOp5
 70
     1
102
RTVSPropertyOp6
 70
     1
102
RTVSPropertyOp7
 70
     1
102
RTVSPropertyOp8
 70
     1
102
RTVSPropertyOp9
 70
     1
102
RTVSPropertyOp10
 70
     1
102
RTVSPropertyOp11
 70
     1
102
RTVSPropertyOp12
 70
     1
102
RTVSPropertyOp13
 70
     1
102
RTVSPropertyOp14
 70
     1
102
RTVSPropertyOp15
 70
     1
102
RTVSPropertyOp16
 70
     1
102
RTVSPropertyOp17
 70
     1
102
RTVSPropertyOp18
 70
     1
102
RTVSPropertyOp19
 70
     1
102
RTVSPropertyOp20
 70
     1
102
RTVSPropertyOp21
 70
     1
102
RTVSPropertyOp22
 70
     1
102
RTVSPropertyOp23
 70
     1
102
RTVSPropertyOp24
 70
     1
102
RTVSPropertyOp25
 70
     1
102
RTVSPropertyOp26
 70
     1
102
RTVSPropertyOp27
 70
     1
102
RTVSPropertyOp28
 70
     1
102
RTVSPropertyOp29
 70
     1
102
RTVSPropertyOp30
 70
     1
102
RTVSPropertyOp31
 70
     1
102
RTVSPropertyOp32
 70
     1
102
RTVSPropertyOp33
 70
     1
102
RTVSPropertyOp34
 70
     1
102
RTVSPropertyOp35
 70
     1
102
RTVSPropertyOp36
 70
     1
102
RTVSPropertyOp37
 70
     1
102
RTVSPropertyOp38
 70
     1
102
RTVSPropertyOp39
 70
     1
102
RTVSPropertyOp40
 70
     1
102
RTVSPropertyOp41
 70
     1
102
RTVSPropertyOp42
 70
     1
102
RTVSPropertyOp43
 70
     1
102
RTVSPropertyOp44
 70
     1
102
RTVSPropertyOp45
 70
     1
102
RTVSPropertyOp46
 70
     1
102
RTVSPropertyOp47
 70
     1
102
RTVSPropertyOp48
 70
     1
102
RTVSPropertyOp49
 70
     1
102
RTVSPropertyOp50
 70
     1
102
RTVSPropertyOp51
 70
     0
102
RTVSPropertyOp52
 70
     0
102
RTVSPropertyOp53
 70
     1
102
RTVSPropertyOp54
 70
     1
102
RTVSPropertyOp55
 70
     1
102
RTVSPropertyOp56
 70
     1
102
RTVSPropertyOp57
 70
     1
102
RTVSPost2010Prop28
280
     0
102
RTVSPost2010PropOp28
 70
     1
102
RTVSPost2010Prop29
280
     1
102
RTVSPost2010PropOp29
 70
     1
102
RTVSPost2010Prop30
280
     1
102
RTVSPost2010PropOp30
 70
     1
102
RTVSPost2010Prop31
280
     0
102
RTVSPost2010PropOp31
 70
     1
102
RTVSPost2010Prop32
280
     0
102
RTVSPost2010PropOp32
 70
     1
102
RTVSPost2010Prop33
280
     0
102
RTVSPost2010PropOp33
 70
     1
102
RTVSPost2010Prop34
280
     0
102
RTVSPost2010PropOp34
 70
     1
102
RTVSPost2010Prop35
280
     0
102
RTVSPost2010PropOp35
 70
     1
102
RTVSPost2010Prop36
280
     0
102
RTVSPost2010PropOp36
 70
     1
102
RTVSPost2010Prop37
 90
       50
102
RTVSPost2010PropOp37
 70
     1
102
RTVSPost2010Prop38
140
0.0
102
RTVSPost2010PropOp38
 70
     1
102
RTVSPost2010Prop39
140
1.0
102
RTVSPost2010PropOp39
 70
     1
102
RTVSPost2010Prop40
 90
        0
102
RTVSPost2010PropOp40
 70
     1
102
RTVSPost2010Prop41ColorIndex
 90
       18
102
RTVSPost2010Prop41ColorRGB
 90
        0
102
RTVSPost2010PropOp41
 70
     1
102
RTVSPost2010Prop42
 90
       50
102
RTVSPost2010PropOp42
 70
     1
102
RTVSPost2010Prop43
 90
        3
102
RTVSPost2010PropOp43
 70
     1
102
RTVSPost2010Prop44ColorIndex
 90
        5
102
RTVSPost2010Prop44ColorRGB
 90
      255
102
RTVSPost2010PropOp44
 70
     1
102
RTVSPost2010Prop45
280
     0
102
RTVSPost2010PropOp45
 70
     1
102
RTVSPost2010Prop46
 90
       50
102
RTVSPost2010PropOp46
 70
     1
102
RTVSPost2010Prop47
 90
       50
102
RTVSPost2010PropOp47
 70
     1
102
RTVSPost2010Prop48
 90
       50
102
RTVSPost2010PropOp48
 70
     1
102
RTVSPost2010Prop49
280
     0
102
RTVSPost2010PropOp49
 70
     1
102
RTVSPost2010Prop50
 90
       50
102
RTVSPost2010PropOp50
 70
     1
102
RTVSPost2010Prop51ColorIndex
 90
      256
102
RTVSPost2010Prop51ColorRGB
 90
-16777216
102
RTVSPost2010PropOp51
 70
     0
102
RTVSPost2010Prop52
140
1.0
102
RTVSPost2010PropOp52
 70
     0
102
RTVSPost2010Prop53
 90
        2
102
RTVSPost2010PropOp53
 70
     1
102
RTVSPost2010Prop54
  1
strokes_ogs.tif
102
RTVSPost2010PropOp54
 70
     1
102
RTVSPost2010Prop55
280
     0
102
RTVSPost2010PropOp55
 70
     1
102
RTVSPost2010Prop56
140
1.0
102
RTVSPost2010PropOp56
 70
     1
102
RTVSPost2010Prop57
140
1.0
102
RTVSPost2010PropOp57
 70
     1
  0
XRECORD
  5
43D
102
{ACAD_REACTORS
330
43C
102
}
330
43C
100
AcDbXrecord
280
     1
102
RTVSPropertyOp0
 70
     0
102
RTVSPropertyOp1
 70
     0
102
RTVSPropertyOp2
 70
     0
102
RTVSPropertyOp3
 70
     0
102
RTVSPropertyOp4
 70
     0
102
RTVSPropertyOp5
 70
     0
102
RTVSPropertyOp6
 70
     0
102
RTVSPropertyOp7
 70
     0
102
RTVSPropertyOp8
 70
     0
102
RTVSPropertyOp9
 70
     0
102
RTVSPropertyOp10
 70
     0
102
RTVSPropertyOp11
 70
     0
102
RTVSPropertyOp12
 70
     0
102
RTVSPropertyOp13
 70
     0
102
RTVSPropertyOp14
 70
     2
102
RTVSPropertyOp15
 70
     0
102
RTVSPropertyOp16
 70
     0
102
RTVSPropertyOp17
 70
     0
102
RTVSPropertyOp18
 70
     0
102
RTVSPropertyOp19
 70
     0
102
RTVSPropertyOp20
 70
     0
102
RTVSPropertyOp21
 70
     0
102
RTVSPropertyOp22
 70
     0
102
RTVSPropertyOp23
 70
     0
102
RTVSPropertyOp24
 70
     0
102
RTVSPropertyOp25
 70
     0
102
RTVSPropertyOp26
 70
     0
102
RTVSPropertyOp27
 70
     0
102
RTVSPropertyOp28
 70
     0
102
RTVSPropertyOp29
 70
     0
102
RTVSPropertyOp30
 70
     0
102
RTVSPropertyOp31
 70
     0
102
RTVSPropertyOp32
 70
     0
102
RTVSPropertyOp33
 70
     0
102
RTVSPropertyOp34
 70
     0
102
RTVSPropertyOp35
 70
     0
102
RTVSPropertyOp36
 70
     0
102
RTVSPropertyOp37
 70
     0
102
RTVSPropertyOp38
 70
     0
102
RTVSPropertyOp39
 70
     0
102
RTVSPropertyOp40
 70
     0
102
RTVSPropertyOp41
 70
     0
102
RTVSPropertyOp42
 70
     0
102
RTVSPropertyOp43
 70
     0
102
RTVSPropertyOp44
 70
     0
102
RTVSPropertyOp45
 70
     0
102
RTVSPropertyOp46
 70
     0
102
RTVSPropertyOp47
 70
     0
102
RTVSPropertyOp48
 70
     0
102
RTVSPropertyOp49
 70
     0
102
RTVSPropertyOp50
 70
     0
102
RTVSPropertyOp51
 70
     0
102
RTVSPropertyOp52
 70
     0
102
RTVSPropertyOp53
 70
     0
102
RTVSPropertyOp54
 70
     0
102
RTVSPropertyOp55
 70
     0
102
RTVSPropertyOp56
 70
     0
102
RTVSPropertyOp57
 70
     0
102
RTVSPost2010Prop28
280
     0
102
RTVSPost2010PropOp28
 70
     0
102
RTVSPost2010Prop29
280
     1
102
RTVSPost2010PropOp29
 70
     0
102
RTVSPost2010Prop30
280
     1
102
RTVSPost2010PropOp30
 70
     0
102
RTVSPost2010Prop31
280
     0
102
RTVSPost2010PropOp31
 70
     0
102
RTVSPost2010Prop32
280
     0
102
RTVSPost2010PropOp32
 70
     0
102
RTVSPost2010Prop33
280
     0
102
RTVSPost2010PropOp33
 70
     0
102
RTVSPost2010Prop34
280
     0
102
RTVSPost2010PropOp34
 70
     0
102
RTVSPost2010Prop35
280
     0
102
RTVSPost2010PropOp35
 70
     0
102
RTVSPost2010Prop36
280
     0
102
RTVSPost2010PropOp36
 70
     0
102
RTVSPost2010Prop37
 90
       50
102
RTVSPost2010PropOp37
 70
     0
102
RTVSPost2010Prop38
140
0.0
102
RTVSPost2010PropOp38
 70
     0
102
RTVSPost2010Prop39
140
1.0
102
RTVSPost2010PropOp39
 70
     0
102
RTVSPost2010Prop40
 90
        0
102
RTVSPost2010PropOp40
 70
     0
102
RTVSPost2010Prop41ColorIndex
 90
       18
102
RTVSPost2010Prop41ColorRGB
 90
        0
102
RTVSPost2010PropOp41
 70
     0
102
RTVSPost2010Prop42
 90
       50
102
RTVSPost2010PropOp42
 70
     0
102
RTVSPost2010Prop43
 90
        3
102
RTVSPost2010PropOp43
 70
     0
102
RTVSPost2010Prop44ColorIndex
 90
        5
102
RTVSPost2010Prop44ColorRGB
 90
      255
102
RTVSPost2010PropOp44
 70
     0
102
RTVSPost2010Prop45
280
     0
102
RTVSPost2010PropOp45
 70
     0
102
RTVSPost2010Prop46
 90
       50
102
RTVSPost2010PropOp46
 70
     0
102
RTVSPost2010Prop47
 90
       50
102
RTVSPost2010PropOp47
 70
     0
102
RTVSPost2010Prop48
 90
       50
102
RTVSPost2010PropOp48
 70
     0
102
RTVSPost2010Prop49
280
     0
102
RTVSPost2010PropOp49
 70
     0
102
RTVSPost2010Prop50
 90
       50
102
RTVSPost2010PropOp50
 70
     0
102
RTVSPost2010Prop51ColorIndex
 90
      256
102
RTVSPost2010Prop51ColorRGB
 90
-16777216
102
RTVSPost2010PropOp51
 70
     0
102
RTVSPost2010Prop52
140
1.0
102
RTVSPost2010PropOp52
 70
     0
102
RTVSPost2010Prop53
 90
        2
102
RTVSPost2010PropOp53
 70
     0
102
RTVSPost2010Prop54
  1
strokes_ogs.tif
102
RTVSPost2010PropOp54
 70
     0
102
RTVSPost2010Prop55
280
     0
102
RTVSPost2010PropOp55
 70
     0
102
RTVSPost2010Prop56
140
1.0
102
RTVSPost2010PropOp56
 70
     0
102
RTVSPost2010Prop57
140
1.0
102
RTVSPost2010PropOp57
 70
     0
  0
XRECORD
  5
42B
102
{ACAD_REACTORS
330
42A
102
}
330
42A
100
AcDbXrecord
280
     1
102
RTVSPropertyOp0
 70
     1
102
RTVSPropertyOp1
 70
     1
102
RTVSPropertyOp2
 70
     1
102
RTVSPropertyOp3
 70
     1
102
RTVSPropertyOp4
 70
     1
102
RTVSPropertyOp5
 70
     1
102
RTVSPropertyOp6
 70
     1
102
RTVSPropertyOp7
 70
     1
102
RTVSPropertyOp8
 70
     1
102
RTVSPropertyOp9
 70
     1
102
RTVSPropertyOp10
 70
     1
102
RTVSPropertyOp11
 70
     1
102
RTVSPropertyOp12
 70
     1
102
RTVSPropertyOp13
 70
     1
102
RTVSPropertyOp14
 70
     1
102
RTVSPropertyOp15
 70
     1
102
RTVSPropertyOp16
 70
     1
102
RTVSPropertyOp17
 70
     1
102
RTVSPropertyOp18
 70
     1
102
RTVSPropertyOp19
 70
     1
102
RTVSPropertyOp20
 70
     1
102
RTVSPropertyOp21
 70
     1
102
RTVSPropertyOp22
 70
     1
102
RTVSPropertyOp23
 70
     1
102
RTVSPropertyOp24
 70
     1
102
RTVSPropertyOp25
 70
     1
102
RTVSPropertyOp26
 70
     1
102
RTVSPropertyOp27
 70
     1
102
RTVSPropertyOp28
 70
     1
102
RTVSPropertyOp29
 70
     1
102
RTVSPropertyOp30
 70
     1
102
RTVSPropertyOp31
 70
     1
102
RTVSPropertyOp32
 70
     1
102
RTVSPropertyOp33
 70
     1
102
RTVSPropertyOp34
 70
     1
102
RTVSPropertyOp35
 70
     1
102
RTVSPropertyOp36
 70
     1
102
RTVSPropertyOp37
 70
     1
102
RTVSPropertyOp38
 70
     1
102
RTVSPropertyOp39
 70
     1
102
RTVSPropertyOp40
 70
     1
102
RTVSPropertyOp41
 70
     1
102
RTVSPropertyOp42
 70
     1
102
RTVSPropertyOp43
 70
     1
102
RTVSPropertyOp44
 70
     1
102
RTVSPropertyOp45
 70
     1
102
RTVSPropertyOp46
 70
     1
102
RTVSPropertyOp47
 70
     1
102
RTVSPropertyOp48
 70
     1
102
RTVSPropertyOp49
 70
     1
102
RTVSPropertyOp50
 70
     1
102
RTVSPropertyOp51
 70
     0
102
RTVSPropertyOp52
 70
     0
102
RTVSPropertyOp53
 70
     1
102
RTVSPropertyOp54
 70
     1
102
RTVSPropertyOp55
 70
     1
102
RTVSPropertyOp56
 70
     1
102
RTVSPropertyOp57
 70
     1
102
RTVSPost2010Prop28
280
     0
102
RTVSPost2010PropOp28
 70
     1
102
RTVSPost2010Prop29
280
     1
102
RTVSPost2010PropOp29
 70
     1
102
RTVSPost2010Prop30
280
     1
102
RTVSPost2010PropOp30
 70
     1
102
RTVSPost2010Prop31
280
     0
102
RTVSPost2010PropOp31
 70
     1
102
RTVSPost2010Prop32
280
     0
102
RTVSPost2010PropOp32
 70
     1
102
RTVSPost2010Prop33
280
     0
102
RTVSPost2010PropOp33
 70
     1
102
RTVSPost2010Prop34
280
     0
102
RTVSPost2010PropOp34
 70
     1
102
RTVSPost2010Prop35
280
     0
102
RTVSPost2010PropOp35
 70
     1
102
RTVSPost2010Prop36
280
     0
102
RTVSPost2010PropOp36
 70
     1
102
RTVSPost2010Prop37
 90
       50
102
RTVSPost2010PropOp37
 70
     1
102
RTVSPost2010Prop38
140
0.0
102
RTVSPost2010PropOp38
 70
     1
102
RTVSPost2010Prop39
140
1.0
102
RTVSPost2010PropOp39
 70
     1
102
RTVSPost2010Prop40
 90
        0
102
RTVSPost2010PropOp40
 70
     1
102
RTVSPost2010Prop41ColorIndex
 90
       18
102
RTVSPost2010Prop41ColorRGB
 90
        0
102
RTVSPost2010PropOp41
 70
     1
102
RTVSPost2010Prop42
 90
       50
102
RTVSPost2010PropOp42
 70
     1
102
RTVSPost2010Prop43
 90
        3
102
RTVSPost2010PropOp43
 70
     1
102
RTVSPost2010Prop44ColorIndex
 90
        5
102
RTVSPost2010Prop44ColorRGB
 90
      255
102
RTVSPost2010PropOp44
 70
     1
102
RTVSPost2010Prop45
280
     0
102
RTVSPost2010PropOp45
 70
     1
102
RTVSPost2010Prop46
 90
       50
102
RTVSPost2010PropOp46
 70
     1
102
RTVSPost2010Prop47
 90
       50
102
RTVSPost2010PropOp47
 70
     1
102
RTVSPost2010Prop48
 90
       50
102
RTVSPost2010PropOp48
 70
     1
102
RTVSPost2010Prop49
280
     0
102
RTVSPost2010PropOp49
 70
     1
102
RTVSPost2010Prop50
 90
       50
102
RTVSPost2010PropOp50
 70
     1
102
RTVSPost2010Prop51ColorIndex
 90
      256
102
RTVSPost2010Prop51ColorRGB
 90
-16777216
102
RTVSPost2010PropOp51
 70
     0
102
RTVSPost2010Prop52
140
1.0
102
RTVSPost2010PropOp52
 70
     0
102
RTVSPost2010Prop53
 90
        2
102
RTVSPost2010PropOp53
 70
     1
102
RTVSPost2010Prop54
  1
strokes_ogs.tif
102
RTVSPost2010PropOp54
 70
     1
102
RTVSPost2010Prop55
280
     0
102
RTVSPost2010PropOp55
 70
     1
102
RTVSPost2010Prop56
140
1.0
102
RTVSPost2010PropOp56
 70
     1
102
RTVSPost2010Prop57
140
1.0
102
RTVSPost2010PropOp57
 70
     1
  0
XRECORD
  5
449
102
{ACAD_REACTORS
330
448
102
}
330
448
100
AcDbXrecord
280
     1
102
RTVSPropertyOp0
 70
     1
102
RTVSPropertyOp1
 70
     1
102
RTVSPropertyOp2
 70
     1
102
RTVSPropertyOp3
 70
     1
102
RTVSPropertyOp4
 70
     1
102
RTVSPropertyOp5
 70
     1
102
RTVSPropertyOp6
 70
     1
102
RTVSPropertyOp7
 70
     1
102
RTVSPropertyOp8
 70
     1
102
RTVSPropertyOp9
 70
     1
102
RTVSPropertyOp10
 70
     1
102
RTVSPropertyOp11
 70
     1
102
RTVSPropertyOp12
 70
     1
102
RTVSPropertyOp13
 70
     1
102
RTVSPropertyOp14
 70
     1
102
RTVSPropertyOp15
 70
     1
102
RTVSPropertyOp16
 70
     1
102
RTVSPropertyOp17
 70
     1
102
RTVSPropertyOp18
 70
     1
102
RTVSPropertyOp19
 70
     1
102
RTVSPropertyOp20
 70
     1
102
RTVSPropertyOp21
 70
     1
102
RTVSPropertyOp22
 70
     1
102
RTVSPropertyOp23
 70
     1
102
RTVSPropertyOp24
 70
     1
102
RTVSPropertyOp25
 70
     1
102
RTVSPropertyOp26
 70
     1
102
RTVSPropertyOp27
 70
     1
102
RTVSPropertyOp28
 70
     1
102
RTVSPropertyOp29
 70
     1
102
RTVSPropertyOp30
 70
     1
102
RTVSPropertyOp31
 70
     1
102
RTVSPropertyOp32
 70
     1
102
RTVSPropertyOp33
 70
     1
102
RTVSPropertyOp34
 70
     1
102
RTVSPropertyOp35
 70
     1
102
RTVSPropertyOp36
 70
     1
102
RTVSPropertyOp37
 70
     1
102
RTVSPropertyOp38
 70
     1
102
RTVSPropertyOp39
 70
     1
102
RTVSPropertyOp40
 70
     1
102
RTVSPropertyOp41
 70
     1
102
RTVSPropertyOp42
 70
     1
102
RTVSPropertyOp43
 70
     1
102
RTVSPropertyOp44
 70
     1
102
RTVSPropertyOp45
 70
     1
102
RTVSPropertyOp46
 70
     1
102
RTVSPropertyOp47
 70
     1
102
RTVSPropertyOp48
 70
     1
102
RTVSPropertyOp49
 70
     1
102
RTVSPropertyOp50
 70
     1
102
RTVSPropertyOp51
 70
     0
102
RTVSPropertyOp52
 70
     0
102
RTVSPropertyOp53
 70
     1
102
RTVSPropertyOp54
 70
     1
102
RTVSPropertyOp55
 70
     1
102
RTVSPropertyOp56
 70
     1
102
RTVSPropertyOp57
 70
     1
102
RTVSPost2010Prop28
280
     0
102
RTVSPost2010PropOp28
 70
     1
102
RTVSPost2010Prop29
280
     1
102
RTVSPost2010PropOp29
 70
     1
102
RTVSPost2010Prop30
280
     1
102
RTVSPost2010PropOp30
 70
     1
102
RTVSPost2010Prop31
280
     0
102
RTVSPost2010PropOp31
 70
     1
102
RTVSPost2010Prop32
280
     0
102
RTVSPost2010PropOp32
 70
     1
102
RTVSPost2010Prop33
280
     0
102
RTVSPost2010PropOp33
 70
     1
102
RTVSPost2010Prop34
280
     0
102
RTVSPost2010PropOp34
 70
     1
102
RTVSPost2010Prop35
280
     0
102
RTVSPost2010PropOp35
 70
     1
102
RTVSPost2010Prop36
280
     0
102
RTVSPost2010PropOp36
 70
     1
102
RTVSPost2010Prop37
 90
       50
102
RTVSPost2010PropOp37
 70
     1
102
RTVSPost2010Prop38
140
0.0
102
RTVSPost2010PropOp38
 70
     1
102
RTVSPost2010Prop39
140
1.0
102
RTVSPost2010PropOp39
 70
     1
102
RTVSPost2010Prop40
 90
        0
102
RTVSPost2010PropOp40
 70
     1
102
RTVSPost2010Prop41ColorIndex
 90
       18
102
RTVSPost2010Prop41ColorRGB
 90
        0
102
RTVSPost2010PropOp41
 70
     1
102
RTVSPost2010Prop42
 90
       50
102
RTVSPost2010PropOp42
 70
     1
102
RTVSPost2010Prop43
 90
        3
102
RTVSPost2010PropOp43
 70
     1
102
RTVSPost2010Prop44ColorIndex
 90
        5
102
RTVSPost2010Prop44ColorRGB
 90
      255
102
RTVSPost2010PropOp44
 70
     1
102
RTVSPost2010Prop45
280
     0
102
RTVSPost2010PropOp45
 70
     1
102
RTVSPost2010Prop46
 90
       50
102
RTVSPost2010PropOp46
 70
     1
102
RTVSPost2010Prop47
 90
       50
102
RTVSPost2010PropOp47
 70
     1
102
RTVSPost2010Prop48
 90
       50
102
RTVSPost2010PropOp48
 70
     1
102
RTVSPost2010Prop49
280
     0
102
RTVSPost2010PropOp49
 70
     1
102
RTVSPost2010Prop50
 90
       50
102
RTVSPost2010PropOp50
 70
     1
102
RTVSPost2010Prop51ColorIndex
 90
      256
102
RTVSPost2010Prop51ColorRGB
 90
-16777216
102
RTVSPost2010PropOp51
 70
     0
102
RTVSPost2010Prop52
140
1.0
102
RTVSPost2010PropOp52
 70
     0
102
RTVSPost2010Prop53
 90
        2
102
RTVSPost2010PropOp53
 70
     1
102
RTVSPost2010Prop54
  1
strokes_ogs.tif
102
RTVSPost2010PropOp54
 70
     1
102
RTVSPost2010Prop55
280
     0
102
RTVSPost2010PropOp55
 70
     1
102
RTVSPost2010Prop56
140
1.0
102
RTVSPost2010PropOp56
 70
     1
102
RTVSPost2010Prop57
140
1.0
102
RTVSPost2010PropOp57
 70
     1
  0
XRECORD
  5
447
102
{ACAD_REACTORS
330
446
102
}
330
446
100
AcDbXrecord
280
     1
102
RTVSPropertyOp0
 70
     1
102
RTVSPropertyOp1
 70
     1
102
RTVSPropertyOp2
 70
     1
102
RTVSPropertyOp3
 70
     1
102
RTVSPropertyOp4
 70
     1
102
RTVSPropertyOp5
 70
     1
102
RTVSPropertyOp6
 70
     1
102
RTVSPropertyOp7
 70
     1
102
RTVSPropertyOp8
 70
     1
102
RTVSPropertyOp9
 70
     1
102
RTVSPropertyOp10
 70
     1
102
RTVSPropertyOp11
 70
     1
102
RTVSPropertyOp12
 70
     1
102
RTVSPropertyOp13
 70
     1
102
RTVSPropertyOp14
 70
     1
102
RTVSPropertyOp15
 70
     1
102
RTVSPropertyOp16
 70
     1
102
RTVSPropertyOp17
 70
     1
102
RTVSPropertyOp18
 70
     1
102
RTVSPropertyOp19
 70
     1
102
RTVSPropertyOp20
 70
     1
102
RTVSPropertyOp21
 70
     1
102
RTVSPropertyOp22
 70
     1
102
RTVSPropertyOp23
 70
     1
102
RTVSPropertyOp24
 70
     1
102
RTVSPropertyOp25
 70
     1
102
RTVSPropertyOp26
 70
     1
102
RTVSPropertyOp27
 70
     1
102
RTVSPropertyOp28
 70
     1
102
RTVSPropertyOp29
 70
     1
102
RTVSPropertyOp30
 70
     1
102
RTVSPropertyOp31
 70
     1
102
RTVSPropertyOp32
 70
     1
102
RTVSPropertyOp33
 70
     1
102
RTVSPropertyOp34
 70
     1
102
RTVSPropertyOp35
 70
     1
102
RTVSPropertyOp36
 70
     1
102
RTVSPropertyOp37
 70
     1
102
RTVSPropertyOp38
 70
     1
102
RTVSPropertyOp39
 70
     1
102
RTVSPropertyOp40
 70
     1
102
RTVSPropertyOp41
 70
     1
102
RTVSPropertyOp42
 70
     1
102
RTVSPropertyOp43
 70
     1
102
RTVSPropertyOp44
 70
     1
102
RTVSPropertyOp45
 70
     1
102
RTVSPropertyOp46
 70
     1
102
RTVSPropertyOp47
 70
     1
102
RTVSPropertyOp48
 70
     1
102
RTVSPropertyOp49
 70
     1
102
RTVSPropertyOp50
 70
     1
102
RTVSPropertyOp51
 70
     0
102
RTVSPropertyOp52
 70
     0
102
RTVSPropertyOp53
 70
     1
102
RTVSPropertyOp54
 70
     1
102
RTVSPropertyOp55
 70
     1
102
RTVSPropertyOp56
 70
     1
102
RTVSPropertyOp57
 70
     1
102
RTVSPost2010Prop28
280
     0
102
RTVSPost2010PropOp28
 70
     1
102
RTVSPost2010Prop29
280
     1
102
RTVSPost2010PropOp29
 70
     1
102
RTVSPost2010Prop30
280
     1
102
RTVSPost2010PropOp30
 70
     1
102
RTVSPost2010Prop31
280
     0
102
RTVSPost2010PropOp31
 70
     1
102
RTVSPost2010Prop32
280
     0
102
RTVSPost2010PropOp32
 70
     1
102
RTVSPost2010Prop33
280
     0
102
RTVSPost2010PropOp33
 70
     1
102
RTVSPost2010Prop34
280
     0
102
RTVSPost2010PropOp34
 70
     1
102
RTVSPost2010Prop35
280
     0
102
RTVSPost2010PropOp35
 70
     1
102
RTVSPost2010Prop36
280
     0
102
RTVSPost2010PropOp36
 70
     1
102
RTVSPost2010Prop37
 90
       50
102
RTVSPost2010PropOp37
 70
     1
102
RTVSPost2010Prop38
140
0.0
102
RTVSPost2010PropOp38
 70
     1
102
RTVSPost2010Prop39
140
1.0
102
RTVSPost2010PropOp39
 70
     1
102
RTVSPost2010Prop40
 90
        0
102
RTVSPost2010PropOp40
 70
     1
102
RTVSPost2010Prop41ColorIndex
 90
       18
102
RTVSPost2010Prop41ColorRGB
 90
        0
102
RTVSPost2010PropOp41
 70
     1
102
RTVSPost2010Prop42
 90
       50
102
RTVSPost2010PropOp42
 70
     1
102
RTVSPost2010Prop43
 90
        3
102
RTVSPost2010PropOp43
 70
     1
102
RTVSPost2010Prop44ColorIndex
 90
        5
102
RTVSPost2010Prop44ColorRGB
 90
      255
102
RTVSPost2010PropOp44
 70
     1
102
RTVSPost2010Prop45
280
     0
102
RTVSPost2010PropOp45
 70
     1
102
RTVSPost2010Prop46
 90
       50
102
RTVSPost2010PropOp46
 70
     1
102
RTVSPost2010Prop47
 90
       50
102
RTVSPost2010PropOp47
 70
     1
102
RTVSPost2010Prop48
 90
       50
102
RTVSPost2010PropOp48
 70
     1
102
RTVSPost2010Prop49
280
     0
102
RTVSPost2010PropOp49
 70
     1
102
RTVSPost2010Prop50
 90
       50
102
RTVSPost2010PropOp50
 70
     1
102
RTVSPost2010Prop51ColorIndex
 90
      256
102
RTVSPost2010Prop51ColorRGB
 90
-16777216
102
RTVSPost2010PropOp51
 70
     0
102
RTVSPost2010Prop52
140
1.0
102
RTVSPost2010PropOp52
 70
     0
102
RTVSPost2010Prop53
 90
        2
102
RTVSPost2010PropOp53
 70
     1
102
RTVSPost2010Prop54
  1
strokes_ogs.tif
102
RTVSPost2010PropOp54
 70
     1
102
RTVSPost2010Prop55
280
     0
102
RTVSPost2010PropOp55
 70
     1
102
RTVSPost2010Prop56
140
1.0
102
RTVSPost2010PropOp56
 70
     1
102
RTVSPost2010Prop57
140
1.0
102
RTVSPost2010PropOp57
 70
     1
  0
XRECORD
  5
441
102
{ACAD_REACTORS
330
440
102
}
330
440
100
AcDbXrecord
280
     1
102
RTVSPropertyOp0
 70
     1
102
RTVSPropertyOp1
 70
     1
102
RTVSPropertyOp2
 70
     1
102
RTVSPropertyOp3
 70
     1
102
RTVSPropertyOp4
 70
     1
102
RTVSPropertyOp5
 70
     1
102
RTVSPropertyOp6
 70
     1
102
RTVSPropertyOp7
 70
     1
102
RTVSPropertyOp8
 70
     1
102
RTVSPropertyOp9
 70
     1
102
RTVSPropertyOp10
 70
     1
102
RTVSPropertyOp11
 70
     1
102
RTVSPropertyOp12
 70
     1
102
RTVSPropertyOp13
 70
     1
102
RTVSPropertyOp14
 70
     1
102
RTVSPropertyOp15
 70
     1
102
RTVSPropertyOp16
 70
     1
102
RTVSPropertyOp17
 70
     1
102
RTVSPropertyOp18
 70
     1
102
RTVSPropertyOp19
 70
     1
102
RTVSPropertyOp20
 70
     1
102
RTVSPropertyOp21
 70
     1
102
RTVSPropertyOp22
 70
     1
102
RTVSPropertyOp23
 70
     1
102
RTVSPropertyOp24
 70
     1
102
RTVSPropertyOp25
 70
     1
102
RTVSPropertyOp26
 70
     1
102
RTVSPropertyOp27
 70
     1
102
RTVSPropertyOp28
 70
     1
102
RTVSPropertyOp29
 70
     1
102
RTVSPropertyOp30
 70
     1
102
RTVSPropertyOp31
 70
     1
102
RTVSPropertyOp32
 70
     1
102
RTVSPropertyOp33
 70
     1
102
RTVSPropertyOp34
 70
     1
102
RTVSPropertyOp35
 70
     1
102
RTVSPropertyOp36
 70
     1
102
RTVSPropertyOp37
 70
     1
102
RTVSPropertyOp38
 70
     1
102
RTVSPropertyOp39
 70
     1
102
RTVSPropertyOp40
 70
     1
102
RTVSPropertyOp41
 70
     1
102
RTVSPropertyOp42
 70
     1
102
RTVSPropertyOp43
 70
     1
102
RTVSPropertyOp44
 70
     1
102
RTVSPropertyOp45
 70
     1
102
RTVSPropertyOp46
 70
     1
102
RTVSPropertyOp47
 70
     1
102
RTVSPropertyOp48
 70
     1
102
RTVSPropertyOp49
 70
     1
102
RTVSPropertyOp50
 70
     1
102
RTVSPropertyOp51
 70
     0
102
RTVSPropertyOp52
 70
     0
102
RTVSPropertyOp53
 70
     1
102
RTVSPropertyOp54
 70
     1
102
RTVSPropertyOp55
 70
     1
102
RTVSPropertyOp56
 70
     1
102
RTVSPropertyOp57
 70
     1
102
RTVSPost2010Prop28
280
     0
102
RTVSPost2010PropOp28
 70
     1
102
RTVSPost2010Prop29
280
     1
102
RTVSPost2010PropOp29
 70
     1
102
RTVSPost2010Prop30
280
     1
102
RTVSPost2010PropOp30
 70
     1
102
RTVSPost2010Prop31
280
     0
102
RTVSPost2010PropOp31
 70
     1
102
RTVSPost2010Prop32
280
     0
102
RTVSPost2010PropOp32
 70
     1
102
RTVSPost2010Prop33
280
     0
102
RTVSPost2010PropOp33
 70
     1
102
RTVSPost2010Prop34
280
     0
102
RTVSPost2010PropOp34
 70
     1
102
RTVSPost2010Prop35
280
     0
102
RTVSPost2010PropOp35
 70
     1
102
RTVSPost2010Prop36
280
     0
102
RTVSPost2010PropOp36
 70
     1
102
RTVSPost2010Prop37
 90
       50
102
RTVSPost2010PropOp37
 70
     1
102
RTVSPost2010Prop38
140
0.0
102
RTVSPost2010PropOp38
 70
     1
102
RTVSPost2010Prop39
140
1.0
102
RTVSPost2010PropOp39
 70
     1
102
RTVSPost2010Prop40
 90
        0
102
RTVSPost2010PropOp40
 70
     1
102
RTVSPost2010Prop41ColorIndex
 90
       18
102
RTVSPost2010Prop41ColorRGB
 90
        0
102
RTVSPost2010PropOp41
 70
     1
102
RTVSPost2010Prop42
 90
       50
102
RTVSPost2010PropOp42
 70
     1
102
RTVSPost2010Prop43
 90
        3
102
RTVSPost2010PropOp43
 70
     1
102
RTVSPost2010Prop44ColorIndex
 90
        5
102
RTVSPost2010Prop44ColorRGB
 90
      255
102
RTVSPost2010PropOp44
 70
     1
102
RTVSPost2010Prop45
280
     0
102
RTVSPost2010PropOp45
 70
     1
102
RTVSPost2010Prop46
 90
       50
102
RTVSPost2010PropOp46
 70
     1
102
RTVSPost2010Prop47
 90
       50
102
RTVSPost2010PropOp47
 70
     1
102
RTVSPost2010Prop48
 90
       50
102
RTVSPost2010PropOp48
 70
     1
102
RTVSPost2010Prop49
280
     0
102
RTVSPost2010PropOp49
 70
     1
102
RTVSPost2010Prop50
 90
       50
102
RTVSPost2010PropOp50
 70
     1
102
RTVSPost2010Prop51ColorIndex
 90
      256
102
RTVSPost2010Prop51ColorRGB
 90
-16777216
102
RTVSPost2010PropOp51
 70
     0
102
RTVSPost2010Prop52
140
1.0
102
RTVSPost2010PropOp52
 70
     0
102
RTVSPost2010Prop53
 90
        2
102
RTVSPost2010PropOp53
 70
     1
102
RTVSPost2010Prop54
  1
strokes_ogs.tif
102
RTVSPost2010PropOp54
 70
     1
102
RTVSPost2010Prop55
280
     0
102
RTVSPost2010PropOp55
 70
     1
102
RTVSPost2010Prop56
140
1.0
102
RTVSPost2010PropOp56
 70
     1
102
RTVSPost2010Prop57
140
1.0
102
RTVSPost2010PropOp57
 70
     1
  0
XRECORD
  5
443
102
{ACAD_REACTORS
330
442
102
}
330
442
100
AcDbXrecord
280
     1
102
RTVSPropertyOp0
 70
     1
102
RTVSPropertyOp1
 70
     1
102
RTVSPropertyOp2
 70
     1
102
RTVSPropertyOp3
 70
     1
102
RTVSPropertyOp4
 70
     1
102
RTVSPropertyOp5
 70
     1
102
RTVSPropertyOp6
 70
     1
102
RTVSPropertyOp7
 70
     1
102
RTVSPropertyOp8
 70
     1
102
RTVSPropertyOp9
 70
     1
102
RTVSPropertyOp10
 70
     1
102
RTVSPropertyOp11
 70
     1
102
RTVSPropertyOp12
 70
     1
102
RTVSPropertyOp13
 70
     1
102
RTVSPropertyOp14
 70
     1
102
RTVSPropertyOp15
 70
     1
102
RTVSPropertyOp16
 70
     1
102
RTVSPropertyOp17
 70
     1
102
RTVSPropertyOp18
 70
     1
102
RTVSPropertyOp19
 70
     1
102
RTVSPropertyOp20
 70
     1
102
RTVSPropertyOp21
 70
     1
102
RTVSPropertyOp22
 70
     1
102
RTVSPropertyOp23
 70
     1
102
RTVSPropertyOp24
 70
     1
102
RTVSPropertyOp25
 70
     1
102
RTVSPropertyOp26
 70
     1
102
RTVSPropertyOp27
 70
     1
102
RTVSPropertyOp28
 70
     1
102
RTVSPropertyOp29
 70
     1
102
RTVSPropertyOp30
 70
     1
102
RTVSPropertyOp31
 70
     1
102
RTVSPropertyOp32
 70
     1
102
RTVSPropertyOp33
 70
     1
102
RTVSPropertyOp34
 70
     1
102
RTVSPropertyOp35
 70
     1
102
RTVSPropertyOp36
 70
     1
102
RTVSPropertyOp37
 70
     1
102
RTVSPropertyOp38
 70
     1
102
RTVSPropertyOp39
 70
     1
102
RTVSPropertyOp40
 70
     1
102
RTVSPropertyOp41
 70
     1
102
RTVSPropertyOp42
 70
     1
102
RTVSPropertyOp43
 70
     1
102
RTVSPropertyOp44
 70
     1
102
RTVSPropertyOp45
 70
     1
102
RTVSPropertyOp46
 70
     1
102
RTVSPropertyOp47
 70
     1
102
RTVSPropertyOp48
 70
     1
102
RTVSPropertyOp49
 70
     1
102
RTVSPropertyOp50
 70
     1
102
RTVSPropertyOp51
 70
     0
102
RTVSPropertyOp52
 70
     0
102
RTVSPropertyOp53
 70
     1
102
RTVSPropertyOp54
 70
     1
102
RTVSPropertyOp55
 70
     1
102
RTVSPropertyOp56
 70
     1
102
RTVSPropertyOp57
 70
     1
102
RTVSPost2010Prop28
280
     0
102
RTVSPost2010PropOp28
 70
     1
102
RTVSPost2010Prop29
280
     1
102
RTVSPost2010PropOp29
 70
     1
102
RTVSPost2010Prop30
280
     1
102
RTVSPost2010PropOp30
 70
     1
102
RTVSPost2010Prop31
280
     0
102
RTVSPost2010PropOp31
 70
     1
102
RTVSPost2010Prop32
280
     0
102
RTVSPost2010PropOp32
 70
     1
102
RTVSPost2010Prop33
280
     0
102
RTVSPost2010PropOp33
 70
     1
102
RTVSPost2010Prop34
280
     0
102
RTVSPost2010PropOp34
 70
     1
102
RTVSPost2010Prop35
280
     0
102
RTVSPost2010PropOp35
 70
     1
102
RTVSPost2010Prop36
280
     0
102
RTVSPost2010PropOp36
 70
     1
102
RTVSPost2010Prop37
 90
       50
102
RTVSPost2010PropOp37
 70
     1
102
RTVSPost2010Prop38
140
0.0
102
RTVSPost2010PropOp38
 70
     1
102
RTVSPost2010Prop39
140
1.0
102
RTVSPost2010PropOp39
 70
     1
102
RTVSPost2010Prop40
 90
        0
102
RTVSPost2010PropOp40
 70
     1
102
RTVSPost2010Prop41ColorIndex
 90
       18
102
RTVSPost2010Prop41ColorRGB
 90
        0
102
RTVSPost2010PropOp41
 70
     1
102
RTVSPost2010Prop42
 90
       50
102
RTVSPost2010PropOp42
 70
     1
102
RTVSPost2010Prop43
 90
        3
102
RTVSPost2010PropOp43
 70
     1
102
RTVSPost2010Prop44ColorIndex
 90
        5
102
RTVSPost2010Prop44ColorRGB
 90
      255
102
RTVSPost2010PropOp44
 70
     1
102
RTVSPost2010Prop45
280
     0
102
RTVSPost2010PropOp45
 70
     1
102
RTVSPost2010Prop46
 90
       50
102
RTVSPost2010PropOp46
 70
     1
102
RTVSPost2010Prop47
 90
       50
102
RTVSPost2010PropOp47
 70
     1
102
RTVSPost2010Prop48
 90
       50
102
RTVSPost2010PropOp48
 70
     1
102
RTVSPost2010Prop49
280
     0
102
RTVSPost2010PropOp49
 70
     1
102
RTVSPost2010Prop50
 90
       50
102
RTVSPost2010PropOp50
 70
     1
102
RTVSPost2010Prop51ColorIndex
 90
      256
102
RTVSPost2010Prop51ColorRGB
 90
-16777216
102
RTVSPost2010PropOp51
 70
     0
102
RTVSPost2010Prop52
140
1.0
102
RTVSPost2010PropOp52
 70
     0
102
RTVSPost2010Prop53
 90
        2
102
RTVSPost2010PropOp53
 70
     1
102
RTVSPost2010Prop54
  1
strokes_ogs.tif
102
RTVSPost2010PropOp54
 70
     1
102
RTVSPost2010Prop55
280
     0
102
RTVSPost2010PropOp55
 70
     1
102
RTVSPost2010Prop56
140
1.0
102
RTVSPost2010PropOp56
 70
     1
102
RTVSPost2010Prop57
140
1.0
102
RTVSPost2010PropOp57
 70
     1
  0
XRECORD
  5
433
102
{ACAD_REACTORS
330
432
102
}
330
432
100
AcDbXrecord
280
     1
102
RTVSPropertyOp0
 70
     1
102
RTVSPropertyOp1
 70
     1
102
RTVSPropertyOp2
 70
     1
102
RTVSPropertyOp3
 70
     1
102
RTVSPropertyOp4
 70
     1
102
RTVSPropertyOp5
 70
     1
102
RTVSPropertyOp6
 70
     1
102
RTVSPropertyOp7
 70
     1
102
RTVSPropertyOp8
 70
     1
102
RTVSPropertyOp9
 70
     1
102
RTVSPropertyOp10
 70
     1
102
RTVSPropertyOp11
 70
     1
102
RTVSPropertyOp12
 70
     1
102
RTVSPropertyOp13
 70
     1
102
RTVSPropertyOp14
 70
     1
102
RTVSPropertyOp15
 70
     1
102
RTVSPropertyOp16
 70
     1
102
RTVSPropertyOp17
 70
     1
102
RTVSPropertyOp18
 70
     1
102
RTVSPropertyOp19
 70
     1
102
RTVSPropertyOp20
 70
     1
102
RTVSPropertyOp21
 70
     1
102
RTVSPropertyOp22
 70
     1
102
RTVSPropertyOp23
 70
     1
102
RTVSPropertyOp24
 70
     1
102
RTVSPropertyOp25
 70
     1
102
RTVSPropertyOp26
 70
     1
102
RTVSPropertyOp27
 70
     1
102
RTVSPropertyOp28
 70
     1
102
RTVSPropertyOp29
 70
     1
102
RTVSPropertyOp30
 70
     1
102
RTVSPropertyOp31
 70
     1
102
RTVSPropertyOp32
 70
     1
102
RTVSPropertyOp33
 70
     1
102
RTVSPropertyOp34
 70
     1
102
RTVSPropertyOp35
 70
     1
102
RTVSPropertyOp36
 70
     1
102
RTVSPropertyOp37
 70
     1
102
RTVSPropertyOp38
 70
     1
102
RTVSPropertyOp39
 70
     1
102
RTVSPropertyOp40
 70
     1
102
RTVSPropertyOp41
 70
     1
102
RTVSPropertyOp42
 70
     1
102
RTVSPropertyOp43
 70
     1
102
RTVSPropertyOp44
 70
     1
102
RTVSPropertyOp45
 70
     1
102
RTVSPropertyOp46
 70
     1
102
RTVSPropertyOp47
 70
     1
102
RTVSPropertyOp48
 70
     1
102
RTVSPropertyOp49
 70
     1
102
RTVSPropertyOp50
 70
     1
102
RTVSPropertyOp51
 70
     0
102
RTVSPropertyOp52
 70
     0
102
RTVSPropertyOp53
 70
     1
102
RTVSPropertyOp54
 70
     1
102
RTVSPropertyOp55
 70
     1
102
RTVSPropertyOp56
 70
     1
102
RTVSPropertyOp57
 70
     1
102
RTVSPost2010Prop28
280
     0
102
RTVSPost2010PropOp28
 70
     1
102
RTVSPost2010Prop29
280
     1
102
RTVSPost2010PropOp29
 70
     1
102
RTVSPost2010Prop30
280
     1
102
RTVSPost2010PropOp30
 70
     1
102
RTVSPost2010Prop31
280
     0
102
RTVSPost2010PropOp31
 70
     1
102
RTVSPost2010Prop32
280
     0
102
RTVSPost2010PropOp32
 70
     1
102
RTVSPost2010Prop33
280
     0
102
RTVSPost2010PropOp33
 70
     1
102
RTVSPost2010Prop34
280
     0
102
RTVSPost2010PropOp34
 70
     1
102
RTVSPost2010Prop35
280
     0
102
RTVSPost2010PropOp35
 70
     1
102
RTVSPost2010Prop36
280
     0
102
RTVSPost2010PropOp36
 70
     1
102
RTVSPost2010Prop37
 90
       50
102
RTVSPost2010PropOp37
 70
     1
102
RTVSPost2010Prop38
140
0.0
102
RTVSPost2010PropOp38
 70
     1
102
RTVSPost2010Prop39
140
1.0
102
RTVSPost2010PropOp39
 70
     1
102
RTVSPost2010Prop40
 90
        0
102
RTVSPost2010PropOp40
 70
     1
102
RTVSPost2010Prop41ColorIndex
 90
       18
102
RTVSPost2010Prop41ColorRGB
 90
        0
102
RTVSPost2010PropOp41
 70
     1
102
RTVSPost2010Prop42
 90
       50
102
RTVSPost2010PropOp42
 70
     1
102
RTVSPost2010Prop43
 90
        3
102
RTVSPost2010PropOp43
 70
     1
102
RTVSPost2010Prop44ColorIndex
 90
        5
102
RTVSPost2010Prop44ColorRGB
 90
      255
102
RTVSPost2010PropOp44
 70
     1
102
RTVSPost2010Prop45
280
     0
102
RTVSPost2010PropOp45
 70
     1
102
RTVSPost2010Prop46
 90
       50
102
RTVSPost2010PropOp46
 70
     1
102
RTVSPost2010Prop47
 90
       50
102
RTVSPost2010PropOp47
 70
     1
102
RTVSPost2010Prop48
 90
       50
102
RTVSPost2010PropOp48
 70
     1
102
RTVSPost2010Prop49
280
     0
102
RTVSPost2010PropOp49
 70
     1
102
RTVSPost2010Prop50
 90
       50
102
RTVSPost2010PropOp50
 70
     1
102
RTVSPost2010Prop51ColorIndex
 90
      256
102
RTVSPost2010Prop51ColorRGB
 90
-16777216
102
RTVSPost2010PropOp51
 70
     0
102
RTVSPost2010Prop52
140
1.0
102
RTVSPost2010PropOp52
 70
     0
102
RTVSPost2010Prop53
 90
        2
102
RTVSPost2010PropOp53
 70
     1
102
RTVSPost2010Prop54
  1
strokes_ogs.tif
102
RTVSPost2010PropOp54
 70
     1
102
RTVSPost2010Prop55
280
     0
102
RTVSPost2010PropOp55
 70
     1
102
RTVSPost2010Prop56
140
1.0
102
RTVSPost2010PropOp56
 70
     1
102
RTVSPost2010Prop57
140
1.0
102
RTVSPost2010PropOp57
 70
     1
  0
XRECORD
  5
425
102
{ACAD_REACTORS
330
424
102
}
330
424
100
AcDbXrecord
280
     1
102
RTVSPropertyOp0
 70
     1
102
RTVSPropertyOp1
 70
     1
102
RTVSPropertyOp2
 70
     1
102
RTVSPropertyOp3
 70
     1
102
RTVSPropertyOp4
 70
     1
102
RTVSPropertyOp5
 70
     1
102
RTVSPropertyOp6
 70
     1
102
RTVSPropertyOp7
 70
     1
102
RTVSPropertyOp8
 70
     1
102
RTVSPropertyOp9
 70
     1
102
RTVSPropertyOp10
 70
     1
102
RTVSPropertyOp11
 70
     1
102
RTVSPropertyOp12
 70
     1
102
RTVSPropertyOp13
 70
     1
102
RTVSPropertyOp14
 70
     1
102
RTVSPropertyOp15
 70
     1
102
RTVSPropertyOp16
 70
     1
102
RTVSPropertyOp17
 70
     1
102
RTVSPropertyOp18
 70
     1
102
RTVSPropertyOp19
 70
     1
102
RTVSPropertyOp20
 70
     1
102
RTVSPropertyOp21
 70
     1
102
RTVSPropertyOp22
 70
     1
102
RTVSPropertyOp23
 70
     1
102
RTVSPropertyOp24
 70
     1
102
RTVSPropertyOp25
 70
     1
102
RTVSPropertyOp26
 70
     1
102
RTVSPropertyOp27
 70
     1
102
RTVSPropertyOp28
 70
     1
102
RTVSPropertyOp29
 70
     1
102
RTVSPropertyOp30
 70
     1
102
RTVSPropertyOp31
 70
     1
102
RTVSPropertyOp32
 70
     1
102
RTVSPropertyOp33
 70
     1
102
RTVSPropertyOp34
 70
     1
102
RTVSPropertyOp35
 70
     1
102
RTVSPropertyOp36
 70
     1
102
RTVSPropertyOp37
 70
     1
102
RTVSPropertyOp38
 70
     1
102
RTVSPropertyOp39
 70
     1
102
RTVSPropertyOp40
 70
     1
102
RTVSPropertyOp41
 70
     1
102
RTVSPropertyOp42
 70
     1
102
RTVSPropertyOp43
 70
     1
102
RTVSPropertyOp44
 70
     1
102
RTVSPropertyOp45
 70
     1
102
RTVSPropertyOp46
 70
     1
102
RTVSPropertyOp47
 70
     1
102
RTVSPropertyOp48
 70
     1
102
RTVSPropertyOp49
 70
     1
102
RTVSPropertyOp50
 70
     1
102
RTVSPropertyOp51
 70
     0
102
RTVSPropertyOp52
 70
     0
102
RTVSPropertyOp53
 70
     1
102
RTVSPropertyOp54
 70
     1
102
RTVSPropertyOp55
 70
     1
102
RTVSPropertyOp56
 70
     1
102
RTVSPropertyOp57
 70
     1
102
RTVSPost2010Prop28
280
     0
102
RTVSPost2010PropOp28
 70
     1
102
RTVSPost2010Prop29
280
     1
102
RTVSPost2010PropOp29
 70
     1
102
RTVSPost2010Prop30
280
     1
102
RTVSPost2010PropOp30
 70
     1
102
RTVSPost2010Prop31
280
     0
102
RTVSPost2010PropOp31
 70
     1
102
RTVSPost2010Prop32
280
     0
102
RTVSPost2010PropOp32
 70
     1
102
RTVSPost2010Prop33
280
     0
102
RTVSPost2010PropOp33
 70
     1
102
RTVSPost2010Prop34
280
     0
102
RTVSPost2010PropOp34
 70
     1
102
RTVSPost2010Prop35
280
     0
102
RTVSPost2010PropOp35
 70
     1
102
RTVSPost2010Prop36
280
     0
102
RTVSPost2010PropOp36
 70
     1
102
RTVSPost2010Prop37
 90
       50
102
RTVSPost2010PropOp37
 70
     1
102
RTVSPost2010Prop38
140
0.0
102
RTVSPost2010PropOp38
 70
     1
102
RTVSPost2010Prop39
140
1.0
102
RTVSPost2010PropOp39
 70
     1
102
RTVSPost2010Prop40
 90
        0
102
RTVSPost2010PropOp40
 70
     1
102
RTVSPost2010Prop41ColorIndex
 90
       18
102
RTVSPost2010Prop41ColorRGB
 90
        0
102
RTVSPost2010PropOp41
 70
     1
102
RTVSPost2010Prop42
 90
       50
102
RTVSPost2010PropOp42
 70
     1
102
RTVSPost2010Prop43
 90
        3
102
RTVSPost2010PropOp43
 70
     1
102
RTVSPost2010Prop44ColorIndex
 90
        5
102
RTVSPost2010Prop44ColorRGB
 90
      255
102
RTVSPost2010PropOp44
 70
     1
102
RTVSPost2010Prop45
280
     0
102
RTVSPost2010PropOp45
 70
     1
102
RTVSPost2010Prop46
 90
       50
102
RTVSPost2010PropOp46
 70
     1
102
RTVSPost2010Prop47
 90
       50
102
RTVSPost2010PropOp47
 70
     1
102
RTVSPost2010Prop48
 90
       50
102
RTVSPost2010PropOp48
 70
     1
102
RTVSPost2010Prop49
280
     0
102
RTVSPost2010PropOp49
 70
     1
102
RTVSPost2010Prop50
 90
       50
102
RTVSPost2010PropOp50
 70
     1
102
RTVSPost2010Prop51ColorIndex
 90
      256
102
RTVSPost2010Prop51ColorRGB
 90
-16777216
102
RTVSPost2010PropOp51
 70
     0
102
RTVSPost2010Prop52
140
1.0
102
RTVSPost2010PropOp52
 70
     0
102
RTVSPost2010Prop53
 90
        2
102
RTVSPost2010PropOp53
 70
     1
102
RTVSPost2010Prop54
  1
strokes_ogs.tif
102
RTVSPost2010PropOp54
 70
     1
102
RTVSPost2010Prop55
280
     0
102
RTVSPost2010PropOp55
 70
     1
102
RTVSPost2010Prop56
140
1.0
102
RTVSPost2010PropOp56
 70
     1
102
RTVSPost2010Prop57
140
1.0
102
RTVSPost2010PropOp57
 70
     1
  0
XRECORD
  5
445
102
{ACAD_REACTORS
330
444
102
}
330
444
100
AcDbXrecord
280
     1
102
RTVSPropertyOp0
 70
     1
102
RTVSPropertyOp1
 70
     1
102
RTVSPropertyOp2
 70
     1
102
RTVSPropertyOp3
 70
     1
102
RTVSPropertyOp4
 70
     1
102
RTVSPropertyOp5
 70
     1
102
RTVSPropertyOp6
 70
     1
102
RTVSPropertyOp7
 70
     1
102
RTVSPropertyOp8
 70
     1
102
RTVSPropertyOp9
 70
     1
102
RTVSPropertyOp10
 70
     1
102
RTVSPropertyOp11
 70
     1
102
RTVSPropertyOp12
 70
     1
102
RTVSPropertyOp13
 70
     1
102
RTVSPropertyOp14
 70
     1
102
RTVSPropertyOp15
 70
     1
102
RTVSPropertyOp16
 70
     1
102
RTVSPropertyOp17
 70
     1
102
RTVSPropertyOp18
 70
     1
102
RTVSPropertyOp19
 70
     1
102
RTVSPropertyOp20
 70
     1
102
RTVSPropertyOp21
 70
     1
102
RTVSPropertyOp22
 70
     1
102
RTVSPropertyOp23
 70
     1
102
RTVSPropertyOp24
 70
     1
102
RTVSPropertyOp25
 70
     1
102
RTVSPropertyOp26
 70
     1
102
RTVSPropertyOp27
 70
     1
102
RTVSPropertyOp28
 70
     1
102
RTVSPropertyOp29
 70
     1
102
RTVSPropertyOp30
 70
     1
102
RTVSPropertyOp31
 70
     1
102
RTVSPropertyOp32
 70
     1
102
RTVSPropertyOp33
 70
     1
102
RTVSPropertyOp34
 70
     1
102
RTVSPropertyOp35
 70
     1
102
RTVSPropertyOp36
 70
     1
102
RTVSPropertyOp37
 70
     1
102
RTVSPropertyOp38
 70
     1
102
RTVSPropertyOp39
 70
     1
102
RTVSPropertyOp40
 70
     1
102
RTVSPropertyOp41
 70
     1
102
RTVSPropertyOp42
 70
     1
102
RTVSPropertyOp43
 70
     1
102
RTVSPropertyOp44
 70
     1
102
RTVSPropertyOp45
 70
     1
102
RTVSPropertyOp46
 70
     1
102
RTVSPropertyOp47
 70
     1
102
RTVSPropertyOp48
 70
     1
102
RTVSPropertyOp49
 70
     1
102
RTVSPropertyOp50
 70
     1
102
RTVSPropertyOp51
 70
     0
102
RTVSPropertyOp52
 70
     0
102
RTVSPropertyOp53
 70
     1
102
RTVSPropertyOp54
 70
     1
102
RTVSPropertyOp55
 70
     1
102
RTVSPropertyOp56
 70
     1
102
RTVSPropertyOp57
 70
     1
102
RTVSPost2010Prop28
280
     0
102
RTVSPost2010PropOp28
 70
     1
102
RTVSPost2010Prop29
280
     1
102
RTVSPost2010PropOp29
 70
     1
102
RTVSPost2010Prop30
280
     1
102
RTVSPost2010PropOp30
 70
     1
102
RTVSPost2010Prop31
280
     0
102
RTVSPost2010PropOp31
 70
     1
102
RTVSPost2010Prop32
280
     0
102
RTVSPost2010PropOp32
 70
     1
102
RTVSPost2010Prop33
280
     0
102
RTVSPost2010PropOp33
 70
     1
102
RTVSPost2010Prop34
280
     0
102
RTVSPost2010PropOp34
 70
     1
102
RTVSPost2010Prop35
280
     0
102
RTVSPost2010PropOp35
 70
     1
102
RTVSPost2010Prop36
280
     0
102
RTVSPost2010PropOp36
 70
     1
102
RTVSPost2010Prop37
 90
       50
102
RTVSPost2010PropOp37
 70
     1
102
RTVSPost2010Prop38
140
0.0
102
RTVSPost2010PropOp38
 70
     1
102
RTVSPost2010Prop39
140
1.0
102
RTVSPost2010PropOp39
 70
     1
102
RTVSPost2010Prop40
 90
        0
102
RTVSPost2010PropOp40
 70
     1
102
RTVSPost2010Prop41ColorIndex
 90
       18
102
RTVSPost2010Prop41ColorRGB
 90
        0
102
RTVSPost2010PropOp41
 70
     1
102
RTVSPost2010Prop42
 90
       50
102
RTVSPost2010PropOp42
 70
     1
102
RTVSPost2010Prop43
 90
        3
102
RTVSPost2010PropOp43
 70
     1
102
RTVSPost2010Prop44ColorIndex
 90
        5
102
RTVSPost2010Prop44ColorRGB
 90
      255
102
RTVSPost2010PropOp44
 70
     1
102
RTVSPost2010Prop45
280
     0
102
RTVSPost2010PropOp45
 70
     1
102
RTVSPost2010Prop46
 90
       50
102
RTVSPost2010PropOp46
 70
     1
102
RTVSPost2010Prop47
 90
       50
102
RTVSPost2010PropOp47
 70
     1
102
RTVSPost2010Prop48
 90
       50
102
RTVSPost2010PropOp48
 70
     1
102
RTVSPost2010Prop49
280
     0
102
RTVSPost2010PropOp49
 70
     1
102
RTVSPost2010Prop50
 90
       50
102
RTVSPost2010PropOp50
 70
     1
102
RTVSPost2010Prop51ColorIndex
 90
      256
102
RTVSPost2010Prop51ColorRGB
 90
-16777216
102
RTVSPost2010PropOp51
 70
     0
102
RTVSPost2010Prop52
140
1.0
102
RTVSPost2010PropOp52
 70
     0
102
RTVSPost2010Prop53
 90
        2
102
RTVSPost2010PropOp53
 70
     1
102
RTVSPost2010Prop54
  1
strokes_ogs.tif
102
RTVSPost2010PropOp54
 70
     1
102
RTVSPost2010Prop55
280
     0
102
RTVSPost2010PropOp55
 70
     1
102
RTVSPost2010Prop56
140
1.0
102
RTVSPost2010PropOp56
 70
     1
102
RTVSPost2010Prop57
140
1.0
102
RTVSPost2010PropOp57
 70
     1
  0
ENDSEC
  0
EOF
