  0
SECTION
  2
HEADER
  9
$ACADVER
  1
AC1018
  9
$ACADMAINTVER
 70
     0
  9
$DWGCODEPAGE
  3
ANSI_932
  9
$INSBASE
 10
0.0
 20
0.0
 30
0.0
  9
$EXTMIN
 10
-2100.0
 20
-1485.0
 30
0.0
  9
$EXTMAX
 10
2100.0
 20
1485.0
 30
0.0
  9
$LIMMIN
 10
-2100.0
 20
-1485.0
  9
$LIMMAX
 10
2100.0
 20
1485.0
  9
$ORTHOMODE
 70
     0
  9
$REGENMODE
 70
     1
  9
$FILLMODE
 70
     1
  9
$QTEXTMODE
 70
     0
  9
$MIRRTEXT
 70
     1
  9
$LTSCALE
 40
10.0
  9
$ATTMODE
 70
     1
  9
$TEXTSIZE
 40
2.5
  9
$TRACEWID
 40
1.0
  9
$TEXTSTYLE
  7
Standard
  9
$CLAYER
  8
0
  9
$CELTYPE
  6
ByLayer
  9
$CECOLOR
 62
   256
  9
$CELTSCALE
 40
1.0
  9
$DISPSILH
 70
     0
  9
$DIMSCALE
 40
1.0
  9
$DIMASZ
 40
2.5
  9
$DIMEXO
 40
0.625
  9
$DIMDLI
 40
3.75
  9
$DIMRND
 40
0.0
  9
$DIMDLE
 40
0.0
  9
$DIMEXE
 40
1.25
  9
$DIMTP
 40
0.0
  9
$DIMTM
 40
0.0
  9
$DIMTXT
 40
2.5
  9
$DIMCEN
 40
2.5
  9
$DIMTSZ
 40
0.0
  9
$DIMTOL
 70
     0
  9
$DIMLIM
 70
     0
  9
$DIMTIH
 70
     0
  9
$DIMTOH
 70
     0
  9
$DIMSE1
 70
     0
  9
$DIMSE2
 70
     0
  9
$DIMTAD
 70
     1
  9
$DIMZIN
 70
     8
  9
$DIMBLK
  1

  9
$DIMASO
 70
     1
  9
$DIMSHO
 70
     1
  9
$DIMPOST
  1

  9
$DIMAPOST
  1

  9
$DIMALT
 70
     0
  9
$DIMALTD
 70
     3
  9
$DIMALTF
 40
0.03937007874016
  9
$DIMLFAC
 40
1.0
  9
$DIMTOFL
 70
     1
  9
$DIMTVP
 40
0.0
  9
$DIMTIX
 70
     0
  9
$DIMSOXD
 70
     0
  9
$DIMSAH
 70
     0
  9
$DIMBLK1
  1

  9
$DIMBLK2
  1

  9
$DIMSTYLE
  2
ISO-25
  9
$DIMCLRD
 70
     0
  9
$DIMCLRE
 70
     0
  9
$DIMCLRT
 70
     0
  9
$DIMTFAC
 40
1.0
  9
$DIMGAP
 40
0.625
  9
$DIMJUST
 70
     0
  9
$DIMSD1
 70
     0
  9
$DIMSD2
 70
     0
  9
$DIMTOLJ
 70
     0
  9
$DIMTZIN
 70
     8
  9
$DIMALTZ
 70
     0
  9
$DIMALTTZ
 70
     0
  9
$DIMUPT
 70
     0
  9
$DIMDEC
 70
     2
  9
$DIMTDEC
 70
     2
  9
$DIMALTU
 70
     2
  9
$DIMALTTD
 70
     3
  9
$DIMTXSTY
  7
Standard
  9
$DIMAUNIT
 70
     0
  9
$DIMADEC
 70
     0
  9
$DIMALTRND
 40
0.0
  9
$DIMAZIN
 70
     0
  9
$DIMDSEP
 70
    44
  9
$DIMATFIT
 70
     3
  9
$DIMFRAC
 70
     0
  9
$DIMLDRBLK
  1

  9
$DIMLUNIT
 70
     2
  9
$DIMLWD
 70
    -2
  9
$DIMLWE
 70
    -2
  9
$DIMTMOVE
 70
     0
  9
$LUNITS
 70
     2
  9
$LUPREC
 70
     4
  9
$SKETCHINC
 40
1.0
  9
$FILLETRAD
 40
10.0
  9
$AUNITS
 70
     0
  9
$AUPREC
 70
     0
  9
$MENU
  1
.
  9
$ELEVATION
 40
0.0
  9
$PELEVATION
 40
0.0
  9
$THICKNESS
 40
0.0
  9
$LIMCHECK
 70
     0
  9
$CHAMFERA
 40
0.0
  9
$CHAMFERB
 40
0.0
  9
$CHAMFERC
 40
0.0
  9
$CHAMFERD
 40
0.0
  9
$SKPOLY
 70
     0
  9
$TDCREATE
 40
2459963.564982431
  9
$TDUCREATE
 40
2459963.189982431
  9
$TDUPDATE
 40
2459963.564982569
  9
$TDUUPDATE
 40
2459963.189982569
  9
$TDINDWG
 40
0.0000000116
  9
$TDUSRTIMER
 40
0.0000000116
  9
$USRTIMER
 70
     1
  9
$ANGBASE
 50
0.0
  9
$ANGDIR
 70
     0
  9
$PDMODE
 70
     0
  9
$PDSIZE
 40
0.0
  9
$PLINEWID
 40
0.0
  9
$SPLFRAME
 70
     0
  9
$SPLINETYPE
 70
     6
  9
$SPLINESEGS
 70
     8
  9
$HANDSEED
  5
38C
  9
$SURFTAB1
 70
     6
  9
$SURFTAB2
 70
     6
  9
$SURFTYPE
 70
     6
  9
$SURFU
 70
     6
  9
$SURFV
 70
     6
  9
$UCSBASE
  2

  9
$UCSNAME
  2

  9
$UCSORG
 10
0.0
 20
0.0
 30
0.0
  9
$UCSXDIR
 10
1.0
 20
0.0
 30
0.0
  9
$UCSYDIR
 10
0.0
 20
1.0
 30
0.0
  9
$UCSORTHOREF
  2

  9
$UCSORTHOVIEW
 70
     0
  9
$UCSORGTOP
 10
0.0
 20
0.0
 30
0.0
  9
$UCSORGBOTTOM
 10
0.0
 20
0.0
 30
0.0
  9
$UCSORGLEFT
 10
0.0
 20
0.0
 30
0.0
  9
$UCSORGRIGHT
 10
0.0
 20
0.0
 30
0.0
  9
$UCSORGFRONT
 10
0.0
 20
0.0
 30
0.0
  9
$UCSORGBACK
 10
0.0
 20
0.0
 30
0.0
  9
$PUCSBASE
  2

  9
$PUCSNAME
  2

  9
$PUCSORG
 10
0.0
 20
0.0
 30
0.0
  9
$PUCSXDIR
 10
1.0
 20
0.0
 30
0.0
  9
$PUCSYDIR
 10
0.0
 20
1.0
 30
0.0
  9
$PUCSORTHOREF
  2

  9
$PUCSORTHOVIEW
 70
     0
  9
$PUCSORGTOP
 10
0.0
 20
0.0
 30
0.0
  9
$PUCSORGBOTTOM
 10
0.0
 20
0.0
 30
0.0
  9
$PUCSORGLEFT
 10
0.0
 20
0.0
 30
0.0
  9
$PUCSORGRIGHT
 10
0.0
 20
0.0
 30
0.0
  9
$PUCSORGFRONT
 10
0.0
 20
0.0
 30
0.0
  9
$PUCSORGBACK
 10
0.0
 20
0.0
 30
0.0
  9
$USERI1
 70
     0
  9
$USERI2
 70
     0
  9
$USERI3
 70
     0
  9
$USERI4
 70
     0
  9
$USERI5
 70
     0
  9
$USERR1
 40
0.0
  9
$USERR2
 40
0.0
  9
$USERR3
 40
0.0
  9
$USERR4
 40
0.0
  9
$USERR5
 40
0.0
  9
$WORLDVIEW
 70
     1
  9
$SHADEDGE
 70
     3
  9
$SHADEDIF
 70
    70
  9
$TILEMODE
 70
     1
  9
$MAXACTVP
 70
    64
  9
$PINSBASE
 10
0.0
 20
0.0
 30
0.0
  9
$PLIMCHECK
 70
     0
  9
$PEXTMIN
 10
1.000000000000000E+20
 20
1.000000000000000E+20
 30
1.000000000000000E+20
  9
$PEXTMAX
 10
-1.000000000000000E+20
 20
-1.000000000000000E+20
 30
-1.000000000000000E+20
  9
$PLIMMIN
 10
0.0
 20
0.0
  9
$PLIMMAX
 10
420.0
 20
297.0
  9
$UNITMODE
 70
     0
  9
$VISRETAIN
 70
     1
  9
$PLINEGEN
 70
     0
  9
$PSLTSCALE
 70
     1
  9
$TREEDEPTH
 70
  3020
  9
$CMLSTYLE
  2
Standard
  9
$CMLJUST
 70
     0
  9
$CMLSCALE
 40
20.0
  9
$PROXYGRAPHICS
 70
     1
  9
$MEASUREMENT
 70
     1
  9
$CELWEIGHT
370
    -1
  9
$ENDCAPS
280
     0
  9
$JOINSTYLE
280
     0
  9
$LWDISPLAY
290
     0
  9
$INSUNITS
 70
     4
  9
$HYPERLINKBASE
  1

  9
$STYLESHEET
  1

  9
$XEDIT
290
     1
  9
$CEPSNTYPE
380
     0
  9
$PSTYLEMODE
290
     1
  9
$FINGERPRINTGUID
  2
{8EACAB41-7B52-4D59-B117-39E5698D2310}
  9
$VERSIONGUID
  2
{FAEB1C32-E019-11D5-929B-00C0DF256EC4}
  9
$EXTNAMES
290
     1
  9
$PSVPSCALE
 40
0.0
  9
$OLESTARTUP
290
     0
  9
$SORTENTS
280
   127
  9
$INDEXCTL
280
     0
  9
$HIDETEXT
280
     1
  9
$XCLIPFRAME
290
     0
  9
$HALOGAP
280
     0
  9
$OBSCOLOR
 70
   257
  9
$OBSLTYPE
280
     0
  9
$INTERSECTIONDISPLAY
280
     0
  9
$INTERSECTIONCOLOR
 70
   257
  9
$DIMASSOC
280
     2
  9
$PROJECTNAME
  1

  0
ENDSEC
  0
SECTION
  2
CLASSES
  0
CLASS
  1
ACDBDICTIONARYWDFLT
  2
AcDbDictionaryWithDefault
  3
ObjectDBX Classes
 90
        0
 91
        4
280
     0
281
     0
  0
CLASS
  1
VISUALSTYLE
  2
AcDbVisualStyle
  3
ObjectDBX Classes
 90
     4095
 91
        4
280
     0
281
     0
  0
CLASS
  1
MATERIAL
  2
AcDbMaterial
  3
ObjectDBX Classes
 90
     1153
 91
        4
280
     0
281
     0
  0
CLASS
  1
SCALE
  2
AcDbScale
  3
ObjectDBX Classes
 90
     1153
 91
        4
280
     0
281
     0
  0
CLASS
  1
TABLESTYLE
  2
AcDbTableStyle
  3
ObjectDBX Classes
 90
     4095
 91
        4
280
     0
281
     0
  0
CLASS
  1
MLEADERSTYLE
  2
AcDbMLeaderStyle
  3
ACDB_MLEADERSTYLE_CLASS
 90
     4095
 91
        4
280
     0
281
     0
  0
CLASS
  1
SUN
  2
AcDbSun
  3
SCENEOE
 90
     1153
 91
        4
280
     0
281
     0
  0
CLASS
  1
DICTIONARYVAR
  2
AcDbDictionaryVar
  3
ObjectDBX Classes
 90
        0
 91
        4
280
     0
281
     0
  0
CLASS
  1
CELLSTYLEMAP
  2
AcDbCellStyleMap
  3
ObjectDBX Classes
 90
     1152
 91
        4
280
     0
281
     0
  0
ENDSEC
  0
SECTION
  2
TABLES
  0
TABLE
  2
VPORT
  5
8
102
{ACAD_XDICTIONARY
360
343
102
}
330
0
100
AcDbSymbolTable
 70
     1
  0
VPORT
  5
29
330
8
100
AcDbSymbolTableRecord
100
AcDbViewportTableRecord
  2
*Active
 70
     0
 10
0.0
 20
0.0
 11
1.0
 21
1.0
 12
0.0
 22
0.0
 13
0.0
 23
0.0
 14
10.0
 24
10.0
 15
10.0
 25
10.0
 16
0.0
 26
0.0
 36
1.0
 17
0.0
 27
0.0
 37
0.0
 40
3267.0
 41
1.414141414141414
 42
50.0
 43
0.0
 44
0.0
 50
0.0
 51
0.0
 71
     0
 72
 10000
 73
     1
 74
     3
 75
     0
 76
     0
 77
     0
 78
     0
281
     0
 65
     1
110
0.0
120
0.0
130
0.0
111
1.0
121
0.0
131
0.0
112
0.0
122
1.0
132
0.0
 79
     0
146
0.0
  0
ENDTAB
  0
TABLE
  2
LTYPE
  5
5
330
0
100
AcDbSymbolTable
 70
     5
  0
LTYPE
  5
14
330
5
100
AcDbSymbolTableRecord
100
AcDbLinetypeTableRecord
  2
ByBlock
 70
     0
  3

 72
    65
 73
     0
 40
0.0
  0
LTYPE
  5
15
330
5
100
AcDbSymbolTableRecord
100
AcDbLinetypeTableRecord
  2
ByLayer
 70
     0
  3

 72
    65
 73
     0
 40
0.0
  0
LTYPE
  5
16
330
5
100
AcDbSymbolTableRecord
100
AcDbLinetypeTableRecord
  2
Continuous
 70
     0
  3
Solid line
 72
    65
 73
     0
 40
0.0
  0
LTYPE
  5
6F
330
5
100
AcDbSymbolTableRecord
100
AcDbLinetypeTableRecord
  2
JWW_DASHED3
 70
     0
  3
---  ------  ------  ------  ---
 72
    65
 73
     2
 40
3.386666666666667
 49
2.54
 74
     0
 49
-0.8466666666666667
 74
     0
  0
LTYPE
  5
70
330
5
100
AcDbSymbolTableRecord
100
AcDbLinetypeTableRecord
  2
JWW_DASHED2
 70
     0
  3
--    ----    ----    ----    --
 72
    65
 73
     2
 40
3.386666666666667
 49
1.693333333333333
 74
     0
 49
-1.693333333333333
 74
     0
  0
LTYPE
  5
71
330
5
100
AcDbSymbolTableRecord
100
AcDbLinetypeTableRecord
  2
JWW_CENTER2
 70
     0
  3
-------------  --  -------------
 72
    65
 73
     4
 40
13.54666666666667
 49
11.00666666666667
 74
     0
 49
-0.8466666666666667
 74
     0
 49
0.8466666666666667
 74
     0
 49
-0.8466666666666667
 74
     0
  0
LTYPE
  5
72
330
5
100
AcDbSymbolTableRecord
100
AcDbLinetypeTableRecord
  2
JWW_CENTER1
 70
     0
  3
-----  --  ----------  --  -----
 72
    65
 73
     4
 40
6.773333333333333
 49
4.233333333333333
 74
     0
 49
-0.8466666666666667
 74
     0
 49
0.8466666666666667
 74
     0
 49
-0.8466666666666667
 74
     0
  0
ENDTAB
  0
TABLE
  2
LAYER
  5
2
330
0
100
AcDbSymbolTable
 70
    14
  0
LAYER
  5
10
330
2
100
AcDbSymbolTableRecord
100
AcDbLayerTableRecord
  2
0
 70
     0
 62
     7
  6
Continuous
370
    -3
390
F
  0
LAYER
  5
73
330
2
100
AcDbSymbolTableRecord
100
AcDbLayerTableRecord
  2
C-4
 70
     0
 62
     7
  6
Continuous
370
    -3
390
F
  0
LAYER
  5
74
330
2
100
AcDbSymbolTableRecord
100
AcDbLayerTableRecord
  2
C-2
 70
     0
 62
     7
  6
Continuous
370
    -3
390
F
  0
LAYER
  5
75
330
2
100
AcDbSymbolTableRecord
100
AcDbLayerTableRecord
  2
C-1
 70
     0
 62
     7
  6
Continuous
370
    -3
390
F
  0
LAYER
  5
76
330
2
100
AcDbSymbolTableRecord
100
AcDbLayerTableRecord
  2
C-5
 70
     0
 62
     7
  6
Continuous
370
    -3
390
F
  0
LAYER
  5
77
330
2
100
AcDbSymbolTableRecord
100
AcDbLayerTableRecord
  2
C-A
 70
     0
 62
     7
  6
Continuous
370
    -3
390
F
  0
LAYER
  5
78
330
2
100
AcDbSymbolTableRecord
100
AcDbLayerTableRecord
  2
D-1
 70
     0
 62
     7
  6
Continuous
370
    -3
390
F
  0
LAYER
  5
79
330
2
100
AcDbSymbolTableRecord
100
AcDbLayerTableRecord
  2
D-4
 70
     0
 62
     7
  6
Continuous
370
    -3
390
F
  0
LAYER
  5
7A
330
2
100
AcDbSymbolTableRecord
100
AcDbLayerTableRecord
  2
D-6
 70
     0
 62
     7
  6
Continuous
370
    -3
390
F
  0
LAYER
  5
7B
330
2
100
AcDbSymbolTableRecord
100
AcDbLayerTableRecord
  2
D-5
 70
     0
 62
     7
  6
Continuous
370
    -3
390
F
  0
LAYER
  5
7C
330
2
100
AcDbSymbolTableRecord
100
AcDbLayerTableRecord
  2
D-0
 70
     0
 62
     7
  6
Continuous
370
    -3
390
F
  0
LAYER
  5
7D
330
2
100
AcDbSymbolTableRecord
100
AcDbLayerTableRecord
  2
D-9
 70
     0
 62
     7
  6
Continuous
370
    -3
390
F
  0
LAYER
  5
7E
330
2
100
AcDbSymbolTableRecord
100
AcDbLayerTableRecord
  2
D-2
 70
     0
 62
     7
  6
Continuous
370
    -3
390
F
  0
LAYER
  5
7F
330
2
100
AcDbSymbolTableRecord
100
AcDbLayerTableRecord
  2
F-5ﾚｲﾔ
 70
     0
 62
     7
  6
Continuous
370
    -3
390
F
  0
ENDTAB
  0
TABLE
  2
STYLE
  5
3
330
0
100
AcDbSymbolTable
 70
     2
  0
STYLE
  5
11
330
3
100
AcDbSymbolTableRecord
100
AcDbTextStyleTableRecord
  2
Standard
 70
     0
 40
0.0
 41
1.0
 50
0.0
 71
     0
 42
2.5
  3
txt
  4

  0
STYLE
  5
6E
330
3
100
AcDbSymbolTableRecord
100
AcDbTextStyleTableRecord
  2
ＭＳ ゴシック
 70
     0
 40
1.0
 41
1.0
 50
0.0
 71
     0
 42
2.5
  3

  4

1001
ACAD
1000
MS Gothic
1071
    32817
  0
ENDTAB
  0
TABLE
  2
VIEW
  5
6
330
0
100
AcDbSymbolTable
 70
     0
  0
ENDTAB
  0
TABLE
  2
UCS
  5
7
330
0
100
AcDbSymbolTable
 70
     0
  0
ENDTAB
  0
TABLE
  2
APPID
  5
9
330
0
100
AcDbSymbolTable
 70
     2
  0
APPID
  5
12
330
9
100
AcDbSymbolTableRecord
100
AcDbRegAppTableRecord
  2
ACAD
 70
     0
  0
APPID
  5
382
330
9
100
AcDbSymbolTableRecord
100
AcDbRegAppTableRecord
  2
ACAD_MLEADERVER
 70
     0
  0
ENDTAB
  0
TABLE
  2
DIMSTYLE
  5
A
330
0
100
AcDbSymbolTable
 70
     1
100
AcDbDimStyleTable
  0
DIMSTYLE
105
27
330
A
100
AcDbSymbolTableRecord
100
AcDbDimStyleTableRecord
  2
ISO-25
 70
     0
 41
2.5
 42
0.625
 43
3.75
 44
1.25
 73
     0
 74
     0
 77
     1
 78
     8
140
2.5
141
2.5
143
0.03937007874016
147
0.625
171
     3
172
     1
178
     0
271
     2
272
     2
274
     3
278
    44
283
     0
284
     8
340
11
  0
ENDTAB
  0
TABLE
  2
BLOCK_RECORD
  5
1
330
0
100
AcDbSymbolTable
 70
     1
  0
BLOCK_RECORD
  5
1F
330
1
100
AcDbSymbolTableRecord
100
AcDbBlockTableRecord
  2
*Model_Space
340
22
  0
BLOCK_RECORD
  5
1B
330
1
100
AcDbSymbolTableRecord
100
AcDbBlockTableRecord
  2
*Paper_Space
340
1E
  0
BLOCK_RECORD
  5
23
330
1
100
AcDbSymbolTableRecord
100
AcDbBlockTableRecord
  2
*Paper_Space0
340
26
  0
ENDTAB
  0
ENDSEC
  0
SECTION
  2
BLOCKS
  0
BLOCK
  5
20
330
1F
100
AcDbEntity
  8
0
100
AcDbBlockBegin
  2
*Model_Space
 70
     0
 10
0.0
 20
0.0
 30
0.0
  3
*Model_Space
  1

  0
ENDBLK
  5
21
330
1F
100
AcDbEntity
  8
0
100
AcDbBlockEnd
  0
BLOCK
  5
1C
330
1B
100
AcDbEntity
 67
     1
  8
0
100
AcDbBlockBegin
  2
*Paper_Space
 70
     0
 10
0.0
 20
0.0
 30
0.0
  3
*Paper_Space
  1

  0
ENDBLK
  5
1D
330
1B
100
AcDbEntity
 67
     1
  8
0
100
AcDbBlockEnd
  0
BLOCK
  5
24
330
23
100
AcDbEntity
  8
0
100
AcDbBlockBegin
  2
*Paper_Space0
 70
     0
 10
0.0
 20
0.0
 30
0.0
  3
*Paper_Space0
  1

  0
ENDBLK
  5
25
330
23
100
AcDbEntity
  8
0
100
AcDbBlockEnd
  0
ENDSEC
  0
SECTION
  2
ENTITIES
  0
LWPOLYLINE
  5
80
330
1F
100
AcDbEntity
  8
C-4
  6
Continuous
 62
     7
370
     9
100
AcDbPolyline
 90
        4
 70
     1
 43
2.0
 10
-145.9593357395479
 20
1119.728739970439
 42
0.4142135623731
 10
-146.9593357395479
 20
1120.728739970439
 42
0.4142135623731
 10
-147.9593357395479
 20
1119.728739970439
 42
0.4142135623731
 10
-146.9593357395479
 20
1118.728739970439
 42
0.4142135623731
  0
LWPOLYLINE
  5
81
330
1F
100
AcDbEntity
  8
C-4
  6
Continuous
 62
     7
370
     9
100
AcDbPolyline
 90
        4
 70
     1
 43
2.0
 10
204.0407055004224
 20
1119.728739970439
 42
0.4142135623731
 10
203.0407055004224
 20
1120.728739970439
 42
0.4142135623731
 10
202.0407055004224
 20
1119.728739970439
 42
0.4142135623731
 10
203.0407055004224
 20
1118.728739970439
 42
0.4142135623731
  0
LWPOLYLINE
  5
82
330
1F
100
AcDbEntity
  8
C-4
  6
Continuous
 62
     7
370
     9
100
AcDbPolyline
 90
        4
 70
     1
 43
2.0
 10
-150.9591047957135
 20
1174.728673986486
 42
0.4142135623731
 10
-151.9591047957135
 20
1175.728673986486
 42
0.4142135623731
 10
-152.9591047957135
 20
1174.728673986486
 42
0.4142135623731
 10
-151.9591047957135
 20
1173.728673986486
 42
0.4142135623731
  0
LWPOLYLINE
  5
83
330
1F
100
AcDbEntity
  8
C-4
  6
Continuous
 62
     7
370
     9
100
AcDbPolyline
 90
        4
 70
     1
 43
2.0
 10
209.0409694362334
 20
1174.728673986486
 42
0.4142135623731
 10
208.0409694362334
 20
1175.728673986486
 42
0.4142135623731
 10
207.0409694362334
 20
1174.728673986486
 42
0.4142135623731
 10
208.0409694362334
 20
1173.728673986486
 42
0.4142135623731
  0
LWPOLYLINE
  5
84
330
1F
100
AcDbEntity
  8
C-4
  6
Continuous
 62
     7
370
     9
100
AcDbPolyline
 90
        4
 70
     1
 43
2.0
 10
-120.9588820998732
 20
1064.728558514569
 42
0.4142135623731
 10
-121.9588820998732
 20
1065.728558514569
 42
0.4142135623731
 10
-122.9588820998732
 20
1064.728558514569
 42
0.4142135623731
 10
-121.9588820998732
 20
1063.728558514569
 42
0.4142135623731
  0
LWPOLYLINE
  5
85
330
1F
100
AcDbEntity
  8
C-4
  6
Continuous
 62
     7
370
     9
100
AcDbPolyline
 90
        4
 70
     1
 43
2.0
 10
179.0413653399495
 20
1064.728558514569
 42
0.4142135623731
 10
178.0413653399495
 20
1065.728558514569
 42
0.4142135623731
 10
177.0413653399495
 20
1064.728558514569
 42
0.4142135623731
 10
178.0413653399495
 20
1063.728558514569
 42
0.4142135623731
  0
LWPOLYLINE
  5
86
330
1F
100
AcDbEntity
  8
C-4
  6
Continuous
 62
     7
370
     9
100
AcDbPolyline
 90
        4
 70
     1
 43
2.0
 10
-145.9593357395479
 20
1064.728558514569
 42
0.4142135623731
 10
-146.9593357395479
 20
1065.728558514569
 42
0.4142135623731
 10
-147.9593357395479
 20
1064.728558514569
 42
0.4142135623731
 10
-146.9593357395479
 20
1063.728558514569
 42
0.4142135623731
  0
LWPOLYLINE
  5
87
330
1F
100
AcDbEntity
  8
C-4
  6
Continuous
 62
     7
370
     9
100
AcDbPolyline
 90
        4
 70
     1
 43
2.0
 10
204.0402106207771
 20
1064.728558514569
 42
0.4142135623731
 10
203.0402106207771
 20
1065.728558514569
 42
0.4142135623731
 10
202.0402106207771
 20
1064.728558514569
 42
0.4142135623731
 10
203.0402106207771
 20
1063.728558514569
 42
0.4142135623731
  0
LWPOLYLINE
  5
88
330
1F
100
AcDbEntity
  8
C-4
  6
Continuous
 62
     7
370
     9
100
AcDbPolyline
 90
        4
 70
     1
 43
2.0
 10
-147.959020666174
 20
1119.728739970439
 42
0.4142135623731
 10
-148.959020666174
 20
1120.728739970439
 42
0.4142135623731
 10
-149.959020666174
 20
1119.728739970439
 42
0.4142135623731
 10
-148.959020666174
 20
1118.728739970439
 42
0.4142135623731
  0
LWPOLYLINE
  5
89
330
1F
100
AcDbEntity
  8
C-4
  6
Continuous
 62
     7
370
     9
100
AcDbPolyline
 90
        4
 70
     1
 43
2.0
 10
-150.9591047957135
 20
1119.728739970439
 42
0.4142135623731
 10
-151.9591047957135
 20
1120.728739970439
 42
0.4142135623731
 10
-152.9591047957135
 20
1119.728739970439
 42
0.4142135623731
 10
-151.9591047957135
 20
1118.728739970439
 42
0.4142135623731
  0
LWPOLYLINE
  5
8A
330
1F
100
AcDbEntity
  8
C-4
  6
Continuous
 62
     7
370
     9
100
AcDbPolyline
 90
        4
 70
     1
 43
2.0
 10
206.041009026605
 20
1119.728739970439
 42
0.4142135623731
 10
205.041009026605
 20
1120.728739970439
 42
0.4142135623731
 10
204.041009026605
 20
1119.728739970439
 42
0.4142135623731
 10
205.041009026605
 20
1118.728739970439
 42
0.4142135623731
  0
LWPOLYLINE
  5
8B
330
1F
100
AcDbEntity
  8
C-4
  6
Continuous
 62
     7
370
     9
100
AcDbPolyline
 90
        4
 70
     1
 43
2.0
 10
209.0409694362334
 20
1119.728739970439
 42
0.4142135623731
 10
208.0409694362334
 20
1120.728739970439
 42
0.4142135623731
 10
207.0409694362334
 20
1119.728739970439
 42
0.4142135623731
 10
208.0409694362334
 20
1118.728739970439
 42
0.4142135623731
  0
LWPOLYLINE
  5
8C
330
1F
100
AcDbEntity
  8
C-4
  6
Continuous
 62
     7
370
     9
100
AcDbPolyline
 90
        4
 70
     1
 43
2.0
 10
-280.9581727723818
 20
634.7291193781675
 42
0.4142135623731
 10
-281.9581727723818
 20
635.7291193781675
 42
0.4142135623731
 10
-282.9581727723818
 20
634.7291193781675
 42
0.4142135623731
 10
-281.9581727723818
 20
633.7291193781674
 42
0.4142135623731
  0
LWPOLYLINE
  5
8D
330
1F
100
AcDbEntity
  8
C-4
  6
Continuous
 62
     7
370
     9
100
AcDbPolyline
 90
        4
 70
     1
 43
2.0
 10
-280.9581727723818
 20
984.7292843380492
 42
0.4142135623731
 10
-281.9581727723818
 20
985.7292843380492
 42
0.4142135623731
 10
-282.9581727723818
 20
984.7292843380492
 42
0.4142135623731
 10
-281.9581727723818
 20
983.7292843380493
 42
0.4142135623731
  0
LWPOLYLINE
  5
8E
330
1F
100
AcDbEntity
  8
C-4
  6
Continuous
 62
     7
370
     9
100
AcDbPolyline
 90
        4
 70
     1
 43
2.0
 10
-335.9582305083404
 20
629.7293503220019
 42
0.4142135623731
 10
-336.9582305083404
 20
630.7293503220019
 42
0.4142135623731
 10
-337.9582305083404
 20
629.7293503220019
 42
0.4142135623731
 10
-336.9582305083404
 20
628.7293503220018
 42
0.4142135623731
  0
LWPOLYLINE
  5
8F
330
1F
100
AcDbEntity
  8
C-4
  6
Continuous
 62
     7
370
     9
100
AcDbPolyline
 90
        4
 70
     1
 43
2.0
 10
-335.9582305083404
 20
989.7295482738599
 42
0.4142135623731
 10
-336.9582305083404
 20
990.7295482738598
 42
0.4142135623731
 10
-337.9582305083404
 20
989.7295482738599
 42
0.4142135623731
 10
-336.9582305083404
 20
988.72954827386
 42
0.4142135623731
  0
LWPOLYLINE
  5
90
330
1F
100
AcDbEntity
  8
C-4
  6
Continuous
 62
     7
370
     9
100
AcDbPolyline
 90
        4
 70
     1
 43
2.0
 10
-225.9582387563344
 20
659.7294492979307
 42
0.4142135623731
 10
-226.9582387563344
 20
660.7294492979306
 42
0.4142135623731
 10
-227.9582387563344
 20
659.7294492979307
 42
0.4142135623731
 10
-226.9582387563344
 20
658.7294492979308
 42
0.4142135623731
  0
LWPOLYLINE
  5
91
330
1F
100
AcDbEntity
  8
C-4
  6
Continuous
 62
     7
370
     9
100
AcDbPolyline
 90
        4
 70
     1
 43
2.0
 10
-225.9582387563344
 20
959.729944177576
 42
0.4142135623731
 10
-226.9582387563344
 20
960.729944177576
 42
0.4142135623731
 10
-227.9582387563344
 20
959.729944177576
 42
0.4142135623731
 10
-226.9582387563344
 20
958.729944177576
 42
0.4142135623731
  0
LWPOLYLINE
  5
92
330
1F
100
AcDbEntity
  8
C-4
  6
Continuous
 62
     7
370
     9
100
AcDbPolyline
 90
        4
 70
     1
 43
2.0
 10
-225.9582387563344
 20
634.7291193781675
 42
0.4142135623731
 10
-226.9582387563344
 20
635.7291193781675
 42
0.4142135623731
 10
-227.9582387563344
 20
634.7291193781675
 42
0.4142135623731
 10
-226.9582387563344
 20
633.7291193781674
 42
0.4142135623731
  0
LWPOLYLINE
  5
93
330
1F
100
AcDbEntity
  8
C-4
  6
Continuous
 62
     7
370
     9
100
AcDbPolyline
 90
        4
 70
     1
 43
2.0
 10
-225.9582387563344
 20
984.728789458404
 42
0.4142135623731
 10
-226.9582387563344
 20
985.7287894584039
 42
0.4142135623731
 10
-227.9582387563344
 20
984.728789458404
 42
0.4142135623731
 10
-226.9582387563344
 20
983.728789458404
 42
0.4142135623731
  0
LWPOLYLINE
  5
94
330
1F
100
AcDbEntity
  8
C-4
  6
Continuous
 62
     7
370
     9
100
AcDbPolyline
 90
        4
 70
     1
 43
2.0
 10
-280.9581727723818
 20
632.7293107316302
 42
0.4142135623731
 10
-281.9581727723818
 20
633.7293107316302
 42
0.4142135623731
 10
-282.9581727723818
 20
632.7293107316302
 42
0.4142135623731
 10
-281.9581727723818
 20
631.7293107316302
 42
0.4142135623731
  0
LWPOLYLINE
  5
95
330
1F
100
AcDbEntity
  8
C-4
  6
Continuous
 62
     7
370
     9
100
AcDbPolyline
 90
        4
 70
     1
 43
2.0
 10
-280.9581727723818
 20
629.7293503220019
 42
0.4142135623731
 10
-281.9581727723818
 20
630.7293503220019
 42
0.4142135623731
 10
-282.9581727723818
 20
629.7293503220019
 42
0.4142135623731
 10
-281.9581727723818
 20
628.7293503220018
 42
0.4142135623731
  0
LWPOLYLINE
  5
96
330
1F
100
AcDbEntity
  8
C-4
  6
Continuous
 62
     7
370
     9
100
AcDbPolyline
 90
        4
 70
     1
 43
2.0
 10
-280.9581727723818
 20
986.7293404244089
 42
0.4142135623731
 10
-281.9581727723818
 20
987.7293404244087
 42
0.4142135623731
 10
-282.9581727723818
 20
986.7293404244089
 42
0.4142135623731
 10
-281.9581727723818
 20
985.729340424409
 42
0.4142135623731
  0
LWPOLYLINE
  5
97
330
1F
100
AcDbEntity
  8
C-4
  6
Continuous
 62
     7
370
     9
100
AcDbPolyline
 90
        4
 70
     1
 43
2.0
 10
-280.9581727723818
 20
989.7295482738599
 42
0.4142135623731
 10
-281.9581727723818
 20
990.7295482738598
 42
0.4142135623731
 10
-282.9581727723818
 20
989.7295482738599
 42
0.4142135623731
 10
-281.9581727723818
 20
988.72954827386
 42
0.4142135623731
  0
LWPOLYLINE
  5
98
330
1F
100
AcDbEntity
  8
C-4
  6
Continuous
 62
     7
370
     9
100
AcDbPolyline
 90
        4
 70
     1
 43
2.0
 10
61.54085396431589
 20
1012.315112964527
 42
0.4142135623731
 10
60.54085396431589
 20
1013.315112964527
 42
0.4142135623731
 10
59.54085396431589
 20
1012.315112964527
 42
0.4142135623731
 10
60.54085396431589
 20
1011.315112964527
 42
0.4142135623731
  0
LWPOLYLINE
  5
99
330
1F
100
AcDbEntity
  8
C-4
  6
Continuous
 62
     7
370
     9
100
AcDbPolyline
 90
        4
 70
     1
 43
2.0
 10
74.54084736592085
 20
1012.315112964527
 42
0.4142135623731
 10
73.54084736592085
 20
1013.315112964527
 42
0.4142135623731
 10
72.54084736592085
 20
1012.315112964527
 42
0.4142135623731
 10
73.54084736592085
 20
1011.315112964527
 42
0.4142135623731
  0
LWPOLYLINE
  5
9A
330
1F
100
AcDbEntity
  8
C-4
  6
Continuous
 62
     7
370
     9
100
AcDbPolyline
 90
        4
 70
     1
 43
2.0
 10
-50.95964091532915
 20
544.7311731286953
 42
0.4142135623731
 10
-51.95964091532915
 20
545.7311731286953
 42
0.4142135623731
 10
-52.95964091532915
 20
544.7311731286953
 42
0.4142135623731
 10
-51.95964091532915
 20
543.7311731286953
 42
0.4142135623731
  0
LWPOLYLINE
  5
9B
330
1F
100
AcDbEntity
  8
C-4
  6
Continuous
 62
     7
370
     9
100
AcDbPolyline
 90
        4
 70
     1
 43
2.0
 10
-150.9591047957135
 20
544.7311731286953
 42
0.4142135623731
 10
-151.9591047957135
 20
545.7311731286953
 42
0.4142135623731
 10
-152.9591047957135
 20
544.7311731286953
 42
0.4142135623731
 10
-151.9591047957135
 20
543.7311731286953
 42
0.4142135623731
  0
LWPOLYLINE
  5
9C
330
1F
100
AcDbEntity
  8
C-4
  6
Continuous
 62
     7
370
     9
100
AcDbPolyline
 90
        4
 70
     1
 43
2.0
 10
109.0416292757602
 20
544.7311731286953
 42
0.4142135623731
 10
108.0416292757602
 20
545.7311731286953
 42
0.4142135623731
 10
107.0416292757602
 20
544.7311731286953
 42
0.4142135623731
 10
108.0416292757602
 20
543.7311731286953
 42
0.4142135623731
  0
LWPOLYLINE
  5
9D
330
1F
100
AcDbEntity
  8
C-4
  6
Continuous
 62
     7
370
     9
100
AcDbPolyline
 90
        4
 70
     1
 43
2.0
 10
209.0409694362334
 20
544.7311731286953
 42
0.4142135623731
 10
208.0409694362334
 20
545.7311731286953
 42
0.4142135623731
 10
207.0409694362334
 20
544.7311731286953
 42
0.4142135623731
 10
208.0409694362334
 20
543.7311731286953
 42
0.4142135623731
  0
LINE
  5
9E
330
1F
100
AcDbEntity
  8
C-2
  6
Continuous
 62
     3
370
     9
100
AcDbLine
 10
-146.9593357395479
 20
984.728789458404
 30
0.0
 11
-146.9593357395479
 21
634.7296142578125
 31
0.0
  0
LINE
  5
9F
330
1F
100
AcDbEntity
  8
C-2
  6
Continuous
 62
     3
370
     9
100
AcDbLine
 10
-142.9593472867398
 20
980.7294196051521
 30
0.0
 11
-142.9593472867398
 21
638.7294789907096
 31
0.0
  0
LINE
  5
A0
330
1F
100
AcDbEntity
  8
C-2
  6
Continuous
 62
     3
370
     9
100
AcDbLine
 10
203.0407055004224
 20
984.728789458404
 30
0.0
 11
203.0407055004224
 21
634.7296142578125
 31
0.0
  0
LINE
  5
A1
330
1F
100
AcDbEntity
  8
C-2
  6
Continuous
 62
     3
370
     9
100
AcDbLine
 10
-146.9593357395479
 20
634.7296142578125
 30
0.0
 11
203.0407055004224
 21
634.7296142578125
 31
0.0
  0
LINE
  5
A2
330
1F
100
AcDbEntity
  8
C-2
  6
Continuous
 62
     3
370
     9
100
AcDbLine
 10
203.0407055004224
 20
984.728789458404
 30
0.0
 11
-146.9593357395479
 21
984.728789458404
 31
0.0
  0
LINE
  5
A3
330
1F
100
AcDbEntity
  8
C-1
  6
JWW_DASHED3
 62
     2
370
     9
100
AcDbLine
 10
-121.9588820998732
 20
959.7294492979311
 30
0.0
 11
-121.9588820998732
 21
659.7294492979307
 31
0.0
  0
LINE
  5
A4
330
1F
100
AcDbEntity
  8
C-1
  6
JWW_DASHED3
 62
     2
370
     9
100
AcDbLine
 10
178.0408704603042
 20
659.7294492979307
 30
0.0
 11
-121.9588820998732
 21
659.7294492979307
 31
0.0
  0
LINE
  5
A5
330
1F
100
AcDbEntity
  8
C-1
  6
JWW_DASHED3
 62
     2
370
     9
100
AcDbLine
 10
178.0408704603042
 20
959.7294492979311
 30
0.0
 11
178.0408704603042
 21
659.7294492979307
 31
0.0
  0
LINE
  5
A6
330
1F
100
AcDbEntity
  8
C-1
  6
JWW_DASHED3
 62
     2
370
     9
100
AcDbLine
 10
178.0408704603042
 20
959.7294492979311
 30
0.0
 11
-121.9588820998732
 21
959.7294492979311
 31
0.0
  0
LINE
  5
A7
330
1F
100
AcDbEntity
  8
C-5
  6
Continuous
 62
     7
370
     9
100
AcDbLine
 10
-259.4594594594594
 20
444.72972972973
 30
0.0
 11
-259.4594594594594
 21
509.7293255780195
 31
0.0
  0
LINE
  5
A8
330
1F
100
AcDbEntity
  8
C-5
  6
Continuous
 62
     7
370
     9
100
AcDbLine
 10
-259.4594594594594
 20
509.7293255780195
 30
0.0
 11
315.5407055004224
 21
509.7293255780195
 31
0.0
  0
LINE
  5
A9
330
1F
100
AcDbEntity
  8
C-5
  6
Continuous
 62
     7
370
     9
100
AcDbLine
 10
315.5407055004224
 20
509.7293255780195
 30
0.0
 11
315.5407055004224
 21
444.72972972973
 31
0.0
  0
LINE
  5
AA
330
1F
100
AcDbEntity
  8
C-5
  6
Continuous
 62
     7
370
     9
100
AcDbLine
 10
315.5407055004224
 20
444.72972972973
 30
0.0
 11
-259.4594594594594
 21
444.72972972973
 31
0.0
  0
LINE
  5
AB
330
1F
100
AcDbEntity
  8
C-1
  6
Continuous
 62
     2
370
     9
100
AcDbLine
 10
-151.9591047957135
 20
989.7295482738599
 30
0.0
 11
-151.9591047957135
 21
629.7293503220019
 31
0.0
  0
LINE
  5
AC
330
1F
100
AcDbEntity
  8
C-1
  6
Continuous
 62
     2
370
     9
100
AcDbLine
 10
-151.9591047957135
 20
629.7293503220019
 30
0.0
 11
208.0409694362334
 21
629.7293503220019
 31
0.0
  0
LINE
  5
AD
330
1F
100
AcDbEntity
  8
C-1
  6
Continuous
 62
     2
370
     9
100
AcDbLine
 10
208.0409694362334
 20
629.7293503220019
 30
0.0
 11
208.0409694362334
 21
989.7295482738599
 31
0.0
  0
LINE
  5
AE
330
1F
100
AcDbEntity
  8
C-1
  6
Continuous
 62
     2
370
     9
100
AcDbLine
 10
208.0409694362334
 20
989.7295482738599
 30
0.0
 11
-151.9591047957135
 21
989.7295482738599
 31
0.0
  0
LINE
  5
AF
330
1F
100
AcDbEntity
  8
C-1
  6
Continuous
 62
     2
370
     9
100
AcDbLine
 10
-148.959020666174
 20
986.7293404244089
 30
0.0
 11
-148.959020666174
 21
632.7293107316302
 31
0.0
  0
LINE
  5
B0
330
1F
100
AcDbEntity
  8
C-1
  6
Continuous
 62
     2
370
     9
100
AcDbLine
 10
-148.959020666174
 20
632.7293107316302
 30
0.0
 11
205.041009026605
 21
632.7293107316302
 31
0.0
  0
LINE
  5
B1
330
1F
100
AcDbEntity
  8
C-1
  6
Continuous
 62
     2
370
     9
100
AcDbLine
 10
205.041009026605
 20
632.7293107316302
 30
0.0
 11
205.041009026605
 21
986.7293404244089
 31
0.0
  0
LINE
  5
B2
330
1F
100
AcDbEntity
  8
C-1
  6
Continuous
 62
     2
370
     9
100
AcDbLine
 10
205.041009026605
 20
986.7293404244089
 30
0.0
 11
-148.959020666174
 21
986.7293404244089
 31
0.0
  0
LINE
  5
B3
330
1F
100
AcDbEntity
  8
C-4
  6
Continuous
 62
     7
370
     9
100
AcDbLine
 10
-193.2762352195945
 20
1119.728739970439
 30
0.0
 11
252.7924408783784
 21
1119.728739970439
 31
0.0
  0
LINE
  5
B4
330
1F
100
AcDbEntity
  8
C-4
  6
Continuous
 62
     7
370
     9
100
AcDbLine
 10
-146.9593357395479
 20
1004.729350322002
 30
0.0
 11
-146.9593357395479
 21
1122.728700380068
 31
0.0
  0
LINE
  5
B5
330
1F
100
AcDbEntity
  8
C-4
  6
Continuous
 62
     7
370
     9
100
AcDbLine
 10
203.0407055004224
 20
1004.729350322002
 30
0.0
 11
203.0407055004224
 21
1122.728700380068
 31
0.0
  0
LINE
  5
B6
330
1F
100
AcDbEntity
  8
C-4
  6
Continuous
 62
     7
370
     9
100
AcDbLine
 10
-151.9591047957135
 20
1174.728673986486
 30
0.0
 11
208.0409694362334
 21
1174.728673986486
 31
0.0
  0
LINE
  5
B7
330
1F
100
AcDbEntity
  8
C-4
  6
Continuous
 62
     7
370
     9
100
AcDbLine
 10
208.0409694362334
 20
1004.729350322002
 30
0.0
 11
208.0409694362334
 21
1177.72813951647
 31
0.0
  0
LINE
  5
B8
330
1F
100
AcDbEntity
  8
C-4
  6
Continuous
 62
     7
370
     9
100
AcDbLine
 10
-146.9593357395479
 20
1064.728558514569
 30
0.0
 11
203.0402106207771
 21
1064.728558514569
 31
0.0
  0
LINE
  5
B9
330
1F
100
AcDbEntity
  8
C-4
  6
Continuous
 62
     7
370
     9
100
AcDbLine
 10
-121.9588820998732
 20
1004.729350322002
 30
0.0
 11
-121.9588820998732
 21
1067.729261243666
 31
0.0
  0
LINE
  5
BA
330
1F
100
AcDbEntity
  8
C-4
  6
Continuous
 62
     7
370
     9
100
AcDbLine
 10
178.0413653399495
 20
1004.729350322002
 30
0.0
 11
178.0413653399495
 21
1067.729261243666
 31
0.0
  0
LINE
  5
BB
330
1F
100
AcDbEntity
  8
C-4
  6
Continuous
 62
     7
370
     9
100
AcDbLine
 10
-148.959020666174
 20
1004.729350322002
 30
0.0
 11
-148.959020666174
 21
1122.728700380068
 31
0.0
  0
LINE
  5
BC
330
1F
100
AcDbEntity
  8
C-4
  6
Continuous
 62
     7
370
     9
100
AcDbLine
 10
-151.9591047957135
 20
1004.729350322002
 30
0.0
 11
-151.9591047957135
 21
1177.72813951647
 31
0.0
  0
LINE
  5
BD
330
1F
100
AcDbEntity
  8
C-4
  6
Continuous
 62
     7
370
     9
100
AcDbLine
 10
205.041009026605
 20
1004.729350322002
 30
0.0
 11
205.041009026605
 21
1122.728700380068
 31
0.0
  0
LINE
  5
BE
330
1F
100
AcDbEntity
  8
C-4
  6
Continuous
 62
     7
370
     9
100
AcDbLine
 10
-281.9581727723818
 20
588.4122198981208
 30
0.0
 11
-281.9581727723818
 21
1034.480772276183
 31
0.0
  0
LINE
  5
BF
330
1F
100
AcDbEntity
  8
C-4
  6
Continuous
 62
     7
370
     9
100
AcDbLine
 10
-166.9589068438555
 20
634.7291193781675
 30
0.0
 11
-284.9582569019213
 21
634.7291193781675
 31
0.0
  0
LINE
  5
C0
330
1F
100
AcDbEntity
  8
C-4
  6
Continuous
 62
     7
370
     9
100
AcDbLine
 10
-166.9589068438555
 20
984.7292843380492
 30
0.0
 11
-284.9582569019213
 21
984.7292843380492
 31
0.0
  0
LINE
  5
C1
330
1F
100
AcDbEntity
  8
C-4
  6
Continuous
 62
     7
370
     9
100
AcDbLine
 10
-336.9582305083404
 20
629.7293503220019
 30
0.0
 11
-336.9582305083404
 21
989.7295482738599
 31
0.0
  0
LINE
  5
C2
330
1F
100
AcDbEntity
  8
C-4
  6
Continuous
 62
     7
370
     9
100
AcDbLine
 10
-166.9589068438555
 20
989.7295482738599
 30
0.0
 11
-339.9578197582346
 21
989.7295482738599
 31
0.0
  0
LINE
  5
C3
330
1F
100
AcDbEntity
  8
C-4
  6
Continuous
 62
     7
370
     9
100
AcDbLine
 10
-226.9582387563344
 20
634.7291193781675
 30
0.0
 11
-226.9582387563344
 21
984.728789458404
 31
0.0
  0
LINE
  5
C4
330
1F
100
AcDbEntity
  8
C-4
  6
Continuous
 62
     7
370
     9
100
AcDbLine
 10
-166.9589068438555
 20
659.7294492979307
 30
0.0
 11
-229.9586940456081
 21
659.7294492979307
 31
0.0
  0
LINE
  5
C5
330
1F
100
AcDbEntity
  8
C-4
  6
Continuous
 62
     7
370
     9
100
AcDbLine
 10
-166.9589068438555
 20
959.729944177576
 30
0.0
 11
-229.9586940456081
 21
959.729944177576
 31
0.0
  0
LINE
  5
C6
330
1F
100
AcDbEntity
  8
C-4
  6
Continuous
 62
     7
370
     9
100
AcDbLine
 10
-166.9589068438555
 20
632.7293107316302
 30
0.0
 11
-284.9582569019213
 21
632.7293107316302
 31
0.0
  0
LINE
  5
C7
330
1F
100
AcDbEntity
  8
C-4
  6
Continuous
 62
     7
370
     9
100
AcDbLine
 10
-166.9589068438555
 20
629.7293503220019
 30
0.0
 11
-339.9578197582346
 21
629.7293503220019
 31
0.0
  0
LINE
  5
C8
330
1F
100
AcDbEntity
  8
C-4
  6
Continuous
 62
     7
370
     9
100
AcDbLine
 10
-166.9589068438555
 20
986.7293404244089
 30
0.0
 11
-284.9582569019213
 21
986.7293404244089
 31
0.0
  0
LINE
  5
C9
330
1F
100
AcDbEntity
  8
C-4
  6
Continuous
 62
     7
370
     9
100
AcDbLine
 10
60.54085396431589
 20
1012.315112964527
 30
0.0
 11
73.54084736592085
 21
1012.315112964527
 31
0.0
  0
LINE
  5
CA
330
1F
100
AcDbEntity
  8
C-4
  6
Continuous
 62
     7
370
     9
100
AcDbLine
 10
60.54085396431589
 20
974.7292513460727
 30
0.0
 11
60.54085396431589
 21
1015.315073374155
 31
0.0
  0
LINE
  5
CB
330
1F
100
AcDbEntity
  8
C-4
  6
Continuous
 62
     7
370
     9
100
AcDbLine
 10
73.54084736592085
 20
974.7292513460727
 30
0.0
 11
73.54084736592085
 21
1015.315073374155
 31
0.0
  0
LINE
  5
CC
330
1F
100
AcDbEntity
  8
C-4
  6
Continuous
 62
     7
370
     9
100
AcDbLine
 10
-51.95964091532915
 20
585.0117781355575
 30
0.0
 11
-51.95964091532915
 21
541.7305941195102
 31
0.0
  0
LINE
  5
CD
330
1F
100
AcDbEntity
  8
C-4
  6
Continuous
 62
     7
370
     9
100
AcDbLine
 10
-151.9591047957135
 20
544.7311731286953
 30
0.0
 11
-51.95964091532915
 21
544.7311731286953
 31
0.0
  0
LINE
  5
CE
330
1F
100
AcDbEntity
  8
C-4
  6
Continuous
 62
     7
370
     9
100
AcDbLine
 10
108.0416292757602
 20
585.0117781355575
 30
0.0
 11
108.0416292757602
 21
541.7305941195102
 31
0.0
  0
LINE
  5
CF
330
1F
100
AcDbEntity
  8
C-4
  6
Continuous
 62
     7
370
     9
100
AcDbLine
 10
108.0416292757602
 20
544.7311731286953
 30
0.0
 11
208.0409694362334
 21
544.7311731286953
 31
0.0
  0
LINE
  5
D0
330
1F
100
AcDbEntity
  8
C-4
  6
Continuous
 62
     7
370
     9
100
AcDbLine
 10
-151.9591047957135
 20
614.7290533942146
 30
0.0
 11
-151.9591047957135
 21
541.7305941195102
 31
0.0
  0
LINE
  5
D1
330
1F
100
AcDbEntity
  8
C-4
  6
Continuous
 62
     7
370
     9
100
AcDbLine
 10
208.0409694362334
 20
614.7290533942146
 30
0.0
 11
208.0409694362334
 21
541.7305941195102
 31
0.0
  0
LINE
  5
D2
330
1F
100
AcDbEntity
  8
C-4
  6
Continuous
 62
     7
370
     9
100
AcDbLine
 10
-51.95964091532915
 20
544.7311731286953
 30
0.0
 11
108.0416292757602
 21
544.7311731286953
 31
0.0
  0
LINE
  5
D3
330
1F
100
AcDbEntity
  8
C-2
  6
Continuous
 62
     3
370
     9
100
AcDbLine
 10
-132.4591146933065
 20
980.7294196051521
 30
0.0
 11
-132.4591146933065
 21
638.7294789907096
 31
0.0
  0
LINE
  5
D4
330
1F
100
AcDbEntity
  8
C-2
  6
Continuous
 62
     3
370
     9
100
AcDbLine
 10
-136.4591031461148
 20
980.7294196051521
 30
0.0
 11
-136.4591031461148
 21
638.7294789907096
 31
0.0
  0
LINE
  5
D5
330
1F
100
AcDbEntity
  8
C-2
  6
Continuous
 62
     3
370
     9
100
AcDbLine
 10
-142.9593472867398
 20
711.2295944626269
 30
0.0
 11
-136.4591031461148
 21
711.2295944626269
 31
0.0
  0
LINE
  5
D6
330
1F
100
AcDbEntity
  8
C-2
  6
Continuous
 62
     3
370
     9
100
AcDbLine
 10
-142.9593472867398
 20
708.229881492821
 30
0.0
 11
-136.4591031461148
 21
708.229881492821
 31
0.0
  0
LINE
  5
D7
330
1F
100
AcDbEntity
  8
C-2
  6
Continuous
 62
     3
370
     9
100
AcDbLine
 10
-142.9593472867398
 20
811.2299243823904
 30
0.0
 11
-136.4591031461148
 21
811.2299243823904
 31
0.0
  0
LINE
  5
D8
330
1F
100
AcDbEntity
  8
C-2
  6
Continuous
 62
     3
370
     9
100
AcDbLine
 10
-142.9593472867398
 20
808.229963972762
 30
0.0
 11
-136.4591031461148
 21
808.229963972762
 31
0.0
  0
LINE
  5
D9
330
1F
100
AcDbEntity
  8
C-2
  6
Continuous
 62
     3
370
     9
100
AcDbLine
 10
-142.9593472867398
 20
911.2300068623313
 30
0.0
 11
-136.4591031461148
 21
911.2300068623313
 31
0.0
  0
LINE
  5
DA
330
1F
100
AcDbEntity
  8
C-2
  6
Continuous
 62
     3
370
     9
100
AcDbLine
 10
-142.9593472867398
 20
908.2297990128802
 30
0.0
 11
-136.4591031461148
 21
908.2297990128802
 31
0.0
  0
LINE
  5
DB
330
1F
100
AcDbEntity
  8
C-2
  6
Continuous
 62
     3
370
     9
100
AcDbLine
 10
-119.4589975717903
 20
980.7294196051521
 30
0.0
 11
-119.4589975717903
 21
638.7294789907096
 31
0.0
  0
LINE
  5
DC
330
1F
100
AcDbEntity
  8
C-2
  6
Continuous
 62
     3
370
     9
100
AcDbLine
 10
-123.4589860245987
 20
980.7294196051521
 30
0.0
 11
-123.4589860245987
 21
638.7294789907096
 31
0.0
  0
LINE
  5
DD
330
1F
100
AcDbEntity
  8
C-2
  6
Continuous
 62
     3
370
     9
100
AcDbLine
 10
-132.4591146933065
 20
711.2295944626269
 30
0.0
 11
-123.4589860245987
 21
711.2295944626269
 31
0.0
  0
LINE
  5
DE
330
1F
100
AcDbEntity
  8
C-2
  6
Continuous
 62
     3
370
     9
100
AcDbLine
 10
-132.4591146933065
 20
708.229881492821
 30
0.0
 11
-123.4589860245987
 21
708.229881492821
 31
0.0
  0
LINE
  5
DF
330
1F
100
AcDbEntity
  8
C-2
  6
Continuous
 62
     3
370
     9
100
AcDbLine
 10
-132.4591146933065
 20
811.2299243823904
 30
0.0
 11
-123.4589860245987
 21
811.2299243823904
 31
0.0
  0
LINE
  5
E0
330
1F
100
AcDbEntity
  8
C-2
  6
Continuous
 62
     3
370
     9
100
AcDbLine
 10
-132.4591146933065
 20
808.229963972762
 30
0.0
 11
-123.4589860245987
 21
808.229963972762
 31
0.0
  0
LINE
  5
E1
330
1F
100
AcDbEntity
  8
C-2
  6
Continuous
 62
     3
370
     9
100
AcDbLine
 10
-132.4591146933065
 20
911.2300068623313
 30
0.0
 11
-123.4589860245987
 21
911.2300068623313
 31
0.0
  0
LINE
  5
E2
330
1F
100
AcDbEntity
  8
C-2
  6
Continuous
 62
     3
370
     9
100
AcDbLine
 10
-132.4591146933065
 20
908.2297990128802
 30
0.0
 11
-123.4589860245987
 21
908.2297990128802
 31
0.0
  0
LINE
  5
E3
330
1F
100
AcDbEntity
  8
C-2
  6
Continuous
 62
     3
370
     9
100
AcDbLine
 10
-106.4592516100083
 20
980.7294196051521
 30
0.0
 11
-106.4592516100083
 21
638.7294789907096
 31
0.0
  0
LINE
  5
E4
330
1F
100
AcDbEntity
  8
C-2
  6
Continuous
 62
     3
370
     9
100
AcDbLine
 10
-110.4591163429052
 20
980.7294196051521
 30
0.0
 11
-110.4591163429052
 21
638.7294789907096
 31
0.0
  0
LINE
  5
E5
330
1F
100
AcDbEntity
  8
C-2
  6
Continuous
 62
     3
370
     9
100
AcDbLine
 10
-119.459245011613
 20
711.2295944626269
 30
0.0
 11
-110.4591163429052
 21
711.2295944626269
 31
0.0
  0
LINE
  5
E6
330
1F
100
AcDbEntity
  8
C-2
  6
Continuous
 62
     3
370
     9
100
AcDbLine
 10
-119.459245011613
 20
708.229881492821
 30
0.0
 11
-110.4591163429052
 21
708.229881492821
 31
0.0
  0
LINE
  5
E7
330
1F
100
AcDbEntity
  8
C-2
  6
Continuous
 62
     3
370
     9
100
AcDbLine
 10
-119.459245011613
 20
811.2299243823904
 30
0.0
 11
-110.4591163429052
 21
811.2299243823904
 31
0.0
  0
LINE
  5
E8
330
1F
100
AcDbEntity
  8
C-2
  6
Continuous
 62
     3
370
     9
100
AcDbLine
 10
-119.459245011613
 20
808.229963972762
 30
0.0
 11
-110.4591163429052
 21
808.229963972762
 31
0.0
  0
LINE
  5
E9
330
1F
100
AcDbEntity
  8
C-2
  6
Continuous
 62
     3
370
     9
100
AcDbLine
 10
-119.459245011613
 20
911.2300068623313
 30
0.0
 11
-110.4591163429052
 21
911.2300068623313
 31
0.0
  0
LINE
  5
EA
330
1F
100
AcDbEntity
  8
C-2
  6
Continuous
 62
     3
370
     9
100
AcDbLine
 10
-119.459245011613
 20
908.2297990128802
 30
0.0
 11
-110.4591163429052
 21
908.2297990128802
 31
0.0
  0
LINE
  5
EB
330
1F
100
AcDbEntity
  8
C-2
  6
Continuous
 62
     3
370
     9
100
AcDbLine
 10
-93.45913448849217
 20
980.7294196051521
 30
0.0
 11
-93.45913448849217
 21
638.7294789907096
 31
0.0
  0
LINE
  5
EC
330
1F
100
AcDbEntity
  8
C-2
  6
Continuous
 62
     3
370
     9
100
AcDbLine
 10
-97.45899922138932
 20
980.7294196051521
 30
0.0
 11
-97.45899922138932
 21
638.7294789907096
 31
0.0
  0
LINE
  5
ED
330
1F
100
AcDbEntity
  8
C-2
  6
Continuous
 62
     3
370
     9
100
AcDbLine
 10
-106.4592516100083
 20
711.2295944626269
 30
0.0
 11
-97.45899922138932
 21
711.2295944626269
 31
0.0
  0
LINE
  5
EE
330
1F
100
AcDbEntity
  8
C-2
  6
Continuous
 62
     3
370
     9
100
AcDbLine
 10
-106.4592516100083
 20
708.229881492821
 30
0.0
 11
-97.45899922138932
 21
708.229881492821
 31
0.0
  0
LINE
  5
EF
330
1F
100
AcDbEntity
  8
C-2
  6
Continuous
 62
     3
370
     9
100
AcDbLine
 10
-106.4592516100083
 20
811.2299243823904
 30
0.0
 11
-97.45899922138932
 21
811.2299243823904
 31
0.0
  0
LINE
  5
F0
330
1F
100
AcDbEntity
  8
C-2
  6
Continuous
 62
     3
370
     9
100
AcDbLine
 10
-106.4592516100083
 20
808.229963972762
 30
0.0
 11
-97.45899922138932
 21
808.229963972762
 31
0.0
  0
LINE
  5
F1
330
1F
100
AcDbEntity
  8
C-2
  6
Continuous
 62
     3
370
     9
100
AcDbLine
 10
-106.4592516100083
 20
911.2300068623313
 30
0.0
 11
-97.45899922138932
 21
911.2300068623313
 31
0.0
  0
LINE
  5
F2
330
1F
100
AcDbEntity
  8
C-2
  6
Continuous
 62
     3
370
     9
100
AcDbLine
 10
-106.4592516100083
 20
908.2297990128802
 30
0.0
 11
-97.45899922138932
 21
908.2297990128802
 31
0.0
  0
LINE
  5
F3
330
1F
100
AcDbEntity
  8
C-2
  6
Continuous
 62
     3
370
     9
100
AcDbLine
 10
-80.45926480679896
 20
980.7294196051521
 30
0.0
 11
-80.45926480679896
 21
638.7294789907096
 31
0.0
  0
LINE
  5
F4
330
1F
100
AcDbEntity
  8
C-2
  6
Continuous
 62
     3
370
     9
100
AcDbLine
 10
-84.45912953969582
 20
980.7294196051521
 30
0.0
 11
-84.45912953969582
 21
638.7294789907096
 31
0.0
  0
LINE
  5
F5
330
1F
100
AcDbEntity
  8
C-2
  6
Continuous
 62
     3
370
     9
100
AcDbLine
 10
-93.45938192831483
 20
711.2295944626269
 30
0.0
 11
-84.45912953969582
 21
711.2295944626269
 31
0.0
  0
LINE
  5
F6
330
1F
100
AcDbEntity
  8
C-2
  6
Continuous
 62
     3
370
     9
100
AcDbLine
 10
-93.45938192831483
 20
708.229881492821
 30
0.0
 11
-84.45912953969582
 21
708.229881492821
 31
0.0
  0
LINE
  5
F7
330
1F
100
AcDbEntity
  8
C-2
  6
Continuous
 62
     3
370
     9
100
AcDbLine
 10
-93.45938192831483
 20
811.2299243823904
 30
0.0
 11
-84.45912953969582
 21
811.2299243823904
 31
0.0
  0
LINE
  5
F8
330
1F
100
AcDbEntity
  8
C-2
  6
Continuous
 62
     3
370
     9
100
AcDbLine
 10
-93.45938192831483
 20
808.229963972762
 30
0.0
 11
-84.45912953969582
 21
808.229963972762
 31
0.0
  0
LINE
  5
F9
330
1F
100
AcDbEntity
  8
C-2
  6
Continuous
 62
     3
370
     9
100
AcDbLine
 10
-93.45938192831483
 20
911.2300068623313
 30
0.0
 11
-84.45912953969582
 21
911.2300068623313
 31
0.0
  0
LINE
  5
FA
330
1F
100
AcDbEntity
  8
C-2
  6
Continuous
 62
     3
370
     9
100
AcDbLine
 10
-93.45938192831483
 20
908.2297990128802
 30
0.0
 11
-84.45912953969582
 21
908.2297990128802
 31
0.0
  0
LINE
  5
FB
330
1F
100
AcDbEntity
  8
C-2
  6
Continuous
 62
     3
370
     9
100
AcDbLine
 10
-67.4591476852828
 20
980.7294196051521
 30
0.0
 11
-67.4591476852828
 21
638.7294789907096
 31
0.0
  0
LINE
  5
FC
330
1F
100
AcDbEntity
  8
C-2
  6
Continuous
 62
     3
370
     9
100
AcDbLine
 10
-71.45901241817967
 20
980.7294196051521
 30
0.0
 11
-71.45901241817967
 21
638.7294789907096
 31
0.0
  0
LINE
  5
FD
330
1F
100
AcDbEntity
  8
C-2
  6
Continuous
 62
     3
370
     9
100
AcDbLine
 10
-80.45926480679896
 20
711.2295944626269
 30
0.0
 11
-71.45901241817967
 21
711.2295944626269
 31
0.0
  0
LINE
  5
FE
330
1F
100
AcDbEntity
  8
C-2
  6
Continuous
 62
     3
370
     9
100
AcDbLine
 10
-80.45926480679896
 20
708.229881492821
 30
0.0
 11
-71.45901241817967
 21
708.229881492821
 31
0.0
  0
LINE
  5
FF
330
1F
100
AcDbEntity
  8
C-2
  6
Continuous
 62
     3
370
     9
100
AcDbLine
 10
-80.45926480679896
 20
811.2299243823904
 30
0.0
 11
-71.45901241817967
 21
811.2299243823904
 31
0.0
  0
LINE
  5
100
330
1F
100
AcDbEntity
  8
C-2
  6
Continuous
 62
     3
370
     9
100
AcDbLine
 10
-80.45926480679896
 20
808.229963972762
 30
0.0
 11
-71.45901241817967
 21
808.229963972762
 31
0.0
  0
LINE
  5
101
330
1F
100
AcDbEntity
  8
C-2
  6
Continuous
 62
     3
370
     9
100
AcDbLine
 10
-80.45926480679896
 20
911.2300068623313
 30
0.0
 11
-71.45901241817967
 21
911.2300068623313
 31
0.0
  0
LINE
  5
102
330
1F
100
AcDbEntity
  8
C-2
  6
Continuous
 62
     3
370
     9
100
AcDbLine
 10
-80.45926480679896
 20
908.2297990128802
 30
0.0
 11
-71.45901241817967
 21
908.2297990128802
 31
0.0
  0
LINE
  5
103
330
1F
100
AcDbEntity
  8
C-2
  6
Continuous
 62
     3
370
     9
100
AcDbLine
 10
-54.4592780035893
 20
980.7294196051521
 30
0.0
 11
-54.4592780035893
 21
638.7294789907096
 31
0.0
  0
LINE
  5
104
330
1F
100
AcDbEntity
  8
C-2
  6
Continuous
 62
     3
370
     9
100
AcDbLine
 10
-58.45914273648646
 20
980.7294196051521
 30
0.0
 11
-58.45914273648646
 21
638.7294789907096
 31
0.0
  0
LINE
  5
105
330
1F
100
AcDbEntity
  8
C-2
  6
Continuous
 62
     3
370
     9
100
AcDbLine
 10
-67.45939512510546
 20
711.2295944626269
 30
0.0
 11
-58.45914273648646
 21
711.2295944626269
 31
0.0
  0
LINE
  5
106
330
1F
100
AcDbEntity
  8
C-2
  6
Continuous
 62
     3
370
     9
100
AcDbLine
 10
-67.45939512510546
 20
708.229881492821
 30
0.0
 11
-58.45914273648646
 21
708.229881492821
 31
0.0
  0
LINE
  5
107
330
1F
100
AcDbEntity
  8
C-2
  6
Continuous
 62
     3
370
     9
100
AcDbLine
 10
-67.45939512510546
 20
811.2299243823904
 30
0.0
 11
-58.45914273648646
 21
811.2299243823904
 31
0.0
  0
LINE
  5
108
330
1F
100
AcDbEntity
  8
C-2
  6
Continuous
 62
     3
370
     9
100
AcDbLine
 10
-67.45939512510546
 20
808.229963972762
 30
0.0
 11
-58.45914273648646
 21
808.229963972762
 31
0.0
  0
LINE
  5
109
330
1F
100
AcDbEntity
  8
C-2
  6
Continuous
 62
     3
370
     9
100
AcDbLine
 10
-67.45939512510546
 20
911.2300068623313
 30
0.0
 11
-58.45914273648646
 21
911.2300068623313
 31
0.0
  0
LINE
  5
10A
330
1F
100
AcDbEntity
  8
C-2
  6
Continuous
 62
     3
370
     9
100
AcDbLine
 10
-67.45939512510546
 20
908.2297990128802
 30
0.0
 11
-58.45914273648646
 21
908.2297990128802
 31
0.0
  0
LINE
  5
10B
330
1F
100
AcDbEntity
  8
C-2
  6
Continuous
 62
     3
370
     9
100
AcDbLine
 10
-41.45916088207343
 20
980.7294196051521
 30
0.0
 11
-41.45916088207343
 21
638.7294789907096
 31
0.0
  0
LINE
  5
10C
330
1F
100
AcDbEntity
  8
C-2
  6
Continuous
 62
     3
370
     9
100
AcDbLine
 10
-45.4590256149703
 20
980.7294196051521
 30
0.0
 11
-45.4590256149703
 21
638.7294789907096
 31
0.0
  0
LINE
  5
10D
330
1F
100
AcDbEntity
  8
C-2
  6
Continuous
 62
     3
370
     9
100
AcDbLine
 10
-54.4592780035893
 20
711.2295944626269
 30
0.0
 11
-45.4590256149703
 21
711.2295944626269
 31
0.0
  0
LINE
  5
10E
330
1F
100
AcDbEntity
  8
C-2
  6
Continuous
 62
     3
370
     9
100
AcDbLine
 10
-54.4592780035893
 20
708.229881492821
 30
0.0
 11
-45.4590256149703
 21
708.229881492821
 31
0.0
  0
LINE
  5
10F
330
1F
100
AcDbEntity
  8
C-2
  6
Continuous
 62
     3
370
     9
100
AcDbLine
 10
-54.4592780035893
 20
811.2299243823904
 30
0.0
 11
-45.4590256149703
 21
811.2299243823904
 31
0.0
  0
LINE
  5
110
330
1F
100
AcDbEntity
  8
C-2
  6
Continuous
 62
     3
370
     9
100
AcDbLine
 10
-54.4592780035893
 20
808.229963972762
 30
0.0
 11
-45.4590256149703
 21
808.229963972762
 31
0.0
  0
LINE
  5
111
330
1F
100
AcDbEntity
  8
C-2
  6
Continuous
 62
     3
370
     9
100
AcDbLine
 10
-54.4592780035893
 20
911.2300068623313
 30
0.0
 11
-45.4590256149703
 21
911.2300068623313
 31
0.0
  0
LINE
  5
112
330
1F
100
AcDbEntity
  8
C-2
  6
Continuous
 62
     3
370
     9
100
AcDbLine
 10
-54.4592780035893
 20
908.2297990128802
 30
0.0
 11
-45.4590256149703
 21
908.2297990128802
 31
0.0
  0
LINE
  5
113
330
1F
100
AcDbEntity
  8
C-2
  6
Continuous
 62
     3
370
     9
100
AcDbLine
 10
-28.45929120037994
 20
980.7294196051521
 30
0.0
 11
-28.45929120037994
 21
638.7294789907096
 31
0.0
  0
LINE
  5
114
330
1F
100
AcDbEntity
  8
C-2
  6
Continuous
 62
     3
370
     9
100
AcDbLine
 10
-32.4591559332768
 20
980.7294196051521
 30
0.0
 11
-32.4591559332768
 21
638.7294789907096
 31
0.0
  0
LINE
  5
115
330
1F
100
AcDbEntity
  8
C-2
  6
Continuous
 62
     3
370
     9
100
AcDbLine
 10
-41.45940832189609
 20
711.2295944626269
 30
0.0
 11
-32.4591559332768
 21
711.2295944626269
 31
0.0
  0
LINE
  5
116
330
1F
100
AcDbEntity
  8
C-2
  6
Continuous
 62
     3
370
     9
100
AcDbLine
 10
-41.45940832189609
 20
708.229881492821
 30
0.0
 11
-32.4591559332768
 21
708.229881492821
 31
0.0
  0
LINE
  5
117
330
1F
100
AcDbEntity
  8
C-2
  6
Continuous
 62
     3
370
     9
100
AcDbLine
 10
-41.45940832189609
 20
811.2299243823904
 30
0.0
 11
-32.4591559332768
 21
811.2299243823904
 31
0.0
  0
LINE
  5
118
330
1F
100
AcDbEntity
  8
C-2
  6
Continuous
 62
     3
370
     9
100
AcDbLine
 10
-41.45940832189609
 20
808.229963972762
 30
0.0
 11
-32.4591559332768
 21
808.229963972762
 31
0.0
  0
LINE
  5
119
330
1F
100
AcDbEntity
  8
C-2
  6
Continuous
 62
     3
370
     9
100
AcDbLine
 10
-41.45940832189609
 20
911.2300068623313
 30
0.0
 11
-32.4591559332768
 21
911.2300068623313
 31
0.0
  0
LINE
  5
11A
330
1F
100
AcDbEntity
  8
C-2
  6
Continuous
 62
     3
370
     9
100
AcDbLine
 10
-41.45940832189609
 20
908.2297990128802
 30
0.0
 11
-32.4591559332768
 21
908.2297990128802
 31
0.0
  0
LINE
  5
11B
330
1F
100
AcDbEntity
  8
C-2
  6
Continuous
 62
     3
370
     9
100
AcDbLine
 10
-15.4590503589526
 20
980.7294196051521
 30
0.0
 11
-15.4590503589526
 21
638.7294789907096
 31
0.0
  0
LINE
  5
11C
330
1F
100
AcDbEntity
  8
C-2
  6
Continuous
 62
     3
370
     9
100
AcDbLine
 10
-19.45916253167212
 20
980.7294196051521
 30
0.0
 11
-19.45916253167212
 21
638.7294789907096
 31
0.0
  0
LINE
  5
11D
330
1F
100
AcDbEntity
  8
C-2
  6
Continuous
 62
     3
370
     9
100
AcDbLine
 10
-28.45929120037994
 20
711.2295944626269
 30
0.0
 11
-19.45916253167212
 21
711.2295944626269
 31
0.0
  0
LINE
  5
11E
330
1F
100
AcDbEntity
  8
C-2
  6
Continuous
 62
     3
370
     9
100
AcDbLine
 10
-28.45929120037994
 20
708.229881492821
 30
0.0
 11
-19.45916253167212
 21
708.229881492821
 31
0.0
  0
LINE
  5
11F
330
1F
100
AcDbEntity
  8
C-2
  6
Continuous
 62
     3
370
     9
100
AcDbLine
 10
-28.45929120037994
 20
811.2299243823904
 30
0.0
 11
-19.45916253167212
 21
811.2299243823904
 31
0.0
  0
LINE
  5
120
330
1F
100
AcDbEntity
  8
C-2
  6
Continuous
 62
     3
370
     9
100
AcDbLine
 10
-28.45929120037994
 20
808.229963972762
 30
0.0
 11
-19.45916253167212
 21
808.229963972762
 31
0.0
  0
LINE
  5
121
330
1F
100
AcDbEntity
  8
C-2
  6
Continuous
 62
     3
370
     9
100
AcDbLine
 10
-28.45929120037994
 20
911.2300068623313
 30
0.0
 11
-19.45916253167212
 21
911.2300068623313
 31
0.0
  0
LINE
  5
122
330
1F
100
AcDbEntity
  8
C-2
  6
Continuous
 62
     3
370
     9
100
AcDbLine
 10
-28.45929120037994
 20
908.2297990128802
 30
0.0
 11
-19.45916253167212
 21
908.2297990128802
 31
0.0
  0
LINE
  5
123
330
1F
100
AcDbEntity
  8
C-2
  6
Continuous
 62
     3
370
     9
100
AcDbLine
 10
-2.459056957347912
 20
980.7294196051521
 30
0.0
 11
-2.459056957347912
 21
638.7294789907096
 31
0.0
  0
LINE
  5
124
330
1F
100
AcDbEntity
  8
C-2
  6
Continuous
 62
     3
370
     9
100
AcDbLine
 10
-6.458921690244779
 20
980.7294196051521
 30
0.0
 11
-6.458921690244779
 21
638.7294789907096
 31
0.0
  0
LINE
  5
125
330
1F
100
AcDbEntity
  8
C-2
  6
Continuous
 62
     3
370
     9
100
AcDbLine
 10
-15.4590503589526
 20
711.2295944626269
 30
0.0
 11
-6.458921690244779
 21
711.2295944626269
 31
0.0
  0
LINE
  5
126
330
1F
100
AcDbEntity
  8
C-2
  6
Continuous
 62
     3
370
     9
100
AcDbLine
 10
-15.4590503589526
 20
708.229881492821
 30
0.0
 11
-6.458921690244779
 21
708.229881492821
 31
0.0
  0
LINE
  5
127
330
1F
100
AcDbEntity
  8
C-2
  6
Continuous
 62
     3
370
     9
100
AcDbLine
 10
-15.4590503589526
 20
811.2299243823904
 30
0.0
 11
-6.458921690244779
 21
811.2299243823904
 31
0.0
  0
LINE
  5
128
330
1F
100
AcDbEntity
  8
C-2
  6
Continuous
 62
     3
370
     9
100
AcDbLine
 10
-15.4590503589526
 20
808.229963972762
 30
0.0
 11
-6.458921690244779
 21
808.229963972762
 31
0.0
  0
LINE
  5
129
330
1F
100
AcDbEntity
  8
C-2
  6
Continuous
 62
     3
370
     9
100
AcDbLine
 10
-15.4590503589526
 20
911.2300068623313
 30
0.0
 11
-6.458921690244779
 21
911.2300068623313
 31
0.0
  0
LINE
  5
12A
330
1F
100
AcDbEntity
  8
C-2
  6
Continuous
 62
     3
370
     9
100
AcDbLine
 10
-15.4590503589526
 20
908.2297990128802
 30
0.0
 11
-6.458921690244779
 21
908.2297990128802
 31
0.0
  0
LINE
  5
12B
330
1F
100
AcDbEntity
  8
C-2
  6
Continuous
 62
     3
370
     9
100
AcDbLine
 10
10.54093644425677
 20
980.7294196051521
 30
0.0
 11
10.54093644425677
 21
638.7294789907096
 31
0.0
  0
LINE
  5
12C
330
1F
100
AcDbEntity
  8
C-2
  6
Continuous
 62
     3
370
     9
100
AcDbLine
 10
6.540824271537247
 20
980.7294196051521
 30
0.0
 11
6.540824271537247
 21
638.7294789907096
 31
0.0
  0
LINE
  5
12D
330
1F
100
AcDbEntity
  8
C-2
  6
Continuous
 62
     3
370
     9
100
AcDbLine
 10
-2.45930439717057
 20
711.2295944626269
 30
0.0
 11
6.540824271537247
 21
711.2295944626269
 31
0.0
  0
LINE
  5
12E
330
1F
100
AcDbEntity
  8
C-2
  6
Continuous
 62
     3
370
     9
100
AcDbLine
 10
-2.45930439717057
 20
708.229881492821
 30
0.0
 11
6.540824271537247
 21
708.229881492821
 31
0.0
  0
LINE
  5
12F
330
1F
100
AcDbEntity
  8
C-2
  6
Continuous
 62
     3
370
     9
100
AcDbLine
 10
-2.45930439717057
 20
811.2299243823904
 30
0.0
 11
6.540824271537247
 21
811.2299243823904
 31
0.0
  0
LINE
  5
130
330
1F
100
AcDbEntity
  8
C-2
  6
Continuous
 62
     3
370
     9
100
AcDbLine
 10
-2.45930439717057
 20
808.229963972762
 30
0.0
 11
6.540824271537247
 21
808.229963972762
 31
0.0
  0
LINE
  5
131
330
1F
100
AcDbEntity
  8
C-2
  6
Continuous
 62
     3
370
     9
100
AcDbLine
 10
-2.45930439717057
 20
911.2300068623313
 30
0.0
 11
6.540824271537247
 21
911.2300068623313
 31
0.0
  0
LINE
  5
132
330
1F
100
AcDbEntity
  8
C-2
  6
Continuous
 62
     3
370
     9
100
AcDbLine
 10
-2.45930439717057
 20
908.2297990128802
 30
0.0
 11
6.540824271537247
 21
908.2297990128802
 31
0.0
  0
LINE
  5
133
330
1F
100
AcDbEntity
  8
C-2
  6
Continuous
 62
     3
370
     9
100
AcDbLine
 10
23.54092984586174
 20
980.7294196051521
 30
0.0
 11
23.54092984586174
 21
638.7294789907096
 31
0.0
  0
LINE
  5
134
330
1F
100
AcDbEntity
  8
C-2
  6
Continuous
 62
     3
370
     9
100
AcDbLine
 10
19.54106511296459
 20
980.7294196051521
 30
0.0
 11
19.54106511296459
 21
638.7294789907096
 31
0.0
  0
LINE
  5
135
330
1F
100
AcDbEntity
  8
C-2
  6
Continuous
 62
     3
370
     9
100
AcDbLine
 10
10.54093644425677
 20
711.2295944626269
 30
0.0
 11
19.54106511296459
 21
711.2295944626269
 31
0.0
  0
LINE
  5
136
330
1F
100
AcDbEntity
  8
C-2
  6
Continuous
 62
     3
370
     9
100
AcDbLine
 10
10.54093644425677
 20
708.229881492821
 30
0.0
 11
19.54106511296459
 21
708.229881492821
 31
0.0
  0
LINE
  5
137
330
1F
100
AcDbEntity
  8
C-2
  6
Continuous
 62
     3
370
     9
100
AcDbLine
 10
10.54093644425677
 20
811.2299243823904
 30
0.0
 11
19.54106511296459
 21
811.2299243823904
 31
0.0
  0
LINE
  5
138
330
1F
100
AcDbEntity
  8
C-2
  6
Continuous
 62
     3
370
     9
100
AcDbLine
 10
10.54093644425677
 20
808.229963972762
 30
0.0
 11
19.54106511296459
 21
808.229963972762
 31
0.0
  0
LINE
  5
139
330
1F
100
AcDbEntity
  8
C-2
  6
Continuous
 62
     3
370
     9
100
AcDbLine
 10
10.54093644425677
 20
911.2300068623313
 30
0.0
 11
19.54106511296459
 21
911.2300068623313
 31
0.0
  0
LINE
  5
13A
330
1F
100
AcDbEntity
  8
C-2
  6
Continuous
 62
     3
370
     9
100
AcDbLine
 10
10.54093644425677
 20
908.2297990128802
 30
0.0
 11
19.54106511296459
 21
908.2297990128802
 31
0.0
  0
LINE
  5
13B
330
1F
100
AcDbEntity
  8
C-2
  6
Continuous
 62
     3
370
     9
100
AcDbLine
 10
36.54067580764377
 20
980.7294196051521
 30
0.0
 11
36.54067580764377
 21
638.7294789907096
 31
0.0
  0
LINE
  5
13C
330
1F
100
AcDbEntity
  8
C-2
  6
Continuous
 62
     3
370
     9
100
AcDbLine
 10
32.54081107474661
 20
980.7294196051521
 30
0.0
 11
32.54081107474661
 21
638.7294789907096
 31
0.0
  0
LINE
  5
13D
330
1F
100
AcDbEntity
  8
C-2
  6
Continuous
 62
     3
370
     9
100
AcDbLine
 10
23.54068240603908
 20
711.2295944626269
 30
0.0
 11
32.54081107474661
 21
711.2295944626269
 31
0.0
  0
LINE
  5
13E
330
1F
100
AcDbEntity
  8
C-2
  6
Continuous
 62
     3
370
     9
100
AcDbLine
 10
23.54068240603908
 20
708.229881492821
 30
0.0
 11
32.54081107474661
 21
708.229881492821
 31
0.0
  0
LINE
  5
13F
330
1F
100
AcDbEntity
  8
C-2
  6
Continuous
 62
     3
370
     9
100
AcDbLine
 10
23.54068240603908
 20
811.2299243823904
 30
0.0
 11
32.54081107474661
 21
811.2299243823904
 31
0.0
  0
LINE
  5
140
330
1F
100
AcDbEntity
  8
C-2
  6
Continuous
 62
     3
370
     9
100
AcDbLine
 10
23.54068240603908
 20
808.229963972762
 30
0.0
 11
32.54081107474661
 21
808.229963972762
 31
0.0
  0
LINE
  5
141
330
1F
100
AcDbEntity
  8
C-2
  6
Continuous
 62
     3
370
     9
100
AcDbLine
 10
23.54068240603908
 20
911.2300068623313
 30
0.0
 11
32.54081107474661
 21
911.2300068623313
 31
0.0
  0
LINE
  5
142
330
1F
100
AcDbEntity
  8
C-2
  6
Continuous
 62
     3
370
     9
100
AcDbLine
 10
23.54068240603908
 20
908.2297990128802
 30
0.0
 11
32.54081107474661
 21
908.2297990128802
 31
0.0
  0
LINE
  5
143
330
1F
100
AcDbEntity
  8
C-2
  6
Continuous
 62
     3
370
     9
100
AcDbLine
 10
49.54091664907111
 20
980.7294196051521
 30
0.0
 11
49.54091664907111
 21
638.7294789907096
 31
0.0
  0
LINE
  5
144
330
1F
100
AcDbEntity
  8
C-2
  6
Continuous
 62
     3
370
     9
100
AcDbLine
 10
45.54105191617424
 20
980.7294196051521
 30
0.0
 11
45.54105191617424
 21
638.7294789907096
 31
0.0
  0
LINE
  5
145
330
1F
100
AcDbEntity
  8
C-2
  6
Continuous
 62
     3
370
     9
100
AcDbLine
 10
36.54067580764377
 20
711.2295944626269
 30
0.0
 11
45.54105191617424
 21
711.2295944626269
 31
0.0
  0
LINE
  5
146
330
1F
100
AcDbEntity
  8
C-2
  6
Continuous
 62
     3
370
     9
100
AcDbLine
 10
36.54067580764377
 20
708.229881492821
 30
0.0
 11
45.54105191617424
 21
708.229881492821
 31
0.0
  0
LINE
  5
147
330
1F
100
AcDbEntity
  8
C-2
  6
Continuous
 62
     3
370
     9
100
AcDbLine
 10
36.54067580764377
 20
811.2299243823904
 30
0.0
 11
45.54105191617424
 21
811.2299243823904
 31
0.0
  0
LINE
  5
148
330
1F
100
AcDbEntity
  8
C-2
  6
Continuous
 62
     3
370
     9
100
AcDbLine
 10
36.54067580764377
 20
808.229963972762
 30
0.0
 11
45.54105191617424
 21
808.229963972762
 31
0.0
  0
LINE
  5
149
330
1F
100
AcDbEntity
  8
C-2
  6
Continuous
 62
     3
370
     9
100
AcDbLine
 10
36.54067580764377
 20
911.2300068623313
 30
0.0
 11
45.54105191617424
 21
911.2300068623313
 31
0.0
  0
LINE
  5
14A
330
1F
100
AcDbEntity
  8
C-2
  6
Continuous
 62
     3
370
     9
100
AcDbLine
 10
36.54067580764377
 20
908.2297990128802
 30
0.0
 11
45.54105191617424
 21
908.2297990128802
 31
0.0
  0
LINE
  5
14B
330
1F
100
AcDbEntity
  8
C-2
  6
Continuous
 62
     3
370
     9
100
AcDbLine
 10
62.54066261085313
 20
980.7294196051521
 30
0.0
 11
62.54066261085313
 21
638.7294789907096
 31
0.0
  0
LINE
  5
14C
330
1F
100
AcDbEntity
  8
C-2
  6
Continuous
 62
     3
370
     9
100
AcDbLine
 10
58.54079787795627
 20
980.7294196051521
 30
0.0
 11
58.54079787795627
 21
638.7294789907096
 31
0.0
  0
LINE
  5
14D
330
1F
100
AcDbEntity
  8
C-2
  6
Continuous
 62
     3
370
     9
100
AcDbLine
 10
49.54066920924845
 20
711.2295944626269
 30
0.0
 11
58.54079787795627
 21
711.2295944626269
 31
0.0
  0
LINE
  5
14E
330
1F
100
AcDbEntity
  8
C-2
  6
Continuous
 62
     3
370
     9
100
AcDbLine
 10
49.54066920924845
 20
708.229881492821
 30
0.0
 11
58.54079787795627
 21
708.229881492821
 31
0.0
  0
LINE
  5
14F
330
1F
100
AcDbEntity
  8
C-2
  6
Continuous
 62
     3
370
     9
100
AcDbLine
 10
49.54066920924845
 20
811.2299243823904
 30
0.0
 11
58.54079787795627
 21
811.2299243823904
 31
0.0
  0
LINE
  5
150
330
1F
100
AcDbEntity
  8
C-2
  6
Continuous
 62
     3
370
     9
100
AcDbLine
 10
49.54066920924845
 20
808.229963972762
 30
0.0
 11
58.54079787795627
 21
808.229963972762
 31
0.0
  0
LINE
  5
151
330
1F
100
AcDbEntity
  8
C-2
  6
Continuous
 62
     3
370
     9
100
AcDbLine
 10
49.54066920924845
 20
911.2300068623313
 30
0.0
 11
58.54079787795627
 21
911.2300068623313
 31
0.0
  0
LINE
  5
152
330
1F
100
AcDbEntity
  8
C-2
  6
Continuous
 62
     3
370
     9
100
AcDbLine
 10
49.54066920924845
 20
908.2297990128802
 30
0.0
 11
58.54079787795627
 21
908.2297990128802
 31
0.0
  0
LINE
  5
153
330
1F
100
AcDbEntity
  8
C-2
  6
Continuous
 62
     3
370
     9
100
AcDbLine
 10
75.54090345228047
 20
980.7294196051521
 30
0.0
 11
75.54090345228047
 21
638.7294789907096
 31
0.0
  0
LINE
  5
154
330
1F
100
AcDbEntity
  8
C-2
  6
Continuous
 62
     3
370
     9
100
AcDbLine
 10
71.54079127956095
 20
980.7294196051521
 30
0.0
 11
71.54079127956095
 21
638.7294789907096
 31
0.0
  0
LINE
  5
155
330
1F
100
AcDbEntity
  8
C-2
  6
Continuous
 62
     3
370
     9
100
AcDbLine
 10
62.54066261085313
 20
711.2295944626269
 30
0.0
 11
71.54079127956095
 21
711.2295944626269
 31
0.0
  0
LINE
  5
156
330
1F
100
AcDbEntity
  8
C-2
  6
Continuous
 62
     3
370
     9
100
AcDbLine
 10
62.54066261085313
 20
708.229881492821
 30
0.0
 11
71.54079127956095
 21
708.229881492821
 31
0.0
  0
LINE
  5
157
330
1F
100
AcDbEntity
  8
C-2
  6
Continuous
 62
     3
370
     9
100
AcDbLine
 10
62.54066261085313
 20
811.2299243823904
 30
0.0
 11
71.54079127956095
 21
811.2299243823904
 31
0.0
  0
LINE
  5
158
330
1F
100
AcDbEntity
  8
C-2
  6
Continuous
 62
     3
370
     9
100
AcDbLine
 10
62.54066261085313
 20
808.229963972762
 30
0.0
 11
71.54079127956095
 21
808.229963972762
 31
0.0
  0
LINE
  5
159
330
1F
100
AcDbEntity
  8
C-2
  6
Continuous
 62
     3
370
     9
100
AcDbLine
 10
62.54066261085313
 20
911.2300068623313
 30
0.0
 11
71.54079127956095
 21
911.2300068623313
 31
0.0
  0
LINE
  5
15A
330
1F
100
AcDbEntity
  8
C-2
  6
Continuous
 62
     3
370
     9
100
AcDbLine
 10
62.54066261085313
 20
908.2297990128802
 30
0.0
 11
71.54079127956095
 21
908.2297990128802
 31
0.0
  0
LINE
  5
15B
330
1F
100
AcDbEntity
  8
C-2
  6
Continuous
 62
     3
370
     9
100
AcDbLine
 10
88.54089685388516
 20
980.7294196051521
 30
0.0
 11
88.54089685388516
 21
638.7294789907096
 31
0.0
  0
LINE
  5
15C
330
1F
100
AcDbEntity
  8
C-2
  6
Continuous
 62
     3
370
     9
100
AcDbLine
 10
84.54103212098829
 20
980.7294196051521
 30
0.0
 11
84.54103212098829
 21
638.7294789907096
 31
0.0
  0
LINE
  5
15D
330
1F
100
AcDbEntity
  8
C-2
  6
Continuous
 62
     3
370
     9
100
AcDbLine
 10
75.54090345228047
 20
711.2295944626269
 30
0.0
 11
84.54103212098829
 21
711.2295944626269
 31
0.0
  0
LINE
  5
15E
330
1F
100
AcDbEntity
  8
C-2
  6
Continuous
 62
     3
370
     9
100
AcDbLine
 10
75.54090345228047
 20
708.229881492821
 30
0.0
 11
84.54103212098829
 21
708.229881492821
 31
0.0
  0
LINE
  5
15F
330
1F
100
AcDbEntity
  8
C-2
  6
Continuous
 62
     3
370
     9
100
AcDbLine
 10
75.54090345228047
 20
811.2299243823904
 30
0.0
 11
84.54103212098829
 21
811.2299243823904
 31
0.0
  0
LINE
  5
160
330
1F
100
AcDbEntity
  8
C-2
  6
Continuous
 62
     3
370
     9
100
AcDbLine
 10
75.54090345228047
 20
808.229963972762
 30
0.0
 11
84.54103212098829
 21
808.229963972762
 31
0.0
  0
LINE
  5
161
330
1F
100
AcDbEntity
  8
C-2
  6
Continuous
 62
     3
370
     9
100
AcDbLine
 10
75.54090345228047
 20
911.2300068623313
 30
0.0
 11
84.54103212098829
 21
911.2300068623313
 31
0.0
  0
LINE
  5
162
330
1F
100
AcDbEntity
  8
C-2
  6
Continuous
 62
     3
370
     9
100
AcDbLine
 10
75.54090345228047
 20
908.2297990128802
 30
0.0
 11
84.54103212098829
 21
908.2297990128802
 31
0.0
  0
LINE
  5
163
330
1F
100
AcDbEntity
  8
C-2
  6
Continuous
 62
     3
370
     9
100
AcDbLine
 10
101.5408902554901
 20
980.7294196051521
 30
0.0
 11
101.5408902554901
 21
638.7294789907096
 31
0.0
  0
LINE
  5
164
330
1F
100
AcDbEntity
  8
C-2
  6
Continuous
 62
     3
370
     9
100
AcDbLine
 10
97.54077808277032
 20
980.7294196051521
 30
0.0
 11
97.54077808277032
 21
638.7294789907096
 31
0.0
  0
LINE
  5
165
330
1F
100
AcDbEntity
  8
C-2
  6
Continuous
 62
     3
370
     9
100
AcDbLine
 10
88.5406494140625
 20
711.2295944626269
 30
0.0
 11
97.54077808277032
 21
711.2295944626269
 31
0.0
  0
LINE
  5
166
330
1F
100
AcDbEntity
  8
C-2
  6
Continuous
 62
     3
370
     9
100
AcDbLine
 10
88.5406494140625
 20
708.229881492821
 30
0.0
 11
97.54077808277032
 21
708.229881492821
 31
0.0
  0
LINE
  5
167
330
1F
100
AcDbEntity
  8
C-2
  6
Continuous
 62
     3
370
     9
100
AcDbLine
 10
88.5406494140625
 20
811.2299243823904
 30
0.0
 11
97.54077808277032
 21
811.2299243823904
 31
0.0
  0
LINE
  5
168
330
1F
100
AcDbEntity
  8
C-2
  6
Continuous
 62
     3
370
     9
100
AcDbLine
 10
88.5406494140625
 20
808.229963972762
 30
0.0
 11
97.54077808277032
 21
808.229963972762
 31
0.0
  0
LINE
  5
169
330
1F
100
AcDbEntity
  8
C-2
  6
Continuous
 62
     3
370
     9
100
AcDbLine
 10
88.5406494140625
 20
911.2300068623313
 30
0.0
 11
97.54077808277032
 21
911.2300068623313
 31
0.0
  0
LINE
  5
16A
330
1F
100
AcDbEntity
  8
C-2
  6
Continuous
 62
     3
370
     9
100
AcDbLine
 10
88.5406494140625
 20
908.2297990128802
 30
0.0
 11
97.54077808277032
 21
908.2297990128802
 31
0.0
  0
LINE
  5
16B
330
1F
100
AcDbEntity
  8
C-2
  6
Continuous
 62
     3
370
     9
100
AcDbLine
 10
114.5408836570948
 20
980.7294196051521
 30
0.0
 11
114.5408836570948
 21
638.7294789907096
 31
0.0
  0
LINE
  5
16C
330
1F
100
AcDbEntity
  8
C-2
  6
Continuous
 62
     3
370
     9
100
AcDbLine
 10
110.5410189241977
 20
980.7294196051521
 30
0.0
 11
110.5410189241977
 21
638.7294789907096
 31
0.0
  0
LINE
  5
16D
330
1F
100
AcDbEntity
  8
C-2
  6
Continuous
 62
     3
370
     9
100
AcDbLine
 10
101.5408902554901
 20
711.2295944626269
 30
0.0
 11
110.5410189241977
 21
711.2295944626269
 31
0.0
  0
LINE
  5
16E
330
1F
100
AcDbEntity
  8
C-2
  6
Continuous
 62
     3
370
     9
100
AcDbLine
 10
101.5408902554901
 20
708.229881492821
 30
0.0
 11
110.5410189241977
 21
708.229881492821
 31
0.0
  0
LINE
  5
16F
330
1F
100
AcDbEntity
  8
C-2
  6
Continuous
 62
     3
370
     9
100
AcDbLine
 10
101.5408902554901
 20
811.2299243823904
 30
0.0
 11
110.5410189241977
 21
811.2299243823904
 31
0.0
  0
LINE
  5
170
330
1F
100
AcDbEntity
  8
C-2
  6
Continuous
 62
     3
370
     9
100
AcDbLine
 10
101.5408902554901
 20
808.229963972762
 30
0.0
 11
110.5410189241977
 21
808.229963972762
 31
0.0
  0
LINE
  5
171
330
1F
100
AcDbEntity
  8
C-2
  6
Continuous
 62
     3
370
     9
100
AcDbLine
 10
101.5408902554901
 20
911.2300068623313
 30
0.0
 11
110.5410189241977
 21
911.2300068623313
 31
0.0
  0
LINE
  5
172
330
1F
100
AcDbEntity
  8
C-2
  6
Continuous
 62
     3
370
     9
100
AcDbLine
 10
101.5408902554901
 20
908.2297990128802
 30
0.0
 11
110.5410189241977
 21
908.2297990128802
 31
0.0
  0
LINE
  5
173
330
1F
100
AcDbEntity
  8
C-2
  6
Continuous
 62
     3
370
     9
100
AcDbLine
 10
127.5408770586995
 20
980.7294196051521
 30
0.0
 11
127.5408770586995
 21
638.7294789907096
 31
0.0
  0
LINE
  5
174
330
1F
100
AcDbEntity
  8
C-2
  6
Continuous
 62
     3
370
     9
100
AcDbLine
 10
123.54076488598
 20
980.7294196051521
 30
0.0
 11
123.54076488598
 21
638.7294789907096
 31
0.0
  0
LINE
  5
175
330
1F
100
AcDbEntity
  8
C-2
  6
Continuous
 62
     3
370
     9
100
AcDbLine
 10
114.5406362172722
 20
711.2295944626269
 30
0.0
 11
123.54076488598
 21
711.2295944626269
 31
0.0
  0
LINE
  5
176
330
1F
100
AcDbEntity
  8
C-2
  6
Continuous
 62
     3
370
     9
100
AcDbLine
 10
114.5406362172722
 20
708.229881492821
 30
0.0
 11
123.54076488598
 21
708.229881492821
 31
0.0
  0
LINE
  5
177
330
1F
100
AcDbEntity
  8
C-2
  6
Continuous
 62
     3
370
     9
100
AcDbLine
 10
114.5406362172722
 20
811.2299243823904
 30
0.0
 11
123.54076488598
 21
811.2299243823904
 31
0.0
  0
LINE
  5
178
330
1F
100
AcDbEntity
  8
C-2
  6
Continuous
 62
     3
370
     9
100
AcDbLine
 10
114.5406362172722
 20
808.229963972762
 30
0.0
 11
123.54076488598
 21
808.229963972762
 31
0.0
  0
LINE
  5
179
330
1F
100
AcDbEntity
  8
C-2
  6
Continuous
 62
     3
370
     9
100
AcDbLine
 10
114.5406362172722
 20
911.2300068623313
 30
0.0
 11
123.54076488598
 21
911.2300068623313
 31
0.0
  0
LINE
  5
17A
330
1F
100
AcDbEntity
  8
C-2
  6
Continuous
 62
     3
370
     9
100
AcDbLine
 10
114.5406362172722
 20
908.2297990128802
 30
0.0
 11
123.54076488598
 21
908.2297990128802
 31
0.0
  0
LINE
  5
17B
330
1F
100
AcDbEntity
  8
C-2
  6
Continuous
 62
     3
370
     9
100
AcDbLine
 10
140.5408704603042
 20
980.7294196051521
 30
0.0
 11
140.5408704603042
 21
638.7294789907096
 31
0.0
  0
LINE
  5
17C
330
1F
100
AcDbEntity
  8
C-2
  6
Continuous
 62
     3
370
     9
100
AcDbLine
 10
136.5410057274073
 20
980.7294196051521
 30
0.0
 11
136.5410057274073
 21
638.7294789907096
 31
0.0
  0
LINE
  5
17D
330
1F
100
AcDbEntity
  8
C-2
  6
Continuous
 62
     3
370
     9
100
AcDbLine
 10
127.5408770586995
 20
711.2295944626269
 30
0.0
 11
136.5410057274073
 21
711.2295944626269
 31
0.0
  0
LINE
  5
17E
330
1F
100
AcDbEntity
  8
C-2
  6
Continuous
 62
     3
370
     9
100
AcDbLine
 10
127.5408770586995
 20
708.229881492821
 30
0.0
 11
136.5410057274073
 21
708.229881492821
 31
0.0
  0
LINE
  5
17F
330
1F
100
AcDbEntity
  8
C-2
  6
Continuous
 62
     3
370
     9
100
AcDbLine
 10
127.5408770586995
 20
811.2299243823904
 30
0.0
 11
136.5410057274073
 21
811.2299243823904
 31
0.0
  0
LINE
  5
180
330
1F
100
AcDbEntity
  8
C-2
  6
Continuous
 62
     3
370
     9
100
AcDbLine
 10
127.5408770586995
 20
808.229963972762
 30
0.0
 11
136.5410057274073
 21
808.229963972762
 31
0.0
  0
LINE
  5
181
330
1F
100
AcDbEntity
  8
C-2
  6
Continuous
 62
     3
370
     9
100
AcDbLine
 10
127.5408770586995
 20
911.2300068623313
 30
0.0
 11
136.5410057274073
 21
911.2300068623313
 31
0.0
  0
LINE
  5
182
330
1F
100
AcDbEntity
  8
C-2
  6
Continuous
 62
     3
370
     9
100
AcDbLine
 10
127.5408770586995
 20
908.2297990128802
 30
0.0
 11
136.5410057274073
 21
908.2297990128802
 31
0.0
  0
LINE
  5
183
330
1F
100
AcDbEntity
  8
C-2
  6
Continuous
 62
     3
370
     9
100
AcDbLine
 10
153.5408638619089
 20
980.7294196051521
 30
0.0
 11
153.5408638619089
 21
638.7294789907096
 31
0.0
  0
LINE
  5
184
330
1F
100
AcDbEntity
  8
C-2
  6
Continuous
 62
     3
370
     9
100
AcDbLine
 10
149.5407516891893
 20
980.7294196051521
 30
0.0
 11
149.5407516891893
 21
638.7294789907096
 31
0.0
  0
LINE
  5
185
330
1F
100
AcDbEntity
  8
C-2
  6
Continuous
 62
     3
370
     9
100
AcDbLine
 10
140.5406230204815
 20
711.2295944626269
 30
0.0
 11
149.5407516891893
 21
711.2295944626269
 31
0.0
  0
LINE
  5
186
330
1F
100
AcDbEntity
  8
C-2
  6
Continuous
 62
     3
370
     9
100
AcDbLine
 10
140.5406230204815
 20
708.229881492821
 30
0.0
 11
149.5407516891893
 21
708.229881492821
 31
0.0
  0
LINE
  5
187
330
1F
100
AcDbEntity
  8
C-2
  6
Continuous
 62
     3
370
     9
100
AcDbLine
 10
140.5406230204815
 20
811.2299243823904
 30
0.0
 11
149.5407516891893
 21
811.2299243823904
 31
0.0
  0
LINE
  5
188
330
1F
100
AcDbEntity
  8
C-2
  6
Continuous
 62
     3
370
     9
100
AcDbLine
 10
140.5406230204815
 20
808.229963972762
 30
0.0
 11
149.5407516891893
 21
808.229963972762
 31
0.0
  0
LINE
  5
189
330
1F
100
AcDbEntity
  8
C-2
  6
Continuous
 62
     3
370
     9
100
AcDbLine
 10
140.5406230204815
 20
911.2300068623313
 30
0.0
 11
149.5407516891893
 21
911.2300068623313
 31
0.0
  0
LINE
  5
18A
330
1F
100
AcDbEntity
  8
C-2
  6
Continuous
 62
     3
370
     9
100
AcDbLine
 10
140.5406230204815
 20
908.2297990128802
 30
0.0
 11
149.5407516891893
 21
908.2297990128802
 31
0.0
  0
LINE
  5
18B
330
1F
100
AcDbEntity
  8
C-2
  6
Continuous
 62
     3
370
     9
100
AcDbLine
 10
166.5408572635135
 20
980.7294196051521
 30
0.0
 11
166.5408572635135
 21
638.7294789907096
 31
0.0
  0
LINE
  5
18C
330
1F
100
AcDbEntity
  8
C-2
  6
Continuous
 62
     3
370
     9
100
AcDbLine
 10
162.5409925306167
 20
980.7294196051521
 30
0.0
 11
162.5409925306167
 21
638.7294789907096
 31
0.0
  0
LINE
  5
18D
330
1F
100
AcDbEntity
  8
C-2
  6
Continuous
 62
     3
370
     9
100
AcDbLine
 10
153.5408638619089
 20
711.2295944626269
 30
0.0
 11
162.5409925306167
 21
711.2295944626269
 31
0.0
  0
LINE
  5
18E
330
1F
100
AcDbEntity
  8
C-2
  6
Continuous
 62
     3
370
     9
100
AcDbLine
 10
153.5408638619089
 20
708.229881492821
 30
0.0
 11
162.5409925306167
 21
708.229881492821
 31
0.0
  0
LINE
  5
18F
330
1F
100
AcDbEntity
  8
C-2
  6
Continuous
 62
     3
370
     9
100
AcDbLine
 10
153.5408638619089
 20
811.2299243823904
 30
0.0
 11
162.5409925306167
 21
811.2299243823904
 31
0.0
  0
LINE
  5
190
330
1F
100
AcDbEntity
  8
C-2
  6
Continuous
 62
     3
370
     9
100
AcDbLine
 10
153.5408638619089
 20
808.229963972762
 30
0.0
 11
162.5409925306167
 21
808.229963972762
 31
0.0
  0
LINE
  5
191
330
1F
100
AcDbEntity
  8
C-2
  6
Continuous
 62
     3
370
     9
100
AcDbLine
 10
153.5408638619089
 20
911.2300068623313
 30
0.0
 11
162.5409925306167
 21
911.2300068623313
 31
0.0
  0
LINE
  5
192
330
1F
100
AcDbEntity
  8
C-2
  6
Continuous
 62
     3
370
     9
100
AcDbLine
 10
153.5408638619089
 20
908.2297990128802
 30
0.0
 11
162.5409925306167
 21
908.2297990128802
 31
0.0
  0
LINE
  5
193
330
1F
100
AcDbEntity
  8
C-2
  6
Continuous
 62
     3
370
     9
100
AcDbLine
 10
179.5408506651182
 20
980.7294196051521
 30
0.0
 11
179.5408506651182
 21
638.7294789907096
 31
0.0
  0
LINE
  5
194
330
1F
100
AcDbEntity
  8
C-2
  6
Continuous
 62
     3
370
     9
100
AcDbLine
 10
175.5407384923987
 20
980.7294196051521
 30
0.0
 11
175.5407384923987
 21
638.7294789907096
 31
0.0
  0
LINE
  5
195
330
1F
100
AcDbEntity
  8
C-2
  6
Continuous
 62
     3
370
     9
100
AcDbLine
 10
166.5406098236909
 20
711.2295944626269
 30
0.0
 11
175.5407384923987
 21
711.2295944626269
 31
0.0
  0
LINE
  5
196
330
1F
100
AcDbEntity
  8
C-2
  6
Continuous
 62
     3
370
     9
100
AcDbLine
 10
166.5406098236909
 20
708.229881492821
 30
0.0
 11
175.5407384923987
 21
708.229881492821
 31
0.0
  0
LINE
  5
197
330
1F
100
AcDbEntity
  8
C-2
  6
Continuous
 62
     3
370
     9
100
AcDbLine
 10
166.5406098236909
 20
811.2299243823904
 30
0.0
 11
175.5407384923987
 21
811.2299243823904
 31
0.0
  0
LINE
  5
198
330
1F
100
AcDbEntity
  8
C-2
  6
Continuous
 62
     3
370
     9
100
AcDbLine
 10
166.5406098236909
 20
808.229963972762
 30
0.0
 11
175.5407384923987
 21
808.229963972762
 31
0.0
  0
LINE
  5
199
330
1F
100
AcDbEntity
  8
C-2
  6
Continuous
 62
     3
370
     9
100
AcDbLine
 10
166.5406098236909
 20
911.2300068623313
 30
0.0
 11
175.5407384923987
 21
911.2300068623313
 31
0.0
  0
LINE
  5
19A
330
1F
100
AcDbEntity
  8
C-2
  6
Continuous
 62
     3
370
     9
100
AcDbLine
 10
166.5406098236909
 20
908.2297990128802
 30
0.0
 11
175.5407384923987
 21
908.2297990128802
 31
0.0
  0
LINE
  5
19B
330
1F
100
AcDbEntity
  8
C-2
  6
Continuous
 62
     3
370
     9
100
AcDbLine
 10
192.5408440667232
 20
980.7294196051521
 30
0.0
 11
192.5408440667232
 21
638.7294789907096
 31
0.0
  0
LINE
  5
19C
330
1F
100
AcDbEntity
  8
C-2
  6
Continuous
 62
     3
370
     9
100
AcDbLine
 10
188.540979333826
 20
980.7294196051521
 30
0.0
 11
188.540979333826
 21
638.7294789907096
 31
0.0
  0
LINE
  5
19D
330
1F
100
AcDbEntity
  8
C-2
  6
Continuous
 62
     3
370
     9
100
AcDbLine
 10
179.5408506651182
 20
711.2295944626269
 30
0.0
 11
188.540979333826
 21
711.2295944626269
 31
0.0
  0
LINE
  5
19E
330
1F
100
AcDbEntity
  8
C-2
  6
Continuous
 62
     3
370
     9
100
AcDbLine
 10
179.5408506651182
 20
708.229881492821
 30
0.0
 11
188.540979333826
 21
708.229881492821
 31
0.0
  0
LINE
  5
19F
330
1F
100
AcDbEntity
  8
C-2
  6
Continuous
 62
     3
370
     9
100
AcDbLine
 10
179.5408506651182
 20
811.2299243823904
 30
0.0
 11
188.540979333826
 21
811.2299243823904
 31
0.0
  0
LINE
  5
1A0
330
1F
100
AcDbEntity
  8
C-2
  6
Continuous
 62
     3
370
     9
100
AcDbLine
 10
179.5408506651182
 20
808.229963972762
 30
0.0
 11
188.540979333826
 21
808.229963972762
 31
0.0
  0
LINE
  5
1A1
330
1F
100
AcDbEntity
  8
C-2
  6
Continuous
 62
     3
370
     9
100
AcDbLine
 10
179.5408506651182
 20
911.2300068623313
 30
0.0
 11
188.540979333826
 21
911.2300068623313
 31
0.0
  0
LINE
  5
1A2
330
1F
100
AcDbEntity
  8
C-2
  6
Continuous
 62
     3
370
     9
100
AcDbLine
 10
179.5408506651182
 20
908.2297990128802
 30
0.0
 11
188.540979333826
 21
908.2297990128802
 31
0.0
  0
LINE
  5
1A3
330
1F
100
AcDbEntity
  8
C-2
  6
Continuous
 62
     3
370
     9
100
AcDbLine
 10
199.0405933277029
 20
980.7294196051521
 30
0.0
 11
199.0405933277029
 21
638.7294789907096
 31
0.0
  0
LINE
  5
1A4
330
1F
100
AcDbEntity
  8
C-2
  6
Continuous
 62
     3
370
     9
100
AcDbLine
 10
192.5405966269005
 20
711.2295944626269
 30
0.0
 11
199.0405933277029
 21
711.2295944626269
 31
0.0
  0
LINE
  5
1A5
330
1F
100
AcDbEntity
  8
C-2
  6
Continuous
 62
     3
370
     9
100
AcDbLine
 10
192.5405966269005
 20
708.229881492821
 30
0.0
 11
199.0405933277029
 21
708.229881492821
 31
0.0
  0
LINE
  5
1A6
330
1F
100
AcDbEntity
  8
C-2
  6
Continuous
 62
     3
370
     9
100
AcDbLine
 10
192.5405966269005
 20
811.2299243823904
 30
0.0
 11
199.0405933277029
 21
811.2299243823904
 31
0.0
  0
LINE
  5
1A7
330
1F
100
AcDbEntity
  8
C-2
  6
Continuous
 62
     3
370
     9
100
AcDbLine
 10
192.5405966269005
 20
808.229963972762
 30
0.0
 11
199.0405933277029
 21
808.229963972762
 31
0.0
  0
LINE
  5
1A8
330
1F
100
AcDbEntity
  8
C-2
  6
Continuous
 62
     3
370
     9
100
AcDbLine
 10
192.5405966269005
 20
911.2300068623313
 30
0.0
 11
199.0405933277029
 21
911.2300068623313
 31
0.0
  0
LINE
  5
1A9
330
1F
100
AcDbEntity
  8
C-2
  6
Continuous
 62
     3
370
     9
100
AcDbLine
 10
192.5405966269005
 20
908.2297990128802
 30
0.0
 11
199.0405933277029
 21
908.2297990128802
 31
0.0
  0
LINE
  5
1AA
330
1F
100
AcDbEntity
  8
C-2
  6
Continuous
 62
     3
370
     9
100
AcDbLine
 10
-146.9593357395479
 20
638.7294789907096
 30
0.0
 11
203.0407055004224
 21
638.7294789907096
 31
0.0
  0
LINE
  5
1AB
330
1F
100
AcDbEntity
  8
C-2
  6
Continuous
 62
     3
370
     9
100
AcDbLine
 10
203.0407055004224
 20
980.7294196051521
 30
0.0
 11
-146.9593357395479
 21
980.7294196051521
 31
0.0
  0
TEXT
  5
1AC
330
1F
100
AcDbEntity
  8
C-5
  6
Continuous
 62
     2
370
     9
100
AcDbText
 10
-239.4593934755068
 20
462.8693998099664
 30
0.0
 40
30.48
  1
平面詳細図　Ｓ＝１：１０
 41
1.114583333333333
  7
ＭＳ ゴシック
100
AcDbText
  0
TEXT
  5
1AD
330
1F
100
AcDbEntity
  8
C-4
  6
Continuous
 62
     2
370
     9
100
AcDbText
 10
-139.4960558092271
 20
1075.36882245038
 30
0.0
 40
30.48
  1
25
 41
1.0625
  7
ＭＳ ゴシック
100
AcDbText
  0
TEXT
  5
1AE
330
1F
100
AcDbEntity
  8
C-4
  6
Continuous
 62
     2
370
     9
100
AcDbText
 10
155.3617735166807
 20
1075.36882245038
 30
0.0
 40
30.48
  1
25
 41
1.0625
  7
ＭＳ ゴシック
100
AcDbText
  0
TEXT
  5
1AF
330
1F
100
AcDbEntity
  8
C-4
  6
Continuous
 62
     2
370
     9
100
AcDbText
 10
-181.4786756360851
 20
1130.368509026605
 30
0.0
 40
30.48
  1
3
 41
0.9999999999999998
  7
ＭＳ ゴシック
100
AcDbText
  0
TEXT
  5
1B0
330
1F
100
AcDbEntity
  8
C-4
  6
Continuous
 62
     2
370
     9
100
AcDbText
 10
-140.3864680109797
 20
1130.368509026605
 30
0.0
 40
30.48
  1
2
 41
0.9999999999999998
  7
ＭＳ ゴシック
100
AcDbText
  0
TEXT
  5
1B1
330
1F
100
AcDbEntity
  8
C-4
  6
Continuous
 62
     2
370
     9
100
AcDbText
 10
176.474328943201
 20
1130.368509026605
 30
0.0
 40
30.48
  1
2
 41
0.9999999999999998
  7
ＭＳ ゴシック
100
AcDbText
  0
TEXT
  5
1B2
330
1F
100
AcDbEntity
  8
C-4
  6
Continuous
 62
     2
370
     9
100
AcDbText
 10
220.8098540434966
 20
1130.368509026605
 30
0.0
 40
30.48
  1
3
 41
0.9999999999999998
  7
ＭＳ ゴシック
100
AcDbText
  0
TEXT
  5
1B3
330
1F
100
AcDbEntity
  8
C-4
  6
Continuous
 62
     2
370
     9
100
AcDbText
 10
-4.459113043707532
 20
1185.368443042652
 30
0.0
 40
30.48
  1
360
 41
1.083333333333333
  7
ＭＳ ゴシック
100
AcDbText
  0
TEXT
  5
1B4
330
1F
100
AcDbEntity
  8
C-4
  6
Continuous
 62
     2
370
     9
100
AcDbText
 10
-4.459113043707532
 20
1130.368509026605
 30
0.0
 40
30.48
  1
350
 41
1.083333333333333
  7
ＭＳ ゴシック
100
AcDbText
  0
TEXT
  5
1B5
330
1F
100
AcDbEntity
  8
C-4
  6
Continuous
 62
     2
370
     9
100
AcDbText
 10
-4.4586181640625
 20
1075.368327570735
 30
0.0
 40
30.48
  1
300
 41
1.083333333333333
  7
ＭＳ ゴシック
100
AcDbText
  0
TEXT
  5
1B6
330
1F
100
AcDbEntity
  8
C-4
  6
Continuous
 62
     2
370
     9
100
AcDbText
 10
-237.598502692145
 20
642.1923993084883
 30
0.0
 40
30.48
  1
25
 50
90.0
 41
1.0625
  7
ＭＳ ゴシック
100
AcDbText
  0
TEXT
  5
1B7
330
1F
100
AcDbEntity
  8
C-4
  6
Continuous
 62
     2
370
     9
100
AcDbText
 10
-237.598502692145
 20
937.0503523543075
 30
0.0
 40
30.48
  1
25
 50
90.0
 41
1.0625
  7
ＭＳ ゴシック
100
AcDbText
  0
TEXT
  5
1B8
330
1F
100
AcDbEntity
  8
C-4
  6
Continuous
 62
     2
370
     9
100
AcDbText
 10
-292.5979418285471
 20
600.2097794816302
 30
0.0
 40
30.48
  1
3
 50
90.0
 41
0.9999999999999998
  7
ＭＳ ゴシック
100
AcDbText
  0
TEXT
  5
1B9
330
1F
100
AcDbEntity
  8
C-4
  6
Continuous
 62
     2
370
     9
100
AcDbText
 10
-292.5979418285471
 20
641.3021108266471
 30
0.0
 40
30.48
  1
2
 50
90.0
 41
0.9999999999999998
  7
ＭＳ ゴシック
100
AcDbText
  0
TEXT
  5
1BA
330
1F
100
AcDbEntity
  8
C-4
  6
Continuous
 62
     2
370
     9
100
AcDbText
 10
-292.5979418285471
 20
958.1626603410052
 30
0.0
 40
30.48
  1
2
 50
90.0
 41
0.9999999999999998
  7
ＭＳ ゴシック
100
AcDbText
  0
TEXT
  5
1BB
330
1F
100
AcDbEntity
  8
C-4
  6
Continuous
 62
     2
370
     9
100
AcDbText
 10
-292.5979418285471
 20
1002.498185441301
 30
0.0
 40
30.48
  1
3
 50
90.0
 41
0.9999999999999998
  7
ＭＳ ゴシック
100
AcDbText
  0
TEXT
  5
1BC
330
1F
100
AcDbEntity
  8
C-4
  6
Continuous
 62
     2
370
     9
100
AcDbText
 10
-347.5979995645057
 20
777.229465793919
 30
0.0
 40
30.48
  1
360
 50
90.0
 41
1.083333333333333
  7
ＭＳ ゴシック
100
AcDbText
  0
TEXT
  5
1BD
330
1F
100
AcDbEntity
  8
C-4
  6
Continuous
 62
     2
370
     9
100
AcDbText
 10
-292.5979418285471
 20
777.229465793919
 30
0.0
 40
30.48
  1
350
 50
90.0
 41
1.083333333333333
  7
ＭＳ ゴシック
100
AcDbText
  0
TEXT
  5
1BE
330
1F
100
AcDbEntity
  8
C-4
  6
Continuous
 62
     2
370
     9
100
AcDbText
 10
-237.5980078125
 20
777.2299606735644
 30
0.0
 40
30.48
  1
300
 50
90.0
 41
1.083333333333333
  7
ＭＳ ゴシック
100
AcDbText
  0
TEXT
  5
1BF
330
1F
100
AcDbEntity
  8
C-4
  6
Continuous
 62
     2
370
     9
100
AcDbText
 10
-134.4594182194888
 20
555.3709421848606
 30
0.0
 40
30.48
  1
100
 41
1.083333333333333
  7
ＭＳ ゴシック
100
AcDbText
  0
TEXT
  5
1C0
330
1F
100
AcDbEntity
  8
C-4
  6
Continuous
 62
     2
370
     9
100
AcDbText
 10
125.5413158519849
 20
555.3709421848606
 30
0.0
 40
30.48
  1
100
 41
1.083333333333333
  7
ＭＳ ゴシック
100
AcDbText
  0
TEXT
  5
1C1
330
1F
100
AcDbEntity
  8
C-4
  6
Continuous
 62
     2
370
     9
100
AcDbText
 10
-4.459113043707532
 20
555.371437064506
 30
0.0
 40
30.48
  1
160
 41
1.083333333333333
  7
ＭＳ ゴシック
100
AcDbText
  0
TEXT
  5
1C2
330
1F
100
AcDbEntity
  8
C-4
  6
Continuous
 62
     2
370
     9
100
AcDbText
 10
45.7909661370357
 20
1022.95463458087
 30
0.0
 40
30.48
  1
13
 41
1.0625
  7
ＭＳ ゴシック
100
AcDbText
  0
LINE
  5
1C3
330
1F
100
AcDbEntity
  8
C-A
  6
Continuous
 62
     3
370
     9
100
AcDbLine
 10
-43.20916782820483
 20
624.7293471816383
 30
0.0
 11
-44.45916782820483
 21
624.7293471816383
 31
0.0
  0
LINE
  5
1C4
330
1F
100
AcDbEntity
  8
C-A
  6
Continuous
 62
     3
370
     9
100
AcDbLine
 10
-43.20916782820483
 20
624.7293471816383
 30
0.0
 11
-43.20916782820483
 21
595.7293624404278
 31
0.0
  0
LINE
  5
1C5
330
1F
100
AcDbEntity
  8
C-A
  6
Continuous
 62
     3
370
     9
100
AcDbLine
 10
-44.46383701765704
 20
628.7293624404274
 30
0.0
 11
-43.95068394148517
 21
628.7293624404274
 31
0.0
  0
LINE
  5
1C6
330
1F
100
AcDbEntity
  8
C-A
  6
Continuous
 62
     3
370
     9
100
AcDbLine
 10
-59.95910679304721
 20
628.7293624404274
 30
0.0
 11
-59.45913731062625
 21
628.7293624404274
 31
0.0
  0
LINE
  5
1C7
330
1F
100
AcDbEntity
  8
C-A
  6
Continuous
 62
     3
370
     9
100
AcDbLine
 10
-60.70922886335971
 20
624.7293471816383
 30
0.0
 11
-59.45925938093829
 21
624.7293471816383
 31
0.0
  0
LINE
  5
1C8
330
1F
100
AcDbEntity
  8
C-A
  6
Continuous
 62
     3
370
     9
100
AcDbLine
 10
-60.70922886335971
 20
624.7293471816383
 30
0.0
 11
-60.70922886335971
 21
595.7293624404278
 31
0.0
  0
LINE
  5
1C9
330
1F
100
AcDbEntity
  8
C-A
  6
Continuous
 62
     3
370
     9
100
AcDbLine
 10
-43.20916782820483
 20
595.7293624404278
 30
0.0
 11
-60.70922886335971
 21
595.7293624404278
 31
0.0
  0
LINE
  5
1CA
330
1F
100
AcDbEntity
  8
C-A
  6
JWW_DASHED2
 62
     3
370
     9
100
AcDbLine
 10
-45.20919834578159
 20
624.8752517226544
 30
0.0
 11
-45.20919834578159
 21
595.7293624404278
 31
0.0
  0
LINE
  5
1CB
330
1F
100
AcDbEntity
  8
C-A
  6
JWW_DASHED2
 62
     3
370
     9
100
AcDbLine
 10
-58.70922886336153
 20
624.8752517226544
 30
0.0
 11
-58.70922886336153
 21
595.7293624404278
 31
0.0
  0
LINE
  5
1CC
330
1F
100
AcDbEntity
  8
C-A
  6
JWW_CENTER2
 62
     7
370
     9
100
AcDbLine
 10
-57.73516880476642
 20
605.7294082167946
 30
0.0
 11
-46.18313633406466
 21
605.7294082167946
 31
0.0
  0
LINE
  5
1CD
330
1F
100
AcDbEntity
  8
C-A
  6
JWW_CENTER2
 62
     7
370
     9
100
AcDbLine
 10
-51.95916782820483
 20
638.1975326064444
 30
0.0
 11
-51.95916782820483
 21
590.7971419814439
 31
0.0
  0
ARC
  5
1CE
330
1F
100
AcDbEntity
  8
C-A
  6
Continuous
 62
     3
370
     9
100
AcDbCircle
 10
-43.95910679304812
 20
630.7293319228493
 30
0.0
 40
1.999999642372131
100
AcDbArc
 50
270.2416229248047
 51
330.0007171630859
  0
ARC
  5
1CF
330
1F
100
AcDbEntity
  8
C-A
  6
Continuous
 62
     3
370
     9
100
AcDbCircle
 10
-44.45916782820483
 20
626.7293624404292
 30
0.0
 40
1.999999642372131
100
AcDbArc
 50
90.13328552246095
 51
270.0
  0
ARC
  5
1D0
330
1F
100
AcDbEntity
  8
C-A
  6
Continuous
 62
     3
370
     9
100
AcDbCircle
 10
-59.95910679304721
 20
630.7293319228493
 30
0.0
 40
1.999999642372131
100
AcDbArc
 50
209.99951171875
 51
269.7240295410157
  0
ARC
  5
1D1
330
1F
100
AcDbEntity
  8
C-A
  6
Continuous
 62
     3
370
     9
100
AcDbCircle
 10
-59.45925938093829
 20
626.7293624404292
 30
0.0
 40
1.999999642372131
100
AcDbArc
 50
270.0
 51
90.0
  0
CIRCLE
  5
1D2
330
1F
100
AcDbEntity
  8
C-A
  6
Continuous
 62
     3
370
     9
100
AcDbCircle
 10
-51.95916782820483
 20
605.7294082167946
 30
0.0
 40
4.249999523162842
  0
LINE
  5
1D3
330
1F
100
AcDbEntity
  8
C-A
  6
Continuous
 62
     3
370
     9
100
AcDbLine
 10
116.7908321717952
 20
624.7293471816383
 30
0.0
 11
115.5408321717952
 21
624.7293471816383
 31
0.0
  0
LINE
  5
1D4
330
1F
100
AcDbEntity
  8
C-A
  6
Continuous
 62
     3
370
     9
100
AcDbLine
 10
116.7908321717952
 20
624.7293471816383
 30
0.0
 11
116.7908321717952
 21
595.7293624404278
 31
0.0
  0
LINE
  5
1D5
330
1F
100
AcDbEntity
  8
C-A
  6
Continuous
 62
     3
370
     9
100
AcDbLine
 10
115.536162982343
 20
628.7293624404274
 30
0.0
 11
116.0493160585148
 21
628.7293624404274
 31
0.0
  0
LINE
  5
1D6
330
1F
100
AcDbEntity
  8
C-A
  6
Continuous
 62
     3
370
     9
100
AcDbLine
 10
100.0408932069528
 20
628.7293624404274
 30
0.0
 11
100.5408626893738
 21
628.7293624404274
 31
0.0
  0
LINE
  5
1D7
330
1F
100
AcDbEntity
  8
C-A
  6
Continuous
 62
     3
370
     9
100
AcDbLine
 10
99.29077113664029
 20
624.7293471816383
 30
0.0
 11
100.5407406190617
 21
624.7293471816383
 31
0.0
  0
LINE
  5
1D8
330
1F
100
AcDbEntity
  8
C-A
  6
Continuous
 62
     3
370
     9
100
AcDbLine
 10
99.29077113664029
 20
624.7293471816383
 30
0.0
 11
99.29077113664029
 21
595.7293624404278
 31
0.0
  0
LINE
  5
1D9
330
1F
100
AcDbEntity
  8
C-A
  6
Continuous
 62
     3
370
     9
100
AcDbLine
 10
116.7908321717952
 20
595.7293624404278
 30
0.0
 11
99.29077113664029
 21
595.7293624404278
 31
0.0
  0
LINE
  5
1DA
330
1F
100
AcDbEntity
  8
C-A
  6
JWW_DASHED2
 62
     3
370
     9
100
AcDbLine
 10
114.7908016542184
 20
624.8752517226544
 30
0.0
 11
114.7908016542184
 21
595.7293624404278
 31
0.0
  0
LINE
  5
1DB
330
1F
100
AcDbEntity
  8
C-A
  6
JWW_DASHED2
 62
     3
370
     9
100
AcDbLine
 10
101.2907711366385
 20
624.8752517226544
 30
0.0
 11
101.2907711366385
 21
595.7293624404278
 31
0.0
  0
LINE
  5
1DC
330
1F
100
AcDbEntity
  8
C-A
  6
JWW_CENTER2
 62
     7
370
     9
100
AcDbLine
 10
102.2648311952336
 20
605.7294082167946
 30
0.0
 11
113.8168636659353
 21
605.7294082167946
 31
0.0
  0
LINE
  5
1DD
330
1F
100
AcDbEntity
  8
C-A
  6
JWW_CENTER2
 62
     7
370
     9
100
AcDbLine
 10
108.0408321717952
 20
638.1975326064444
 30
0.0
 11
108.0408321717952
 21
590.7971419814439
 31
0.0
  0
ARC
  5
1DE
330
1F
100
AcDbEntity
  8
C-A
  6
Continuous
 62
     3
370
     9
100
AcDbCircle
 10
116.0408932069519
 20
630.7293319228493
 30
0.0
 40
1.999999642372131
100
AcDbArc
 50
270.2416229248047
 51
330.0007171630859
  0
ARC
  5
1DF
330
1F
100
AcDbEntity
  8
C-A
  6
Continuous
 62
     3
370
     9
100
AcDbCircle
 10
115.5408321717952
 20
626.7293624404292
 30
0.0
 40
1.999999642372131
100
AcDbArc
 50
90.13328552246095
 51
270.0
  0
ARC
  5
1E0
330
1F
100
AcDbEntity
  8
C-A
  6
Continuous
 62
     3
370
     9
100
AcDbCircle
 10
100.0408932069528
 20
630.7293319228493
 30
0.0
 40
1.999999642372131
100
AcDbArc
 50
209.99951171875
 51
269.7240295410157
  0
ARC
  5
1E1
330
1F
100
AcDbEntity
  8
C-A
  6
Continuous
 62
     3
370
     9
100
AcDbCircle
 10
100.5407406190617
 20
626.7293624404292
 30
0.0
 40
1.999999642372131
100
AcDbArc
 50
270.0
 51
90.0
  0
CIRCLE
  5
1E2
330
1F
100
AcDbEntity
  8
C-A
  6
Continuous
 62
     3
370
     9
100
AcDbCircle
 10
108.0408321717952
 20
605.7294082167946
 30
0.0
 40
4.249999523162842
  0
LINE
  5
1E3
330
1F
100
AcDbEntity
  8
C-A
  6
Continuous
 62
     3
370
     9
100
AcDbLine
 10
-43.20916782820483
 20
994.7295518266229
 30
0.0
 11
-44.45916782820483
 21
994.7295518266229
 31
0.0
  0
LINE
  5
1E4
330
1F
100
AcDbEntity
  8
C-A
  6
Continuous
 62
     3
370
     9
100
AcDbLine
 10
-43.20916782820483
 20
994.7295518266229
 30
0.0
 11
-43.20916782820483
 21
1023.729536567833
 31
0.0
  0
LINE
  5
1E5
330
1F
100
AcDbEntity
  8
C-A
  6
Continuous
 62
     3
370
     9
100
AcDbLine
 10
-44.46383701765704
 20
990.7295365678339
 30
0.0
 11
-43.95068394148517
 21
990.7295365678339
 31
0.0
  0
LINE
  5
1E6
330
1F
100
AcDbEntity
  8
C-A
  6
Continuous
 62
     3
370
     9
100
AcDbLine
 10
-59.95910679304721
 20
990.7295365678339
 30
0.0
 11
-59.45913731062625
 21
990.7295365678339
 31
0.0
  0
LINE
  5
1E7
330
1F
100
AcDbEntity
  8
C-A
  6
Continuous
 62
     3
370
     9
100
AcDbLine
 10
-60.70922886335971
 20
994.7295518266229
 30
0.0
 11
-59.45925938093829
 21
994.7295518266229
 31
0.0
  0
LINE
  5
1E8
330
1F
100
AcDbEntity
  8
C-A
  6
Continuous
 62
     3
370
     9
100
AcDbLine
 10
-60.70922886335971
 20
994.7295518266229
 30
0.0
 11
-60.70922886335971
 21
1023.729536567833
 31
0.0
  0
LINE
  5
1E9
330
1F
100
AcDbEntity
  8
C-A
  6
Continuous
 62
     3
370
     9
100
AcDbLine
 10
-43.20916782820483
 20
1023.729536567833
 30
0.0
 11
-60.70922886335971
 21
1023.729536567833
 31
0.0
  0
LINE
  5
1EA
330
1F
100
AcDbEntity
  8
C-A
  6
JWW_DASHED2
 62
     3
370
     9
100
AcDbLine
 10
-45.20919834578159
 20
994.5836472856068
 30
0.0
 11
-45.20919834578159
 21
1023.729536567833
 31
0.0
  0
LINE
  5
1EB
330
1F
100
AcDbEntity
  8
C-A
  6
JWW_DASHED2
 62
     3
370
     9
100
AcDbLine
 10
-58.70922886336153
 20
994.5836472856068
 30
0.0
 11
-58.70922886336153
 21
1023.729536567833
 31
0.0
  0
LINE
  5
1EC
330
1F
100
AcDbEntity
  8
C-A
  6
JWW_CENTER2
 62
     7
370
     9
100
AcDbLine
 10
-57.73516880476642
 20
1013.729490791467
 30
0.0
 11
-46.18313633406466
 21
1013.729490791467
 31
0.0
  0
LINE
  5
1ED
330
1F
100
AcDbEntity
  8
C-A
  6
JWW_CENTER2
 62
     7
370
     9
100
AcDbLine
 10
-51.95916782820483
 20
981.2613664018169
 30
0.0
 11
-51.95916782820483
 21
1028.661757026817
 31
0.0
  0
ARC
  5
1EE
330
1F
100
AcDbEntity
  8
C-A
  6
Continuous
 62
     3
370
     9
100
AcDbCircle
 10
-43.95910679304812
 20
988.729567085412
 30
0.0
 40
1.999999642372131
100
AcDbArc
 50
29.99928283691408
 51
89.75837707519533
  0
ARC
  5
1EF
330
1F
100
AcDbEntity
  8
C-A
  6
Continuous
 62
     3
370
     9
100
AcDbCircle
 10
-44.45916782820483
 20
992.729536567832
 30
0.0
 40
1.999999642372131
100
AcDbArc
 50
90.0
 51
269.8667144775391
  0
ARC
  5
1F0
330
1F
100
AcDbEntity
  8
C-A
  6
Continuous
 62
     3
370
     9
100
AcDbCircle
 10
-59.95910679304721
 20
988.729567085412
 30
0.0
 40
1.999999642372131
100
AcDbArc
 50
90.27597045898438
 51
150.00048828125
  0
ARC
  5
1F1
330
1F
100
AcDbEntity
  8
C-A
  6
Continuous
 62
     3
370
     9
100
AcDbCircle
 10
-59.45925938093829
 20
992.729536567832
 30
0.0
 40
1.999999642372131
100
AcDbArc
 50
270.0
 51
90.0
  0
CIRCLE
  5
1F2
330
1F
100
AcDbEntity
  8
C-A
  6
Continuous
 62
     3
370
     9
100
AcDbCircle
 10
-51.95916782820483
 20
1013.729490791467
 30
0.0
 40
4.249999523162842
  0
LINE
  5
1F3
330
1F
100
AcDbEntity
  8
C-A
  6
Continuous
 62
     3
370
     9
100
AcDbLine
 10
116.7908321717952
 20
994.7295518266229
 30
0.0
 11
115.5408321717952
 21
994.7295518266229
 31
0.0
  0
LINE
  5
1F4
330
1F
100
AcDbEntity
  8
C-A
  6
Continuous
 62
     3
370
     9
100
AcDbLine
 10
116.7908321717952
 20
994.7295518266229
 30
0.0
 11
116.7908321717952
 21
1023.729536567833
 31
0.0
  0
LINE
  5
1F5
330
1F
100
AcDbEntity
  8
C-A
  6
Continuous
 62
     3
370
     9
100
AcDbLine
 10
115.536162982343
 20
990.7295365678339
 30
0.0
 11
116.0493160585148
 21
990.7295365678339
 31
0.0
  0
LINE
  5
1F6
330
1F
100
AcDbEntity
  8
C-A
  6
Continuous
 62
     3
370
     9
100
AcDbLine
 10
100.0408932069528
 20
990.7295365678339
 30
0.0
 11
100.5408626893738
 21
990.7295365678339
 31
0.0
  0
LINE
  5
1F7
330
1F
100
AcDbEntity
  8
C-A
  6
Continuous
 62
     3
370
     9
100
AcDbLine
 10
99.29077113664029
 20
994.7295518266229
 30
0.0
 11
100.5407406190617
 21
994.7295518266229
 31
0.0
  0
LINE
  5
1F8
330
1F
100
AcDbEntity
  8
C-A
  6
Continuous
 62
     3
370
     9
100
AcDbLine
 10
99.29077113664029
 20
994.7295518266229
 30
0.0
 11
99.29077113664029
 21
1023.729536567833
 31
0.0
  0
LINE
  5
1F9
330
1F
100
AcDbEntity
  8
C-A
  6
Continuous
 62
     3
370
     9
100
AcDbLine
 10
116.7908321717952
 20
1023.729536567833
 30
0.0
 11
99.29077113664029
 21
1023.729536567833
 31
0.0
  0
LINE
  5
1FA
330
1F
100
AcDbEntity
  8
C-A
  6
JWW_DASHED2
 62
     3
370
     9
100
AcDbLine
 10
114.7908016542184
 20
994.5836472856068
 30
0.0
 11
114.7908016542184
 21
1023.729536567833
 31
0.0
  0
LINE
  5
1FB
330
1F
100
AcDbEntity
  8
C-A
  6
JWW_DASHED2
 62
     3
370
     9
100
AcDbLine
 10
101.2907711366385
 20
994.5836472856068
 30
0.0
 11
101.2907711366385
 21
1023.729536567833
 31
0.0
  0
LINE
  5
1FC
330
1F
100
AcDbEntity
  8
C-A
  6
JWW_CENTER2
 62
     7
370
     9
100
AcDbLine
 10
102.2648311952336
 20
1013.729490791467
 30
0.0
 11
113.8168636659353
 21
1013.729490791467
 31
0.0
  0
LINE
  5
1FD
330
1F
100
AcDbEntity
  8
C-A
  6
JWW_CENTER2
 62
     7
370
     9
100
AcDbLine
 10
108.0408321717952
 20
981.2613664018169
 30
0.0
 11
108.0408321717952
 21
1028.661757026817
 31
0.0
  0
ARC
  5
1FE
330
1F
100
AcDbEntity
  8
C-A
  6
Continuous
 62
     3
370
     9
100
AcDbCircle
 10
116.0408932069519
 20
988.729567085412
 30
0.0
 40
1.999999642372131
100
AcDbArc
 50
29.99928283691408
 51
89.75837707519533
  0
ARC
  5
1FF
330
1F
100
AcDbEntity
  8
C-A
  6
Continuous
 62
     3
370
     9
100
AcDbCircle
 10
115.5408321717952
 20
992.729536567832
 30
0.0
 40
1.999999642372131
100
AcDbArc
 50
90.0
 51
269.8667144775391
  0
ARC
  5
200
330
1F
100
AcDbEntity
  8
C-A
  6
Continuous
 62
     3
370
     9
100
AcDbCircle
 10
100.0408932069528
 20
988.729567085412
 30
0.0
 40
1.999999642372131
100
AcDbArc
 50
90.27597045898438
 51
150.00048828125
  0
ARC
  5
201
330
1F
100
AcDbEntity
  8
C-A
  6
Continuous
 62
     3
370
     9
100
AcDbCircle
 10
100.5407406190617
 20
992.729536567832
 30
0.0
 40
1.999999642372131
100
AcDbArc
 50
270.0
 51
90.0
  0
CIRCLE
  5
202
330
1F
100
AcDbEntity
  8
C-A
  6
Continuous
 62
     3
370
     9
100
AcDbCircle
 10
108.0408321717952
 20
1013.729490791467
 30
0.0
 40
4.249999523162842
  0
LINE
  5
203
330
1F
100
AcDbEntity
  8
D-1
  6
Continuous
 62
     2
370
     9
100
AcDbLine
 10
-823.8932150943106
 20
-353.3675789758631
 30
0.0
 11
-818.8929438931768
 21
-353.3675789758631
 31
0.0
  0
LINE
  5
204
330
1F
100
AcDbEntity
  8
D-1
  6
Continuous
 62
     2
370
     9
100
AcDbLine
 10
-818.8929438931768
 20
-238.3682846948572
 30
0.0
 11
-818.8929438931768
 21
-338.3677601739832
 31
0.0
  0
LINE
  5
205
330
1F
100
AcDbEntity
  8
D-4
  6
Continuous
 62
     7
370
     9
100
AcDbLine
 10
-828.8919995185529
 20
-11.19690179080333
 30
0.0
 11
-823.8917285544699
 21
-11.19690179080333
 31
0.0
  0
LINE
  5
206
330
1F
100
AcDbEntity
  8
D-4
  6
Continuous
 62
     7
370
     9
100
AcDbLine
 10
-953.8928312403982
 20
-119.949266903108
 30
0.0
 11
-828.8919995185529
 21
-119.949266903108
 31
0.0
  0
LINE
  5
207
330
1F
100
AcDbEntity
  8
D-4
  6
Continuous
 62
     7
370
     9
100
AcDbLine
 10
-828.8919995185529
 20
-225.4127669259973
 30
0.0
 11
-828.8919995185529
 21
-8.19732903689708
 31
0.0
  0
LINE
  5
208
330
1F
100
AcDbEntity
  8
D-4
  6
Continuous
 62
     7
370
     9
100
AcDbLine
 10
-818.8919538600271
 20
-225.4127669259973
 30
0.0
 11
-818.8919538600271
 21
-8.19732903689708
 31
0.0
  0
LINE
  5
209
330
1F
100
AcDbEntity
  8
D-4
  6
Continuous
 62
     7
370
     9
100
AcDbLine
 10
-803.8931197268789
 20
-225.4127669259973
 30
0.0
 11
-803.8931197268789
 21
102.499291904265
 31
0.0
  0
LINE
  5
20A
330
1F
100
AcDbEntity
  8
D-6
  6
Continuous
 62
     6
370
     9
100
AcDbLine
 10
-553.8929456813162
 20
-484.377443782992
 30
0.0
 11
-457.8820509059256
 21
-388.3674931451746
 31
0.0
  0
LINE
  5
20B
330
1F
100
AcDbEntity
  8
D-6
  6
Continuous
 62
     6
370
     9
100
AcDbLine
 10
-553.8929456813162
 20
-388.3674931451746
 30
0.0
 11
-388.8919538600271
 21
-388.3674931451746
 31
0.0
  0
LINE
  5
20C
330
1F
100
AcDbEntity
  8
D-6
  6
Continuous
 62
     6
370
     9
100
AcDbLine
 10
-553.8929456813162
 20
-498.5191178247401
 30
0.0
 11
-443.7413114650076
 21
-388.3674931451746
 31
0.0
  0
LINE
  5
20D
330
1F
100
AcDbEntity
  8
D-6
  6
Continuous
 62
     6
370
     9
100
AcDbLine
 10
-803.892628584606
 20
-563.3680558130213
 30
0.0
 11
-803.892628584606
 21
-738.3676361963221
 31
0.0
  0
LINE
  5
20E
330
1F
100
AcDbEntity
  8
D-6
  6
Continuous
 62
     6
370
     9
100
AcDbLine
 10
-553.8929456813162
 20
-388.3674931451746
 30
0.0
 11
-553.8929456813162
 21
-563.3680558130213
 31
0.0
  0
LINE
  5
20F
330
1F
100
AcDbEntity
  8
D-6
  6
Continuous
 62
     6
370
     9
100
AcDbLine
 10
-803.892628584606
 20
-563.3680558130213
 30
0.0
 11
-553.8929456813162
 21
-563.3680558130213
 31
0.0
  0
LINE
  5
210
330
1F
100
AcDbEntity
  8
D-6
  6
JWW_DASHED3
 62
     6
370
     9
100
AcDbLine
 10
-741.599816714031
 20
-665.8676743432948
 30
0.0
 11
-741.599816714031
 21
-563.3680558130213
 31
0.0
  0
LINE
  5
211
330
1F
100
AcDbEntity
  8
D-6
  6
JWW_DASHED3
 62
     6
370
     9
100
AcDbLine
 10
-696.5993589503591
 20
-563.3680558130213
 30
0.0
 11
-696.5993589503591
 21
-665.8676743432948
 31
0.0
  0
LINE
  5
212
330
1F
100
AcDbEntity
  8
D-4
  6
Continuous
 62
     7
370
     9
100
AcDbLine
 10
-953.8928312403982
 20
-225.4127669259973
 30
0.0
 11
-953.8928312403982
 21
-116.9487023279127
 31
0.0
  0
LINE
  5
213
330
1F
100
AcDbEntity
  8
D-4
  6
Continuous
 62
     7
370
     9
100
AcDbLine
 10
-823.8917285544699
 20
-11.19690179080333
 30
0.0
 11
-766.2315506083792
 21
-11.19690179080333
 31
0.0
  0
LINE
  5
214
330
1F
100
AcDbEntity
  8
D-4
  6
Continuous
 62
     7
370
     9
100
AcDbLine
 10
-1526.561097536785
 20
-119.949266903108
 30
0.0
 11
-953.8928312403982
 21
-119.949266903108
 31
0.0
  0
LINE
  5
215
330
1F
100
AcDbEntity
  8
D-4
  6
Continuous
 62
     7
370
     9
100
AcDbLine
 10
-1526.561097536785
 20
-11.19690179080333
 30
0.0
 11
-828.8919995185529
 21
-11.19690179080333
 31
0.0
  0
LINE
  5
216
330
1F
100
AcDbEntity
  8
D-4
  6
Continuous
 62
     7
370
     9
100
AcDbLine
 10
-1526.561097536785
 20
99.49880362301502
 30
0.0
 11
-803.8931197268789
 21
99.49880362301502
 31
0.0
  0
LINE
  5
217
330
1F
100
AcDbEntity
  8
D-1
  6
Continuous
 62
     2
370
     9
100
AcDbLine
 10
-818.8929438931768
 20
-338.3677601739832
 30
0.0
 11
-953.8933271510427
 21
-338.3677601739832
 31
0.0
  0
LINE
  5
218
330
1F
100
AcDbEntity
  8
D-1
  6
Continuous
 62
     2
370
     9
100
AcDbLine
 10
-953.8933271510427
 20
-353.3675789758631
 30
0.0
 11
-953.8933271510427
 21
-338.3677601739832
 31
0.0
  0
LINE
  5
219
330
1F
100
AcDbEntity
  8
D-1
  6
Continuous
 62
     2
370
     9
100
AcDbLine
 10
-953.8933271510427
 20
-353.3675789758631
 30
0.0
 11
-823.8932150943106
 21
-353.3675789758631
 31
0.0
  0
LINE
  5
21A
330
1F
100
AcDbEntity
  8
D-5
  6
Continuous
 62
     7
370
     9
100
AcDbLine
 10
-1295.887154970867
 20
-934.3096756860682
 30
0.0
 11
-1295.887154970867
 21
-869.3101334497401
 31
0.0
  0
LINE
  5
21B
330
1F
100
AcDbEntity
  8
D-5
  6
Continuous
 62
     7
370
     9
100
AcDbLine
 10
-1295.887154970867
 20
-869.3101334497401
 30
0.0
 11
-720.8867448909109
 21
-869.3101334497401
 31
0.0
  0
LINE
  5
21C
330
1F
100
AcDbEntity
  8
D-5
  6
Continuous
 62
     7
370
     9
100
AcDbLine
 10
-720.8867448909109
 20
-869.3101334497401
 30
0.0
 11
-720.8867448909109
 21
-934.3096756860682
 31
0.0
  0
LINE
  5
21D
330
1F
100
AcDbEntity
  8
D-5
  6
Continuous
 62
     7
370
     9
100
AcDbLine
 10
-720.8867448909109
 20
-934.3096756860682
 30
0.0
 11
-1295.887154970867
 21
-934.3096756860682
 31
0.0
  0
LINE
  5
21E
330
1F
100
AcDbEntity
  8
D-6
  6
Continuous
 62
     6
370
     9
100
AcDbLine
 10
-803.892628584606
 20
-734.3761277124354
 30
0.0
 11
-632.8831190211599
 21
-563.3680558130213
 31
0.0
  0
LINE
  5
21F
330
1F
100
AcDbEntity
  8
D-6
  6
Continuous
 62
     6
370
     9
100
AcDbLine
 10
-793.742949400646
 20
-738.3676361963221
 30
0.0
 11
-618.742379580242
 21
-563.3680558130213
 31
0.0
  0
LINE
  5
220
330
1F
100
AcDbEntity
  8
D-6
  6
Continuous
 62
     6
370
     9
100
AcDbLine
 10
-553.8929456813162
 20
-512.6598000451991
 30
0.0
 11
-429.6006483180349
 21
-388.3674931451746
 31
0.0
  0
LINE
  5
221
330
1F
100
AcDbEntity
  8
D-6
  6
Continuous
 62
     6
370
     9
100
AcDbLine
 10
-779.6030181987112
 20
-738.3676361963221
 30
0.0
 11
-604.6022504908865
 21
-563.3680558130213
 31
0.0
  0
LINE
  5
222
330
1F
100
AcDbEntity
  8
D-0
  6
Continuous
 62
     7
370
     9
100
AcDbLine
 10
-653.5992330653494
 20
-486.7041802331873
 30
0.0
 11
-653.5992330653494
 21
-485.2038979455897
 31
0.0
  0
LINE
  5
223
330
1F
100
AcDbEntity
  8
D-0
  6
Continuous
 62
     7
370
     9
100
AcDbLine
 10
-653.5992330653494
 20
-485.2038979455897
 30
0.0
 11
-652.099198733074
 21
-485.2038979455897
 31
0.0
  0
LINE
  5
224
330
1F
100
AcDbEntity
  8
D-0
  6
Continuous
 62
     7
370
     9
100
AcDbLine
 10
-652.099198733074
 20
-485.2038979455897
 30
0.0
 11
-652.099198733074
 21
-486.7041802331873
 31
0.0
  0
LINE
  5
225
330
1F
100
AcDbEntity
  8
D-0
  6
Continuous
 62
     7
370
     9
100
AcDbLine
 10
-652.099198733074
 20
-486.7041802331873
 30
0.0
 11
-653.5992330653494
 21
-486.7041802331873
 31
0.0
  0
LINE
  5
226
330
1F
100
AcDbEntity
  8
D-0
  6
Continuous
 62
     7
370
     9
100
AcDbLine
 10
-613.6711401088064
 20
-516.4808487817713
 30
0.0
 11
-613.6711401088064
 21
-514.9805664941737
 31
0.0
  0
LINE
  5
227
330
1F
100
AcDbEntity
  8
D-0
  6
Continuous
 62
     7
370
     9
100
AcDbLine
 10
-613.6711401088064
 20
-514.9805664941737
 30
0.0
 11
-612.171105776531
 21
-514.9805664941737
 31
0.0
  0
LINE
  5
228
330
1F
100
AcDbEntity
  8
D-0
  6
Continuous
 62
     7
370
     9
100
AcDbLine
 10
-612.171105776531
 20
-514.9805664941737
 30
0.0
 11
-612.171105776531
 21
-516.4808487817713
 31
0.0
  0
LINE
  5
229
330
1F
100
AcDbEntity
  8
D-0
  6
Continuous
 62
     7
370
     9
100
AcDbLine
 10
-612.171105776531
 20
-516.4808487817713
 30
0.0
 11
-613.6711401088064
 21
-516.4808487817713
 31
0.0
  0
LINE
  5
22A
330
1F
100
AcDbEntity
  8
D-0
  6
Continuous
 62
     7
370
     9
100
AcDbLine
 10
-648.1852430445974
 20
-536.7831826135584
 30
0.0
 11
-648.1852430445974
 21
-535.2829003259608
 31
0.0
  0
LINE
  5
22B
330
1F
100
AcDbEntity
  8
D-0
  6
Continuous
 62
     7
370
     9
100
AcDbLine
 10
-648.1852430445974
 20
-535.2829003259608
 30
0.0
 11
-646.685208712322
 21
-535.2829003259608
 31
0.0
  0
LINE
  5
22C
330
1F
100
AcDbEntity
  8
D-0
  6
Continuous
 62
     7
370
     9
100
AcDbLine
 10
-646.685208712322
 20
-535.2829003259608
 30
0.0
 11
-646.685208712322
 21
-536.7831826135584
 31
0.0
  0
LINE
  5
22D
330
1F
100
AcDbEntity
  8
D-0
  6
Continuous
 62
     7
370
     9
100
AcDbLine
 10
-646.685208712322
 20
-536.7831826135584
 30
0.0
 11
-648.1852430445974
 21
-536.7831826135584
 31
0.0
  0
LINE
  5
22E
330
1F
100
AcDbEntity
  8
D-0
  6
Continuous
 62
     7
370
     9
100
AcDbLine
 10
-583.2175153834646
 20
-538.8136124536463
 30
0.0
 11
-583.2175153834646
 21
-537.3133301660487
 31
0.0
  0
LINE
  5
22F
330
1F
100
AcDbEntity
  8
D-0
  6
Continuous
 62
     7
370
     9
100
AcDbLine
 10
-583.2175153834646
 20
-537.3133301660487
 30
0.0
 11
-581.7174810511892
 21
-537.3133301660487
 31
0.0
  0
LINE
  5
230
330
1F
100
AcDbEntity
  8
D-0
  6
Continuous
 62
     7
370
     9
100
AcDbLine
 10
-581.7174810511892
 20
-537.3133301660487
 30
0.0
 11
-581.7174810511892
 21
-538.8136124536463
 31
0.0
  0
LINE
  5
231
330
1F
100
AcDbEntity
  8
D-0
  6
Continuous
 62
     7
370
     9
100
AcDbLine
 10
-581.7174810511892
 20
-538.8136124536463
 30
0.0
 11
-583.2175153834646
 21
-538.8136124536463
 31
0.0
  0
LINE
  5
232
330
1F
100
AcDbEntity
  8
D-0
  6
Continuous
 62
     7
370
     9
100
AcDbLine
 10
-776.7670768840139
 20
-259.3172621652552
 30
0.0
 11
-776.7670768840139
 21
-257.8169202730127
 31
0.0
  0
LINE
  5
233
330
1F
100
AcDbEntity
  8
D-0
  6
Continuous
 62
     7
370
     9
100
AcDbLine
 10
-776.7670768840139
 20
-257.8169202730127
 30
0.0
 11
-775.2670473201101
 21
-257.8169202730127
 31
0.0
  0
LINE
  5
234
330
1F
100
AcDbEntity
  8
D-0
  6
Continuous
 62
     7
370
     9
100
AcDbLine
 10
-775.2670473201101
 20
-257.8169202730127
 30
0.0
 11
-775.2670473201101
 21
-259.3172621652552
 31
0.0
  0
LINE
  5
235
330
1F
100
AcDbEntity
  8
D-0
  6
Continuous
 62
     7
370
     9
100
AcDbLine
 10
-775.2670473201101
 20
-259.3172621652552
 30
0.0
 11
-776.7670768840139
 21
-259.3172621652552
 31
0.0
  0
LINE
  5
236
330
1F
100
AcDbEntity
  8
D-0
  6
Continuous
 62
     7
370
     9
100
AcDbLine
 10
-722.6273244960134
 20
-258.6404514238306
 30
0.0
 11
-722.6273244960134
 21
-257.1401107236811
 31
0.0
  0
LINE
  5
237
330
1F
100
AcDbEntity
  8
D-0
  6
Continuous
 62
     7
370
     9
100
AcDbLine
 10
-722.6273244960134
 20
-257.1401107236811
 30
0.0
 11
-721.1272997004812
 21
-257.1401107236811
 31
0.0
  0
LINE
  5
238
330
1F
100
AcDbEntity
  8
D-0
  6
Continuous
 62
     7
370
     9
100
AcDbLine
 10
-721.1272997004812
 20
-257.1401107236811
 30
0.0
 11
-721.1272997004812
 21
-258.6404514238306
 31
0.0
  0
LINE
  5
239
330
1F
100
AcDbEntity
  8
D-0
  6
Continuous
 62
     7
370
     9
100
AcDbLine
 10
-721.1272997004812
 20
-258.6404514238306
 30
0.0
 11
-722.6273244960134
 21
-258.6404514238306
 31
0.0
  0
LINE
  5
23A
330
1F
100
AcDbEntity
  8
D-0
  6
Continuous
 62
     7
370
     9
100
AcDbLine
 10
-679.9922365290945
 20
-282.3268341943689
 30
0.0
 11
-679.9922365290945
 21
-280.8264899179407
 31
0.0
  0
LINE
  5
23B
330
1F
100
AcDbEntity
  8
D-0
  6
Continuous
 62
     7
370
     9
100
AcDbLine
 10
-679.9922365290945
 20
-280.8264899179407
 30
0.0
 11
-678.4922117335623
 21
-280.8264899179407
 31
0.0
  0
LINE
  5
23C
330
1F
100
AcDbEntity
  8
D-0
  6
Continuous
 62
     7
370
     9
100
AcDbLine
 10
-678.4922117335623
 20
-280.8264899179407
 30
0.0
 11
-678.4922117335623
 21
-282.3268341943689
 31
0.0
  0
LINE
  5
23D
330
1F
100
AcDbEntity
  8
D-0
  6
Continuous
 62
     7
370
     9
100
AcDbLine
 10
-678.4922117335623
 20
-282.3268341943689
 30
0.0
 11
-679.9922365290945
 21
-282.3268341943689
 31
0.0
  0
LINE
  5
23E
330
1F
100
AcDbEntity
  8
D-0
  6
Continuous
 62
     7
370
     9
100
AcDbLine
 10
-656.3061040980642
 20
-261.3476300165125
 30
0.0
 11
-656.3061040980642
 21
-259.8473524972864
 31
0.0
  0
LINE
  5
23F
330
1F
100
AcDbEntity
  8
D-0
  6
Continuous
 62
     7
370
     9
100
AcDbLine
 10
-656.3061040980642
 20
-259.8473524972864
 30
0.0
 11
-654.8060697657888
 21
-259.8473524972864
 31
0.0
  0
LINE
  5
240
330
1F
100
AcDbEntity
  8
D-0
  6
Continuous
 62
     7
370
     9
100
AcDbLine
 10
-654.8060697657888
 20
-259.8473524972864
 30
0.0
 11
-654.8060697657888
 21
-261.3476300165125
 31
0.0
  0
LINE
  5
241
330
1F
100
AcDbEntity
  8
D-0
  6
Continuous
 62
     7
370
     9
100
AcDbLine
 10
-654.8060697657888
 20
-261.3476300165125
 30
0.0
 11
-656.3061040980642
 21
-261.3476300165125
 31
0.0
  0
LINE
  5
242
330
1F
100
AcDbEntity
  8
D-0
  6
Continuous
 62
     7
370
     9
100
AcDbLine
 10
-655.629472170574
 20
-330.3758454248377
 30
0.0
 11
-655.629472170574
 21
-328.8755631372401
 31
0.0
  0
LINE
  5
243
330
1F
100
AcDbEntity
  8
D-0
  6
Continuous
 62
     7
370
     9
100
AcDbLine
 10
-655.629472170574
 20
-328.8755631372401
 30
0.0
 11
-654.1293806178396
 21
-328.8755631372401
 31
0.0
  0
LINE
  5
244
330
1F
100
AcDbEntity
  8
D-0
  6
Continuous
 62
     7
370
     9
100
AcDbLine
 10
-654.1293806178396
 20
-328.8755631372401
 30
0.0
 11
-654.1293806178396
 21
-330.3758454248377
 31
0.0
  0
LINE
  5
245
330
1F
100
AcDbEntity
  8
D-0
  6
Continuous
 62
     7
370
     9
100
AcDbLine
 10
-654.1293806178396
 20
-330.3758454248377
 30
0.0
 11
-655.629472170574
 21
-330.3758454248377
 31
0.0
  0
LINE
  5
246
330
1F
100
AcDbEntity
  8
D-0
  6
Continuous
 62
     7
370
     9
100
AcDbLine
 10
-527.0475858790701
 20
-259.3172621652552
 30
0.0
 11
-527.0475858790701
 21
-257.8169202730127
 31
0.0
  0
LINE
  5
247
330
1F
100
AcDbEntity
  8
D-0
  6
Continuous
 62
     7
370
     9
100
AcDbLine
 10
-527.0475858790701
 20
-257.8169202730127
 30
0.0
 11
-525.5476087672537
 21
-257.8169202730127
 31
0.0
  0
LINE
  5
248
330
1F
100
AcDbEntity
  8
D-0
  6
Continuous
 62
     7
370
     9
100
AcDbLine
 10
-525.5476087672537
 20
-257.8169202730127
 30
0.0
 11
-525.5476087672537
 21
-259.3172621652552
 31
0.0
  0
LINE
  5
249
330
1F
100
AcDbEntity
  8
D-0
  6
Continuous
 62
     7
370
     9
100
AcDbLine
 10
-525.5476087672537
 20
-259.3172621652552
 30
0.0
 11
-527.0475858790701
 21
-259.3172621652552
 31
0.0
  0
LINE
  5
24A
330
1F
100
AcDbEntity
  8
D-0
  6
Continuous
 62
     7
370
     9
100
AcDbLine
 10
-476.2916273219412
 20
-262.024440757937
 30
0.0
 11
-476.2916273219412
 21
-260.5242228433557
 31
0.0
  0
LINE
  5
24B
330
1F
100
AcDbEntity
  8
D-0
  6
Continuous
 62
     7
370
     9
100
AcDbLine
 10
-476.2916273219412
 20
-260.5242228433557
 30
0.0
 11
-474.7916120631521
 21
-260.5242228433557
 31
0.0
  0
LINE
  5
24C
330
1F
100
AcDbEntity
  8
D-0
  6
Continuous
 62
     7
370
     9
100
AcDbLine
 10
-474.7916120631521
 20
-260.5242228433557
 30
0.0
 11
-474.7916120631521
 21
-262.024440757937
 31
0.0
  0
LINE
  5
24D
330
1F
100
AcDbEntity
  8
D-0
  6
Continuous
 62
     7
370
     9
100
AcDbLine
 10
-474.7916120631521
 20
-262.024440757937
 30
0.0
 11
-476.2916273219412
 21
-262.024440757937
 31
0.0
  0
LINE
  5
24E
330
1F
100
AcDbEntity
  8
D-0
  6
Continuous
 62
     7
370
     9
100
AcDbLine
 10
-411.3239759547537
 20
-259.9940109178492
 30
0.0
 11
-411.3239759547537
 21
-258.4937310144373
 31
0.0
  0
LINE
  5
24F
330
1F
100
AcDbEntity
  8
D-0
  6
Continuous
 62
     7
370
     9
100
AcDbLine
 10
-411.3239759547537
 20
-258.4937310144373
 30
0.0
 11
-409.8238844020193
 21
-258.4937310144373
 31
0.0
  0
LINE
  5
250
330
1F
100
AcDbEntity
  8
D-0
  6
Continuous
 62
     7
370
     9
100
AcDbLine
 10
-409.8238844020193
 20
-258.4937310144373
 30
0.0
 11
-409.8238844020193
 21
-259.9940109178492
 31
0.0
  0
LINE
  5
251
330
1F
100
AcDbEntity
  8
D-0
  6
Continuous
 62
     7
370
     9
100
AcDbLine
 10
-409.8238844020193
 20
-259.9940109178492
 30
0.0
 11
-411.3239759547537
 21
-259.9940109178492
 31
0.0
  0
LINE
  5
252
330
1F
100
AcDbEntity
  8
D-0
  6
Continuous
 62
     7
370
     9
100
AcDbLine
 10
-435.686845217449
 20
-292.4779343530603
 30
0.0
 11
-435.686845217449
 21
-290.9777188226648
 31
0.0
  0
LINE
  5
253
330
1F
100
AcDbEntity
  8
D-0
  6
Continuous
 62
     7
370
     9
100
AcDbLine
 10
-435.686845217449
 20
-290.9777188226648
 30
0.0
 11
-434.1868299586599
 21
-290.9777188226648
 31
0.0
  0
LINE
  5
254
330
1F
100
AcDbEntity
  8
D-0
  6
Continuous
 62
     7
370
     9
100
AcDbLine
 10
-434.1868299586599
 20
-290.9777188226648
 30
0.0
 11
-434.1868299586599
 21
-292.4779343530603
 31
0.0
  0
LINE
  5
255
330
1F
100
AcDbEntity
  8
D-0
  6
Continuous
 62
     7
370
     9
100
AcDbLine
 10
-434.1868299586599
 20
-292.4779343530603
 30
0.0
 11
-435.686845217449
 21
-292.4779343530603
 31
0.0
  0
LINE
  5
256
330
1F
100
AcDbEntity
  8
D-0
  6
Continuous
 62
     7
370
     9
100
AcDbLine
 10
-475.614823733074
 20
-316.1638188287683
 30
0.0
 11
-475.614823733074
 21
-314.6635413095423
 31
0.0
  0
LINE
  5
257
330
1F
100
AcDbEntity
  8
D-0
  6
Continuous
 62
     7
370
     9
100
AcDbLine
 10
-475.614823733074
 20
-314.6635413095423
 30
0.0
 11
-474.1148084742849
 21
-314.6635413095423
 31
0.0
  0
LINE
  5
258
330
1F
100
AcDbEntity
  8
D-0
  6
Continuous
 62
     7
370
     9
100
AcDbLine
 10
-474.1148084742849
 20
-314.6635413095423
 30
0.0
 11
-474.1148084742849
 21
-316.1638188287683
 31
0.0
  0
LINE
  5
259
330
1F
100
AcDbEntity
  8
D-0
  6
Continuous
 62
     7
370
     9
100
AcDbLine
 10
-474.1148084742849
 20
-316.1638188287683
 30
0.0
 11
-475.614823733074
 21
-316.1638188287683
 31
0.0
  0
LINE
  5
25A
330
1F
100
AcDbEntity
  8
D-0
  6
Continuous
 62
     7
370
     9
100
AcDbLine
 10
-503.3614439112966
 20
-330.3758454248377
 30
0.0
 11
-503.3614439112966
 21
-328.8755631372401
 31
0.0
  0
LINE
  5
25B
330
1F
100
AcDbEntity
  8
D-0
  6
Continuous
 62
     7
370
     9
100
AcDbLine
 10
-503.3614439112966
 20
-328.8755631372401
 30
0.0
 11
-501.8614667994802
 21
-328.8755631372401
 31
0.0
  0
LINE
  5
25C
330
1F
100
AcDbEntity
  8
D-0
  6
Continuous
 62
     7
370
     9
100
AcDbLine
 10
-501.8614667994802
 20
-328.8755631372401
 30
0.0
 11
-501.8614667994802
 21
-330.3758454248377
 31
0.0
  0
LINE
  5
25D
330
1F
100
AcDbEntity
  8
D-0
  6
Continuous
 62
     7
370
     9
100
AcDbLine
 10
-501.8614667994802
 20
-330.3758454248377
 30
0.0
 11
-503.3614439112966
 21
-330.3758454248377
 31
0.0
  0
LINE
  5
25E
330
1F
100
AcDbEntity
  8
D-0
  6
Continuous
 62
     7
370
     9
100
AcDbLine
 10
-528.4010786158865
 20
-301.2754797861048
 30
0.0
 11
-528.4010786158865
 21
-299.7751974985071
 31
0.0
  0
LINE
  5
25F
330
1F
100
AcDbEntity
  8
D-0
  6
Continuous
 62
     7
370
     9
100
AcDbLine
 10
-528.4010786158865
 20
-299.7751974985071
 30
0.0
 11
-526.9010442836111
 21
-299.7751974985071
 31
0.0
  0
LINE
  5
260
330
1F
100
AcDbEntity
  8
D-0
  6
Continuous
 62
     7
370
     9
100
AcDbLine
 10
-526.9010442836111
 20
-299.7751974985071
 30
0.0
 11
-526.9010442836111
 21
-301.2754797861048
 31
0.0
  0
LINE
  5
261
330
1F
100
AcDbEntity
  8
D-0
  6
Continuous
 62
     7
370
     9
100
AcDbLine
 10
-526.9010442836111
 20
-301.2754797861048
 30
0.0
 11
-528.4010786158865
 21
-301.2754797861048
 31
0.0
  0
LINE
  5
262
330
1F
100
AcDbEntity
  8
D-0
  6
Continuous
 62
     7
370
     9
100
AcDbLine
 10
-508.0988020045584
 20
-365.5665135309168
 30
0.0
 11
-508.0988020045584
 21
-364.0662312433192
 31
0.0
  0
LINE
  5
263
330
1F
100
AcDbEntity
  8
D-0
  6
Continuous
 62
     7
370
     9
100
AcDbLine
 10
-508.0988020045584
 20
-364.0662312433192
 30
0.0
 11
-506.598710451824
 21
-364.0662312433192
 31
0.0
  0
LINE
  5
264
330
1F
100
AcDbEntity
  8
D-0
  6
Continuous
 62
     7
370
     9
100
AcDbLine
 10
-506.598710451824
 20
-364.0662312433192
 30
0.0
 11
-506.598710451824
 21
-365.5665135309168
 31
0.0
  0
LINE
  5
265
330
1F
100
AcDbEntity
  8
D-0
  6
Continuous
 62
     7
370
     9
100
AcDbLine
 10
-506.598710451824
 20
-365.5665135309168
 30
0.0
 11
-508.0988020045584
 21
-365.5665135309168
 31
0.0
  0
LINE
  5
266
330
1F
100
AcDbEntity
  8
D-0
  6
Continuous
 62
     7
370
     9
100
AcDbLine
 10
-450.5751890284841
 20
-364.2128968164393
 30
0.0
 11
-450.5751890284841
 21
-362.7126145288416
 31
0.0
  0
LINE
  5
267
330
1F
100
AcDbEntity
  8
D-0
  6
Continuous
 62
     7
370
     9
100
AcDbLine
 10
-450.5751890284841
 20
-362.7126145288416
 30
0.0
 11
-449.0752119166677
 21
-362.7126145288416
 31
0.0
  0
LINE
  5
268
330
1F
100
AcDbEntity
  8
D-0
  6
Continuous
 62
     7
370
     9
100
AcDbLine
 10
-449.0752119166677
 20
-362.7126145288416
 30
0.0
 11
-449.0752119166677
 21
-364.2128968164393
 31
0.0
  0
LINE
  5
269
330
1F
100
AcDbEntity
  8
D-0
  6
Continuous
 62
     7
370
     9
100
AcDbLine
 10
-449.0752119166677
 20
-364.2128968164393
 30
0.0
 11
-450.5751890284841
 21
-364.2128968164393
 31
0.0
  0
LINE
  5
26A
330
1F
100
AcDbEntity
  8
D-0
  6
Continuous
 62
     7
370
     9
100
AcDbLine
 10
-401.1727613551443
 20
-363.5360836908289
 30
0.0
 11
-401.1727613551443
 21
-362.0358014032313
 31
0.0
  0
LINE
  5
26B
330
1F
100
AcDbEntity
  8
D-0
  6
Continuous
 62
     7
370
     9
100
AcDbLine
 10
-401.1727613551443
 20
-362.0358014032313
 30
0.0
 11
-399.6727079493826
 21
-362.0358014032313
 31
0.0
  0
LINE
  5
26C
330
1F
100
AcDbEntity
  8
D-0
  6
Continuous
 62
     7
370
     9
100
AcDbLine
 10
-399.6727079493826
 20
-362.0358014032313
 30
0.0
 11
-399.6727079493826
 21
-363.5360836908289
 31
0.0
  0
LINE
  5
26D
330
1F
100
AcDbEntity
  8
D-0
  6
Continuous
 62
     7
370
     9
100
AcDbLine
 10
-399.6727079493826
 20
-363.5360836908289
 30
0.0
 11
-401.1727613551443
 21
-363.5360836908289
 31
0.0
  0
LINE
  5
26E
330
1F
100
AcDbEntity
  8
D-0
  6
Continuous
 62
     7
370
     9
100
AcDbLine
 10
-413.3542341334646
 20
-323.6082386896082
 30
0.0
 11
-413.3542341334646
 21
-322.1079564020106
 31
0.0
  0
LINE
  5
26F
330
1F
100
AcDbEntity
  8
D-0
  6
Continuous
 62
     7
370
     9
100
AcDbLine
 10
-413.3542341334646
 20
-322.1079564020106
 30
0.0
 11
-411.8541807277029
 21
-322.1079564020106
 31
0.0
  0
LINE
  5
270
330
1F
100
AcDbEntity
  8
D-0
  6
Continuous
 62
     7
370
     9
100
AcDbLine
 10
-411.8541807277029
 20
-322.1079564020106
 30
0.0
 11
-411.8541807277029
 21
-323.6082386896082
 31
0.0
  0
LINE
  5
271
330
1F
100
AcDbEntity
  8
D-0
  6
Continuous
 62
     7
370
     9
100
AcDbLine
 10
-411.8541807277029
 20
-323.6082386896082
 30
0.0
 11
-413.3542341334646
 21
-323.6082386896082
 31
0.0
  0
LINE
  5
272
330
1F
100
AcDbEntity
  8
D-0
  6
Continuous
 62
     7
370
     9
100
AcDbLine
 10
-934.9142736537283
 20
-494.9096321985194
 30
0.0
 11
-934.9142736537283
 21
-493.4093499109217
 31
0.0
  0
LINE
  5
273
330
1F
100
AcDbEntity
  8
D-0
  6
Continuous
 62
     7
370
     9
100
AcDbLine
 10
-934.9142736537283
 20
-493.4093499109217
 30
0.0
 11
-933.4142393214529
 21
-493.4093499109217
 31
0.0
  0
LINE
  5
274
330
1F
100
AcDbEntity
  8
D-0
  6
Continuous
 62
     7
370
     9
100
AcDbLine
 10
-933.4142393214529
 20
-493.4093499109217
 30
0.0
 11
-933.4142393214529
 21
-494.9096321985194
 31
0.0
  0
LINE
  5
275
330
1F
100
AcDbEntity
  8
D-0
  6
Continuous
 62
     7
370
     9
100
AcDbLine
 10
-933.4142393214529
 20
-494.9096321985194
 30
0.0
 11
-934.9142736537283
 21
-494.9096321985194
 31
0.0
  0
LINE
  5
276
330
1F
100
AcDbEntity
  8
D-0
  6
Continuous
 62
     7
370
     9
100
AcDbLine
 10
-830.2300128681486
 20
-494.9096321985194
 30
0.0
 11
-830.2300128681486
 21
-493.4093499109217
 31
0.0
  0
LINE
  5
277
330
1F
100
AcDbEntity
  8
D-0
  6
Continuous
 62
     7
370
     9
100
AcDbLine
 10
-830.2300128681486
 20
-493.4093499109217
 30
0.0
 11
-828.7299812367087
 21
-493.4093499109217
 31
0.0
  0
LINE
  5
278
330
1F
100
AcDbEntity
  8
D-0
  6
Continuous
 62
     7
370
     9
100
AcDbLine
 10
-828.7299812367087
 20
-493.4093499109217
 30
0.0
 11
-828.7299812367087
 21
-494.9096321985194
 31
0.0
  0
LINE
  5
279
330
1F
100
AcDbEntity
  8
D-0
  6
Continuous
 62
     7
370
     9
100
AcDbLine
 10
-828.7299812367087
 20
-494.9096321985194
 30
0.0
 11
-830.2300128681486
 21
-494.9096321985194
 31
0.0
  0
LINE
  5
27A
330
1F
100
AcDbEntity
  8
D-0
  6
Continuous
 62
     7
370
     9
100
AcDbLine
 10
-844.3148285491293
 20
-583.2254624292323
 30
0.0
 11
-844.3148285491293
 21
-581.7251801416346
 31
0.0
  0
LINE
  5
27B
330
1F
100
AcDbEntity
  8
D-0
  6
Continuous
 62
     7
370
     9
100
AcDbLine
 10
-844.3148285491293
 20
-581.7251801416346
 30
0.0
 11
-842.8147966010397
 21
-581.7251801416346
 31
0.0
  0
LINE
  5
27C
330
1F
100
AcDbEntity
  8
D-0
  6
Continuous
 62
     7
370
     9
100
AcDbLine
 10
-842.8147966010397
 20
-581.7251801416346
 30
0.0
 11
-842.8147966010397
 21
-583.2254624292323
 31
0.0
  0
LINE
  5
27D
330
1F
100
AcDbEntity
  8
D-0
  6
Continuous
 62
     7
370
     9
100
AcDbLine
 10
-842.8147966010397
 20
-583.2254624292323
 30
0.0
 11
-844.3148285491293
 21
-583.2254624292323
 31
0.0
  0
LINE
  5
27E
330
1F
100
AcDbEntity
  8
D-0
  6
Continuous
 62
     7
370
     9
100
AcDbLine
 10
-832.1333560688322
 20
-547.8232216760584
 30
0.0
 11
-832.1333560688322
 21
-546.3229393884608
 31
0.0
  0
LINE
  5
27F
330
1F
100
AcDbEntity
  8
D-0
  6
Continuous
 62
     7
370
     9
100
AcDbLine
 10
-832.1333560688322
 20
-546.3229393884608
 30
0.0
 11
-830.6333244187658
 21
-546.3229393884608
 31
0.0
  0
LINE
  5
280
330
1F
100
AcDbEntity
  8
D-0
  6
Continuous
 62
     7
370
     9
100
AcDbLine
 10
-830.6333244187658
 20
-546.3229393884608
 30
0.0
 11
-830.6333244187658
 21
-547.8232216760584
 31
0.0
  0
LINE
  5
281
330
1F
100
AcDbEntity
  8
D-0
  6
Continuous
 62
     7
370
     9
100
AcDbLine
 10
-830.6333244187658
 20
-547.8232216760584
 30
0.0
 11
-832.1333560688322
 21
-547.8232216760584
 31
0.0
  0
LINE
  5
282
330
1F
100
AcDbEntity
  8
D-0
  6
Continuous
 62
     7
370
     9
100
AcDbLine
 10
-932.6302808863943
 20
-585.5095505639979
 30
0.0
 11
-932.6302808863943
 21
-584.0092682764002
 31
0.0
  0
LINE
  5
283
330
1F
100
AcDbEntity
  8
D-0
  6
Continuous
 62
     7
370
     9
100
AcDbLine
 10
-932.6302808863943
 20
-584.0092682764002
 30
0.0
 11
-931.1302465541189
 21
-584.0092682764002
 31
0.0
  0
LINE
  5
284
330
1F
100
AcDbEntity
  8
D-0
  6
Continuous
 62
     7
370
     9
100
AcDbLine
 10
-931.1302465541189
 20
-584.0092682764002
 30
0.0
 11
-931.1302465541189
 21
-585.5095505639979
 31
0.0
  0
LINE
  5
285
330
1F
100
AcDbEntity
  8
D-0
  6
Continuous
 62
     7
370
     9
100
AcDbLine
 10
-931.1302465541189
 20
-585.5095505639979
 30
0.0
 11
-932.6302808863943
 21
-585.5095505639979
 31
0.0
  0
LINE
  5
286
330
1F
100
AcDbEntity
  8
D-0
  6
Continuous
 62
     7
370
     9
100
AcDbLine
 10
-888.4724945170706
 20
-588.5547089502284
 30
0.0
 11
-888.4724945170706
 21
-587.0544266626307
 31
0.0
  0
LINE
  5
287
330
1F
100
AcDbEntity
  8
D-0
  6
Continuous
 62
     7
370
     9
100
AcDbLine
 10
-888.4724945170706
 20
-587.0544266626307
 30
0.0
 11
-886.9724649531668
 21
-587.0544266626307
 31
0.0
  0
LINE
  5
288
330
1F
100
AcDbEntity
  8
D-0
  6
Continuous
 62
     7
370
     9
100
AcDbLine
 10
-886.9724649531668
 20
-587.0544266626307
 30
0.0
 11
-886.9724649531668
 21
-588.5547089502284
 31
0.0
  0
LINE
  5
289
330
1F
100
AcDbEntity
  8
D-0
  6
Continuous
 62
     7
370
     9
100
AcDbLine
 10
-886.9724649531668
 20
-588.5547089502284
 30
0.0
 11
-888.4724945170706
 21
-588.5547089502284
 31
0.0
  0
LINE
  5
28A
330
1F
100
AcDbEntity
  8
D-0
  6
Continuous
 62
     7
370
     9
100
AcDbLine
 10
-885.0464529139822
 20
-550.8683609888026
 30
0.0
 11
-885.0464529139822
 21
-549.3680977746913
 31
0.0
  0
LINE
  5
28B
330
1F
100
AcDbEntity
  8
D-0
  6
Continuous
 62
     7
370
     9
100
AcDbLine
 10
-885.0464529139822
 20
-549.3680977746913
 30
0.0
 11
-883.5464185817068
 21
-549.3680977746913
 31
0.0
  0
LINE
  5
28C
330
1F
100
AcDbEntity
  8
D-0
  6
Continuous
 62
     7
370
     9
100
AcDbLine
 10
-883.5464185817068
 20
-549.3680977746913
 30
0.0
 11
-883.5464185817068
 21
-550.8683609888026
 31
0.0
  0
LINE
  5
28D
330
1F
100
AcDbEntity
  8
D-0
  6
Continuous
 62
     7
370
     9
100
AcDbLine
 10
-883.5464185817068
 20
-550.8683609888026
 30
0.0
 11
-885.0464529139822
 21
-550.8683609888026
 31
0.0
  0
LINE
  5
28E
330
1F
100
AcDbEntity
  8
D-0
  6
Continuous
 62
     7
370
     9
100
AcDbLine
 10
-935.6755537135427
 20
-549.3453049585291
 30
0.0
 11
-935.6755537135427
 21
-547.8450226709315
 31
0.0
  0
LINE
  5
28F
330
1F
100
AcDbEntity
  8
D-0
  6
Continuous
 62
     7
370
     9
100
AcDbLine
 10
-935.6755537135427
 20
-547.8450226709315
 30
0.0
 11
-934.1755289180105
 21
-547.8450226709315
 31
0.0
  0
LINE
  5
290
330
1F
100
AcDbEntity
  8
D-0
  6
Continuous
 62
     7
370
     9
100
AcDbLine
 10
-934.1755289180105
 20
-547.8450226709315
 30
0.0
 11
-934.1755289180105
 21
-549.3453049585291
 31
0.0
  0
LINE
  5
291
330
1F
100
AcDbEntity
  8
D-0
  6
Continuous
 62
     7
370
     9
100
AcDbLine
 10
-934.1755289180105
 20
-549.3453049585291
 30
0.0
 11
-935.6755537135427
 21
-549.3453049585291
 31
0.0
  0
LINE
  5
292
330
1F
100
AcDbEntity
  8
D-0
  6
Continuous
 62
     7
370
     9
100
AcDbLine
 10
-927.3008913142507
 20
-670.7797455713221
 30
0.0
 11
-927.3008913142507
 21
-669.2794632837245
 31
0.0
  0
LINE
  5
293
330
1F
100
AcDbEntity
  8
D-0
  6
Continuous
 62
     7
370
     9
100
AcDbLine
 10
-927.3008913142507
 20
-669.2794632837245
 30
0.0
 11
-925.8008665187185
 21
-669.2794632837245
 31
0.0
  0
LINE
  5
294
330
1F
100
AcDbEntity
  8
D-0
  6
Continuous
 62
     7
370
     9
100
AcDbLine
 10
-925.8008665187185
 20
-669.2794632837245
 30
0.0
 11
-925.8008665187185
 21
-670.7797455713221
 31
0.0
  0
LINE
  5
295
330
1F
100
AcDbEntity
  8
D-0
  6
Continuous
 62
     7
370
     9
100
AcDbLine
 10
-925.8008665187185
 20
-670.7797455713221
 30
0.0
 11
-927.3008913142507
 21
-670.7797455713221
 31
0.0
  0
LINE
  5
296
330
1F
100
AcDbEntity
  8
D-0
  6
Continuous
 62
     7
370
     9
100
AcDbLine
 10
-875.5297369105642
 20
-666.9725632593104
 30
0.0
 11
-875.5297369105642
 21
-665.4722809717127
 31
0.0
  0
LINE
  5
297
330
1F
100
AcDbEntity
  8
D-0
  6
Continuous
 62
     7
370
     9
100
AcDbLine
 10
-875.5297369105642
 20
-665.4722809717127
 30
0.0
 11
-874.0297025782888
 21
-665.4722809717127
 31
0.0
  0
LINE
  5
298
330
1F
100
AcDbEntity
  8
D-0
  6
Continuous
 62
     7
370
     9
100
AcDbLine
 10
-874.0297025782888
 20
-665.4722809717127
 30
0.0
 11
-874.0297025782888
 21
-666.9725632593104
 31
0.0
  0
LINE
  5
299
330
1F
100
AcDbEntity
  8
D-0
  6
Continuous
 62
     7
370
     9
100
AcDbLine
 10
-874.0297025782888
 20
-666.9725632593104
 30
0.0
 11
-875.5297369105642
 21
-666.9725632593104
 31
0.0
  0
LINE
  5
29A
330
1F
100
AcDbEntity
  8
D-0
  6
Continuous
 62
     7
370
     9
100
AcDbLine
 10
-825.661914680702
 20
-668.8761353418299
 30
0.0
 11
-825.661914680702
 21
-667.3758530542323
 31
0.0
  0
LINE
  5
29B
330
1F
100
AcDbEntity
  8
D-0
  6
Continuous
 62
     7
370
     9
100
AcDbLine
 10
-825.661914680702
 20
-667.3758530542323
 30
0.0
 11
-824.1618830306356
 21
-667.3758530542323
 31
0.0
  0
LINE
  5
29C
330
1F
100
AcDbEntity
  8
D-0
  6
Continuous
 62
     7
370
     9
100
AcDbLine
 10
-824.1618830306356
 20
-667.3758530542323
 30
0.0
 11
-824.1618830306356
 21
-668.8761353418299
 31
0.0
  0
LINE
  5
29D
330
1F
100
AcDbEntity
  8
D-0
  6
Continuous
 62
     7
370
     9
100
AcDbLine
 10
-824.1618830306356
 20
-668.8761353418299
 30
0.0
 11
-825.661914680702
 21
-668.8761353418299
 31
0.0
  0
LINE
  5
29E
330
1F
100
AcDbEntity
  8
D-0
  6
Continuous
 62
     7
370
     9
100
AcDbLine
 10
-850.4054993731802
 20
-694.7614121362635
 30
0.0
 11
-850.4054993731802
 21
-693.2611298486659
 31
0.0
  0
LINE
  5
29F
330
1F
100
AcDbEntity
  8
D-0
  6
Continuous
 62
     7
370
     9
100
AcDbLine
 10
-850.4054993731802
 20
-693.2611298486659
 30
0.0
 11
-848.9054698092764
 21
-693.2611298486659
 31
0.0
  0
LINE
  5
2A0
330
1F
100
AcDbEntity
  8
D-0
  6
Continuous
 62
     7
370
     9
100
AcDbLine
 10
-848.9054698092764
 20
-693.2611298486659
 30
0.0
 11
-848.9054698092764
 21
-694.7614121362635
 31
0.0
  0
LINE
  5
2A1
330
1F
100
AcDbEntity
  8
D-0
  6
Continuous
 62
     7
370
     9
100
AcDbLine
 10
-848.9054698092764
 20
-694.7614121362635
 30
0.0
 11
-850.4054993731802
 21
-694.7614121362635
 31
0.0
  0
LINE
  5
2A2
330
1F
100
AcDbEntity
  8
D-0
  6
Continuous
 62
     7
370
     9
100
AcDbLine
 10
-890.756482516033
 20
-706.5624833032557
 30
0.0
 11
-890.756482516033
 21
-705.062201015658
 31
0.0
  0
LINE
  5
2A3
330
1F
100
AcDbEntity
  8
D-0
  6
Continuous
 62
     7
370
     9
100
AcDbLine
 10
-890.756482516033
 20
-705.062201015658
 30
0.0
 11
-889.2564481837576
 21
-705.062201015658
 31
0.0
  0
LINE
  5
2A4
330
1F
100
AcDbEntity
  8
D-0
  6
Continuous
 62
     7
370
     9
100
AcDbLine
 10
-889.2564481837576
 20
-705.062201015658
 30
0.0
 11
-889.2564481837576
 21
-706.5624833032557
 31
0.0
  0
LINE
  5
2A5
330
1F
100
AcDbEntity
  8
D-0
  6
Continuous
 62
     7
370
     9
100
AcDbLine
 10
-889.2564481837576
 20
-706.5624833032557
 30
0.0
 11
-890.756482516033
 21
-706.5624833032557
 31
0.0
  0
LINE
  5
2A6
330
1F
100
AcDbEntity
  8
D-0
  6
Continuous
 62
     7
370
     9
100
AcDbLine
 10
-937.9596704585379
 20
-704.2783951684901
 30
0.0
 11
-937.9596704585379
 21
-702.7781128808924
 31
0.0
  0
LINE
  5
2A7
330
1F
100
AcDbEntity
  8
D-0
  6
Continuous
 62
     7
370
     9
100
AcDbLine
 10
-937.9596704585379
 20
-702.7781128808924
 30
0.0
 11
-936.4596361262625
 21
-702.7781128808924
 31
0.0
  0
LINE
  5
2A8
330
1F
100
AcDbEntity
  8
D-0
  6
Continuous
 62
     7
370
     9
100
AcDbLine
 10
-936.4596361262625
 20
-702.7781128808924
 30
0.0
 11
-936.4596361262625
 21
-704.2783951684901
 31
0.0
  0
LINE
  5
2A9
330
1F
100
AcDbEntity
  8
D-0
  6
Continuous
 62
     7
370
     9
100
AcDbLine
 10
-936.4596361262625
 20
-704.2783951684901
 30
0.0
 11
-937.9596704585379
 21
-704.2783951684901
 31
0.0
  0
LINE
  5
2AA
330
1F
100
AcDbEntity
  8
D-0
  6
Continuous
 62
     7
370
     9
100
AcDbLine
 10
-921.5907377345388
 20
-732.8287720605799
 30
0.0
 11
-921.5907377345388
 21
-731.3284897729823
 31
0.0
  0
LINE
  5
2AB
330
1F
100
AcDbEntity
  8
D-0
  6
Continuous
 62
     7
370
     9
100
AcDbLine
 10
-921.5907377345388
 20
-731.3284897729823
 30
0.0
 11
-920.0907129390066
 21
-731.3284897729823
 31
0.0
  0
LINE
  5
2AC
330
1F
100
AcDbEntity
  8
D-0
  6
Continuous
 62
     7
370
     9
100
AcDbLine
 10
-920.0907129390066
 20
-731.3284897729823
 30
0.0
 11
-920.0907129390066
 21
-732.8287720605799
 31
0.0
  0
LINE
  5
2AD
330
1F
100
AcDbEntity
  8
D-0
  6
Continuous
 62
     7
370
     9
100
AcDbLine
 10
-920.0907129390066
 20
-732.8287720605799
 30
0.0
 11
-921.5907377345388
 21
-732.8287720605799
 31
0.0
  0
LINE
  5
2AE
330
1F
100
AcDbEntity
  8
D-0
  6
Continuous
 62
     7
370
     9
100
AcDbLine
 10
-869.8197073085134
 20
-731.306211940951
 30
0.0
 11
-869.8197073085134
 21
-729.8059296533534
 31
0.0
  0
LINE
  5
2AF
330
1F
100
AcDbEntity
  8
D-0
  6
Continuous
 62
     7
370
     9
100
AcDbLine
 10
-869.8197073085134
 20
-729.8059296533534
 30
0.0
 11
-868.3196705920523
 21
-729.8059296533534
 31
0.0
  0
LINE
  5
2B0
330
1F
100
AcDbEntity
  8
D-0
  6
Continuous
 62
     7
370
     9
100
AcDbLine
 10
-868.3196705920523
 20
-729.8059296533534
 30
0.0
 11
-868.3196705920523
 21
-731.306211940951
 31
0.0
  0
LINE
  5
2B1
330
1F
100
AcDbEntity
  8
D-0
  6
Continuous
 62
     7
370
     9
100
AcDbLine
 10
-868.3196705920523
 20
-731.306211940951
 30
0.0
 11
-869.8197073085134
 21
-731.306211940951
 31
0.0
  0
LINE
  5
2B2
330
1F
100
AcDbEntity
  8
D-0
  6
Continuous
 62
     7
370
     9
100
AcDbLine
 10
-831.7527121646231
 20
-731.306211940951
 30
0.0
 11
-831.7527121646231
 21
-729.8059296533534
 31
0.0
  0
LINE
  5
2B3
330
1F
100
AcDbEntity
  8
D-0
  6
Continuous
 62
     7
370
     9
100
AcDbLine
 10
-831.7527121646231
 20
-729.8059296533534
 30
0.0
 11
-830.2526805145567
 21
-729.8059296533534
 31
0.0
  0
LINE
  5
2B4
330
1F
100
AcDbEntity
  8
D-0
  6
Continuous
 62
     7
370
     9
100
AcDbLine
 10
-830.2526805145567
 20
-729.8059296533534
 30
0.0
 11
-830.2526805145567
 21
-731.306211940951
 31
0.0
  0
LINE
  5
2B5
330
1F
100
AcDbEntity
  8
D-0
  6
Continuous
 62
     7
370
     9
100
AcDbLine
 10
-830.2526805145567
 20
-731.306211940951
 30
0.0
 11
-831.7527121646231
 21
-731.306211940951
 31
0.0
  0
LINE
  5
2B6
330
1F
100
AcDbEntity
  8
D-0
  6
Continuous
 62
     7
370
     9
100
AcDbLine
 10
-774.7284692866629
 20
-548.3013367578455
 30
0.0
 11
-774.7284692866629
 21
-546.8005776330897
 31
0.0
  0
LINE
  5
2B7
330
1F
100
AcDbEntity
  8
D-0
  6
Continuous
 62
     7
370
     9
100
AcDbLine
 10
-774.7284692866629
 20
-546.8005776330897
 30
0.0
 11
-773.228439722759
 21
-546.8005776330897
 31
0.0
  0
LINE
  5
2B8
330
1F
100
AcDbEntity
  8
D-0
  6
Continuous
 62
     7
370
     9
100
AcDbLine
 10
-773.228439722759
 20
-546.8005776330897
 30
0.0
 11
-773.228439722759
 21
-548.3013367578455
 31
0.0
  0
LINE
  5
2B9
330
1F
100
AcDbEntity
  8
D-0
  6
Continuous
 62
     7
370
     9
100
AcDbLine
 10
-773.228439722759
 20
-548.3013367578455
 30
0.0
 11
-774.7284692866629
 21
-548.3013367578455
 31
0.0
  0
LINE
  5
2BA
330
1F
100
AcDbEntity
  8
D-6
  6
Continuous
 62
     6
370
     9
100
AcDbLine
 10
-953.8933271510427
 20
-353.3675789758631
 30
0.0
 11
-953.8933271510427
 21
-738.3676361963221
 31
0.0
  0
LINE
  5
2BB
330
1F
100
AcDbEntity
  8
D-4
  6
Continuous
 62
     7
370
     9
100
AcDbLine
 10
-953.8933271510427
 20
-643.1232285425135
 30
0.0
 11
-803.892628584606
 21
-643.1232285425135
 31
0.0
  0
LINE
  5
2BC
330
1F
100
AcDbEntity
  8
D-4
  6
Continuous
 62
     7
370
     9
100
AcDbLine
 10
-953.8933271510427
 20
-796.7201828882166
 30
0.0
 11
-553.8929456813162
 21
-796.7201828882166
 31
0.0
  0
LINE
  5
2BD
330
1F
100
AcDbEntity
  8
D-4
  6
Continuous
 62
     7
370
     9
100
AcDbLine
 10
-953.8933271510427
 20
-799.7201752588221
 30
0.0
 11
-953.8933271510427
 21
-758.3676361963221
 31
0.0
  0
LINE
  5
2BE
330
1F
100
AcDbEntity
  8
D-4
  6
Continuous
 62
     7
370
     9
100
AcDbLine
 10
-553.8929456813162
 20
-799.7201752588221
 30
0.0
 11
-553.8929456813162
 21
-583.3680558130213
 31
0.0
  0
LINE
  5
2BF
330
1F
100
AcDbEntity
  8
D-1
  6
Continuous
 62
     2
370
     9
100
AcDbLine
 10
-803.8931197268789
 20
-338.3677601739832
 30
0.0
 11
-803.8931197268789
 21
-238.3682846948572
 31
0.0
  0
LINE
  5
2C0
330
1F
100
AcDbEntity
  8
D-1
  6
Continuous
 62
     2
370
     9
100
AcDbLine
 10
-818.8929438931768
 20
-238.3682846948572
 30
0.0
 11
-803.8931197268789
 21
-238.3682846948572
 31
0.0
  0
LINE
  5
2C1
330
1F
100
AcDbEntity
  8
D-6
  6
Continuous
 62
     6
370
     9
100
AcDbLine
 10
-803.8931197268789
 20
-238.3682846948572
 30
0.0
 11
-388.8924497706716
 21
-238.3682846948572
 31
0.0
  0
LINE
  5
2C2
330
1F
100
AcDbEntity
  8
D-4
  6
Continuous
 62
     7
370
     9
100
AcDbLine
 10
-285.1304334742849
 20
-238.3682846948572
 30
0.0
 11
-285.1304334742849
 21
-563.3680558130213
 31
0.0
  0
LINE
  5
2C3
330
1F
100
AcDbEntity
  8
D-4
  6
Continuous
 62
     7
370
     9
100
AcDbLine
 10
-282.1304411036795
 20
-238.3682846948572
 30
0.0
 11
-368.8924497706716
 21
-238.3682846948572
 31
0.0
  0
LINE
  5
2C4
330
1F
100
AcDbEntity
  8
D-4
  6
Continuous
 62
     7
370
     9
100
AcDbLine
 10
-282.1304411036795
 20
-563.3680558130213
 30
0.0
 11
-533.8929456813162
 21
-563.3680558130213
 31
0.0
  0
ARC
  5
2C5
330
1F
100
AcDbEntity
  8
D-1
  6
Continuous
 62
     2
370
     9
100
AcDbCircle
 10
-818.8929438931768
 20
-338.3677601739832
 30
0.0
 40
15.0
100
AcDbArc
 50
270.0
 51
0.0
  0
LWPOLYLINE
  5
2C6
330
1F
100
AcDbEntity
  8
D-4
  6
Continuous
 62
     7
370
     9
100
AcDbPolyline
 90
        4
 70
     1
 43
2.0
 10
-817.8919538600271
 20
-11.19690179080333
 42
0.4142135623731
 10
-818.8919538600271
 20
-10.19690179080333
 42
0.4142135623731
 10
-819.8919538600271
 20
-11.19690179080333
 42
0.4142135623731
 10
-818.8919538600271
 20
-12.19690179080333
 42
0.4142135623731
  0
LWPOLYLINE
  5
2C7
330
1F
100
AcDbEntity
  8
D-4
  6
Continuous
 62
     7
370
     9
100
AcDbPolyline
 90
        4
 70
     1
 43
2.0
 10
-952.8928312403982
 20
-119.949266903108
 42
0.4142135623731
 10
-953.8928312403982
 20
-118.949266903108
 42
0.4142135623731
 10
-954.8928312403982
 20
-119.949266903108
 42
0.4142135623731
 10
-953.8928312403982
 20
-120.949266903108
 42
0.4142135623731
  0
LWPOLYLINE
  5
2C8
330
1F
100
AcDbEntity
  8
D-4
  6
Continuous
 62
     7
370
     9
100
AcDbPolyline
 90
        4
 70
     1
 43
2.0
 10
-827.8919995185529
 20
-119.949266903108
 42
0.4142135623731
 10
-828.8919995185529
 20
-118.949266903108
 42
0.4142135623731
 10
-829.8919995185529
 20
-119.949266903108
 42
0.4142135623731
 10
-828.8919995185529
 20
-120.949266903108
 42
0.4142135623731
  0
LWPOLYLINE
  5
2C9
330
1F
100
AcDbEntity
  8
D-4
  6
Continuous
 62
     7
370
     9
100
AcDbPolyline
 90
        4
 70
     1
 43
2.0
 10
-827.8919995185529
 20
-11.19690179080333
 42
0.4142135623731
 10
-828.8919995185529
 20
-10.19690179080333
 42
0.4142135623731
 10
-829.8919995185529
 20
-11.19690179080333
 42
0.4142135623731
 10
-828.8919995185529
 20
-12.19690179080333
 42
0.4142135623731
  0
LWPOLYLINE
  5
2CA
330
1F
100
AcDbEntity
  8
D-4
  6
Continuous
 62
     7
370
     9
100
AcDbPolyline
 90
        4
 70
     1
 43
2.0
 10
-802.8931197268789
 20
-11.19690179080333
 42
0.4142135623731
 10
-803.8931197268789
 20
-10.19690179080333
 42
0.4142135623731
 10
-804.8931197268789
 20
-11.19690179080333
 42
0.4142135623731
 10
-803.8931197268789
 20
-12.19690179080333
 42
0.4142135623731
  0
LWPOLYLINE
  5
2CB
330
1F
100
AcDbEntity
  8
D-4
  6
Continuous
 62
     7
370
     9
100
AcDbPolyline
 90
        4
 70
     1
 43
2.0
 10
-802.8931197268789
 20
99.49880362301502
 42
0.4142135623731
 10
-803.8931197268789
 20
100.498803623015
 42
0.4142135623731
 10
-804.8931197268789
 20
99.49880362301502
 42
0.4142135623731
 10
-803.8931197268789
 20
98.49880362301504
 42
0.4142135623731
  0
LWPOLYLINE
  5
2CC
330
1F
100
AcDbEntity
  8
D-4
  6
Continuous
 62
     7
370
     9
100
AcDbPolyline
 90
        4
 70
     1
 43
2.0
 10
-952.8933271510427
 20
-643.1232285425135
 42
0.4142135623731
 10
-953.8933271510427
 20
-642.1232285425135
 42
0.4142135623731
 10
-954.8933271510427
 20
-643.1232285425135
 42
0.4142135623731
 10
-953.8933271510427
 20
-644.1232285425134
 42
0.4142135623731
  0
LWPOLYLINE
  5
2CD
330
1F
100
AcDbEntity
  8
D-4
  6
Continuous
 62
     7
370
     9
100
AcDbPolyline
 90
        4
 70
     1
 43
2.0
 10
-802.892628584606
 20
-643.1232285425135
 42
0.4142135623731
 10
-803.892628584606
 20
-642.1232285425135
 42
0.4142135623731
 10
-804.892628584606
 20
-643.1232285425135
 42
0.4142135623731
 10
-803.892628584606
 20
-644.1232285425134
 42
0.4142135623731
  0
LWPOLYLINE
  5
2CE
330
1F
100
AcDbEntity
  8
D-4
  6
Continuous
 62
     7
370
     9
100
AcDbPolyline
 90
        4
 70
     1
 43
2.0
 10
-952.8933271510427
 20
-796.7201828882166
 42
0.4142135623731
 10
-953.8933271510427
 20
-795.7201828882166
 42
0.4142135623731
 10
-954.8933271510427
 20
-796.7201828882166
 42
0.4142135623731
 10
-953.8933271510427
 20
-797.7201828882165
 42
0.4142135623731
  0
LWPOLYLINE
  5
2CF
330
1F
100
AcDbEntity
  8
D-4
  6
Continuous
 62
     7
370
     9
100
AcDbPolyline
 90
        4
 70
     1
 43
2.0
 10
-552.8929456813162
 20
-796.7201828882166
 42
0.4142135623731
 10
-553.8929456813162
 20
-795.7201828882166
 42
0.4142135623731
 10
-554.8929456813162
 20
-796.7201828882166
 42
0.4142135623731
 10
-553.8929456813162
 20
-797.7201828882165
 42
0.4142135623731
  0
LWPOLYLINE
  5
2D0
330
1F
100
AcDbEntity
  8
D-4
  6
Continuous
 62
     7
370
     9
100
AcDbPolyline
 90
        4
 70
     1
 43
2.0
 10
-284.1304334742849
 20
-238.3682846948572
 42
0.4142135623731
 10
-285.1304334742849
 20
-237.3682846948572
 42
0.4142135623731
 10
-286.1304334742849
 20
-238.3682846948572
 42
0.4142135623731
 10
-285.1304334742849
 20
-239.3682846948572
 42
0.4142135623731
  0
LWPOLYLINE
  5
2D1
330
1F
100
AcDbEntity
  8
D-4
  6
Continuous
 62
     7
370
     9
100
AcDbPolyline
 90
        4
 70
     1
 43
2.0
 10
-284.1304334742849
 20
-563.3680558130213
 42
0.4142135623731
 10
-285.1304334742849
 20
-562.3680558130213
 42
0.4142135623731
 10
-286.1304334742849
 20
-563.3680558130213
 42
0.4142135623731
 10
-285.1304334742849
 20
-564.3680558130213
 42
0.4142135623731
  0
TEXT
  5
2D2
330
1F
100
AcDbEntity
  8
D-4
  6
Continuous
 62
     2
370
     9
100
AcDbText
 10
-912.6420778376882
 20
-109.3090570947584
 30
0.0
 40
30.48
  1
25
 41
1.0625
  7
ＭＳ ゴシック
100
AcDbText
  0
TEXT
  5
2D3
330
1F
100
AcDbEntity
  8
D-4
  6
Continuous
 62
     2
370
     9
100
AcDbText
 10
-938.0938142878836
 20
-633.3464945337245
 30
0.0
 40
30.48
  1
25～30
 41
1.104166666666667
  7
ＭＳ ゴシック
100
AcDbText
  0
TEXT
  5
2D4
330
1F
100
AcDbEntity
  8
D-4
  6
Continuous
 62
     2
370
     9
100
AcDbText
 10
-821.7607170684164
 20
-787.8108728906581
 30
0.0
 40
30.48
  1
75～80
 41
1.104166666666667
  7
ＭＳ ゴシック
100
AcDbText
  0
TEXT
  5
2D5
330
1F
100
AcDbEntity
  8
D-4
  6
Continuous
 62
     2
370
     9
100
AcDbText
 10
-298.3778553492849
 20
-461.3728358752273
 30
0.0
 40
30.48
  1
55～65
 50
90.00000250447756
 41
1.104166666666667
  7
ＭＳ ゴシック
100
AcDbText
  0
TEXT
  5
2D6
330
1F
100
AcDbEntity
  8
D-4
  6
Continuous
 62
     2
370
     9
100
AcDbText
 10
-790.5917662722891
 20
-0.5575693628248146
 30
0.0
 40
30.48
  1
3
 41
0.9999999999999998
  7
ＭＳ ゴシック
100
AcDbText
  0
TEXT
  5
2D7
330
1F
100
AcDbEntity
  8
D-4
  6
Continuous
 62
     2
370
     9
100
AcDbText
 10
-855.7330292804068
 20
-0.5575693628248146
 30
0.0
 40
30.48
  1
2
 41
0.9999999999999998
  7
ＭＳ ゴシック
100
AcDbText
  0
TEXT
  5
2D8
330
1F
100
AcDbEntity
  8
D-5
  6
Continuous
 62
     2
370
     9
100
AcDbText
 10
-1252.4613279445
 20
-912.6987589380213
 30
0.0
 40
30.48
  1
断面詳細図　Ｓ＝１：２
 41
1.113636363636364
  7
ＭＳ ゴシック
100
AcDbText
  0
LINE
  5
2D9
330
1F
100
AcDbEntity
  8
D-4
  6
Continuous
 62
     7
370
     9
100
AcDbLine
 10
-953.8844102961843
 20
-471.4698624536463
 30
0.0
 11
-803.8842982394522
 21
-471.4698624536463
 31
0.0
  0
LINE
  5
2DA
330
1F
100
AcDbEntity
  8
D-4
  6
Continuous
 62
     7
370
     9
100
AcDbLine
 10
-803.8842982394522
 20
-471.4698624536463
 30
0.0
 11
-633.8840765101736
 21
-471.4698624536463
 31
0.0
  0
LINE
  5
2DB
330
1F
100
AcDbEntity
  8
D-4
  6
Continuous
 62
     7
370
     9
100
AcDbLine
 10
-633.8840765101736
 20
-474.4698738977381
 30
0.0
 11
-633.8840765101736
 21
-389.8661923334071
 31
0.0
  0
LINE
  5
2DC
330
1F
100
AcDbEntity
  8
D-4
  6
Continuous
 62
     7
370
     9
100
AcDbLine
 10
-570.9281057460134
 20
-384.8662590906092
 30
0.0
 11
-628.8840765101736
 21
-384.8662590906092
 31
0.0
  0
LINE
  5
2DD
330
1F
100
AcDbEntity
  8
D-4
  6
Continuous
 62
     7
370
     9
100
AcDbLine
 10
-573.9280981166189
 20
-353.3670830652186
 30
0.0
 11
-573.9280981166189
 21
-470.1172089502284
 31
0.0
  0
LINE
  5
2DE
330
1F
100
AcDbEntity
  8
D-4
  6
Continuous
 62
     7
370
     9
100
AcDbLine
 10
-803.8842982394522
 20
-474.4698738977381
 30
0.0
 11
-803.8842982394522
 21
-389.8661923334071
 31
0.0
  0
LINE
  5
2DF
330
1F
100
AcDbEntity
  8
D-9
  6
Continuous
 62
     4
370
     9
100
AcDbLine
 10
-763.8841194255178
 20
-384.8662590906092
 30
0.0
 11
-648.8840765101736
 21
-384.8662590906092
 31
0.0
  0
LINE
  5
2E0
330
1F
100
AcDbEntity
  8
D-9
  6
Continuous
 62
     4
370
     9
100
AcDbLine
 10
-778.8841909510916
 20
-369.8661923334071
 30
0.0
 11
-778.8841909510916
 21
-355.8662247583338
 31
0.0
  0
LINE
  5
2E1
330
1F
100
AcDbEntity
  8
D-9
  6
Continuous
 62
     4
370
     9
100
AcDbLine
 10
-633.8842672450369
 20
-369.8661923334071
 30
0.0
 11
-633.8842672450369
 21
-355.8662247583338
 31
0.0
  0
LINE
  5
2E2
330
1F
100
AcDbEntity
  8
D-9
  6
Continuous
 62
     4
370
     9
100
AcDbLine
 10
-798.8842839343374
 20
-365.8662724420496
 30
0.0
 11
-798.8842839343374
 21
-355.8662247583338
 31
0.0
  0
LINE
  5
2E3
330
1F
100
AcDbEntity
  8
D-9
  6
Continuous
 62
     4
370
     9
100
AcDbLine
 10
-778.8591665370291
 20
-365.8662724420496
 30
0.0
 11
-828.883994916248
 21
-365.8662724420496
 31
0.0
  0
LINE
  5
2E4
330
1F
100
AcDbEntity
  8
D-9
  6
Continuous
 62
     4
370
     9
100
AcDbLine
 10
-633.8842672450369
 20
-355.8662247583338
 30
0.0
 11
-828.883994916248
 21
-355.8662247583338
 31
0.0
  0
LINE
  5
2E5
330
1F
100
AcDbEntity
  8
D-9
  6
Continuous
 62
     3
370
     9
100
AcDbLine
 10
-928.8843244654959
 20
-353.3675789758631
 30
0.0
 11
-928.8843244654959
 21
-375.8675599023768
 31
0.0
  0
LINE
  5
2E6
330
1F
100
AcDbEntity
  8
D-9
  6
Continuous
 62
     3
370
     9
100
AcDbLine
 10
-828.883994916248
 20
-375.8675599023768
 30
0.0
 11
-928.8843244654959
 21
-375.8675599023768
 31
0.0
  0
LINE
  5
2E7
330
1F
100
AcDbEntity
  8
D-9
  6
Continuous
 62
     3
370
     9
100
AcDbLine
 10
-828.883994916248
 20
-353.3675789758631
 30
0.0
 11
-928.8843244654959
 21
-353.3675789758631
 31
0.0
  0
LINE
  5
2E8
330
1F
100
AcDbEntity
  8
D-9
  6
Continuous
 62
     2
370
     9
100
AcDbLine
 10
-865.1344246012991
 20
-378.3662056848475
 30
0.0
 11
-865.1344246012991
 21
-375.8675599023768
 31
0.0
  0
LINE
  5
2E9
330
1F
100
AcDbEntity
  8
D-9
  6
Continuous
 62
     2
370
     9
100
AcDbLine
 10
-873.8851350886648
 20
-385.8656144067713
 30
0.0
 11
-865.1344246012991
 21
-378.3662056848475
 31
0.0
  0
LINE
  5
2EA
330
1F
100
AcDbEntity
  8
D-9
  6
Continuous
 62
     2
370
     9
100
AcDbLine
 10
-883.8840526683157
 20
-385.8656144067713
 30
0.0
 11
-873.8851350886648
 21
-385.8656144067713
 31
0.0
  0
LINE
  5
2EB
330
1F
100
AcDbEntity
  8
D-9
  6
Continuous
 62
     2
370
     9
100
AcDbLine
 10
-892.6345152003591
 20
-378.3662056848475
 30
0.0
 11
-883.8840526683157
 21
-385.8656144067713
 31
0.0
  0
LINE
  5
2EC
330
1F
100
AcDbEntity
  8
D-9
  6
Continuous
 62
     2
370
     9
100
AcDbLine
 10
-892.6345152003591
 20
-378.3662056848475
 30
0.0
 11
-892.6345152003591
 21
-375.8675599023768
 31
0.0
  0
LINE
  5
2ED
330
1F
100
AcDbEntity
  8
D-9
  6
Continuous
 62
     2
370
     9
100
AcDbLine
 10
-892.6345152003591
 20
-378.3662056848475
 30
0.0
 11
-865.1344246012991
 21
-378.3662056848475
 31
0.0
  0
LINE
  5
2EE
330
1F
100
AcDbEntity
  8
D-9
  6
Continuous
 62
     3
370
     9
100
AcDbLine
 10
-828.883994916248
 20
-353.3675789758631
 30
0.0
 11
-828.883994916248
 21
-375.8675599023768
 31
0.0
  0
LINE
  5
2EF
330
1F
100
AcDbEntity
  8
D-9
  6
Continuous
 62
     3
370
     9
100
AcDbLine
 10
-828.883994916248
 20
-363.3675789758631
 30
0.0
 11
-928.8843244654959
 21
-363.3675789758631
 31
0.0
  0
LINE
  5
2F0
330
1F
100
AcDbEntity
  8
D-9
  6
JWW_DASHED2
 62
     3
370
     9
100
AcDbLine
 10
-828.883994916248
 20
-365.8675599023768
 30
0.0
 11
-928.8843244654959
 21
-365.8675599023768
 31
0.0
  0
LINE
  5
2F1
330
1F
100
AcDbEntity
  8
D-9
  6
JWW_CENTER1
 62
     4
370
     9
100
AcDbLine
 10
-878.8841575724905
 20
-393.6065792962977
 30
0.0
 11
-878.8841575724905
 21
-353.3675789758631
 31
0.0
  0
ARC
  5
2F2
330
1F
100
AcDbEntity
  8
D-9
  6
Continuous
 62
     4
370
     9
100
AcDbCircle
 10
-763.8841194255178
 20
-369.8661923334071
 30
0.0
 40
15.00000238418579
100
AcDbArc
 50
180.0
 51
270.0
  0
ARC
  5
2F3
330
1F
100
AcDbEntity
  8
D-9
  6
Continuous
 62
     4
370
     9
100
AcDbCircle
 10
-648.8840765101736
 20
-369.8661923334071
 30
0.0
 40
15.00000238418579
100
AcDbArc
 50
270.0
 51
0.0
  0
LWPOLYLINE
  5
2F4
330
1F
100
AcDbEntity
  8
D-4
  6
Continuous
 62
     7
370
     9
100
AcDbPolyline
 90
        4
 70
     1
 43
2.0
 10
-952.8844102961843
 20
-471.4698624536463
 42
0.4142135623731
 10
-953.8844102961843
 20
-470.4698624536463
 42
0.4142135623731
 10
-954.8844102961843
 20
-471.4698624536463
 42
0.4142135623731
 10
-953.8844102961843
 20
-472.4698624536463
 42
0.4142135623731
  0
LWPOLYLINE
  5
2F5
330
1F
100
AcDbEntity
  8
D-4
  6
Continuous
 62
     7
370
     9
100
AcDbPolyline
 90
        4
 70
     1
 43
2.0
 10
-802.8842982394522
 20
-471.4698624536463
 42
0.4142135623731
 10
-803.8842982394522
 20
-470.4698624536463
 42
0.4142135623731
 10
-804.8842982394522
 20
-471.4698624536463
 42
0.4142135623731
 10
-803.8842982394522
 20
-472.4698624536463
 42
0.4142135623731
  0
LWPOLYLINE
  5
2F6
330
1F
100
AcDbEntity
  8
D-4
  6
Continuous
 62
     7
370
     9
100
AcDbPolyline
 90
        4
 70
     1
 43
2.0
 10
-632.8840765101736
 20
-471.4698624536463
 42
0.4142135623731
 10
-633.8840765101736
 20
-470.4698624536463
 42
0.4142135623731
 10
-634.8840765101736
 20
-471.4698624536463
 42
0.4142135623731
 10
-633.8840765101736
 20
-472.4698624536463
 42
0.4142135623731
  0
LWPOLYLINE
  5
2F7
330
1F
100
AcDbEntity
  8
D-4
  6
Continuous
 62
     7
370
     9
100
AcDbPolyline
 90
        4
 70
     1
 43
2.0
 10
-572.9280981166189
 20
-384.8662590906092
 42
0.4142135623731
 10
-573.9280981166189
 20
-383.8662590906092
 42
0.4142135623731
 10
-574.9280981166189
 20
-384.8662590906092
 42
0.4142135623731
 10
-573.9280981166189
 20
-385.8662590906092
 42
0.4142135623731
  0
TEXT
  5
2F8
330
1F
100
AcDbEntity
  8
D-4
  6
Continuous
 62
     2
370
     9
100
AcDbText
 10
-900.1343530757254
 20
-459.8298586389491
 30
0.0
 40
30.48
  1
30
 41
1.0625
  7
ＭＳ ゴシック
100
AcDbText
  0
TEXT
  5
2F9
330
1F
100
AcDbEntity
  8
D-4
  6
Continuous
 62
     2
370
     9
100
AcDbText
 10
-793.5181063754385
 20
-459.8298586389491
 30
0.0
 40
30.48
  1
34
 41
1.0625
  7
ＭＳ ゴシック
100
AcDbText
  0
TEXT
  5
2FA
330
1F
100
AcDbEntity
  8
D-4
  6
Continuous
 62
     2
370
     9
100
AcDbText
 10
-585.5681019313162
 20
-456.5614726550124
 30
0.0
 40
30.48
  1
6.5
 50
90.00000250447674
 41
1.083333333333334
  7
ＭＳ ゴシック
100
AcDbText
  0
LINE
  5
2FB
330
1F
100
AcDbEntity
  8
D-4
  6
Continuous
 62
     7
370
     9
100
AcDbLine
 10
-769.8821634394949
 20
-353.3670830652186
 30
0.0
 11
-570.9275335414236
 21
-353.3670830652186
 31
0.0
  0
LWPOLYLINE
  5
2FC
330
1F
100
AcDbEntity
  8
D-4
  6
Continuous
 62
     7
370
     9
100
AcDbPolyline
 90
        4
 70
     1
 43
2.0
 10
-572.9280981166189
 20
-353.3670830652186
 42
0.4142135623731
 10
-573.9280981166189
 20
-352.3670830652185
 42
0.4142135623731
 10
-574.9280981166189
 20
-353.3670830652186
 42
0.4142135623731
 10
-573.9280981166189
 20
-354.3670830652186
 42
0.4142135623731
  0
LINE
  5
2FD
330
1F
100
AcDbEntity
  8
D-4
  6
Continuous
 62
     7
370
     9
100
AcDbLine
 10
-573.9280981166189
 20
-353.3670830652186
 30
0.0
 11
-573.9280981166189
 21
-238.3682846948572
 31
0.0
  0
LWPOLYLINE
  5
2FE
330
1F
100
AcDbEntity
  8
D-4
  6
Continuous
 62
     7
370
     9
100
AcDbPolyline
 90
        4
 70
     1
 43
2.0
 10
-572.9280981166189
 20
-238.3682846948572
 42
0.4142135623731
 10
-573.9280981166189
 20
-237.3682846948572
 42
0.4142135623731
 10
-574.9280981166189
 20
-238.3682846948572
 42
0.4142135623731
 10
-573.9280981166189
 20
-239.3682846948572
 42
0.4142135623731
  0
TEXT
  5
2FF
330
1F
100
AcDbEntity
  8
D-4
  6
Continuous
 62
     2
370
   211
100
AcDbText
 10
-589.5680981166189
 20
-317.1176838800379
 30
0.0
 40
30.48
  1
23
 50
90.0
 41
1.0625
  7
ＭＳ ゴシック
100
AcDbText
  0
LINE
  5
300
330
1F
100
AcDbEntity
  8
D-6
  6
Continuous
 62
     6
370
     9
100
AcDbLine
 10
-696.5993589503591
 20
-563.3680558130213
 30
0.0
 11
-696.5993589503591
 21
-384.8662590906092
 31
0.0
  0
LINE
  5
301
330
1F
100
AcDbEntity
  8
D-6
  6
Continuous
 62
     6
370
     9
100
AcDbLine
 10
-741.599816714031
 20
-563.3680558130213
 30
0.0
 11
-741.599816714031
 21
-384.8662590906092
 31
0.0
  0
LINE
  5
302
330
1F
100
AcDbEntity
  8
D-6
  6
Continuous
 62
     6
370
     9
100
AcDbLine
 10
-741.599816714031
 20
-355.8662247583338
 30
0.0
 11
-741.599816714031
 21
-320.8662247583338
 31
0.0
  0
LINE
  5
303
330
1F
100
AcDbEntity
  8
D-6
  6
Continuous
 62
     6
370
     9
100
AcDbLine
 10
-696.5993589503591
 20
-355.8662247583338
 30
0.0
 11
-696.5993589503591
 21
-320.8662247583338
 31
0.0
  0
LINE
  5
304
330
1F
100
AcDbEntity
  8
D-6
  6
Continuous
 62
     6
370
     9
100
AcDbLine
 10
-741.599816714031
 20
-320.8662247583338
 30
0.0
 11
-696.5993589503591
 21
-320.8662247583338
 31
0.0
  0
LINE
  5
305
330
1F
100
AcDbEntity
  8
D-6
  6
JWW_CENTER2
 62
     6
370
     9
100
AcDbLine
 10
-719.0995878321951
 20
-308.552830211825
 30
0.0
 11
-719.0995878321951
 21
-676.7005753442713
 31
0.0
  0
LINE
  5
306
330
1F
100
AcDbEntity
  8
D-5
  6
Continuous
 62
     7
370
     9
100
AcDbLine
 10
-785.773286257488
 20
-355.8662247583338
 30
0.0
 11
-771.9615978343313
 21
-335.0278019830653
 31
0.0
  0
LINE
  5
307
330
1F
100
AcDbEntity
  8
D-5
  6
Continuous
 62
     7
370
     9
100
AcDbLine
 10
-785.773286257488
 20
-355.8662247583338
 30
0.0
 11
-767.0396083934133
 21
-339.3121170923182
 31
0.0
  0
LINE
  5
308
330
1F
100
AcDbEntity
  8
D-5
  6
Continuous
 62
     7
370
     9
100
AcDbLine
 10
-611.2241548640554
 20
-155.3187966272291
 30
0.0
 11
-785.773286257488
 21
-355.8662247583338
 31
0.0
  0
LINE
  5
309
330
1F
100
AcDbEntity
  8
D-5
  6
Continuous
 62
     7
370
     9
100
AcDbLine
 10
-803.8931233031576
 20
-247.5869768783518
 30
0.0
 11
-790.0824267012899
 21
-226.7490458414026
 31
0.0
  0
LINE
  5
30A
330
1F
100
AcDbEntity
  8
D-5
  6
Continuous
 62
     7
370
     9
100
AcDbLine
 10
-803.8931233031576
 20
-247.5869768783518
 30
0.0
 11
-785.1594478232687
 21
-231.0333651229807
 31
0.0
  0
LINE
  5
30B
330
1F
100
AcDbEntity
  8
D-5
  6
Continuous
 62
     7
370
     9
100
AcDbLine
 10
-654.0772420508688
 20
-75.45715569705334
 30
0.0
 11
-803.8931233031576
 21
-247.5869768783518
 31
0.0
  0
LINE
  5
30C
330
1F
100
AcDbEntity
  8
D-5
  6
Continuous
 62
     7
370
     9
100
AcDbLine
 10
-654.0772420508688
 20
-75.45715569705334
 30
0.0
 11
-200.750082169277
 21
-75.45715569705334
 31
0.0
  0
TEXT
  5
30D
330
1F
100
AcDbEntity
  8
D-5
  6
Continuous
 62
     7
370
     9
100
AcDbText
 10
-650.9597523429218
 20
-66.46818734378442
 30
0.0
 40
22.86
  1
ステンレス製受枠ＲＬ－２０
 50
359.9999368586928
 41
1.153846153846155
  7
ＭＳ ゴシック
100
AcDbText
  0
LINE
  5
30E
330
1F
100
AcDbEntity
  8
D-5
  6
Continuous
 62
     7
370
     9
100
AcDbLine
 10
-230.3269481194229
 20
-339.326086026772
 30
0.0
 11
-230.3269481194229
 21
-289.3257973469789
 31
0.0
  0
LINE
  5
30F
330
1F
100
AcDbEntity
  8
D-5
  6
Continuous
 62
     7
370
     9
100
AcDbLine
 10
-230.3269481194229
 20
-289.3257973469789
 30
0.0
 11
-5.327195559245865
 21
-289.3257973469789
 31
0.0
  0
LINE
  5
310
330
1F
100
AcDbEntity
  8
D-5
  6
Continuous
 62
     7
370
     9
100
AcDbLine
 10
-5.327195559245865
 20
-289.3257973469789
 30
0.0
 11
-5.327195559245865
 21
-339.326086026772
 31
0.0
  0
LINE
  5
311
330
1F
100
AcDbEntity
  8
D-5
  6
Continuous
 62
     7
370
     9
100
AcDbLine
 10
-5.327195559245865
 20
-339.326086026772
 30
0.0
 11
-230.3269481194229
 21
-339.326086026772
 31
0.0
  0
TEXT
  5
312
330
1F
100
AcDbEntity
  8
D-5
  6
Continuous
 62
     2
370
     9
100
AcDbText
 10
-182.8269151274469
 20
-328.6859458108726
 30
0.0
 40
30.48
  1
仕　様
 41
1.083333333333333
  7
ＭＳ ゴシック
100
AcDbText
  0
TEXT
  5
313
330
1F
100
AcDbEntity
  8
D-5
  6
Continuous
 62
     7
370
     9
100
AcDbText
 10
-597.5799173457449
 20
-146.4299068567213
 30
0.0
 40
22.86
  1
アンカー
 41
1.125
  7
ＭＳ ゴシック
100
AcDbText
  0
LINE
  5
314
330
1F
100
AcDbEntity
  8
D-2
  6
Continuous
 62
     3
370
     9
100
AcDbLine
 10
-1526.561221256696
 20
-393.6116623804041
 30
0.0
 11
-1526.561221256696
 21
-169.6691583223909
 31
0.0
  0
LINE
  5
315
330
1F
100
AcDbEntity
  8
D-2
  6
Continuous
 62
     3
370
     9
100
AcDbLine
 10
-1526.561221256696
 20
-338.3678145591942
 30
0.0
 11
-828.8926405055349
 21
-338.3678145591942
 31
0.0
  0
LINE
  5
316
330
1F
100
AcDbEntity
  8
D-2
  6
Continuous
 62
     3
370
     9
100
AcDbLine
 10
-828.8926405055349
 20
-238.367979519076
 30
0.0
 11
-1526.561221256696
 21
-238.367979519076
 31
0.0
  0
LINE
  5
317
330
1F
100
AcDbEntity
  8
D-2
  6
Continuous
 62
     3
370
     9
100
AcDbLine
 10
-1211.393448808955
 20
-238.367979519076
 30
0.0
 11
-1211.393448808955
 21
-313.367979519076
 31
0.0
  0
LINE
  5
318
330
1F
100
AcDbEntity
  8
D-2
  6
Continuous
 62
     3
370
     9
100
AcDbLine
 10
-1196.393275601079
 20
-238.367979519076
 30
0.0
 11
-1196.393275601079
 21
-313.367979519076
 31
0.0
  0
LINE
  5
319
330
1F
100
AcDbEntity
  8
D-2
  6
Continuous
 62
     3
370
     9
100
AcDbLine
 10
-1191.39313538518
 20
-265.8678228071882
 30
0.0
 11
-1161.393283849073
 21
-275.867979519076
 31
0.0
  0
LINE
  5
31A
330
1F
100
AcDbEntity
  8
D-2
  6
Continuous
 62
     3
370
     9
100
AcDbLine
 10
-1161.393283849073
 20
-275.867979519076
 30
0.0
 11
-1161.393283849073
 21
-303.3678228071882
 31
0.0
  0
LINE
  5
31B
330
1F
100
AcDbEntity
  8
D-2
  6
Continuous
 62
     3
370
     9
100
AcDbLine
 10
-1191.39313538518
 20
-303.3678228071882
 30
0.0
 11
-1161.393283849073
 21
-303.3678228071882
 31
0.0
  0
LINE
  5
31C
330
1F
100
AcDbEntity
  8
D-2
  6
Continuous
 62
     3
370
     9
100
AcDbLine
 10
-1191.39313538518
 20
-303.3678228071882
 30
0.0
 11
-1191.39313538518
 21
-313.367979519076
 31
0.0
  0
LINE
  5
31D
330
1F
100
AcDbEntity
  8
D-2
  6
Continuous
 62
     3
370
     9
100
AcDbLine
 10
-1191.39313538518
 20
-313.367979519076
 30
0.0
 11
-1216.392846705387
 21
-313.367979519076
 31
0.0
  0
LINE
  5
31E
330
1F
100
AcDbEntity
  8
D-2
  6
Continuous
 62
     3
370
     9
100
AcDbLine
 10
-1216.392846705387
 20
-313.367979519076
 30
0.0
 11
-1246.393069401227
 21
-303.3678228071882
 31
0.0
  0
LINE
  5
31F
330
1F
100
AcDbEntity
  8
D-2
  6
Continuous
 62
     3
370
     9
100
AcDbLine
 10
-1246.393069401227
 20
-275.867979519076
 30
0.0
 11
-1246.393069401227
 21
-303.3678228071882
 31
0.0
  0
LINE
  5
320
330
1F
100
AcDbEntity
  8
D-2
  6
Continuous
 62
     3
370
     9
100
AcDbLine
 10
-1246.393069401227
 20
-275.867979519076
 30
0.0
 11
-1216.392846705387
 21
-275.867979519076
 31
0.0
  0
LINE
  5
321
330
1F
100
AcDbEntity
  8
D-2
  6
Continuous
 62
     3
370
     9
100
AcDbLine
 10
-1216.392846705387
 20
-265.8678228071882
 30
0.0
 11
-1216.392846705387
 21
-275.867979519076
 31
0.0
  0
LINE
  5
322
330
1F
100
AcDbEntity
  8
D-2
  6
Continuous
 62
     3
370
     9
100
AcDbLine
 10
-1211.393448808955
 20
-265.8678228071882
 30
0.0
 11
-1216.392846705387
 21
-265.8678228071882
 31
0.0
  0
LINE
  5
323
330
1F
100
AcDbEntity
  8
D-2
  6
Continuous
 62
     3
370
     9
100
AcDbLine
 10
-1191.39313538518
 20
-265.8678228071882
 30
0.0
 11
-1196.393275601079
 21
-265.8678228071882
 31
0.0
  0
LINE
  5
324
330
1F
100
AcDbEntity
  8
D-4
  6
Continuous
 62
     7
370
     9
100
AcDbLine
 10
-1586.962271721223
 20
-238.367979519076
 30
0.0
 11
-1586.962271721223
 21
-338.3678145591942
 31
0.0
  0
LWPOLYLINE
  5
325
330
1F
100
AcDbEntity
  8
D-4
  6
Continuous
 62
     7
370
     9
100
AcDbPolyline
 90
        4
 70
     1
 43
2.0
 10
-1585.962271721223
 20
-238.367979519076
 42
0.4142135623731
 10
-1586.962271721223
 20
-237.3679795190759
 42
0.4142135623731
 10
-1587.962271721223
 20
-238.367979519076
 42
0.4142135623731
 10
-1586.962271721223
 20
-239.367979519076
 42
0.4142135623731
  0
LWPOLYLINE
  5
326
330
1F
100
AcDbEntity
  8
D-4
  6
Continuous
 62
     7
370
     9
100
AcDbPolyline
 90
        4
 70
     1
 43
2.0
 10
-1585.962271721223
 20
-338.3678145591942
 42
0.4142135623731
 10
-1586.962271721223
 20
-337.3678145591942
 42
0.4142135623731
 10
-1587.962271721223
 20
-338.3678145591942
 42
0.4142135623731
 10
-1586.962271721223
 20
-339.3678145591942
 42
0.4142135623731
  0
LINE
  5
327
330
1F
100
AcDbEntity
  8
D-4
  6
Continuous
 62
     7
370
     9
100
AcDbLine
 10
-1589.962271721223
 20
-238.367979519076
 30
0.0
 11
-1546.561221256696
 21
-238.367979519076
 31
0.0
  0
LINE
  5
328
330
1F
100
AcDbEntity
  8
D-4
  6
Continuous
 62
     7
370
     9
100
AcDbLine
 10
-1589.962271721223
 20
-338.3678145591942
 30
0.0
 11
-1546.561221256696
 21
-338.3678145591942
 31
0.0
  0
TEXT
  5
329
330
1F
100
AcDbEntity
  8
D-4
  6
Continuous
 62
     2
370
   211
100
AcDbText
 10
-1598.602271721223
 20
-309.6178970391351
 30
0.0
 40
30.48
  1
20
 50
90.0
 41
1.0625
  7
ＭＳ ゴシック
100
AcDbText
  0
LINE
  5
32A
330
1F
100
AcDbEntity
  8
D-2
  6
Continuous
 62
     3
370
     9
100
AcDbLine
 10
-848.892706489487
 20
-338.3678145591942
 30
0.0
 11
-848.892706489487
 21
-238.367979519076
 31
0.0
  0
LINE
  5
32B
330
1F
100
AcDbEntity
  8
D-2
  6
Continuous
 62
     3
370
     9
100
AcDbLine
 10
-828.8926405055349
 20
-238.367979519076
 30
0.0
 11
-828.8926405055349
 21
-338.3678145591942
 31
0.0
  0
TEXT
  5
32C
330
1F
100
AcDbEntity
  8
D-4
  6
Continuous
 62
     2
370
     9
100
AcDbText
 10
-1524.595683025594
 20
-109.3087075860099
 30
0.0
 40
30.48
  1
□300
 41
1.1
  7
ＭＳ ゴシック
100
AcDbText
  0
TEXT
  5
32D
330
1F
100
AcDbEntity
  8
D-4
  6
Continuous
 62
     2
370
     9
100
AcDbText
 10
-1524.595683025594
 20
-0.5563074197305085
 30
0.0
 40
30.48
  1
□350
 41
1.1
  7
ＭＳ ゴシック
100
AcDbText
  0
TEXT
  5
32E
330
1F
100
AcDbEntity
  8
D-4
  6
Continuous
 62
     2
370
     9
100
AcDbText
 10
-1524.595683025594
 20
108.1960927465492
 30
0.0
 40
30.48
  1
□360
 41
1.1
  7
ＭＳ ゴシック
100
AcDbText
  0
TEXT
  5
32F
330
1F
100
AcDbEntity
  8
D-5
  6
Continuous
 62
     7
370
     9
100
AcDbText
 10
-643.653578942762
 20
55.93979801411345
 30
0.0
 40
22.86
  1
プレーンタイプ　集水桝用
 50
0.0000684664541279
 41
1.152777777777777
  7
ＭＳ ゴシック
100
AcDbText
  0
LINE
  5
330
330
1F
100
AcDbEntity
  8
D-5
  6
Continuous
 62
     7
370
     9
100
AcDbLine
 10
-647.1043681080306
 20
11.55080143208526
 30
0.0
 11
-158.6535738925693
 21
11.55080143208526
 31
0.0
  0
LINE
  5
331
330
1F
100
AcDbEntity
  8
D-5
  6
Continuous
 62
     7
370
     9
100
AcDbLine
 10
-647.1043681080306
 20
11.55080143208526
 30
0.0
 11
-864.625086788497
 21
-238.367979519076
 31
0.0
  0
TEXT
  5
332
330
1F
100
AcDbEntity
  8
D-5
  6
Continuous
 62
     7
370
     9
100
AcDbText
 10
-643.653578942762
 20
92.57821048969942
 30
0.0
 40
22.86
  1
ステンレス製グレーチング
 50
0.0000684664541279
 41
1.152777777777778
  7
ＭＳ ゴシック
100
AcDbText
  0
LINE
  5
333
330
1F
100
AcDbEntity
  8
D-5
  6
Continuous
 62
     7
370
     9
100
AcDbLine
 10
-864.625086788497
 20
-238.367979519076
 30
0.0
 11
-850.8143901866293
 21
-217.5300484821268
 31
0.0
  0
LINE
  5
334
330
1F
100
AcDbEntity
  8
D-5
  6
Continuous
 62
     7
370
     9
100
AcDbLine
 10
-864.625086788497
 20
-238.367979519076
 30
0.0
 11
-845.8914113086081
 21
-221.8143677637049
 31
0.0
  0
TEXT
  5
335
330
1F
100
AcDbEntity
  8
D-5
  6
Continuous
 62
     7
370
     9
100
AcDbText
 10
-643.6535921289526
 20
19.30138553849124
 30
0.0
 40
22.86
  1
ＳＭＷ３５２０Ａ（Ｐ＝１３）
 50
0.0002470747442
 41
1.154761904761905
  7
ＭＳ ゴシック
100
AcDbText
  0
TEXT
  5
336
330
1F
100
AcDbEntity
  8
D-5
  6
Continuous
 62
     2
370
     9
100
AcDbText
 10
-68.52482739518337
 20
-735.122027029316
 30
0.0
 40
30.48
  1
材質：ステンレス鋼板ｔ＝３．０（ＳＵＳ３０４）
 41
1.119565217391304
  7
ＭＳ ゴシック
100
AcDbText
  0
TEXT
  5
337
330
1F
100
AcDbEntity
  8
D-5
  6
Continuous
 62
     2
370
     9
100
AcDbText
 10
-68.52482739518337
 20
-845.1211115019722
 30
0.0
 40
30.48
  1
施工場所の状況に合わせて、アンカーをプライヤー等で折り曲げてご使用ください。
 41
1.121710526315789
  7
ＭＳ ゴシック
100
AcDbText
  0
TEXT
  5
338
330
1F
100
AcDbEntity
  8
D-5
  6
Continuous
 62
     2
370
     9
100
AcDbText
 10
-68.52505833901773
 20
-501.0798675392027
 30
0.0
 40
30.48
  1
材質：メインバー　ＦＢ４×２０（ＳＵＳ３０４）
 41
1.119565217391304
  7
ＭＳ ゴシック
100
AcDbText
  0
TEXT
  5
339
330
1F
100
AcDbEntity
  8
D-5
  6
Continuous
 62
     2
370
     9
100
AcDbText
 10
-68.52505833901773
 20
-556.080172714984
 30
0.0
 40
30.48
  1
　　　クロスバー　ＦＢ３×１５（ＳＵＳ３０４）
 41
1.119565217391304
  7
ＭＳ ゴシック
100
AcDbText
  0
TEXT
  5
33A
330
1F
100
AcDbEntity
  8
D-5
  6
Continuous
 62
     2
370
     9
100
AcDbText
 10
-68.52505833901773
 20
-611.0802304509427
 30
0.0
 40
30.48
  1
　　　サイドバー　ＦＢ４×２０（ＳＵＳ３０４）
 41
1.119565217391304
  7
ＭＳ ゴシック
100
AcDbText
  0
TEXT
  5
33B
330
1F
100
AcDbEntity
  8
D-5
  6
Continuous
 62
     2
370
     9
100
AcDbText
 10
-128.2367414576834
 20
-680.1210352080269
 30
0.0
 40
30.48
  1
ステンレス製受枠　ＲＬ－２０（四方枠）
 41
1.118421052631579
  7
ＭＳ ゴシック
100
AcDbText
  0
TEXT
  5
33C
330
1F
100
AcDbEntity
  8
D-5
  6
Continuous
 62
     2
370
     9
100
AcDbText
 10
-128.2367414576834
 20
-442.1007407407408
 30
0.0
 40
30.48
  1
ＳＭＷ　３５２０Ａ（Ｐ＝１３）
 41
1.116666666666666
  7
ＭＳ ゴシック
100
AcDbText
  0
TEXT
  5
33D
330
1F
100
AcDbEntity
  8
D-5
  6
Continuous
 62
     2
370
     9
100
AcDbText
 10
-128.2367414576834
 20
-391.6064285494705
 30
0.0
 40
30.48
  1
ステンレス製グレーチング　プレーンタイプ　集水桝用
 41
1.12
  7
ＭＳ ゴシック
100
AcDbText
  0
TEXT
  5
33E
330
1F
100
AcDbEntity
  8
D-5
  6
Continuous
 62
     7
370
     9
100
AcDbText
 10
-597.5799173457449
 20
-185.7478294488844
 30
0.0
 40
22.86
  1
ｔ＝２．０（ＳＥＣＣ）
 41
1.151515151515152
  7
ＭＳ ゴシック
100
AcDbText
  0
TEXT
  5
33F
330
1F
100
AcDbEntity
  8
F-5ﾚｲﾔ
  6
Continuous
 62
     2
370
     0
100
AcDbText
 10
-341.1358024691359
 20
-1367.468363795925
 30
0.0
 40
30.48
  1
ＳＭＷ　３５２０Ａ（Ｐ＝１３）＋ＲＬ－２０
 41
0.8988095238095238
  7
ＭＳ ゴシック
100
AcDbText
  0
TEXT
  5
340
330
1F
100
AcDbEntity
  8
F-5ﾚｲﾔ
  6
Continuous
 62
     2
370
     0
100
AcDbText
 10
-860.9876543209878
 20
-1327.468363795925
 30
0.0
 40
30.48
  1
ステンレス製グレーチング　プレーンタイプ　集水桝用
 41
0.8989999999999999
  7
ＭＳ ゴシック
100
AcDbText
  0
LINE
  5
341
330
1F
100
AcDbEntity
  8
D-5
  6
Continuous
 62
     7
370
     9
100
AcDbLine
 10
-611.2241548640554
 20
-155.3187966272291
 30
0.0
 11
-218.2617283950617
 21
-155.3187966272291
 31
0.0
  0
TEXT
  5
342
330
1F
100
AcDbEntity
  8
D-5
  6
Continuous
 62
     3
370
     9
100
AcDbText
 10
44.67280444075413
 20
-332.276086026772
 30
0.0
 40
38.1
  1
※適用荷重：Ｔ－２
 41
1.088888888888889
  7
ＭＳ ゴシック
100
AcDbText
  0
ENDSEC
  0
SECTION
  2
OBJECTS
  0
DICTIONARY
  5
C
330
0
100
AcDbDictionary
281
     1
  3
ACAD_DETAILVIEWSTYLE
350
388
  3
ACAD_GROUP
350
D
  3
ACAD_LAYOUT
350
1A
  3
ACAD_MATERIAL
350
43
  3
ACAD_MLEADERSTYLE
350
6B
  3
ACAD_MLINESTYLE
350
17
  3
ACAD_PLOTSETTINGS
350
19
  3
ACAD_PLOTSTYLENAME
350
E
  3
ACAD_SCALELIST
350
47
  3
ACAD_SECTIONVIEWSTYLE
350
389
  3
ACAD_TABLESTYLE
350
69
  3
ACAD_VISUALSTYLE
350
2A
  3
ACDB_RECOMPOSE_DATA
350
385
  3
AcDbVariableDictionary
350
345
  0
DICTIONARY
  5
343
330
8
100
AcDbDictionary
280
     1
281
     1
  3
ACAD_XREC_ROUNDTRIP
360
344
  0
DICTIONARY
  5
388
102
{ACAD_REACTORS
330
C
102
}
330
C
100
AcDbDictionary
281
     1
  0
DICTIONARY
  5
D
102
{ACAD_REACTORS
330
C
102
}
330
C
100
AcDbDictionary
281
     1
  0
DICTIONARY
  5
1A
102
{ACAD_REACTORS
330
C
102
}
330
C
100
AcDbDictionary
281
     1
  3
Layout1
350
1E
  3
Layout2
350
26
  3
Model
350
22
  0
DICTIONARY
  5
43
102
{ACAD_REACTORS
330
C
102
}
330
C
100
AcDbDictionary
281
     1
  3
ByBlock
350
45
  3
ByLayer
350
44
  3
Global
350
46
  0
DICTIONARY
  5
6B
102
{ACAD_REACTORS
330
C
102
}
330
C
100
AcDbDictionary
281
     1
  3
Standard
350
6C
  0
DICTIONARY
  5
17
102
{ACAD_REACTORS
330
C
102
}
330
C
100
AcDbDictionary
281
     1
  3
Standard
350
18
  0
DICTIONARY
  5
19
102
{ACAD_REACTORS
330
C
102
}
330
C
100
AcDbDictionary
281
     1
  0
ACDBDICTIONARYWDFLT
  5
E
102
{ACAD_REACTORS
330
C
102
}
330
C
100
AcDbDictionary
281
     1
  3
Normal
350
F
100
AcDbDictionaryWithDefault
340
F
  0
DICTIONARY
  5
47
102
{ACAD_REACTORS
330
C
102
}
330
C
100
AcDbDictionary
281
     1
  3
A0
350
48
  3
A1
350
49
  3
A2
350
4A
  3
A3
350
4B
  3
A4
350
4C
  3
A5
350
4D
  3
A6
350
4E
  3
A7
350
4F
  3
A8
350
50
  3
A9
350
51
  3
B0
350
52
  3
B1
350
53
  3
B2
350
54
  3
B3
350
55
  3
B4
350
56
  3
B5
350
57
  3
B6
350
58
  3
B7
350
59
  3
B8
350
5A
  3
B9
350
5B
  3
C0
350
5C
  3
C1
350
5D
  3
C2
350
5E
  3
C3
350
5F
  3
C4
350
60
  3
C5
350
61
  3
C6
350
62
  3
C7
350
63
  3
C8
350
64
  3
C9
350
65
  3
D0
350
66
  3
D1
350
67
  3
D2
350
68
  0
DICTIONARY
  5
389
102
{ACAD_REACTORS
330
C
102
}
330
C
100
AcDbDictionary
281
     1
  0
DICTIONARY
  5
69
102
{ACAD_REACTORS
330
C
102
}
330
C
100
AcDbDictionary
281
     1
  3
Standard
350
6A
  0
DICTIONARY
  5
2A
102
{ACAD_REACTORS
330
C
102
}
330
C
100
AcDbDictionary
281
     1
  3
2dWireframe
350
2F
  3
Basic
350
32
  3
Brighten
350
36
  3
ColorChange
350
3A
  3
Conceptual
350
34
  3
Dim
350
35
  3
EdgeColorOff
350
3D
  3
Facepattern
350
39
  3
Flat
350
2B
  3
FlatWithEdges
350
2C
  3
Gouraud
350
2D
  3
GouraudWithEdges
350
2E
  3
Hidden
350
31
  3
JitterOff
350
3B
  3
Linepattern
350
38
  3
OverhangOff
350
3C
  3
Realistic
350
33
  3
Shaded
350
42
  3
Shaded with edges
350
41
  3
Shades of Gray
350
3E
  3
Sketchy
350
3F
  3
Thicken
350
37
  3
Wireframe
350
30
  3
X-Ray
350
40
  0
XRECORD
  5
385
102
{ACAD_REACTORS
330
C
102
}
330
C
100
AcDbXrecord
280
     1
 90
        1
330
6A
  0
DICTIONARY
  5
345
102
{ACAD_REACTORS
330
C
102
}
330
C
100
AcDbDictionary
281
     1
  3
CANNOSCALE
350
346
  3
CENTEREXE
350
38A
  3
CENTERLTYPEFILE
350
38B
  3
CMLEADERSTYLE
350
387
  3
CTABLESTYLE
350
386
  3
MSLTSCALE
350
347
  3
XCLIPFRAME
350
348
  0
XRECORD
  5
344
102
{ACAD_REACTORS
330
343
102
}
330
343
100
AcDbXrecord
280
     1
102
VTR_0.000_0.000_1.000_1.000_VISUALSTYLE
340
2F
102
VTR_0.000_0.000_1.000_1.000_GRIDDISPLAY
 70
     3
102
VTR_0.000_0.000_1.000_1.000_GRIDMAJOR
 70
     5
102
VTR_0.000_0.000_1.000_1.000_DEFAULTLIGHTING
280
     1
102
VTR_0.000_0.000_1.000_1.000_DEFAULTLIGHTINGTYPE
 70
     1
102
VTR_0.000_0.000_1.000_1.000_BRIGHTNESS
141
0.0
102
VTR_0.000_0.000_1.000_1.000_CONTRAST
142
0.0
  0
LAYOUT
  5
1E
102
{ACAD_REACTORS
330
1A
102
}
330
1A
100
AcDbPlotSettings
  1

  2
none_device
  4

  6

 40
0.0
 41
0.0
 42
0.0
 43
0.0
 44
0.0
 45
0.0
 46
0.0
 47
0.0
 48
0.0
 49
0.0
140
0.0
141
0.0
142
1.0
143
1.0
 70
   688
 72
     1
 73
     0
 74
     5
  7

 75
    16
 76
     0
 77
     5
 78
   300
147
1.0
148
0.0
149
0.0
100
AcDbLayout
  1
Layout1
 70
     1
 71
     1
 10
0.0
 20
0.0
 11
420.0
 21
297.0
 12
0.0
 22
0.0
 32
0.0
 14
1.000000000000000E+20
 24
1.000000000000000E+20
 34
1.000000000000000E+20
 15
-1.000000000000000E+20
 25
-1.000000000000000E+20
 35
-1.000000000000000E+20
146
0.0
 13
0.0
 23
0.0
 33
0.0
 16
1.0
 26
0.0
 36
0.0
 17
0.0
 27
1.0
 37
0.0
 76
     0
330
1B
  0
LAYOUT
  5
26
102
{ACAD_REACTORS
330
1A
102
}
330
1A
100
AcDbPlotSettings
  1

  2
none_device
  4

  6

 40
0.0
 41
0.0
 42
0.0
 43
0.0
 44
0.0
 45
0.0
 46
0.0
 47
0.0
 48
0.0
 49
0.0
140
0.0
141
0.0
142
1.0
143
1.0
 70
   688
 72
     1
 73
     0
 74
     5
  7

 75
    16
 76
     0
 77
     5
 78
   300
147
1.0
148
0.0
149
0.0
100
AcDbLayout
  1
Layout2
 70
     1
 71
     2
 10
0.0
 20
0.0
 11
0.0
 21
0.0
 12
0.0
 22
0.0
 32
0.0
 14
0.0
 24
0.0
 34
0.0
 15
0.0
 25
0.0
 35
0.0
146
0.0
 13
0.0
 23
0.0
 33
0.0
 16
1.0
 26
0.0
 36
0.0
 17
0.0
 27
1.0
 37
0.0
 76
     0
330
23
  0
LAYOUT
  5
22
102
{ACAD_REACTORS
330
1A
102
}
330
1A
100
AcDbPlotSettings
  1

  2
none_device
  4
Letter_(8.50_x_11.00_Inches)
  6

 40
6.35
 41
6.35
 42
6.35000508
 43
6.35000508
 44
215.9
 45
279.4
 46
0.0
 47
0.0
 48
0.0
 49
0.0
140
0.0
141
0.0
142
1.0
143
1.0
 70
  1712
 72
     1
 73
     0
 74
     0
  7

 75
     0
 76
     0
 77
     5
 78
   300
147
1.0
148
0.0
149
0.0
100
AcDbLayout
  1
Model
 70
     1
 71
     0
 10
-2100.0
 20
-1485.0
 11
2100.0
 21
1485.0
 12
0.0
 22
0.0
 32
0.0
 14
-2100.0
 24
-1485.0
 34
0.0
 15
2100.0
 25
1485.0
 35
0.0
146
0.0
 13
0.0
 23
0.0
 33
0.0
 16
1.0
 26
0.0
 36
0.0
 17
0.0
 27
1.0
 37
0.0
 76
     0
330
1F
331
29
  0
MATERIAL
  5
45
102
{ACAD_REACTORS
330
43
102
}
102
{ACAD_XDICTIONARY
360
37B
102
}
330
43
100
AcDbMaterial
  1
ByBlock
  0
MATERIAL
  5
44
102
{ACAD_REACTORS
330
43
102
}
102
{ACAD_XDICTIONARY
360
379
102
}
330
43
100
AcDbMaterial
  1
ByLayer
  0
MATERIAL
  5
46
102
{ACAD_REACTORS
330
43
102
}
102
{ACAD_XDICTIONARY
360
37D
102
}
330
43
100
AcDbMaterial
  1
Global
  0
MLEADERSTYLE
  5
6C
102
{ACAD_REACTORS
330
6B
102
}
102
{ACAD_XDICTIONARY
360
383
102
}
330
6B
100
AcDbMLeaderStyle
170
     2
171
     1
172
     0
 90
        2
 40
0.0
 41
0.0
173
     1
 91
-1056964608
340
14
 92
       -2
290
     1
 42
2.0
291
     1
 43
8.0
  3
Standard
341
0
 44
4.0
300

342
11
174
     1
178
     6
175
     1
176
     0
 93
-1056964608
 45
4.0
292
     0
297
     0
 46
4.0
343
0
 94
-1056964608
 47
1.0
 49
1.0
140
1.0
293
     1
141
0.0
294
     1
177
     0
142
1.0
295
     0
296
     0
143
3.75
1001
ACAD_MLEADERVER
1070
     2
  0
MLINESTYLE
  5
18
102
{ACAD_REACTORS
330
17
102
}
330
17
100
AcDbMlineStyle
  2
Standard
 70
     0
  3

 62
   256
 51
90.0
 52
90.0
 71
     2
 49
0.5
 62
   256
  6
BYLAYER
 49
-0.5
 62
   256
  6
BYLAYER
  0
ACDBPLACEHOLDER
  5
F
102
{ACAD_REACTORS
330
E
102
}
330
E
  0
SCALE
  5
48
102
{ACAD_REACTORS
330
47
102
}
330
47
100
AcDbScale
 70
     0
300
1:1
140
1.0
141
1.0
290
     1
  0
SCALE
  5
49
102
{ACAD_REACTORS
330
47
102
}
330
47
100
AcDbScale
 70
     0
300
1:2
140
1.0
141
2.0
290
     0
  0
SCALE
  5
4A
102
{ACAD_REACTORS
330
47
102
}
330
47
100
AcDbScale
 70
     0
300
1:4
140
1.0
141
4.0
290
     0
  0
SCALE
  5
4B
102
{ACAD_REACTORS
330
47
102
}
330
47
100
AcDbScale
 70
     0
300
1:5
140
1.0
141
5.0
290
     0
  0
SCALE
  5
4C
102
{ACAD_REACTORS
330
47
102
}
330
47
100
AcDbScale
 70
     0
300
1:8
140
1.0
141
8.0
290
     0
  0
SCALE
  5
4D
102
{ACAD_REACTORS
330
47
102
}
330
47
100
AcDbScale
 70
     0
300
1:10
140
1.0
141
10.0
290
     0
  0
SCALE
  5
4E
102
{ACAD_REACTORS
330
47
102
}
330
47
100
AcDbScale
 70
     0
300
1:16
140
1.0
141
16.0
290
     0
  0
SCALE
  5
4F
102
{ACAD_REACTORS
330
47
102
}
330
47
100
AcDbScale
 70
     0
300
1:20
140
1.0
141
20.0
290
     0
  0
SCALE
  5
50
102
{ACAD_REACTORS
330
47
102
}
330
47
100
AcDbScale
 70
     0
300
1:30
140
1.0
141
30.0
290
     0
  0
SCALE
  5
51
102
{ACAD_REACTORS
330
47
102
}
330
47
100
AcDbScale
 70
     0
300
1:40
140
1.0
141
40.0
290
     0
  0
SCALE
  5
52
102
{ACAD_REACTORS
330
47
102
}
330
47
100
AcDbScale
 70
     0
300
1:50
140
1.0
141
50.0
290
     0
  0
SCALE
  5
53
102
{ACAD_REACTORS
330
47
102
}
330
47
100
AcDbScale
 70
     0
300
1:100
140
1.0
141
100.0
290
     0
  0
SCALE
  5
54
102
{ACAD_REACTORS
330
47
102
}
330
47
100
AcDbScale
 70
     0
300
2:1
140
2.0
141
1.0
290
     0
  0
SCALE
  5
55
102
{ACAD_REACTORS
330
47
102
}
330
47
100
AcDbScale
 70
     0
300
4:1
140
4.0
141
1.0
290
     0
  0
SCALE
  5
56
102
{ACAD_REACTORS
330
47
102
}
330
47
100
AcDbScale
 70
     0
300
8:1
140
8.0
141
1.0
290
     0
  0
SCALE
  5
57
102
{ACAD_REACTORS
330
47
102
}
330
47
100
AcDbScale
 70
     0
300
10:1
140
10.0
141
1.0
290
     0
  0
SCALE
  5
58
102
{ACAD_REACTORS
330
47
102
}
330
47
100
AcDbScale
 70
     0
300
100:1
140
100.0
141
1.0
290
     0
  0
SCALE
  5
59
102
{ACAD_REACTORS
330
47
102
}
330
47
100
AcDbScale
 70
     0
300
1/128" = 1'-0"
140
0.0078125
141
12.0
290
     0
  0
SCALE
  5
5A
102
{ACAD_REACTORS
330
47
102
}
330
47
100
AcDbScale
 70
     0
300
1/64" = 1'-0"
140
0.015625
141
12.0
290
     0
  0
SCALE
  5
5B
102
{ACAD_REACTORS
330
47
102
}
330
47
100
AcDbScale
 70
     0
300
1/32" = 1'-0"
140
0.03125
141
12.0
290
     0
  0
SCALE
  5
5C
102
{ACAD_REACTORS
330
47
102
}
330
47
100
AcDbScale
 70
     0
300
1/16" = 1'-0"
140
0.0625
141
12.0
290
     0
  0
SCALE
  5
5D
102
{ACAD_REACTORS
330
47
102
}
330
47
100
AcDbScale
 70
     0
300
3/32" = 1'-0"
140
0.09375
141
12.0
290
     0
  0
SCALE
  5
5E
102
{ACAD_REACTORS
330
47
102
}
330
47
100
AcDbScale
 70
     0
300
1/8" = 1'-0"
140
0.125
141
12.0
290
     0
  0
SCALE
  5
5F
102
{ACAD_REACTORS
330
47
102
}
330
47
100
AcDbScale
 70
     0
300
3/16" = 1'-0"
140
0.1875
141
12.0
290
     0
  0
SCALE
  5
60
102
{ACAD_REACTORS
330
47
102
}
330
47
100
AcDbScale
 70
     0
300
1/4" = 1'-0"
140
0.25
141
12.0
290
     0
  0
SCALE
  5
61
102
{ACAD_REACTORS
330
47
102
}
330
47
100
AcDbScale
 70
     0
300
3/8" = 1'-0"
140
0.375
141
12.0
290
     0
  0
SCALE
  5
62
102
{ACAD_REACTORS
330
47
102
}
330
47
100
AcDbScale
 70
     0
300
1/2" = 1'-0"
140
0.5
141
12.0
290
     0
  0
SCALE
  5
63
102
{ACAD_REACTORS
330
47
102
}
330
47
100
AcDbScale
 70
     0
300
3/4" = 1'-0"
140
0.75
141
12.0
290
     0
  0
SCALE
  5
64
102
{ACAD_REACTORS
330
47
102
}
330
47
100
AcDbScale
 70
     0
300
1" = 1'-0"
140
1.0
141
12.0
290
     0
  0
SCALE
  5
65
102
{ACAD_REACTORS
330
47
102
}
330
47
100
AcDbScale
 70
     0
300
1-1/2" = 1'-0"
140
1.5
141
12.0
290
     0
  0
SCALE
  5
66
102
{ACAD_REACTORS
330
47
102
}
330
47
100
AcDbScale
 70
     0
300
3" = 1'-0"
140
3.0
141
12.0
290
     0
  0
SCALE
  5
67
102
{ACAD_REACTORS
330
47
102
}
330
47
100
AcDbScale
 70
     0
300
6" = 1'-0"
140
6.0
141
12.0
290
     0
  0
SCALE
  5
68
102
{ACAD_REACTORS
330
47
102
}
330
47
100
AcDbScale
 70
     0
300
1'-0" = 1'-0"
140
12.0
141
12.0
290
     0
  0
TABLESTYLE
  5
6A
102
{ACAD_REACTORS
330
69
102
}
102
{ACAD_XDICTIONARY
360
37F
102
}
330
69
100
AcDbTableStyle
  3
Standard
 70
     0
 71
     0
 40
0.06
 41
0.06
280
     0
281
     0
  7
Standard
140
4.5
170
     2
 62
     0
 63
   257
283
     0
274
    -2
284
     1
 64
     0
275
    -2
285
     1
 65
     0
276
    -2
286
     1
 66
     0
277
    -2
287
     1
 67
     0
278
    -2
288
     1
 68
     0
279
    -2
289
     1
 69
     0
  7
Standard
140
6.0
170
     5
 62
     0
 63
   257
283
     0
274
    -2
284
     1
 64
     0
275
    -2
285
     1
 65
     0
276
    -2
286
     1
 66
     0
277
    -2
287
     1
 67
     0
278
    -2
288
     1
 68
     0
279
    -2
289
     1
 69
     0
  7
Standard
140
4.5
170
     5
 62
     0
 63
   257
283
     0
274
    -2
284
     1
 64
     0
275
    -2
285
     1
 65
     0
276
    -2
286
     1
 66
     0
277
    -2
287
     1
 67
     0
278
    -2
288
     1
 68
     0
279
    -2
289
     1
 69
     0
  0
VISUALSTYLE
  5
2F
102
{ACAD_REACTORS
330
2A
102
}
102
{ACAD_XDICTIONARY
360
351
102
}
330
2A
100
AcDbVisualStyle
  2
2dWireframe
 70
     4
 71
     0
 72
     2
 73
     0
 90
        0
 40
0.6
 41
30.0
 62
     5
 63
     7
421
 16777215
 74
     1
 91
        4
 64
     7
 65
   257
 75
     1
175
     1
 42
1.0
 92
        0
 66
   257
 43
1.0
 76
     1
 77
     6
 78
     2
 67
     7
 79
     5
170
     0
171
     0
290
     0
174
     0
 93
        1
 44
0.0
173
     0
291
     0
 45
0.0
1001
ACAD
1000
AcDbSavedByObjectVersion
1070
     0
  0
VISUALSTYLE
  5
32
102
{ACAD_REACTORS
330
2A
102
}
102
{ACAD_XDICTIONARY
360
357
102
}
330
2A
100
AcDbVisualStyle
  2
Basic
 70
     7
 71
     1
 72
     0
 73
     1
 90
        0
 40
0.6
 41
30.0
 62
     5
 63
     7
421
 16777215
 74
     0
 91
        4
 64
     7
 65
   257
 75
     1
175
     1
 42
1.0
 92
        8
 66
     7
 43
1.0
 76
     1
 77
     6
 78
     2
 67
     7
 79
     5
170
     0
171
     0
290
     0
174
     0
 93
        1
 44
0.0
173
     0
291
     1
 45
0.0
1001
ACAD
1000
AcDbSavedByObjectVersion
1070
     0
  0
VISUALSTYLE
  5
36
102
{ACAD_REACTORS
330
2A
102
}
102
{ACAD_XDICTIONARY
360
35F
102
}
330
2A
100
AcDbVisualStyle
  2
Brighten
 70
    12
 71
     2
 72
     2
 73
     0
 90
        0
 40
0.6
 41
30.0
 62
     5
 63
     7
421
 16777215
 74
     1
 91
        4
 64
     7
 65
   257
 75
     1
175
     1
 42
1.0
 92
        8
 66
     7
 43
1.0
 76
     1
 77
     6
 78
     2
 67
     7
 79
     5
170
     0
171
     0
290
     0
174
     0
 93
        1
 44
50.0
173
     0
291
     1
 45
0.0
1001
ACAD
1000
AcDbSavedByObjectVersion
1070
     0
  0
VISUALSTYLE
  5
3A
102
{ACAD_REACTORS
330
2A
102
}
102
{ACAD_XDICTIONARY
360
367
102
}
330
2A
100
AcDbVisualStyle
  2
ColorChange
 70
    16
 71
     2
 72
     2
 73
     3
 90
        0
 40
0.6
 41
30.0
 62
     5
 63
     8
421
  8421504
 74
     1
 91
        4
 64
     7
 65
   257
 75
     1
175
     1
 42
1.0
 92
        8
 66
     8
424
  8421504
 43
1.0
 76
     1
 77
     6
 78
     2
 67
     7
 79
     5
170
     0
171
     0
290
     0
174
     0
 93
        1
 44
0.0
173
     0
291
     1
 45
0.0
1001
ACAD
1000
AcDbSavedByObjectVersion
1070
     0
  0
VISUALSTYLE
  5
34
102
{ACAD_REACTORS
330
2A
102
}
102
{ACAD_XDICTIONARY
360
35B
102
}
330
2A
100
AcDbVisualStyle
  2
Conceptual
 70
     9
 71
     3
 72
     2
 73
     0
 90
        0
 40
0.6
 41
30.0
 62
     5
 63
     7
421
 16777215
 74
     2
 91
        2
 64
     7
 65
   257
 75
     1
175
     1
 42
179.0
 92
        8
 66
     7
 43
1.0
 76
     1
 77
     6
 78
     2
 67
     7
 79
     3
170
     0
171
     0
290
     0
174
     0
 93
        1
 44
0.0
173
     0
291
     0
 45
0.0
1001
ACAD
1000
AcDbSavedByObjectVersion
1070
     0
  0
VISUALSTYLE
  5
35
102
{ACAD_REACTORS
330
2A
102
}
102
{ACAD_XDICTIONARY
360
35D
102
}
330
2A
100
AcDbVisualStyle
  2
Dim
 70
    11
 71
     2
 72
     2
 73
     0
 90
        0
 40
0.6
 41
30.0
 62
     5
 63
     7
421
 16777215
 74
     1
 91
        4
 64
     7
 65
   257
 75
     1
175
     1
 42
1.0
 92
        8
 66
     7
 43
1.0
 76
     1
 77
     6
 78
     2
 67
     7
 79
     5
170
     0
171
     0
290
     0
174
     0
 93
        1
 44
-50.0
173
     0
291
     1
 45
0.0
1001
ACAD
1000
AcDbSavedByObjectVersion
1070
     0
  0
VISUALSTYLE
  5
3D
102
{ACAD_REACTORS
330
2A
102
}
102
{ACAD_XDICTIONARY
360
36D
102
}
330
2A
100
AcDbVisualStyle
  2
EdgeColorOff
 70
    22
 71
     2
 72
     2
 73
     0
 90
        0
 40
0.6
 41
30.0
 62
     5
 63
     7
421
 16777215
 74
     1
 91
        4
 64
     7
 65
   257
 75
     1
175
     1
 42
1.0
 92
        8
 66
     7
 43
1.0
 76
     1
 77
     6
 78
     2
 67
     7
 79
     5
170
     0
171
     0
290
     0
174
     0
 93
        1
 44
0.0
173
     0
291
     1
 45
0.0
1001
ACAD
1000
AcDbSavedByObjectVersion
1070
     0
  0
VISUALSTYLE
  5
39
102
{ACAD_REACTORS
330
2A
102
}
102
{ACAD_XDICTIONARY
360
365
102
}
330
2A
100
AcDbVisualStyle
  2
Facepattern
 70
    15
 71
     2
 72
     2
 73
     0
 90
        0
 40
0.6
 41
30.0
 62
     5
 63
     7
421
 16777215
 74
     1
 91
        4
 64
     7
 65
   257
 75
     1
175
     1
 42
1.0
 92
        8
 66
     7
 43
1.0
 76
     1
 77
     6
 78
     2
 67
     7
 79
     5
170
     0
171
     0
290
     0
174
     0
 93
        1
 44
0.0
173
     0
291
     1
 45
0.0
1001
ACAD
1000
AcDbSavedByObjectVersion
1070
     0
  0
VISUALSTYLE
  5
2B
102
{ACAD_REACTORS
330
2A
102
}
102
{ACAD_XDICTIONARY
360
349
102
}
330
2A
100
AcDbVisualStyle
  2
Flat
 70
     0
 71
     2
 72
     1
 73
     1
 90
        2
 40
0.6
 41
30.0
 62
     5
 63
     7
421
 16777215
 74
     0
 91
        0
 64
     7
 65
   257
 75
     1
175
     1
 42
1.0
 92
        8
 66
     7
 43
1.0
 76
     1
 77
     6
 78
     2
 67
     7
 79
     5
170
     0
171
     0
290
     0
174
     0
 93
       13
 44
0.0
173
     0
291
     1
 45
0.0
1001
ACAD
1000
AcDbSavedByObjectVersion
1070
     0
  0
VISUALSTYLE
  5
2C
102
{ACAD_REACTORS
330
2A
102
}
102
{ACAD_XDICTIONARY
360
34B
102
}
330
2A
100
AcDbVisualStyle
  2
FlatWithEdges
 70
     1
 71
     2
 72
     1
 73
     1
 90
        2
 40
0.6
 41
30.0
 62
     5
 63
     7
421
 16777215
 74
     1
 91
        0
 64
     7
 65
   257
 75
     1
175
     1
 42
1.0
 92
        0
 66
   257
 43
1.0
 76
     1
 77
     6
 78
     2
 67
     7
 79
     5
170
     0
171
     0
290
     0
174
     0
 93
       13
 44
0.0
173
     0
291
     1
 45
0.0
1001
ACAD
1000
AcDbSavedByObjectVersion
1070
     0
  0
VISUALSTYLE
  5
2D
102
{ACAD_REACTORS
330
2A
102
}
102
{ACAD_XDICTIONARY
360
34D
102
}
330
2A
100
AcDbVisualStyle
  2
Gouraud
 70
     2
 71
     2
 72
     2
 73
     1
 90
        2
 40
0.6
 41
30.0
 62
     5
 63
     7
421
 16777215
 74
     0
 91
        0
 64
     7
 65
   257
 75
     1
175
     1
 42
1.0
 92
        0
 66
     7
 43
1.0
 76
     1
 77
     6
 78
     2
 67
     7
 79
     5
170
     0
171
     0
290
     0
174
     0
 93
       13
 44
0.0
173
     0
291
     1
 45
0.0
1001
ACAD
1000
AcDbSavedByObjectVersion
1070
     0
  0
VISUALSTYLE
  5
2E
102
{ACAD_REACTORS
330
2A
102
}
102
{ACAD_XDICTIONARY
360
34F
102
}
330
2A
100
AcDbVisualStyle
  2
GouraudWithEdges
 70
     3
 71
     2
 72
     2
 73
     1
 90
        2
 40
0.6
 41
30.0
 62
     5
 63
     7
421
 16777215
 74
     1
 91
        0
 64
     7
 65
   257
 75
     1
175
     1
 42
1.0
 92
        0
 66
   257
 43
1.0
 76
     1
 77
     6
 78
     2
 67
     7
 79
     5
170
     0
171
     0
290
     0
174
     0
 93
       13
 44
0.0
173
     0
291
     1
 45
0.0
1001
ACAD
1000
AcDbSavedByObjectVersion
1070
     0
  0
VISUALSTYLE
  5
31
102
{ACAD_REACTORS
330
2A
102
}
102
{ACAD_XDICTIONARY
360
355
102
}
330
2A
100
AcDbVisualStyle
  2
Hidden
 70
     6
 71
     1
 72
     2
 73
     2
 90
        0
 40
0.6
 41
30.0
 62
     5
 63
     7
421
 16777215
 74
     2
 91
        2
 64
     7
 65
   257
 75
     2
175
     1
 42
40.0
 92
        0
 66
   257
 43
1.0
 76
     1
 77
     6
 78
     2
 67
     7
 79
     3
170
     0
171
     0
290
     0
174
     0
 93
        1
 44
0.0
173
     0
291
     0
 45
0.0
1001
ACAD
1000
AcDbSavedByObjectVersion
1070
     0
  0
VISUALSTYLE
  5
3B
102
{ACAD_REACTORS
330
2A
102
}
102
{ACAD_XDICTIONARY
360
369
102
}
330
2A
100
AcDbVisualStyle
  2
JitterOff
 70
    20
 71
     2
 72
     2
 73
     0
 90
        0
 40
0.6
 41
30.0
 62
     5
 63
     7
421
 16777215
 74
     1
 91
        4
 64
     7
 65
   257
 75
     1
175
     1
 42
1.0
 92
       10
 66
     7
 43
1.0
 76
     1
 77
     6
 78
     2
 67
     7
 79
     5
170
     0
171
     0
290
     0
174
     0
 93
        1
 44
0.0
173
     0
291
     1
 45
0.0
1001
ACAD
1000
AcDbSavedByObjectVersion
1070
     0
  0
VISUALSTYLE
  5
38
102
{ACAD_REACTORS
330
2A
102
}
102
{ACAD_XDICTIONARY
360
363
102
}
330
2A
100
AcDbVisualStyle
  2
Linepattern
 70
    14
 71
     2
 72
     2
 73
     0
 90
        0
 40
0.6
 41
30.0
 62
     5
 63
     7
421
 16777215
 74
     1
 91
        4
 64
     7
 65
   257
 75
     7
175
     7
 42
1.0
 92
        8
 66
     7
 43
1.0
 76
     1
 77
     6
 78
     2
 67
     7
 79
     5
170
     0
171
     0
290
     0
174
     0
 93
        1
 44
0.0
173
     0
291
     1
 45
0.0
1001
ACAD
1000
AcDbSavedByObjectVersion
1070
     0
  0
VISUALSTYLE
  5
3C
102
{ACAD_REACTORS
330
2A
102
}
102
{ACAD_XDICTIONARY
360
36B
102
}
330
2A
100
AcDbVisualStyle
  2
OverhangOff
 70
    21
 71
     2
 72
     2
 73
     0
 90
        0
 40
0.6
 41
30.0
 62
     5
 63
     7
421
 16777215
 74
     1
 91
        4
 64
     7
 65
   257
 75
     1
175
     1
 42
1.0
 92
        9
 66
     7
 43
1.0
 76
     1
 77
     6
 78
     2
 67
     7
 79
     5
170
     0
171
     0
290
     0
174
     0
 93
        1
 44
0.0
173
     0
291
     1
 45
0.0
1001
ACAD
1000
AcDbSavedByObjectVersion
1070
     0
  0
VISUALSTYLE
  5
33
102
{ACAD_REACTORS
330
2A
102
}
102
{ACAD_XDICTIONARY
360
359
102
}
330
2A
100
AcDbVisualStyle
  2
Realistic
 70
     8
 71
     2
 72
     3
 73
     0
 90
        2
 40
0.6
 41
30.0
 62
     5
 63
     7
421
 16777215
 74
     0
 91
        0
 64
     7
 65
   257
 75
     1
175
     1
 42
1.0
 92
        8
 66
   257
 43
1.0
 76
     1
 77
     6
 78
     2
 67
     7
 79
     3
170
     0
171
     0
290
     0
174
     0
 93
       13
 44
0.0
173
     0
291
     0
 45
0.0
1001
ACAD
1000
AcDbSavedByObjectVersion
1070
     0
  0
VISUALSTYLE
  5
42
102
{ACAD_REACTORS
330
2A
102
}
102
{ACAD_XDICTIONARY
360
377
102
}
330
2A
100
AcDbVisualStyle
  2
Shaded
 70
    27
 71
     2
 72
     2
 73
     1
 90
        2
 40
0.6
 41
30.0
 62
     5
 63
     7
421
 16777215
 74
     0
 91
        4
 64
     7
 65
   257
 75
     1
175
     1
 42
1.0
 92
        8
 66
   257
 43
1.0
 76
     1
 77
     6
 78
     2
 67
     8
425
  7895160
 79
     3
170
     0
171
     0
290
     0
174
     0
 93
        5
 44
0.0
173
     0
291
     0
 45
0.0
1001
ACAD
1000
AcDbSavedByObjectVersion
1070
     0
  0
VISUALSTYLE
  5
41
102
{ACAD_REACTORS
330
2A
102
}
102
{ACAD_XDICTIONARY
360
375
102
}
330
2A
100
AcDbVisualStyle
  2
Shaded with edges
 70
    26
 71
     2
 72
     2
 73
     1
 90
        2
 40
0.6
 41
30.0
 62
     5
 63
     7
421
 16777215
 74
     1
 91
       10
 64
     7
 65
   257
 75
     2
175
     1
 42
1.0
 92
        8
 66
   257
 43
1.0
 76
     1
 77
     6
 78
     2
 67
     7
 79
     3
170
     0
171
     0
290
     0
174
     0
 93
        5
 44
0.0
173
     0
291
     0
 45
0.0
1001
ACAD
1000
AcDbSavedByObjectVersion
1070
     0
  0
VISUALSTYLE
  5
3E
102
{ACAD_REACTORS
330
2A
102
}
102
{ACAD_XDICTIONARY
360
36F
102
}
330
2A
100
AcDbVisualStyle
  2
Shades of Gray
 70
    23
 71
     2
 72
     2
 73
     3
 90
        0
 40
0.6
 41
30.0
 62
     5
 63
     7
421
 16777215
 74
     2
 91
        2
 64
     7
 65
     7
 75
     1
175
     1
 42
40.0
 92
        8
 66
     7
 43
1.0
 76
     1
 77
     6
 78
     2
 67
     7
 79
     3
170
     0
171
     0
290
     0
174
     0
 93
        1
 44
0.0
173
     0
291
     0
 45
0.0
1001
ACAD
1000
AcDbSavedByObjectVersion
1070
     0
  0
VISUALSTYLE
  5
3F
102
{ACAD_REACTORS
330
2A
102
}
102
{ACAD_XDICTIONARY
360
371
102
}
330
2A
100
AcDbVisualStyle
  2
Sketchy
 70
    24
 71
     1
 72
     2
 73
     2
 90
        0
 40
0.6
 41
30.0
 62
     5
 63
     7
421
 16777215
 74
     2
 91
        2
 64
     7
 65
     7
 75
     1
175
     1
 42
40.0
 92
       11
 66
     7
 43
1.0
 76
     1
 77
     6
 78
     2
 67
     7
 79
     6
170
     0
171
     0
290
     0
174
     0
 93
        1
 44
0.0
173
     0
291
     0
 45
0.0
1001
ACAD
1000
AcDbSavedByObjectVersion
1070
     0
  0
VISUALSTYLE
  5
37
102
{ACAD_REACTORS
330
2A
102
}
102
{ACAD_XDICTIONARY
360
361
102
}
330
2A
100
AcDbVisualStyle
  2
Thicken
 70
    13
 71
     2
 72
     2
 73
     0
 90
        0
 40
0.6
 41
30.0
 62
     5
 63
     7
421
 16777215
 74
     1
 91
        4
 64
     7
 65
   257
 75
     1
175
     1
 42
1.0
 92
       12
 66
     7
 43
1.0
 76
     1
 77
     6
 78
     2
 67
     7
 79
     5
170
     0
171
     0
290
     0
174
     0
 93
        1
 44
0.0
173
     0
291
     1
 45
0.0
1001
ACAD
1000
AcDbSavedByObjectVersion
1070
     0
  0
VISUALSTYLE
  5
30
102
{ACAD_REACTORS
330
2A
102
}
102
{ACAD_XDICTIONARY
360
353
102
}
330
2A
100
AcDbVisualStyle
  2
Wireframe
 70
     5
 71
     0
 72
     2
 73
     0
 90
        0
 40
0.6
 41
30.0
 62
     5
 63
     7
421
 16777215
 74
     1
 91
        4
 64
     7
 65
   257
 75
     1
175
     1
 42
1.0
 92
        0
 66
   257
 43
1.0
 76
     1
 77
     6
 78
     2
 67
     7
 79
     3
170
     0
171
     0
290
     0
174
     0
 93
        1
 44
0.0
173
     0
291
     0
 45
0.0
1001
ACAD
1000
AcDbSavedByObjectVersion
1070
     0
  0
VISUALSTYLE
  5
40
102
{ACAD_REACTORS
330
2A
102
}
102
{ACAD_XDICTIONARY
360
373
102
}
330
2A
100
AcDbVisualStyle
  2
X-Ray
 70
    25
 71
     2
 72
     2
 73
     1
 90
        1
 40
0.5
 41
30.0
 62
     5
 63
     7
421
 16777215
 74
     1
 91
        0
 64
     7
 65
   257
 75
     1
175
     1
 42
1.0
 92
        8
 66
     7
 43
1.0
 76
     1
 77
     6
 78
     2
 67
     7
 79
     3
170
     0
171
     0
290
     0
174
     0
 93
       13
 44
0.0
173
     0
291
     0
 45
0.0
1001
ACAD
1000
AcDbSavedByObjectVersion
1070
     0
  0
DICTIONARYVAR
  5
346
102
{ACAD_REACTORS
330
345
102
}
330
345
100
DictionaryVariables
280
     0
  1
1:1
  0
DICTIONARYVAR
  5
38A
102
{ACAD_REACTORS
330
345
102
}
330
345
100
DictionaryVariables
280
     0
  1
3.500000
  0
DICTIONARYVAR
  5
38B
102
{ACAD_REACTORS
330
345
102
}
330
345
100
DictionaryVariables
280
     0
  1
acadiso.lin
  0
DICTIONARYVAR
  5
387
102
{ACAD_REACTORS
330
345
102
}
330
345
100
DictionaryVariables
280
     0
  1
Standard
  0
DICTIONARYVAR
  5
386
102
{ACAD_REACTORS
330
345
102
}
330
345
100
DictionaryVariables
280
     0
  1
Standard
  0
DICTIONARYVAR
  5
347
102
{ACAD_REACTORS
330
345
102
}
330
345
100
DictionaryVariables
280
     0
  1
1
  0
DICTIONARYVAR
  5
348
102
{ACAD_REACTORS
330
345
102
}
330
345
100
DictionaryVariables
280
     0
  1
2
  0
DICTIONARY
  5
37B
330
45
100
AcDbDictionary
280
     1
281
     1
  3
ACAD_XREC_ROUNDTRIP
360
37C
  0
DICTIONARY
  5
379
330
44
100
AcDbDictionary
280
     1
281
     1
  3
ACAD_XREC_ROUNDTRIP
360
37A
  0
DICTIONARY
  5
37D
330
46
100
AcDbDictionary
280
     1
281
     1
  3
ACAD_XREC_ROUNDTRIP
360
37E
  0
DICTIONARY
  5
383
330
6C
100
AcDbDictionary
280
     1
281
     1
  3
ACAD_XREC_ROUNDTRIP
360
384
  0
DICTIONARY
  5
37F
330
6A
100
AcDbDictionary
280
     1
281
     1
  3
ACAD_ROUNDTRIP_2008_TABLESTYLE_CELLSTYLEMAP
360
381
  3
ACAD_XREC_ROUNDTRIP
360
380
  0
DICTIONARY
  5
351
330
2F
100
AcDbDictionary
280
     1
281
     1
  3
ACAD_XREC_ROUNDTRIP
360
352
  0
DICTIONARY
  5
357
330
32
100
AcDbDictionary
280
     1
281
     1
  3
ACAD_XREC_ROUNDTRIP
360
358
  0
DICTIONARY
  5
35F
330
36
100
AcDbDictionary
280
     1
281
     1
  3
ACAD_XREC_ROUNDTRIP
360
360
  0
DICTIONARY
  5
367
330
3A
100
AcDbDictionary
280
     1
281
     1
  3
ACAD_XREC_ROUNDTRIP
360
368
  0
DICTIONARY
  5
35B
330
34
100
AcDbDictionary
280
     1
281
     1
  3
ACAD_XREC_ROUNDTRIP
360
35C
  0
DICTIONARY
  5
35D
330
35
100
AcDbDictionary
280
     1
281
     1
  3
ACAD_XREC_ROUNDTRIP
360
35E
  0
DICTIONARY
  5
36D
330
3D
100
AcDbDictionary
280
     1
281
     1
  3
ACAD_XREC_ROUNDTRIP
360
36E
  0
DICTIONARY
  5
365
330
39
100
AcDbDictionary
280
     1
281
     1
  3
ACAD_XREC_ROUNDTRIP
360
366
  0
DICTIONARY
  5
349
330
2B
100
AcDbDictionary
280
     1
281
     1
  3
ACAD_XREC_ROUNDTRIP
360
34A
  0
DICTIONARY
  5
34B
330
2C
100
AcDbDictionary
280
     1
281
     1
  3
ACAD_XREC_ROUNDTRIP
360
34C
  0
DICTIONARY
  5
34D
330
2D
100
AcDbDictionary
280
     1
281
     1
  3
ACAD_XREC_ROUNDTRIP
360
34E
  0
DICTIONARY
  5
34F
330
2E
100
AcDbDictionary
280
     1
281
     1
  3
ACAD_XREC_ROUNDTRIP
360
350
  0
DICTIONARY
  5
355
330
31
100
AcDbDictionary
280
     1
281
     1
  3
ACAD_XREC_ROUNDTRIP
360
356
  0
DICTIONARY
  5
369
330
3B
100
AcDbDictionary
280
     1
281
     1
  3
ACAD_XREC_ROUNDTRIP
360
36A
  0
DICTIONARY
  5
363
330
38
100
AcDbDictionary
280
     1
281
     1
  3
ACAD_XREC_ROUNDTRIP
360
364
  0
DICTIONARY
  5
36B
330
3C
100
AcDbDictionary
280
     1
281
     1
  3
ACAD_XREC_ROUNDTRIP
360
36C
  0
DICTIONARY
  5
359
330
33
100
AcDbDictionary
280
     1
281
     1
  3
ACAD_XREC_ROUNDTRIP
360
35A
  0
DICTIONARY
  5
377
330
42
100
AcDbDictionary
280
     1
281
     1
  3
ACAD_XREC_ROUNDTRIP
360
378
  0
DICTIONARY
  5
375
330
41
100
AcDbDictionary
280
     1
281
     1
  3
ACAD_XREC_ROUNDTRIP
360
376
  0
DICTIONARY
  5
36F
330
3E
100
AcDbDictionary
280
     1
281
     1
  3
ACAD_XREC_ROUNDTRIP
360
370
  0
DICTIONARY
  5
371
330
3F
100
AcDbDictionary
280
     1
281
     1
  3
ACAD_XREC_ROUNDTRIP
360
372
  0
DICTIONARY
  5
361
330
37
100
AcDbDictionary
280
     1
281
     1
  3
ACAD_XREC_ROUNDTRIP
360
362
  0
DICTIONARY
  5
353
330
30
100
AcDbDictionary
280
     1
281
     1
  3
ACAD_XREC_ROUNDTRIP
360
354
  0
DICTIONARY
  5
373
330
40
100
AcDbDictionary
280
     1
281
     1
  3
ACAD_XREC_ROUNDTRIP
360
374
  0
XRECORD
  5
37C
102
{ACAD_REACTORS
330
37B
102
}
330
37B
100
AcDbXrecord
280
     1
102
MATERIAL
148
0.0
149
0.0
149
0.0
 93
        0
 94
      127
282
     0
 72
     1
 77
     1
171
     1
175
     1
179
     1
273
     0
  0
XRECORD
  5
37A
102
{ACAD_REACTORS
330
379
102
}
330
379
100
AcDbXrecord
280
     1
102
MATERIAL
148
0.0
149
0.0
149
0.0
 93
        0
 94
      127
282
     0
 72
     1
 77
     1
171
     1
175
     1
179
     1
273
     0
  0
XRECORD
  5
37E
102
{ACAD_REACTORS
330
37D
102
}
330
37D
100
AcDbXrecord
280
     1
102
MATERIAL
148
0.0
149
0.0
149
0.0
 93
        0
 94
      127
282
     0
 72
     1
 77
     1
171
     1
175
     1
179
     1
273
     0
  0
XRECORD
  5
384
102
{ACAD_REACTORS
330
383
102
}
330
383
100
AcDbXrecord
280
     1
102
ACAD_ROUNDTRIP_2010_MLEADER_STYLE
  0
CELLSTYLEMAP
  5
381
102
{ACAD_REACTORS
330
37F
102
}
330
37F
100
AcDbCellStyleMap
 90
        3
300
CELLSTYLE
  1
TABLEFORMAT_BEGIN
 90
        5
170
     1
 91
        0
 92
    32768
 62
   257
 93
        1
300
CONTENTFORMAT
  1
CONTENTFORMAT_BEGIN
 90
        0
 91
        0
 92
        4
 93
        0
300

 40
0.0
140
1.0
 94
        5
 62
     0
340
11
144
6.0
309
CONTENTFORMAT_END
171
     1
301
MARGIN
  1
CELLMARGIN_BEGIN
 40
1.5
 40
1.5
 40
1.5
 40
1.5
 40
1.5
 40
1.5
309
CELLMARGIN_END
 94
        6
 95
        1
302
GRIDFORMAT
  1
GRIDFORMAT_BEGIN
 90
        0
 91
        1
 62
     0
 92
       -2
340
14
 93
        0
 40
0.045
309
GRIDFORMAT_END
 95
        2
302
GRIDFORMAT
  1
GRIDFORMAT_BEGIN
 90
        0
 91
        1
 62
     0
 92
       -2
340
14
 93
        0
 40
0.045
309
GRIDFORMAT_END
 95
        4
302
GRIDFORMAT
  1
GRIDFORMAT_BEGIN
 90
        0
 91
        1
 62
     0
 92
       -2
340
14
 93
        0
 40
0.045
309
GRIDFORMAT_END
 95
        8
302
GRIDFORMAT
  1
GRIDFORMAT_BEGIN
 90
        0
 91
        1
 62
     0
 92
       -2
340
14
 93
        0
 40
0.045
309
GRIDFORMAT_END
 95
       16
302
GRIDFORMAT
  1
GRIDFORMAT_BEGIN
 90
        0
 91
        1
 62
     0
 92
       -2
340
14
 93
        0
 40
0.045
309
GRIDFORMAT_END
 95
       32
302
GRIDFORMAT
  1
GRIDFORMAT_BEGIN
 90
        0
 91
        1
 62
     0
 92
       -2
340
14
 93
        0
 40
0.045
309
GRIDFORMAT_END
309
TABLEFORMAT_END
  1
CELLSTYLE_BEGIN
 90
        1
 91
        1
300
_TITLE
309
CELLSTYLE_END
300
CELLSTYLE
  1
TABLEFORMAT_BEGIN
 90
        5
170
     1
 91
        0
 92
        0
 62
   257
 93
        1
300
CONTENTFORMAT
  1
CONTENTFORMAT_BEGIN
 90
        0
 91
        0
 92
        4
 93
        0
300

 40
0.0
140
1.0
 94
        5
 62
     0
340
11
144
4.5
309
CONTENTFORMAT_END
171
     1
301
MARGIN
  1
CELLMARGIN_BEGIN
 40
1.5
 40
1.5
 40
1.5
 40
1.5
 40
1.5
 40
1.5
309
CELLMARGIN_END
 94
        6
 95
        1
302
GRIDFORMAT
  1
GRIDFORMAT_BEGIN
 90
        0
 91
        1
 62
     0
 92
       -2
340
14
 93
        0
 40
0.045
309
GRIDFORMAT_END
 95
        2
302
GRIDFORMAT
  1
GRIDFORMAT_BEGIN
 90
        0
 91
        1
 62
     0
 92
       -2
340
14
 93
        0
 40
0.045
309
GRIDFORMAT_END
 95
        4
302
GRIDFORMAT
  1
GRIDFORMAT_BEGIN
 90
        0
 91
        1
 62
     0
 92
       -2
340
14
 93
        0
 40
0.045
309
GRIDFORMAT_END
 95
        8
302
GRIDFORMAT
  1
GRIDFORMAT_BEGIN
 90
        0
 91
        1
 62
     0
 92
       -2
340
14
 93
        0
 40
0.045
309
GRIDFORMAT_END
 95
       16
302
GRIDFORMAT
  1
GRIDFORMAT_BEGIN
 90
        0
 91
        1
 62
     0
 92
       -2
340
14
 93
        0
 40
0.045
309
GRIDFORMAT_END
 95
       32
302
GRIDFORMAT
  1
GRIDFORMAT_BEGIN
 90
        0
 91
        1
 62
     0
 92
       -2
340
14
 93
        0
 40
0.045
309
GRIDFORMAT_END
309
TABLEFORMAT_END
  1
CELLSTYLE_BEGIN
 90
        2
 91
        1
300
_HEADER
309
CELLSTYLE_END
300
CELLSTYLE
  1
TABLEFORMAT_BEGIN
 90
        5
170
     1
 91
        0
 92
        0
 62
   257
 93
        1
300
CONTENTFORMAT
  1
CONTENTFORMAT_BEGIN
 90
        0
 91
        0
 92
        4
 93
        0
300

 40
0.0
140
1.0
 94
        2
 62
     0
340
11
144
4.5
309
CONTENTFORMAT_END
171
     1
301
MARGIN
  1
CELLMARGIN_BEGIN
 40
1.5
 40
1.5
 40
1.5
 40
1.5
 40
1.5
 40
1.5
309
CELLMARGIN_END
 94
        6
 95
        1
302
GRIDFORMAT
  1
GRIDFORMAT_BEGIN
 90
        0
 91
        1
 62
     0
 92
       -2
340
14
 93
        0
 40
0.045
309
GRIDFORMAT_END
 95
        2
302
GRIDFORMAT
  1
GRIDFORMAT_BEGIN
 90
        0
 91
        1
 62
     0
 92
       -2
340
14
 93
        0
 40
0.045
309
GRIDFORMAT_END
 95
        4
302
GRIDFORMAT
  1
GRIDFORMAT_BEGIN
 90
        0
 91
        1
 62
     0
 92
       -2
340
14
 93
        0
 40
0.045
309
GRIDFORMAT_END
 95
        8
302
GRIDFORMAT
  1
GRIDFORMAT_BEGIN
 90
        0
 91
        1
 62
     0
 92
       -2
340
14
 93
        0
 40
0.045
309
GRIDFORMAT_END
 95
       16
302
GRIDFORMAT
  1
GRIDFORMAT_BEGIN
 90
        0
 91
        1
 62
     0
 92
       -2
340
14
 93
        0
 40
0.045
309
GRIDFORMAT_END
 95
       32
302
GRIDFORMAT
  1
GRIDFORMAT_BEGIN
 90
        0
 91
        1
 62
     0
 92
       -2
340
14
 93
        0
 40
0.045
309
GRIDFORMAT_END
309
TABLEFORMAT_END
  1
CELLSTYLE_BEGIN
 90
        3
 91
        2
300
_DATA
309
CELLSTYLE_END
  0
XRECORD
  5
380
102
{ACAD_REACTORS
330
37F
102
}
330
37F
100
AcDbXrecord
280
     1
102
ACAD_ROUNDTRIP_PRE2007_TABLESTYLE
 90
        4
 91
        0
  1

 92
        4
 93
        0
  2

 94
        4
 95
        0
  3

  0
XRECORD
  5
352
102
{ACAD_REACTORS
330
351
102
}
330
351
100
AcDbXrecord
280
     1
102
RTVSPropertyOp0
 70
     1
102
RTVSPropertyOp1
 70
     1
102
RTVSPropertyOp2
 70
     1
102
RTVSPropertyOp3
 70
     1
102
RTVSPropertyOp4
 70
     1
102
RTVSPropertyOp5
 70
     1
102
RTVSPropertyOp6
 70
     1
102
RTVSPropertyOp7
 70
     1
102
RTVSPropertyOp8
 70
     1
102
RTVSPropertyOp9
 70
     1
102
RTVSPropertyOp10
 70
     1
102
RTVSPropertyOp11
 70
     1
102
RTVSPropertyOp12
 70
     1
102
RTVSPropertyOp13
 70
     1
102
RTVSPropertyOp14
 70
     1
102
RTVSPropertyOp15
 70
     1
102
RTVSPropertyOp16
 70
     1
102
RTVSPropertyOp17
 70
     1
102
RTVSPropertyOp18
 70
     1
102
RTVSPropertyOp19
 70
     1
102
RTVSPropertyOp20
 70
     1
102
RTVSPropertyOp21
 70
     1
102
RTVSPropertyOp22
 70
     1
102
RTVSPropertyOp23
 70
     1
102
RTVSPropertyOp24
 70
     1
102
RTVSPropertyOp25
 70
     1
102
RTVSPropertyOp26
 70
     1
102
RTVSPropertyOp27
 70
     1
102
RTVSPropertyOp28
 70
     1
102
RTVSPropertyOp29
 70
     1
102
RTVSPropertyOp30
 70
     1
102
RTVSPropertyOp31
 70
     1
102
RTVSPropertyOp32
 70
     1
102
RTVSPropertyOp33
 70
     1
102
RTVSPropertyOp34
 70
     1
102
RTVSPropertyOp35
 70
     1
102
RTVSPropertyOp36
 70
     1
102
RTVSPropertyOp37
 70
     1
102
RTVSPropertyOp38
 70
     1
102
RTVSPropertyOp39
 70
     1
102
RTVSPropertyOp40
 70
     1
102
RTVSPropertyOp41
 70
     1
102
RTVSPropertyOp42
 70
     1
102
RTVSPropertyOp43
 70
     1
102
RTVSPropertyOp44
 70
     1
102
RTVSPropertyOp45
 70
     1
102
RTVSPropertyOp46
 70
     1
102
RTVSPropertyOp47
 70
     1
102
RTVSPropertyOp48
 70
     1
102
RTVSPropertyOp49
 70
     1
102
RTVSPropertyOp50
 70
     1
102
RTVSPropertyOp51
 70
     0
102
RTVSPropertyOp52
 70
     0
102
RTVSPropertyOp53
 70
     1
102
RTVSPropertyOp54
 70
     1
102
RTVSPropertyOp55
 70
     1
102
RTVSPropertyOp56
 70
     1
102
RTVSPropertyOp57
 70
     1
102
RTVSPost2010Prop28
280
     1
102
RTVSPost2010PropOp28
 70
     1
102
RTVSPost2010Prop29
280
     1
102
RTVSPost2010PropOp29
 70
     1
102
RTVSPost2010Prop30
280
     0
102
RTVSPost2010PropOp30
 70
     1
102
RTVSPost2010Prop31
280
     0
102
RTVSPost2010PropOp31
 70
     1
102
RTVSPost2010Prop32
280
     0
102
RTVSPost2010PropOp32
 70
     1
102
RTVSPost2010Prop33
280
     0
102
RTVSPost2010PropOp33
 70
     1
102
RTVSPost2010Prop34
280
     0
102
RTVSPost2010PropOp34
 70
     1
102
RTVSPost2010Prop35
280
     0
102
RTVSPost2010PropOp35
 70
     1
102
RTVSPost2010Prop36
280
     0
102
RTVSPost2010PropOp36
 70
     1
102
RTVSPost2010Prop37
 90
       50
102
RTVSPost2010PropOp37
 70
     1
102
RTVSPost2010Prop38
140
0.0
102
RTVSPost2010PropOp38
 70
     1
102
RTVSPost2010Prop39
140
1.0
102
RTVSPost2010PropOp39
 70
     1
102
RTVSPost2010Prop40
 90
        0
102
RTVSPost2010PropOp40
 70
     1
102
RTVSPost2010Prop41ColorIndex
 90
       18
102
RTVSPost2010Prop41ColorRGB
 90
        0
102
RTVSPost2010PropOp41
 70
     1
102
RTVSPost2010Prop42
 90
       50
102
RTVSPost2010PropOp42
 70
     1
102
RTVSPost2010Prop43
 90
        3
102
RTVSPost2010PropOp43
 70
     1
102
RTVSPost2010Prop44ColorIndex
 90
        5
102
RTVSPost2010Prop44ColorRGB
 90
      255
102
RTVSPost2010PropOp44
 70
     1
102
RTVSPost2010Prop45
280
     0
102
RTVSPost2010PropOp45
 70
     1
102
RTVSPost2010Prop46
 90
       50
102
RTVSPost2010PropOp46
 70
     1
102
RTVSPost2010Prop47
 90
       50
102
RTVSPost2010PropOp47
 70
     1
102
RTVSPost2010Prop48
 90
       50
102
RTVSPost2010PropOp48
 70
     1
102
RTVSPost2010Prop49
280
     0
102
RTVSPost2010PropOp49
 70
     1
102
RTVSPost2010Prop50
 90
       50
102
RTVSPost2010PropOp50
 70
     1
102
RTVSPost2010Prop51ColorIndex
 90
      256
102
RTVSPost2010Prop51ColorRGB
 90
-16777216
102
RTVSPost2010PropOp51
 70
     0
102
RTVSPost2010Prop52
140
1.0
102
RTVSPost2010PropOp52
 70
     0
102
RTVSPost2010Prop53
 90
        2
102
RTVSPost2010PropOp53
 70
     1
102
RTVSPost2010Prop54
  1
strokes_ogs.tif
102
RTVSPost2010PropOp54
 70
     1
102
RTVSPost2010Prop55
280
     0
102
RTVSPost2010PropOp55
 70
     1
102
RTVSPost2010Prop56
140
1.0
102
RTVSPost2010PropOp56
 70
     1
102
RTVSPost2010Prop57
140
1.0
102
RTVSPost2010PropOp57
 70
     1
  0
XRECORD
  5
358
102
{ACAD_REACTORS
330
357
102
}
330
357
100
AcDbXrecord
280
     1
102
RTVSPropertyOp0
 70
     1
102
RTVSPropertyOp1
 70
     1
102
RTVSPropertyOp2
 70
     1
102
RTVSPropertyOp3
 70
     1
102
RTVSPropertyOp4
 70
     1
102
RTVSPropertyOp5
 70
     1
102
RTVSPropertyOp6
 70
     1
102
RTVSPropertyOp7
 70
     1
102
RTVSPropertyOp8
 70
     1
102
RTVSPropertyOp9
 70
     1
102
RTVSPropertyOp10
 70
     1
102
RTVSPropertyOp11
 70
     1
102
RTVSPropertyOp12
 70
     1
102
RTVSPropertyOp13
 70
     1
102
RTVSPropertyOp14
 70
     1
102
RTVSPropertyOp15
 70
     1
102
RTVSPropertyOp16
 70
     1
102
RTVSPropertyOp17
 70
     1
102
RTVSPropertyOp18
 70
     1
102
RTVSPropertyOp19
 70
     1
102
RTVSPropertyOp20
 70
     1
102
RTVSPropertyOp21
 70
     1
102
RTVSPropertyOp22
 70
     1
102
RTVSPropertyOp23
 70
     1
102
RTVSPropertyOp24
 70
     1
102
RTVSPropertyOp25
 70
     1
102
RTVSPropertyOp26
 70
     1
102
RTVSPropertyOp27
 70
     1
102
RTVSPropertyOp28
 70
     1
102
RTVSPropertyOp29
 70
     1
102
RTVSPropertyOp30
 70
     1
102
RTVSPropertyOp31
 70
     1
102
RTVSPropertyOp32
 70
     1
102
RTVSPropertyOp33
 70
     1
102
RTVSPropertyOp34
 70
     1
102
RTVSPropertyOp35
 70
     1
102
RTVSPropertyOp36
 70
     1
102
RTVSPropertyOp37
 70
     1
102
RTVSPropertyOp38
 70
     1
102
RTVSPropertyOp39
 70
     1
102
RTVSPropertyOp40
 70
     1
102
RTVSPropertyOp41
 70
     1
102
RTVSPropertyOp42
 70
     1
102
RTVSPropertyOp43
 70
     1
102
RTVSPropertyOp44
 70
     1
102
RTVSPropertyOp45
 70
     1
102
RTVSPropertyOp46
 70
     1
102
RTVSPropertyOp47
 70
     1
102
RTVSPropertyOp48
 70
     1
102
RTVSPropertyOp49
 70
     1
102
RTVSPropertyOp50
 70
     1
102
RTVSPropertyOp51
 70
     0
102
RTVSPropertyOp52
 70
     0
102
RTVSPropertyOp53
 70
     1
102
RTVSPropertyOp54
 70
     1
102
RTVSPropertyOp55
 70
     1
102
RTVSPropertyOp56
 70
     1
102
RTVSPropertyOp57
 70
     1
102
RTVSPost2010Prop28
280
     0
102
RTVSPost2010PropOp28
 70
     1
102
RTVSPost2010Prop29
280
     1
102
RTVSPost2010PropOp29
 70
     1
102
RTVSPost2010Prop30
280
     1
102
RTVSPost2010PropOp30
 70
     1
102
RTVSPost2010Prop31
280
     0
102
RTVSPost2010PropOp31
 70
     1
102
RTVSPost2010Prop32
280
     0
102
RTVSPost2010PropOp32
 70
     1
102
RTVSPost2010Prop33
280
     0
102
RTVSPost2010PropOp33
 70
     1
102
RTVSPost2010Prop34
280
     0
102
RTVSPost2010PropOp34
 70
     1
102
RTVSPost2010Prop35
280
     0
102
RTVSPost2010PropOp35
 70
     1
102
RTVSPost2010Prop36
280
     0
102
RTVSPost2010PropOp36
 70
     1
102
RTVSPost2010Prop37
 90
       50
102
RTVSPost2010PropOp37
 70
     1
102
RTVSPost2010Prop38
140
0.0
102
RTVSPost2010PropOp38
 70
     1
102
RTVSPost2010Prop39
140
1.0
102
RTVSPost2010PropOp39
 70
     1
102
RTVSPost2010Prop40
 90
        0
102
RTVSPost2010PropOp40
 70
     1
102
RTVSPost2010Prop41ColorIndex
 90
       18
102
RTVSPost2010Prop41ColorRGB
 90
        0
102
RTVSPost2010PropOp41
 70
     1
102
RTVSPost2010Prop42
 90
       50
102
RTVSPost2010PropOp42
 70
     1
102
RTVSPost2010Prop43
 90
        3
102
RTVSPost2010PropOp43
 70
     1
102
RTVSPost2010Prop44ColorIndex
 90
        5
102
RTVSPost2010Prop44ColorRGB
 90
      255
102
RTVSPost2010PropOp44
 70
     1
102
RTVSPost2010Prop45
280
     0
102
RTVSPost2010PropOp45
 70
     1
102
RTVSPost2010Prop46
 90
       50
102
RTVSPost2010PropOp46
 70
     1
102
RTVSPost2010Prop47
 90
       50
102
RTVSPost2010PropOp47
 70
     1
102
RTVSPost2010Prop48
 90
       50
102
RTVSPost2010PropOp48
 70
     1
102
RTVSPost2010Prop49
280
     0
102
RTVSPost2010PropOp49
 70
     1
102
RTVSPost2010Prop50
 90
       50
102
RTVSPost2010PropOp50
 70
     1
102
RTVSPost2010Prop51ColorIndex
 90
      256
102
RTVSPost2010Prop51ColorRGB
 90
-16777216
102
RTVSPost2010PropOp51
 70
     0
102
RTVSPost2010Prop52
140
1.0
102
RTVSPost2010PropOp52
 70
     0
102
RTVSPost2010Prop53
 90
        2
102
RTVSPost2010PropOp53
 70
     1
102
RTVSPost2010Prop54
  1
strokes_ogs.tif
102
RTVSPost2010PropOp54
 70
     1
102
RTVSPost2010Prop55
280
     0
102
RTVSPost2010PropOp55
 70
     1
102
RTVSPost2010Prop56
140
1.0
102
RTVSPost2010PropOp56
 70
     1
102
RTVSPost2010Prop57
140
1.0
102
RTVSPost2010PropOp57
 70
     1
  0
XRECORD
  5
360
102
{ACAD_REACTORS
330
35F
102
}
330
35F
100
AcDbXrecord
280
     1
102
RTVSPropertyOp0
 70
     1
102
RTVSPropertyOp1
 70
     1
102
RTVSPropertyOp2
 70
     1
102
RTVSPropertyOp3
 70
     1
102
RTVSPropertyOp4
 70
     1
102
RTVSPropertyOp5
 70
     1
102
RTVSPropertyOp6
 70
     1
102
RTVSPropertyOp7
 70
     1
102
RTVSPropertyOp8
 70
     1
102
RTVSPropertyOp9
 70
     1
102
RTVSPropertyOp10
 70
     1
102
RTVSPropertyOp11
 70
     1
102
RTVSPropertyOp12
 70
     1
102
RTVSPropertyOp13
 70
     1
102
RTVSPropertyOp14
 70
     1
102
RTVSPropertyOp15
 70
     1
102
RTVSPropertyOp16
 70
     1
102
RTVSPropertyOp17
 70
     1
102
RTVSPropertyOp18
 70
     1
102
RTVSPropertyOp19
 70
     1
102
RTVSPropertyOp20
 70
     1
102
RTVSPropertyOp21
 70
     1
102
RTVSPropertyOp22
 70
     1
102
RTVSPropertyOp23
 70
     1
102
RTVSPropertyOp24
 70
     1
102
RTVSPropertyOp25
 70
     1
102
RTVSPropertyOp26
 70
     1
102
RTVSPropertyOp27
 70
     1
102
RTVSPropertyOp28
 70
     1
102
RTVSPropertyOp29
 70
     1
102
RTVSPropertyOp30
 70
     1
102
RTVSPropertyOp31
 70
     1
102
RTVSPropertyOp32
 70
     1
102
RTVSPropertyOp33
 70
     1
102
RTVSPropertyOp34
 70
     1
102
RTVSPropertyOp35
 70
     1
102
RTVSPropertyOp36
 70
     1
102
RTVSPropertyOp37
 70
     1
102
RTVSPropertyOp38
 70
     1
102
RTVSPropertyOp39
 70
     1
102
RTVSPropertyOp40
 70
     1
102
RTVSPropertyOp41
 70
     1
102
RTVSPropertyOp42
 70
     1
102
RTVSPropertyOp43
 70
     1
102
RTVSPropertyOp44
 70
     1
102
RTVSPropertyOp45
 70
     1
102
RTVSPropertyOp46
 70
     1
102
RTVSPropertyOp47
 70
     1
102
RTVSPropertyOp48
 70
     1
102
RTVSPropertyOp49
 70
     1
102
RTVSPropertyOp50
 70
     1
102
RTVSPropertyOp51
 70
     0
102
RTVSPropertyOp52
 70
     0
102
RTVSPropertyOp53
 70
     1
102
RTVSPropertyOp54
 70
     1
102
RTVSPropertyOp55
 70
     1
102
RTVSPropertyOp56
 70
     1
102
RTVSPropertyOp57
 70
     1
102
RTVSPost2010Prop28
280
     0
102
RTVSPost2010PropOp28
 70
     1
102
RTVSPost2010Prop29
280
     1
102
RTVSPost2010PropOp29
 70
     1
102
RTVSPost2010Prop30
280
     1
102
RTVSPost2010PropOp30
 70
     1
102
RTVSPost2010Prop31
280
     0
102
RTVSPost2010PropOp31
 70
     1
102
RTVSPost2010Prop32
280
     0
102
RTVSPost2010PropOp32
 70
     1
102
RTVSPost2010Prop33
280
     0
102
RTVSPost2010PropOp33
 70
     1
102
RTVSPost2010Prop34
280
     0
102
RTVSPost2010PropOp34
 70
     1
102
RTVSPost2010Prop35
280
     0
102
RTVSPost2010PropOp35
 70
     1
102
RTVSPost2010Prop36
280
     0
102
RTVSPost2010PropOp36
 70
     1
102
RTVSPost2010Prop37
 90
       50
102
RTVSPost2010PropOp37
 70
     1
102
RTVSPost2010Prop38
140
0.0
102
RTVSPost2010PropOp38
 70
     1
102
RTVSPost2010Prop39
140
1.0
102
RTVSPost2010PropOp39
 70
     1
102
RTVSPost2010Prop40
 90
        0
102
RTVSPost2010PropOp40
 70
     1
102
RTVSPost2010Prop41ColorIndex
 90
       18
102
RTVSPost2010Prop41ColorRGB
 90
        0
102
RTVSPost2010PropOp41
 70
     1
102
RTVSPost2010Prop42
 90
       50
102
RTVSPost2010PropOp42
 70
     1
102
RTVSPost2010Prop43
 90
        3
102
RTVSPost2010PropOp43
 70
     1
102
RTVSPost2010Prop44ColorIndex
 90
        5
102
RTVSPost2010Prop44ColorRGB
 90
      255
102
RTVSPost2010PropOp44
 70
     1
102
RTVSPost2010Prop45
280
     0
102
RTVSPost2010PropOp45
 70
     1
102
RTVSPost2010Prop46
 90
       50
102
RTVSPost2010PropOp46
 70
     1
102
RTVSPost2010Prop47
 90
       50
102
RTVSPost2010PropOp47
 70
     1
102
RTVSPost2010Prop48
 90
       50
102
RTVSPost2010PropOp48
 70
     1
102
RTVSPost2010Prop49
280
     0
102
RTVSPost2010PropOp49
 70
     1
102
RTVSPost2010Prop50
 90
       50
102
RTVSPost2010PropOp50
 70
     1
102
RTVSPost2010Prop51ColorIndex
 90
      256
102
RTVSPost2010Prop51ColorRGB
 90
-16777216
102
RTVSPost2010PropOp51
 70
     0
102
RTVSPost2010Prop52
140
1.0
102
RTVSPost2010PropOp52
 70
     0
102
RTVSPost2010Prop53
 90
        2
102
RTVSPost2010PropOp53
 70
     1
102
RTVSPost2010Prop54
  1
strokes_ogs.tif
102
RTVSPost2010PropOp54
 70
     1
102
RTVSPost2010Prop55
280
     0
102
RTVSPost2010PropOp55
 70
     1
102
RTVSPost2010Prop56
140
1.0
102
RTVSPost2010PropOp56
 70
     1
102
RTVSPost2010Prop57
140
1.0
102
RTVSPost2010PropOp57
 70
     1
  0
XRECORD
  5
368
102
{ACAD_REACTORS
330
367
102
}
330
367
100
AcDbXrecord
280
     1
102
RTVSPropertyOp0
 70
     1
102
RTVSPropertyOp1
 70
     1
102
RTVSPropertyOp2
 70
     1
102
RTVSPropertyOp3
 70
     1
102
RTVSPropertyOp4
 70
     1
102
RTVSPropertyOp5
 70
     1
102
RTVSPropertyOp6
 70
     1
102
RTVSPropertyOp7
 70
     1
102
RTVSPropertyOp8
 70
     1
102
RTVSPropertyOp9
 70
     1
102
RTVSPropertyOp10
 70
     1
102
RTVSPropertyOp11
 70
     1
102
RTVSPropertyOp12
 70
     1
102
RTVSPropertyOp13
 70
     1
102
RTVSPropertyOp14
 70
     1
102
RTVSPropertyOp15
 70
     1
102
RTVSPropertyOp16
 70
     1
102
RTVSPropertyOp17
 70
     1
102
RTVSPropertyOp18
 70
     1
102
RTVSPropertyOp19
 70
     1
102
RTVSPropertyOp20
 70
     1
102
RTVSPropertyOp21
 70
     1
102
RTVSPropertyOp22
 70
     1
102
RTVSPropertyOp23
 70
     1
102
RTVSPropertyOp24
 70
     1
102
RTVSPropertyOp25
 70
     1
102
RTVSPropertyOp26
 70
     1
102
RTVSPropertyOp27
 70
     1
102
RTVSPropertyOp28
 70
     1
102
RTVSPropertyOp29
 70
     1
102
RTVSPropertyOp30
 70
     1
102
RTVSPropertyOp31
 70
     1
102
RTVSPropertyOp32
 70
     1
102
RTVSPropertyOp33
 70
     1
102
RTVSPropertyOp34
 70
     1
102
RTVSPropertyOp35
 70
     1
102
RTVSPropertyOp36
 70
     1
102
RTVSPropertyOp37
 70
     1
102
RTVSPropertyOp38
 70
     1
102
RTVSPropertyOp39
 70
     1
102
RTVSPropertyOp40
 70
     1
102
RTVSPropertyOp41
 70
     1
102
RTVSPropertyOp42
 70
     1
102
RTVSPropertyOp43
 70
     1
102
RTVSPropertyOp44
 70
     1
102
RTVSPropertyOp45
 70
     1
102
RTVSPropertyOp46
 70
     1
102
RTVSPropertyOp47
 70
     1
102
RTVSPropertyOp48
 70
     1
102
RTVSPropertyOp49
 70
     1
102
RTVSPropertyOp50
 70
     1
102
RTVSPropertyOp51
 70
     0
102
RTVSPropertyOp52
 70
     0
102
RTVSPropertyOp53
 70
     1
102
RTVSPropertyOp54
 70
     1
102
RTVSPropertyOp55
 70
     1
102
RTVSPropertyOp56
 70
     1
102
RTVSPropertyOp57
 70
     1
102
RTVSPost2010Prop28
280
     0
102
RTVSPost2010PropOp28
 70
     1
102
RTVSPost2010Prop29
280
     1
102
RTVSPost2010PropOp29
 70
     1
102
RTVSPost2010Prop30
280
     1
102
RTVSPost2010PropOp30
 70
     1
102
RTVSPost2010Prop31
280
     0
102
RTVSPost2010PropOp31
 70
     1
102
RTVSPost2010Prop32
280
     0
102
RTVSPost2010PropOp32
 70
     1
102
RTVSPost2010Prop33
280
     0
102
RTVSPost2010PropOp33
 70
     1
102
RTVSPost2010Prop34
280
     0
102
RTVSPost2010PropOp34
 70
     1
102
RTVSPost2010Prop35
280
     0
102
RTVSPost2010PropOp35
 70
     1
102
RTVSPost2010Prop36
280
     0
102
RTVSPost2010PropOp36
 70
     1
102
RTVSPost2010Prop37
 90
       50
102
RTVSPost2010PropOp37
 70
     1
102
RTVSPost2010Prop38
140
0.0
102
RTVSPost2010PropOp38
 70
     1
102
RTVSPost2010Prop39
140
1.0
102
RTVSPost2010PropOp39
 70
     1
102
RTVSPost2010Prop40
 90
        0
102
RTVSPost2010PropOp40
 70
     1
102
RTVSPost2010Prop41ColorIndex
 90
       18
102
RTVSPost2010Prop41ColorRGB
 90
        0
102
RTVSPost2010PropOp41
 70
     1
102
RTVSPost2010Prop42
 90
       50
102
RTVSPost2010PropOp42
 70
     1
102
RTVSPost2010Prop43
 90
        3
102
RTVSPost2010PropOp43
 70
     1
102
RTVSPost2010Prop44ColorIndex
 90
        5
102
RTVSPost2010Prop44ColorRGB
 90
      255
102
RTVSPost2010PropOp44
 70
     1
102
RTVSPost2010Prop45
280
     0
102
RTVSPost2010PropOp45
 70
     1
102
RTVSPost2010Prop46
 90
       50
102
RTVSPost2010PropOp46
 70
     1
102
RTVSPost2010Prop47
 90
       50
102
RTVSPost2010PropOp47
 70
     1
102
RTVSPost2010Prop48
 90
       50
102
RTVSPost2010PropOp48
 70
     1
102
RTVSPost2010Prop49
280
     0
102
RTVSPost2010PropOp49
 70
     1
102
RTVSPost2010Prop50
 90
       50
102
RTVSPost2010PropOp50
 70
     1
102
RTVSPost2010Prop51ColorIndex
 90
      256
102
RTVSPost2010Prop51ColorRGB
 90
-16777216
102
RTVSPost2010PropOp51
 70
     0
102
RTVSPost2010Prop52
140
1.0
102
RTVSPost2010PropOp52
 70
     0
102
RTVSPost2010Prop53
 90
        2
102
RTVSPost2010PropOp53
 70
     1
102
RTVSPost2010Prop54
  1
strokes_ogs.tif
102
RTVSPost2010PropOp54
 70
     1
102
RTVSPost2010Prop55
280
     0
102
RTVSPost2010PropOp55
 70
     1
102
RTVSPost2010Prop56
140
1.0
102
RTVSPost2010PropOp56
 70
     1
102
RTVSPost2010Prop57
140
1.0
102
RTVSPost2010PropOp57
 70
     1
  0
XRECORD
  5
35C
102
{ACAD_REACTORS
330
35B
102
}
330
35B
100
AcDbXrecord
280
     1
102
RTVSPropertyOp0
 70
     1
102
RTVSPropertyOp1
 70
     1
102
RTVSPropertyOp2
 70
     1
102
RTVSPropertyOp3
 70
     1
102
RTVSPropertyOp4
 70
     1
102
RTVSPropertyOp5
 70
     1
102
RTVSPropertyOp6
 70
     1
102
RTVSPropertyOp7
 70
     1
102
RTVSPropertyOp8
 70
     1
102
RTVSPropertyOp9
 70
     1
102
RTVSPropertyOp10
 70
     1
102
RTVSPropertyOp11
 70
     1
102
RTVSPropertyOp12
 70
     1
102
RTVSPropertyOp13
 70
     1
102
RTVSPropertyOp14
 70
     1
102
RTVSPropertyOp15
 70
     1
102
RTVSPropertyOp16
 70
     1
102
RTVSPropertyOp17
 70
     1
102
RTVSPropertyOp18
 70
     1
102
RTVSPropertyOp19
 70
     1
102
RTVSPropertyOp20
 70
     1
102
RTVSPropertyOp21
 70
     1
102
RTVSPropertyOp22
 70
     1
102
RTVSPropertyOp23
 70
     1
102
RTVSPropertyOp24
 70
     1
102
RTVSPropertyOp25
 70
     1
102
RTVSPropertyOp26
 70
     1
102
RTVSPropertyOp27
 70
     1
102
RTVSPropertyOp28
 70
     1
102
RTVSPropertyOp29
 70
     1
102
RTVSPropertyOp30
 70
     1
102
RTVSPropertyOp31
 70
     1
102
RTVSPropertyOp32
 70
     1
102
RTVSPropertyOp33
 70
     1
102
RTVSPropertyOp34
 70
     1
102
RTVSPropertyOp35
 70
     1
102
RTVSPropertyOp36
 70
     1
102
RTVSPropertyOp37
 70
     1
102
RTVSPropertyOp38
 70
     1
102
RTVSPropertyOp39
 70
     1
102
RTVSPropertyOp40
 70
     1
102
RTVSPropertyOp41
 70
     1
102
RTVSPropertyOp42
 70
     1
102
RTVSPropertyOp43
 70
     1
102
RTVSPropertyOp44
 70
     1
102
RTVSPropertyOp45
 70
     1
102
RTVSPropertyOp46
 70
     1
102
RTVSPropertyOp47
 70
     1
102
RTVSPropertyOp48
 70
     1
102
RTVSPropertyOp49
 70
     1
102
RTVSPropertyOp50
 70
     1
102
RTVSPropertyOp51
 70
     0
102
RTVSPropertyOp52
 70
     0
102
RTVSPropertyOp53
 70
     1
102
RTVSPropertyOp54
 70
     1
102
RTVSPropertyOp55
 70
     1
102
RTVSPropertyOp56
 70
     1
102
RTVSPropertyOp57
 70
     1
102
RTVSPost2010Prop28
280
     0
102
RTVSPost2010PropOp28
 70
     1
102
RTVSPost2010Prop29
280
     1
102
RTVSPost2010PropOp29
 70
     1
102
RTVSPost2010Prop30
280
     1
102
RTVSPost2010PropOp30
 70
     1
102
RTVSPost2010Prop31
280
     0
102
RTVSPost2010PropOp31
 70
     1
102
RTVSPost2010Prop32
280
     0
102
RTVSPost2010PropOp32
 70
     1
102
RTVSPost2010Prop33
280
     0
102
RTVSPost2010PropOp33
 70
     1
102
RTVSPost2010Prop34
280
     0
102
RTVSPost2010PropOp34
 70
     1
102
RTVSPost2010Prop35
280
     0
102
RTVSPost2010PropOp35
 70
     1
102
RTVSPost2010Prop36
280
     0
102
RTVSPost2010PropOp36
 70
     1
102
RTVSPost2010Prop37
 90
       50
102
RTVSPost2010PropOp37
 70
     1
102
RTVSPost2010Prop38
140
0.0
102
RTVSPost2010PropOp38
 70
     1
102
RTVSPost2010Prop39
140
1.0
102
RTVSPost2010PropOp39
 70
     1
102
RTVSPost2010Prop40
 90
        0
102
RTVSPost2010PropOp40
 70
     1
102
RTVSPost2010Prop41ColorIndex
 90
       18
102
RTVSPost2010Prop41ColorRGB
 90
        0
102
RTVSPost2010PropOp41
 70
     1
102
RTVSPost2010Prop42
 90
       50
102
RTVSPost2010PropOp42
 70
     1
102
RTVSPost2010Prop43
 90
        3
102
RTVSPost2010PropOp43
 70
     1
102
RTVSPost2010Prop44ColorIndex
 90
        5
102
RTVSPost2010Prop44ColorRGB
 90
      255
102
RTVSPost2010PropOp44
 70
     1
102
RTVSPost2010Prop45
280
     0
102
RTVSPost2010PropOp45
 70
     1
102
RTVSPost2010Prop46
 90
       50
102
RTVSPost2010PropOp46
 70
     1
102
RTVSPost2010Prop47
 90
       50
102
RTVSPost2010PropOp47
 70
     1
102
RTVSPost2010Prop48
 90
       50
102
RTVSPost2010PropOp48
 70
     1
102
RTVSPost2010Prop49
280
     0
102
RTVSPost2010PropOp49
 70
     1
102
RTVSPost2010Prop50
 90
       50
102
RTVSPost2010PropOp50
 70
     1
102
RTVSPost2010Prop51ColorIndex
 90
      256
102
RTVSPost2010Prop51ColorRGB
 90
-16777216
102
RTVSPost2010PropOp51
 70
     0
102
RTVSPost2010Prop52
140
1.0
102
RTVSPost2010PropOp52
 70
     0
102
RTVSPost2010Prop53
 90
        2
102
RTVSPost2010PropOp53
 70
     1
102
RTVSPost2010Prop54
  1
strokes_ogs.tif
102
RTVSPost2010PropOp54
 70
     1
102
RTVSPost2010Prop55
280
     0
102
RTVSPost2010PropOp55
 70
     1
102
RTVSPost2010Prop56
140
1.0
102
RTVSPost2010PropOp56
 70
     1
102
RTVSPost2010Prop57
140
1.0
102
RTVSPost2010PropOp57
 70
     1
  0
XRECORD
  5
35E
102
{ACAD_REACTORS
330
35D
102
}
330
35D
100
AcDbXrecord
280
     1
102
RTVSPropertyOp0
 70
     1
102
RTVSPropertyOp1
 70
     1
102
RTVSPropertyOp2
 70
     1
102
RTVSPropertyOp3
 70
     1
102
RTVSPropertyOp4
 70
     1
102
RTVSPropertyOp5
 70
     1
102
RTVSPropertyOp6
 70
     1
102
RTVSPropertyOp7
 70
     1
102
RTVSPropertyOp8
 70
     1
102
RTVSPropertyOp9
 70
     1
102
RTVSPropertyOp10
 70
     1
102
RTVSPropertyOp11
 70
     1
102
RTVSPropertyOp12
 70
     1
102
RTVSPropertyOp13
 70
     1
102
RTVSPropertyOp14
 70
     1
102
RTVSPropertyOp15
 70
     1
102
RTVSPropertyOp16
 70
     1
102
RTVSPropertyOp17
 70
     1
102
RTVSPropertyOp18
 70
     1
102
RTVSPropertyOp19
 70
     1
102
RTVSPropertyOp20
 70
     1
102
RTVSPropertyOp21
 70
     1
102
RTVSPropertyOp22
 70
     1
102
RTVSPropertyOp23
 70
     1
102
RTVSPropertyOp24
 70
     1
102
RTVSPropertyOp25
 70
     1
102
RTVSPropertyOp26
 70
     1
102
RTVSPropertyOp27
 70
     1
102
RTVSPropertyOp28
 70
     1
102
RTVSPropertyOp29
 70
     1
102
RTVSPropertyOp30
 70
     1
102
RTVSPropertyOp31
 70
     1
102
RTVSPropertyOp32
 70
     1
102
RTVSPropertyOp33
 70
     1
102
RTVSPropertyOp34
 70
     1
102
RTVSPropertyOp35
 70
     1
102
RTVSPropertyOp36
 70
     1
102
RTVSPropertyOp37
 70
     1
102
RTVSPropertyOp38
 70
     1
102
RTVSPropertyOp39
 70
     1
102
RTVSPropertyOp40
 70
     1
102
RTVSPropertyOp41
 70
     1
102
RTVSPropertyOp42
 70
     1
102
RTVSPropertyOp43
 70
     1
102
RTVSPropertyOp44
 70
     1
102
RTVSPropertyOp45
 70
     1
102
RTVSPropertyOp46
 70
     1
102
RTVSPropertyOp47
 70
     1
102
RTVSPropertyOp48
 70
     1
102
RTVSPropertyOp49
 70
     1
102
RTVSPropertyOp50
 70
     1
102
RTVSPropertyOp51
 70
     0
102
RTVSPropertyOp52
 70
     0
102
RTVSPropertyOp53
 70
     1
102
RTVSPropertyOp54
 70
     1
102
RTVSPropertyOp55
 70
     1
102
RTVSPropertyOp56
 70
     1
102
RTVSPropertyOp57
 70
     1
102
RTVSPost2010Prop28
280
     0
102
RTVSPost2010PropOp28
 70
     1
102
RTVSPost2010Prop29
280
     1
102
RTVSPost2010PropOp29
 70
     1
102
RTVSPost2010Prop30
280
     1
102
RTVSPost2010PropOp30
 70
     1
102
RTVSPost2010Prop31
280
     0
102
RTVSPost2010PropOp31
 70
     1
102
RTVSPost2010Prop32
280
     0
102
RTVSPost2010PropOp32
 70
     1
102
RTVSPost2010Prop33
280
     0
102
RTVSPost2010PropOp33
 70
     1
102
RTVSPost2010Prop34
280
     0
102
RTVSPost2010PropOp34
 70
     1
102
RTVSPost2010Prop35
280
     0
102
RTVSPost2010PropOp35
 70
     1
102
RTVSPost2010Prop36
280
     0
102
RTVSPost2010PropOp36
 70
     1
102
RTVSPost2010Prop37
 90
       50
102
RTVSPost2010PropOp37
 70
     1
102
RTVSPost2010Prop38
140
0.0
102
RTVSPost2010PropOp38
 70
     1
102
RTVSPost2010Prop39
140
1.0
102
RTVSPost2010PropOp39
 70
     1
102
RTVSPost2010Prop40
 90
        0
102
RTVSPost2010PropOp40
 70
     1
102
RTVSPost2010Prop41ColorIndex
 90
       18
102
RTVSPost2010Prop41ColorRGB
 90
        0
102
RTVSPost2010PropOp41
 70
     1
102
RTVSPost2010Prop42
 90
       50
102
RTVSPost2010PropOp42
 70
     1
102
RTVSPost2010Prop43
 90
        3
102
RTVSPost2010PropOp43
 70
     1
102
RTVSPost2010Prop44ColorIndex
 90
        5
102
RTVSPost2010Prop44ColorRGB
 90
      255
102
RTVSPost2010PropOp44
 70
     1
102
RTVSPost2010Prop45
280
     0
102
RTVSPost2010PropOp45
 70
     1
102
RTVSPost2010Prop46
 90
       50
102
RTVSPost2010PropOp46
 70
     1
102
RTVSPost2010Prop47
 90
       50
102
RTVSPost2010PropOp47
 70
     1
102
RTVSPost2010Prop48
 90
       50
102
RTVSPost2010PropOp48
 70
     1
102
RTVSPost2010Prop49
280
     0
102
RTVSPost2010PropOp49
 70
     1
102
RTVSPost2010Prop50
 90
       50
102
RTVSPost2010PropOp50
 70
     1
102
RTVSPost2010Prop51ColorIndex
 90
      256
102
RTVSPost2010Prop51ColorRGB
 90
-16777216
102
RTVSPost2010PropOp51
 70
     0
102
RTVSPost2010Prop52
140
1.0
102
RTVSPost2010PropOp52
 70
     0
102
RTVSPost2010Prop53
 90
        2
102
RTVSPost2010PropOp53
 70
     1
102
RTVSPost2010Prop54
  1
strokes_ogs.tif
102
RTVSPost2010PropOp54
 70
     1
102
RTVSPost2010Prop55
280
     0
102
RTVSPost2010PropOp55
 70
     1
102
RTVSPost2010Prop56
140
1.0
102
RTVSPost2010PropOp56
 70
     1
102
RTVSPost2010Prop57
140
1.0
102
RTVSPost2010PropOp57
 70
     1
  0
XRECORD
  5
36E
102
{ACAD_REACTORS
330
36D
102
}
330
36D
100
AcDbXrecord
280
     1
102
RTVSPropertyOp0
 70
     0
102
RTVSPropertyOp1
 70
     0
102
RTVSPropertyOp2
 70
     0
102
RTVSPropertyOp3
 70
     0
102
RTVSPropertyOp4
 70
     0
102
RTVSPropertyOp5
 70
     0
102
RTVSPropertyOp6
 70
     0
102
RTVSPropertyOp7
 70
     0
102
RTVSPropertyOp8
 70
     0
102
RTVSPropertyOp9
 70
     0
102
RTVSPropertyOp10
 70
     0
102
RTVSPropertyOp11
 70
     0
102
RTVSPropertyOp12
 70
     0
102
RTVSPropertyOp13
 70
     0
102
RTVSPropertyOp14
 70
     2
102
RTVSPropertyOp15
 70
     0
102
RTVSPropertyOp16
 70
     0
102
RTVSPropertyOp17
 70
     0
102
RTVSPropertyOp18
 70
     0
102
RTVSPropertyOp19
 70
     0
102
RTVSPropertyOp20
 70
     0
102
RTVSPropertyOp21
 70
     0
102
RTVSPropertyOp22
 70
     0
102
RTVSPropertyOp23
 70
     0
102
RTVSPropertyOp24
 70
     0
102
RTVSPropertyOp25
 70
     0
102
RTVSPropertyOp26
 70
     0
102
RTVSPropertyOp27
 70
     0
102
RTVSPropertyOp28
 70
     0
102
RTVSPropertyOp29
 70
     0
102
RTVSPropertyOp30
 70
     0
102
RTVSPropertyOp31
 70
     0
102
RTVSPropertyOp32
 70
     0
102
RTVSPropertyOp33
 70
     0
102
RTVSPropertyOp34
 70
     0
102
RTVSPropertyOp35
 70
     0
102
RTVSPropertyOp36
 70
     0
102
RTVSPropertyOp37
 70
     0
102
RTVSPropertyOp38
 70
     0
102
RTVSPropertyOp39
 70
     0
102
RTVSPropertyOp40
 70
     0
102
RTVSPropertyOp41
 70
     0
102
RTVSPropertyOp42
 70
     0
102
RTVSPropertyOp43
 70
     0
102
RTVSPropertyOp44
 70
     0
102
RTVSPropertyOp45
 70
     0
102
RTVSPropertyOp46
 70
     0
102
RTVSPropertyOp47
 70
     0
102
RTVSPropertyOp48
 70
     0
102
RTVSPropertyOp49
 70
     0
102
RTVSPropertyOp50
 70
     0
102
RTVSPropertyOp51
 70
     0
102
RTVSPropertyOp52
 70
     0
102
RTVSPropertyOp53
 70
     0
102
RTVSPropertyOp54
 70
     0
102
RTVSPropertyOp55
 70
     0
102
RTVSPropertyOp56
 70
     0
102
RTVSPropertyOp57
 70
     0
102
RTVSPost2010Prop28
280
     0
102
RTVSPost2010PropOp28
 70
     0
102
RTVSPost2010Prop29
280
     1
102
RTVSPost2010PropOp29
 70
     0
102
RTVSPost2010Prop30
280
     1
102
RTVSPost2010PropOp30
 70
     0
102
RTVSPost2010Prop31
280
     0
102
RTVSPost2010PropOp31
 70
     0
102
RTVSPost2010Prop32
280
     0
102
RTVSPost2010PropOp32
 70
     0
102
RTVSPost2010Prop33
280
     0
102
RTVSPost2010PropOp33
 70
     0
102
RTVSPost2010Prop34
280
     0
102
RTVSPost2010PropOp34
 70
     0
102
RTVSPost2010Prop35
280
     0
102
RTVSPost2010PropOp35
 70
     0
102
RTVSPost2010Prop36
280
     0
102
RTVSPost2010PropOp36
 70
     0
102
RTVSPost2010Prop37
 90
       50
102
RTVSPost2010PropOp37
 70
     0
102
RTVSPost2010Prop38
140
0.0
102
RTVSPost2010PropOp38
 70
     0
102
RTVSPost2010Prop39
140
1.0
102
RTVSPost2010PropOp39
 70
     0
102
RTVSPost2010Prop40
 90
        0
102
RTVSPost2010PropOp40
 70
     0
102
RTVSPost2010Prop41ColorIndex
 90
       18
102
RTVSPost2010Prop41ColorRGB
 90
        0
102
RTVSPost2010PropOp41
 70
     0
102
RTVSPost2010Prop42
 90
       50
102
RTVSPost2010PropOp42
 70
     0
102
RTVSPost2010Prop43
 90
        3
102
RTVSPost2010PropOp43
 70
     0
102
RTVSPost2010Prop44ColorIndex
 90
        5
102
RTVSPost2010Prop44ColorRGB
 90
      255
102
RTVSPost2010PropOp44
 70
     0
102
RTVSPost2010Prop45
280
     0
102
RTVSPost2010PropOp45
 70
     0
102
RTVSPost2010Prop46
 90
       50
102
RTVSPost2010PropOp46
 70
     0
102
RTVSPost2010Prop47
 90
       50
102
RTVSPost2010PropOp47
 70
     0
102
RTVSPost2010Prop48
 90
       50
102
RTVSPost2010PropOp48
 70
     0
102
RTVSPost2010Prop49
280
     0
102
RTVSPost2010PropOp49
 70
     0
102
RTVSPost2010Prop50
 90
       50
102
RTVSPost2010PropOp50
 70
     0
102
RTVSPost2010Prop51ColorIndex
 90
      256
102
RTVSPost2010Prop51ColorRGB
 90
-16777216
102
RTVSPost2010PropOp51
 70
     0
102
RTVSPost2010Prop52
140
1.0
102
RTVSPost2010PropOp52
 70
     0
102
RTVSPost2010Prop53
 90
        2
102
RTVSPost2010PropOp53
 70
     0
102
RTVSPost2010Prop54
  1
strokes_ogs.tif
102
RTVSPost2010PropOp54
 70
     0
102
RTVSPost2010Prop55
280
     0
102
RTVSPost2010PropOp55
 70
     0
102
RTVSPost2010Prop56
140
1.0
102
RTVSPost2010PropOp56
 70
     0
102
RTVSPost2010Prop57
140
1.0
102
RTVSPost2010PropOp57
 70
     0
  0
XRECORD
  5
366
102
{ACAD_REACTORS
330
365
102
}
330
365
100
AcDbXrecord
280
     1
102
RTVSPropertyOp0
 70
     1
102
RTVSPropertyOp1
 70
     1
102
RTVSPropertyOp2
 70
     1
102
RTVSPropertyOp3
 70
     1
102
RTVSPropertyOp4
 70
     1
102
RTVSPropertyOp5
 70
     1
102
RTVSPropertyOp6
 70
     1
102
RTVSPropertyOp7
 70
     1
102
RTVSPropertyOp8
 70
     1
102
RTVSPropertyOp9
 70
     1
102
RTVSPropertyOp10
 70
     1
102
RTVSPropertyOp11
 70
     1
102
RTVSPropertyOp12
 70
     1
102
RTVSPropertyOp13
 70
     1
102
RTVSPropertyOp14
 70
     1
102
RTVSPropertyOp15
 70
     1
102
RTVSPropertyOp16
 70
     1
102
RTVSPropertyOp17
 70
     1
102
RTVSPropertyOp18
 70
     1
102
RTVSPropertyOp19
 70
     1
102
RTVSPropertyOp20
 70
     1
102
RTVSPropertyOp21
 70
     1
102
RTVSPropertyOp22
 70
     1
102
RTVSPropertyOp23
 70
     1
102
RTVSPropertyOp24
 70
     1
102
RTVSPropertyOp25
 70
     1
102
RTVSPropertyOp26
 70
     1
102
RTVSPropertyOp27
 70
     1
102
RTVSPropertyOp28
 70
     1
102
RTVSPropertyOp29
 70
     1
102
RTVSPropertyOp30
 70
     1
102
RTVSPropertyOp31
 70
     1
102
RTVSPropertyOp32
 70
     1
102
RTVSPropertyOp33
 70
     1
102
RTVSPropertyOp34
 70
     1
102
RTVSPropertyOp35
 70
     1
102
RTVSPropertyOp36
 70
     1
102
RTVSPropertyOp37
 70
     1
102
RTVSPropertyOp38
 70
     1
102
RTVSPropertyOp39
 70
     1
102
RTVSPropertyOp40
 70
     1
102
RTVSPropertyOp41
 70
     1
102
RTVSPropertyOp42
 70
     1
102
RTVSPropertyOp43
 70
     1
102
RTVSPropertyOp44
 70
     1
102
RTVSPropertyOp45
 70
     1
102
RTVSPropertyOp46
 70
     1
102
RTVSPropertyOp47
 70
     1
102
RTVSPropertyOp48
 70
     1
102
RTVSPropertyOp49
 70
     1
102
RTVSPropertyOp50
 70
     1
102
RTVSPropertyOp51
 70
     0
102
RTVSPropertyOp52
 70
     0
102
RTVSPropertyOp53
 70
     1
102
RTVSPropertyOp54
 70
     1
102
RTVSPropertyOp55
 70
     1
102
RTVSPropertyOp56
 70
     1
102
RTVSPropertyOp57
 70
     1
102
RTVSPost2010Prop28
280
     0
102
RTVSPost2010PropOp28
 70
     1
102
RTVSPost2010Prop29
280
     1
102
RTVSPost2010PropOp29
 70
     1
102
RTVSPost2010Prop30
280
     1
102
RTVSPost2010PropOp30
 70
     1
102
RTVSPost2010Prop31
280
     0
102
RTVSPost2010PropOp31
 70
     1
102
RTVSPost2010Prop32
280
     0
102
RTVSPost2010PropOp32
 70
     1
102
RTVSPost2010Prop33
280
     0
102
RTVSPost2010PropOp33
 70
     1
102
RTVSPost2010Prop34
280
     0
102
RTVSPost2010PropOp34
 70
     1
102
RTVSPost2010Prop35
280
     0
102
RTVSPost2010PropOp35
 70
     1
102
RTVSPost2010Prop36
280
     0
102
RTVSPost2010PropOp36
 70
     1
102
RTVSPost2010Prop37
 90
       50
102
RTVSPost2010PropOp37
 70
     1
102
RTVSPost2010Prop38
140
0.0
102
RTVSPost2010PropOp38
 70
     1
102
RTVSPost2010Prop39
140
1.0
102
RTVSPost2010PropOp39
 70
     1
102
RTVSPost2010Prop40
 90
        0
102
RTVSPost2010PropOp40
 70
     1
102
RTVSPost2010Prop41ColorIndex
 90
       18
102
RTVSPost2010Prop41ColorRGB
 90
        0
102
RTVSPost2010PropOp41
 70
     1
102
RTVSPost2010Prop42
 90
       50
102
RTVSPost2010PropOp42
 70
     1
102
RTVSPost2010Prop43
 90
        3
102
RTVSPost2010PropOp43
 70
     1
102
RTVSPost2010Prop44ColorIndex
 90
        5
102
RTVSPost2010Prop44ColorRGB
 90
      255
102
RTVSPost2010PropOp44
 70
     1
102
RTVSPost2010Prop45
280
     0
102
RTVSPost2010PropOp45
 70
     1
102
RTVSPost2010Prop46
 90
       50
102
RTVSPost2010PropOp46
 70
     1
102
RTVSPost2010Prop47
 90
       50
102
RTVSPost2010PropOp47
 70
     1
102
RTVSPost2010Prop48
 90
       50
102
RTVSPost2010PropOp48
 70
     1
102
RTVSPost2010Prop49
280
     0
102
RTVSPost2010PropOp49
 70
     1
102
RTVSPost2010Prop50
 90
       50
102
RTVSPost2010PropOp50
 70
     1
102
RTVSPost2010Prop51ColorIndex
 90
      256
102
RTVSPost2010Prop51ColorRGB
 90
-16777216
102
RTVSPost2010PropOp51
 70
     0
102
RTVSPost2010Prop52
140
1.0
102
RTVSPost2010PropOp52
 70
     0
102
RTVSPost2010Prop53
 90
        2
102
RTVSPost2010PropOp53
 70
     1
102
RTVSPost2010Prop54
  1
strokes_ogs.tif
102
RTVSPost2010PropOp54
 70
     1
102
RTVSPost2010Prop55
280
     0
102
RTVSPost2010PropOp55
 70
     1
102
RTVSPost2010Prop56
140
1.0
102
RTVSPost2010PropOp56
 70
     1
102
RTVSPost2010Prop57
140
1.0
102
RTVSPost2010PropOp57
 70
     1
  0
XRECORD
  5
34A
102
{ACAD_REACTORS
330
349
102
}
330
349
100
AcDbXrecord
280
     1
102
RTVSPropertyOp0
 70
     1
102
RTVSPropertyOp1
 70
     1
102
RTVSPropertyOp2
 70
     1
102
RTVSPropertyOp3
 70
     1
102
RTVSPropertyOp4
 70
     1
102
RTVSPropertyOp5
 70
     1
102
RTVSPropertyOp6
 70
     1
102
RTVSPropertyOp7
 70
     1
102
RTVSPropertyOp8
 70
     1
102
RTVSPropertyOp9
 70
     1
102
RTVSPropertyOp10
 70
     1
102
RTVSPropertyOp11
 70
     1
102
RTVSPropertyOp12
 70
     1
102
RTVSPropertyOp13
 70
     1
102
RTVSPropertyOp14
 70
     1
102
RTVSPropertyOp15
 70
     1
102
RTVSPropertyOp16
 70
     1
102
RTVSPropertyOp17
 70
     1
102
RTVSPropertyOp18
 70
     1
102
RTVSPropertyOp19
 70
     1
102
RTVSPropertyOp20
 70
     1
102
RTVSPropertyOp21
 70
     1
102
RTVSPropertyOp22
 70
     1
102
RTVSPropertyOp23
 70
     1
102
RTVSPropertyOp24
 70
     1
102
RTVSPropertyOp25
 70
     1
102
RTVSPropertyOp26
 70
     1
102
RTVSPropertyOp27
 70
     1
102
RTVSPropertyOp28
 70
     1
102
RTVSPropertyOp29
 70
     1
102
RTVSPropertyOp30
 70
     1
102
RTVSPropertyOp31
 70
     1
102
RTVSPropertyOp32
 70
     1
102
RTVSPropertyOp33
 70
     1
102
RTVSPropertyOp34
 70
     1
102
RTVSPropertyOp35
 70
     1
102
RTVSPropertyOp36
 70
     1
102
RTVSPropertyOp37
 70
     1
102
RTVSPropertyOp38
 70
     1
102
RTVSPropertyOp39
 70
     1
102
RTVSPropertyOp40
 70
     1
102
RTVSPropertyOp41
 70
     1
102
RTVSPropertyOp42
 70
     1
102
RTVSPropertyOp43
 70
     1
102
RTVSPropertyOp44
 70
     1
102
RTVSPropertyOp45
 70
     1
102
RTVSPropertyOp46
 70
     1
102
RTVSPropertyOp47
 70
     1
102
RTVSPropertyOp48
 70
     1
102
RTVSPropertyOp49
 70
     1
102
RTVSPropertyOp50
 70
     1
102
RTVSPropertyOp51
 70
     0
102
RTVSPropertyOp52
 70
     0
102
RTVSPropertyOp53
 70
     1
102
RTVSPropertyOp54
 70
     1
102
RTVSPropertyOp55
 70
     1
102
RTVSPropertyOp56
 70
     1
102
RTVSPropertyOp57
 70
     1
102
RTVSPost2010Prop28
280
     0
102
RTVSPost2010PropOp28
 70
     1
102
RTVSPost2010Prop29
280
     1
102
RTVSPost2010PropOp29
 70
     1
102
RTVSPost2010Prop30
280
     1
102
RTVSPost2010PropOp30
 70
     1
102
RTVSPost2010Prop31
280
     0
102
RTVSPost2010PropOp31
 70
     1
102
RTVSPost2010Prop32
280
     0
102
RTVSPost2010PropOp32
 70
     1
102
RTVSPost2010Prop33
280
     0
102
RTVSPost2010PropOp33
 70
     1
102
RTVSPost2010Prop34
280
     0
102
RTVSPost2010PropOp34
 70
     1
102
RTVSPost2010Prop35
280
     0
102
RTVSPost2010PropOp35
 70
     1
102
RTVSPost2010Prop36
280
     0
102
RTVSPost2010PropOp36
 70
     1
102
RTVSPost2010Prop37
 90
       50
102
RTVSPost2010PropOp37
 70
     1
102
RTVSPost2010Prop38
140
0.0
102
RTVSPost2010PropOp38
 70
     1
102
RTVSPost2010Prop39
140
1.0
102
RTVSPost2010PropOp39
 70
     1
102
RTVSPost2010Prop40
 90
        0
102
RTVSPost2010PropOp40
 70
     1
102
RTVSPost2010Prop41ColorIndex
 90
       18
102
RTVSPost2010Prop41ColorRGB
 90
        0
102
RTVSPost2010PropOp41
 70
     1
102
RTVSPost2010Prop42
 90
       50
102
RTVSPost2010PropOp42
 70
     1
102
RTVSPost2010Prop43
 90
        3
102
RTVSPost2010PropOp43
 70
     1
102
RTVSPost2010Prop44ColorIndex
 90
        5
102
RTVSPost2010Prop44ColorRGB
 90
      255
102
RTVSPost2010PropOp44
 70
     1
102
RTVSPost2010Prop45
280
     0
102
RTVSPost2010PropOp45
 70
     1
102
RTVSPost2010Prop46
 90
       50
102
RTVSPost2010PropOp46
 70
     1
102
RTVSPost2010Prop47
 90
       50
102
RTVSPost2010PropOp47
 70
     1
102
RTVSPost2010Prop48
 90
       50
102
RTVSPost2010PropOp48
 70
     1
102
RTVSPost2010Prop49
280
     0
102
RTVSPost2010PropOp49
 70
     1
102
RTVSPost2010Prop50
 90
       50
102
RTVSPost2010PropOp50
 70
     1
102
RTVSPost2010Prop51ColorIndex
 90
      256
102
RTVSPost2010Prop51ColorRGB
 90
-16777216
102
RTVSPost2010PropOp51
 70
     0
102
RTVSPost2010Prop52
140
1.0
102
RTVSPost2010PropOp52
 70
     0
102
RTVSPost2010Prop53
 90
        2
102
RTVSPost2010PropOp53
 70
     1
102
RTVSPost2010Prop54
  1
strokes_ogs.tif
102
RTVSPost2010PropOp54
 70
     1
102
RTVSPost2010Prop55
280
     0
102
RTVSPost2010PropOp55
 70
     1
102
RTVSPost2010Prop56
140
1.0
102
RTVSPost2010PropOp56
 70
     1
102
RTVSPost2010Prop57
140
1.0
102
RTVSPost2010PropOp57
 70
     1
  0
XRECORD
  5
34C
102
{ACAD_REACTORS
330
34B
102
}
330
34B
100
AcDbXrecord
280
     1
102
RTVSPropertyOp0
 70
     1
102
RTVSPropertyOp1
 70
     1
102
RTVSPropertyOp2
 70
     1
102
RTVSPropertyOp3
 70
     1
102
RTVSPropertyOp4
 70
     1
102
RTVSPropertyOp5
 70
     1
102
RTVSPropertyOp6
 70
     1
102
RTVSPropertyOp7
 70
     1
102
RTVSPropertyOp8
 70
     1
102
RTVSPropertyOp9
 70
     1
102
RTVSPropertyOp10
 70
     1
102
RTVSPropertyOp11
 70
     1
102
RTVSPropertyOp12
 70
     1
102
RTVSPropertyOp13
 70
     1
102
RTVSPropertyOp14
 70
     1
102
RTVSPropertyOp15
 70
     1
102
RTVSPropertyOp16
 70
     1
102
RTVSPropertyOp17
 70
     1
102
RTVSPropertyOp18
 70
     1
102
RTVSPropertyOp19
 70
     1
102
RTVSPropertyOp20
 70
     1
102
RTVSPropertyOp21
 70
     1
102
RTVSPropertyOp22
 70
     1
102
RTVSPropertyOp23
 70
     1
102
RTVSPropertyOp24
 70
     1
102
RTVSPropertyOp25
 70
     1
102
RTVSPropertyOp26
 70
     1
102
RTVSPropertyOp27
 70
     1
102
RTVSPropertyOp28
 70
     1
102
RTVSPropertyOp29
 70
     1
102
RTVSPropertyOp30
 70
     1
102
RTVSPropertyOp31
 70
     1
102
RTVSPropertyOp32
 70
     1
102
RTVSPropertyOp33
 70
     1
102
RTVSPropertyOp34
 70
     1
102
RTVSPropertyOp35
 70
     1
102
RTVSPropertyOp36
 70
     1
102
RTVSPropertyOp37
 70
     1
102
RTVSPropertyOp38
 70
     1
102
RTVSPropertyOp39
 70
     1
102
RTVSPropertyOp40
 70
     1
102
RTVSPropertyOp41
 70
     1
102
RTVSPropertyOp42
 70
     1
102
RTVSPropertyOp43
 70
     1
102
RTVSPropertyOp44
 70
     1
102
RTVSPropertyOp45
 70
     1
102
RTVSPropertyOp46
 70
     1
102
RTVSPropertyOp47
 70
     1
102
RTVSPropertyOp48
 70
     1
102
RTVSPropertyOp49
 70
     1
102
RTVSPropertyOp50
 70
     1
102
RTVSPropertyOp51
 70
     0
102
RTVSPropertyOp52
 70
     0
102
RTVSPropertyOp53
 70
     1
102
RTVSPropertyOp54
 70
     1
102
RTVSPropertyOp55
 70
     1
102
RTVSPropertyOp56
 70
     1
102
RTVSPropertyOp57
 70
     1
102
RTVSPost2010Prop28
280
     0
102
RTVSPost2010PropOp28
 70
     1
102
RTVSPost2010Prop29
280
     1
102
RTVSPost2010PropOp29
 70
     1
102
RTVSPost2010Prop30
280
     1
102
RTVSPost2010PropOp30
 70
     1
102
RTVSPost2010Prop31
280
     0
102
RTVSPost2010PropOp31
 70
     1
102
RTVSPost2010Prop32
280
     0
102
RTVSPost2010PropOp32
 70
     1
102
RTVSPost2010Prop33
280
     0
102
RTVSPost2010PropOp33
 70
     1
102
RTVSPost2010Prop34
280
     0
102
RTVSPost2010PropOp34
 70
     1
102
RTVSPost2010Prop35
280
     0
102
RTVSPost2010PropOp35
 70
     1
102
RTVSPost2010Prop36
280
     0
102
RTVSPost2010PropOp36
 70
     1
102
RTVSPost2010Prop37
 90
       50
102
RTVSPost2010PropOp37
 70
     1
102
RTVSPost2010Prop38
140
0.0
102
RTVSPost2010PropOp38
 70
     1
102
RTVSPost2010Prop39
140
1.0
102
RTVSPost2010PropOp39
 70
     1
102
RTVSPost2010Prop40
 90
        0
102
RTVSPost2010PropOp40
 70
     1
102
RTVSPost2010Prop41ColorIndex
 90
       18
102
RTVSPost2010Prop41ColorRGB
 90
        0
102
RTVSPost2010PropOp41
 70
     1
102
RTVSPost2010Prop42
 90
       50
102
RTVSPost2010PropOp42
 70
     1
102
RTVSPost2010Prop43
 90
        3
102
RTVSPost2010PropOp43
 70
     1
102
RTVSPost2010Prop44ColorIndex
 90
        5
102
RTVSPost2010Prop44ColorRGB
 90
      255
102
RTVSPost2010PropOp44
 70
     1
102
RTVSPost2010Prop45
280
     0
102
RTVSPost2010PropOp45
 70
     1
102
RTVSPost2010Prop46
 90
       50
102
RTVSPost2010PropOp46
 70
     1
102
RTVSPost2010Prop47
 90
       50
102
RTVSPost2010PropOp47
 70
     1
102
RTVSPost2010Prop48
 90
       50
102
RTVSPost2010PropOp48
 70
     1
102
RTVSPost2010Prop49
280
     0
102
RTVSPost2010PropOp49
 70
     1
102
RTVSPost2010Prop50
 90
       50
102
RTVSPost2010PropOp50
 70
     1
102
RTVSPost2010Prop51ColorIndex
 90
      256
102
RTVSPost2010Prop51ColorRGB
 90
-16777216
102
RTVSPost2010PropOp51
 70
     0
102
RTVSPost2010Prop52
140
1.0
102
RTVSPost2010PropOp52
 70
     0
102
RTVSPost2010Prop53
 90
        2
102
RTVSPost2010PropOp53
 70
     1
102
RTVSPost2010Prop54
  1
strokes_ogs.tif
102
RTVSPost2010PropOp54
 70
     1
102
RTVSPost2010Prop55
280
     0
102
RTVSPost2010PropOp55
 70
     1
102
RTVSPost2010Prop56
140
1.0
102
RTVSPost2010PropOp56
 70
     1
102
RTVSPost2010Prop57
140
1.0
102
RTVSPost2010PropOp57
 70
     1
  0
XRECORD
  5
34E
102
{ACAD_REACTORS
330
34D
102
}
330
34D
100
AcDbXrecord
280
     1
102
RTVSPropertyOp0
 70
     1
102
RTVSPropertyOp1
 70
     1
102
RTVSPropertyOp2
 70
     1
102
RTVSPropertyOp3
 70
     1
102
RTVSPropertyOp4
 70
     1
102
RTVSPropertyOp5
 70
     1
102
RTVSPropertyOp6
 70
     1
102
RTVSPropertyOp7
 70
     1
102
RTVSPropertyOp8
 70
     1
102
RTVSPropertyOp9
 70
     1
102
RTVSPropertyOp10
 70
     1
102
RTVSPropertyOp11
 70
     1
102
RTVSPropertyOp12
 70
     1
102
RTVSPropertyOp13
 70
     1
102
RTVSPropertyOp14
 70
     1
102
RTVSPropertyOp15
 70
     1
102
RTVSPropertyOp16
 70
     1
102
RTVSPropertyOp17
 70
     1
102
RTVSPropertyOp18
 70
     1
102
RTVSPropertyOp19
 70
     1
102
RTVSPropertyOp20
 70
     1
102
RTVSPropertyOp21
 70
     1
102
RTVSPropertyOp22
 70
     1
102
RTVSPropertyOp23
 70
     1
102
RTVSPropertyOp24
 70
     1
102
RTVSPropertyOp25
 70
     1
102
RTVSPropertyOp26
 70
     1
102
RTVSPropertyOp27
 70
     1
102
RTVSPropertyOp28
 70
     1
102
RTVSPropertyOp29
 70
     1
102
RTVSPropertyOp30
 70
     1
102
RTVSPropertyOp31
 70
     1
102
RTVSPropertyOp32
 70
     1
102
RTVSPropertyOp33
 70
     1
102
RTVSPropertyOp34
 70
     1
102
RTVSPropertyOp35
 70
     1
102
RTVSPropertyOp36
 70
     1
102
RTVSPropertyOp37
 70
     1
102
RTVSPropertyOp38
 70
     1
102
RTVSPropertyOp39
 70
     1
102
RTVSPropertyOp40
 70
     1
102
RTVSPropertyOp41
 70
     1
102
RTVSPropertyOp42
 70
     1
102
RTVSPropertyOp43
 70
     1
102
RTVSPropertyOp44
 70
     1
102
RTVSPropertyOp45
 70
     1
102
RTVSPropertyOp46
 70
     1
102
RTVSPropertyOp47
 70
     1
102
RTVSPropertyOp48
 70
     1
102
RTVSPropertyOp49
 70
     1
102
RTVSPropertyOp50
 70
     1
102
RTVSPropertyOp51
 70
     0
102
RTVSPropertyOp52
 70
     0
102
RTVSPropertyOp53
 70
     1
102
RTVSPropertyOp54
 70
     1
102
RTVSPropertyOp55
 70
     1
102
RTVSPropertyOp56
 70
     1
102
RTVSPropertyOp57
 70
     1
102
RTVSPost2010Prop28
280
     0
102
RTVSPost2010PropOp28
 70
     1
102
RTVSPost2010Prop29
280
     1
102
RTVSPost2010PropOp29
 70
     1
102
RTVSPost2010Prop30
280
     1
102
RTVSPost2010PropOp30
 70
     1
102
RTVSPost2010Prop31
280
     0
102
RTVSPost2010PropOp31
 70
     1
102
RTVSPost2010Prop32
280
     0
102
RTVSPost2010PropOp32
 70
     1
102
RTVSPost2010Prop33
280
     0
102
RTVSPost2010PropOp33
 70
     1
102
RTVSPost2010Prop34
280
     0
102
RTVSPost2010PropOp34
 70
     1
102
RTVSPost2010Prop35
280
     0
102
RTVSPost2010PropOp35
 70
     1
102
RTVSPost2010Prop36
280
     0
102
RTVSPost2010PropOp36
 70
     1
102
RTVSPost2010Prop37
 90
       50
102
RTVSPost2010PropOp37
 70
     1
102
RTVSPost2010Prop38
140
0.0
102
RTVSPost2010PropOp38
 70
     1
102
RTVSPost2010Prop39
140
1.0
102
RTVSPost2010PropOp39
 70
     1
102
RTVSPost2010Prop40
 90
        0
102
RTVSPost2010PropOp40
 70
     1
102
RTVSPost2010Prop41ColorIndex
 90
       18
102
RTVSPost2010Prop41ColorRGB
 90
        0
102
RTVSPost2010PropOp41
 70
     1
102
RTVSPost2010Prop42
 90
       50
102
RTVSPost2010PropOp42
 70
     1
102
RTVSPost2010Prop43
 90
        3
102
RTVSPost2010PropOp43
 70
     1
102
RTVSPost2010Prop44ColorIndex
 90
        5
102
RTVSPost2010Prop44ColorRGB
 90
      255
102
RTVSPost2010PropOp44
 70
     1
102
RTVSPost2010Prop45
280
     0
102
RTVSPost2010PropOp45
 70
     1
102
RTVSPost2010Prop46
 90
       50
102
RTVSPost2010PropOp46
 70
     1
102
RTVSPost2010Prop47
 90
       50
102
RTVSPost2010PropOp47
 70
     1
102
RTVSPost2010Prop48
 90
       50
102
RTVSPost2010PropOp48
 70
     1
102
RTVSPost2010Prop49
280
     0
102
RTVSPost2010PropOp49
 70
     1
102
RTVSPost2010Prop50
 90
       50
102
RTVSPost2010PropOp50
 70
     1
102
RTVSPost2010Prop51ColorIndex
 90
      256
102
RTVSPost2010Prop51ColorRGB
 90
-16777216
102
RTVSPost2010PropOp51
 70
     0
102
RTVSPost2010Prop52
140
1.0
102
RTVSPost2010PropOp52
 70
     0
102
RTVSPost2010Prop53
 90
        2
102
RTVSPost2010PropOp53
 70
     1
102
RTVSPost2010Prop54
  1
strokes_ogs.tif
102
RTVSPost2010PropOp54
 70
     1
102
RTVSPost2010Prop55
280
     0
102
RTVSPost2010PropOp55
 70
     1
102
RTVSPost2010Prop56
140
1.0
102
RTVSPost2010PropOp56
 70
     1
102
RTVSPost2010Prop57
140
1.0
102
RTVSPost2010PropOp57
 70
     1
  0
XRECORD
  5
350
102
{ACAD_REACTORS
330
34F
102
}
330
34F
100
AcDbXrecord
280
     1
102
RTVSPropertyOp0
 70
     1
102
RTVSPropertyOp1
 70
     1
102
RTVSPropertyOp2
 70
     1
102
RTVSPropertyOp3
 70
     1
102
RTVSPropertyOp4
 70
     1
102
RTVSPropertyOp5
 70
     1
102
RTVSPropertyOp6
 70
     1
102
RTVSPropertyOp7
 70
     1
102
RTVSPropertyOp8
 70
     1
102
RTVSPropertyOp9
 70
     1
102
RTVSPropertyOp10
 70
     1
102
RTVSPropertyOp11
 70
     1
102
RTVSPropertyOp12
 70
     1
102
RTVSPropertyOp13
 70
     1
102
RTVSPropertyOp14
 70
     1
102
RTVSPropertyOp15
 70
     1
102
RTVSPropertyOp16
 70
     1
102
RTVSPropertyOp17
 70
     1
102
RTVSPropertyOp18
 70
     1
102
RTVSPropertyOp19
 70
     1
102
RTVSPropertyOp20
 70
     1
102
RTVSPropertyOp21
 70
     1
102
RTVSPropertyOp22
 70
     1
102
RTVSPropertyOp23
 70
     1
102
RTVSPropertyOp24
 70
     1
102
RTVSPropertyOp25
 70
     1
102
RTVSPropertyOp26
 70
     1
102
RTVSPropertyOp27
 70
     1
102
RTVSPropertyOp28
 70
     1
102
RTVSPropertyOp29
 70
     1
102
RTVSPropertyOp30
 70
     1
102
RTVSPropertyOp31
 70
     1
102
RTVSPropertyOp32
 70
     1
102
RTVSPropertyOp33
 70
     1
102
RTVSPropertyOp34
 70
     1
102
RTVSPropertyOp35
 70
     1
102
RTVSPropertyOp36
 70
     1
102
RTVSPropertyOp37
 70
     1
102
RTVSPropertyOp38
 70
     1
102
RTVSPropertyOp39
 70
     1
102
RTVSPropertyOp40
 70
     1
102
RTVSPropertyOp41
 70
     1
102
RTVSPropertyOp42
 70
     1
102
RTVSPropertyOp43
 70
     1
102
RTVSPropertyOp44
 70
     1
102
RTVSPropertyOp45
 70
     1
102
RTVSPropertyOp46
 70
     1
102
RTVSPropertyOp47
 70
     1
102
RTVSPropertyOp48
 70
     1
102
RTVSPropertyOp49
 70
     1
102
RTVSPropertyOp50
 70
     1
102
RTVSPropertyOp51
 70
     0
102
RTVSPropertyOp52
 70
     0
102
RTVSPropertyOp53
 70
     1
102
RTVSPropertyOp54
 70
     1
102
RTVSPropertyOp55
 70
     1
102
RTVSPropertyOp56
 70
     1
102
RTVSPropertyOp57
 70
     1
102
RTVSPost2010Prop28
280
     0
102
RTVSPost2010PropOp28
 70
     1
102
RTVSPost2010Prop29
280
     1
102
RTVSPost2010PropOp29
 70
     1
102
RTVSPost2010Prop30
280
     1
102
RTVSPost2010PropOp30
 70
     1
102
RTVSPost2010Prop31
280
     0
102
RTVSPost2010PropOp31
 70
     1
102
RTVSPost2010Prop32
280
     0
102
RTVSPost2010PropOp32
 70
     1
102
RTVSPost2010Prop33
280
     0
102
RTVSPost2010PropOp33
 70
     1
102
RTVSPost2010Prop34
280
     0
102
RTVSPost2010PropOp34
 70
     1
102
RTVSPost2010Prop35
280
     0
102
RTVSPost2010PropOp35
 70
     1
102
RTVSPost2010Prop36
280
     0
102
RTVSPost2010PropOp36
 70
     1
102
RTVSPost2010Prop37
 90
       50
102
RTVSPost2010PropOp37
 70
     1
102
RTVSPost2010Prop38
140
0.0
102
RTVSPost2010PropOp38
 70
     1
102
RTVSPost2010Prop39
140
1.0
102
RTVSPost2010PropOp39
 70
     1
102
RTVSPost2010Prop40
 90
        0
102
RTVSPost2010PropOp40
 70
     1
102
RTVSPost2010Prop41ColorIndex
 90
       18
102
RTVSPost2010Prop41ColorRGB
 90
        0
102
RTVSPost2010PropOp41
 70
     1
102
RTVSPost2010Prop42
 90
       50
102
RTVSPost2010PropOp42
 70
     1
102
RTVSPost2010Prop43
 90
        3
102
RTVSPost2010PropOp43
 70
     1
102
RTVSPost2010Prop44ColorIndex
 90
        5
102
RTVSPost2010Prop44ColorRGB
 90
      255
102
RTVSPost2010PropOp44
 70
     1
102
RTVSPost2010Prop45
280
     0
102
RTVSPost2010PropOp45
 70
     1
102
RTVSPost2010Prop46
 90
       50
102
RTVSPost2010PropOp46
 70
     1
102
RTVSPost2010Prop47
 90
       50
102
RTVSPost2010PropOp47
 70
     1
102
RTVSPost2010Prop48
 90
       50
102
RTVSPost2010PropOp48
 70
     1
102
RTVSPost2010Prop49
280
     0
102
RTVSPost2010PropOp49
 70
     1
102
RTVSPost2010Prop50
 90
       50
102
RTVSPost2010PropOp50
 70
     1
102
RTVSPost2010Prop51ColorIndex
 90
      256
102
RTVSPost2010Prop51ColorRGB
 90
-16777216
102
RTVSPost2010PropOp51
 70
     0
102
RTVSPost2010Prop52
140
1.0
102
RTVSPost2010PropOp52
 70
     0
102
RTVSPost2010Prop53
 90
        2
102
RTVSPost2010PropOp53
 70
     1
102
RTVSPost2010Prop54
  1
strokes_ogs.tif
102
RTVSPost2010PropOp54
 70
     1
102
RTVSPost2010Prop55
280
     0
102
RTVSPost2010PropOp55
 70
     1
102
RTVSPost2010Prop56
140
1.0
102
RTVSPost2010PropOp56
 70
     1
102
RTVSPost2010Prop57
140
1.0
102
RTVSPost2010PropOp57
 70
     1
  0
XRECORD
  5
356
102
{ACAD_REACTORS
330
355
102
}
330
355
100
AcDbXrecord
280
     1
102
RTVSPropertyOp0
 70
     1
102
RTVSPropertyOp1
 70
     1
102
RTVSPropertyOp2
 70
     1
102
RTVSPropertyOp3
 70
     1
102
RTVSPropertyOp4
 70
     1
102
RTVSPropertyOp5
 70
     1
102
RTVSPropertyOp6
 70
     1
102
RTVSPropertyOp7
 70
     1
102
RTVSPropertyOp8
 70
     1
102
RTVSPropertyOp9
 70
     1
102
RTVSPropertyOp10
 70
     1
102
RTVSPropertyOp11
 70
     1
102
RTVSPropertyOp12
 70
     1
102
RTVSPropertyOp13
 70
     1
102
RTVSPropertyOp14
 70
     1
102
RTVSPropertyOp15
 70
     1
102
RTVSPropertyOp16
 70
     1
102
RTVSPropertyOp17
 70
     1
102
RTVSPropertyOp18
 70
     1
102
RTVSPropertyOp19
 70
     1
102
RTVSPropertyOp20
 70
     1
102
RTVSPropertyOp21
 70
     1
102
RTVSPropertyOp22
 70
     1
102
RTVSPropertyOp23
 70
     1
102
RTVSPropertyOp24
 70
     1
102
RTVSPropertyOp25
 70
     1
102
RTVSPropertyOp26
 70
     1
102
RTVSPropertyOp27
 70
     1
102
RTVSPropertyOp28
 70
     1
102
RTVSPropertyOp29
 70
     1
102
RTVSPropertyOp30
 70
     1
102
RTVSPropertyOp31
 70
     1
102
RTVSPropertyOp32
 70
     1
102
RTVSPropertyOp33
 70
     1
102
RTVSPropertyOp34
 70
     1
102
RTVSPropertyOp35
 70
     1
102
RTVSPropertyOp36
 70
     1
102
RTVSPropertyOp37
 70
     1
102
RTVSPropertyOp38
 70
     1
102
RTVSPropertyOp39
 70
     1
102
RTVSPropertyOp40
 70
     1
102
RTVSPropertyOp41
 70
     1
102
RTVSPropertyOp42
 70
     1
102
RTVSPropertyOp43
 70
     1
102
RTVSPropertyOp44
 70
     1
102
RTVSPropertyOp45
 70
     1
102
RTVSPropertyOp46
 70
     1
102
RTVSPropertyOp47
 70
     1
102
RTVSPropertyOp48
 70
     1
102
RTVSPropertyOp49
 70
     1
102
RTVSPropertyOp50
 70
     1
102
RTVSPropertyOp51
 70
     0
102
RTVSPropertyOp52
 70
     0
102
RTVSPropertyOp53
 70
     1
102
RTVSPropertyOp54
 70
     1
102
RTVSPropertyOp55
 70
     1
102
RTVSPropertyOp56
 70
     1
102
RTVSPropertyOp57
 70
     1
102
RTVSPost2010Prop28
280
     0
102
RTVSPost2010PropOp28
 70
     1
102
RTVSPost2010Prop29
280
     1
102
RTVSPost2010PropOp29
 70
     1
102
RTVSPost2010Prop30
280
     1
102
RTVSPost2010PropOp30
 70
     1
102
RTVSPost2010Prop31
280
     0
102
RTVSPost2010PropOp31
 70
     1
102
RTVSPost2010Prop32
280
     0
102
RTVSPost2010PropOp32
 70
     1
102
RTVSPost2010Prop33
280
     0
102
RTVSPost2010PropOp33
 70
     1
102
RTVSPost2010Prop34
280
     0
102
RTVSPost2010PropOp34
 70
     1
102
RTVSPost2010Prop35
280
     0
102
RTVSPost2010PropOp35
 70
     1
102
RTVSPost2010Prop36
280
     0
102
RTVSPost2010PropOp36
 70
     1
102
RTVSPost2010Prop37
 90
       50
102
RTVSPost2010PropOp37
 70
     1
102
RTVSPost2010Prop38
140
0.0
102
RTVSPost2010PropOp38
 70
     1
102
RTVSPost2010Prop39
140
1.0
102
RTVSPost2010PropOp39
 70
     1
102
RTVSPost2010Prop40
 90
        0
102
RTVSPost2010PropOp40
 70
     1
102
RTVSPost2010Prop41ColorIndex
 90
       18
102
RTVSPost2010Prop41ColorRGB
 90
        0
102
RTVSPost2010PropOp41
 70
     1
102
RTVSPost2010Prop42
 90
       50
102
RTVSPost2010PropOp42
 70
     1
102
RTVSPost2010Prop43
 90
        3
102
RTVSPost2010PropOp43
 70
     1
102
RTVSPost2010Prop44ColorIndex
 90
        5
102
RTVSPost2010Prop44ColorRGB
 90
      255
102
RTVSPost2010PropOp44
 70
     1
102
RTVSPost2010Prop45
280
     0
102
RTVSPost2010PropOp45
 70
     1
102
RTVSPost2010Prop46
 90
       50
102
RTVSPost2010PropOp46
 70
     1
102
RTVSPost2010Prop47
 90
       50
102
RTVSPost2010PropOp47
 70
     1
102
RTVSPost2010Prop48
 90
       50
102
RTVSPost2010PropOp48
 70
     1
102
RTVSPost2010Prop49
280
     0
102
RTVSPost2010PropOp49
 70
     1
102
RTVSPost2010Prop50
 90
       50
102
RTVSPost2010PropOp50
 70
     1
102
RTVSPost2010Prop51ColorIndex
 90
      256
102
RTVSPost2010Prop51ColorRGB
 90
-16777216
102
RTVSPost2010PropOp51
 70
     0
102
RTVSPost2010Prop52
140
1.0
102
RTVSPost2010PropOp52
 70
     0
102
RTVSPost2010Prop53
 90
        2
102
RTVSPost2010PropOp53
 70
     1
102
RTVSPost2010Prop54
  1
strokes_ogs.tif
102
RTVSPost2010PropOp54
 70
     1
102
RTVSPost2010Prop55
280
     0
102
RTVSPost2010PropOp55
 70
     1
102
RTVSPost2010Prop56
140
1.0
102
RTVSPost2010PropOp56
 70
     1
102
RTVSPost2010Prop57
140
1.0
102
RTVSPost2010PropOp57
 70
     1
  0
XRECORD
  5
36A
102
{ACAD_REACTORS
330
369
102
}
330
369
100
AcDbXrecord
280
     1
102
RTVSPropertyOp0
 70
     0
102
RTVSPropertyOp1
 70
     0
102
RTVSPropertyOp2
 70
     0
102
RTVSPropertyOp3
 70
     0
102
RTVSPropertyOp4
 70
     0
102
RTVSPropertyOp5
 70
     0
102
RTVSPropertyOp6
 70
     0
102
RTVSPropertyOp7
 70
     0
102
RTVSPropertyOp8
 70
     0
102
RTVSPropertyOp9
 70
     0
102
RTVSPropertyOp10
 70
     0
102
RTVSPropertyOp11
 70
     0
102
RTVSPropertyOp12
 70
     0
102
RTVSPropertyOp13
 70
     0
102
RTVSPropertyOp14
 70
     2
102
RTVSPropertyOp15
 70
     0
102
RTVSPropertyOp16
 70
     0
102
RTVSPropertyOp17
 70
     0
102
RTVSPropertyOp18
 70
     0
102
RTVSPropertyOp19
 70
     0
102
RTVSPropertyOp20
 70
     0
102
RTVSPropertyOp21
 70
     0
102
RTVSPropertyOp22
 70
     0
102
RTVSPropertyOp23
 70
     0
102
RTVSPropertyOp24
 70
     0
102
RTVSPropertyOp25
 70
     0
102
RTVSPropertyOp26
 70
     0
102
RTVSPropertyOp27
 70
     0
102
RTVSPropertyOp28
 70
     0
102
RTVSPropertyOp29
 70
     0
102
RTVSPropertyOp30
 70
     0
102
RTVSPropertyOp31
 70
     0
102
RTVSPropertyOp32
 70
     0
102
RTVSPropertyOp33
 70
     0
102
RTVSPropertyOp34
 70
     0
102
RTVSPropertyOp35
 70
     0
102
RTVSPropertyOp36
 70
     0
102
RTVSPropertyOp37
 70
     0
102
RTVSPropertyOp38
 70
     0
102
RTVSPropertyOp39
 70
     0
102
RTVSPropertyOp40
 70
     0
102
RTVSPropertyOp41
 70
     0
102
RTVSPropertyOp42
 70
     0
102
RTVSPropertyOp43
 70
     0
102
RTVSPropertyOp44
 70
     0
102
RTVSPropertyOp45
 70
     0
102
RTVSPropertyOp46
 70
     0
102
RTVSPropertyOp47
 70
     0
102
RTVSPropertyOp48
 70
     0
102
RTVSPropertyOp49
 70
     0
102
RTVSPropertyOp50
 70
     0
102
RTVSPropertyOp51
 70
     0
102
RTVSPropertyOp52
 70
     0
102
RTVSPropertyOp53
 70
     0
102
RTVSPropertyOp54
 70
     0
102
RTVSPropertyOp55
 70
     0
102
RTVSPropertyOp56
 70
     0
102
RTVSPropertyOp57
 70
     0
102
RTVSPost2010Prop28
280
     0
102
RTVSPost2010PropOp28
 70
     0
102
RTVSPost2010Prop29
280
     1
102
RTVSPost2010PropOp29
 70
     0
102
RTVSPost2010Prop30
280
     1
102
RTVSPost2010PropOp30
 70
     0
102
RTVSPost2010Prop31
280
     0
102
RTVSPost2010PropOp31
 70
     0
102
RTVSPost2010Prop32
280
     0
102
RTVSPost2010PropOp32
 70
     0
102
RTVSPost2010Prop33
280
     0
102
RTVSPost2010PropOp33
 70
     0
102
RTVSPost2010Prop34
280
     0
102
RTVSPost2010PropOp34
 70
     0
102
RTVSPost2010Prop35
280
     0
102
RTVSPost2010PropOp35
 70
     0
102
RTVSPost2010Prop36
280
     0
102
RTVSPost2010PropOp36
 70
     0
102
RTVSPost2010Prop37
 90
       50
102
RTVSPost2010PropOp37
 70
     0
102
RTVSPost2010Prop38
140
0.0
102
RTVSPost2010PropOp38
 70
     0
102
RTVSPost2010Prop39
140
1.0
102
RTVSPost2010PropOp39
 70
     0
102
RTVSPost2010Prop40
 90
        0
102
RTVSPost2010PropOp40
 70
     0
102
RTVSPost2010Prop41ColorIndex
 90
       18
102
RTVSPost2010Prop41ColorRGB
 90
        0
102
RTVSPost2010PropOp41
 70
     0
102
RTVSPost2010Prop42
 90
       50
102
RTVSPost2010PropOp42
 70
     0
102
RTVSPost2010Prop43
 90
        3
102
RTVSPost2010PropOp43
 70
     0
102
RTVSPost2010Prop44ColorIndex
 90
        5
102
RTVSPost2010Prop44ColorRGB
 90
      255
102
RTVSPost2010PropOp44
 70
     0
102
RTVSPost2010Prop45
280
     0
102
RTVSPost2010PropOp45
 70
     0
102
RTVSPost2010Prop46
 90
       50
102
RTVSPost2010PropOp46
 70
     0
102
RTVSPost2010Prop47
 90
       50
102
RTVSPost2010PropOp47
 70
     0
102
RTVSPost2010Prop48
 90
       50
102
RTVSPost2010PropOp48
 70
     0
102
RTVSPost2010Prop49
280
     0
102
RTVSPost2010PropOp49
 70
     0
102
RTVSPost2010Prop50
 90
       50
102
RTVSPost2010PropOp50
 70
     0
102
RTVSPost2010Prop51ColorIndex
 90
      256
102
RTVSPost2010Prop51ColorRGB
 90
-16777216
102
RTVSPost2010PropOp51
 70
     0
102
RTVSPost2010Prop52
140
1.0
102
RTVSPost2010PropOp52
 70
     0
102
RTVSPost2010Prop53
 90
        2
102
RTVSPost2010PropOp53
 70
     0
102
RTVSPost2010Prop54
  1
strokes_ogs.tif
102
RTVSPost2010PropOp54
 70
     0
102
RTVSPost2010Prop55
280
     0
102
RTVSPost2010PropOp55
 70
     0
102
RTVSPost2010Prop56
140
1.0
102
RTVSPost2010PropOp56
 70
     0
102
RTVSPost2010Prop57
140
1.0
102
RTVSPost2010PropOp57
 70
     0
  0
XRECORD
  5
364
102
{ACAD_REACTORS
330
363
102
}
330
363
100
AcDbXrecord
280
     1
102
RTVSPropertyOp0
 70
     1
102
RTVSPropertyOp1
 70
     1
102
RTVSPropertyOp2
 70
     1
102
RTVSPropertyOp3
 70
     1
102
RTVSPropertyOp4
 70
     1
102
RTVSPropertyOp5
 70
     1
102
RTVSPropertyOp6
 70
     1
102
RTVSPropertyOp7
 70
     1
102
RTVSPropertyOp8
 70
     1
102
RTVSPropertyOp9
 70
     1
102
RTVSPropertyOp10
 70
     1
102
RTVSPropertyOp11
 70
     1
102
RTVSPropertyOp12
 70
     1
102
RTVSPropertyOp13
 70
     1
102
RTVSPropertyOp14
 70
     1
102
RTVSPropertyOp15
 70
     1
102
RTVSPropertyOp16
 70
     1
102
RTVSPropertyOp17
 70
     1
102
RTVSPropertyOp18
 70
     1
102
RTVSPropertyOp19
 70
     1
102
RTVSPropertyOp20
 70
     1
102
RTVSPropertyOp21
 70
     1
102
RTVSPropertyOp22
 70
     1
102
RTVSPropertyOp23
 70
     1
102
RTVSPropertyOp24
 70
     1
102
RTVSPropertyOp25
 70
     1
102
RTVSPropertyOp26
 70
     1
102
RTVSPropertyOp27
 70
     1
102
RTVSPropertyOp28
 70
     1
102
RTVSPropertyOp29
 70
     1
102
RTVSPropertyOp30
 70
     1
102
RTVSPropertyOp31
 70
     1
102
RTVSPropertyOp32
 70
     1
102
RTVSPropertyOp33
 70
     1
102
RTVSPropertyOp34
 70
     1
102
RTVSPropertyOp35
 70
     1
102
RTVSPropertyOp36
 70
     1
102
RTVSPropertyOp37
 70
     1
102
RTVSPropertyOp38
 70
     1
102
RTVSPropertyOp39
 70
     1
102
RTVSPropertyOp40
 70
     1
102
RTVSPropertyOp41
 70
     1
102
RTVSPropertyOp42
 70
     1
102
RTVSPropertyOp43
 70
     1
102
RTVSPropertyOp44
 70
     1
102
RTVSPropertyOp45
 70
     1
102
RTVSPropertyOp46
 70
     1
102
RTVSPropertyOp47
 70
     1
102
RTVSPropertyOp48
 70
     1
102
RTVSPropertyOp49
 70
     1
102
RTVSPropertyOp50
 70
     1
102
RTVSPropertyOp51
 70
     0
102
RTVSPropertyOp52
 70
     0
102
RTVSPropertyOp53
 70
     1
102
RTVSPropertyOp54
 70
     1
102
RTVSPropertyOp55
 70
     1
102
RTVSPropertyOp56
 70
     1
102
RTVSPropertyOp57
 70
     1
102
RTVSPost2010Prop28
280
     0
102
RTVSPost2010PropOp28
 70
     1
102
RTVSPost2010Prop29
280
     1
102
RTVSPost2010PropOp29
 70
     1
102
RTVSPost2010Prop30
280
     1
102
RTVSPost2010PropOp30
 70
     1
102
RTVSPost2010Prop31
280
     0
102
RTVSPost2010PropOp31
 70
     1
102
RTVSPost2010Prop32
280
     0
102
RTVSPost2010PropOp32
 70
     1
102
RTVSPost2010Prop33
280
     0
102
RTVSPost2010PropOp33
 70
     1
102
RTVSPost2010Prop34
280
     0
102
RTVSPost2010PropOp34
 70
     1
102
RTVSPost2010Prop35
280
     0
102
RTVSPost2010PropOp35
 70
     1
102
RTVSPost2010Prop36
280
     0
102
RTVSPost2010PropOp36
 70
     1
102
RTVSPost2010Prop37
 90
       50
102
RTVSPost2010PropOp37
 70
     1
102
RTVSPost2010Prop38
140
0.0
102
RTVSPost2010PropOp38
 70
     1
102
RTVSPost2010Prop39
140
1.0
102
RTVSPost2010PropOp39
 70
     1
102
RTVSPost2010Prop40
 90
        0
102
RTVSPost2010PropOp40
 70
     1
102
RTVSPost2010Prop41ColorIndex
 90
       18
102
RTVSPost2010Prop41ColorRGB
 90
        0
102
RTVSPost2010PropOp41
 70
     1
102
RTVSPost2010Prop42
 90
       50
102
RTVSPost2010PropOp42
 70
     1
102
RTVSPost2010Prop43
 90
        3
102
RTVSPost2010PropOp43
 70
     1
102
RTVSPost2010Prop44ColorIndex
 90
        5
102
RTVSPost2010Prop44ColorRGB
 90
      255
102
RTVSPost2010PropOp44
 70
     1
102
RTVSPost2010Prop45
280
     0
102
RTVSPost2010PropOp45
 70
     1
102
RTVSPost2010Prop46
 90
       50
102
RTVSPost2010PropOp46
 70
     1
102
RTVSPost2010Prop47
 90
       50
102
RTVSPost2010PropOp47
 70
     1
102
RTVSPost2010Prop48
 90
       50
102
RTVSPost2010PropOp48
 70
     1
102
RTVSPost2010Prop49
280
     0
102
RTVSPost2010PropOp49
 70
     1
102
RTVSPost2010Prop50
 90
       50
102
RTVSPost2010PropOp50
 70
     1
102
RTVSPost2010Prop51ColorIndex
 90
      256
102
RTVSPost2010Prop51ColorRGB
 90
-16777216
102
RTVSPost2010PropOp51
 70
     0
102
RTVSPost2010Prop52
140
1.0
102
RTVSPost2010PropOp52
 70
     0
102
RTVSPost2010Prop53
 90
        2
102
RTVSPost2010PropOp53
 70
     1
102
RTVSPost2010Prop54
  1
strokes_ogs.tif
102
RTVSPost2010PropOp54
 70
     1
102
RTVSPost2010Prop55
280
     0
102
RTVSPost2010PropOp55
 70
     1
102
RTVSPost2010Prop56
140
1.0
102
RTVSPost2010PropOp56
 70
     1
102
RTVSPost2010Prop57
140
1.0
102
RTVSPost2010PropOp57
 70
     1
  0
XRECORD
  5
36C
102
{ACAD_REACTORS
330
36B
102
}
330
36B
100
AcDbXrecord
280
     1
102
RTVSPropertyOp0
 70
     0
102
RTVSPropertyOp1
 70
     0
102
RTVSPropertyOp2
 70
     0
102
RTVSPropertyOp3
 70
     0
102
RTVSPropertyOp4
 70
     0
102
RTVSPropertyOp5
 70
     0
102
RTVSPropertyOp6
 70
     0
102
RTVSPropertyOp7
 70
     0
102
RTVSPropertyOp8
 70
     0
102
RTVSPropertyOp9
 70
     0
102
RTVSPropertyOp10
 70
     0
102
RTVSPropertyOp11
 70
     0
102
RTVSPropertyOp12
 70
     0
102
RTVSPropertyOp13
 70
     0
102
RTVSPropertyOp14
 70
     2
102
RTVSPropertyOp15
 70
     0
102
RTVSPropertyOp16
 70
     0
102
RTVSPropertyOp17
 70
     0
102
RTVSPropertyOp18
 70
     0
102
RTVSPropertyOp19
 70
     0
102
RTVSPropertyOp20
 70
     0
102
RTVSPropertyOp21
 70
     0
102
RTVSPropertyOp22
 70
     0
102
RTVSPropertyOp23
 70
     0
102
RTVSPropertyOp24
 70
     0
102
RTVSPropertyOp25
 70
     0
102
RTVSPropertyOp26
 70
     0
102
RTVSPropertyOp27
 70
     0
102
RTVSPropertyOp28
 70
     0
102
RTVSPropertyOp29
 70
     0
102
RTVSPropertyOp30
 70
     0
102
RTVSPropertyOp31
 70
     0
102
RTVSPropertyOp32
 70
     0
102
RTVSPropertyOp33
 70
     0
102
RTVSPropertyOp34
 70
     0
102
RTVSPropertyOp35
 70
     0
102
RTVSPropertyOp36
 70
     0
102
RTVSPropertyOp37
 70
     0
102
RTVSPropertyOp38
 70
     0
102
RTVSPropertyOp39
 70
     0
102
RTVSPropertyOp40
 70
     0
102
RTVSPropertyOp41
 70
     0
102
RTVSPropertyOp42
 70
     0
102
RTVSPropertyOp43
 70
     0
102
RTVSPropertyOp44
 70
     0
102
RTVSPropertyOp45
 70
     0
102
RTVSPropertyOp46
 70
     0
102
RTVSPropertyOp47
 70
     0
102
RTVSPropertyOp48
 70
     0
102
RTVSPropertyOp49
 70
     0
102
RTVSPropertyOp50
 70
     0
102
RTVSPropertyOp51
 70
     0
102
RTVSPropertyOp52
 70
     0
102
RTVSPropertyOp53
 70
     0
102
RTVSPropertyOp54
 70
     0
102
RTVSPropertyOp55
 70
     0
102
RTVSPropertyOp56
 70
     0
102
RTVSPropertyOp57
 70
     0
102
RTVSPost2010Prop28
280
     0
102
RTVSPost2010PropOp28
 70
     0
102
RTVSPost2010Prop29
280
     1
102
RTVSPost2010PropOp29
 70
     0
102
RTVSPost2010Prop30
280
     1
102
RTVSPost2010PropOp30
 70
     0
102
RTVSPost2010Prop31
280
     0
102
RTVSPost2010PropOp31
 70
     0
102
RTVSPost2010Prop32
280
     0
102
RTVSPost2010PropOp32
 70
     0
102
RTVSPost2010Prop33
280
     0
102
RTVSPost2010PropOp33
 70
     0
102
RTVSPost2010Prop34
280
     0
102
RTVSPost2010PropOp34
 70
     0
102
RTVSPost2010Prop35
280
     0
102
RTVSPost2010PropOp35
 70
     0
102
RTVSPost2010Prop36
280
     0
102
RTVSPost2010PropOp36
 70
     0
102
RTVSPost2010Prop37
 90
       50
102
RTVSPost2010PropOp37
 70
     0
102
RTVSPost2010Prop38
140
0.0
102
RTVSPost2010PropOp38
 70
     0
102
RTVSPost2010Prop39
140
1.0
102
RTVSPost2010PropOp39
 70
     0
102
RTVSPost2010Prop40
 90
        0
102
RTVSPost2010PropOp40
 70
     0
102
RTVSPost2010Prop41ColorIndex
 90
       18
102
RTVSPost2010Prop41ColorRGB
 90
        0
102
RTVSPost2010PropOp41
 70
     0
102
RTVSPost2010Prop42
 90
       50
102
RTVSPost2010PropOp42
 70
     0
102
RTVSPost2010Prop43
 90
        3
102
RTVSPost2010PropOp43
 70
     0
102
RTVSPost2010Prop44ColorIndex
 90
        5
102
RTVSPost2010Prop44ColorRGB
 90
      255
102
RTVSPost2010PropOp44
 70
     0
102
RTVSPost2010Prop45
280
     0
102
RTVSPost2010PropOp45
 70
     0
102
RTVSPost2010Prop46
 90
       50
102
RTVSPost2010PropOp46
 70
     0
102
RTVSPost2010Prop47
 90
       50
102
RTVSPost2010PropOp47
 70
     0
102
RTVSPost2010Prop48
 90
       50
102
RTVSPost2010PropOp48
 70
     0
102
RTVSPost2010Prop49
280
     0
102
RTVSPost2010PropOp49
 70
     0
102
RTVSPost2010Prop50
 90
       50
102
RTVSPost2010PropOp50
 70
     0
102
RTVSPost2010Prop51ColorIndex
 90
      256
102
RTVSPost2010Prop51ColorRGB
 90
-16777216
102
RTVSPost2010PropOp51
 70
     0
102
RTVSPost2010Prop52
140
1.0
102
RTVSPost2010PropOp52
 70
     0
102
RTVSPost2010Prop53
 90
        2
102
RTVSPost2010PropOp53
 70
     0
102
RTVSPost2010Prop54
  1
strokes_ogs.tif
102
RTVSPost2010PropOp54
 70
     0
102
RTVSPost2010Prop55
280
     0
102
RTVSPost2010PropOp55
 70
     0
102
RTVSPost2010Prop56
140
1.0
102
RTVSPost2010PropOp56
 70
     0
102
RTVSPost2010Prop57
140
1.0
102
RTVSPost2010PropOp57
 70
     0
  0
XRECORD
  5
35A
102
{ACAD_REACTORS
330
359
102
}
330
359
100
AcDbXrecord
280
     1
102
RTVSPropertyOp0
 70
     1
102
RTVSPropertyOp1
 70
     1
102
RTVSPropertyOp2
 70
     1
102
RTVSPropertyOp3
 70
     1
102
RTVSPropertyOp4
 70
     1
102
RTVSPropertyOp5
 70
     1
102
RTVSPropertyOp6
 70
     1
102
RTVSPropertyOp7
 70
     1
102
RTVSPropertyOp8
 70
     1
102
RTVSPropertyOp9
 70
     1
102
RTVSPropertyOp10
 70
     1
102
RTVSPropertyOp11
 70
     1
102
RTVSPropertyOp12
 70
     1
102
RTVSPropertyOp13
 70
     1
102
RTVSPropertyOp14
 70
     1
102
RTVSPropertyOp15
 70
     1
102
RTVSPropertyOp16
 70
     1
102
RTVSPropertyOp17
 70
     1
102
RTVSPropertyOp18
 70
     1
102
RTVSPropertyOp19
 70
     1
102
RTVSPropertyOp20
 70
     1
102
RTVSPropertyOp21
 70
     1
102
RTVSPropertyOp22
 70
     1
102
RTVSPropertyOp23
 70
     1
102
RTVSPropertyOp24
 70
     1
102
RTVSPropertyOp25
 70
     1
102
RTVSPropertyOp26
 70
     1
102
RTVSPropertyOp27
 70
     1
102
RTVSPropertyOp28
 70
     1
102
RTVSPropertyOp29
 70
     1
102
RTVSPropertyOp30
 70
     1
102
RTVSPropertyOp31
 70
     1
102
RTVSPropertyOp32
 70
     1
102
RTVSPropertyOp33
 70
     1
102
RTVSPropertyOp34
 70
     1
102
RTVSPropertyOp35
 70
     1
102
RTVSPropertyOp36
 70
     1
102
RTVSPropertyOp37
 70
     1
102
RTVSPropertyOp38
 70
     1
102
RTVSPropertyOp39
 70
     1
102
RTVSPropertyOp40
 70
     1
102
RTVSPropertyOp41
 70
     1
102
RTVSPropertyOp42
 70
     1
102
RTVSPropertyOp43
 70
     1
102
RTVSPropertyOp44
 70
     1
102
RTVSPropertyOp45
 70
     1
102
RTVSPropertyOp46
 70
     1
102
RTVSPropertyOp47
 70
     1
102
RTVSPropertyOp48
 70
     1
102
RTVSPropertyOp49
 70
     1
102
RTVSPropertyOp50
 70
     1
102
RTVSPropertyOp51
 70
     0
102
RTVSPropertyOp52
 70
     0
102
RTVSPropertyOp53
 70
     1
102
RTVSPropertyOp54
 70
     1
102
RTVSPropertyOp55
 70
     1
102
RTVSPropertyOp56
 70
     1
102
RTVSPropertyOp57
 70
     1
102
RTVSPost2010Prop28
280
     0
102
RTVSPost2010PropOp28
 70
     1
102
RTVSPost2010Prop29
280
     1
102
RTVSPost2010PropOp29
 70
     1
102
RTVSPost2010Prop30
280
     1
102
RTVSPost2010PropOp30
 70
     1
102
RTVSPost2010Prop31
280
     0
102
RTVSPost2010PropOp31
 70
     1
102
RTVSPost2010Prop32
280
     0
102
RTVSPost2010PropOp32
 70
     1
102
RTVSPost2010Prop33
280
     0
102
RTVSPost2010PropOp33
 70
     1
102
RTVSPost2010Prop34
280
     0
102
RTVSPost2010PropOp34
 70
     1
102
RTVSPost2010Prop35
280
     0
102
RTVSPost2010PropOp35
 70
     1
102
RTVSPost2010Prop36
280
     0
102
RTVSPost2010PropOp36
 70
     1
102
RTVSPost2010Prop37
 90
       50
102
RTVSPost2010PropOp37
 70
     1
102
RTVSPost2010Prop38
140
0.0
102
RTVSPost2010PropOp38
 70
     1
102
RTVSPost2010Prop39
140
1.0
102
RTVSPost2010PropOp39
 70
     1
102
RTVSPost2010Prop40
 90
        0
102
RTVSPost2010PropOp40
 70
     1
102
RTVSPost2010Prop41ColorIndex
 90
       18
102
RTVSPost2010Prop41ColorRGB
 90
        0
102
RTVSPost2010PropOp41
 70
     1
102
RTVSPost2010Prop42
 90
       50
102
RTVSPost2010PropOp42
 70
     1
102
RTVSPost2010Prop43
 90
        3
102
RTVSPost2010PropOp43
 70
     1
102
RTVSPost2010Prop44ColorIndex
 90
        5
102
RTVSPost2010Prop44ColorRGB
 90
      255
102
RTVSPost2010PropOp44
 70
     1
102
RTVSPost2010Prop45
280
     0
102
RTVSPost2010PropOp45
 70
     1
102
RTVSPost2010Prop46
 90
       50
102
RTVSPost2010PropOp46
 70
     1
102
RTVSPost2010Prop47
 90
       50
102
RTVSPost2010PropOp47
 70
     1
102
RTVSPost2010Prop48
 90
       50
102
RTVSPost2010PropOp48
 70
     1
102
RTVSPost2010Prop49
280
     0
102
RTVSPost2010PropOp49
 70
     1
102
RTVSPost2010Prop50
 90
       50
102
RTVSPost2010PropOp50
 70
     1
102
RTVSPost2010Prop51ColorIndex
 90
      256
102
RTVSPost2010Prop51ColorRGB
 90
-16777216
102
RTVSPost2010PropOp51
 70
     0
102
RTVSPost2010Prop52
140
1.0
102
RTVSPost2010PropOp52
 70
     0
102
RTVSPost2010Prop53
 90
        2
102
RTVSPost2010PropOp53
 70
     1
102
RTVSPost2010Prop54
  1
strokes_ogs.tif
102
RTVSPost2010PropOp54
 70
     1
102
RTVSPost2010Prop55
280
     0
102
RTVSPost2010PropOp55
 70
     1
102
RTVSPost2010Prop56
140
1.0
102
RTVSPost2010PropOp56
 70
     1
102
RTVSPost2010Prop57
140
1.0
102
RTVSPost2010PropOp57
 70
     1
  0
XRECORD
  5
378
102
{ACAD_REACTORS
330
377
102
}
330
377
100
AcDbXrecord
280
     1
102
RTVSPropertyOp0
 70
     1
102
RTVSPropertyOp1
 70
     1
102
RTVSPropertyOp2
 70
     1
102
RTVSPropertyOp3
 70
     1
102
RTVSPropertyOp4
 70
     1
102
RTVSPropertyOp5
 70
     1
102
RTVSPropertyOp6
 70
     1
102
RTVSPropertyOp7
 70
     1
102
RTVSPropertyOp8
 70
     1
102
RTVSPropertyOp9
 70
     1
102
RTVSPropertyOp10
 70
     1
102
RTVSPropertyOp11
 70
     1
102
RTVSPropertyOp12
 70
     1
102
RTVSPropertyOp13
 70
     1
102
RTVSPropertyOp14
 70
     1
102
RTVSPropertyOp15
 70
     1
102
RTVSPropertyOp16
 70
     1
102
RTVSPropertyOp17
 70
     1
102
RTVSPropertyOp18
 70
     1
102
RTVSPropertyOp19
 70
     1
102
RTVSPropertyOp20
 70
     1
102
RTVSPropertyOp21
 70
     1
102
RTVSPropertyOp22
 70
     1
102
RTVSPropertyOp23
 70
     1
102
RTVSPropertyOp24
 70
     1
102
RTVSPropertyOp25
 70
     1
102
RTVSPropertyOp26
 70
     1
102
RTVSPropertyOp27
 70
     1
102
RTVSPropertyOp28
 70
     1
102
RTVSPropertyOp29
 70
     1
102
RTVSPropertyOp30
 70
     1
102
RTVSPropertyOp31
 70
     1
102
RTVSPropertyOp32
 70
     1
102
RTVSPropertyOp33
 70
     1
102
RTVSPropertyOp34
 70
     1
102
RTVSPropertyOp35
 70
     1
102
RTVSPropertyOp36
 70
     1
102
RTVSPropertyOp37
 70
     1
102
RTVSPropertyOp38
 70
     1
102
RTVSPropertyOp39
 70
     1
102
RTVSPropertyOp40
 70
     1
102
RTVSPropertyOp41
 70
     1
102
RTVSPropertyOp42
 70
     1
102
RTVSPropertyOp43
 70
     1
102
RTVSPropertyOp44
 70
     1
102
RTVSPropertyOp45
 70
     1
102
RTVSPropertyOp46
 70
     1
102
RTVSPropertyOp47
 70
     1
102
RTVSPropertyOp48
 70
     1
102
RTVSPropertyOp49
 70
     1
102
RTVSPropertyOp50
 70
     1
102
RTVSPropertyOp51
 70
     0
102
RTVSPropertyOp52
 70
     0
102
RTVSPropertyOp53
 70
     1
102
RTVSPropertyOp54
 70
     1
102
RTVSPropertyOp55
 70
     1
102
RTVSPropertyOp56
 70
     1
102
RTVSPropertyOp57
 70
     1
102
RTVSPost2010Prop28
280
     0
102
RTVSPost2010PropOp28
 70
     1
102
RTVSPost2010Prop29
280
     1
102
RTVSPost2010PropOp29
 70
     1
102
RTVSPost2010Prop30
280
     1
102
RTVSPost2010PropOp30
 70
     1
102
RTVSPost2010Prop31
280
     0
102
RTVSPost2010PropOp31
 70
     1
102
RTVSPost2010Prop32
280
     0
102
RTVSPost2010PropOp32
 70
     1
102
RTVSPost2010Prop33
280
     0
102
RTVSPost2010PropOp33
 70
     1
102
RTVSPost2010Prop34
280
     0
102
RTVSPost2010PropOp34
 70
     1
102
RTVSPost2010Prop35
280
     0
102
RTVSPost2010PropOp35
 70
     1
102
RTVSPost2010Prop36
280
     0
102
RTVSPost2010PropOp36
 70
     1
102
RTVSPost2010Prop37
 90
       50
102
RTVSPost2010PropOp37
 70
     1
102
RTVSPost2010Prop38
140
0.0
102
RTVSPost2010PropOp38
 70
     1
102
RTVSPost2010Prop39
140
1.0
102
RTVSPost2010PropOp39
 70
     1
102
RTVSPost2010Prop40
 90
        0
102
RTVSPost2010PropOp40
 70
     1
102
RTVSPost2010Prop41ColorIndex
 90
       18
102
RTVSPost2010Prop41ColorRGB
 90
        0
102
RTVSPost2010PropOp41
 70
     1
102
RTVSPost2010Prop42
 90
       50
102
RTVSPost2010PropOp42
 70
     1
102
RTVSPost2010Prop43
 90
        3
102
RTVSPost2010PropOp43
 70
     1
102
RTVSPost2010Prop44ColorIndex
 90
        5
102
RTVSPost2010Prop44ColorRGB
 90
      255
102
RTVSPost2010PropOp44
 70
     1
102
RTVSPost2010Prop45
280
     0
102
RTVSPost2010PropOp45
 70
     1
102
RTVSPost2010Prop46
 90
       50
102
RTVSPost2010PropOp46
 70
     1
102
RTVSPost2010Prop47
 90
       50
102
RTVSPost2010PropOp47
 70
     1
102
RTVSPost2010Prop48
 90
       50
102
RTVSPost2010PropOp48
 70
     1
102
RTVSPost2010Prop49
280
     0
102
RTVSPost2010PropOp49
 70
     1
102
RTVSPost2010Prop50
 90
       50
102
RTVSPost2010PropOp50
 70
     1
102
RTVSPost2010Prop51ColorIndex
 90
      256
102
RTVSPost2010Prop51ColorRGB
 90
-16777216
102
RTVSPost2010PropOp51
 70
     0
102
RTVSPost2010Prop52
140
1.0
102
RTVSPost2010PropOp52
 70
     0
102
RTVSPost2010Prop53
 90
        2
102
RTVSPost2010PropOp53
 70
     1
102
RTVSPost2010Prop54
  1
strokes_ogs.tif
102
RTVSPost2010PropOp54
 70
     1
102
RTVSPost2010Prop55
280
     0
102
RTVSPost2010PropOp55
 70
     1
102
RTVSPost2010Prop56
140
1.0
102
RTVSPost2010PropOp56
 70
     1
102
RTVSPost2010Prop57
140
1.0
102
RTVSPost2010PropOp57
 70
     1
  0
XRECORD
  5
376
102
{ACAD_REACTORS
330
375
102
}
330
375
100
AcDbXrecord
280
     1
102
RTVSPropertyOp0
 70
     1
102
RTVSPropertyOp1
 70
     1
102
RTVSPropertyOp2
 70
     1
102
RTVSPropertyOp3
 70
     1
102
RTVSPropertyOp4
 70
     1
102
RTVSPropertyOp5
 70
     1
102
RTVSPropertyOp6
 70
     1
102
RTVSPropertyOp7
 70
     1
102
RTVSPropertyOp8
 70
     1
102
RTVSPropertyOp9
 70
     1
102
RTVSPropertyOp10
 70
     1
102
RTVSPropertyOp11
 70
     1
102
RTVSPropertyOp12
 70
     1
102
RTVSPropertyOp13
 70
     1
102
RTVSPropertyOp14
 70
     1
102
RTVSPropertyOp15
 70
     1
102
RTVSPropertyOp16
 70
     1
102
RTVSPropertyOp17
 70
     1
102
RTVSPropertyOp18
 70
     1
102
RTVSPropertyOp19
 70
     1
102
RTVSPropertyOp20
 70
     1
102
RTVSPropertyOp21
 70
     1
102
RTVSPropertyOp22
 70
     1
102
RTVSPropertyOp23
 70
     1
102
RTVSPropertyOp24
 70
     1
102
RTVSPropertyOp25
 70
     1
102
RTVSPropertyOp26
 70
     1
102
RTVSPropertyOp27
 70
     1
102
RTVSPropertyOp28
 70
     1
102
RTVSPropertyOp29
 70
     1
102
RTVSPropertyOp30
 70
     1
102
RTVSPropertyOp31
 70
     1
102
RTVSPropertyOp32
 70
     1
102
RTVSPropertyOp33
 70
     1
102
RTVSPropertyOp34
 70
     1
102
RTVSPropertyOp35
 70
     1
102
RTVSPropertyOp36
 70
     1
102
RTVSPropertyOp37
 70
     1
102
RTVSPropertyOp38
 70
     1
102
RTVSPropertyOp39
 70
     1
102
RTVSPropertyOp40
 70
     1
102
RTVSPropertyOp41
 70
     1
102
RTVSPropertyOp42
 70
     1
102
RTVSPropertyOp43
 70
     1
102
RTVSPropertyOp44
 70
     1
102
RTVSPropertyOp45
 70
     1
102
RTVSPropertyOp46
 70
     1
102
RTVSPropertyOp47
 70
     1
102
RTVSPropertyOp48
 70
     1
102
RTVSPropertyOp49
 70
     1
102
RTVSPropertyOp50
 70
     1
102
RTVSPropertyOp51
 70
     0
102
RTVSPropertyOp52
 70
     0
102
RTVSPropertyOp53
 70
     1
102
RTVSPropertyOp54
 70
     1
102
RTVSPropertyOp55
 70
     1
102
RTVSPropertyOp56
 70
     1
102
RTVSPropertyOp57
 70
     1
102
RTVSPost2010Prop28
280
     0
102
RTVSPost2010PropOp28
 70
     1
102
RTVSPost2010Prop29
280
     1
102
RTVSPost2010PropOp29
 70
     1
102
RTVSPost2010Prop30
280
     1
102
RTVSPost2010PropOp30
 70
     1
102
RTVSPost2010Prop31
280
     0
102
RTVSPost2010PropOp31
 70
     1
102
RTVSPost2010Prop32
280
     0
102
RTVSPost2010PropOp32
 70
     1
102
RTVSPost2010Prop33
280
     0
102
RTVSPost2010PropOp33
 70
     1
102
RTVSPost2010Prop34
280
     0
102
RTVSPost2010PropOp34
 70
     1
102
RTVSPost2010Prop35
280
     0
102
RTVSPost2010PropOp35
 70
     1
102
RTVSPost2010Prop36
280
     0
102
RTVSPost2010PropOp36
 70
     1
102
RTVSPost2010Prop37
 90
       50
102
RTVSPost2010PropOp37
 70
     1
102
RTVSPost2010Prop38
140
0.0
102
RTVSPost2010PropOp38
 70
     1
102
RTVSPost2010Prop39
140
1.0
102
RTVSPost2010PropOp39
 70
     1
102
RTVSPost2010Prop40
 90
        0
102
RTVSPost2010PropOp40
 70
     1
102
RTVSPost2010Prop41ColorIndex
 90
       18
102
RTVSPost2010Prop41ColorRGB
 90
        0
102
RTVSPost2010PropOp41
 70
     1
102
RTVSPost2010Prop42
 90
       50
102
RTVSPost2010PropOp42
 70
     1
102
RTVSPost2010Prop43
 90
        3
102
RTVSPost2010PropOp43
 70
     1
102
RTVSPost2010Prop44ColorIndex
 90
        5
102
RTVSPost2010Prop44ColorRGB
 90
      255
102
RTVSPost2010PropOp44
 70
     1
102
RTVSPost2010Prop45
280
     0
102
RTVSPost2010PropOp45
 70
     1
102
RTVSPost2010Prop46
 90
       50
102
RTVSPost2010PropOp46
 70
     1
102
RTVSPost2010Prop47
 90
       50
102
RTVSPost2010PropOp47
 70
     1
102
RTVSPost2010Prop48
 90
       50
102
RTVSPost2010PropOp48
 70
     1
102
RTVSPost2010Prop49
280
     0
102
RTVSPost2010PropOp49
 70
     1
102
RTVSPost2010Prop50
 90
       50
102
RTVSPost2010PropOp50
 70
     1
102
RTVSPost2010Prop51ColorIndex
 90
      256
102
RTVSPost2010Prop51ColorRGB
 90
-16777216
102
RTVSPost2010PropOp51
 70
     0
102
RTVSPost2010Prop52
140
1.0
102
RTVSPost2010PropOp52
 70
     0
102
RTVSPost2010Prop53
 90
        2
102
RTVSPost2010PropOp53
 70
     1
102
RTVSPost2010Prop54
  1
strokes_ogs.tif
102
RTVSPost2010PropOp54
 70
     1
102
RTVSPost2010Prop55
280
     0
102
RTVSPost2010PropOp55
 70
     1
102
RTVSPost2010Prop56
140
1.0
102
RTVSPost2010PropOp56
 70
     1
102
RTVSPost2010Prop57
140
1.0
102
RTVSPost2010PropOp57
 70
     1
  0
XRECORD
  5
370
102
{ACAD_REACTORS
330
36F
102
}
330
36F
100
AcDbXrecord
280
     1
102
RTVSPropertyOp0
 70
     1
102
RTVSPropertyOp1
 70
     1
102
RTVSPropertyOp2
 70
     1
102
RTVSPropertyOp3
 70
     1
102
RTVSPropertyOp4
 70
     1
102
RTVSPropertyOp5
 70
     1
102
RTVSPropertyOp6
 70
     1
102
RTVSPropertyOp7
 70
     1
102
RTVSPropertyOp8
 70
     1
102
RTVSPropertyOp9
 70
     1
102
RTVSPropertyOp10
 70
     1
102
RTVSPropertyOp11
 70
     1
102
RTVSPropertyOp12
 70
     1
102
RTVSPropertyOp13
 70
     1
102
RTVSPropertyOp14
 70
     1
102
RTVSPropertyOp15
 70
     1
102
RTVSPropertyOp16
 70
     1
102
RTVSPropertyOp17
 70
     1
102
RTVSPropertyOp18
 70
     1
102
RTVSPropertyOp19
 70
     1
102
RTVSPropertyOp20
 70
     1
102
RTVSPropertyOp21
 70
     1
102
RTVSPropertyOp22
 70
     1
102
RTVSPropertyOp23
 70
     1
102
RTVSPropertyOp24
 70
     1
102
RTVSPropertyOp25
 70
     1
102
RTVSPropertyOp26
 70
     1
102
RTVSPropertyOp27
 70
     1
102
RTVSPropertyOp28
 70
     1
102
RTVSPropertyOp29
 70
     1
102
RTVSPropertyOp30
 70
     1
102
RTVSPropertyOp31
 70
     1
102
RTVSPropertyOp32
 70
     1
102
RTVSPropertyOp33
 70
     1
102
RTVSPropertyOp34
 70
     1
102
RTVSPropertyOp35
 70
     1
102
RTVSPropertyOp36
 70
     1
102
RTVSPropertyOp37
 70
     1
102
RTVSPropertyOp38
 70
     1
102
RTVSPropertyOp39
 70
     1
102
RTVSPropertyOp40
 70
     1
102
RTVSPropertyOp41
 70
     1
102
RTVSPropertyOp42
 70
     1
102
RTVSPropertyOp43
 70
     1
102
RTVSPropertyOp44
 70
     1
102
RTVSPropertyOp45
 70
     1
102
RTVSPropertyOp46
 70
     1
102
RTVSPropertyOp47
 70
     1
102
RTVSPropertyOp48
 70
     1
102
RTVSPropertyOp49
 70
     1
102
RTVSPropertyOp50
 70
     1
102
RTVSPropertyOp51
 70
     0
102
RTVSPropertyOp52
 70
     0
102
RTVSPropertyOp53
 70
     1
102
RTVSPropertyOp54
 70
     1
102
RTVSPropertyOp55
 70
     1
102
RTVSPropertyOp56
 70
     1
102
RTVSPropertyOp57
 70
     1
102
RTVSPost2010Prop28
280
     0
102
RTVSPost2010PropOp28
 70
     1
102
RTVSPost2010Prop29
280
     1
102
RTVSPost2010PropOp29
 70
     1
102
RTVSPost2010Prop30
280
     1
102
RTVSPost2010PropOp30
 70
     1
102
RTVSPost2010Prop31
280
     0
102
RTVSPost2010PropOp31
 70
     1
102
RTVSPost2010Prop32
280
     0
102
RTVSPost2010PropOp32
 70
     1
102
RTVSPost2010Prop33
280
     0
102
RTVSPost2010PropOp33
 70
     1
102
RTVSPost2010Prop34
280
     0
102
RTVSPost2010PropOp34
 70
     1
102
RTVSPost2010Prop35
280
     0
102
RTVSPost2010PropOp35
 70
     1
102
RTVSPost2010Prop36
280
     0
102
RTVSPost2010PropOp36
 70
     1
102
RTVSPost2010Prop37
 90
       50
102
RTVSPost2010PropOp37
 70
     1
102
RTVSPost2010Prop38
140
0.0
102
RTVSPost2010PropOp38
 70
     1
102
RTVSPost2010Prop39
140
1.0
102
RTVSPost2010PropOp39
 70
     1
102
RTVSPost2010Prop40
 90
        0
102
RTVSPost2010PropOp40
 70
     1
102
RTVSPost2010Prop41ColorIndex
 90
       18
102
RTVSPost2010Prop41ColorRGB
 90
        0
102
RTVSPost2010PropOp41
 70
     1
102
RTVSPost2010Prop42
 90
       50
102
RTVSPost2010PropOp42
 70
     1
102
RTVSPost2010Prop43
 90
        3
102
RTVSPost2010PropOp43
 70
     1
102
RTVSPost2010Prop44ColorIndex
 90
        5
102
RTVSPost2010Prop44ColorRGB
 90
      255
102
RTVSPost2010PropOp44
 70
     1
102
RTVSPost2010Prop45
280
     0
102
RTVSPost2010PropOp45
 70
     1
102
RTVSPost2010Prop46
 90
       50
102
RTVSPost2010PropOp46
 70
     1
102
RTVSPost2010Prop47
 90
       50
102
RTVSPost2010PropOp47
 70
     1
102
RTVSPost2010Prop48
 90
       50
102
RTVSPost2010PropOp48
 70
     1
102
RTVSPost2010Prop49
280
     0
102
RTVSPost2010PropOp49
 70
     1
102
RTVSPost2010Prop50
 90
       50
102
RTVSPost2010PropOp50
 70
     1
102
RTVSPost2010Prop51ColorIndex
 90
      256
102
RTVSPost2010Prop51ColorRGB
 90
-16777216
102
RTVSPost2010PropOp51
 70
     0
102
RTVSPost2010Prop52
140
1.0
102
RTVSPost2010PropOp52
 70
     0
102
RTVSPost2010Prop53
 90
        2
102
RTVSPost2010PropOp53
 70
     1
102
RTVSPost2010Prop54
  1
strokes_ogs.tif
102
RTVSPost2010PropOp54
 70
     1
102
RTVSPost2010Prop55
280
     0
102
RTVSPost2010PropOp55
 70
     1
102
RTVSPost2010Prop56
140
1.0
102
RTVSPost2010PropOp56
 70
     1
102
RTVSPost2010Prop57
140
1.0
102
RTVSPost2010PropOp57
 70
     1
  0
XRECORD
  5
372
102
{ACAD_REACTORS
330
371
102
}
330
371
100
AcDbXrecord
280
     1
102
RTVSPropertyOp0
 70
     1
102
RTVSPropertyOp1
 70
     1
102
RTVSPropertyOp2
 70
     1
102
RTVSPropertyOp3
 70
     1
102
RTVSPropertyOp4
 70
     1
102
RTVSPropertyOp5
 70
     1
102
RTVSPropertyOp6
 70
     1
102
RTVSPropertyOp7
 70
     1
102
RTVSPropertyOp8
 70
     1
102
RTVSPropertyOp9
 70
     1
102
RTVSPropertyOp10
 70
     1
102
RTVSPropertyOp11
 70
     1
102
RTVSPropertyOp12
 70
     1
102
RTVSPropertyOp13
 70
     1
102
RTVSPropertyOp14
 70
     1
102
RTVSPropertyOp15
 70
     1
102
RTVSPropertyOp16
 70
     1
102
RTVSPropertyOp17
 70
     1
102
RTVSPropertyOp18
 70
     1
102
RTVSPropertyOp19
 70
     1
102
RTVSPropertyOp20
 70
     1
102
RTVSPropertyOp21
 70
     1
102
RTVSPropertyOp22
 70
     1
102
RTVSPropertyOp23
 70
     1
102
RTVSPropertyOp24
 70
     1
102
RTVSPropertyOp25
 70
     1
102
RTVSPropertyOp26
 70
     1
102
RTVSPropertyOp27
 70
     1
102
RTVSPropertyOp28
 70
     1
102
RTVSPropertyOp29
 70
     1
102
RTVSPropertyOp30
 70
     1
102
RTVSPropertyOp31
 70
     1
102
RTVSPropertyOp32
 70
     1
102
RTVSPropertyOp33
 70
     1
102
RTVSPropertyOp34
 70
     1
102
RTVSPropertyOp35
 70
     1
102
RTVSPropertyOp36
 70
     1
102
RTVSPropertyOp37
 70
     1
102
RTVSPropertyOp38
 70
     1
102
RTVSPropertyOp39
 70
     1
102
RTVSPropertyOp40
 70
     1
102
RTVSPropertyOp41
 70
     1
102
RTVSPropertyOp42
 70
     1
102
RTVSPropertyOp43
 70
     1
102
RTVSPropertyOp44
 70
     1
102
RTVSPropertyOp45
 70
     1
102
RTVSPropertyOp46
 70
     1
102
RTVSPropertyOp47
 70
     1
102
RTVSPropertyOp48
 70
     1
102
RTVSPropertyOp49
 70
     1
102
RTVSPropertyOp50
 70
     1
102
RTVSPropertyOp51
 70
     0
102
RTVSPropertyOp52
 70
     0
102
RTVSPropertyOp53
 70
     1
102
RTVSPropertyOp54
 70
     1
102
RTVSPropertyOp55
 70
     1
102
RTVSPropertyOp56
 70
     1
102
RTVSPropertyOp57
 70
     1
102
RTVSPost2010Prop28
280
     0
102
RTVSPost2010PropOp28
 70
     1
102
RTVSPost2010Prop29
280
     1
102
RTVSPost2010PropOp29
 70
     1
102
RTVSPost2010Prop30
280
     1
102
RTVSPost2010PropOp30
 70
     1
102
RTVSPost2010Prop31
280
     0
102
RTVSPost2010PropOp31
 70
     1
102
RTVSPost2010Prop32
280
     0
102
RTVSPost2010PropOp32
 70
     1
102
RTVSPost2010Prop33
280
     0
102
RTVSPost2010PropOp33
 70
     1
102
RTVSPost2010Prop34
280
     0
102
RTVSPost2010PropOp34
 70
     1
102
RTVSPost2010Prop35
280
     0
102
RTVSPost2010PropOp35
 70
     1
102
RTVSPost2010Prop36
280
     0
102
RTVSPost2010PropOp36
 70
     1
102
RTVSPost2010Prop37
 90
       50
102
RTVSPost2010PropOp37
 70
     1
102
RTVSPost2010Prop38
140
0.0
102
RTVSPost2010PropOp38
 70
     1
102
RTVSPost2010Prop39
140
1.0
102
RTVSPost2010PropOp39
 70
     1
102
RTVSPost2010Prop40
 90
        0
102
RTVSPost2010PropOp40
 70
     1
102
RTVSPost2010Prop41ColorIndex
 90
       18
102
RTVSPost2010Prop41ColorRGB
 90
        0
102
RTVSPost2010PropOp41
 70
     1
102
RTVSPost2010Prop42
 90
       50
102
RTVSPost2010PropOp42
 70
     1
102
RTVSPost2010Prop43
 90
        3
102
RTVSPost2010PropOp43
 70
     1
102
RTVSPost2010Prop44ColorIndex
 90
        5
102
RTVSPost2010Prop44ColorRGB
 90
      255
102
RTVSPost2010PropOp44
 70
     1
102
RTVSPost2010Prop45
280
     0
102
RTVSPost2010PropOp45
 70
     1
102
RTVSPost2010Prop46
 90
       50
102
RTVSPost2010PropOp46
 70
     1
102
RTVSPost2010Prop47
 90
       50
102
RTVSPost2010PropOp47
 70
     1
102
RTVSPost2010Prop48
 90
       50
102
RTVSPost2010PropOp48
 70
     1
102
RTVSPost2010Prop49
280
     0
102
RTVSPost2010PropOp49
 70
     1
102
RTVSPost2010Prop50
 90
       50
102
RTVSPost2010PropOp50
 70
     1
102
RTVSPost2010Prop51ColorIndex
 90
      256
102
RTVSPost2010Prop51ColorRGB
 90
-16777216
102
RTVSPost2010PropOp51
 70
     0
102
RTVSPost2010Prop52
140
1.0
102
RTVSPost2010PropOp52
 70
     0
102
RTVSPost2010Prop53
 90
        2
102
RTVSPost2010PropOp53
 70
     1
102
RTVSPost2010Prop54
  1
strokes_ogs.tif
102
RTVSPost2010PropOp54
 70
     1
102
RTVSPost2010Prop55
280
     0
102
RTVSPost2010PropOp55
 70
     1
102
RTVSPost2010Prop56
140
1.0
102
RTVSPost2010PropOp56
 70
     1
102
RTVSPost2010Prop57
140
1.0
102
RTVSPost2010PropOp57
 70
     1
  0
XRECORD
  5
362
102
{ACAD_REACTORS
330
361
102
}
330
361
100
AcDbXrecord
280
     1
102
RTVSPropertyOp0
 70
     1
102
RTVSPropertyOp1
 70
     1
102
RTVSPropertyOp2
 70
     1
102
RTVSPropertyOp3
 70
     1
102
RTVSPropertyOp4
 70
     1
102
RTVSPropertyOp5
 70
     1
102
RTVSPropertyOp6
 70
     1
102
RTVSPropertyOp7
 70
     1
102
RTVSPropertyOp8
 70
     1
102
RTVSPropertyOp9
 70
     1
102
RTVSPropertyOp10
 70
     1
102
RTVSPropertyOp11
 70
     1
102
RTVSPropertyOp12
 70
     1
102
RTVSPropertyOp13
 70
     1
102
RTVSPropertyOp14
 70
     1
102
RTVSPropertyOp15
 70
     1
102
RTVSPropertyOp16
 70
     1
102
RTVSPropertyOp17
 70
     1
102
RTVSPropertyOp18
 70
     1
102
RTVSPropertyOp19
 70
     1
102
RTVSPropertyOp20
 70
     1
102
RTVSPropertyOp21
 70
     1
102
RTVSPropertyOp22
 70
     1
102
RTVSPropertyOp23
 70
     1
102
RTVSPropertyOp24
 70
     1
102
RTVSPropertyOp25
 70
     1
102
RTVSPropertyOp26
 70
     1
102
RTVSPropertyOp27
 70
     1
102
RTVSPropertyOp28
 70
     1
102
RTVSPropertyOp29
 70
     1
102
RTVSPropertyOp30
 70
     1
102
RTVSPropertyOp31
 70
     1
102
RTVSPropertyOp32
 70
     1
102
RTVSPropertyOp33
 70
     1
102
RTVSPropertyOp34
 70
     1
102
RTVSPropertyOp35
 70
     1
102
RTVSPropertyOp36
 70
     1
102
RTVSPropertyOp37
 70
     1
102
RTVSPropertyOp38
 70
     1
102
RTVSPropertyOp39
 70
     1
102
RTVSPropertyOp40
 70
     1
102
RTVSPropertyOp41
 70
     1
102
RTVSPropertyOp42
 70
     1
102
RTVSPropertyOp43
 70
     1
102
RTVSPropertyOp44
 70
     1
102
RTVSPropertyOp45
 70
     1
102
RTVSPropertyOp46
 70
     1
102
RTVSPropertyOp47
 70
     1
102
RTVSPropertyOp48
 70
     1
102
RTVSPropertyOp49
 70
     1
102
RTVSPropertyOp50
 70
     1
102
RTVSPropertyOp51
 70
     0
102
RTVSPropertyOp52
 70
     0
102
RTVSPropertyOp53
 70
     1
102
RTVSPropertyOp54
 70
     1
102
RTVSPropertyOp55
 70
     1
102
RTVSPropertyOp56
 70
     1
102
RTVSPropertyOp57
 70
     1
102
RTVSPost2010Prop28
280
     0
102
RTVSPost2010PropOp28
 70
     1
102
RTVSPost2010Prop29
280
     1
102
RTVSPost2010PropOp29
 70
     1
102
RTVSPost2010Prop30
280
     1
102
RTVSPost2010PropOp30
 70
     1
102
RTVSPost2010Prop31
280
     0
102
RTVSPost2010PropOp31
 70
     1
102
RTVSPost2010Prop32
280
     0
102
RTVSPost2010PropOp32
 70
     1
102
RTVSPost2010Prop33
280
     0
102
RTVSPost2010PropOp33
 70
     1
102
RTVSPost2010Prop34
280
     0
102
RTVSPost2010PropOp34
 70
     1
102
RTVSPost2010Prop35
280
     0
102
RTVSPost2010PropOp35
 70
     1
102
RTVSPost2010Prop36
280
     0
102
RTVSPost2010PropOp36
 70
     1
102
RTVSPost2010Prop37
 90
       50
102
RTVSPost2010PropOp37
 70
     1
102
RTVSPost2010Prop38
140
0.0
102
RTVSPost2010PropOp38
 70
     1
102
RTVSPost2010Prop39
140
1.0
102
RTVSPost2010PropOp39
 70
     1
102
RTVSPost2010Prop40
 90
        0
102
RTVSPost2010PropOp40
 70
     1
102
RTVSPost2010Prop41ColorIndex
 90
       18
102
RTVSPost2010Prop41ColorRGB
 90
        0
102
RTVSPost2010PropOp41
 70
     1
102
RTVSPost2010Prop42
 90
       50
102
RTVSPost2010PropOp42
 70
     1
102
RTVSPost2010Prop43
 90
        3
102
RTVSPost2010PropOp43
 70
     1
102
RTVSPost2010Prop44ColorIndex
 90
        5
102
RTVSPost2010Prop44ColorRGB
 90
      255
102
RTVSPost2010PropOp44
 70
     1
102
RTVSPost2010Prop45
280
     0
102
RTVSPost2010PropOp45
 70
     1
102
RTVSPost2010Prop46
 90
       50
102
RTVSPost2010PropOp46
 70
     1
102
RTVSPost2010Prop47
 90
       50
102
RTVSPost2010PropOp47
 70
     1
102
RTVSPost2010Prop48
 90
       50
102
RTVSPost2010PropOp48
 70
     1
102
RTVSPost2010Prop49
280
     0
102
RTVSPost2010PropOp49
 70
     1
102
RTVSPost2010Prop50
 90
       50
102
RTVSPost2010PropOp50
 70
     1
102
RTVSPost2010Prop51ColorIndex
 90
      256
102
RTVSPost2010Prop51ColorRGB
 90
-16777216
102
RTVSPost2010PropOp51
 70
     0
102
RTVSPost2010Prop52
140
1.0
102
RTVSPost2010PropOp52
 70
     0
102
RTVSPost2010Prop53
 90
        2
102
RTVSPost2010PropOp53
 70
     1
102
RTVSPost2010Prop54
  1
strokes_ogs.tif
102
RTVSPost2010PropOp54
 70
     1
102
RTVSPost2010Prop55
280
     0
102
RTVSPost2010PropOp55
 70
     1
102
RTVSPost2010Prop56
140
1.0
102
RTVSPost2010PropOp56
 70
     1
102
RTVSPost2010Prop57
140
1.0
102
RTVSPost2010PropOp57
 70
     1
  0
XRECORD
  5
354
102
{ACAD_REACTORS
330
353
102
}
330
353
100
AcDbXrecord
280
     1
102
RTVSPropertyOp0
 70
     1
102
RTVSPropertyOp1
 70
     1
102
RTVSPropertyOp2
 70
     1
102
RTVSPropertyOp3
 70
     1
102
RTVSPropertyOp4
 70
     1
102
RTVSPropertyOp5
 70
     1
102
RTVSPropertyOp6
 70
     1
102
RTVSPropertyOp7
 70
     1
102
RTVSPropertyOp8
 70
     1
102
RTVSPropertyOp9
 70
     1
102
RTVSPropertyOp10
 70
     1
102
RTVSPropertyOp11
 70
     1
102
RTVSPropertyOp12
 70
     1
102
RTVSPropertyOp13
 70
     1
102
RTVSPropertyOp14
 70
     1
102
RTVSPropertyOp15
 70
     1
102
RTVSPropertyOp16
 70
     1
102
RTVSPropertyOp17
 70
     1
102
RTVSPropertyOp18
 70
     1
102
RTVSPropertyOp19
 70
     1
102
RTVSPropertyOp20
 70
     1
102
RTVSPropertyOp21
 70
     1
102
RTVSPropertyOp22
 70
     1
102
RTVSPropertyOp23
 70
     1
102
RTVSPropertyOp24
 70
     1
102
RTVSPropertyOp25
 70
     1
102
RTVSPropertyOp26
 70
     1
102
RTVSPropertyOp27
 70
     1
102
RTVSPropertyOp28
 70
     1
102
RTVSPropertyOp29
 70
     1
102
RTVSPropertyOp30
 70
     1
102
RTVSPropertyOp31
 70
     1
102
RTVSPropertyOp32
 70
     1
102
RTVSPropertyOp33
 70
     1
102
RTVSPropertyOp34
 70
     1
102
RTVSPropertyOp35
 70
     1
102
RTVSPropertyOp36
 70
     1
102
RTVSPropertyOp37
 70
     1
102
RTVSPropertyOp38
 70
     1
102
RTVSPropertyOp39
 70
     1
102
RTVSPropertyOp40
 70
     1
102
RTVSPropertyOp41
 70
     1
102
RTVSPropertyOp42
 70
     1
102
RTVSPropertyOp43
 70
     1
102
RTVSPropertyOp44
 70
     1
102
RTVSPropertyOp45
 70
     1
102
RTVSPropertyOp46
 70
     1
102
RTVSPropertyOp47
 70
     1
102
RTVSPropertyOp48
 70
     1
102
RTVSPropertyOp49
 70
     1
102
RTVSPropertyOp50
 70
     1
102
RTVSPropertyOp51
 70
     0
102
RTVSPropertyOp52
 70
     0
102
RTVSPropertyOp53
 70
     1
102
RTVSPropertyOp54
 70
     1
102
RTVSPropertyOp55
 70
     1
102
RTVSPropertyOp56
 70
     1
102
RTVSPropertyOp57
 70
     1
102
RTVSPost2010Prop28
280
     0
102
RTVSPost2010PropOp28
 70
     1
102
RTVSPost2010Prop29
280
     1
102
RTVSPost2010PropOp29
 70
     1
102
RTVSPost2010Prop30
280
     1
102
RTVSPost2010PropOp30
 70
     1
102
RTVSPost2010Prop31
280
     0
102
RTVSPost2010PropOp31
 70
     1
102
RTVSPost2010Prop32
280
     0
102
RTVSPost2010PropOp32
 70
     1
102
RTVSPost2010Prop33
280
     0
102
RTVSPost2010PropOp33
 70
     1
102
RTVSPost2010Prop34
280
     0
102
RTVSPost2010PropOp34
 70
     1
102
RTVSPost2010Prop35
280
     0
102
RTVSPost2010PropOp35
 70
     1
102
RTVSPost2010Prop36
280
     0
102
RTVSPost2010PropOp36
 70
     1
102
RTVSPost2010Prop37
 90
       50
102
RTVSPost2010PropOp37
 70
     1
102
RTVSPost2010Prop38
140
0.0
102
RTVSPost2010PropOp38
 70
     1
102
RTVSPost2010Prop39
140
1.0
102
RTVSPost2010PropOp39
 70
     1
102
RTVSPost2010Prop40
 90
        0
102
RTVSPost2010PropOp40
 70
     1
102
RTVSPost2010Prop41ColorIndex
 90
       18
102
RTVSPost2010Prop41ColorRGB
 90
        0
102
RTVSPost2010PropOp41
 70
     1
102
RTVSPost2010Prop42
 90
       50
102
RTVSPost2010PropOp42
 70
     1
102
RTVSPost2010Prop43
 90
        3
102
RTVSPost2010PropOp43
 70
     1
102
RTVSPost2010Prop44ColorIndex
 90
        5
102
RTVSPost2010Prop44ColorRGB
 90
      255
102
RTVSPost2010PropOp44
 70
     1
102
RTVSPost2010Prop45
280
     0
102
RTVSPost2010PropOp45
 70
     1
102
RTVSPost2010Prop46
 90
       50
102
RTVSPost2010PropOp46
 70
     1
102
RTVSPost2010Prop47
 90
       50
102
RTVSPost2010PropOp47
 70
     1
102
RTVSPost2010Prop48
 90
       50
102
RTVSPost2010PropOp48
 70
     1
102
RTVSPost2010Prop49
280
     0
102
RTVSPost2010PropOp49
 70
     1
102
RTVSPost2010Prop50
 90
       50
102
RTVSPost2010PropOp50
 70
     1
102
RTVSPost2010Prop51ColorIndex
 90
      256
102
RTVSPost2010Prop51ColorRGB
 90
-16777216
102
RTVSPost2010PropOp51
 70
     0
102
RTVSPost2010Prop52
140
1.0
102
RTVSPost2010PropOp52
 70
     0
102
RTVSPost2010Prop53
 90
        2
102
RTVSPost2010PropOp53
 70
     1
102
RTVSPost2010Prop54
  1
strokes_ogs.tif
102
RTVSPost2010PropOp54
 70
     1
102
RTVSPost2010Prop55
280
     0
102
RTVSPost2010PropOp55
 70
     1
102
RTVSPost2010Prop56
140
1.0
102
RTVSPost2010PropOp56
 70
     1
102
RTVSPost2010Prop57
140
1.0
102
RTVSPost2010PropOp57
 70
     1
  0
XRECORD
  5
374
102
{ACAD_REACTORS
330
373
102
}
330
373
100
AcDbXrecord
280
     1
102
RTVSPropertyOp0
 70
     1
102
RTVSPropertyOp1
 70
     1
102
RTVSPropertyOp2
 70
     1
102
RTVSPropertyOp3
 70
     1
102
RTVSPropertyOp4
 70
     1
102
RTVSPropertyOp5
 70
     1
102
RTVSPropertyOp6
 70
     1
102
RTVSPropertyOp7
 70
     1
102
RTVSPropertyOp8
 70
     1
102
RTVSPropertyOp9
 70
     1
102
RTVSPropertyOp10
 70
     1
102
RTVSPropertyOp11
 70
     1
102
RTVSPropertyOp12
 70
     1
102
RTVSPropertyOp13
 70
     1
102
RTVSPropertyOp14
 70
     1
102
RTVSPropertyOp15
 70
     1
102
RTVSPropertyOp16
 70
     1
102
RTVSPropertyOp17
 70
     1
102
RTVSPropertyOp18
 70
     1
102
RTVSPropertyOp19
 70
     1
102
RTVSPropertyOp20
 70
     1
102
RTVSPropertyOp21
 70
     1
102
RTVSPropertyOp22
 70
     1
102
RTVSPropertyOp23
 70
     1
102
RTVSPropertyOp24
 70
     1
102
RTVSPropertyOp25
 70
     1
102
RTVSPropertyOp26
 70
     1
102
RTVSPropertyOp27
 70
     1
102
RTVSPropertyOp28
 70
     1
102
RTVSPropertyOp29
 70
     1
102
RTVSPropertyOp30
 70
     1
102
RTVSPropertyOp31
 70
     1
102
RTVSPropertyOp32
 70
     1
102
RTVSPropertyOp33
 70
     1
102
RTVSPropertyOp34
 70
     1
102
RTVSPropertyOp35
 70
     1
102
RTVSPropertyOp36
 70
     1
102
RTVSPropertyOp37
 70
     1
102
RTVSPropertyOp38
 70
     1
102
RTVSPropertyOp39
 70
     1
102
RTVSPropertyOp40
 70
     1
102
RTVSPropertyOp41
 70
     1
102
RTVSPropertyOp42
 70
     1
102
RTVSPropertyOp43
 70
     1
102
RTVSPropertyOp44
 70
     1
102
RTVSPropertyOp45
 70
     1
102
RTVSPropertyOp46
 70
     1
102
RTVSPropertyOp47
 70
     1
102
RTVSPropertyOp48
 70
     1
102
RTVSPropertyOp49
 70
     1
102
RTVSPropertyOp50
 70
     1
102
RTVSPropertyOp51
 70
     0
102
RTVSPropertyOp52
 70
     0
102
RTVSPropertyOp53
 70
     1
102
RTVSPropertyOp54
 70
     1
102
RTVSPropertyOp55
 70
     1
102
RTVSPropertyOp56
 70
     1
102
RTVSPropertyOp57
 70
     1
102
RTVSPost2010Prop28
280
     0
102
RTVSPost2010PropOp28
 70
     1
102
RTVSPost2010Prop29
280
     1
102
RTVSPost2010PropOp29
 70
     1
102
RTVSPost2010Prop30
280
     1
102
RTVSPost2010PropOp30
 70
     1
102
RTVSPost2010Prop31
280
     0
102
RTVSPost2010PropOp31
 70
     1
102
RTVSPost2010Prop32
280
     0
102
RTVSPost2010PropOp32
 70
     1
102
RTVSPost2010Prop33
280
     0
102
RTVSPost2010PropOp33
 70
     1
102
RTVSPost2010Prop34
280
     0
102
RTVSPost2010PropOp34
 70
     1
102
RTVSPost2010Prop35
280
     0
102
RTVSPost2010PropOp35
 70
     1
102
RTVSPost2010Prop36
280
     0
102
RTVSPost2010PropOp36
 70
     1
102
RTVSPost2010Prop37
 90
       50
102
RTVSPost2010PropOp37
 70
     1
102
RTVSPost2010Prop38
140
0.0
102
RTVSPost2010PropOp38
 70
     1
102
RTVSPost2010Prop39
140
1.0
102
RTVSPost2010PropOp39
 70
     1
102
RTVSPost2010Prop40
 90
        0
102
RTVSPost2010PropOp40
 70
     1
102
RTVSPost2010Prop41ColorIndex
 90
       18
102
RTVSPost2010Prop41ColorRGB
 90
        0
102
RTVSPost2010PropOp41
 70
     1
102
RTVSPost2010Prop42
 90
       50
102
RTVSPost2010PropOp42
 70
     1
102
RTVSPost2010Prop43
 90
        3
102
RTVSPost2010PropOp43
 70
     1
102
RTVSPost2010Prop44ColorIndex
 90
        5
102
RTVSPost2010Prop44ColorRGB
 90
      255
102
RTVSPost2010PropOp44
 70
     1
102
RTVSPost2010Prop45
280
     0
102
RTVSPost2010PropOp45
 70
     1
102
RTVSPost2010Prop46
 90
       50
102
RTVSPost2010PropOp46
 70
     1
102
RTVSPost2010Prop47
 90
       50
102
RTVSPost2010PropOp47
 70
     1
102
RTVSPost2010Prop48
 90
       50
102
RTVSPost2010PropOp48
 70
     1
102
RTVSPost2010Prop49
280
     0
102
RTVSPost2010PropOp49
 70
     1
102
RTVSPost2010Prop50
 90
       50
102
RTVSPost2010PropOp50
 70
     1
102
RTVSPost2010Prop51ColorIndex
 90
      256
102
RTVSPost2010Prop51ColorRGB
 90
-16777216
102
RTVSPost2010PropOp51
 70
     0
102
RTVSPost2010Prop52
140
1.0
102
RTVSPost2010PropOp52
 70
     0
102
RTVSPost2010Prop53
 90
        2
102
RTVSPost2010PropOp53
 70
     1
102
RTVSPost2010Prop54
  1
strokes_ogs.tif
102
RTVSPost2010PropOp54
 70
     1
102
RTVSPost2010Prop55
280
     0
102
RTVSPost2010PropOp55
 70
     1
102
RTVSPost2010Prop56
140
1.0
102
RTVSPost2010PropOp56
 70
     1
102
RTVSPost2010Prop57
140
1.0
102
RTVSPost2010PropOp57
 70
     1
  0
ENDSEC
  0
EOF
