  0
SECTION
  2
HEADER
  9
$ACADVER
  1
AC1018
  9
$ACADMAINTVER
 70
     0
  9
$DWGCODEPAGE
  3
ANSI_932
  9
$INSBASE
 10
0.0
 20
0.0
 30
0.0
  9
$EXTMIN
 10
-2100.0
 20
-1485.0
 30
0.0
  9
$EXTMAX
 10
2100.0
 20
1485.0
 30
0.0
  9
$LIMMIN
 10
-2100.0
 20
-1485.0
  9
$LIMMAX
 10
2100.0
 20
1485.0
  9
$ORTHOMODE
 70
     0
  9
$REGENMODE
 70
     1
  9
$FILLMODE
 70
     1
  9
$QTEXTMODE
 70
     0
  9
$MIRRTEXT
 70
     1
  9
$LTSCALE
 40
10.0
  9
$ATTMODE
 70
     1
  9
$TEXTSIZE
 40
2.5
  9
$TRACEWID
 40
1.0
  9
$TEXTSTYLE
  7
Standard
  9
$CLAYER
  8
0
  9
$CELTYPE
  6
ByLayer
  9
$CECOLOR
 62
   256
  9
$CELTSCALE
 40
1.0
  9
$DISPSILH
 70
     0
  9
$DIMSCALE
 40
1.0
  9
$DIMASZ
 40
2.5
  9
$DIMEXO
 40
0.625
  9
$DIMDLI
 40
3.75
  9
$DIMRND
 40
0.0
  9
$DIMDLE
 40
0.0
  9
$DIMEXE
 40
1.25
  9
$DIMTP
 40
0.0
  9
$DIMTM
 40
0.0
  9
$DIMTXT
 40
2.5
  9
$DIMCEN
 40
2.5
  9
$DIMTSZ
 40
0.0
  9
$DIMTOL
 70
     0
  9
$DIMLIM
 70
     0
  9
$DIMTIH
 70
     0
  9
$DIMTOH
 70
     0
  9
$DIMSE1
 70
     0
  9
$DIMSE2
 70
     0
  9
$DIMTAD
 70
     1
  9
$DIMZIN
 70
     8
  9
$DIMBLK
  1

  9
$DIMASO
 70
     1
  9
$DIMSHO
 70
     1
  9
$DIMPOST
  1

  9
$DIMAPOST
  1

  9
$DIMALT
 70
     0
  9
$DIMALTD
 70
     3
  9
$DIMALTF
 40
0.03937007874016
  9
$DIMLFAC
 40
1.0
  9
$DIMTOFL
 70
     1
  9
$DIMTVP
 40
0.0
  9
$DIMTIX
 70
     0
  9
$DIMSOXD
 70
     0
  9
$DIMSAH
 70
     0
  9
$DIMBLK1
  1

  9
$DIMBLK2
  1

  9
$DIMSTYLE
  2
ISO-25
  9
$DIMCLRD
 70
     0
  9
$DIMCLRE
 70
     0
  9
$DIMCLRT
 70
     0
  9
$DIMTFAC
 40
1.0
  9
$DIMGAP
 40
0.625
  9
$DIMJUST
 70
     0
  9
$DIMSD1
 70
     0
  9
$DIMSD2
 70
     0
  9
$DIMTOLJ
 70
     0
  9
$DIMTZIN
 70
     8
  9
$DIMALTZ
 70
     0
  9
$DIMALTTZ
 70
     0
  9
$DIMUPT
 70
     0
  9
$DIMDEC
 70
     2
  9
$DIMTDEC
 70
     2
  9
$DIMALTU
 70
     2
  9
$DIMALTTD
 70
     3
  9
$DIMTXSTY
  7
Standard
  9
$DIMAUNIT
 70
     0
  9
$DIMADEC
 70
     0
  9
$DIMALTRND
 40
0.0
  9
$DIMAZIN
 70
     0
  9
$DIMDSEP
 70
    44
  9
$DIMATFIT
 70
     3
  9
$DIMFRAC
 70
     0
  9
$DIMLDRBLK
  1

  9
$DIMLUNIT
 70
     2
  9
$DIMLWD
 70
    -2
  9
$DIMLWE
 70
    -2
  9
$DIMTMOVE
 70
     0
  9
$LUNITS
 70
     2
  9
$LUPREC
 70
     4
  9
$SKETCHINC
 40
1.0
  9
$FILLETRAD
 40
10.0
  9
$AUNITS
 70
     0
  9
$AUPREC
 70
     0
  9
$MENU
  1
.
  9
$ELEVATION
 40
0.0
  9
$PELEVATION
 40
0.0
  9
$THICKNESS
 40
0.0
  9
$LIMCHECK
 70
     0
  9
$CHAMFERA
 40
0.0
  9
$CHAMFERB
 40
0.0
  9
$CHAMFERC
 40
0.0
  9
$CHAMFERD
 40
0.0
  9
$SKPOLY
 70
     0
  9
$TDCREATE
 40
2459963.652530278
  9
$TDUCREATE
 40
2459963.277530278
  9
$TDUPDATE
 40
2459963.652530486
  9
$TDUUPDATE
 40
2459963.277530486
  9
$TDINDWG
 40
0.0000000116
  9
$TDUSRTIMER
 40
0.0000000116
  9
$USRTIMER
 70
     1
  9
$ANGBASE
 50
0.0
  9
$ANGDIR
 70
     0
  9
$PDMODE
 70
     0
  9
$PDSIZE
 40
0.0
  9
$PLINEWID
 40
0.0
  9
$SPLFRAME
 70
     0
  9
$SPLINETYPE
 70
     6
  9
$SPLINESEGS
 70
     8
  9
$HANDSEED
  5
36C
  9
$SURFTAB1
 70
     6
  9
$SURFTAB2
 70
     6
  9
$SURFTYPE
 70
     6
  9
$SURFU
 70
     6
  9
$SURFV
 70
     6
  9
$UCSBASE
  2

  9
$UCSNAME
  2

  9
$UCSORG
 10
0.0
 20
0.0
 30
0.0
  9
$UCSXDIR
 10
1.0
 20
0.0
 30
0.0
  9
$UCSYDIR
 10
0.0
 20
1.0
 30
0.0
  9
$UCSORTHOREF
  2

  9
$UCSORTHOVIEW
 70
     0
  9
$UCSORGTOP
 10
0.0
 20
0.0
 30
0.0
  9
$UCSORGBOTTOM
 10
0.0
 20
0.0
 30
0.0
  9
$UCSORGLEFT
 10
0.0
 20
0.0
 30
0.0
  9
$UCSORGRIGHT
 10
0.0
 20
0.0
 30
0.0
  9
$UCSORGFRONT
 10
0.0
 20
0.0
 30
0.0
  9
$UCSORGBACK
 10
0.0
 20
0.0
 30
0.0
  9
$PUCSBASE
  2

  9
$PUCSNAME
  2

  9
$PUCSORG
 10
0.0
 20
0.0
 30
0.0
  9
$PUCSXDIR
 10
1.0
 20
0.0
 30
0.0
  9
$PUCSYDIR
 10
0.0
 20
1.0
 30
0.0
  9
$PUCSORTHOREF
  2

  9
$PUCSORTHOVIEW
 70
     0
  9
$PUCSORGTOP
 10
0.0
 20
0.0
 30
0.0
  9
$PUCSORGBOTTOM
 10
0.0
 20
0.0
 30
0.0
  9
$PUCSORGLEFT
 10
0.0
 20
0.0
 30
0.0
  9
$PUCSORGRIGHT
 10
0.0
 20
0.0
 30
0.0
  9
$PUCSORGFRONT
 10
0.0
 20
0.0
 30
0.0
  9
$PUCSORGBACK
 10
0.0
 20
0.0
 30
0.0
  9
$USERI1
 70
     0
  9
$USERI2
 70
     0
  9
$USERI3
 70
     0
  9
$USERI4
 70
     0
  9
$USERI5
 70
     0
  9
$USERR1
 40
0.0
  9
$USERR2
 40
0.0
  9
$USERR3
 40
0.0
  9
$USERR4
 40
0.0
  9
$USERR5
 40
0.0
  9
$WORLDVIEW
 70
     1
  9
$SHADEDGE
 70
     3
  9
$SHADEDIF
 70
    70
  9
$TILEMODE
 70
     1
  9
$MAXACTVP
 70
    64
  9
$PINSBASE
 10
0.0
 20
0.0
 30
0.0
  9
$PLIMCHECK
 70
     0
  9
$PEXTMIN
 10
1.000000000000000E+20
 20
1.000000000000000E+20
 30
1.000000000000000E+20
  9
$PEXTMAX
 10
-1.000000000000000E+20
 20
-1.000000000000000E+20
 30
-1.000000000000000E+20
  9
$PLIMMIN
 10
0.0
 20
0.0
  9
$PLIMMAX
 10
420.0
 20
297.0
  9
$UNITMODE
 70
     0
  9
$VISRETAIN
 70
     1
  9
$PLINEGEN
 70
     0
  9
$PSLTSCALE
 70
     1
  9
$TREEDEPTH
 70
  3020
  9
$CMLSTYLE
  2
Standard
  9
$CMLJUST
 70
     0
  9
$CMLSCALE
 40
20.0
  9
$PROXYGRAPHICS
 70
     1
  9
$MEASUREMENT
 70
     1
  9
$CELWEIGHT
370
    -1
  9
$ENDCAPS
280
     0
  9
$JOINSTYLE
280
     0
  9
$LWDISPLAY
290
     0
  9
$INSUNITS
 70
     4
  9
$HYPERLINKBASE
  1

  9
$STYLESHEET
  1

  9
$XEDIT
290
     1
  9
$CEPSNTYPE
380
     0
  9
$PSTYLEMODE
290
     1
  9
$FINGERPRINTGUID
  2
{1E855100-669D-4508-80A6-2C6631BE4B3E}
  9
$VERSIONGUID
  2
{FAEB1C32-E019-11D5-929B-00C0DF256EC4}
  9
$EXTNAMES
290
     1
  9
$PSVPSCALE
 40
0.0
  9
$OLESTARTUP
290
     0
  9
$SORTENTS
280
   127
  9
$INDEXCTL
280
     0
  9
$HIDETEXT
280
     1
  9
$XCLIPFRAME
290
     0
  9
$HALOGAP
280
     0
  9
$OBSCOLOR
 70
   257
  9
$OBSLTYPE
280
     0
  9
$INTERSECTIONDISPLAY
280
     0
  9
$INTERSECTIONCOLOR
 70
   257
  9
$DIMASSOC
280
     2
  9
$PROJECTNAME
  1

  0
ENDSEC
  0
SECTION
  2
CLASSES
  0
CLASS
  1
ACDBDICTIONARYWDFLT
  2
AcDbDictionaryWithDefault
  3
ObjectDBX Classes
 90
        0
 91
        4
280
     0
281
     0
  0
CLASS
  1
VISUALSTYLE
  2
AcDbVisualStyle
  3
ObjectDBX Classes
 90
     4095
 91
        4
280
     0
281
     0
  0
CLASS
  1
MATERIAL
  2
AcDbMaterial
  3
ObjectDBX Classes
 90
     1153
 91
        4
280
     0
281
     0
  0
CLASS
  1
SCALE
  2
AcDbScale
  3
ObjectDBX Classes
 90
     1153
 91
        4
280
     0
281
     0
  0
CLASS
  1
TABLESTYLE
  2
AcDbTableStyle
  3
ObjectDBX Classes
 90
     4095
 91
        4
280
     0
281
     0
  0
CLASS
  1
MLEADERSTYLE
  2
AcDbMLeaderStyle
  3
ACDB_MLEADERSTYLE_CLASS
 90
     4095
 91
        4
280
     0
281
     0
  0
CLASS
  1
SUN
  2
AcDbSun
  3
SCENEOE
 90
     1153
 91
        4
280
     0
281
     0
  0
CLASS
  1
DICTIONARYVAR
  2
AcDbDictionaryVar
  3
ObjectDBX Classes
 90
        0
 91
        4
280
     0
281
     0
  0
CLASS
  1
CELLSTYLEMAP
  2
AcDbCellStyleMap
  3
ObjectDBX Classes
 90
     1152
 91
        4
280
     0
281
     0
  0
ENDSEC
  0
SECTION
  2
TABLES
  0
TABLE
  2
VPORT
  5
8
102
{ACAD_XDICTIONARY
360
323
102
}
330
0
100
AcDbSymbolTable
 70
     1
  0
VPORT
  5
29
330
8
100
AcDbSymbolTableRecord
100
AcDbViewportTableRecord
  2
*Active
 70
     0
 10
0.0
 20
0.0
 11
1.0
 21
1.0
 12
0.0
 22
0.0
 13
0.0
 23
0.0
 14
10.0
 24
10.0
 15
10.0
 25
10.0
 16
0.0
 26
0.0
 36
1.0
 17
0.0
 27
0.0
 37
0.0
 40
3267.0
 41
1.414141414141414
 42
50.0
 43
0.0
 44
0.0
 50
0.0
 51
0.0
 71
     0
 72
 10000
 73
     1
 74
     3
 75
     0
 76
     0
 77
     0
 78
     0
281
     0
 65
     1
110
0.0
120
0.0
130
0.0
111
1.0
121
0.0
131
0.0
112
0.0
122
1.0
132
0.0
 79
     0
146
0.0
  0
ENDTAB
  0
TABLE
  2
LTYPE
  5
5
330
0
100
AcDbSymbolTable
 70
     5
  0
LTYPE
  5
14
330
5
100
AcDbSymbolTableRecord
100
AcDbLinetypeTableRecord
  2
ByBlock
 70
     0
  3

 72
    65
 73
     0
 40
0.0
  0
LTYPE
  5
15
330
5
100
AcDbSymbolTableRecord
100
AcDbLinetypeTableRecord
  2
ByLayer
 70
     0
  3

 72
    65
 73
     0
 40
0.0
  0
LTYPE
  5
16
330
5
100
AcDbSymbolTableRecord
100
AcDbLinetypeTableRecord
  2
Continuous
 70
     0
  3
Solid line
 72
    65
 73
     0
 40
0.0
  0
LTYPE
  5
6F
330
5
100
AcDbSymbolTableRecord
100
AcDbLinetypeTableRecord
  2
JWW_DASHED3
 70
     0
  3
---  ------  ------  ------  ---
 72
    65
 73
     2
 40
3.386666666666667
 49
2.54
 74
     0
 49
-0.8466666666666667
 74
     0
  0
LTYPE
  5
70
330
5
100
AcDbSymbolTableRecord
100
AcDbLinetypeTableRecord
  2
JWW_DASHED2
 70
     0
  3
--    ----    ----    ----    --
 72
    65
 73
     2
 40
3.386666666666667
 49
1.693333333333333
 74
     0
 49
-1.693333333333333
 74
     0
  0
LTYPE
  5
71
330
5
100
AcDbSymbolTableRecord
100
AcDbLinetypeTableRecord
  2
JWW_CENTER2
 70
     0
  3
-------------  --  -------------
 72
    65
 73
     4
 40
13.54666666666667
 49
11.00666666666667
 74
     0
 49
-0.8466666666666667
 74
     0
 49
0.8466666666666667
 74
     0
 49
-0.8466666666666667
 74
     0
  0
LTYPE
  5
72
330
5
100
AcDbSymbolTableRecord
100
AcDbLinetypeTableRecord
  2
JWW_CENTER1
 70
     0
  3
-----  --  ----------  --  -----
 72
    65
 73
     4
 40
6.773333333333333
 49
4.233333333333333
 74
     0
 49
-0.8466666666666667
 74
     0
 49
0.8466666666666667
 74
     0
 49
-0.8466666666666667
 74
     0
  0
ENDTAB
  0
TABLE
  2
LAYER
  5
2
330
0
100
AcDbSymbolTable
 70
    14
  0
LAYER
  5
10
330
2
100
AcDbSymbolTableRecord
100
AcDbLayerTableRecord
  2
0
 70
     0
 62
     7
  6
Continuous
370
    -3
390
F
  0
LAYER
  5
73
330
2
100
AcDbSymbolTableRecord
100
AcDbLayerTableRecord
  2
F-5ﾚｲﾔ
 70
     0
 62
     7
  6
Continuous
370
    -3
390
F
  0
LAYER
  5
74
330
2
100
AcDbSymbolTableRecord
100
AcDbLayerTableRecord
  2
C-4
 70
     0
 62
     7
  6
Continuous
370
    -3
390
F
  0
LAYER
  5
75
330
2
100
AcDbSymbolTableRecord
100
AcDbLayerTableRecord
  2
C-2
 70
     0
 62
     7
  6
Continuous
370
    -3
390
F
  0
LAYER
  5
76
330
2
100
AcDbSymbolTableRecord
100
AcDbLayerTableRecord
  2
C-1
 70
     0
 62
     7
  6
Continuous
370
    -3
390
F
  0
LAYER
  5
77
330
2
100
AcDbSymbolTableRecord
100
AcDbLayerTableRecord
  2
C-5
 70
     0
 62
     7
  6
Continuous
370
    -3
390
F
  0
LAYER
  5
78
330
2
100
AcDbSymbolTableRecord
100
AcDbLayerTableRecord
  2
C-A
 70
     0
 62
     7
  6
Continuous
370
    -3
390
F
  0
LAYER
  5
79
330
2
100
AcDbSymbolTableRecord
100
AcDbLayerTableRecord
  2
D-1
 70
     0
 62
     7
  6
Continuous
370
    -3
390
F
  0
LAYER
  5
7A
330
2
100
AcDbSymbolTableRecord
100
AcDbLayerTableRecord
  2
D-4
 70
     0
 62
     7
  6
Continuous
370
    -3
390
F
  0
LAYER
  5
7B
330
2
100
AcDbSymbolTableRecord
100
AcDbLayerTableRecord
  2
D-6
 70
     0
 62
     7
  6
Continuous
370
    -3
390
F
  0
LAYER
  5
7C
330
2
100
AcDbSymbolTableRecord
100
AcDbLayerTableRecord
  2
D-5
 70
     0
 62
     7
  6
Continuous
370
    -3
390
F
  0
LAYER
  5
7D
330
2
100
AcDbSymbolTableRecord
100
AcDbLayerTableRecord
  2
D-0
 70
     0
 62
     7
  6
Continuous
370
    -3
390
F
  0
LAYER
  5
7E
330
2
100
AcDbSymbolTableRecord
100
AcDbLayerTableRecord
  2
D-9
 70
     0
 62
     7
  6
Continuous
370
    -3
390
F
  0
LAYER
  5
7F
330
2
100
AcDbSymbolTableRecord
100
AcDbLayerTableRecord
  2
D-2
 70
     0
 62
     7
  6
Continuous
370
    -3
390
F
  0
ENDTAB
  0
TABLE
  2
STYLE
  5
3
330
0
100
AcDbSymbolTable
 70
     2
  0
STYLE
  5
11
330
3
100
AcDbSymbolTableRecord
100
AcDbTextStyleTableRecord
  2
Standard
 70
     0
 40
0.0
 41
1.0
 50
0.0
 71
     0
 42
2.5
  3
txt
  4

  0
STYLE
  5
6E
330
3
100
AcDbSymbolTableRecord
100
AcDbTextStyleTableRecord
  2
ＭＳ ゴシック
 70
     0
 40
1.0
 41
1.0
 50
0.0
 71
     0
 42
2.5
  3

  4

1001
ACAD
1000
MS Gothic
1071
    32817
  0
ENDTAB
  0
TABLE
  2
VIEW
  5
6
330
0
100
AcDbSymbolTable
 70
     0
  0
ENDTAB
  0
TABLE
  2
UCS
  5
7
330
0
100
AcDbSymbolTable
 70
     0
  0
ENDTAB
  0
TABLE
  2
APPID
  5
9
330
0
100
AcDbSymbolTable
 70
     2
  0
APPID
  5
12
330
9
100
AcDbSymbolTableRecord
100
AcDbRegAppTableRecord
  2
ACAD
 70
     0
  0
APPID
  5
362
330
9
100
AcDbSymbolTableRecord
100
AcDbRegAppTableRecord
  2
ACAD_MLEADERVER
 70
     0
  0
ENDTAB
  0
TABLE
  2
DIMSTYLE
  5
A
330
0
100
AcDbSymbolTable
 70
     1
100
AcDbDimStyleTable
  0
DIMSTYLE
105
27
330
A
100
AcDbSymbolTableRecord
100
AcDbDimStyleTableRecord
  2
ISO-25
 70
     0
 41
2.5
 42
0.625
 43
3.75
 44
1.25
 73
     0
 74
     0
 77
     1
 78
     8
140
2.5
141
2.5
143
0.03937007874016
147
0.625
171
     3
172
     1
178
     0
271
     2
272
     2
274
     3
278
    44
283
     0
284
     8
340
11
  0
ENDTAB
  0
TABLE
  2
BLOCK_RECORD
  5
1
330
0
100
AcDbSymbolTable
 70
     1
  0
BLOCK_RECORD
  5
1F
330
1
100
AcDbSymbolTableRecord
100
AcDbBlockTableRecord
  2
*Model_Space
340
22
  0
BLOCK_RECORD
  5
1B
330
1
100
AcDbSymbolTableRecord
100
AcDbBlockTableRecord
  2
*Paper_Space
340
1E
  0
BLOCK_RECORD
  5
23
330
1
100
AcDbSymbolTableRecord
100
AcDbBlockTableRecord
  2
*Paper_Space0
340
26
  0
ENDTAB
  0
ENDSEC
  0
SECTION
  2
BLOCKS
  0
BLOCK
  5
20
330
1F
100
AcDbEntity
  8
0
100
AcDbBlockBegin
  2
*Model_Space
 70
     0
 10
0.0
 20
0.0
 30
0.0
  3
*Model_Space
  1

  0
ENDBLK
  5
21
330
1F
100
AcDbEntity
  8
0
100
AcDbBlockEnd
  0
BLOCK
  5
1C
330
1B
100
AcDbEntity
 67
     1
  8
0
100
AcDbBlockBegin
  2
*Paper_Space
 70
     0
 10
0.0
 20
0.0
 30
0.0
  3
*Paper_Space
  1

  0
ENDBLK
  5
1D
330
1B
100
AcDbEntity
 67
     1
  8
0
100
AcDbBlockEnd
  0
BLOCK
  5
24
330
23
100
AcDbEntity
  8
0
100
AcDbBlockBegin
  2
*Paper_Space0
 70
     0
 10
0.0
 20
0.0
 30
0.0
  3
*Paper_Space0
  1

  0
ENDBLK
  5
25
330
23
100
AcDbEntity
  8
0
100
AcDbBlockEnd
  0
ENDSEC
  0
SECTION
  2
ENTITIES
  0
TEXT
  5
80
330
1F
100
AcDbEntity
  8
F-5ﾚｲﾔ
  6
Continuous
 62
     2
370
     0
100
AcDbText
 10
-361.1621399176954
 20
-1370.34683127572
 30
0.0
 40
30.48
  1
ＳＭＷ　３５２０Ａ（Ｐ＝１５）＋ＲＬ－２０
 41
0.8988095238095238
  7
ＭＳ ゴシック
100
AcDbText
  0
LWPOLYLINE
  5
81
330
1F
100
AcDbEntity
  8
C-4
  6
Continuous
 62
     7
370
     9
100
AcDbPolyline
 90
        4
 70
     1
 43
2.0
 10
-162.1755519557643
 20
1079.188199429899
 42
0.4142135623731
 10
-163.1755519557643
 20
1080.188199429899
 42
0.4142135623731
 10
-164.1755519557643
 20
1079.188199429899
 42
0.4142135623731
 10
-163.1755519557643
 20
1078.188199429899
 42
0.4142135623731
  0
LWPOLYLINE
  5
82
330
1F
100
AcDbEntity
  8
C-4
  6
Continuous
 62
     7
370
     9
100
AcDbPolyline
 90
        4
 70
     1
 43
2.0
 10
187.8244892842063
 20
1079.188199429899
 42
0.4142135623731
 10
186.8244892842063
 20
1080.188199429899
 42
0.4142135623731
 10
185.8244892842063
 20
1079.188199429899
 42
0.4142135623731
 10
186.8244892842063
 20
1078.188199429899
 42
0.4142135623731
  0
LWPOLYLINE
  5
83
330
1F
100
AcDbEntity
  8
C-4
  6
Continuous
 62
     7
370
     9
100
AcDbPolyline
 90
        4
 70
     1
 43
2.0
 10
-167.1753210119297
 20
1134.188133445946
 42
0.4142135623731
 10
-168.1753210119297
 20
1135.188133445946
 42
0.4142135623731
 10
-169.1753210119297
 20
1134.188133445946
 42
0.4142135623731
 10
-168.1753210119297
 20
1133.188133445946
 42
0.4142135623731
  0
LWPOLYLINE
  5
84
330
1F
100
AcDbEntity
  8
C-4
  6
Continuous
 62
     7
370
     9
100
AcDbPolyline
 90
        4
 70
     1
 43
2.0
 10
192.8247532200169
 20
1134.188133445946
 42
0.4142135623731
 10
191.8247532200169
 20
1135.188133445946
 42
0.4142135623731
 10
190.8247532200169
 20
1134.188133445946
 42
0.4142135623731
 10
191.8247532200169
 20
1133.188133445946
 42
0.4142135623731
  0
LWPOLYLINE
  5
85
330
1F
100
AcDbEntity
  8
C-4
  6
Continuous
 62
     7
370
     9
100
AcDbPolyline
 90
        4
 70
     1
 43
2.0
 10
-137.1750983160893
 20
1024.188017974029
 42
0.4142135623731
 10
-138.1750983160893
 20
1025.188017974029
 42
0.4142135623731
 10
-139.1750983160893
 20
1024.188017974029
 42
0.4142135623731
 10
-138.1750983160893
 20
1023.188017974029
 42
0.4142135623731
  0
LWPOLYLINE
  5
86
330
1F
100
AcDbEntity
  8
C-4
  6
Continuous
 62
     7
370
     9
100
AcDbPolyline
 90
        4
 70
     1
 43
2.0
 10
162.8251491237334
 20
1024.188017974029
 42
0.4142135623731
 10
161.8251491237334
 20
1025.188017974029
 42
0.4142135623731
 10
160.8251491237334
 20
1024.188017974029
 42
0.4142135623731
 10
161.8251491237334
 20
1023.188017974029
 42
0.4142135623731
  0
LWPOLYLINE
  5
87
330
1F
100
AcDbEntity
  8
C-4
  6
Continuous
 62
     7
370
     9
100
AcDbPolyline
 90
        4
 70
     1
 43
2.0
 10
-162.1755519557643
 20
1024.188017974029
 42
0.4142135623731
 10
-163.1755519557643
 20
1025.188017974029
 42
0.4142135623731
 10
-164.1755519557643
 20
1024.188017974029
 42
0.4142135623731
 10
-163.1755519557643
 20
1023.188017974029
 42
0.4142135623731
  0
LWPOLYLINE
  5
88
330
1F
100
AcDbEntity
  8
C-4
  6
Continuous
 62
     7
370
     9
100
AcDbPolyline
 90
        4
 70
     1
 43
2.0
 10
187.8239944045609
 20
1024.188017974029
 42
0.4142135623731
 10
186.8239944045609
 20
1025.188017974029
 42
0.4142135623731
 10
185.8239944045609
 20
1024.188017974029
 42
0.4142135623731
 10
186.8239944045609
 20
1023.188017974029
 42
0.4142135623731
  0
LWPOLYLINE
  5
89
330
1F
100
AcDbEntity
  8
C-4
  6
Continuous
 62
     7
370
     9
100
AcDbPolyline
 90
        4
 70
     1
 43
2.0
 10
-164.1752368823901
 20
1079.188199429899
 42
0.4142135623731
 10
-165.1752368823901
 20
1080.188199429899
 42
0.4142135623731
 10
-166.1752368823901
 20
1079.188199429899
 42
0.4142135623731
 10
-165.1752368823901
 20
1078.188199429899
 42
0.4142135623731
  0
LWPOLYLINE
  5
8A
330
1F
100
AcDbEntity
  8
C-4
  6
Continuous
 62
     7
370
     9
100
AcDbPolyline
 90
        4
 70
     1
 43
2.0
 10
-167.1753210119297
 20
1079.188199429899
 42
0.4142135623731
 10
-168.1753210119297
 20
1080.188199429899
 42
0.4142135623731
 10
-169.1753210119297
 20
1079.188199429899
 42
0.4142135623731
 10
-168.1753210119297
 20
1078.188199429899
 42
0.4142135623731
  0
LWPOLYLINE
  5
8B
330
1F
100
AcDbEntity
  8
C-4
  6
Continuous
 62
     7
370
     9
100
AcDbPolyline
 90
        4
 70
     1
 43
2.0
 10
189.8247928103885
 20
1079.188199429899
 42
0.4142135623731
 10
188.8247928103885
 20
1080.188199429899
 42
0.4142135623731
 10
187.8247928103885
 20
1079.188199429899
 42
0.4142135623731
 10
188.8247928103885
 20
1078.188199429899
 42
0.4142135623731
  0
LWPOLYLINE
  5
8C
330
1F
100
AcDbEntity
  8
C-4
  6
Continuous
 62
     7
370
     9
100
AcDbPolyline
 90
        4
 70
     1
 43
2.0
 10
192.8247532200169
 20
1079.188199429899
 42
0.4142135623731
 10
191.8247532200169
 20
1080.188199429899
 42
0.4142135623731
 10
190.8247532200169
 20
1079.188199429899
 42
0.4142135623731
 10
191.8247532200169
 20
1078.188199429899
 42
0.4142135623731
  0
LWPOLYLINE
  5
8D
330
1F
100
AcDbEntity
  8
C-4
  6
Continuous
 62
     7
370
     9
100
AcDbPolyline
 90
        4
 70
     1
 43
2.0
 10
-297.1743889885979
 20
594.1885788376269
 42
0.4142135623731
 10
-298.1743889885979
 20
595.1885788376269
 42
0.4142135623731
 10
-299.1743889885979
 20
594.1885788376269
 42
0.4142135623731
 10
-298.1743889885979
 20
593.1885788376268
 42
0.4142135623731
  0
LWPOLYLINE
  5
8E
330
1F
100
AcDbEntity
  8
C-4
  6
Continuous
 62
     7
370
     9
100
AcDbPolyline
 90
        4
 70
     1
 43
2.0
 10
-297.1743889885979
 20
944.1887437975086
 42
0.4142135623731
 10
-298.1743889885979
 20
945.1887437975086
 42
0.4142135623731
 10
-299.1743889885979
 20
944.1887437975086
 42
0.4142135623731
 10
-298.1743889885979
 20
943.1887437975087
 42
0.4142135623731
  0
LWPOLYLINE
  5
8F
330
1F
100
AcDbEntity
  8
C-4
  6
Continuous
 62
     7
370
     9
100
AcDbPolyline
 90
        4
 70
     1
 43
2.0
 10
-352.1744467245565
 20
589.1888097814613
 42
0.4142135623731
 10
-353.1744467245565
 20
590.1888097814613
 42
0.4142135623731
 10
-354.1744467245565
 20
589.1888097814613
 42
0.4142135623731
 10
-353.1744467245565
 20
588.1888097814611
 42
0.4142135623731
  0
LWPOLYLINE
  5
90
330
1F
100
AcDbEntity
  8
C-4
  6
Continuous
 62
     7
370
     9
100
AcDbPolyline
 90
        4
 70
     1
 43
2.0
 10
-352.1744467245565
 20
949.1890077333193
 42
0.4142135623731
 10
-353.1744467245565
 20
950.1890077333192
 42
0.4142135623731
 10
-354.1744467245565
 20
949.1890077333193
 42
0.4142135623731
 10
-353.1744467245565
 20
948.1890077333194
 42
0.4142135623731
  0
LWPOLYLINE
  5
91
330
1F
100
AcDbEntity
  8
C-4
  6
Continuous
 62
     7
370
     9
100
AcDbPolyline
 90
        4
 70
     1
 43
2.0
 10
-242.1744549725505
 20
619.1889087573904
 42
0.4142135623731
 10
-243.1744549725505
 20
620.1889087573904
 42
0.4142135623731
 10
-244.1744549725505
 20
619.1889087573904
 42
0.4142135623731
 10
-243.1744549725505
 20
618.1889087573903
 42
0.4142135623731
  0
LWPOLYLINE
  5
92
330
1F
100
AcDbEntity
  8
C-4
  6
Continuous
 62
     7
370
     9
100
AcDbPolyline
 90
        4
 70
     1
 43
2.0
 10
-242.1744549725505
 20
919.1894036370356
 42
0.4142135623731
 10
-243.1744549725505
 20
920.1894036370356
 42
0.4142135623731
 10
-244.1744549725505
 20
919.1894036370356
 42
0.4142135623731
 10
-243.1744549725505
 20
918.1894036370358
 42
0.4142135623731
  0
LWPOLYLINE
  5
93
330
1F
100
AcDbEntity
  8
C-4
  6
Continuous
 62
     7
370
     9
100
AcDbPolyline
 90
        4
 70
     1
 43
2.0
 10
-242.1744549725505
 20
594.1885788376269
 42
0.4142135623731
 10
-243.1744549725505
 20
595.1885788376269
 42
0.4142135623731
 10
-244.1744549725505
 20
594.1885788376269
 42
0.4142135623731
 10
-243.1744549725505
 20
593.1885788376268
 42
0.4142135623731
  0
LWPOLYLINE
  5
94
330
1F
100
AcDbEntity
  8
C-4
  6
Continuous
 62
     7
370
     9
100
AcDbPolyline
 90
        4
 70
     1
 43
2.0
 10
-242.1744549725505
 20
944.1882489178633
 42
0.4142135623731
 10
-243.1744549725505
 20
945.1882489178632
 42
0.4142135623731
 10
-244.1744549725505
 20
944.1882489178633
 42
0.4142135623731
 10
-243.1744549725505
 20
943.1882489178633
 42
0.4142135623731
  0
LWPOLYLINE
  5
95
330
1F
100
AcDbEntity
  8
C-4
  6
Continuous
 62
     7
370
     9
100
AcDbPolyline
 90
        4
 70
     1
 43
2.0
 10
-297.1743889885979
 20
592.1887701910896
 42
0.4142135623731
 10
-298.1743889885979
 20
593.1887701910896
 42
0.4142135623731
 10
-299.1743889885979
 20
592.1887701910896
 42
0.4142135623731
 10
-298.1743889885979
 20
591.1887701910896
 42
0.4142135623731
  0
LWPOLYLINE
  5
96
330
1F
100
AcDbEntity
  8
C-4
  6
Continuous
 62
     7
370
     9
100
AcDbPolyline
 90
        4
 70
     1
 43
2.0
 10
-297.1743889885979
 20
589.1888097814613
 42
0.4142135623731
 10
-298.1743889885979
 20
590.1888097814613
 42
0.4142135623731
 10
-299.1743889885979
 20
589.1888097814613
 42
0.4142135623731
 10
-298.1743889885979
 20
588.1888097814611
 42
0.4142135623731
  0
LWPOLYLINE
  5
97
330
1F
100
AcDbEntity
  8
C-4
  6
Continuous
 62
     7
370
     9
100
AcDbPolyline
 90
        4
 70
     1
 43
2.0
 10
-297.1743889885979
 20
946.1887998838686
 42
0.4142135623731
 10
-298.1743889885979
 20
947.1887998838685
 42
0.4142135623731
 10
-299.1743889885979
 20
946.1887998838686
 42
0.4142135623731
 10
-298.1743889885979
 20
945.1887998838686
 42
0.4142135623731
  0
LWPOLYLINE
  5
98
330
1F
100
AcDbEntity
  8
C-4
  6
Continuous
 62
     7
370
     9
100
AcDbPolyline
 90
        4
 70
     1
 43
2.0
 10
-297.1743889885979
 20
949.1890077333193
 42
0.4142135623731
 10
-298.1743889885979
 20
950.1890077333192
 42
0.4142135623731
 10
-299.1743889885979
 20
949.1890077333193
 42
0.4142135623731
 10
-298.1743889885979
 20
948.1890077333194
 42
0.4142135623731
  0
LWPOLYLINE
  5
99
330
1F
100
AcDbEntity
  8
C-4
  6
Continuous
 62
     7
370
     9
100
AcDbPolyline
 90
        4
 70
     1
 43
2.0
 10
50.32465424408804
 20
971.7745724239867
 42
0.4142135623731
 10
49.32465424408804
 20
972.7745724239867
 42
0.4142135623731
 10
48.32465424408804
 20
971.7745724239867
 42
0.4142135623731
 10
49.32465424408804
 20
970.7745724239868
 42
0.4142135623731
  0
LWPOLYLINE
  5
9A
330
1F
100
AcDbEntity
  8
C-4
  6
Continuous
 62
     7
370
     9
100
AcDbPolyline
 90
        4
 70
     1
 43
2.0
 10
65.32470373205263
 20
971.7745724239867
 42
0.4142135623731
 10
64.32470373205263
 20
972.7745724239867
 42
0.4142135623731
 10
63.32470373205263
 20
971.7745724239867
 42
0.4142135623731
 10
64.32470373205263
 20
970.7745724239868
 42
0.4142135623731
  0
LWPOLYLINE
  5
9B
330
1F
100
AcDbEntity
  8
C-4
  6
Continuous
 62
     7
370
     9
100
AcDbPolyline
 90
        4
 70
     1
 43
2.0
 10
-67.17585713154557
 20
504.1906325881547
 42
0.4142135623731
 10
-68.17585713154557
 20
505.1906325881547
 42
0.4142135623731
 10
-69.17585713154557
 20
504.1906325881547
 42
0.4142135623731
 10
-68.17585713154557
 20
503.1906325881547
 42
0.4142135623731
  0
LWPOLYLINE
  5
9C
330
1F
100
AcDbEntity
  8
C-4
  6
Continuous
 62
     7
370
     9
100
AcDbPolyline
 90
        4
 70
     1
 43
2.0
 10
-167.1753210119297
 20
504.1906325881547
 42
0.4142135623731
 10
-168.1753210119297
 20
505.1906325881547
 42
0.4142135623731
 10
-169.1753210119297
 20
504.1906325881547
 42
0.4142135623731
 10
-168.1753210119297
 20
503.1906325881547
 42
0.4142135623731
  0
LWPOLYLINE
  5
9D
330
1F
100
AcDbEntity
  8
C-4
  6
Continuous
 62
     7
370
     9
100
AcDbPolyline
 90
        4
 70
     1
 43
2.0
 10
92.82541305954402
 20
504.1906325881547
 42
0.4142135623731
 10
91.82541305954402
 20
505.1906325881547
 42
0.4142135623731
 10
90.82541305954402
 20
504.1906325881547
 42
0.4142135623731
 10
91.82541305954402
 20
503.1906325881547
 42
0.4142135623731
  0
LWPOLYLINE
  5
9E
330
1F
100
AcDbEntity
  8
C-4
  6
Continuous
 62
     7
370
     9
100
AcDbPolyline
 90
        4
 70
     1
 43
2.0
 10
192.8247532200169
 20
504.1906325881547
 42
0.4142135623731
 10
191.8247532200169
 20
505.1906325881547
 42
0.4142135623731
 10
190.8247532200169
 20
504.1906325881547
 42
0.4142135623731
 10
191.8247532200169
 20
503.1906325881547
 42
0.4142135623731
  0
LINE
  5
9F
330
1F
100
AcDbEntity
  8
C-2
  6
Continuous
 62
     3
370
     9
100
AcDbLine
 10
-163.1755519557643
 20
944.1882489178633
 30
0.0
 11
-163.1755519557643
 21
594.1890737172721
 31
0.0
  0
LINE
  5
A0
330
1F
100
AcDbEntity
  8
C-2
  6
Continuous
 62
     3
370
     9
100
AcDbLine
 10
-159.175563502956
 20
940.1888790646117
 30
0.0
 11
-159.175563502956
 21
598.188938450169
 31
0.0
  0
LINE
  5
A1
330
1F
100
AcDbEntity
  8
C-2
  6
Continuous
 62
     3
370
     9
100
AcDbLine
 10
-143.6753144135346
 20
940.1888790646117
 30
0.0
 11
-143.6753144135346
 21
598.188938450169
 31
0.0
  0
LINE
  5
A2
330
1F
100
AcDbEntity
  8
C-2
  6
Continuous
 62
     3
370
     9
100
AcDbLine
 10
-147.675797745988
 20
940.1888790646117
 30
0.0
 11
-147.675797745988
 21
598.188938450169
 31
0.0
  0
LINE
  5
A3
330
1F
100
AcDbEntity
  8
C-2
  6
Continuous
 62
     3
370
     9
100
AcDbLine
 10
-159.175563502956
 20
670.6890539220863
 30
0.0
 11
-147.675797745988
 21
670.6890539220863
 31
0.0
  0
LINE
  5
A4
330
1F
100
AcDbEntity
  8
C-2
  6
Continuous
 62
     3
370
     9
100
AcDbLine
 10
-159.175563502956
 20
667.6893409522804
 30
0.0
 11
-147.675797745988
 21
667.6893409522804
 31
0.0
  0
LINE
  5
A5
330
1F
100
AcDbEntity
  8
C-2
  6
Continuous
 62
     3
370
     9
100
AcDbLine
 10
-159.175563502956
 20
770.6893838418498
 30
0.0
 11
-147.675797745988
 21
770.6893838418498
 31
0.0
  0
LINE
  5
A6
330
1F
100
AcDbEntity
  8
C-2
  6
Continuous
 62
     3
370
     9
100
AcDbLine
 10
-159.175563502956
 20
767.6894234322214
 30
0.0
 11
-147.675797745988
 21
767.6894234322214
 31
0.0
  0
LINE
  5
A7
330
1F
100
AcDbEntity
  8
C-2
  6
Continuous
 62
     3
370
     9
100
AcDbLine
 10
-128.6755123653927
 20
940.1888790646117
 30
0.0
 11
-128.6755123653927
 21
598.188938450169
 31
0.0
  0
LINE
  5
A8
330
1F
100
AcDbEntity
  8
C-2
  6
Continuous
 62
     3
370
     9
100
AcDbLine
 10
-132.675500818201
 20
940.1888790646117
 30
0.0
 11
-132.675500818201
 21
598.188938450169
 31
0.0
  0
LINE
  5
A9
330
1F
100
AcDbEntity
  8
C-2
  6
Continuous
 62
     3
370
     9
100
AcDbLine
 10
-143.6753144135346
 20
670.6890539220863
 30
0.0
 11
-132.675500818201
 21
670.6890539220863
 31
0.0
  0
LINE
  5
AA
330
1F
100
AcDbEntity
  8
C-2
  6
Continuous
 62
     3
370
     9
100
AcDbLine
 10
-143.6753144135346
 20
667.6893409522804
 30
0.0
 11
-132.675500818201
 21
667.6893409522804
 31
0.0
  0
LINE
  5
AB
330
1F
100
AcDbEntity
  8
C-2
  6
Continuous
 62
     3
370
     9
100
AcDbLine
 10
-143.6753144135346
 20
770.6893838418498
 30
0.0
 11
-132.675500818201
 21
770.6893838418498
 31
0.0
  0
LINE
  5
AC
330
1F
100
AcDbEntity
  8
C-2
  6
Continuous
 62
     3
370
     9
100
AcDbLine
 10
-143.6753144135346
 20
767.6894234322214
 30
0.0
 11
-132.675500818201
 21
767.6894234322214
 31
0.0
  0
LINE
  5
AD
330
1F
100
AcDbEntity
  8
C-2
  6
Continuous
 62
     3
370
     9
100
AcDbLine
 10
-113.6752154376055
 20
940.1888790646117
 30
0.0
 11
-113.6752154376055
 21
598.188938450169
 31
0.0
  0
LINE
  5
AE
330
1F
100
AcDbEntity
  8
C-2
  6
Continuous
 62
     3
370
     9
100
AcDbLine
 10
-117.6756987700591
 20
940.1888790646117
 30
0.0
 11
-117.6756987700591
 21
598.188938450169
 31
0.0
  0
LINE
  5
AF
330
1F
100
AcDbEntity
  8
C-2
  6
Continuous
 62
     3
370
     9
100
AcDbLine
 10
-128.6755123653927
 20
670.6890539220863
 30
0.0
 11
-117.6756987700591
 21
670.6890539220863
 31
0.0
  0
LINE
  5
B0
330
1F
100
AcDbEntity
  8
C-2
  6
Continuous
 62
     3
370
     9
100
AcDbLine
 10
-128.6755123653927
 20
667.6893409522804
 30
0.0
 11
-117.6756987700591
 21
667.6893409522804
 31
0.0
  0
LINE
  5
B1
330
1F
100
AcDbEntity
  8
C-2
  6
Continuous
 62
     3
370
     9
100
AcDbLine
 10
-128.6755123653927
 20
770.6893838418498
 30
0.0
 11
-117.6756987700591
 21
770.6893838418498
 31
0.0
  0
LINE
  5
B2
330
1F
100
AcDbEntity
  8
C-2
  6
Continuous
 62
     3
370
     9
100
AcDbLine
 10
-128.6755123653927
 20
767.6894234322214
 30
0.0
 11
-117.6756987700591
 21
767.6894234322214
 31
0.0
  0
LINE
  5
B3
330
1F
100
AcDbEntity
  8
C-2
  6
Continuous
 62
     3
370
     9
100
AcDbLine
 10
-98.67541338946353
 20
940.1888790646117
 30
0.0
 11
-98.67541338946353
 21
598.188938450169
 31
0.0
  0
LINE
  5
B4
330
1F
100
AcDbEntity
  8
C-2
  6
Continuous
 62
     3
370
     9
100
AcDbLine
 10
-102.6752781223604
 20
940.1888790646117
 30
0.0
 11
-102.6752781223604
 21
598.188938450169
 31
0.0
  0
LINE
  5
B5
330
1F
100
AcDbEntity
  8
C-2
  6
Continuous
 62
     3
370
     9
100
AcDbLine
 10
-113.6752154376055
 20
670.6890539220863
 30
0.0
 11
-102.6752781223604
 21
670.6890539220863
 31
0.0
  0
LINE
  5
B6
330
1F
100
AcDbEntity
  8
C-2
  6
Continuous
 62
     3
370
     9
100
AcDbLine
 10
-113.6752154376055
 20
667.6893409522804
 30
0.0
 11
-102.6752781223604
 21
667.6893409522804
 31
0.0
  0
LINE
  5
B7
330
1F
100
AcDbEntity
  8
C-2
  6
Continuous
 62
     3
370
     9
100
AcDbLine
 10
-113.6752154376055
 20
770.6893838418498
 30
0.0
 11
-102.6752781223604
 21
770.6893838418498
 31
0.0
  0
LINE
  5
B8
330
1F
100
AcDbEntity
  8
C-2
  6
Continuous
 62
     3
370
     9
100
AcDbLine
 10
-113.6752154376055
 20
767.6894234322214
 30
0.0
 11
-102.6752781223604
 21
767.6894234322214
 31
0.0
  0
LINE
  5
B9
330
1F
100
AcDbEntity
  8
C-2
  6
Continuous
 62
     3
370
     9
100
AcDbLine
 10
-83.6756113413216
 20
940.1888790646117
 30
0.0
 11
-83.6756113413216
 21
598.188938450169
 31
0.0
  0
LINE
  5
BA
330
1F
100
AcDbEntity
  8
C-2
  6
Continuous
 62
     3
370
     9
100
AcDbLine
 10
-87.67547607421875
 20
940.1888790646117
 30
0.0
 11
-87.67547607421875
 21
598.188938450169
 31
0.0
  0
LINE
  5
BB
330
1F
100
AcDbEntity
  8
C-2
  6
Continuous
 62
     3
370
     9
100
AcDbLine
 10
-98.67541338946353
 20
670.6890539220863
 30
0.0
 11
-87.67547607421875
 21
670.6890539220863
 31
0.0
  0
LINE
  5
BC
330
1F
100
AcDbEntity
  8
C-2
  6
Continuous
 62
     3
370
     9
100
AcDbLine
 10
-98.67541338946353
 20
667.6893409522804
 30
0.0
 11
-87.67547607421875
 21
667.6893409522804
 31
0.0
  0
LINE
  5
BD
330
1F
100
AcDbEntity
  8
C-2
  6
Continuous
 62
     3
370
     9
100
AcDbLine
 10
-98.67541338946353
 20
770.6893838418498
 30
0.0
 11
-87.67547607421875
 21
770.6893838418498
 31
0.0
  0
LINE
  5
BE
330
1F
100
AcDbEntity
  8
C-2
  6
Continuous
 62
     3
370
     9
100
AcDbLine
 10
-98.67541338946353
 20
767.6894234322214
 30
0.0
 11
-87.67547607421875
 21
767.6894234322214
 31
0.0
  0
LINE
  5
BF
330
1F
100
AcDbEntity
  8
C-2
  6
Continuous
 62
     3
370
     9
100
AcDbLine
 10
-68.67531441353464
 20
940.1888790646117
 30
0.0
 11
-68.67531441353464
 21
598.188938450169
 31
0.0
  0
LINE
  5
C0
330
1F
100
AcDbEntity
  8
C-2
  6
Continuous
 62
     3
370
     9
100
AcDbLine
 10
-72.67567402607682
 20
940.1888790646117
 30
0.0
 11
-72.67567402607682
 21
598.188938450169
 31
0.0
  0
LINE
  5
C1
330
1F
100
AcDbEntity
  8
C-2
  6
Continuous
 62
     3
370
     9
100
AcDbLine
 10
-83.67511646167628
 20
670.6890539220863
 30
0.0
 11
-72.67567402607682
 21
670.6890539220863
 31
0.0
  0
LINE
  5
C2
330
1F
100
AcDbEntity
  8
C-2
  6
Continuous
 62
     3
370
     9
100
AcDbLine
 10
-83.67511646167628
 20
667.6893409522804
 30
0.0
 11
-72.67567402607682
 21
667.6893409522804
 31
0.0
  0
LINE
  5
C3
330
1F
100
AcDbEntity
  8
C-2
  6
Continuous
 62
     3
370
     9
100
AcDbLine
 10
-83.67511646167628
 20
770.6893838418498
 30
0.0
 11
-72.67567402607682
 21
770.6893838418498
 31
0.0
  0
LINE
  5
C4
330
1F
100
AcDbEntity
  8
C-2
  6
Continuous
 62
     3
370
     9
100
AcDbLine
 10
-83.67511646167628
 20
767.6894234322214
 30
0.0
 11
-72.67567402607682
 21
767.6894234322214
 31
0.0
  0
LINE
  5
C5
330
1F
100
AcDbEntity
  8
C-2
  6
Continuous
 62
     3
370
     9
100
AcDbLine
 10
-53.67538864548123
 20
940.1888790646117
 30
0.0
 11
-53.67538864548123
 21
598.188938450169
 31
0.0
  0
LINE
  5
C6
330
1F
100
AcDbEntity
  8
C-2
  6
Continuous
 62
     3
370
     9
100
AcDbLine
 10
-57.67537709828957
 20
940.1888790646117
 30
0.0
 11
-57.67537709828957
 21
598.188938450169
 31
0.0
  0
LINE
  5
C7
330
1F
100
AcDbEntity
  8
C-2
  6
Continuous
 62
     3
370
     9
100
AcDbLine
 10
-68.67531441353464
 20
670.6890539220863
 30
0.0
 11
-57.67537709828957
 21
670.6890539220863
 31
0.0
  0
LINE
  5
C8
330
1F
100
AcDbEntity
  8
C-2
  6
Continuous
 62
     3
370
     9
100
AcDbLine
 10
-68.67531441353464
 20
667.6893409522804
 30
0.0
 11
-57.67537709828957
 21
667.6893409522804
 31
0.0
  0
LINE
  5
C9
330
1F
100
AcDbEntity
  8
C-2
  6
Continuous
 62
     3
370
     9
100
AcDbLine
 10
-68.67531441353464
 20
770.6893838418498
 30
0.0
 11
-57.67537709828957
 21
770.6893838418498
 31
0.0
  0
LINE
  5
CA
330
1F
100
AcDbEntity
  8
C-2
  6
Continuous
 62
     3
370
     9
100
AcDbLine
 10
-68.67531441353464
 20
767.6894234322214
 30
0.0
 11
-57.67537709828957
 21
767.6894234322214
 31
0.0
  0
LINE
  5
CB
330
1F
100
AcDbEntity
  8
C-2
  6
Continuous
 62
     3
370
     9
100
AcDbLine
 10
-38.67509171769427
 20
940.1888790646117
 30
0.0
 11
-38.67509171769427
 21
598.188938450169
 31
0.0
  0
LINE
  5
CC
330
1F
100
AcDbEntity
  8
C-2
  6
Continuous
 62
     3
370
     9
100
AcDbLine
 10
-42.67557505014764
 20
940.1888790646117
 30
0.0
 11
-42.67557505014764
 21
598.188938450169
 31
0.0
  0
LINE
  5
CD
330
1F
100
AcDbEntity
  8
C-2
  6
Continuous
 62
     3
370
     9
100
AcDbLine
 10
-53.67538864548123
 20
670.6890539220863
 30
0.0
 11
-42.67557505014764
 21
670.6890539220863
 31
0.0
  0
LINE
  5
CE
330
1F
100
AcDbEntity
  8
C-2
  6
Continuous
 62
     3
370
     9
100
AcDbLine
 10
-53.67538864548123
 20
667.6893409522804
 30
0.0
 11
-42.67557505014764
 21
667.6893409522804
 31
0.0
  0
LINE
  5
CF
330
1F
100
AcDbEntity
  8
C-2
  6
Continuous
 62
     3
370
     9
100
AcDbLine
 10
-53.67538864548123
 20
770.6893838418498
 30
0.0
 11
-42.67557505014764
 21
770.6893838418498
 31
0.0
  0
LINE
  5
D0
330
1F
100
AcDbEntity
  8
C-2
  6
Continuous
 62
     3
370
     9
100
AcDbLine
 10
-53.67538864548123
 20
767.6894234322214
 30
0.0
 11
-42.67557505014764
 21
767.6894234322214
 31
0.0
  0
LINE
  5
D1
330
1F
100
AcDbEntity
  8
C-2
  6
Continuous
 62
     3
370
     9
100
AcDbLine
 10
-23.67528966955234
 20
940.1888790646117
 30
0.0
 11
-23.67528966955234
 21
598.188938450169
 31
0.0
  0
LINE
  5
D2
330
1F
100
AcDbEntity
  8
C-2
  6
Continuous
 62
     3
370
     9
100
AcDbLine
 10
-27.67564928209453
 20
940.1888790646117
 30
0.0
 11
-27.67564928209453
 21
598.188938450169
 31
0.0
  0
LINE
  5
D3
330
1F
100
AcDbEntity
  8
C-2
  6
Continuous
 62
     3
370
     9
100
AcDbLine
 10
-38.67509171769427
 20
670.6890539220863
 30
0.0
 11
-27.67564928209453
 21
670.6890539220863
 31
0.0
  0
LINE
  5
D4
330
1F
100
AcDbEntity
  8
C-2
  6
Continuous
 62
     3
370
     9
100
AcDbLine
 10
-38.67509171769427
 20
667.6893409522804
 30
0.0
 11
-27.67564928209453
 21
667.6893409522804
 31
0.0
  0
LINE
  5
D5
330
1F
100
AcDbEntity
  8
C-2
  6
Continuous
 62
     3
370
     9
100
AcDbLine
 10
-38.67509171769427
 20
770.6893838418498
 30
0.0
 11
-27.67564928209453
 21
770.6893838418498
 31
0.0
  0
LINE
  5
D6
330
1F
100
AcDbEntity
  8
C-2
  6
Continuous
 62
     3
370
     9
100
AcDbLine
 10
-38.67509171769427
 20
767.6894234322214
 30
0.0
 11
-27.67564928209453
 21
767.6894234322214
 31
0.0
  0
LINE
  5
D7
330
1F
100
AcDbEntity
  8
C-2
  6
Continuous
 62
     3
370
     9
100
AcDbLine
 10
-8.675487621410412
 20
940.1888790646117
 30
0.0
 11
-8.675487621410412
 21
598.188938450169
 31
0.0
  0
LINE
  5
D8
330
1F
100
AcDbEntity
  8
C-2
  6
Continuous
 62
     3
370
     9
100
AcDbLine
 10
-12.67535235430728
 20
940.1888790646117
 30
0.0
 11
-12.67535235430728
 21
598.188938450169
 31
0.0
  0
LINE
  5
D9
330
1F
100
AcDbEntity
  8
C-2
  6
Continuous
 62
     3
370
     9
100
AcDbLine
 10
-23.67528966955234
 20
670.6890539220863
 30
0.0
 11
-12.67535235430728
 21
670.6890539220863
 31
0.0
  0
LINE
  5
DA
330
1F
100
AcDbEntity
  8
C-2
  6
Continuous
 62
     3
370
     9
100
AcDbLine
 10
-23.67528966955234
 20
667.6893409522804
 30
0.0
 11
-12.67535235430728
 21
667.6893409522804
 31
0.0
  0
LINE
  5
DB
330
1F
100
AcDbEntity
  8
C-2
  6
Continuous
 62
     3
370
     9
100
AcDbLine
 10
-23.67528966955234
 20
770.6893838418498
 30
0.0
 11
-12.67535235430728
 21
770.6893838418498
 31
0.0
  0
LINE
  5
DC
330
1F
100
AcDbEntity
  8
C-2
  6
Continuous
 62
     3
370
     9
100
AcDbLine
 10
-23.67528966955234
 20
767.6894234322214
 30
0.0
 11
-12.67535235430728
 21
767.6894234322214
 31
0.0
  0
LINE
  5
DD
330
1F
100
AcDbEntity
  8
C-2
  6
Continuous
 62
     3
370
     9
100
AcDbLine
 10
6.324809306376835
 20
940.1888790646117
 30
0.0
 11
6.324809306376835
 21
598.188938450169
 31
0.0
  0
LINE
  5
DE
330
1F
100
AcDbEntity
  8
C-2
  6
Continuous
 62
     3
370
     9
100
AcDbLine
 10
2.324449693834651
 20
940.1888790646117
 30
0.0
 11
2.324449693834651
 21
598.188938450169
 31
0.0
  0
LINE
  5
DF
330
1F
100
AcDbEntity
  8
C-2
  6
Continuous
 62
     3
370
     9
100
AcDbLine
 10
-8.675487621410412
 20
670.6890539220863
 30
0.0
 11
2.324449693834651
 21
670.6890539220863
 31
0.0
  0
LINE
  5
E0
330
1F
100
AcDbEntity
  8
C-2
  6
Continuous
 62
     3
370
     9
100
AcDbLine
 10
-8.675487621410412
 20
667.6893409522804
 30
0.0
 11
2.324449693834651
 21
667.6893409522804
 31
0.0
  0
LINE
  5
E1
330
1F
100
AcDbEntity
  8
C-2
  6
Continuous
 62
     3
370
     9
100
AcDbLine
 10
-8.675487621410412
 20
770.6893838418498
 30
0.0
 11
2.324449693834651
 21
770.6893838418498
 31
0.0
  0
LINE
  5
E2
330
1F
100
AcDbEntity
  8
C-2
  6
Continuous
 62
     3
370
     9
100
AcDbLine
 10
-8.675487621410412
 20
767.6894234322214
 30
0.0
 11
2.324449693834651
 21
767.6894234322214
 31
0.0
  0
LINE
  5
E3
330
1F
100
AcDbEntity
  8
C-2
  6
Continuous
 62
     3
370
     9
100
AcDbLine
 10
21.32461135451877
 20
940.1888790646117
 30
0.0
 11
21.32461135451877
 21
598.188938450169
 31
0.0
  0
LINE
  5
E4
330
1F
100
AcDbEntity
  8
C-2
  6
Continuous
 62
     3
370
     9
100
AcDbLine
 10
17.32425174197658
 20
940.1888790646117
 30
0.0
 11
17.32425174197658
 21
598.188938450169
 31
0.0
  0
LINE
  5
E5
330
1F
100
AcDbEntity
  8
C-2
  6
Continuous
 62
     3
370
     9
100
AcDbLine
 10
6.324809306376835
 20
670.6890539220863
 30
0.0
 11
17.32425174197658
 21
670.6890539220863
 31
0.0
  0
LINE
  5
E6
330
1F
100
AcDbEntity
  8
C-2
  6
Continuous
 62
     3
370
     9
100
AcDbLine
 10
6.324809306376835
 20
667.6893409522804
 30
0.0
 11
17.32425174197658
 21
667.6893409522804
 31
0.0
  0
LINE
  5
E7
330
1F
100
AcDbEntity
  8
C-2
  6
Continuous
 62
     3
370
     9
100
AcDbLine
 10
6.324809306376835
 20
770.6893838418498
 30
0.0
 11
17.32425174197658
 21
770.6893838418498
 31
0.0
  0
LINE
  5
E8
330
1F
100
AcDbEntity
  8
C-2
  6
Continuous
 62
     3
370
     9
100
AcDbLine
 10
6.324809306376835
 20
767.6894234322214
 30
0.0
 11
17.32425174197658
 21
767.6894234322214
 31
0.0
  0
LINE
  5
E9
330
1F
100
AcDbEntity
  8
C-2
  6
Continuous
 62
     3
370
     9
100
AcDbLine
 10
36.3244134026607
 20
940.1888790646117
 30
0.0
 11
36.3244134026607
 21
598.188938450169
 31
0.0
  0
LINE
  5
EA
330
1F
100
AcDbEntity
  8
C-2
  6
Continuous
 62
     3
370
     9
100
AcDbLine
 10
32.32454866976354
 20
940.1888790646117
 30
0.0
 11
32.32454866976354
 21
598.188938450169
 31
0.0
  0
LINE
  5
EB
330
1F
100
AcDbEntity
  8
C-2
  6
Continuous
 62
     3
370
     9
100
AcDbLine
 10
21.32461135451877
 20
670.6890539220863
 30
0.0
 11
32.32454866976354
 21
670.6890539220863
 31
0.0
  0
LINE
  5
EC
330
1F
100
AcDbEntity
  8
C-2
  6
Continuous
 62
     3
370
     9
100
AcDbLine
 10
21.32461135451877
 20
667.6893409522804
 30
0.0
 11
32.32454866976354
 21
667.6893409522804
 31
0.0
  0
LINE
  5
ED
330
1F
100
AcDbEntity
  8
C-2
  6
Continuous
 62
     3
370
     9
100
AcDbLine
 10
21.32461135451877
 20
770.6893838418498
 30
0.0
 11
32.32454866976354
 21
770.6893838418498
 31
0.0
  0
LINE
  5
EE
330
1F
100
AcDbEntity
  8
C-2
  6
Continuous
 62
     3
370
     9
100
AcDbLine
 10
21.32461135451877
 20
767.6894234322214
 30
0.0
 11
32.32454866976354
 21
767.6894234322214
 31
0.0
  0
LINE
  5
EF
330
1F
100
AcDbEntity
  8
C-2
  6
Continuous
 62
     3
370
     9
100
AcDbLine
 10
51.32471033044766
 20
940.1888790646117
 30
0.0
 11
51.32471033044766
 21
598.188938450169
 31
0.0
  0
LINE
  5
F0
330
1F
100
AcDbEntity
  8
C-2
  6
Continuous
 62
     3
370
     9
100
AcDbLine
 10
47.32484559755079
 20
940.1888790646117
 30
0.0
 11
47.32484559755079
 21
598.188938450169
 31
0.0
  0
LINE
  5
F1
330
1F
100
AcDbEntity
  8
C-2
  6
Continuous
 62
     3
370
     9
100
AcDbLine
 10
36.3244134026607
 20
670.6890539220863
 30
0.0
 11
47.32484559755079
 21
670.6890539220863
 31
0.0
  0
LINE
  5
F2
330
1F
100
AcDbEntity
  8
C-2
  6
Continuous
 62
     3
370
     9
100
AcDbLine
 10
36.3244134026607
 20
667.6893409522804
 30
0.0
 11
47.32484559755079
 21
667.6893409522804
 31
0.0
  0
LINE
  5
F3
330
1F
100
AcDbEntity
  8
C-2
  6
Continuous
 62
     3
370
     9
100
AcDbLine
 10
36.3244134026607
 20
770.6893838418498
 30
0.0
 11
47.32484559755079
 21
770.6893838418498
 31
0.0
  0
LINE
  5
F4
330
1F
100
AcDbEntity
  8
C-2
  6
Continuous
 62
     3
370
     9
100
AcDbLine
 10
36.3244134026607
 20
767.6894234322214
 30
0.0
 11
47.32484559755079
 21
767.6894234322214
 31
0.0
  0
LINE
  5
F5
330
1F
100
AcDbEntity
  8
C-2
  6
Continuous
 62
     3
370
     9
100
AcDbLine
 10
66.32451237858959
 20
940.1888790646117
 30
0.0
 11
66.32451237858959
 21
598.188938450169
 31
0.0
  0
LINE
  5
F6
330
1F
100
AcDbEntity
  8
C-2
  6
Continuous
 62
     3
370
     9
100
AcDbLine
 10
62.32464764569272
 20
940.1888790646117
 30
0.0
 11
62.32464764569272
 21
598.188938450169
 31
0.0
  0
LINE
  5
F7
330
1F
100
AcDbEntity
  8
C-2
  6
Continuous
 62
     3
370
     9
100
AcDbLine
 10
51.32471033044766
 20
670.6890539220863
 30
0.0
 11
62.32464764569272
 21
670.6890539220863
 31
0.0
  0
LINE
  5
F8
330
1F
100
AcDbEntity
  8
C-2
  6
Continuous
 62
     3
370
     9
100
AcDbLine
 10
51.32471033044766
 20
667.6893409522804
 30
0.0
 11
62.32464764569272
 21
667.6893409522804
 31
0.0
  0
LINE
  5
F9
330
1F
100
AcDbEntity
  8
C-2
  6
Continuous
 62
     3
370
     9
100
AcDbLine
 10
51.32471033044766
 20
770.6893838418498
 30
0.0
 11
62.32464764569272
 21
770.6893838418498
 31
0.0
  0
LINE
  5
FA
330
1F
100
AcDbEntity
  8
C-2
  6
Continuous
 62
     3
370
     9
100
AcDbLine
 10
51.32471033044766
 20
767.6894234322214
 30
0.0
 11
62.32464764569272
 21
767.6894234322214
 31
0.0
  0
LINE
  5
FB
330
1F
100
AcDbEntity
  8
C-2
  6
Continuous
 62
     3
370
     9
100
AcDbLine
 10
81.32456186655418
 20
940.1888790646117
 30
0.0
 11
81.32456186655418
 21
598.188938450169
 31
0.0
  0
LINE
  5
FC
330
1F
100
AcDbEntity
  8
C-2
  6
Continuous
 62
     3
370
     9
100
AcDbLine
 10
77.32444969383465
 20
940.1888790646117
 30
0.0
 11
77.32444969383465
 21
598.188938450169
 31
0.0
  0
LINE
  5
FD
330
1F
100
AcDbEntity
  8
C-2
  6
Continuous
 62
     3
370
     9
100
AcDbLine
 10
66.32451237858959
 20
670.6890539220863
 30
0.0
 11
77.32444969383465
 21
670.6890539220863
 31
0.0
  0
LINE
  5
FE
330
1F
100
AcDbEntity
  8
C-2
  6
Continuous
 62
     3
370
     9
100
AcDbLine
 10
66.32451237858959
 20
667.6893409522804
 30
0.0
 11
77.32444969383465
 21
667.6893409522804
 31
0.0
  0
LINE
  5
FF
330
1F
100
AcDbEntity
  8
C-2
  6
Continuous
 62
     3
370
     9
100
AcDbLine
 10
66.32451237858959
 20
770.6893838418498
 30
0.0
 11
77.32444969383465
 21
770.6893838418498
 31
0.0
  0
LINE
  5
100
330
1F
100
AcDbEntity
  8
C-2
  6
Continuous
 62
     3
370
     9
100
AcDbLine
 10
66.32451237858959
 20
767.6894234322214
 30
0.0
 11
77.32444969383465
 21
767.6894234322214
 31
0.0
  0
LINE
  5
101
330
1F
100
AcDbEntity
  8
C-2
  6
Continuous
 62
     3
370
     9
100
AcDbLine
 10
96.32485879434142
 20
940.1888790646117
 30
0.0
 11
96.32485879434142
 21
598.188938450169
 31
0.0
  0
LINE
  5
102
330
1F
100
AcDbEntity
  8
C-2
  6
Continuous
 62
     3
370
     9
100
AcDbLine
 10
92.32474662162161
 20
940.1888790646117
 30
0.0
 11
92.32474662162161
 21
598.188938450169
 31
0.0
  0
LINE
  5
103
330
1F
100
AcDbEntity
  8
C-2
  6
Continuous
 62
     3
370
     9
100
AcDbLine
 10
81.32456186655418
 20
670.6890539220863
 30
0.0
 11
92.32474662162161
 21
670.6890539220863
 31
0.0
  0
LINE
  5
104
330
1F
100
AcDbEntity
  8
C-2
  6
Continuous
 62
     3
370
     9
100
AcDbLine
 10
81.32456186655418
 20
667.6893409522804
 30
0.0
 11
92.32474662162161
 21
667.6893409522804
 31
0.0
  0
LINE
  5
105
330
1F
100
AcDbEntity
  8
C-2
  6
Continuous
 62
     3
370
     9
100
AcDbLine
 10
81.32456186655418
 20
770.6893838418498
 30
0.0
 11
92.32474662162161
 21
770.6893838418498
 31
0.0
  0
LINE
  5
106
330
1F
100
AcDbEntity
  8
C-2
  6
Continuous
 62
     3
370
     9
100
AcDbLine
 10
81.32456186655418
 20
767.6894234322214
 30
0.0
 11
92.32474662162161
 21
767.6894234322214
 31
0.0
  0
LINE
  5
107
330
1F
100
AcDbEntity
  8
C-2
  6
Continuous
 62
     3
370
     9
100
AcDbLine
 10
111.3246608424834
 20
940.1888790646117
 30
0.0
 11
111.3246608424834
 21
598.188938450169
 31
0.0
  0
LINE
  5
108
330
1F
100
AcDbEntity
  8
C-2
  6
Continuous
 62
     3
370
     9
100
AcDbLine
 10
107.3245486697635
 20
940.1888790646117
 30
0.0
 11
107.3245486697635
 21
598.188938450169
 31
0.0
  0
LINE
  5
109
330
1F
100
AcDbEntity
  8
C-2
  6
Continuous
 62
     3
370
     9
100
AcDbLine
 10
96.32485879434142
 20
670.6890539220863
 30
0.0
 11
107.3245486697635
 21
670.6890539220863
 31
0.0
  0
LINE
  5
10A
330
1F
100
AcDbEntity
  8
C-2
  6
Continuous
 62
     3
370
     9
100
AcDbLine
 10
96.32485879434142
 20
667.6893409522804
 30
0.0
 11
107.3245486697635
 21
667.6893409522804
 31
0.0
  0
LINE
  5
10B
330
1F
100
AcDbEntity
  8
C-2
  6
Continuous
 62
     3
370
     9
100
AcDbLine
 10
96.32485879434142
 20
770.6893838418498
 30
0.0
 11
107.3245486697635
 21
770.6893838418498
 31
0.0
  0
LINE
  5
10C
330
1F
100
AcDbEntity
  8
C-2
  6
Continuous
 62
     3
370
     9
100
AcDbLine
 10
96.32485879434142
 20
767.6894234322214
 30
0.0
 11
107.3245486697635
 21
767.6894234322214
 31
0.0
  0
LINE
  5
10D
330
1F
100
AcDbEntity
  8
C-2
  6
Continuous
 62
     3
370
     9
100
AcDbLine
 10
126.3249577702703
 20
940.1888790646117
 30
0.0
 11
126.3249577702703
 21
598.188938450169
 31
0.0
  0
LINE
  5
10E
330
1F
100
AcDbEntity
  8
C-2
  6
Continuous
 62
     3
370
     9
100
AcDbLine
 10
122.3243507179055
 20
940.1888790646117
 30
0.0
 11
122.3243507179055
 21
598.188938450169
 31
0.0
  0
LINE
  5
10F
330
1F
100
AcDbEntity
  8
C-2
  6
Continuous
 62
     3
370
     9
100
AcDbLine
 10
111.3246608424834
 20
670.6890539220863
 30
0.0
 11
122.3243507179055
 21
670.6890539220863
 31
0.0
  0
LINE
  5
110
330
1F
100
AcDbEntity
  8
C-2
  6
Continuous
 62
     3
370
     9
100
AcDbLine
 10
111.3246608424834
 20
667.6893409522804
 30
0.0
 11
122.3243507179055
 21
667.6893409522804
 31
0.0
  0
LINE
  5
111
330
1F
100
AcDbEntity
  8
C-2
  6
Continuous
 62
     3
370
     9
100
AcDbLine
 10
111.3246608424834
 20
770.6893838418498
 30
0.0
 11
122.3243507179055
 21
770.6893838418498
 31
0.0
  0
LINE
  5
112
330
1F
100
AcDbEntity
  8
C-2
  6
Continuous
 62
     3
370
     9
100
AcDbLine
 10
111.3246608424834
 20
767.6894234322214
 30
0.0
 11
122.3243507179055
 21
767.6894234322214
 31
0.0
  0
LINE
  5
113
330
1F
100
AcDbEntity
  8
C-2
  6
Continuous
 62
     3
370
     9
100
AcDbLine
 10
141.3247598184122
 20
940.1888790646117
 30
0.0
 11
141.3247598184122
 21
598.188938450169
 31
0.0
  0
LINE
  5
114
330
1F
100
AcDbEntity
  8
C-2
  6
Continuous
 62
     3
370
     9
100
AcDbLine
 10
137.3244002058701
 20
940.1888790646117
 30
0.0
 11
137.3244002058701
 21
598.188938450169
 31
0.0
  0
LINE
  5
115
330
1F
100
AcDbEntity
  8
C-2
  6
Continuous
 62
     3
370
     9
100
AcDbLine
 10
126.3249577702703
 20
670.6890539220863
 30
0.0
 11
137.3244002058701
 21
670.6890539220863
 31
0.0
  0
LINE
  5
116
330
1F
100
AcDbEntity
  8
C-2
  6
Continuous
 62
     3
370
     9
100
AcDbLine
 10
126.3249577702703
 20
667.6893409522804
 30
0.0
 11
137.3244002058701
 21
667.6893409522804
 31
0.0
  0
LINE
  5
117
330
1F
100
AcDbEntity
  8
C-2
  6
Continuous
 62
     3
370
     9
100
AcDbLine
 10
126.3249577702703
 20
770.6893838418498
 30
0.0
 11
137.3244002058701
 21
770.6893838418498
 31
0.0
  0
LINE
  5
118
330
1F
100
AcDbEntity
  8
C-2
  6
Continuous
 62
     3
370
     9
100
AcDbLine
 10
126.3249577702703
 20
767.6894234322214
 30
0.0
 11
137.3244002058701
 21
767.6894234322214
 31
0.0
  0
LINE
  5
119
330
1F
100
AcDbEntity
  8
C-2
  6
Continuous
 62
     3
370
     9
100
AcDbLine
 10
141.3247598184122
 20
670.6890539220863
 30
0.0
 11
152.3246971336573
 21
670.6890539220863
 31
0.0
  0
LINE
  5
11A
330
1F
100
AcDbEntity
  8
C-2
  6
Continuous
 62
     3
370
     9
100
AcDbLine
 10
141.3247598184122
 20
667.6893409522804
 30
0.0
 11
152.3246971336573
 21
667.6893409522804
 31
0.0
  0
LINE
  5
11B
330
1F
100
AcDbEntity
  8
C-2
  6
Continuous
 62
     3
370
     9
100
AcDbLine
 10
141.3247598184122
 20
770.6893838418498
 30
0.0
 11
152.3246971336573
 21
770.6893838418498
 31
0.0
  0
LINE
  5
11C
330
1F
100
AcDbEntity
  8
C-2
  6
Continuous
 62
     3
370
     9
100
AcDbLine
 10
141.3247598184122
 20
767.6894234322214
 30
0.0
 11
152.3246971336573
 21
767.6894234322214
 31
0.0
  0
LINE
  5
11D
330
1F
100
AcDbEntity
  8
C-2
  6
Continuous
 62
     3
370
     9
100
AcDbLine
 10
156.3250567461995
 20
670.6890539220863
 30
0.0
 11
167.3249940614443
 21
670.6890539220863
 31
0.0
  0
LINE
  5
11E
330
1F
100
AcDbEntity
  8
C-2
  6
Continuous
 62
     3
370
     9
100
AcDbLine
 10
156.3250567461995
 20
667.6893409522804
 30
0.0
 11
167.3249940614443
 21
667.6893409522804
 31
0.0
  0
LINE
  5
11F
330
1F
100
AcDbEntity
  8
C-2
  6
Continuous
 62
     3
370
     9
100
AcDbLine
 10
156.3250567461995
 20
770.6893838418498
 30
0.0
 11
167.3249940614443
 21
770.6893838418498
 31
0.0
  0
LINE
  5
120
330
1F
100
AcDbEntity
  8
C-2
  6
Continuous
 62
     3
370
     9
100
AcDbLine
 10
156.3250567461995
 20
767.6894234322214
 30
0.0
 11
167.3249940614443
 21
767.6894234322214
 31
0.0
  0
LINE
  5
121
330
1F
100
AcDbEntity
  8
C-2
  6
Continuous
 62
     3
370
     9
100
AcDbLine
 10
-159.175563502956
 20
870.6894663217906
 30
0.0
 11
-147.675797745988
 21
870.6894663217906
 31
0.0
  0
LINE
  5
122
330
1F
100
AcDbEntity
  8
C-2
  6
Continuous
 62
     3
370
     9
100
AcDbLine
 10
-159.175563502956
 20
867.6892584723396
 30
0.0
 11
-147.675797745988
 21
867.6892584723396
 31
0.0
  0
LINE
  5
123
330
1F
100
AcDbEntity
  8
C-2
  6
Continuous
 62
     3
370
     9
100
AcDbLine
 10
-143.6753144135346
 20
870.6894663217906
 30
0.0
 11
-132.675500818201
 21
870.6894663217906
 31
0.0
  0
LINE
  5
124
330
1F
100
AcDbEntity
  8
C-2
  6
Continuous
 62
     3
370
     9
100
AcDbLine
 10
-143.6753144135346
 20
867.6892584723396
 30
0.0
 11
-132.675500818201
 21
867.6892584723396
 31
0.0
  0
LINE
  5
125
330
1F
100
AcDbEntity
  8
C-2
  6
Continuous
 62
     3
370
     9
100
AcDbLine
 10
-128.6755123653927
 20
870.6894663217906
 30
0.0
 11
-117.6756987700591
 21
870.6894663217906
 31
0.0
  0
LINE
  5
126
330
1F
100
AcDbEntity
  8
C-2
  6
Continuous
 62
     3
370
     9
100
AcDbLine
 10
-128.6755123653927
 20
867.6892584723396
 30
0.0
 11
-117.6756987700591
 21
867.6892584723396
 31
0.0
  0
LINE
  5
127
330
1F
100
AcDbEntity
  8
C-2
  6
Continuous
 62
     3
370
     9
100
AcDbLine
 10
-113.6752154376055
 20
870.6894663217906
 30
0.0
 11
-102.6752781223604
 21
870.6894663217906
 31
0.0
  0
LINE
  5
128
330
1F
100
AcDbEntity
  8
C-2
  6
Continuous
 62
     3
370
     9
100
AcDbLine
 10
-113.6752154376055
 20
867.6892584723396
 30
0.0
 11
-102.6752781223604
 21
867.6892584723396
 31
0.0
  0
LINE
  5
129
330
1F
100
AcDbEntity
  8
C-2
  6
Continuous
 62
     3
370
     9
100
AcDbLine
 10
-98.67541338946353
 20
870.6894663217906
 30
0.0
 11
-87.67547607421875
 21
870.6894663217906
 31
0.0
  0
LINE
  5
12A
330
1F
100
AcDbEntity
  8
C-2
  6
Continuous
 62
     3
370
     9
100
AcDbLine
 10
-98.67541338946353
 20
867.6892584723396
 30
0.0
 11
-87.67547607421875
 21
867.6892584723396
 31
0.0
  0
LINE
  5
12B
330
1F
100
AcDbEntity
  8
C-2
  6
Continuous
 62
     3
370
     9
100
AcDbLine
 10
-83.67511646167628
 20
870.6894663217906
 30
0.0
 11
-72.67567402607682
 21
870.6894663217906
 31
0.0
  0
LINE
  5
12C
330
1F
100
AcDbEntity
  8
C-2
  6
Continuous
 62
     3
370
     9
100
AcDbLine
 10
-83.67511646167628
 20
867.6892584723396
 30
0.0
 11
-72.67567402607682
 21
867.6892584723396
 31
0.0
  0
LINE
  5
12D
330
1F
100
AcDbEntity
  8
C-2
  6
Continuous
 62
     3
370
     9
100
AcDbLine
 10
-68.67531441353464
 20
870.6894663217906
 30
0.0
 11
-57.67537709828957
 21
870.6894663217906
 31
0.0
  0
LINE
  5
12E
330
1F
100
AcDbEntity
  8
C-2
  6
Continuous
 62
     3
370
     9
100
AcDbLine
 10
-68.67531441353464
 20
867.6892584723396
 30
0.0
 11
-57.67537709828957
 21
867.6892584723396
 31
0.0
  0
LINE
  5
12F
330
1F
100
AcDbEntity
  8
C-2
  6
Continuous
 62
     3
370
     9
100
AcDbLine
 10
-53.67538864548123
 20
870.6894663217906
 30
0.0
 11
-42.67557505014764
 21
870.6894663217906
 31
0.0
  0
LINE
  5
130
330
1F
100
AcDbEntity
  8
C-2
  6
Continuous
 62
     3
370
     9
100
AcDbLine
 10
-53.67538864548123
 20
867.6892584723396
 30
0.0
 11
-42.67557505014764
 21
867.6892584723396
 31
0.0
  0
LINE
  5
131
330
1F
100
AcDbEntity
  8
C-2
  6
Continuous
 62
     3
370
     9
100
AcDbLine
 10
-38.67509171769427
 20
870.6894663217906
 30
0.0
 11
-27.67564928209453
 21
870.6894663217906
 31
0.0
  0
LINE
  5
132
330
1F
100
AcDbEntity
  8
C-2
  6
Continuous
 62
     3
370
     9
100
AcDbLine
 10
-38.67509171769427
 20
867.6892584723396
 30
0.0
 11
-27.67564928209453
 21
867.6892584723396
 31
0.0
  0
LINE
  5
133
330
1F
100
AcDbEntity
  8
C-2
  6
Continuous
 62
     3
370
     9
100
AcDbLine
 10
-23.67528966955234
 20
870.6894663217906
 30
0.0
 11
-12.67535235430728
 21
870.6894663217906
 31
0.0
  0
LINE
  5
134
330
1F
100
AcDbEntity
  8
C-2
  6
Continuous
 62
     3
370
     9
100
AcDbLine
 10
-23.67528966955234
 20
867.6892584723396
 30
0.0
 11
-12.67535235430728
 21
867.6892584723396
 31
0.0
  0
LINE
  5
135
330
1F
100
AcDbEntity
  8
C-2
  6
Continuous
 62
     3
370
     9
100
AcDbLine
 10
-8.675487621410412
 20
870.6894663217906
 30
0.0
 11
2.324449693834651
 21
870.6894663217906
 31
0.0
  0
LINE
  5
136
330
1F
100
AcDbEntity
  8
C-2
  6
Continuous
 62
     3
370
     9
100
AcDbLine
 10
-8.675487621410412
 20
867.6892584723396
 30
0.0
 11
2.324449693834651
 21
867.6892584723396
 31
0.0
  0
LINE
  5
137
330
1F
100
AcDbEntity
  8
C-2
  6
Continuous
 62
     3
370
     9
100
AcDbLine
 10
6.324809306376835
 20
870.6894663217906
 30
0.0
 11
17.32425174197658
 21
870.6894663217906
 31
0.0
  0
LINE
  5
138
330
1F
100
AcDbEntity
  8
C-2
  6
Continuous
 62
     3
370
     9
100
AcDbLine
 10
6.324809306376835
 20
867.6892584723396
 30
0.0
 11
17.32425174197658
 21
867.6892584723396
 31
0.0
  0
LINE
  5
139
330
1F
100
AcDbEntity
  8
C-2
  6
Continuous
 62
     3
370
     9
100
AcDbLine
 10
21.32461135451877
 20
870.6894663217906
 30
0.0
 11
32.32454866976354
 21
870.6894663217906
 31
0.0
  0
LINE
  5
13A
330
1F
100
AcDbEntity
  8
C-2
  6
Continuous
 62
     3
370
     9
100
AcDbLine
 10
21.32461135451877
 20
867.6892584723396
 30
0.0
 11
32.32454866976354
 21
867.6892584723396
 31
0.0
  0
LINE
  5
13B
330
1F
100
AcDbEntity
  8
C-2
  6
Continuous
 62
     3
370
     9
100
AcDbLine
 10
36.3244134026607
 20
870.6894663217906
 30
0.0
 11
47.32484559755079
 21
870.6894663217906
 31
0.0
  0
LINE
  5
13C
330
1F
100
AcDbEntity
  8
C-2
  6
Continuous
 62
     3
370
     9
100
AcDbLine
 10
36.3244134026607
 20
867.6892584723396
 30
0.0
 11
47.32484559755079
 21
867.6892584723396
 31
0.0
  0
LINE
  5
13D
330
1F
100
AcDbEntity
  8
C-2
  6
Continuous
 62
     3
370
     9
100
AcDbLine
 10
51.32471033044766
 20
870.6894663217906
 30
0.0
 11
62.32464764569272
 21
870.6894663217906
 31
0.0
  0
LINE
  5
13E
330
1F
100
AcDbEntity
  8
C-2
  6
Continuous
 62
     3
370
     9
100
AcDbLine
 10
51.32471033044766
 20
867.6892584723396
 30
0.0
 11
62.32464764569272
 21
867.6892584723396
 31
0.0
  0
LINE
  5
13F
330
1F
100
AcDbEntity
  8
C-2
  6
Continuous
 62
     3
370
     9
100
AcDbLine
 10
66.32451237858959
 20
870.6894663217906
 30
0.0
 11
77.32444969383465
 21
870.6894663217906
 31
0.0
  0
LINE
  5
140
330
1F
100
AcDbEntity
  8
C-2
  6
Continuous
 62
     3
370
     9
100
AcDbLine
 10
66.32451237858959
 20
867.6892584723396
 30
0.0
 11
77.32444969383465
 21
867.6892584723396
 31
0.0
  0
LINE
  5
141
330
1F
100
AcDbEntity
  8
C-2
  6
Continuous
 62
     3
370
     9
100
AcDbLine
 10
81.32456186655418
 20
870.6894663217906
 30
0.0
 11
92.32474662162161
 21
870.6894663217906
 31
0.0
  0
LINE
  5
142
330
1F
100
AcDbEntity
  8
C-2
  6
Continuous
 62
     3
370
     9
100
AcDbLine
 10
81.32456186655418
 20
867.6892584723396
 30
0.0
 11
92.32474662162161
 21
867.6892584723396
 31
0.0
  0
LINE
  5
143
330
1F
100
AcDbEntity
  8
C-2
  6
Continuous
 62
     3
370
     9
100
AcDbLine
 10
96.32485879434142
 20
870.6894663217906
 30
0.0
 11
107.3245486697635
 21
870.6894663217906
 31
0.0
  0
LINE
  5
144
330
1F
100
AcDbEntity
  8
C-2
  6
Continuous
 62
     3
370
     9
100
AcDbLine
 10
96.32485879434142
 20
867.6892584723396
 30
0.0
 11
107.3245486697635
 21
867.6892584723396
 31
0.0
  0
LINE
  5
145
330
1F
100
AcDbEntity
  8
C-2
  6
Continuous
 62
     3
370
     9
100
AcDbLine
 10
111.3246608424834
 20
870.6894663217906
 30
0.0
 11
122.3243507179055
 21
870.6894663217906
 31
0.0
  0
LINE
  5
146
330
1F
100
AcDbEntity
  8
C-2
  6
Continuous
 62
     3
370
     9
100
AcDbLine
 10
111.3246608424834
 20
867.6892584723396
 30
0.0
 11
122.3243507179055
 21
867.6892584723396
 31
0.0
  0
LINE
  5
147
330
1F
100
AcDbEntity
  8
C-2
  6
Continuous
 62
     3
370
     9
100
AcDbLine
 10
126.3249577702703
 20
870.6894663217906
 30
0.0
 11
137.3244002058701
 21
870.6894663217906
 31
0.0
  0
LINE
  5
148
330
1F
100
AcDbEntity
  8
C-2
  6
Continuous
 62
     3
370
     9
100
AcDbLine
 10
126.3249577702703
 20
867.6892584723396
 30
0.0
 11
137.3244002058701
 21
867.6892584723396
 31
0.0
  0
LINE
  5
149
330
1F
100
AcDbEntity
  8
C-2
  6
Continuous
 62
     3
370
     9
100
AcDbLine
 10
141.3247598184122
 20
870.6894663217906
 30
0.0
 11
152.3246971336573
 21
870.6894663217906
 31
0.0
  0
LINE
  5
14A
330
1F
100
AcDbEntity
  8
C-2
  6
Continuous
 62
     3
370
     9
100
AcDbLine
 10
141.3247598184122
 20
867.6892584723396
 30
0.0
 11
152.3246971336573
 21
867.6892584723396
 31
0.0
  0
LINE
  5
14B
330
1F
100
AcDbEntity
  8
C-2
  6
Continuous
 62
     3
370
     9
100
AcDbLine
 10
156.3250567461995
 20
870.6894663217906
 30
0.0
 11
167.3249940614443
 21
870.6894663217906
 31
0.0
  0
LINE
  5
14C
330
1F
100
AcDbEntity
  8
C-2
  6
Continuous
 62
     3
370
     9
100
AcDbLine
 10
156.3250567461995
 20
867.6892584723396
 30
0.0
 11
167.3249940614443
 21
867.6892584723396
 31
0.0
  0
LINE
  5
14D
330
1F
100
AcDbEntity
  8
C-2
  6
Continuous
 62
     3
370
     9
100
AcDbLine
 10
186.8244892842063
 20
944.1882489178633
 30
0.0
 11
186.8244892842063
 21
594.1890737172721
 31
0.0
  0
LINE
  5
14E
330
1F
100
AcDbEntity
  8
C-2
  6
Continuous
 62
     3
370
     9
100
AcDbLine
 10
-163.1755519557643
 20
594.1890737172721
 30
0.0
 11
186.8244892842063
 21
594.1890737172721
 31
0.0
  0
LINE
  5
14F
330
1F
100
AcDbEntity
  8
C-2
  6
Continuous
 62
     3
370
     9
100
AcDbLine
 10
171.3243639146961
 20
940.1888790646117
 30
0.0
 11
171.3243639146961
 21
598.188938450169
 31
0.0
  0
LINE
  5
150
330
1F
100
AcDbEntity
  8
C-2
  6
Continuous
 62
     3
370
     9
100
AcDbLine
 10
167.3249940614443
 20
940.1888790646117
 30
0.0
 11
167.3249940614443
 21
598.188938450169
 31
0.0
  0
LINE
  5
151
330
1F
100
AcDbEntity
  8
C-2
  6
Continuous
 62
     3
370
     9
100
AcDbLine
 10
156.3245618665542
 20
940.1888790646117
 30
0.0
 11
156.3245618665542
 21
598.188938450169
 31
0.0
  0
LINE
  5
152
330
1F
100
AcDbEntity
  8
C-2
  6
Continuous
 62
     3
370
     9
100
AcDbLine
 10
152.3246971336573
 20
940.1888790646117
 30
0.0
 11
152.3246971336573
 21
598.188938450169
 31
0.0
  0
LINE
  5
153
330
1F
100
AcDbEntity
  8
C-2
  6
Continuous
 62
     3
370
     9
100
AcDbLine
 10
186.8244892842063
 20
944.1882489178633
 30
0.0
 11
-163.1755519557643
 21
944.1882489178633
 31
0.0
  0
LINE
  5
154
330
1F
100
AcDbEntity
  8
C-2
  6
Continuous
 62
     3
370
     9
100
AcDbLine
 10
186.8244892842063
 20
940.1888790646117
 30
0.0
 11
-163.1755519557643
 21
940.1888790646117
 31
0.0
  0
LINE
  5
155
330
1F
100
AcDbEntity
  8
C-2
  6
Continuous
 62
     3
370
     9
100
AcDbLine
 10
171.3248587943414
 20
867.6892584723396
 30
0.0
 11
182.8246245513091
 21
867.6892584723396
 31
0.0
  0
LINE
  5
156
330
1F
100
AcDbEntity
  8
C-2
  6
Continuous
 62
     3
370
     9
100
AcDbLine
 10
171.3248587943414
 20
870.6894663217906
 30
0.0
 11
182.8246245513091
 21
870.6894663217906
 31
0.0
  0
LINE
  5
157
330
1F
100
AcDbEntity
  8
C-2
  6
Continuous
 62
     3
370
     9
100
AcDbLine
 10
171.3248587943414
 20
770.6893838418498
 30
0.0
 11
182.8246245513091
 21
770.6893838418498
 31
0.0
  0
LINE
  5
158
330
1F
100
AcDbEntity
  8
C-2
  6
Continuous
 62
     3
370
     9
100
AcDbLine
 10
171.3248587943414
 20
767.6894234322214
 30
0.0
 11
182.8246245513091
 21
767.6894234322214
 31
0.0
  0
LINE
  5
159
330
1F
100
AcDbEntity
  8
C-2
  6
Continuous
 62
     3
370
     9
100
AcDbLine
 10
171.3248587943414
 20
670.6890539220863
 30
0.0
 11
182.8246245513091
 21
670.6890539220863
 31
0.0
  0
LINE
  5
15A
330
1F
100
AcDbEntity
  8
C-2
  6
Continuous
 62
     3
370
     9
100
AcDbLine
 10
171.3248587943414
 20
667.6893409522804
 30
0.0
 11
182.8246245513091
 21
667.6893409522804
 31
0.0
  0
LINE
  5
15B
330
1F
100
AcDbEntity
  8
C-1
  6
JWW_DASHED3
 62
     2
370
     9
100
AcDbLine
 10
-138.1750983160893
 20
919.1889087573904
 30
0.0
 11
-138.1750983160893
 21
619.1889087573904
 31
0.0
  0
LINE
  5
15C
330
1F
100
AcDbEntity
  8
C-1
  6
JWW_DASHED3
 62
     2
370
     9
100
AcDbLine
 10
161.824654244088
 20
619.1889087573904
 30
0.0
 11
-138.1750983160893
 21
619.1889087573904
 31
0.0
  0
LINE
  5
15D
330
1F
100
AcDbEntity
  8
C-1
  6
JWW_DASHED3
 62
     2
370
     9
100
AcDbLine
 10
161.824654244088
 20
919.1889087573904
 30
0.0
 11
161.824654244088
 21
619.1889087573904
 31
0.0
  0
LINE
  5
15E
330
1F
100
AcDbEntity
  8
C-1
  6
JWW_DASHED3
 62
     2
370
     9
100
AcDbLine
 10
161.824654244088
 20
919.1889087573904
 30
0.0
 11
-138.1750983160893
 21
919.1889087573904
 31
0.0
  0
LINE
  5
15F
330
1F
100
AcDbEntity
  8
C-5
  6
Continuous
 62
     7
370
     9
100
AcDbLine
 10
-275.6756756756755
 20
404.1891891891893
 30
0.0
 11
-275.6756756756755
 21
469.1887850374789
 31
0.0
  0
LINE
  5
160
330
1F
100
AcDbEntity
  8
C-5
  6
Continuous
 62
     7
370
     9
100
AcDbLine
 10
-275.6756756756755
 20
469.1887850374789
 30
0.0
 11
299.3244892842063
 21
469.1887850374789
 31
0.0
  0
LINE
  5
161
330
1F
100
AcDbEntity
  8
C-5
  6
Continuous
 62
     7
370
     9
100
AcDbLine
 10
299.3244892842063
 20
469.1887850374789
 30
0.0
 11
299.3244892842063
 21
404.1891891891893
 31
0.0
  0
LINE
  5
162
330
1F
100
AcDbEntity
  8
C-5
  6
Continuous
 62
     7
370
     9
100
AcDbLine
 10
299.3244892842063
 20
404.1891891891893
 30
0.0
 11
-275.6756756756755
 21
404.1891891891893
 31
0.0
  0
LINE
  5
163
330
1F
100
AcDbEntity
  8
C-1
  6
Continuous
 62
     2
370
     9
100
AcDbLine
 10
-168.1753210119297
 20
949.1890077333193
 30
0.0
 11
-168.1753210119297
 21
589.1888097814613
 31
0.0
  0
LINE
  5
164
330
1F
100
AcDbEntity
  8
C-1
  6
Continuous
 62
     2
370
     9
100
AcDbLine
 10
-168.1753210119297
 20
589.1888097814613
 30
0.0
 11
191.8247532200169
 21
589.1888097814613
 31
0.0
  0
LINE
  5
165
330
1F
100
AcDbEntity
  8
C-1
  6
Continuous
 62
     2
370
     9
100
AcDbLine
 10
191.8247532200169
 20
589.1888097814613
 30
0.0
 11
191.8247532200169
 21
949.1890077333193
 31
0.0
  0
LINE
  5
166
330
1F
100
AcDbEntity
  8
C-1
  6
Continuous
 62
     2
370
     9
100
AcDbLine
 10
191.8247532200169
 20
949.1890077333193
 30
0.0
 11
-168.1753210119297
 21
949.1890077333193
 31
0.0
  0
LINE
  5
167
330
1F
100
AcDbEntity
  8
C-1
  6
Continuous
 62
     2
370
     9
100
AcDbLine
 10
-165.1752368823901
 20
946.1887998838686
 30
0.0
 11
-165.1752368823901
 21
592.1887701910896
 31
0.0
  0
LINE
  5
168
330
1F
100
AcDbEntity
  8
C-1
  6
Continuous
 62
     2
370
     9
100
AcDbLine
 10
-165.1752368823901
 20
592.1887701910896
 30
0.0
 11
188.8247928103885
 21
592.1887701910896
 31
0.0
  0
LINE
  5
169
330
1F
100
AcDbEntity
  8
C-1
  6
Continuous
 62
     2
370
     9
100
AcDbLine
 10
188.8247928103885
 20
592.1887701910896
 30
0.0
 11
188.8247928103885
 21
946.1887998838686
 31
0.0
  0
LINE
  5
16A
330
1F
100
AcDbEntity
  8
C-1
  6
Continuous
 62
     2
370
     9
100
AcDbLine
 10
188.8247928103885
 20
946.1887998838686
 30
0.0
 11
-165.1752368823901
 21
946.1887998838686
 31
0.0
  0
LINE
  5
16B
330
1F
100
AcDbEntity
  8
C-4
  6
Continuous
 62
     7
370
     9
100
AcDbLine
 10
-209.4924514358107
 20
1079.188199429899
 30
0.0
 11
236.5762246621622
 21
1079.188199429899
 31
0.0
  0
LINE
  5
16C
330
1F
100
AcDbEntity
  8
C-4
  6
Continuous
 62
     7
370
     9
100
AcDbLine
 10
-163.1755519557643
 20
964.1888097814613
 30
0.0
 11
-163.1755519557643
 21
1082.188159839527
 31
0.0
  0
LINE
  5
16D
330
1F
100
AcDbEntity
  8
C-4
  6
Continuous
 62
     7
370
     9
100
AcDbLine
 10
186.8244892842063
 20
964.1888097814613
 30
0.0
 11
186.8244892842063
 21
1082.188159839527
 31
0.0
  0
LINE
  5
16E
330
1F
100
AcDbEntity
  8
C-4
  6
Continuous
 62
     7
370
     9
100
AcDbLine
 10
-168.1753210119297
 20
1134.188133445946
 30
0.0
 11
191.8247532200169
 21
1134.188133445946
 31
0.0
  0
LINE
  5
16F
330
1F
100
AcDbEntity
  8
C-4
  6
Continuous
 62
     7
370
     9
100
AcDbLine
 10
191.8247532200169
 20
964.1888097814613
 30
0.0
 11
191.8247532200169
 21
1137.187598975929
 31
0.0
  0
LINE
  5
170
330
1F
100
AcDbEntity
  8
C-4
  6
Continuous
 62
     7
370
     9
100
AcDbLine
 10
-163.1755519557643
 20
1024.188017974029
 30
0.0
 11
186.8239944045609
 21
1024.188017974029
 31
0.0
  0
LINE
  5
171
330
1F
100
AcDbEntity
  8
C-4
  6
Continuous
 62
     7
370
     9
100
AcDbLine
 10
-138.1750983160893
 20
964.1888097814613
 30
0.0
 11
-138.1750983160893
 21
1027.188720703125
 31
0.0
  0
LINE
  5
172
330
1F
100
AcDbEntity
  8
C-4
  6
Continuous
 62
     7
370
     9
100
AcDbLine
 10
161.8251491237334
 20
964.1888097814613
 30
0.0
 11
161.8251491237334
 21
1027.188720703125
 31
0.0
  0
LINE
  5
173
330
1F
100
AcDbEntity
  8
C-4
  6
Continuous
 62
     7
370
     9
100
AcDbLine
 10
-165.1752368823901
 20
964.1888097814613
 30
0.0
 11
-165.1752368823901
 21
1082.188159839527
 31
0.0
  0
LINE
  5
174
330
1F
100
AcDbEntity
  8
C-4
  6
Continuous
 62
     7
370
     9
100
AcDbLine
 10
-168.1753210119297
 20
964.1888097814613
 30
0.0
 11
-168.1753210119297
 21
1137.187598975929
 31
0.0
  0
LINE
  5
175
330
1F
100
AcDbEntity
  8
C-4
  6
Continuous
 62
     7
370
     9
100
AcDbLine
 10
188.8247928103885
 20
964.1888097814613
 30
0.0
 11
188.8247928103885
 21
1082.188159839527
 31
0.0
  0
LINE
  5
176
330
1F
100
AcDbEntity
  8
C-4
  6
Continuous
 62
     7
370
     9
100
AcDbLine
 10
-298.1743889885979
 20
547.8716793575804
 30
0.0
 11
-298.1743889885979
 21
993.9402317356419
 31
0.0
  0
LINE
  5
177
330
1F
100
AcDbEntity
  8
C-4
  6
Continuous
 62
     7
370
     9
100
AcDbLine
 10
-183.1751230600716
 20
594.1885788376269
 30
0.0
 11
-301.1744731181375
 21
594.1885788376269
 31
0.0
  0
LINE
  5
178
330
1F
100
AcDbEntity
  8
C-4
  6
Continuous
 62
     7
370
     9
100
AcDbLine
 10
-183.1751230600716
 20
944.1887437975086
 30
0.0
 11
-301.1744731181375
 21
944.1887437975086
 31
0.0
  0
LINE
  5
179
330
1F
100
AcDbEntity
  8
C-4
  6
Continuous
 62
     7
370
     9
100
AcDbLine
 10
-353.1744467245565
 20
589.1888097814613
 30
0.0
 11
-353.1744467245565
 21
949.1890077333193
 31
0.0
  0
LINE
  5
17A
330
1F
100
AcDbEntity
  8
C-4
  6
Continuous
 62
     7
370
     9
100
AcDbLine
 10
-183.1751230600716
 20
949.1890077333193
 30
0.0
 11
-356.174035974451
 21
949.1890077333193
 31
0.0
  0
LINE
  5
17B
330
1F
100
AcDbEntity
  8
C-4
  6
Continuous
 62
     7
370
     9
100
AcDbLine
 10
-243.1744549725505
 20
594.1885788376269
 30
0.0
 11
-243.1744549725505
 21
944.1882489178633
 31
0.0
  0
LINE
  5
17C
330
1F
100
AcDbEntity
  8
C-4
  6
Continuous
 62
     7
370
     9
100
AcDbLine
 10
-183.1751230600716
 20
619.1889087573904
 30
0.0
 11
-246.1749102618242
 21
619.1889087573904
 31
0.0
  0
LINE
  5
17D
330
1F
100
AcDbEntity
  8
C-4
  6
Continuous
 62
     7
370
     9
100
AcDbLine
 10
-183.1751230600716
 20
919.1894036370356
 30
0.0
 11
-246.1749102618242
 21
919.1894036370356
 31
0.0
  0
LINE
  5
17E
330
1F
100
AcDbEntity
  8
C-4
  6
Continuous
 62
     7
370
     9
100
AcDbLine
 10
-183.1751230600716
 20
592.1887701910896
 30
0.0
 11
-301.1744731181375
 21
592.1887701910896
 31
0.0
  0
LINE
  5
17F
330
1F
100
AcDbEntity
  8
C-4
  6
Continuous
 62
     7
370
     9
100
AcDbLine
 10
-183.1751230600716
 20
589.1888097814613
 30
0.0
 11
-356.174035974451
 21
589.1888097814613
 31
0.0
  0
LINE
  5
180
330
1F
100
AcDbEntity
  8
C-4
  6
Continuous
 62
     7
370
     9
100
AcDbLine
 10
-183.1751230600716
 20
946.1887998838686
 30
0.0
 11
-301.1744731181375
 21
946.1887998838686
 31
0.0
  0
LINE
  5
181
330
1F
100
AcDbEntity
  8
C-4
  6
Continuous
 62
     7
370
     9
100
AcDbLine
 10
49.32465424408804
 20
971.7745724239867
 30
0.0
 11
64.32470373205263
 21
971.7745724239867
 31
0.0
  0
LINE
  5
182
330
1F
100
AcDbEntity
  8
C-4
  6
Continuous
 62
     7
370
     9
100
AcDbLine
 10
49.32465424408804
 20
934.1887108055323
 30
0.0
 11
49.32465424408804
 21
974.7745328336151
 31
0.0
  0
LINE
  5
183
330
1F
100
AcDbEntity
  8
C-4
  6
Continuous
 62
     7
370
     9
100
AcDbLine
 10
64.32470373205263
 20
934.1887108055323
 30
0.0
 11
64.32470373205263
 21
974.7745328336151
 31
0.0
  0
LINE
  5
184
330
1F
100
AcDbEntity
  8
C-4
  6
Continuous
 62
     7
370
     9
100
AcDbLine
 10
-68.17585713154557
 20
544.4712375950169
 30
0.0
 11
-68.17585713154557
 21
501.1900535789698
 31
0.0
  0
LINE
  5
185
330
1F
100
AcDbEntity
  8
C-4
  6
Continuous
 62
     7
370
     9
100
AcDbLine
 10
-168.1753210119297
 20
504.1906325881547
 30
0.0
 11
-68.17585713154557
 21
504.1906325881547
 31
0.0
  0
LINE
  5
186
330
1F
100
AcDbEntity
  8
C-4
  6
Continuous
 62
     7
370
     9
100
AcDbLine
 10
91.82541305954402
 20
544.4712375950169
 30
0.0
 11
91.82541305954402
 21
501.1900535789698
 31
0.0
  0
LINE
  5
187
330
1F
100
AcDbEntity
  8
C-4
  6
Continuous
 62
     7
370
     9
100
AcDbLine
 10
91.82541305954402
 20
504.1906325881547
 30
0.0
 11
191.8247532200169
 21
504.1906325881547
 31
0.0
  0
LINE
  5
188
330
1F
100
AcDbEntity
  8
C-4
  6
Continuous
 62
     7
370
     9
100
AcDbLine
 10
-168.1753210119297
 20
574.1885128536742
 30
0.0
 11
-168.1753210119297
 21
501.1900535789698
 31
0.0
  0
LINE
  5
189
330
1F
100
AcDbEntity
  8
C-4
  6
Continuous
 62
     7
370
     9
100
AcDbLine
 10
191.8247532200169
 20
574.1885128536742
 30
0.0
 11
191.8247532200169
 21
501.1900535789698
 31
0.0
  0
LINE
  5
18A
330
1F
100
AcDbEntity
  8
C-4
  6
Continuous
 62
     7
370
     9
100
AcDbLine
 10
-68.17585713154557
 20
504.1906325881547
 30
0.0
 11
91.82541305954402
 21
504.1906325881547
 31
0.0
  0
LINE
  5
18B
330
1F
100
AcDbEntity
  8
C-2
  6
Continuous
 62
     3
370
     9
100
AcDbLine
 10
-163.1755519557643
 20
598.188938450169
 30
0.0
 11
186.8244892842063
 21
598.188938450169
 31
0.0
  0
LINE
  5
18C
330
1F
100
AcDbEntity
  8
C-2
  6
Continuous
 62
     3
370
     9
100
AcDbLine
 10
182.8246245513091
 20
940.1888790646117
 30
0.0
 11
182.8246245513091
 21
598.188938450169
 31
0.0
  0
TEXT
  5
18D
330
1F
100
AcDbEntity
  8
C-5
  6
Continuous
 62
     2
370
     9
100
AcDbText
 10
-255.6756096917229
 20
422.3288592694258
 30
0.0
 40
30.48
  1
平面詳細図　Ｓ＝１：１０
 41
1.114583333333333
  7
ＭＳ ゴシック
100
AcDbText
  0
TEXT
  5
18E
330
1F
100
AcDbEntity
  8
C-4
  6
Continuous
 62
     2
370
     9
100
AcDbText
 10
-155.7122720254432
 20
1034.82828190984
 30
0.0
 40
30.48
  1
25
 41
1.0625
  7
ＭＳ ゴシック
100
AcDbText
  0
TEXT
  5
18F
330
1F
100
AcDbEntity
  8
C-4
  6
Continuous
 62
     2
370
     9
100
AcDbText
 10
139.1455573004646
 20
1034.82828190984
 30
0.0
 40
30.48
  1
25
 41
1.0625
  7
ＭＳ ゴシック
100
AcDbText
  0
TEXT
  5
190
330
1F
100
AcDbEntity
  8
C-4
  6
Continuous
 62
     2
370
     9
100
AcDbText
 10
-197.6948918523013
 20
1089.827968486064
 30
0.0
 40
30.48
  1
3
 41
0.9999999999999998
  7
ＭＳ ゴシック
100
AcDbText
  0
TEXT
  5
191
330
1F
100
AcDbEntity
  8
C-4
  6
Continuous
 62
     2
370
     9
100
AcDbText
 10
-156.6026842271958
 20
1089.827968486064
 30
0.0
 40
30.48
  1
2
 41
0.9999999999999998
  7
ＭＳ ゴシック
100
AcDbText
  0
TEXT
  5
192
330
1F
100
AcDbEntity
  8
C-4
  6
Continuous
 62
     2
370
     9
100
AcDbText
 10
160.2581127269849
 20
1089.827968486064
 30
0.0
 40
30.48
  1
2
 41
0.9999999999999998
  7
ＭＳ ゴシック
100
AcDbText
  0
TEXT
  5
193
330
1F
100
AcDbEntity
  8
C-4
  6
Continuous
 62
     2
370
     9
100
AcDbText
 10
204.5936378272805
 20
1089.827968486064
 30
0.0
 40
30.48
  1
3
 41
0.9999999999999998
  7
ＭＳ ゴシック
100
AcDbText
  0
TEXT
  5
194
330
1F
100
AcDbEntity
  8
C-4
  6
Continuous
 62
     2
370
     9
100
AcDbText
 10
-20.67532925992396
 20
1144.827902502112
 30
0.0
 40
30.48
  1
360
 41
1.083333333333333
  7
ＭＳ ゴシック
100
AcDbText
  0
TEXT
  5
195
330
1F
100
AcDbEntity
  8
C-4
  6
Continuous
 62
     2
370
     9
100
AcDbText
 10
-20.67532925992396
 20
1089.827968486064
 30
0.0
 40
30.48
  1
350
 41
1.083333333333333
  7
ＭＳ ゴシック
100
AcDbText
  0
TEXT
  5
196
330
1F
100
AcDbEntity
  8
C-4
  6
Continuous
 62
     2
370
     9
100
AcDbText
 10
-20.67483438027864
 20
1034.827787030194
 30
0.0
 40
30.48
  1
300
 41
1.083333333333333
  7
ＭＳ ゴシック
100
AcDbText
  0
TEXT
  5
197
330
1F
100
AcDbEntity
  8
C-4
  6
Continuous
 62
     2
370
     9
100
AcDbText
 10
-253.8147189083614
 20
601.6518587679477
 30
0.0
 40
30.48
  1
25
 50
90.0
 41
1.0625
  7
ＭＳ ゴシック
100
AcDbText
  0
TEXT
  5
198
330
1F
100
AcDbEntity
  8
C-4
  6
Continuous
 62
     2
370
     9
100
AcDbText
 10
-253.8147189083614
 20
896.5098118137669
 30
0.0
 40
30.48
  1
25
 50
90.0
 41
1.0625
  7
ＭＳ ゴシック
100
AcDbText
  0
TEXT
  5
199
330
1F
100
AcDbEntity
  8
C-4
  6
Continuous
 62
     2
370
     9
100
AcDbText
 10
-308.8141580447635
 20
559.6692389410896
 30
0.0
 40
30.48
  1
3
 50
90.0
 41
0.9999999999999998
  7
ＭＳ ゴシック
100
AcDbText
  0
TEXT
  5
19A
330
1F
100
AcDbEntity
  8
C-4
  6
Continuous
 62
     2
370
     9
100
AcDbText
 10
-308.8141580447635
 20
600.7615702861065
 30
0.0
 40
30.48
  1
2
 50
90.0
 41
0.9999999999999998
  7
ＭＳ ゴシック
100
AcDbText
  0
TEXT
  5
19B
330
1F
100
AcDbEntity
  8
C-4
  6
Continuous
 62
     2
370
     9
100
AcDbText
 10
-308.8141580447635
 20
917.6221198004646
 30
0.0
 40
30.48
  1
2
 50
90.0
 41
0.9999999999999998
  7
ＭＳ ゴシック
100
AcDbText
  0
TEXT
  5
19C
330
1F
100
AcDbEntity
  8
C-4
  6
Continuous
 62
     2
370
     9
100
AcDbText
 10
-308.8141580447635
 20
961.9576449007602
 30
0.0
 40
30.48
  1
3
 50
90.0
 41
0.9999999999999998
  7
ＭＳ ゴシック
100
AcDbText
  0
TEXT
  5
19D
330
1F
100
AcDbEntity
  8
C-4
  6
Continuous
 62
     2
370
     9
100
AcDbText
 10
-363.8142157807221
 20
736.6889252533783
 30
0.0
 40
30.48
  1
360
 50
90.0
 41
1.083333333333333
  7
ＭＳ ゴシック
100
AcDbText
  0
TEXT
  5
19E
330
1F
100
AcDbEntity
  8
C-4
  6
Continuous
 62
     2
370
     9
100
AcDbText
 10
-308.8141580447635
 20
736.6889252533783
 30
0.0
 40
30.48
  1
350
 50
90.0
 41
1.083333333333333
  7
ＭＳ ゴシック
100
AcDbText
  0
TEXT
  5
19F
330
1F
100
AcDbEntity
  8
C-4
  6
Continuous
 62
     2
370
     9
100
AcDbText
 10
-253.8142240287161
 20
736.6894201330238
 30
0.0
 40
30.48
  1
300
 50
90.0
 41
1.083333333333333
  7
ＭＳ ゴシック
100
AcDbText
  0
TEXT
  5
1A0
330
1F
100
AcDbEntity
  8
C-4
  6
Continuous
 62
     2
370
     9
100
AcDbText
 10
35.57467074007604
 20
982.4140940403294
 30
0.0
 40
30.48
  1
15
 41
1.0625
  7
ＭＳ ゴシック
100
AcDbText
  0
TEXT
  5
1A1
330
1F
100
AcDbEntity
  8
C-4
  6
Continuous
 62
     2
370
     9
100
AcDbText
 10
-150.6756344357052
 20
514.8304016443203
 30
0.0
 40
30.48
  1
100
 41
1.083333333333333
  7
ＭＳ ゴシック
100
AcDbText
  0
TEXT
  5
1A2
330
1F
100
AcDbEntity
  8
C-4
  6
Continuous
 62
     2
370
     9
100
AcDbText
 10
109.3250996357688
 20
514.8304016443203
 30
0.0
 40
30.48
  1
100
 41
1.083333333333333
  7
ＭＳ ゴシック
100
AcDbText
  0
TEXT
  5
1A3
330
1F
100
AcDbEntity
  8
C-4
  6
Continuous
 62
     2
370
     9
100
AcDbText
 10
-20.67532925992396
 20
514.8306490841427
 30
0.0
 40
30.48
  1
160
 41
1.083333333333333
  7
ＭＳ ゴシック
100
AcDbText
  0
LINE
  5
1A4
330
1F
100
AcDbEntity
  8
C-A
  6
Continuous
 62
     3
370
     9
100
AcDbLine
 10
-59.42538404442089
 20
584.1888066410977
 30
0.0
 11
-60.67538404442089
 21
584.1888066410977
 31
0.0
  0
LINE
  5
1A5
330
1F
100
AcDbEntity
  8
C-A
  6
Continuous
 62
     3
370
     9
100
AcDbLine
 10
-59.42538404442089
 20
584.1888066410977
 30
0.0
 11
-59.42538404442089
 21
555.1888218998872
 31
0.0
  0
LINE
  5
1A6
330
1F
100
AcDbEntity
  8
C-A
  6
Continuous
 62
     3
370
     9
100
AcDbLine
 10
-60.68005323387311
 20
588.1888218998868
 30
0.0
 11
-60.16690015770124
 21
588.1888218998868
 31
0.0
  0
LINE
  5
1A7
330
1F
100
AcDbEntity
  8
C-A
  6
Continuous
 62
     3
370
     9
100
AcDbLine
 10
-76.17532300926328
 20
588.1888218998868
 30
0.0
 11
-75.67535352684231
 21
588.1888218998868
 31
0.0
  0
LINE
  5
1A8
330
1F
100
AcDbEntity
  8
C-A
  6
Continuous
 62
     3
370
     9
100
AcDbLine
 10
-76.92544507957578
 20
584.1888066410977
 30
0.0
 11
-75.67547559715436
 21
584.1888066410977
 31
0.0
  0
LINE
  5
1A9
330
1F
100
AcDbEntity
  8
C-A
  6
Continuous
 62
     3
370
     9
100
AcDbLine
 10
-76.92544507957578
 20
584.1888066410977
 30
0.0
 11
-76.92544507957578
 21
555.1888218998872
 31
0.0
  0
LINE
  5
1AA
330
1F
100
AcDbEntity
  8
C-A
  6
Continuous
 62
     3
370
     9
100
AcDbLine
 10
-59.42538404442089
 20
555.1888218998872
 30
0.0
 11
-76.92544507957578
 21
555.1888218998872
 31
0.0
  0
LINE
  5
1AB
330
1F
100
AcDbEntity
  8
C-A
  6
JWW_DASHED2
 62
     3
370
     9
100
AcDbLine
 10
-61.42541456199766
 20
584.3347111821138
 30
0.0
 11
-61.42541456199766
 21
555.1888218998872
 31
0.0
  0
LINE
  5
1AC
330
1F
100
AcDbEntity
  8
C-A
  6
JWW_DASHED2
 62
     3
370
     9
100
AcDbLine
 10
-74.9254450795776
 20
584.3347111821138
 30
0.0
 11
-74.9254450795776
 21
555.1888218998872
 31
0.0
  0
LINE
  5
1AD
330
1F
100
AcDbEntity
  8
C-A
  6
JWW_CENTER2
 62
     7
370
     9
100
AcDbLine
 10
-73.95138502098249
 20
565.188867676254
 30
0.0
 11
-62.39935255028072
 21
565.188867676254
 31
0.0
  0
LINE
  5
1AE
330
1F
100
AcDbEntity
  8
C-A
  6
JWW_CENTER2
 62
     7
370
     9
100
AcDbLine
 10
-68.1753840444209
 20
597.6569920659038
 30
0.0
 11
-68.1753840444209
 21
550.2566014409033
 31
0.0
  0
ARC
  5
1AF
330
1F
100
AcDbEntity
  8
C-A
  6
Continuous
 62
     3
370
     9
100
AcDbCircle
 10
-60.17532300926419
 20
590.1887913823086
 30
0.0
 40
1.999999642372131
100
AcDbArc
 50
270.2416229248047
 51
330.0007171630859
  0
ARC
  5
1B0
330
1F
100
AcDbEntity
  8
C-A
  6
Continuous
 62
     3
370
     9
100
AcDbCircle
 10
-60.67538404442089
 20
586.1888218998886
 30
0.0
 40
1.999999642372131
100
AcDbArc
 50
90.13328552246095
 51
270.0
  0
ARC
  5
1B1
330
1F
100
AcDbEntity
  8
C-A
  6
Continuous
 62
     3
370
     9
100
AcDbCircle
 10
-76.17532300926328
 20
590.1887913823086
 30
0.0
 40
1.999999642372131
100
AcDbArc
 50
209.99951171875
 51
269.7240295410157
  0
ARC
  5
1B2
330
1F
100
AcDbEntity
  8
C-A
  6
Continuous
 62
     3
370
     9
100
AcDbCircle
 10
-75.67547559715436
 20
586.1888218998886
 30
0.0
 40
1.999999642372131
100
AcDbArc
 50
270.0
 51
90.0
  0
CIRCLE
  5
1B3
330
1F
100
AcDbEntity
  8
C-A
  6
Continuous
 62
     3
370
     9
100
AcDbCircle
 10
-68.1753840444209
 20
565.188867676254
 30
0.0
 40
4.249999523162842
  0
LINE
  5
1B4
330
1F
100
AcDbEntity
  8
C-A
  6
Continuous
 62
     3
370
     9
100
AcDbLine
 10
100.5746159555791
 20
584.1888066410977
 30
0.0
 11
99.32461595557913
 21
584.1888066410977
 31
0.0
  0
LINE
  5
1B5
330
1F
100
AcDbEntity
  8
C-A
  6
Continuous
 62
     3
370
     9
100
AcDbLine
 10
100.5746159555791
 20
584.1888066410977
 30
0.0
 11
100.5746159555791
 21
555.1888218998872
 31
0.0
  0
LINE
  5
1B6
330
1F
100
AcDbEntity
  8
C-A
  6
Continuous
 62
     3
370
     9
100
AcDbLine
 10
99.31994676612692
 20
588.1888218998868
 30
0.0
 11
99.8330998422988
 21
588.1888218998868
 31
0.0
  0
LINE
  5
1B7
330
1F
100
AcDbEntity
  8
C-A
  6
Continuous
 62
     3
370
     9
100
AcDbLine
 10
83.82467699073672
 20
588.1888218998868
 30
0.0
 11
84.32464647315769
 21
588.1888218998868
 31
0.0
  0
LINE
  5
1B8
330
1F
100
AcDbEntity
  8
C-A
  6
Continuous
 62
     3
370
     9
100
AcDbLine
 10
83.07455492042422
 20
584.1888066410977
 30
0.0
 11
84.32452440284564
 21
584.1888066410977
 31
0.0
  0
LINE
  5
1B9
330
1F
100
AcDbEntity
  8
C-A
  6
Continuous
 62
     3
370
     9
100
AcDbLine
 10
83.07455492042422
 20
584.1888066410977
 30
0.0
 11
83.07455492042422
 21
555.1888218998872
 31
0.0
  0
LINE
  5
1BA
330
1F
100
AcDbEntity
  8
C-A
  6
Continuous
 62
     3
370
     9
100
AcDbLine
 10
100.5746159555791
 20
555.1888218998872
 30
0.0
 11
83.07455492042422
 21
555.1888218998872
 31
0.0
  0
LINE
  5
1BB
330
1F
100
AcDbEntity
  8
C-A
  6
JWW_DASHED2
 62
     3
370
     9
100
AcDbLine
 10
98.57458543800237
 20
584.3347111821138
 30
0.0
 11
98.57458543800237
 21
555.1888218998872
 31
0.0
  0
LINE
  5
1BC
330
1F
100
AcDbEntity
  8
C-A
  6
JWW_DASHED2
 62
     3
370
     9
100
AcDbLine
 10
85.0745549204224
 20
584.3347111821138
 30
0.0
 11
85.0745549204224
 21
555.1888218998872
 31
0.0
  0
LINE
  5
1BD
330
1F
100
AcDbEntity
  8
C-A
  6
JWW_CENTER2
 62
     7
370
     9
100
AcDbLine
 10
86.04861497901751
 20
565.188867676254
 30
0.0
 11
97.6006474497193
 21
565.188867676254
 31
0.0
  0
LINE
  5
1BE
330
1F
100
AcDbEntity
  8
C-A
  6
JWW_CENTER2
 62
     7
370
     9
100
AcDbLine
 10
91.82461595557913
 20
597.6569920659038
 30
0.0
 11
91.82461595557913
 21
550.2566014409033
 31
0.0
  0
ARC
  5
1BF
330
1F
100
AcDbEntity
  8
C-A
  6
Continuous
 62
     3
370
     9
100
AcDbCircle
 10
99.82467699073584
 20
590.1887913823086
 30
0.0
 40
1.999999642372131
100
AcDbArc
 50
270.2416229248047
 51
330.0007171630859
  0
ARC
  5
1C0
330
1F
100
AcDbEntity
  8
C-A
  6
Continuous
 62
     3
370
     9
100
AcDbCircle
 10
99.32461595557913
 20
586.1888218998886
 30
0.0
 40
1.999999642372131
100
AcDbArc
 50
90.13328552246095
 51
270.0
  0
ARC
  5
1C1
330
1F
100
AcDbEntity
  8
C-A
  6
Continuous
 62
     3
370
     9
100
AcDbCircle
 10
83.82467699073672
 20
590.1887913823086
 30
0.0
 40
1.999999642372131
100
AcDbArc
 50
209.99951171875
 51
269.7240295410157
  0
ARC
  5
1C2
330
1F
100
AcDbEntity
  8
C-A
  6
Continuous
 62
     3
370
     9
100
AcDbCircle
 10
84.32452440284564
 20
586.1888218998886
 30
0.0
 40
1.999999642372131
100
AcDbArc
 50
270.0
 51
90.0
  0
CIRCLE
  5
1C3
330
1F
100
AcDbEntity
  8
C-A
  6
Continuous
 62
     3
370
     9
100
AcDbCircle
 10
91.82461595557913
 20
565.188867676254
 30
0.0
 40
4.249999523162842
  0
LINE
  5
1C4
330
1F
100
AcDbEntity
  8
C-A
  6
Continuous
 62
     3
370
     9
100
AcDbLine
 10
-59.42538404442089
 20
954.1890112860826
 30
0.0
 11
-60.67538404442089
 21
954.1890112860826
 31
0.0
  0
LINE
  5
1C5
330
1F
100
AcDbEntity
  8
C-A
  6
Continuous
 62
     3
370
     9
100
AcDbLine
 10
-59.42538404442089
 20
954.1890112860826
 30
0.0
 11
-59.42538404442089
 21
983.1889960272931
 31
0.0
  0
LINE
  5
1C6
330
1F
100
AcDbEntity
  8
C-A
  6
Continuous
 62
     3
370
     9
100
AcDbLine
 10
-60.68005323387311
 20
950.1889960272936
 30
0.0
 11
-60.16690015770124
 21
950.1889960272936
 31
0.0
  0
LINE
  5
1C7
330
1F
100
AcDbEntity
  8
C-A
  6
Continuous
 62
     3
370
     9
100
AcDbLine
 10
-76.17532300926328
 20
950.1889960272936
 30
0.0
 11
-75.67535352684231
 21
950.1889960272936
 31
0.0
  0
LINE
  5
1C8
330
1F
100
AcDbEntity
  8
C-A
  6
Continuous
 62
     3
370
     9
100
AcDbLine
 10
-76.92544507957578
 20
954.1890112860826
 30
0.0
 11
-75.67547559715436
 21
954.1890112860826
 31
0.0
  0
LINE
  5
1C9
330
1F
100
AcDbEntity
  8
C-A
  6
Continuous
 62
     3
370
     9
100
AcDbLine
 10
-76.92544507957578
 20
954.1890112860826
 30
0.0
 11
-76.92544507957578
 21
983.1889960272931
 31
0.0
  0
LINE
  5
1CA
330
1F
100
AcDbEntity
  8
C-A
  6
Continuous
 62
     3
370
     9
100
AcDbLine
 10
-59.42538404442089
 20
983.1889960272931
 30
0.0
 11
-76.92544507957578
 21
983.1889960272931
 31
0.0
  0
LINE
  5
1CB
330
1F
100
AcDbEntity
  8
C-A
  6
JWW_DASHED2
 62
     3
370
     9
100
AcDbLine
 10
-61.42541456199766
 20
954.0431067450666
 30
0.0
 11
-61.42541456199766
 21
983.1889960272931
 31
0.0
  0
LINE
  5
1CC
330
1F
100
AcDbEntity
  8
C-A
  6
JWW_DASHED2
 62
     3
370
     9
100
AcDbLine
 10
-74.9254450795776
 20
954.0431067450666
 30
0.0
 11
-74.9254450795776
 21
983.1889960272931
 31
0.0
  0
LINE
  5
1CD
330
1F
100
AcDbEntity
  8
C-A
  6
JWW_CENTER2
 62
     7
370
     9
100
AcDbLine
 10
-73.95138502098249
 20
973.1889502509264
 30
0.0
 11
-62.39935255028072
 21
973.1889502509264
 31
0.0
  0
LINE
  5
1CE
330
1F
100
AcDbEntity
  8
C-A
  6
JWW_CENTER2
 62
     7
370
     9
100
AcDbLine
 10
-68.1753840444209
 20
940.7208258612766
 30
0.0
 11
-68.1753840444209
 21
988.121216486277
 31
0.0
  0
ARC
  5
1CF
330
1F
100
AcDbEntity
  8
C-A
  6
Continuous
 62
     3
370
     9
100
AcDbCircle
 10
-60.17532300926419
 20
948.1890265448717
 30
0.0
 40
1.999999642372131
100
AcDbArc
 50
29.99928283691408
 51
89.75837707519533
  0
ARC
  5
1D0
330
1F
100
AcDbEntity
  8
C-A
  6
Continuous
 62
     3
370
     9
100
AcDbCircle
 10
-60.67538404442089
 20
952.1889960272918
 30
0.0
 40
1.999999642372131
100
AcDbArc
 50
90.0
 51
269.8667144775391
  0
ARC
  5
1D1
330
1F
100
AcDbEntity
  8
C-A
  6
Continuous
 62
     3
370
     9
100
AcDbCircle
 10
-76.17532300926328
 20
948.1890265448717
 30
0.0
 40
1.999999642372131
100
AcDbArc
 50
90.27597045898438
 51
150.00048828125
  0
ARC
  5
1D2
330
1F
100
AcDbEntity
  8
C-A
  6
Continuous
 62
     3
370
     9
100
AcDbCircle
 10
-75.67547559715436
 20
952.1889960272918
 30
0.0
 40
1.999999642372131
100
AcDbArc
 50
270.0
 51
90.0
  0
CIRCLE
  5
1D3
330
1F
100
AcDbEntity
  8
C-A
  6
Continuous
 62
     3
370
     9
100
AcDbCircle
 10
-68.1753840444209
 20
973.1889502509264
 30
0.0
 40
4.249999523162842
  0
LINE
  5
1D4
330
1F
100
AcDbEntity
  8
C-A
  6
Continuous
 62
     3
370
     9
100
AcDbLine
 10
100.5746159555791
 20
954.1890112860826
 30
0.0
 11
99.32461595557913
 21
954.1890112860826
 31
0.0
  0
LINE
  5
1D5
330
1F
100
AcDbEntity
  8
C-A
  6
Continuous
 62
     3
370
     9
100
AcDbLine
 10
100.5746159555791
 20
954.1890112860826
 30
0.0
 11
100.5746159555791
 21
983.1889960272931
 31
0.0
  0
LINE
  5
1D6
330
1F
100
AcDbEntity
  8
C-A
  6
Continuous
 62
     3
370
     9
100
AcDbLine
 10
99.31994676612692
 20
950.1889960272936
 30
0.0
 11
99.8330998422988
 21
950.1889960272936
 31
0.0
  0
LINE
  5
1D7
330
1F
100
AcDbEntity
  8
C-A
  6
Continuous
 62
     3
370
     9
100
AcDbLine
 10
83.82467699073672
 20
950.1889960272936
 30
0.0
 11
84.32464647315769
 21
950.1889960272936
 31
0.0
  0
LINE
  5
1D8
330
1F
100
AcDbEntity
  8
C-A
  6
Continuous
 62
     3
370
     9
100
AcDbLine
 10
83.07455492042422
 20
954.1890112860826
 30
0.0
 11
84.32452440284564
 21
954.1890112860826
 31
0.0
  0
LINE
  5
1D9
330
1F
100
AcDbEntity
  8
C-A
  6
Continuous
 62
     3
370
     9
100
AcDbLine
 10
83.07455492042422
 20
954.1890112860826
 30
0.0
 11
83.07455492042422
 21
983.1889960272931
 31
0.0
  0
LINE
  5
1DA
330
1F
100
AcDbEntity
  8
C-A
  6
Continuous
 62
     3
370
     9
100
AcDbLine
 10
100.5746159555791
 20
983.1889960272931
 30
0.0
 11
83.07455492042422
 21
983.1889960272931
 31
0.0
  0
LINE
  5
1DB
330
1F
100
AcDbEntity
  8
C-A
  6
JWW_DASHED2
 62
     3
370
     9
100
AcDbLine
 10
98.57458543800237
 20
954.0431067450666
 30
0.0
 11
98.57458543800237
 21
983.1889960272931
 31
0.0
  0
LINE
  5
1DC
330
1F
100
AcDbEntity
  8
C-A
  6
JWW_DASHED2
 62
     3
370
     9
100
AcDbLine
 10
85.0745549204224
 20
954.0431067450666
 30
0.0
 11
85.0745549204224
 21
983.1889960272931
 31
0.0
  0
LINE
  5
1DD
330
1F
100
AcDbEntity
  8
C-A
  6
JWW_CENTER2
 62
     7
370
     9
100
AcDbLine
 10
86.04861497901751
 20
973.1889502509264
 30
0.0
 11
97.6006474497193
 21
973.1889502509264
 31
0.0
  0
LINE
  5
1DE
330
1F
100
AcDbEntity
  8
C-A
  6
JWW_CENTER2
 62
     7
370
     9
100
AcDbLine
 10
91.82461595557913
 20
940.7208258612766
 30
0.0
 11
91.82461595557913
 21
988.121216486277
 31
0.0
  0
ARC
  5
1DF
330
1F
100
AcDbEntity
  8
C-A
  6
Continuous
 62
     3
370
     9
100
AcDbCircle
 10
99.82467699073584
 20
948.1890265448717
 30
0.0
 40
1.999999642372131
100
AcDbArc
 50
29.99928283691408
 51
89.75837707519533
  0
ARC
  5
1E0
330
1F
100
AcDbEntity
  8
C-A
  6
Continuous
 62
     3
370
     9
100
AcDbCircle
 10
99.32461595557913
 20
952.1889960272918
 30
0.0
 40
1.999999642372131
100
AcDbArc
 50
90.0
 51
269.8667144775391
  0
ARC
  5
1E1
330
1F
100
AcDbEntity
  8
C-A
  6
Continuous
 62
     3
370
     9
100
AcDbCircle
 10
83.82467699073672
 20
948.1890265448717
 30
0.0
 40
1.999999642372131
100
AcDbArc
 50
90.27597045898438
 51
150.00048828125
  0
ARC
  5
1E2
330
1F
100
AcDbEntity
  8
C-A
  6
Continuous
 62
     3
370
     9
100
AcDbCircle
 10
84.32452440284564
 20
952.1889960272918
 30
0.0
 40
1.999999642372131
100
AcDbArc
 50
270.0
 51
90.0
  0
CIRCLE
  5
1E3
330
1F
100
AcDbEntity
  8
C-A
  6
Continuous
 62
     3
370
     9
100
AcDbCircle
 10
91.82461595557913
 20
973.1889502509264
 30
0.0
 40
4.249999523162842
  0
LINE
  5
1E4
330
1F
100
AcDbEntity
  8
D-1
  6
Continuous
 62
     2
370
     9
100
AcDbLine
 10
-815.1812233949863
 20
-392.7842053839715
 30
0.0
 11
-810.1809521938526
 21
-392.7842053839715
 31
0.0
  0
LINE
  5
1E5
330
1F
100
AcDbEntity
  8
D-1
  6
Continuous
 62
     2
370
     9
100
AcDbLine
 10
-810.1809521938526
 20
-277.7849111029657
 30
0.0
 11
-810.1809521938526
 21
-377.7843865820917
 31
0.0
  0
LINE
  5
1E6
330
1F
100
AcDbEntity
  8
D-4
  6
Continuous
 62
     7
370
     9
100
AcDbLine
 10
-820.1800078192286
 20
-50.61352819891184
 30
0.0
 11
-815.1797368551456
 21
-50.61352819891184
 31
0.0
  0
LINE
  5
1E7
330
1F
100
AcDbEntity
  8
D-4
  6
Continuous
 62
     7
370
     9
100
AcDbLine
 10
-945.180839541074
 20
-159.3658933112165
 30
0.0
 11
-820.1800078192286
 21
-159.3658933112165
 31
0.0
  0
LINE
  5
1E8
330
1F
100
AcDbEntity
  8
D-4
  6
Continuous
 62
     7
370
     9
100
AcDbLine
 10
-820.1800078192286
 20
-264.8293933341058
 30
0.0
 11
-820.1800078192286
 21
-47.61395544500559
 31
0.0
  0
LINE
  5
1E9
330
1F
100
AcDbEntity
  8
D-4
  6
Continuous
 62
     7
370
     9
100
AcDbLine
 10
-810.1799621607029
 20
-264.8293933341058
 30
0.0
 11
-810.1799621607029
 21
-47.61395544500559
 31
0.0
  0
LINE
  5
1EA
330
1F
100
AcDbEntity
  8
D-4
  6
Continuous
 62
     7
370
     9
100
AcDbLine
 10
-795.1811280275547
 20
-264.8293933341058
 30
0.0
 11
-795.1811280275547
 21
63.08266549615652
 31
0.0
  0
LINE
  5
1EB
330
1F
100
AcDbEntity
  8
D-6
  6
Continuous
 62
     6
370
     9
100
AcDbLine
 10
-545.1809539819919
 20
-523.7940701911004
 30
0.0
 11
-449.1700592066013
 21
-427.7841195532831
 31
0.0
  0
LINE
  5
1EC
330
1F
100
AcDbEntity
  8
D-6
  6
Continuous
 62
     6
370
     9
100
AcDbLine
 10
-545.1809539819919
 20
-427.7841195532831
 30
0.0
 11
-380.1799621607029
 21
-427.7841195532831
 31
0.0
  0
LINE
  5
1ED
330
1F
100
AcDbEntity
  8
D-6
  6
Continuous
 62
     6
370
     9
100
AcDbLine
 10
-545.1809539819919
 20
-537.9357442328485
 30
0.0
 11
-435.0293197656833
 21
-427.7841195532831
 31
0.0
  0
LINE
  5
1EE
330
1F
100
AcDbEntity
  8
D-6
  6
Continuous
 62
     6
370
     9
100
AcDbLine
 10
-795.1806368852817
 20
-602.7846822211297
 30
0.0
 11
-795.1806368852817
 21
-777.7842626044305
 31
0.0
  0
LINE
  5
1EF
330
1F
100
AcDbEntity
  8
D-6
  6
Continuous
 62
     6
370
     9
100
AcDbLine
 10
-545.1809539819919
 20
-427.7841195532831
 30
0.0
 11
-545.1809539819919
 21
-602.7846822211297
 31
0.0
  0
LINE
  5
1F0
330
1F
100
AcDbEntity
  8
D-6
  6
Continuous
 62
     6
370
     9
100
AcDbLine
 10
-795.1806368852817
 20
-602.7846822211297
 30
0.0
 11
-545.1809539819919
 21
-602.7846822211297
 31
0.0
  0
LINE
  5
1F1
330
1F
100
AcDbEntity
  8
D-6
  6
JWW_DASHED3
 62
     6
370
     9
100
AcDbLine
 10
-732.8878250147068
 20
-705.2843007514032
 30
0.0
 11
-732.8878250147068
 21
-602.7846822211297
 31
0.0
  0
LINE
  5
1F2
330
1F
100
AcDbEntity
  8
D-6
  6
JWW_DASHED3
 62
     6
370
     9
100
AcDbLine
 10
-687.8873672510349
 20
-602.7846822211297
 30
0.0
 11
-687.8873672510349
 21
-705.2843007514032
 31
0.0
  0
LINE
  5
1F3
330
1F
100
AcDbEntity
  8
D-4
  6
Continuous
 62
     7
370
     9
100
AcDbLine
 10
-945.180839541074
 20
-264.8293933341058
 30
0.0
 11
-945.180839541074
 21
-156.3653287360212
 31
0.0
  0
LINE
  5
1F4
330
1F
100
AcDbEntity
  8
D-4
  6
Continuous
 62
     7
370
     9
100
AcDbLine
 10
-815.1797368551456
 20
-50.61352819891184
 30
0.0
 11
-757.5195589090549
 21
-50.61352819891184
 31
0.0
  0
LINE
  5
1F5
330
1F
100
AcDbEntity
  8
D-4
  6
Continuous
 62
     7
370
     9
100
AcDbLine
 10
-1517.849105837461
 20
-159.3658933112165
 30
0.0
 11
-945.180839541074
 21
-159.3658933112165
 31
0.0
  0
LINE
  5
1F6
330
1F
100
AcDbEntity
  8
D-4
  6
Continuous
 62
     7
370
     9
100
AcDbLine
 10
-1517.849105837461
 20
-50.61352819891184
 30
0.0
 11
-820.1800078192286
 21
-50.61352819891184
 31
0.0
  0
LINE
  5
1F7
330
1F
100
AcDbEntity
  8
D-4
  6
Continuous
 62
     7
370
     9
100
AcDbLine
 10
-1517.849105837461
 20
60.08217721490652
 30
0.0
 11
-795.1811280275547
 21
60.08217721490652
 31
0.0
  0
LINE
  5
1F8
330
1F
100
AcDbEntity
  8
D-1
  6
Continuous
 62
     2
370
     9
100
AcDbLine
 10
-810.1809521938526
 20
-377.7843865820917
 30
0.0
 11
-945.1813354517185
 21
-377.7843865820917
 31
0.0
  0
LINE
  5
1F9
330
1F
100
AcDbEntity
  8
D-1
  6
Continuous
 62
     2
370
     9
100
AcDbLine
 10
-945.1813354517185
 20
-392.7842053839715
 30
0.0
 11
-945.1813354517185
 21
-377.7843865820917
 31
0.0
  0
LINE
  5
1FA
330
1F
100
AcDbEntity
  8
D-1
  6
Continuous
 62
     2
370
     9
100
AcDbLine
 10
-945.1813354517185
 20
-392.7842053839715
 30
0.0
 11
-815.1812233949863
 21
-392.7842053839715
 31
0.0
  0
LINE
  5
1FB
330
1F
100
AcDbEntity
  8
D-5
  6
Continuous
 62
     7
370
     9
100
AcDbLine
 10
-1287.175163271543
 20
-973.7263020941766
 30
0.0
 11
-1287.175163271543
 21
-908.7267598578485
 31
0.0
  0
LINE
  5
1FC
330
1F
100
AcDbEntity
  8
D-5
  6
Continuous
 62
     7
370
     9
100
AcDbLine
 10
-1287.175163271543
 20
-908.7267598578485
 30
0.0
 11
-712.1747531915867
 21
-908.7267598578485
 31
0.0
  0
LINE
  5
1FD
330
1F
100
AcDbEntity
  8
D-5
  6
Continuous
 62
     7
370
     9
100
AcDbLine
 10
-712.1747531915867
 20
-908.7267598578485
 30
0.0
 11
-712.1747531915867
 21
-973.7263020941766
 31
0.0
  0
LINE
  5
1FE
330
1F
100
AcDbEntity
  8
D-5
  6
Continuous
 62
     7
370
     9
100
AcDbLine
 10
-712.1747531915867
 20
-973.7263020941766
 30
0.0
 11
-1287.175163271543
 21
-973.7263020941766
 31
0.0
  0
LINE
  5
1FF
330
1F
100
AcDbEntity
  8
D-6
  6
Continuous
 62
     6
370
     9
100
AcDbLine
 10
-795.1806368852817
 20
-773.7927541205438
 30
0.0
 11
-624.1711273218357
 21
-602.7846822211297
 31
0.0
  0
LINE
  5
200
330
1F
100
AcDbEntity
  8
D-6
  6
Continuous
 62
     6
370
     9
100
AcDbLine
 10
-785.0309577013218
 20
-777.7842626044305
 30
0.0
 11
-610.0303878809177
 21
-602.7846822211297
 31
0.0
  0
LINE
  5
201
330
1F
100
AcDbEntity
  8
D-6
  6
Continuous
 62
     6
370
     9
100
AcDbLine
 10
-545.1809539819919
 20
-552.0764264533075
 30
0.0
 11
-420.8886566187107
 21
-427.7841195532831
 31
0.0
  0
LINE
  5
202
330
1F
100
AcDbEntity
  8
D-6
  6
Continuous
 62
     6
370
     9
100
AcDbLine
 10
-770.891026499387
 20
-777.7842626044305
 30
0.0
 11
-595.8902587915622
 21
-602.7846822211297
 31
0.0
  0
LINE
  5
203
330
1F
100
AcDbEntity
  8
D-0
  6
Continuous
 62
     7
370
     9
100
AcDbLine
 10
-644.8872413660251
 20
-526.1208066412958
 30
0.0
 11
-644.8872413660251
 21
-524.6205243536981
 31
0.0
  0
LINE
  5
204
330
1F
100
AcDbEntity
  8
D-0
  6
Continuous
 62
     7
370
     9
100
AcDbLine
 10
-644.8872413660251
 20
-524.6205243536981
 30
0.0
 11
-643.3872070337497
 21
-524.6205243536981
 31
0.0
  0
LINE
  5
205
330
1F
100
AcDbEntity
  8
D-0
  6
Continuous
 62
     7
370
     9
100
AcDbLine
 10
-643.3872070337497
 20
-524.6205243536981
 30
0.0
 11
-643.3872070337497
 21
-526.1208066412958
 31
0.0
  0
LINE
  5
206
330
1F
100
AcDbEntity
  8
D-0
  6
Continuous
 62
     7
370
     9
100
AcDbLine
 10
-643.3872070337497
 20
-526.1208066412958
 30
0.0
 11
-644.8872413660251
 21
-526.1208066412958
 31
0.0
  0
LINE
  5
207
330
1F
100
AcDbEntity
  8
D-0
  6
Continuous
 62
     7
370
     9
100
AcDbLine
 10
-604.9591484094822
 20
-555.8974751898797
 30
0.0
 11
-604.9591484094822
 21
-554.3971929022821
 31
0.0
  0
LINE
  5
208
330
1F
100
AcDbEntity
  8
D-0
  6
Continuous
 62
     7
370
     9
100
AcDbLine
 10
-604.9591484094822
 20
-554.3971929022821
 30
0.0
 11
-603.4591140772068
 21
-554.3971929022821
 31
0.0
  0
LINE
  5
209
330
1F
100
AcDbEntity
  8
D-0
  6
Continuous
 62
     7
370
     9
100
AcDbLine
 10
-603.4591140772068
 20
-554.3971929022821
 30
0.0
 11
-603.4591140772068
 21
-555.8974751898797
 31
0.0
  0
LINE
  5
20A
330
1F
100
AcDbEntity
  8
D-0
  6
Continuous
 62
     7
370
     9
100
AcDbLine
 10
-603.4591140772068
 20
-555.8974751898797
 30
0.0
 11
-604.9591484094822
 21
-555.8974751898797
 31
0.0
  0
LINE
  5
20B
330
1F
100
AcDbEntity
  8
D-0
  6
Continuous
 62
     7
370
     9
100
AcDbLine
 10
-639.4732513452732
 20
-576.1998090216669
 30
0.0
 11
-639.4732513452732
 21
-574.6995267340692
 31
0.0
  0
LINE
  5
20C
330
1F
100
AcDbEntity
  8
D-0
  6
Continuous
 62
     7
370
     9
100
AcDbLine
 10
-639.4732513452732
 20
-574.6995267340692
 30
0.0
 11
-637.9732170129978
 21
-574.6995267340692
 31
0.0
  0
LINE
  5
20D
330
1F
100
AcDbEntity
  8
D-0
  6
Continuous
 62
     7
370
     9
100
AcDbLine
 10
-637.9732170129978
 20
-574.6995267340692
 30
0.0
 11
-637.9732170129978
 21
-576.1998090216669
 31
0.0
  0
LINE
  5
20E
330
1F
100
AcDbEntity
  8
D-0
  6
Continuous
 62
     7
370
     9
100
AcDbLine
 10
-637.9732170129978
 20
-576.1998090216669
 30
0.0
 11
-639.4732513452732
 21
-576.1998090216669
 31
0.0
  0
LINE
  5
20F
330
1F
100
AcDbEntity
  8
D-0
  6
Continuous
 62
     7
370
     9
100
AcDbLine
 10
-574.5055236841404
 20
-578.2302388617547
 30
0.0
 11
-574.5055236841404
 21
-576.7299565741571
 31
0.0
  0
LINE
  5
210
330
1F
100
AcDbEntity
  8
D-0
  6
Continuous
 62
     7
370
     9
100
AcDbLine
 10
-574.5055236841404
 20
-576.7299565741571
 30
0.0
 11
-573.005489351865
 21
-576.7299565741571
 31
0.0
  0
LINE
  5
211
330
1F
100
AcDbEntity
  8
D-0
  6
Continuous
 62
     7
370
     9
100
AcDbLine
 10
-573.005489351865
 20
-576.7299565741571
 30
0.0
 11
-573.005489351865
 21
-578.2302388617547
 31
0.0
  0
LINE
  5
212
330
1F
100
AcDbEntity
  8
D-0
  6
Continuous
 62
     7
370
     9
100
AcDbLine
 10
-573.005489351865
 20
-578.2302388617547
 30
0.0
 11
-574.5055236841404
 21
-578.2302388617547
 31
0.0
  0
LINE
  5
213
330
1F
100
AcDbEntity
  8
D-0
  6
Continuous
 62
     7
370
     9
100
AcDbLine
 10
-768.0550851846897
 20
-298.7338885733636
 30
0.0
 11
-768.0550851846897
 21
-297.2335466811212
 31
0.0
  0
LINE
  5
214
330
1F
100
AcDbEntity
  8
D-0
  6
Continuous
 62
     7
370
     9
100
AcDbLine
 10
-768.0550851846897
 20
-297.2335466811212
 30
0.0
 11
-766.5550556207859
 21
-297.2335466811212
 31
0.0
  0
LINE
  5
215
330
1F
100
AcDbEntity
  8
D-0
  6
Continuous
 62
     7
370
     9
100
AcDbLine
 10
-766.5550556207859
 20
-297.2335466811212
 30
0.0
 11
-766.5550556207859
 21
-298.7338885733636
 31
0.0
  0
LINE
  5
216
330
1F
100
AcDbEntity
  8
D-0
  6
Continuous
 62
     7
370
     9
100
AcDbLine
 10
-766.5550556207859
 20
-298.7338885733636
 30
0.0
 11
-768.0550851846897
 21
-298.7338885733636
 31
0.0
  0
LINE
  5
217
330
1F
100
AcDbEntity
  8
D-0
  6
Continuous
 62
     7
370
     9
100
AcDbLine
 10
-713.9153327966892
 20
-298.0570778319391
 30
0.0
 11
-713.9153327966892
 21
-296.5567371317895
 31
0.0
  0
LINE
  5
218
330
1F
100
AcDbEntity
  8
D-0
  6
Continuous
 62
     7
370
     9
100
AcDbLine
 10
-713.9153327966892
 20
-296.5567371317895
 30
0.0
 11
-712.415308001157
 21
-296.5567371317895
 31
0.0
  0
LINE
  5
219
330
1F
100
AcDbEntity
  8
D-0
  6
Continuous
 62
     7
370
     9
100
AcDbLine
 10
-712.415308001157
 20
-296.5567371317895
 30
0.0
 11
-712.415308001157
 21
-298.0570778319391
 31
0.0
  0
LINE
  5
21A
330
1F
100
AcDbEntity
  8
D-0
  6
Continuous
 62
     7
370
     9
100
AcDbLine
 10
-712.415308001157
 20
-298.0570778319391
 30
0.0
 11
-713.9153327966892
 21
-298.0570778319391
 31
0.0
  0
LINE
  5
21B
330
1F
100
AcDbEntity
  8
D-0
  6
Continuous
 62
     7
370
     9
100
AcDbLine
 10
-671.2802448297703
 20
-321.7434606024774
 30
0.0
 11
-671.2802448297703
 21
-320.2431163260492
 31
0.0
  0
LINE
  5
21C
330
1F
100
AcDbEntity
  8
D-0
  6
Continuous
 62
     7
370
     9
100
AcDbLine
 10
-671.2802448297703
 20
-320.2431163260492
 30
0.0
 11
-669.780220034238
 21
-320.2431163260492
 31
0.0
  0
LINE
  5
21D
330
1F
100
AcDbEntity
  8
D-0
  6
Continuous
 62
     7
370
     9
100
AcDbLine
 10
-669.780220034238
 20
-320.2431163260492
 30
0.0
 11
-669.780220034238
 21
-321.7434606024774
 31
0.0
  0
LINE
  5
21E
330
1F
100
AcDbEntity
  8
D-0
  6
Continuous
 62
     7
370
     9
100
AcDbLine
 10
-669.780220034238
 20
-321.7434606024774
 30
0.0
 11
-671.2802448297703
 21
-321.7434606024774
 31
0.0
  0
LINE
  5
21F
330
1F
100
AcDbEntity
  8
D-0
  6
Continuous
 62
     7
370
     9
100
AcDbLine
 10
-647.59411239874
 20
-300.764256424621
 30
0.0
 11
-647.59411239874
 21
-299.2639789053949
 31
0.0
  0
LINE
  5
220
330
1F
100
AcDbEntity
  8
D-0
  6
Continuous
 62
     7
370
     9
100
AcDbLine
 10
-647.59411239874
 20
-299.2639789053949
 30
0.0
 11
-646.0940780664646
 21
-299.2639789053949
 31
0.0
  0
LINE
  5
221
330
1F
100
AcDbEntity
  8
D-0
  6
Continuous
 62
     7
370
     9
100
AcDbLine
 10
-646.0940780664646
 20
-299.2639789053949
 30
0.0
 11
-646.0940780664646
 21
-300.764256424621
 31
0.0
  0
LINE
  5
222
330
1F
100
AcDbEntity
  8
D-0
  6
Continuous
 62
     7
370
     9
100
AcDbLine
 10
-646.0940780664646
 20
-300.764256424621
 30
0.0
 11
-647.59411239874
 21
-300.764256424621
 31
0.0
  0
LINE
  5
223
330
1F
100
AcDbEntity
  8
D-0
  6
Continuous
 62
     7
370
     9
100
AcDbLine
 10
-646.9174804712497
 20
-369.7924718329461
 30
0.0
 11
-646.9174804712497
 21
-368.2921895453485
 31
0.0
  0
LINE
  5
224
330
1F
100
AcDbEntity
  8
D-0
  6
Continuous
 62
     7
370
     9
100
AcDbLine
 10
-646.9174804712497
 20
-368.2921895453485
 30
0.0
 11
-645.4173889185154
 21
-368.2921895453485
 31
0.0
  0
LINE
  5
225
330
1F
100
AcDbEntity
  8
D-0
  6
Continuous
 62
     7
370
     9
100
AcDbLine
 10
-645.4173889185154
 20
-368.2921895453485
 30
0.0
 11
-645.4173889185154
 21
-369.7924718329461
 31
0.0
  0
LINE
  5
226
330
1F
100
AcDbEntity
  8
D-0
  6
Continuous
 62
     7
370
     9
100
AcDbLine
 10
-645.4173889185154
 20
-369.7924718329461
 30
0.0
 11
-646.9174804712497
 21
-369.7924718329461
 31
0.0
  0
LINE
  5
227
330
1F
100
AcDbEntity
  8
D-0
  6
Continuous
 62
     7
370
     9
100
AcDbLine
 10
-518.3355941797458
 20
-298.7338885733636
 30
0.0
 11
-518.3355941797458
 21
-297.2335466811212
 31
0.0
  0
LINE
  5
228
330
1F
100
AcDbEntity
  8
D-0
  6
Continuous
 62
     7
370
     9
100
AcDbLine
 10
-518.3355941797458
 20
-297.2335466811212
 30
0.0
 11
-516.8356170679294
 21
-297.2335466811212
 31
0.0
  0
LINE
  5
229
330
1F
100
AcDbEntity
  8
D-0
  6
Continuous
 62
     7
370
     9
100
AcDbLine
 10
-516.8356170679294
 20
-297.2335466811212
 30
0.0
 11
-516.8356170679294
 21
-298.7338885733636
 31
0.0
  0
LINE
  5
22A
330
1F
100
AcDbEntity
  8
D-0
  6
Continuous
 62
     7
370
     9
100
AcDbLine
 10
-516.8356170679294
 20
-298.7338885733636
 30
0.0
 11
-518.3355941797458
 21
-298.7338885733636
 31
0.0
  0
LINE
  5
22B
330
1F
100
AcDbEntity
  8
D-0
  6
Continuous
 62
     7
370
     9
100
AcDbLine
 10
-467.5796356226169
 20
-301.4410671660455
 30
0.0
 11
-467.5796356226169
 21
-299.9408492514642
 31
0.0
  0
LINE
  5
22C
330
1F
100
AcDbEntity
  8
D-0
  6
Continuous
 62
     7
370
     9
100
AcDbLine
 10
-467.5796356226169
 20
-299.9408492514642
 30
0.0
 11
-466.0796203638279
 21
-299.9408492514642
 31
0.0
  0
LINE
  5
22D
330
1F
100
AcDbEntity
  8
D-0
  6
Continuous
 62
     7
370
     9
100
AcDbLine
 10
-466.0796203638279
 20
-299.9408492514642
 30
0.0
 11
-466.0796203638279
 21
-301.4410671660455
 31
0.0
  0
LINE
  5
22E
330
1F
100
AcDbEntity
  8
D-0
  6
Continuous
 62
     7
370
     9
100
AcDbLine
 10
-466.0796203638279
 20
-301.4410671660455
 30
0.0
 11
-467.5796356226169
 21
-301.4410671660455
 31
0.0
  0
LINE
  5
22F
330
1F
100
AcDbEntity
  8
D-0
  6
Continuous
 62
     7
370
     9
100
AcDbLine
 10
-402.6119842554294
 20
-299.4106373259576
 30
0.0
 11
-402.6119842554294
 21
-297.9103574225458
 31
0.0
  0
LINE
  5
230
330
1F
100
AcDbEntity
  8
D-0
  6
Continuous
 62
     7
370
     9
100
AcDbLine
 10
-402.6119842554294
 20
-297.9103574225458
 30
0.0
 11
-401.1118927026951
 21
-297.9103574225458
 31
0.0
  0
LINE
  5
231
330
1F
100
AcDbEntity
  8
D-0
  6
Continuous
 62
     7
370
     9
100
AcDbLine
 10
-401.1118927026951
 20
-297.9103574225458
 30
0.0
 11
-401.1118927026951
 21
-299.4106373259576
 31
0.0
  0
LINE
  5
232
330
1F
100
AcDbEntity
  8
D-0
  6
Continuous
 62
     7
370
     9
100
AcDbLine
 10
-401.1118927026951
 20
-299.4106373259576
 30
0.0
 11
-402.6119842554294
 21
-299.4106373259576
 31
0.0
  0
LINE
  5
233
330
1F
100
AcDbEntity
  8
D-0
  6
Continuous
 62
     7
370
     9
100
AcDbLine
 10
-426.9748535181247
 20
-331.8945607611688
 30
0.0
 11
-426.9748535181247
 21
-330.3943452307733
 31
0.0
  0
LINE
  5
234
330
1F
100
AcDbEntity
  8
D-0
  6
Continuous
 62
     7
370
     9
100
AcDbLine
 10
-426.9748535181247
 20
-330.3943452307733
 30
0.0
 11
-425.4748382593357
 21
-330.3943452307733
 31
0.0
  0
LINE
  5
235
330
1F
100
AcDbEntity
  8
D-0
  6
Continuous
 62
     7
370
     9
100
AcDbLine
 10
-425.4748382593357
 20
-330.3943452307733
 30
0.0
 11
-425.4748382593357
 21
-331.8945607611688
 31
0.0
  0
LINE
  5
236
330
1F
100
AcDbEntity
  8
D-0
  6
Continuous
 62
     7
370
     9
100
AcDbLine
 10
-425.4748382593357
 20
-331.8945607611688
 30
0.0
 11
-426.9748535181247
 21
-331.8945607611688
 31
0.0
  0
LINE
  5
237
330
1F
100
AcDbEntity
  8
D-0
  6
Continuous
 62
     7
370
     9
100
AcDbLine
 10
-466.9028320337497
 20
-355.5804452368768
 30
0.0
 11
-466.9028320337497
 21
-354.0801677176507
 31
0.0
  0
LINE
  5
238
330
1F
100
AcDbEntity
  8
D-0
  6
Continuous
 62
     7
370
     9
100
AcDbLine
 10
-466.9028320337497
 20
-354.0801677176507
 30
0.0
 11
-465.4028167749607
 21
-354.0801677176507
 31
0.0
  0
LINE
  5
239
330
1F
100
AcDbEntity
  8
D-0
  6
Continuous
 62
     7
370
     9
100
AcDbLine
 10
-465.4028167749607
 20
-354.0801677176507
 30
0.0
 11
-465.4028167749607
 21
-355.5804452368768
 31
0.0
  0
LINE
  5
23A
330
1F
100
AcDbEntity
  8
D-0
  6
Continuous
 62
     7
370
     9
100
AcDbLine
 10
-465.4028167749607
 20
-355.5804452368768
 30
0.0
 11
-466.9028320337497
 21
-355.5804452368768
 31
0.0
  0
LINE
  5
23B
330
1F
100
AcDbEntity
  8
D-0
  6
Continuous
 62
     7
370
     9
100
AcDbLine
 10
-494.6494522119724
 20
-369.7924718329461
 30
0.0
 11
-494.6494522119724
 21
-368.2921895453485
 31
0.0
  0
LINE
  5
23C
330
1F
100
AcDbEntity
  8
D-0
  6
Continuous
 62
     7
370
     9
100
AcDbLine
 10
-494.6494522119724
 20
-368.2921895453485
 30
0.0
 11
-493.149475100156
 21
-368.2921895453485
 31
0.0
  0
LINE
  5
23D
330
1F
100
AcDbEntity
  8
D-0
  6
Continuous
 62
     7
370
     9
100
AcDbLine
 10
-493.149475100156
 20
-368.2921895453485
 30
0.0
 11
-493.149475100156
 21
-369.7924718329461
 31
0.0
  0
LINE
  5
23E
330
1F
100
AcDbEntity
  8
D-0
  6
Continuous
 62
     7
370
     9
100
AcDbLine
 10
-493.149475100156
 20
-369.7924718329461
 30
0.0
 11
-494.6494522119724
 21
-369.7924718329461
 31
0.0
  0
LINE
  5
23F
330
1F
100
AcDbEntity
  8
D-0
  6
Continuous
 62
     7
370
     9
100
AcDbLine
 10
-519.6890869165622
 20
-340.6921061942132
 30
0.0
 11
-519.6890869165622
 21
-339.1918239066156
 31
0.0
  0
LINE
  5
240
330
1F
100
AcDbEntity
  8
D-0
  6
Continuous
 62
     7
370
     9
100
AcDbLine
 10
-519.6890869165622
 20
-339.1918239066156
 30
0.0
 11
-518.1890525842869
 21
-339.1918239066156
 31
0.0
  0
LINE
  5
241
330
1F
100
AcDbEntity
  8
D-0
  6
Continuous
 62
     7
370
     9
100
AcDbLine
 10
-518.1890525842869
 20
-339.1918239066156
 30
0.0
 11
-518.1890525842869
 21
-340.6921061942132
 31
0.0
  0
LINE
  5
242
330
1F
100
AcDbEntity
  8
D-0
  6
Continuous
 62
     7
370
     9
100
AcDbLine
 10
-518.1890525842869
 20
-340.6921061942132
 30
0.0
 11
-519.6890869165622
 21
-340.6921061942132
 31
0.0
  0
LINE
  5
243
330
1F
100
AcDbEntity
  8
D-0
  6
Continuous
 62
     7
370
     9
100
AcDbLine
 10
-499.3868103052341
 20
-404.9831399390252
 30
0.0
 11
-499.3868103052341
 21
-403.4828576514276
 31
0.0
  0
LINE
  5
244
330
1F
100
AcDbEntity
  8
D-0
  6
Continuous
 62
     7
370
     9
100
AcDbLine
 10
-499.3868103052341
 20
-403.4828576514276
 30
0.0
 11
-497.8867187524997
 21
-403.4828576514276
 31
0.0
  0
LINE
  5
245
330
1F
100
AcDbEntity
  8
D-0
  6
Continuous
 62
     7
370
     9
100
AcDbLine
 10
-497.8867187524997
 20
-403.4828576514276
 30
0.0
 11
-497.8867187524997
 21
-404.9831399390252
 31
0.0
  0
LINE
  5
246
330
1F
100
AcDbEntity
  8
D-0
  6
Continuous
 62
     7
370
     9
100
AcDbLine
 10
-497.8867187524997
 20
-404.9831399390252
 30
0.0
 11
-499.3868103052341
 21
-404.9831399390252
 31
0.0
  0
LINE
  5
247
330
1F
100
AcDbEntity
  8
D-0
  6
Continuous
 62
     7
370
     9
100
AcDbLine
 10
-441.8631973291599
 20
-403.6295232245477
 30
0.0
 11
-441.8631973291599
 21
-402.1292409369501
 31
0.0
  0
LINE
  5
248
330
1F
100
AcDbEntity
  8
D-0
  6
Continuous
 62
     7
370
     9
100
AcDbLine
 10
-441.8631973291599
 20
-402.1292409369501
 30
0.0
 11
-440.3632202173435
 21
-402.1292409369501
 31
0.0
  0
LINE
  5
249
330
1F
100
AcDbEntity
  8
D-0
  6
Continuous
 62
     7
370
     9
100
AcDbLine
 10
-440.3632202173435
 20
-402.1292409369501
 30
0.0
 11
-440.3632202173435
 21
-403.6295232245477
 31
0.0
  0
LINE
  5
24A
330
1F
100
AcDbEntity
  8
D-0
  6
Continuous
 62
     7
370
     9
100
AcDbLine
 10
-440.3632202173435
 20
-403.6295232245477
 30
0.0
 11
-441.8631973291599
 21
-403.6295232245477
 31
0.0
  0
LINE
  5
24B
330
1F
100
AcDbEntity
  8
D-0
  6
Continuous
 62
     7
370
     9
100
AcDbLine
 10
-392.4607696558201
 20
-402.9527100989374
 30
0.0
 11
-392.4607696558201
 21
-401.4524278113397
 31
0.0
  0
LINE
  5
24C
330
1F
100
AcDbEntity
  8
D-0
  6
Continuous
 62
     7
370
     9
100
AcDbLine
 10
-392.4607696558201
 20
-401.4524278113397
 30
0.0
 11
-390.9607162500583
 21
-401.4524278113397
 31
0.0
  0
LINE
  5
24D
330
1F
100
AcDbEntity
  8
D-0
  6
Continuous
 62
     7
370
     9
100
AcDbLine
 10
-390.9607162500583
 20
-401.4524278113397
 30
0.0
 11
-390.9607162500583
 21
-402.9527100989374
 31
0.0
  0
LINE
  5
24E
330
1F
100
AcDbEntity
  8
D-0
  6
Continuous
 62
     7
370
     9
100
AcDbLine
 10
-390.9607162500583
 20
-402.9527100989374
 30
0.0
 11
-392.4607696558201
 21
-402.9527100989374
 31
0.0
  0
LINE
  5
24F
330
1F
100
AcDbEntity
  8
D-0
  6
Continuous
 62
     7
370
     9
100
AcDbLine
 10
-404.6422424341404
 20
-363.0248650977167
 30
0.0
 11
-404.6422424341404
 21
-361.524582810119
 31
0.0
  0
LINE
  5
250
330
1F
100
AcDbEntity
  8
D-0
  6
Continuous
 62
     7
370
     9
100
AcDbLine
 10
-404.6422424341404
 20
-361.524582810119
 30
0.0
 11
-403.1421890283787
 21
-361.524582810119
 31
0.0
  0
LINE
  5
251
330
1F
100
AcDbEntity
  8
D-0
  6
Continuous
 62
     7
370
     9
100
AcDbLine
 10
-403.1421890283787
 20
-361.524582810119
 30
0.0
 11
-403.1421890283787
 21
-363.0248650977167
 31
0.0
  0
LINE
  5
252
330
1F
100
AcDbEntity
  8
D-0
  6
Continuous
 62
     7
370
     9
100
AcDbLine
 10
-403.1421890283787
 20
-363.0248650977167
 30
0.0
 11
-404.6422424341404
 21
-363.0248650977167
 31
0.0
  0
LINE
  5
253
330
1F
100
AcDbEntity
  8
D-0
  6
Continuous
 62
     7
370
     9
100
AcDbLine
 10
-926.202281954404
 20
-534.3262586066278
 30
0.0
 11
-926.202281954404
 21
-532.8259763190301
 31
0.0
  0
LINE
  5
254
330
1F
100
AcDbEntity
  8
D-0
  6
Continuous
 62
     7
370
     9
100
AcDbLine
 10
-926.202281954404
 20
-532.8259763190301
 30
0.0
 11
-924.7022476221287
 21
-532.8259763190301
 31
0.0
  0
LINE
  5
255
330
1F
100
AcDbEntity
  8
D-0
  6
Continuous
 62
     7
370
     9
100
AcDbLine
 10
-924.7022476221287
 20
-532.8259763190301
 30
0.0
 11
-924.7022476221287
 21
-534.3262586066278
 31
0.0
  0
LINE
  5
256
330
1F
100
AcDbEntity
  8
D-0
  6
Continuous
 62
     7
370
     9
100
AcDbLine
 10
-924.7022476221287
 20
-534.3262586066278
 30
0.0
 11
-926.202281954404
 21
-534.3262586066278
 31
0.0
  0
LINE
  5
257
330
1F
100
AcDbEntity
  8
D-0
  6
Continuous
 62
     7
370
     9
100
AcDbLine
 10
-821.5180211688244
 20
-534.3262586066278
 30
0.0
 11
-821.5180211688244
 21
-532.8259763190301
 31
0.0
  0
LINE
  5
258
330
1F
100
AcDbEntity
  8
D-0
  6
Continuous
 62
     7
370
     9
100
AcDbLine
 10
-821.5180211688244
 20
-532.8259763190301
 30
0.0
 11
-820.0179895373844
 21
-532.8259763190301
 31
0.0
  0
LINE
  5
259
330
1F
100
AcDbEntity
  8
D-0
  6
Continuous
 62
     7
370
     9
100
AcDbLine
 10
-820.0179895373844
 20
-532.8259763190301
 30
0.0
 11
-820.0179895373844
 21
-534.3262586066278
 31
0.0
  0
LINE
  5
25A
330
1F
100
AcDbEntity
  8
D-0
  6
Continuous
 62
     7
370
     9
100
AcDbLine
 10
-820.0179895373844
 20
-534.3262586066278
 30
0.0
 11
-821.5180211688244
 21
-534.3262586066278
 31
0.0
  0
LINE
  5
25B
330
1F
100
AcDbEntity
  8
D-0
  6
Continuous
 62
     7
370
     9
100
AcDbLine
 10
-835.602836849805
 20
-622.6420888373407
 30
0.0
 11
-835.602836849805
 21
-621.141806549743
 31
0.0
  0
LINE
  5
25C
330
1F
100
AcDbEntity
  8
D-0
  6
Continuous
 62
     7
370
     9
100
AcDbLine
 10
-835.602836849805
 20
-621.141806549743
 30
0.0
 11
-834.1028049017154
 21
-621.141806549743
 31
0.0
  0
LINE
  5
25D
330
1F
100
AcDbEntity
  8
D-0
  6
Continuous
 62
     7
370
     9
100
AcDbLine
 10
-834.1028049017154
 20
-621.141806549743
 30
0.0
 11
-834.1028049017154
 21
-622.6420888373407
 31
0.0
  0
LINE
  5
25E
330
1F
100
AcDbEntity
  8
D-0
  6
Continuous
 62
     7
370
     9
100
AcDbLine
 10
-834.1028049017154
 20
-622.6420888373407
 30
0.0
 11
-835.602836849805
 21
-622.6420888373407
 31
0.0
  0
LINE
  5
25F
330
1F
100
AcDbEntity
  8
D-0
  6
Continuous
 62
     7
370
     9
100
AcDbLine
 10
-823.421364369508
 20
-587.2398480841669
 30
0.0
 11
-823.421364369508
 21
-585.7395657965692
 31
0.0
  0
LINE
  5
260
330
1F
100
AcDbEntity
  8
D-0
  6
Continuous
 62
     7
370
     9
100
AcDbLine
 10
-823.421364369508
 20
-585.7395657965692
 30
0.0
 11
-821.9213327194416
 21
-585.7395657965692
 31
0.0
  0
LINE
  5
261
330
1F
100
AcDbEntity
  8
D-0
  6
Continuous
 62
     7
370
     9
100
AcDbLine
 10
-821.9213327194416
 20
-585.7395657965692
 30
0.0
 11
-821.9213327194416
 21
-587.2398480841669
 31
0.0
  0
LINE
  5
262
330
1F
100
AcDbEntity
  8
D-0
  6
Continuous
 62
     7
370
     9
100
AcDbLine
 10
-821.9213327194416
 20
-587.2398480841669
 30
0.0
 11
-823.421364369508
 21
-587.2398480841669
 31
0.0
  0
LINE
  5
263
330
1F
100
AcDbEntity
  8
D-0
  6
Continuous
 62
     7
370
     9
100
AcDbLine
 10
-923.9182891870701
 20
-624.9261769721063
 30
0.0
 11
-923.9182891870701
 21
-623.4258946845086
 31
0.0
  0
LINE
  5
264
330
1F
100
AcDbEntity
  8
D-0
  6
Continuous
 62
     7
370
     9
100
AcDbLine
 10
-923.9182891870701
 20
-623.4258946845086
 30
0.0
 11
-922.4182548547947
 21
-623.4258946845086
 31
0.0
  0
LINE
  5
265
330
1F
100
AcDbEntity
  8
D-0
  6
Continuous
 62
     7
370
     9
100
AcDbLine
 10
-922.4182548547947
 20
-623.4258946845086
 30
0.0
 11
-922.4182548547947
 21
-624.9261769721063
 31
0.0
  0
LINE
  5
266
330
1F
100
AcDbEntity
  8
D-0
  6
Continuous
 62
     7
370
     9
100
AcDbLine
 10
-922.4182548547947
 20
-624.9261769721063
 30
0.0
 11
-923.9182891870701
 21
-624.9261769721063
 31
0.0
  0
LINE
  5
267
330
1F
100
AcDbEntity
  8
D-0
  6
Continuous
 62
     7
370
     9
100
AcDbLine
 10
-879.7605028177463
 20
-627.9713353583368
 30
0.0
 11
-879.7605028177463
 21
-626.4710530707391
 31
0.0
  0
LINE
  5
268
330
1F
100
AcDbEntity
  8
D-0
  6
Continuous
 62
     7
370
     9
100
AcDbLine
 10
-879.7605028177463
 20
-626.4710530707391
 30
0.0
 11
-878.2604732538425
 21
-626.4710530707391
 31
0.0
  0
LINE
  5
269
330
1F
100
AcDbEntity
  8
D-0
  6
Continuous
 62
     7
370
     9
100
AcDbLine
 10
-878.2604732538425
 20
-626.4710530707391
 30
0.0
 11
-878.2604732538425
 21
-627.9713353583368
 31
0.0
  0
LINE
  5
26A
330
1F
100
AcDbEntity
  8
D-0
  6
Continuous
 62
     7
370
     9
100
AcDbLine
 10
-878.2604732538425
 20
-627.9713353583368
 30
0.0
 11
-879.7605028177463
 21
-627.9713353583368
 31
0.0
  0
LINE
  5
26B
330
1F
100
AcDbEntity
  8
D-0
  6
Continuous
 62
     7
370
     9
100
AcDbLine
 10
-876.334461214658
 20
-590.284987396911
 30
0.0
 11
-876.334461214658
 21
-588.7847241827997
 31
0.0
  0
LINE
  5
26C
330
1F
100
AcDbEntity
  8
D-0
  6
Continuous
 62
     7
370
     9
100
AcDbLine
 10
-876.334461214658
 20
-588.7847241827997
 30
0.0
 11
-874.8344268823826
 21
-588.7847241827997
 31
0.0
  0
LINE
  5
26D
330
1F
100
AcDbEntity
  8
D-0
  6
Continuous
 62
     7
370
     9
100
AcDbLine
 10
-874.8344268823826
 20
-588.7847241827997
 30
0.0
 11
-874.8344268823826
 21
-590.284987396911
 31
0.0
  0
LINE
  5
26E
330
1F
100
AcDbEntity
  8
D-0
  6
Continuous
 62
     7
370
     9
100
AcDbLine
 10
-874.8344268823826
 20
-590.284987396911
 30
0.0
 11
-876.334461214658
 21
-590.284987396911
 31
0.0
  0
LINE
  5
26F
330
1F
100
AcDbEntity
  8
D-0
  6
Continuous
 62
     7
370
     9
100
AcDbLine
 10
-926.9635620142185
 20
-588.7619313666376
 30
0.0
 11
-926.9635620142185
 21
-587.2616490790399
 31
0.0
  0
LINE
  5
270
330
1F
100
AcDbEntity
  8
D-0
  6
Continuous
 62
     7
370
     9
100
AcDbLine
 10
-926.9635620142185
 20
-587.2616490790399
 30
0.0
 11
-925.4635372186863
 21
-587.2616490790399
 31
0.0
  0
LINE
  5
271
330
1F
100
AcDbEntity
  8
D-0
  6
Continuous
 62
     7
370
     9
100
AcDbLine
 10
-925.4635372186863
 20
-587.2616490790399
 30
0.0
 11
-925.4635372186863
 21
-588.7619313666376
 31
0.0
  0
LINE
  5
272
330
1F
100
AcDbEntity
  8
D-0
  6
Continuous
 62
     7
370
     9
100
AcDbLine
 10
-925.4635372186863
 20
-588.7619313666376
 30
0.0
 11
-926.9635620142185
 21
-588.7619313666376
 31
0.0
  0
LINE
  5
273
330
1F
100
AcDbEntity
  8
D-0
  6
Continuous
 62
     7
370
     9
100
AcDbLine
 10
-918.5888996149265
 20
-710.1963719794305
 30
0.0
 11
-918.5888996149265
 21
-708.6960896918329
 31
0.0
  0
LINE
  5
274
330
1F
100
AcDbEntity
  8
D-0
  6
Continuous
 62
     7
370
     9
100
AcDbLine
 10
-918.5888996149265
 20
-708.6960896918329
 30
0.0
 11
-917.0888748193943
 21
-708.6960896918329
 31
0.0
  0
LINE
  5
275
330
1F
100
AcDbEntity
  8
D-0
  6
Continuous
 62
     7
370
     9
100
AcDbLine
 10
-917.0888748193943
 20
-708.6960896918329
 30
0.0
 11
-917.0888748193943
 21
-710.1963719794305
 31
0.0
  0
LINE
  5
276
330
1F
100
AcDbEntity
  8
D-0
  6
Continuous
 62
     7
370
     9
100
AcDbLine
 10
-917.0888748193943
 20
-710.1963719794305
 30
0.0
 11
-918.5888996149265
 21
-710.1963719794305
 31
0.0
  0
LINE
  5
277
330
1F
100
AcDbEntity
  8
D-0
  6
Continuous
 62
     7
370
     9
100
AcDbLine
 10
-866.81774521124
 20
-706.3891896674188
 30
0.0
 11
-866.81774521124
 21
-704.8889073798211
 31
0.0
  0
LINE
  5
278
330
1F
100
AcDbEntity
  8
D-0
  6
Continuous
 62
     7
370
     9
100
AcDbLine
 10
-866.81774521124
 20
-704.8889073798211
 30
0.0
 11
-865.3177108789646
 21
-704.8889073798211
 31
0.0
  0
LINE
  5
279
330
1F
100
AcDbEntity
  8
D-0
  6
Continuous
 62
     7
370
     9
100
AcDbLine
 10
-865.3177108789646
 20
-704.8889073798211
 30
0.0
 11
-865.3177108789646
 21
-706.3891896674188
 31
0.0
  0
LINE
  5
27A
330
1F
100
AcDbEntity
  8
D-0
  6
Continuous
 62
     7
370
     9
100
AcDbLine
 10
-865.3177108789646
 20
-706.3891896674188
 30
0.0
 11
-866.81774521124
 21
-706.3891896674188
 31
0.0
  0
LINE
  5
27B
330
1F
100
AcDbEntity
  8
D-0
  6
Continuous
 62
     7
370
     9
100
AcDbLine
 10
-816.9499229813778
 20
-708.2927617499383
 30
0.0
 11
-816.9499229813778
 21
-706.7924794623407
 31
0.0
  0
LINE
  5
27C
330
1F
100
AcDbEntity
  8
D-0
  6
Continuous
 62
     7
370
     9
100
AcDbLine
 10
-816.9499229813778
 20
-706.7924794623407
 30
0.0
 11
-815.4498913313114
 21
-706.7924794623407
 31
0.0
  0
LINE
  5
27D
330
1F
100
AcDbEntity
  8
D-0
  6
Continuous
 62
     7
370
     9
100
AcDbLine
 10
-815.4498913313114
 20
-706.7924794623407
 30
0.0
 11
-815.4498913313114
 21
-708.2927617499383
 31
0.0
  0
LINE
  5
27E
330
1F
100
AcDbEntity
  8
D-0
  6
Continuous
 62
     7
370
     9
100
AcDbLine
 10
-815.4498913313114
 20
-708.2927617499383
 30
0.0
 11
-816.9499229813778
 21
-708.2927617499383
 31
0.0
  0
LINE
  5
27F
330
1F
100
AcDbEntity
  8
D-0
  6
Continuous
 62
     7
370
     9
100
AcDbLine
 10
-841.693507673856
 20
-734.1780385443719
 30
0.0
 11
-841.693507673856
 21
-732.6777562567743
 31
0.0
  0
LINE
  5
280
330
1F
100
AcDbEntity
  8
D-0
  6
Continuous
 62
     7
370
     9
100
AcDbLine
 10
-841.693507673856
 20
-732.6777562567743
 30
0.0
 11
-840.1934781099521
 21
-732.6777562567743
 31
0.0
  0
LINE
  5
281
330
1F
100
AcDbEntity
  8
D-0
  6
Continuous
 62
     7
370
     9
100
AcDbLine
 10
-840.1934781099521
 20
-732.6777562567743
 30
0.0
 11
-840.1934781099521
 21
-734.1780385443719
 31
0.0
  0
LINE
  5
282
330
1F
100
AcDbEntity
  8
D-0
  6
Continuous
 62
     7
370
     9
100
AcDbLine
 10
-840.1934781099521
 20
-734.1780385443719
 30
0.0
 11
-841.693507673856
 21
-734.1780385443719
 31
0.0
  0
LINE
  5
283
330
1F
100
AcDbEntity
  8
D-0
  6
Continuous
 62
     7
370
     9
100
AcDbLine
 10
-882.0444908167087
 20
-745.9791097113641
 30
0.0
 11
-882.0444908167087
 21
-744.4788274237665
 31
0.0
  0
LINE
  5
284
330
1F
100
AcDbEntity
  8
D-0
  6
Continuous
 62
     7
370
     9
100
AcDbLine
 10
-882.0444908167087
 20
-744.4788274237665
 30
0.0
 11
-880.5444564844333
 21
-744.4788274237665
 31
0.0
  0
LINE
  5
285
330
1F
100
AcDbEntity
  8
D-0
  6
Continuous
 62
     7
370
     9
100
AcDbLine
 10
-880.5444564844333
 20
-744.4788274237665
 30
0.0
 11
-880.5444564844333
 21
-745.9791097113641
 31
0.0
  0
LINE
  5
286
330
1F
100
AcDbEntity
  8
D-0
  6
Continuous
 62
     7
370
     9
100
AcDbLine
 10
-880.5444564844333
 20
-745.9791097113641
 30
0.0
 11
-882.0444908167087
 21
-745.9791097113641
 31
0.0
  0
LINE
  5
287
330
1F
100
AcDbEntity
  8
D-0
  6
Continuous
 62
     7
370
     9
100
AcDbLine
 10
-929.2476787592136
 20
-743.6950215765985
 30
0.0
 11
-929.2476787592136
 21
-742.1947392890008
 31
0.0
  0
LINE
  5
288
330
1F
100
AcDbEntity
  8
D-0
  6
Continuous
 62
     7
370
     9
100
AcDbLine
 10
-929.2476787592136
 20
-742.1947392890008
 30
0.0
 11
-927.7476444269382
 21
-742.1947392890008
 31
0.0
  0
LINE
  5
289
330
1F
100
AcDbEntity
  8
D-0
  6
Continuous
 62
     7
370
     9
100
AcDbLine
 10
-927.7476444269382
 20
-742.1947392890008
 30
0.0
 11
-927.7476444269382
 21
-743.6950215765985
 31
0.0
  0
LINE
  5
28A
330
1F
100
AcDbEntity
  8
D-0
  6
Continuous
 62
     7
370
     9
100
AcDbLine
 10
-927.7476444269382
 20
-743.6950215765985
 30
0.0
 11
-929.2476787592136
 21
-743.6950215765985
 31
0.0
  0
LINE
  5
28B
330
1F
100
AcDbEntity
  8
D-0
  6
Continuous
 62
     7
370
     9
100
AcDbLine
 10
-912.8787460352146
 20
-772.2453984686883
 30
0.0
 11
-912.8787460352146
 21
-770.7451161810907
 31
0.0
  0
LINE
  5
28C
330
1F
100
AcDbEntity
  8
D-0
  6
Continuous
 62
     7
370
     9
100
AcDbLine
 10
-912.8787460352146
 20
-770.7451161810907
 30
0.0
 11
-911.3787212396824
 21
-770.7451161810907
 31
0.0
  0
LINE
  5
28D
330
1F
100
AcDbEntity
  8
D-0
  6
Continuous
 62
     7
370
     9
100
AcDbLine
 10
-911.3787212396824
 20
-770.7451161810907
 30
0.0
 11
-911.3787212396824
 21
-772.2453984686883
 31
0.0
  0
LINE
  5
28E
330
1F
100
AcDbEntity
  8
D-0
  6
Continuous
 62
     7
370
     9
100
AcDbLine
 10
-911.3787212396824
 20
-772.2453984686883
 30
0.0
 11
-912.8787460352146
 21
-772.2453984686883
 31
0.0
  0
LINE
  5
28F
330
1F
100
AcDbEntity
  8
D-0
  6
Continuous
 62
     7
370
     9
100
AcDbLine
 10
-861.1077156091892
 20
-770.7228383490594
 30
0.0
 11
-861.1077156091892
 21
-769.2225560614618
 31
0.0
  0
LINE
  5
290
330
1F
100
AcDbEntity
  8
D-0
  6
Continuous
 62
     7
370
     9
100
AcDbLine
 10
-861.1077156091892
 20
-769.2225560614618
 30
0.0
 11
-859.607678892728
 21
-769.2225560614618
 31
0.0
  0
LINE
  5
291
330
1F
100
AcDbEntity
  8
D-0
  6
Continuous
 62
     7
370
     9
100
AcDbLine
 10
-859.607678892728
 20
-769.2225560614618
 30
0.0
 11
-859.607678892728
 21
-770.7228383490594
 31
0.0
  0
LINE
  5
292
330
1F
100
AcDbEntity
  8
D-0
  6
Continuous
 62
     7
370
     9
100
AcDbLine
 10
-859.607678892728
 20
-770.7228383490594
 30
0.0
 11
-861.1077156091892
 21
-770.7228383490594
 31
0.0
  0
LINE
  5
293
330
1F
100
AcDbEntity
  8
D-0
  6
Continuous
 62
     7
370
     9
100
AcDbLine
 10
-823.0407204652988
 20
-770.7228383490594
 30
0.0
 11
-823.0407204652988
 21
-769.2225560614618
 31
0.0
  0
LINE
  5
294
330
1F
100
AcDbEntity
  8
D-0
  6
Continuous
 62
     7
370
     9
100
AcDbLine
 10
-823.0407204652988
 20
-769.2225560614618
 30
0.0
 11
-821.5406888152324
 21
-769.2225560614618
 31
0.0
  0
LINE
  5
295
330
1F
100
AcDbEntity
  8
D-0
  6
Continuous
 62
     7
370
     9
100
AcDbLine
 10
-821.5406888152324
 20
-769.2225560614618
 30
0.0
 11
-821.5406888152324
 21
-770.7228383490594
 31
0.0
  0
LINE
  5
296
330
1F
100
AcDbEntity
  8
D-0
  6
Continuous
 62
     7
370
     9
100
AcDbLine
 10
-821.5406888152324
 20
-770.7228383490594
 30
0.0
 11
-823.0407204652988
 21
-770.7228383490594
 31
0.0
  0
LINE
  5
297
330
1F
100
AcDbEntity
  8
D-0
  6
Continuous
 62
     7
370
     9
100
AcDbLine
 10
-766.0164775873386
 20
-587.717963165954
 30
0.0
 11
-766.0164775873386
 21
-586.2172040411981
 31
0.0
  0
LINE
  5
298
330
1F
100
AcDbEntity
  8
D-0
  6
Continuous
 62
     7
370
     9
100
AcDbLine
 10
-766.0164775873386
 20
-586.2172040411981
 30
0.0
 11
-764.5164480234348
 21
-586.2172040411981
 31
0.0
  0
LINE
  5
299
330
1F
100
AcDbEntity
  8
D-0
  6
Continuous
 62
     7
370
     9
100
AcDbLine
 10
-764.5164480234348
 20
-586.2172040411981
 30
0.0
 11
-764.5164480234348
 21
-587.717963165954
 31
0.0
  0
LINE
  5
29A
330
1F
100
AcDbEntity
  8
D-0
  6
Continuous
 62
     7
370
     9
100
AcDbLine
 10
-764.5164480234348
 20
-587.717963165954
 30
0.0
 11
-766.0164775873386
 21
-587.717963165954
 31
0.0
  0
LINE
  5
29B
330
1F
100
AcDbEntity
  8
D-6
  6
Continuous
 62
     6
370
     9
100
AcDbLine
 10
-945.1813354517185
 20
-392.7842053839715
 30
0.0
 11
-945.1813354517185
 21
-777.7842626044305
 31
0.0
  0
LINE
  5
29C
330
1F
100
AcDbEntity
  8
D-4
  6
Continuous
 62
     7
370
     9
100
AcDbLine
 10
-945.1813354517185
 20
-682.5398549506219
 30
0.0
 11
-795.1806368852817
 21
-682.5398549506219
 31
0.0
  0
LINE
  5
29D
330
1F
100
AcDbEntity
  8
D-4
  6
Continuous
 62
     7
370
     9
100
AcDbLine
 10
-945.1813354517185
 20
-836.136809296325
 30
0.0
 11
-545.1809539819919
 21
-836.136809296325
 31
0.0
  0
LINE
  5
29E
330
1F
100
AcDbEntity
  8
D-4
  6
Continuous
 62
     7
370
     9
100
AcDbLine
 10
-945.1813354517185
 20
-839.1368016669305
 30
0.0
 11
-945.1813354517185
 21
-797.7842626044305
 31
0.0
  0
LINE
  5
29F
330
1F
100
AcDbEntity
  8
D-4
  6
Continuous
 62
     7
370
     9
100
AcDbLine
 10
-545.1809539819919
 20
-839.1368016669305
 30
0.0
 11
-545.1809539819919
 21
-622.7846822211297
 31
0.0
  0
LINE
  5
2A0
330
1F
100
AcDbEntity
  8
D-1
  6
Continuous
 62
     2
370
     9
100
AcDbLine
 10
-795.1811280275547
 20
-377.7843865820917
 30
0.0
 11
-795.1811280275547
 21
-277.7849111029657
 31
0.0
  0
LINE
  5
2A1
330
1F
100
AcDbEntity
  8
D-1
  6
Continuous
 62
     2
370
     9
100
AcDbLine
 10
-810.1809521938526
 20
-277.7849111029657
 30
0.0
 11
-795.1811280275547
 21
-277.7849111029657
 31
0.0
  0
LINE
  5
2A2
330
1F
100
AcDbEntity
  8
D-6
  6
Continuous
 62
     6
370
     9
100
AcDbLine
 10
-795.1811280275547
 20
-277.7849111029657
 30
0.0
 11
-380.1804580713474
 21
-277.7849111029657
 31
0.0
  0
LINE
  5
2A3
330
1F
100
AcDbEntity
  8
D-4
  6
Continuous
 62
     7
370
     9
100
AcDbLine
 10
-276.4184417749607
 20
-277.7849111029657
 30
0.0
 11
-276.4184417749607
 21
-602.7846822211297
 31
0.0
  0
LINE
  5
2A4
330
1F
100
AcDbEntity
  8
D-4
  6
Continuous
 62
     7
370
     9
100
AcDbLine
 10
-273.4184494043552
 20
-277.7849111029657
 30
0.0
 11
-360.1804580713474
 21
-277.7849111029657
 31
0.0
  0
LINE
  5
2A5
330
1F
100
AcDbEntity
  8
D-4
  6
Continuous
 62
     7
370
     9
100
AcDbLine
 10
-273.4184494043552
 20
-602.7846822211297
 30
0.0
 11
-525.1809539819919
 21
-602.7846822211297
 31
0.0
  0
ARC
  5
2A6
330
1F
100
AcDbEntity
  8
D-1
  6
Continuous
 62
     2
370
     9
100
AcDbCircle
 10
-810.1809521938526
 20
-377.7843865820917
 30
0.0
 40
15.0
100
AcDbArc
 50
270.0
 51
0.0
  0
LWPOLYLINE
  5
2A7
330
1F
100
AcDbEntity
  8
D-4
  6
Continuous
 62
     7
370
     9
100
AcDbPolyline
 90
        4
 70
     1
 43
2.0
 10
-809.1799621607029
 20
-50.61352819891184
 42
0.4142135623731
 10
-810.1799621607029
 20
-49.61352819891184
 42
0.4142135623731
 10
-811.1799621607029
 20
-50.61352819891184
 42
0.4142135623731
 10
-810.1799621607029
 20
-51.61352819891184
 42
0.4142135623731
  0
LWPOLYLINE
  5
2A8
330
1F
100
AcDbEntity
  8
D-4
  6
Continuous
 62
     7
370
     9
100
AcDbPolyline
 90
        4
 70
     1
 43
2.0
 10
-944.180839541074
 20
-159.3658933112165
 42
0.4142135623731
 10
-945.180839541074
 20
-158.3658933112165
 42
0.4142135623731
 10
-946.180839541074
 20
-159.3658933112165
 42
0.4142135623731
 10
-945.180839541074
 20
-160.3658933112166
 42
0.4142135623731
  0
LWPOLYLINE
  5
2A9
330
1F
100
AcDbEntity
  8
D-4
  6
Continuous
 62
     7
370
     9
100
AcDbPolyline
 90
        4
 70
     1
 43
2.0
 10
-819.1800078192286
 20
-159.3658933112165
 42
0.4142135623731
 10
-820.1800078192286
 20
-158.3658933112165
 42
0.4142135623731
 10
-821.1800078192286
 20
-159.3658933112165
 42
0.4142135623731
 10
-820.1800078192286
 20
-160.3658933112166
 42
0.4142135623731
  0
LWPOLYLINE
  5
2AA
330
1F
100
AcDbEntity
  8
D-4
  6
Continuous
 62
     7
370
     9
100
AcDbPolyline
 90
        4
 70
     1
 43
2.0
 10
-819.1800078192286
 20
-50.61352819891184
 42
0.4142135623731
 10
-820.1800078192286
 20
-49.61352819891184
 42
0.4142135623731
 10
-821.1800078192286
 20
-50.61352819891184
 42
0.4142135623731
 10
-820.1800078192286
 20
-51.61352819891184
 42
0.4142135623731
  0
LWPOLYLINE
  5
2AB
330
1F
100
AcDbEntity
  8
D-4
  6
Continuous
 62
     7
370
     9
100
AcDbPolyline
 90
        4
 70
     1
 43
2.0
 10
-794.1811280275547
 20
-50.61352819891184
 42
0.4142135623731
 10
-795.1811280275547
 20
-49.61352819891184
 42
0.4142135623731
 10
-796.1811280275547
 20
-50.61352819891184
 42
0.4142135623731
 10
-795.1811280275547
 20
-51.61352819891184
 42
0.4142135623731
  0
LWPOLYLINE
  5
2AC
330
1F
100
AcDbEntity
  8
D-4
  6
Continuous
 62
     7
370
     9
100
AcDbPolyline
 90
        4
 70
     1
 43
2.0
 10
-794.1811280275547
 20
60.08217721490652
 42
0.4142135623731
 10
-795.1811280275547
 20
61.08217721490652
 42
0.4142135623731
 10
-796.1811280275547
 20
60.08217721490652
 42
0.4142135623731
 10
-795.1811280275547
 20
59.08217721490652
 42
0.4142135623731
  0
LWPOLYLINE
  5
2AD
330
1F
100
AcDbEntity
  8
D-4
  6
Continuous
 62
     7
370
     9
100
AcDbPolyline
 90
        4
 70
     1
 43
2.0
 10
-944.1813354517185
 20
-682.5398549506219
 42
0.4142135623731
 10
-945.1813354517185
 20
-681.539854950622
 42
0.4142135623731
 10
-946.1813354517185
 20
-682.5398549506219
 42
0.4142135623731
 10
-945.1813354517185
 20
-683.5398549506219
 42
0.4142135623731
  0
LWPOLYLINE
  5
2AE
330
1F
100
AcDbEntity
  8
D-4
  6
Continuous
 62
     7
370
     9
100
AcDbPolyline
 90
        4
 70
     1
 43
2.0
 10
-794.1806368852817
 20
-682.5398549506219
 42
0.4142135623731
 10
-795.1806368852817
 20
-681.539854950622
 42
0.4142135623731
 10
-796.1806368852817
 20
-682.5398549506219
 42
0.4142135623731
 10
-795.1806368852817
 20
-683.5398549506219
 42
0.4142135623731
  0
LWPOLYLINE
  5
2AF
330
1F
100
AcDbEntity
  8
D-4
  6
Continuous
 62
     7
370
     9
100
AcDbPolyline
 90
        4
 70
     1
 43
2.0
 10
-944.1813354517185
 20
-836.136809296325
 42
0.4142135623731
 10
-945.1813354517185
 20
-835.1368092963252
 42
0.4142135623731
 10
-946.1813354517185
 20
-836.136809296325
 42
0.4142135623731
 10
-945.1813354517185
 20
-837.136809296325
 42
0.4142135623731
  0
LWPOLYLINE
  5
2B0
330
1F
100
AcDbEntity
  8
D-4
  6
Continuous
 62
     7
370
     9
100
AcDbPolyline
 90
        4
 70
     1
 43
2.0
 10
-544.1809539819919
 20
-836.136809296325
 42
0.4142135623731
 10
-545.1809539819919
 20
-835.1368092963252
 42
0.4142135623731
 10
-546.1809539819919
 20
-836.136809296325
 42
0.4142135623731
 10
-545.1809539819919
 20
-837.136809296325
 42
0.4142135623731
  0
LWPOLYLINE
  5
2B1
330
1F
100
AcDbEntity
  8
D-4
  6
Continuous
 62
     7
370
     9
100
AcDbPolyline
 90
        4
 70
     1
 43
2.0
 10
-275.4184417749607
 20
-277.7849111029657
 42
0.4142135623731
 10
-276.4184417749607
 20
-276.7849111029657
 42
0.4142135623731
 10
-277.4184417749607
 20
-277.7849111029657
 42
0.4142135623731
 10
-276.4184417749607
 20
-278.7849111029657
 42
0.4142135623731
  0
LWPOLYLINE
  5
2B2
330
1F
100
AcDbEntity
  8
D-4
  6
Continuous
 62
     7
370
     9
100
AcDbPolyline
 90
        4
 70
     1
 43
2.0
 10
-275.4184417749607
 20
-602.7846822211297
 42
0.4142135623731
 10
-276.4184417749607
 20
-601.7846822211297
 42
0.4142135623731
 10
-277.4184417749607
 20
-602.7846822211297
 42
0.4142135623731
 10
-276.4184417749607
 20
-603.7846822211297
 42
0.4142135623731
  0
TEXT
  5
2B3
330
1F
100
AcDbEntity
  8
D-4
  6
Continuous
 62
     2
370
     9
100
AcDbText
 10
-903.930086138364
 20
-148.7256835028669
 30
0.0
 40
30.48
  1
25
 41
1.0625
  7
ＭＳ ゴシック
100
AcDbText
  0
TEXT
  5
2B4
330
1F
100
AcDbEntity
  8
D-4
  6
Continuous
 62
     2
370
     9
100
AcDbText
 10
-929.3818225885593
 20
-672.7631209418329
 30
0.0
 40
30.48
  1
25～30
 41
1.104166666666667
  7
ＭＳ ゴシック
100
AcDbText
  0
TEXT
  5
2B5
330
1F
100
AcDbEntity
  8
D-4
  6
Continuous
 62
     2
370
     9
100
AcDbText
 10
-813.0487253690922
 20
-827.2274992987665
 30
0.0
 40
30.48
  1
75～80
 41
1.104166666666667
  7
ＭＳ ゴシック
100
AcDbText
  0
TEXT
  5
2B6
330
1F
100
AcDbEntity
  8
D-4
  6
Continuous
 62
     2
370
     9
100
AcDbText
 10
-289.6658636499607
 20
-500.7894622833358
 30
0.0
 40
30.48
  1
55～65
 50
90.00000250447756
 41
1.104166666666667
  7
ＭＳ ゴシック
100
AcDbText
  0
TEXT
  5
2B7
330
1F
100
AcDbEntity
  8
D-4
  6
Continuous
 62
     2
370
     9
100
AcDbText
 10
-781.8797745729648
 20
-39.97419577093332
 30
0.0
 40
30.48
  1
3
 41
0.9999999999999998
  7
ＭＳ ゴシック
100
AcDbText
  0
TEXT
  5
2B8
330
1F
100
AcDbEntity
  8
D-4
  6
Continuous
 62
     2
370
     9
100
AcDbText
 10
-847.0210375810825
 20
-39.97419577093332
 30
0.0
 40
30.48
  1
2
 41
0.9999999999999998
  7
ＭＳ ゴシック
100
AcDbText
  0
TEXT
  5
2B9
330
1F
100
AcDbEntity
  8
D-5
  6
Continuous
 62
     2
370
     9
100
AcDbText
 10
-1243.749336245176
 20
-952.1153853461298
 30
0.0
 40
30.48
  1
断面詳細図　Ｓ＝１：２
 41
1.113636363636364
  7
ＭＳ ゴシック
100
AcDbText
  0
LINE
  5
2BA
330
1F
100
AcDbEntity
  8
D-4
  6
Continuous
 62
     7
370
     9
100
AcDbLine
 10
-945.1724185968601
 20
-510.8864888617547
 30
0.0
 11
-795.1723065401279
 21
-510.8864888617547
 31
0.0
  0
LINE
  5
2BB
330
1F
100
AcDbEntity
  8
D-4
  6
Continuous
 62
     7
370
     9
100
AcDbLine
 10
-795.1723065401279
 20
-510.8864888617547
 30
0.0
 11
-625.1720848108494
 21
-510.8864888617547
 31
0.0
  0
LINE
  5
2BC
330
1F
100
AcDbEntity
  8
D-4
  6
Continuous
 62
     7
370
     9
100
AcDbLine
 10
-625.1720848108494
 20
-513.8865003058465
 30
0.0
 11
-625.1720848108494
 21
-429.2828187415155
 31
0.0
  0
LINE
  5
2BD
330
1F
100
AcDbEntity
  8
D-4
  6
Continuous
 62
     7
370
     9
100
AcDbLine
 10
-562.2161140466892
 20
-424.2828854987176
 30
0.0
 11
-620.1720848108494
 21
-424.2828854987176
 31
0.0
  0
LINE
  5
2BE
330
1F
100
AcDbEntity
  8
D-4
  6
Continuous
 62
     7
370
     9
100
AcDbLine
 10
-565.2161064172947
 20
-392.783709473327
 30
0.0
 11
-565.2161064172947
 21
-509.5338353583368
 31
0.0
  0
LINE
  5
2BF
330
1F
100
AcDbEntity
  8
D-4
  6
Continuous
 62
     7
370
     9
100
AcDbLine
 10
-795.1723065401279
 20
-513.8865003058465
 30
0.0
 11
-795.1723065401279
 21
-429.2828187415155
 31
0.0
  0
LINE
  5
2C0
330
1F
100
AcDbEntity
  8
D-9
  6
Continuous
 62
     4
370
     9
100
AcDbLine
 10
-755.1721277261936
 20
-424.2828854987176
 30
0.0
 11
-640.1720848108494
 21
-424.2828854987176
 31
0.0
  0
LINE
  5
2C1
330
1F
100
AcDbEntity
  8
D-9
  6
Continuous
 62
     4
370
     9
100
AcDbLine
 10
-770.1721992517673
 20
-409.2828187415155
 30
0.0
 11
-770.1721992517673
 21
-395.2828511664422
 31
0.0
  0
LINE
  5
2C2
330
1F
100
AcDbEntity
  8
D-9
  6
Continuous
 62
     4
370
     9
100
AcDbLine
 10
-625.1722755457126
 20
-409.2828187415155
 30
0.0
 11
-625.1722755457126
 21
-395.2828511664422
 31
0.0
  0
LINE
  5
2C3
330
1F
100
AcDbEntity
  8
D-9
  6
Continuous
 62
     4
370
     9
100
AcDbLine
 10
-790.1722922350132
 20
-405.2828988501581
 30
0.0
 11
-790.1722922350132
 21
-395.2828511664422
 31
0.0
  0
LINE
  5
2C4
330
1F
100
AcDbEntity
  8
D-9
  6
Continuous
 62
     4
370
     9
100
AcDbLine
 10
-770.1471748377048
 20
-405.2828988501581
 30
0.0
 11
-820.1720032169237
 21
-405.2828988501581
 31
0.0
  0
LINE
  5
2C5
330
1F
100
AcDbEntity
  8
D-9
  6
Continuous
 62
     4
370
     9
100
AcDbLine
 10
-625.1722755457126
 20
-395.2828511664422
 30
0.0
 11
-820.1720032169237
 21
-395.2828511664422
 31
0.0
  0
LINE
  5
2C6
330
1F
100
AcDbEntity
  8
D-9
  6
Continuous
 62
     3
370
     9
100
AcDbLine
 10
-920.1723327661716
 20
-392.7842053839715
 30
0.0
 11
-920.1723327661716
 21
-415.2841863104852
 31
0.0
  0
LINE
  5
2C7
330
1F
100
AcDbEntity
  8
D-9
  6
Continuous
 62
     3
370
     9
100
AcDbLine
 10
-820.1720032169237
 20
-415.2841863104852
 30
0.0
 11
-920.1723327661716
 21
-415.2841863104852
 31
0.0
  0
LINE
  5
2C8
330
1F
100
AcDbEntity
  8
D-9
  6
Continuous
 62
     3
370
     9
100
AcDbLine
 10
-820.1720032169237
 20
-392.7842053839715
 30
0.0
 11
-920.1723327661716
 21
-392.7842053839715
 31
0.0
  0
LINE
  5
2C9
330
1F
100
AcDbEntity
  8
D-9
  6
Continuous
 62
     2
370
     9
100
AcDbLine
 10
-856.4224329019748
 20
-417.7828320929559
 30
0.0
 11
-856.4224329019748
 21
-415.2841863104852
 31
0.0
  0
LINE
  5
2CA
330
1F
100
AcDbEntity
  8
D-9
  6
Continuous
 62
     2
370
     9
100
AcDbLine
 10
-865.1731433893406
 20
-425.2822408148797
 30
0.0
 11
-856.4224329019748
 21
-417.7828320929559
 31
0.0
  0
LINE
  5
2CB
330
1F
100
AcDbEntity
  8
D-9
  6
Continuous
 62
     2
370
     9
100
AcDbLine
 10
-875.1720609689914
 20
-425.2822408148797
 30
0.0
 11
-865.1731433893406
 21
-425.2822408148797
 31
0.0
  0
LINE
  5
2CC
330
1F
100
AcDbEntity
  8
D-9
  6
Continuous
 62
     2
370
     9
100
AcDbLine
 10
-883.9225235010349
 20
-417.7828320929559
 30
0.0
 11
-875.1720609689914
 21
-425.2822408148797
 31
0.0
  0
LINE
  5
2CD
330
1F
100
AcDbEntity
  8
D-9
  6
Continuous
 62
     2
370
     9
100
AcDbLine
 10
-883.9225235010349
 20
-417.7828320929559
 30
0.0
 11
-883.9225235010349
 21
-415.2841863104852
 31
0.0
  0
LINE
  5
2CE
330
1F
100
AcDbEntity
  8
D-9
  6
Continuous
 62
     2
370
     9
100
AcDbLine
 10
-883.9225235010349
 20
-417.7828320929559
 30
0.0
 11
-856.4224329019748
 21
-417.7828320929559
 31
0.0
  0
LINE
  5
2CF
330
1F
100
AcDbEntity
  8
D-9
  6
Continuous
 62
     3
370
     9
100
AcDbLine
 10
-820.1720032169237
 20
-392.7842053839715
 30
0.0
 11
-820.1720032169237
 21
-415.2841863104852
 31
0.0
  0
LINE
  5
2D0
330
1F
100
AcDbEntity
  8
D-9
  6
Continuous
 62
     3
370
     9
100
AcDbLine
 10
-820.1720032169237
 20
-402.7842053839715
 30
0.0
 11
-920.1723327661716
 21
-402.7842053839715
 31
0.0
  0
LINE
  5
2D1
330
1F
100
AcDbEntity
  8
D-9
  6
JWW_DASHED2
 62
     3
370
     9
100
AcDbLine
 10
-820.1720032169237
 20
-405.2841863104852
 30
0.0
 11
-920.1723327661716
 21
-405.2841863104852
 31
0.0
  0
LINE
  5
2D2
330
1F
100
AcDbEntity
  8
D-9
  6
JWW_CENTER1
 62
     4
370
     9
100
AcDbLine
 10
-870.1721658731663
 20
-433.0232057044061
 30
0.0
 11
-870.1721658731663
 21
-392.7842053839715
 31
0.0
  0
ARC
  5
2D3
330
1F
100
AcDbEntity
  8
D-9
  6
Continuous
 62
     4
370
     9
100
AcDbCircle
 10
-755.1721277261936
 20
-409.2828187415155
 30
0.0
 40
15.00000238418579
100
AcDbArc
 50
180.0
 51
270.0
  0
ARC
  5
2D4
330
1F
100
AcDbEntity
  8
D-9
  6
Continuous
 62
     4
370
     9
100
AcDbCircle
 10
-640.1720848108494
 20
-409.2828187415155
 30
0.0
 40
15.00000238418579
100
AcDbArc
 50
270.0
 51
0.0
  0
LWPOLYLINE
  5
2D5
330
1F
100
AcDbEntity
  8
D-4
  6
Continuous
 62
     7
370
     9
100
AcDbPolyline
 90
        4
 70
     1
 43
2.0
 10
-944.1724185968601
 20
-510.8864888617547
 42
0.4142135623731
 10
-945.1724185968601
 20
-509.8864888617547
 42
0.4142135623731
 10
-946.1724185968601
 20
-510.8864888617547
 42
0.4142135623731
 10
-945.1724185968601
 20
-511.8864888617548
 42
0.4142135623731
  0
LWPOLYLINE
  5
2D6
330
1F
100
AcDbEntity
  8
D-4
  6
Continuous
 62
     7
370
     9
100
AcDbPolyline
 90
        4
 70
     1
 43
2.0
 10
-794.1723065401279
 20
-510.8864888617547
 42
0.4142135623731
 10
-795.1723065401279
 20
-509.8864888617547
 42
0.4142135623731
 10
-796.1723065401279
 20
-510.8864888617547
 42
0.4142135623731
 10
-795.1723065401279
 20
-511.8864888617548
 42
0.4142135623731
  0
LWPOLYLINE
  5
2D7
330
1F
100
AcDbEntity
  8
D-4
  6
Continuous
 62
     7
370
     9
100
AcDbPolyline
 90
        4
 70
     1
 43
2.0
 10
-624.1720848108494
 20
-510.8864888617547
 42
0.4142135623731
 10
-625.1720848108494
 20
-509.8864888617547
 42
0.4142135623731
 10
-626.1720848108494
 20
-510.8864888617547
 42
0.4142135623731
 10
-625.1720848108494
 20
-511.8864888617548
 42
0.4142135623731
  0
LWPOLYLINE
  5
2D8
330
1F
100
AcDbEntity
  8
D-4
  6
Continuous
 62
     7
370
     9
100
AcDbPolyline
 90
        4
 70
     1
 43
2.0
 10
-564.2161064172947
 20
-424.2828854987176
 42
0.4142135623731
 10
-565.2161064172947
 20
-423.2828854987176
 42
0.4142135623731
 10
-566.2161064172947
 20
-424.2828854987176
 42
0.4142135623731
 10
-565.2161064172947
 20
-425.2828854987177
 42
0.4142135623731
  0
TEXT
  5
2D9
330
1F
100
AcDbEntity
  8
D-4
  6
Continuous
 62
     2
370
     9
100
AcDbText
 10
-891.4223613764011
 20
-499.2464850470575
 30
0.0
 40
30.48
  1
30
 41
1.0625
  7
ＭＳ ゴシック
100
AcDbText
  0
TEXT
  5
2DA
330
1F
100
AcDbEntity
  8
D-4
  6
Continuous
 62
     2
370
     9
100
AcDbText
 10
-784.8061146761142
 20
-499.2464850470575
 30
0.0
 40
30.48
  1
34
 41
1.0625
  7
ＭＳ ゴシック
100
AcDbText
  0
TEXT
  5
2DB
330
1F
100
AcDbEntity
  8
D-4
  6
Continuous
 62
     2
370
     9
100
AcDbText
 10
-576.8561102319919
 20
-495.9780990631209
 30
0.0
 40
30.48
  1
6.5
 50
90.00000250447674
 41
1.083333333333334
  7
ＭＳ ゴシック
100
AcDbText
  0
LINE
  5
2DC
330
1F
100
AcDbEntity
  8
D-4
  6
Continuous
 62
     7
370
     9
100
AcDbLine
 10
-761.1701717401706
 20
-392.783709473327
 30
0.0
 11
-562.2155418420994
 21
-392.783709473327
 31
0.0
  0
LWPOLYLINE
  5
2DD
330
1F
100
AcDbEntity
  8
D-4
  6
Continuous
 62
     7
370
     9
100
AcDbPolyline
 90
        4
 70
     1
 43
2.0
 10
-564.2161064172947
 20
-392.783709473327
 42
0.4142135623731
 10
-565.2161064172947
 20
-391.783709473327
 42
0.4142135623731
 10
-566.2161064172947
 20
-392.783709473327
 42
0.4142135623731
 10
-565.2161064172947
 20
-393.7837094733271
 42
0.4142135623731
  0
LINE
  5
2DE
330
1F
100
AcDbEntity
  8
D-4
  6
Continuous
 62
     7
370
     9
100
AcDbLine
 10
-565.2161064172947
 20
-392.783709473327
 30
0.0
 11
-565.2161064172947
 21
-277.7849111029657
 31
0.0
  0
LWPOLYLINE
  5
2DF
330
1F
100
AcDbEntity
  8
D-4
  6
Continuous
 62
     7
370
     9
100
AcDbPolyline
 90
        4
 70
     1
 43
2.0
 10
-564.2161064172947
 20
-277.7849111029657
 42
0.4142135623731
 10
-565.2161064172947
 20
-276.7849111029657
 42
0.4142135623731
 10
-566.2161064172947
 20
-277.7849111029657
 42
0.4142135623731
 10
-565.2161064172947
 20
-278.7849111029657
 42
0.4142135623731
  0
TEXT
  5
2E0
330
1F
100
AcDbEntity
  8
D-4
  6
Continuous
 62
     2
370
   211
100
AcDbText
 10
-580.8561064172947
 20
-356.5343102881463
 30
0.0
 40
30.48
  1
23
 50
90.0
 41
1.0625
  7
ＭＳ ゴシック
100
AcDbText
  0
LINE
  5
2E1
330
1F
100
AcDbEntity
  8
D-6
  6
Continuous
 62
     6
370
     9
100
AcDbLine
 10
-687.8873672510349
 20
-602.7846822211297
 30
0.0
 11
-687.8873672510349
 21
-424.2828854987176
 31
0.0
  0
LINE
  5
2E2
330
1F
100
AcDbEntity
  8
D-6
  6
Continuous
 62
     6
370
     9
100
AcDbLine
 10
-732.8878250147068
 20
-602.7846822211297
 30
0.0
 11
-732.8878250147068
 21
-424.2828854987176
 31
0.0
  0
LINE
  5
2E3
330
1F
100
AcDbEntity
  8
D-6
  6
Continuous
 62
     6
370
     9
100
AcDbLine
 10
-732.8878250147068
 20
-395.2828511664422
 30
0.0
 11
-732.8878250147068
 21
-360.2828511664422
 31
0.0
  0
LINE
  5
2E4
330
1F
100
AcDbEntity
  8
D-6
  6
Continuous
 62
     6
370
     9
100
AcDbLine
 10
-687.8873672510349
 20
-395.2828511664422
 30
0.0
 11
-687.8873672510349
 21
-360.2828511664422
 31
0.0
  0
LINE
  5
2E5
330
1F
100
AcDbEntity
  8
D-6
  6
Continuous
 62
     6
370
     9
100
AcDbLine
 10
-732.8878250147068
 20
-360.2828511664422
 30
0.0
 11
-687.8873672510349
 21
-360.2828511664422
 31
0.0
  0
LINE
  5
2E6
330
1F
100
AcDbEntity
  8
D-6
  6
JWW_CENTER2
 62
     6
370
     9
100
AcDbLine
 10
-710.3875961328708
 20
-347.9694566199335
 30
0.0
 11
-710.3875961328708
 21
-716.1172017523797
 31
0.0
  0
LINE
  5
2E7
330
1F
100
AcDbEntity
  8
D-5
  6
Continuous
 62
     7
370
     9
100
AcDbLine
 10
-777.0612945581638
 20
-395.2828511664422
 30
0.0
 11
-763.2496061350071
 21
-374.4444283911737
 31
0.0
  0
LINE
  5
2E8
330
1F
100
AcDbEntity
  8
D-5
  6
Continuous
 62
     7
370
     9
100
AcDbLine
 10
-777.0612945581638
 20
-395.2828511664422
 30
0.0
 11
-758.3276166940891
 21
-378.7287435004266
 31
0.0
  0
LINE
  5
2E9
330
1F
100
AcDbEntity
  8
D-5
  6
Continuous
 62
     7
370
     9
100
AcDbLine
 10
-602.5121631647312
 20
-194.7354230353376
 30
0.0
 11
-777.0612945581638
 21
-395.2828511664422
 31
0.0
  0
LINE
  5
2EA
330
1F
100
AcDbEntity
  8
D-5
  6
Continuous
 62
     7
370
     9
100
AcDbLine
 10
-795.1811316038334
 20
-287.0036032864602
 30
0.0
 11
-781.3704350019657
 21
-266.1656722495111
 31
0.0
  0
LINE
  5
2EB
330
1F
100
AcDbEntity
  8
D-5
  6
Continuous
 62
     7
370
     9
100
AcDbLine
 10
-795.1811316038334
 20
-287.0036032864602
 30
0.0
 11
-776.4474561239444
 21
-270.4499915310892
 31
0.0
  0
LINE
  5
2EC
330
1F
100
AcDbEntity
  8
D-5
  6
Continuous
 62
     7
370
     9
100
AcDbLine
 10
-645.3652503515445
 20
-114.8737821051618
 30
0.0
 11
-795.1811316038334
 21
-287.0036032864602
 31
0.0
  0
LINE
  5
2ED
330
1F
100
AcDbEntity
  8
D-5
  6
Continuous
 62
     7
370
     9
100
AcDbLine
 10
-645.3652503515445
 20
-114.8737821051618
 30
0.0
 11
-192.0380904699527
 21
-114.8737821051618
 31
0.0
  0
TEXT
  5
2EE
330
1F
100
AcDbEntity
  8
D-5
  6
Continuous
 62
     7
370
     9
100
AcDbText
 10
-642.2477606435975
 20
-105.8848137518929
 30
0.0
 40
22.86
  1
ステンレス製受枠ＲＬ－２０
 50
359.9999368586928
 41
1.153846153846155
  7
ＭＳ ゴシック
100
AcDbText
  0
LINE
  5
2EF
330
1F
100
AcDbEntity
  8
D-5
  6
Continuous
 62
     7
370
     9
100
AcDbLine
 10
-221.6149564200987
 20
-386.2808732608133
 30
0.0
 11
-221.6149564200987
 21
-336.2805845810202
 31
0.0
  0
LINE
  5
2F0
330
1F
100
AcDbEntity
  8
D-5
  6
Continuous
 62
     7
370
     9
100
AcDbLine
 10
-221.6149564200987
 20
-336.2805845810202
 30
0.0
 11
3.384796140078379
 21
-336.2805845810202
 31
0.0
  0
LINE
  5
2F1
330
1F
100
AcDbEntity
  8
D-5
  6
Continuous
 62
     7
370
     9
100
AcDbLine
 10
3.384796140078379
 20
-336.2805845810202
 30
0.0
 11
3.384796140078379
 21
-386.2808732608133
 31
0.0
  0
LINE
  5
2F2
330
1F
100
AcDbEntity
  8
D-5
  6
Continuous
 62
     7
370
     9
100
AcDbLine
 10
3.384796140078379
 20
-386.2808732608133
 30
0.0
 11
-221.6149564200987
 21
-386.2808732608133
 31
0.0
  0
TEXT
  5
2F3
330
1F
100
AcDbEntity
  8
D-5
  6
Continuous
 62
     2
370
     9
100
AcDbText
 10
-174.1149234281227
 20
-375.6407330449138
 30
0.0
 40
30.48
  1
仕　様
 41
1.083333333333333
  7
ＭＳ ゴシック
100
AcDbText
  0
TEXT
  5
2F4
330
1F
100
AcDbEntity
  8
D-5
  6
Continuous
 62
     7
370
     9
100
AcDbText
 10
-588.8679256464206
 20
-185.8465332648298
 30
0.0
 40
22.86
  1
アンカー
 41
1.125
  7
ＭＳ ゴシック
100
AcDbText
  0
LINE
  5
2F5
330
1F
100
AcDbEntity
  8
D-2
  6
Continuous
 62
     3
370
     9
100
AcDbLine
 10
-1517.849229557371
 20
-433.0282887885126
 30
0.0
 11
-1517.849229557371
 21
-209.0857847304994
 31
0.0
  0
LINE
  5
2F6
330
1F
100
AcDbEntity
  8
D-2
  6
Continuous
 62
     3
370
     9
100
AcDbLine
 10
-1517.849229557371
 20
-377.7844409673027
 30
0.0
 11
-820.1806488062107
 21
-377.7844409673027
 31
0.0
  0
LINE
  5
2F7
330
1F
100
AcDbEntity
  8
D-2
  6
Continuous
 62
     3
370
     9
100
AcDbLine
 10
-820.1806488062107
 20
-277.7846059271844
 30
0.0
 11
-1517.849229557371
 21
-277.7846059271844
 31
0.0
  0
LINE
  5
2F8
330
1F
100
AcDbEntity
  8
D-4
  6
Continuous
 62
     7
370
     9
100
AcDbLine
 10
-1578.250280021899
 20
-277.7846059271844
 30
0.0
 11
-1578.250280021899
 21
-377.7844409673027
 31
0.0
  0
LWPOLYLINE
  5
2F9
330
1F
100
AcDbEntity
  8
D-4
  6
Continuous
 62
     7
370
     9
100
AcDbPolyline
 90
        4
 70
     1
 43
2.0
 10
-1577.250280021899
 20
-277.7846059271844
 42
0.4142135623731
 10
-1578.250280021899
 20
-276.7846059271844
 42
0.4142135623731
 10
-1579.250280021899
 20
-277.7846059271844
 42
0.4142135623731
 10
-1578.250280021899
 20
-278.7846059271845
 42
0.4142135623731
  0
LWPOLYLINE
  5
2FA
330
1F
100
AcDbEntity
  8
D-4
  6
Continuous
 62
     7
370
     9
100
AcDbPolyline
 90
        4
 70
     1
 43
2.0
 10
-1577.250280021899
 20
-377.7844409673027
 42
0.4142135623731
 10
-1578.250280021899
 20
-376.7844409673027
 42
0.4142135623731
 10
-1579.250280021899
 20
-377.7844409673027
 42
0.4142135623731
 10
-1578.250280021899
 20
-378.7844409673027
 42
0.4142135623731
  0
LINE
  5
2FB
330
1F
100
AcDbEntity
  8
D-4
  6
Continuous
 62
     7
370
     9
100
AcDbLine
 10
-1581.250280021899
 20
-277.7846059271844
 30
0.0
 11
-1537.849229557371
 21
-277.7846059271844
 31
0.0
  0
LINE
  5
2FC
330
1F
100
AcDbEntity
  8
D-4
  6
Continuous
 62
     7
370
     9
100
AcDbLine
 10
-1581.250280021899
 20
-377.7844409673027
 30
0.0
 11
-1537.849229557371
 21
-377.7844409673027
 31
0.0
  0
TEXT
  5
2FD
330
1F
100
AcDbEntity
  8
D-4
  6
Continuous
 62
     2
370
   211
100
AcDbText
 10
-1589.890280021899
 20
-349.0345234472436
 30
0.0
 40
30.48
  1
20
 50
90.0
 41
1.0625
  7
ＭＳ ゴシック
100
AcDbText
  0
LINE
  5
2FE
330
1F
100
AcDbEntity
  8
D-2
  6
Continuous
 62
     3
370
     9
100
AcDbLine
 10
-1202.681457109631
 20
-277.7846059271844
 30
0.0
 11
-1202.681457109631
 21
-352.7846059271844
 31
0.0
  0
LINE
  5
2FF
330
1F
100
AcDbEntity
  8
D-2
  6
Continuous
 62
     3
370
     9
100
AcDbLine
 10
-1187.681283901755
 20
-277.7846059271844
 30
0.0
 11
-1187.681283901755
 21
-352.7846059271844
 31
0.0
  0
LINE
  5
300
330
1F
100
AcDbEntity
  8
D-2
  6
Continuous
 62
     3
370
     9
100
AcDbLine
 10
-1182.681143685855
 20
-305.2844492152967
 30
0.0
 11
-1152.681292149749
 21
-315.2846059271844
 31
0.0
  0
LINE
  5
301
330
1F
100
AcDbEntity
  8
D-2
  6
Continuous
 62
     3
370
     9
100
AcDbLine
 10
-1152.681292149749
 20
-315.2846059271844
 30
0.0
 11
-1152.681292149749
 21
-342.7844492152967
 31
0.0
  0
LINE
  5
302
330
1F
100
AcDbEntity
  8
D-2
  6
Continuous
 62
     3
370
     9
100
AcDbLine
 10
-1182.681143685855
 20
-342.7844492152967
 30
0.0
 11
-1152.681292149749
 21
-342.7844492152967
 31
0.0
  0
LINE
  5
303
330
1F
100
AcDbEntity
  8
D-2
  6
Continuous
 62
     3
370
     9
100
AcDbLine
 10
-1182.681143685855
 20
-342.7844492152967
 30
0.0
 11
-1182.681143685855
 21
-352.7846059271844
 31
0.0
  0
LINE
  5
304
330
1F
100
AcDbEntity
  8
D-2
  6
Continuous
 62
     3
370
     9
100
AcDbLine
 10
-1182.681143685855
 20
-352.7846059271844
 30
0.0
 11
-1207.680855006063
 21
-352.7846059271844
 31
0.0
  0
LINE
  5
305
330
1F
100
AcDbEntity
  8
D-2
  6
Continuous
 62
     3
370
     9
100
AcDbLine
 10
-1207.680855006063
 20
-352.7846059271844
 30
0.0
 11
-1237.681077701903
 21
-342.7844492152967
 31
0.0
  0
LINE
  5
306
330
1F
100
AcDbEntity
  8
D-2
  6
Continuous
 62
     3
370
     9
100
AcDbLine
 10
-1237.681077701903
 20
-315.2846059271844
 30
0.0
 11
-1237.681077701903
 21
-342.7844492152967
 31
0.0
  0
LINE
  5
307
330
1F
100
AcDbEntity
  8
D-2
  6
Continuous
 62
     3
370
     9
100
AcDbLine
 10
-1237.681077701903
 20
-315.2846059271844
 30
0.0
 11
-1207.680855006063
 21
-315.2846059271844
 31
0.0
  0
LINE
  5
308
330
1F
100
AcDbEntity
  8
D-2
  6
Continuous
 62
     3
370
     9
100
AcDbLine
 10
-1207.680855006063
 20
-305.2844492152967
 30
0.0
 11
-1207.680855006063
 21
-315.2846059271844
 31
0.0
  0
LINE
  5
309
330
1F
100
AcDbEntity
  8
D-2
  6
Continuous
 62
     3
370
     9
100
AcDbLine
 10
-1202.681457109631
 20
-305.2844492152967
 30
0.0
 11
-1207.680855006063
 21
-305.2844492152967
 31
0.0
  0
LINE
  5
30A
330
1F
100
AcDbEntity
  8
D-2
  6
Continuous
 62
     3
370
     9
100
AcDbLine
 10
-1182.681143685855
 20
-305.2844492152967
 30
0.0
 11
-1187.681283901755
 21
-305.2844492152967
 31
0.0
  0
LINE
  5
30B
330
1F
100
AcDbEntity
  8
D-2
  6
Continuous
 62
     3
370
     9
100
AcDbLine
 10
-840.1807147901627
 20
-377.7844409673027
 30
0.0
 11
-840.1807147901627
 21
-277.7846059271844
 31
0.0
  0
LINE
  5
30C
330
1F
100
AcDbEntity
  8
D-2
  6
Continuous
 62
     3
370
     9
100
AcDbLine
 10
-820.1806488062107
 20
-277.7846059271844
 30
0.0
 11
-820.1806488062107
 21
-377.7844409673027
 31
0.0
  0
TEXT
  5
30D
330
1F
100
AcDbEntity
  8
D-4
  6
Continuous
 62
     2
370
     9
100
AcDbText
 10
-1515.883691326269
 20
-39.97293382783901
 30
0.0
 40
30.48
  1
□350
 41
1.1
  7
ＭＳ ゴシック
100
AcDbText
  0
TEXT
  5
30E
330
1F
100
AcDbEntity
  8
D-4
  6
Continuous
 62
     2
370
     9
100
AcDbText
 10
-1515.883691326269
 20
-148.7253339941184
 30
0.0
 40
30.48
  1
□300
 41
1.1
  7
ＭＳ ゴシック
100
AcDbText
  0
TEXT
  5
30F
330
1F
100
AcDbEntity
  8
D-4
  6
Continuous
 62
     2
370
     9
100
AcDbText
 10
-1515.883691326269
 20
68.77946633844068
 30
0.0
 40
30.48
  1
□360
 41
1.1
  7
ＭＳ ゴシック
100
AcDbText
  0
TEXT
  5
310
330
1F
100
AcDbEntity
  8
D-5
  6
Continuous
 62
     7
370
     9
100
AcDbText
 10
-686.8761336944053
 20
48.22974464904144
 30
0.0
 40
22.86
  1
ステンレス製グレーチング
 50
0.0000684664541279
 41
1.152777777777778
  7
ＭＳ ゴシック
100
AcDbText
  0
TEXT
  5
311
330
1F
100
AcDbEntity
  8
D-5
  6
Continuous
 62
     7
370
     9
100
AcDbText
 10
-686.8761336944053
 20
11.59133217345543
 30
0.0
 40
22.86
  1
プレーンタイプ　集水桝用
 50
0.0000684664541279
 41
1.152777777777778
  7
ＭＳ ゴシック
100
AcDbText
  0
LINE
  5
312
330
1F
100
AcDbEntity
  8
D-5
  6
Continuous
 62
     7
370
     9
100
AcDbLine
 10
-690.3269228596739
 20
-32.79766440857276
 30
0.0
 11
-903.5551379767744
 21
-277.7846059271844
 31
0.0
  0
LINE
  5
313
330
1F
100
AcDbEntity
  8
D-5
  6
Continuous
 62
     7
370
     9
100
AcDbLine
 10
-690.3269228596739
 20
-32.79766440857276
 30
0.0
 11
-201.8761286442126
 21
-32.79766440857276
 31
0.0
  0
LINE
  5
314
330
1F
100
AcDbEntity
  8
D-5
  6
Continuous
 62
     7
370
     9
100
AcDbLine
 10
-903.5551379767744
 20
-277.7846059271844
 30
0.0
 11
-884.8214624968855
 21
-261.2309941718133
 31
0.0
  0
LINE
  5
315
330
1F
100
AcDbEntity
  8
D-5
  6
Continuous
 62
     7
370
     9
100
AcDbLine
 10
-903.5551379767744
 20
-277.7846059271844
 30
0.0
 11
-889.7444413749067
 21
-256.9466748902353
 31
0.0
  0
TEXT
  5
316
330
1F
100
AcDbEntity
  8
D-5
  6
Continuous
 62
     7
370
     9
100
AcDbText
 10
-686.8761468805959
 20
-25.04708030216674
 30
0.0
 40
22.86
  1
ＳＭＷ３５２０Ａ（Ｐ＝１５）
 50
0.0002470747442
 41
1.154761904761905
  7
ＭＳ ゴシック
100
AcDbText
  0
TEXT
  5
317
330
1F
100
AcDbEntity
  8
D-5
  6
Continuous
 62
     2
370
     9
100
AcDbText
 10
-59.81283569585912
 20
-773.4788725422756
 30
0.0
 40
30.48
  1
材質：ステンレス鋼板ｔ＝３．０（ＳＵＳ３０４）
 41
1.119565217391304
  7
ＭＳ ゴシック
100
AcDbText
  0
TEXT
  5
318
330
1F
100
AcDbEntity
  8
D-5
  6
Continuous
 62
     2
370
     9
100
AcDbText
 10
-59.81283569585912
 20
-883.4779570149318
 30
0.0
 40
30.48
  1
施工場所の状況に合わせて、アンカーをプライヤー等で折り曲げてご使用ください。
 41
1.121710526315789
  7
ＭＳ ゴシック
100
AcDbText
  0
TEXT
  5
319
330
1F
100
AcDbEntity
  8
D-5
  6
Continuous
 62
     2
370
     9
100
AcDbText
 10
-59.81306663969349
 20
-601.9751790538762
 30
0.0
 40
30.48
  1
　　　クロスバー　ＦＢ３×１５（ＳＵＳ３０４）
 41
1.119565217391304
  7
ＭＳ ゴシック
100
AcDbText
  0
TEXT
  5
31A
330
1F
100
AcDbEntity
  8
D-5
  6
Continuous
 62
     2
370
     9
100
AcDbText
 10
-59.81306663969349
 20
-656.975236789835
 30
0.0
 40
30.48
  1
　　　サイドバー　ＦＢ４×２０（ＳＵＳ３０４）
 41
1.119565217391304
  7
ＭＳ ゴシック
100
AcDbText
  0
TEXT
  5
31B
330
1F
100
AcDbEntity
  8
D-5
  6
Continuous
 62
     2
370
     9
100
AcDbText
 10
-59.81306663969349
 20
-546.974873878095
 30
0.0
 40
30.48
  1
材質：メインバー　ＦＢ４×２０（ＳＵＳ３０４）
 41
1.119565217391304
  7
ＭＳ ゴシック
100
AcDbText
  0
TEXT
  5
31C
330
1F
100
AcDbEntity
  8
D-5
  6
Continuous
 62
     2
370
     9
100
AcDbText
 10
-119.5247497583591
 20
-718.4778807209865
 30
0.0
 40
30.48
  1
ステンレス製受枠　ＲＬ－２０（四方枠）
 41
1.118421052631579
  7
ＭＳ ゴシック
100
AcDbText
  0
TEXT
  5
31D
330
1F
100
AcDbEntity
  8
D-5
  6
Continuous
 62
     2
370
     9
100
AcDbText
 10
-119.5247497583591
 20
-494.4571193415637
 30
0.0
 40
30.48
  1
ＳＭＷ　３５２０Ａ（Ｐ＝１５）
 41
1.116666666666666
  7
ＭＳ ゴシック
100
AcDbText
  0
TEXT
  5
31E
330
1F
100
AcDbEntity
  8
D-5
  6
Continuous
 62
     2
370
     9
100
AcDbText
 10
-119.5247497583591
 20
-438.5612157835117
 30
0.0
 40
30.48
  1
ステンレス製グレーチング　プレーンタイプ　集水桝用
 41
1.12
  7
ＭＳ ゴシック
100
AcDbText
  0
TEXT
  5
31F
330
1F
100
AcDbEntity
  8
D-5
  6
Continuous
 62
     7
370
     9
100
AcDbText
 10
-588.8679256464206
 20
-225.1644558569929
 30
0.0
 40
22.86
  1
ｔ＝２．０（ＳＥＣＣ）
 41
1.151515151515152
  7
ＭＳ ゴシック
100
AcDbText
  0
TEXT
  5
320
330
1F
100
AcDbEntity
  8
F-5ﾚｲﾔ
  6
Continuous
 62
     2
370
     0
100
AcDbText
 10
-851.0006021035684
 20
-1327.468363795925
 30
0.0
 40
30.48
  1
ステンレス製グレーチング　プレーンタイプ　集水桝用
 41
0.8989999999999999
  7
ＭＳ ゴシック
100
AcDbText
  0
LINE
  5
321
330
1F
100
AcDbEntity
  8
D-5
  6
Continuous
 62
     7
370
     9
100
AcDbLine
 10
-602.5121631647312
 20
-194.7354230353376
 30
0.0
 11
-220.0
 21
-194.7354230353376
 31
0.0
  0
TEXT
  5
322
330
1F
100
AcDbEntity
  8
D-5
  6
Continuous
 62
     3
370
     9
100
AcDbText
 10
53.38479614007838
 20
-379.2308732608133
 30
0.0
 40
38.1
  1
※適用荷重：Ｔ－２
 41
1.088888888888889
  7
ＭＳ ゴシック
100
AcDbText
  0
ENDSEC
  0
SECTION
  2
OBJECTS
  0
DICTIONARY
  5
C
330
0
100
AcDbDictionary
281
     1
  3
ACAD_DETAILVIEWSTYLE
350
368
  3
ACAD_GROUP
350
D
  3
ACAD_LAYOUT
350
1A
  3
ACAD_MATERIAL
350
43
  3
ACAD_MLEADERSTYLE
350
6B
  3
ACAD_MLINESTYLE
350
17
  3
ACAD_PLOTSETTINGS
350
19
  3
ACAD_PLOTSTYLENAME
350
E
  3
ACAD_SCALELIST
350
47
  3
ACAD_SECTIONVIEWSTYLE
350
369
  3
ACAD_TABLESTYLE
350
69
  3
ACAD_VISUALSTYLE
350
2A
  3
ACDB_RECOMPOSE_DATA
350
365
  3
AcDbVariableDictionary
350
325
  0
DICTIONARY
  5
323
330
8
100
AcDbDictionary
280
     1
281
     1
  3
ACAD_XREC_ROUNDTRIP
360
324
  0
DICTIONARY
  5
368
102
{ACAD_REACTORS
330
C
102
}
330
C
100
AcDbDictionary
281
     1
  0
DICTIONARY
  5
D
102
{ACAD_REACTORS
330
C
102
}
330
C
100
AcDbDictionary
281
     1
  0
DICTIONARY
  5
1A
102
{ACAD_REACTORS
330
C
102
}
330
C
100
AcDbDictionary
281
     1
  3
Layout1
350
1E
  3
Layout2
350
26
  3
Model
350
22
  0
DICTIONARY
  5
43
102
{ACAD_REACTORS
330
C
102
}
330
C
100
AcDbDictionary
281
     1
  3
ByBlock
350
45
  3
ByLayer
350
44
  3
Global
350
46
  0
DICTIONARY
  5
6B
102
{ACAD_REACTORS
330
C
102
}
330
C
100
AcDbDictionary
281
     1
  3
Standard
350
6C
  0
DICTIONARY
  5
17
102
{ACAD_REACTORS
330
C
102
}
330
C
100
AcDbDictionary
281
     1
  3
Standard
350
18
  0
DICTIONARY
  5
19
102
{ACAD_REACTORS
330
C
102
}
330
C
100
AcDbDictionary
281
     1
  0
ACDBDICTIONARYWDFLT
  5
E
102
{ACAD_REACTORS
330
C
102
}
330
C
100
AcDbDictionary
281
     1
  3
Normal
350
F
100
AcDbDictionaryWithDefault
340
F
  0
DICTIONARY
  5
47
102
{ACAD_REACTORS
330
C
102
}
330
C
100
AcDbDictionary
281
     1
  3
A0
350
48
  3
A1
350
49
  3
A2
350
4A
  3
A3
350
4B
  3
A4
350
4C
  3
A5
350
4D
  3
A6
350
4E
  3
A7
350
4F
  3
A8
350
50
  3
A9
350
51
  3
B0
350
52
  3
B1
350
53
  3
B2
350
54
  3
B3
350
55
  3
B4
350
56
  3
B5
350
57
  3
B6
350
58
  3
B7
350
59
  3
B8
350
5A
  3
B9
350
5B
  3
C0
350
5C
  3
C1
350
5D
  3
C2
350
5E
  3
C3
350
5F
  3
C4
350
60
  3
C5
350
61
  3
C6
350
62
  3
C7
350
63
  3
C8
350
64
  3
C9
350
65
  3
D0
350
66
  3
D1
350
67
  3
D2
350
68
  0
DICTIONARY
  5
369
102
{ACAD_REACTORS
330
C
102
}
330
C
100
AcDbDictionary
281
     1
  0
DICTIONARY
  5
69
102
{ACAD_REACTORS
330
C
102
}
330
C
100
AcDbDictionary
281
     1
  3
Standard
350
6A
  0
DICTIONARY
  5
2A
102
{ACAD_REACTORS
330
C
102
}
330
C
100
AcDbDictionary
281
     1
  3
2dWireframe
350
2F
  3
Basic
350
32
  3
Brighten
350
36
  3
ColorChange
350
3A
  3
Conceptual
350
34
  3
Dim
350
35
  3
EdgeColorOff
350
3D
  3
Facepattern
350
39
  3
Flat
350
2B
  3
FlatWithEdges
350
2C
  3
Gouraud
350
2D
  3
GouraudWithEdges
350
2E
  3
Hidden
350
31
  3
JitterOff
350
3B
  3
Linepattern
350
38
  3
OverhangOff
350
3C
  3
Realistic
350
33
  3
Shaded
350
42
  3
Shaded with edges
350
41
  3
Shades of Gray
350
3E
  3
Sketchy
350
3F
  3
Thicken
350
37
  3
Wireframe
350
30
  3
X-Ray
350
40
  0
XRECORD
  5
365
102
{ACAD_REACTORS
330
C
102
}
330
C
100
AcDbXrecord
280
     1
 90
        1
330
6A
  0
DICTIONARY
  5
325
102
{ACAD_REACTORS
330
C
102
}
330
C
100
AcDbDictionary
281
     1
  3
CANNOSCALE
350
326
  3
CENTEREXE
350
36A
  3
CENTERLTYPEFILE
350
36B
  3
CMLEADERSTYLE
350
367
  3
CTABLESTYLE
350
366
  3
MSLTSCALE
350
327
  3
XCLIPFRAME
350
328
  0
XRECORD
  5
324
102
{ACAD_REACTORS
330
323
102
}
330
323
100
AcDbXrecord
280
     1
102
VTR_0.000_0.000_1.000_1.000_VISUALSTYLE
340
2F
102
VTR_0.000_0.000_1.000_1.000_GRIDDISPLAY
 70
     3
102
VTR_0.000_0.000_1.000_1.000_GRIDMAJOR
 70
     5
102
VTR_0.000_0.000_1.000_1.000_DEFAULTLIGHTING
280
     1
102
VTR_0.000_0.000_1.000_1.000_DEFAULTLIGHTINGTYPE
 70
     1
102
VTR_0.000_0.000_1.000_1.000_BRIGHTNESS
141
0.0
102
VTR_0.000_0.000_1.000_1.000_CONTRAST
142
0.0
  0
LAYOUT
  5
1E
102
{ACAD_REACTORS
330
1A
102
}
330
1A
100
AcDbPlotSettings
  1

  2
none_device
  4

  6

 40
0.0
 41
0.0
 42
0.0
 43
0.0
 44
0.0
 45
0.0
 46
0.0
 47
0.0
 48
0.0
 49
0.0
140
0.0
141
0.0
142
1.0
143
1.0
 70
   688
 72
     1
 73
     0
 74
     5
  7

 75
    16
 76
     0
 77
     5
 78
   300
147
1.0
148
0.0
149
0.0
100
AcDbLayout
  1
Layout1
 70
     1
 71
     1
 10
0.0
 20
0.0
 11
420.0
 21
297.0
 12
0.0
 22
0.0
 32
0.0
 14
1.000000000000000E+20
 24
1.000000000000000E+20
 34
1.000000000000000E+20
 15
-1.000000000000000E+20
 25
-1.000000000000000E+20
 35
-1.000000000000000E+20
146
0.0
 13
0.0
 23
0.0
 33
0.0
 16
1.0
 26
0.0
 36
0.0
 17
0.0
 27
1.0
 37
0.0
 76
     0
330
1B
  0
LAYOUT
  5
26
102
{ACAD_REACTORS
330
1A
102
}
330
1A
100
AcDbPlotSettings
  1

  2
none_device
  4

  6

 40
0.0
 41
0.0
 42
0.0
 43
0.0
 44
0.0
 45
0.0
 46
0.0
 47
0.0
 48
0.0
 49
0.0
140
0.0
141
0.0
142
1.0
143
1.0
 70
   688
 72
     1
 73
     0
 74
     5
  7

 75
    16
 76
     0
 77
     5
 78
   300
147
1.0
148
0.0
149
0.0
100
AcDbLayout
  1
Layout2
 70
     1
 71
     2
 10
0.0
 20
0.0
 11
0.0
 21
0.0
 12
0.0
 22
0.0
 32
0.0
 14
0.0
 24
0.0
 34
0.0
 15
0.0
 25
0.0
 35
0.0
146
0.0
 13
0.0
 23
0.0
 33
0.0
 16
1.0
 26
0.0
 36
0.0
 17
0.0
 27
1.0
 37
0.0
 76
     0
330
23
  0
LAYOUT
  5
22
102
{ACAD_REACTORS
330
1A
102
}
330
1A
100
AcDbPlotSettings
  1

  2
none_device
  4
Letter_(8.50_x_11.00_Inches)
  6

 40
6.35
 41
6.35
 42
6.35000508
 43
6.35000508
 44
215.9
 45
279.4
 46
0.0
 47
0.0
 48
0.0
 49
0.0
140
0.0
141
0.0
142
1.0
143
1.0
 70
  1712
 72
     1
 73
     0
 74
     0
  7

 75
     0
 76
     0
 77
     5
 78
   300
147
1.0
148
0.0
149
0.0
100
AcDbLayout
  1
Model
 70
     1
 71
     0
 10
-2100.0
 20
-1485.0
 11
2100.0
 21
1485.0
 12
0.0
 22
0.0
 32
0.0
 14
-2100.0
 24
-1485.0
 34
0.0
 15
2100.0
 25
1485.0
 35
0.0
146
0.0
 13
0.0
 23
0.0
 33
0.0
 16
1.0
 26
0.0
 36
0.0
 17
0.0
 27
1.0
 37
0.0
 76
     0
330
1F
331
29
  0
MATERIAL
  5
45
102
{ACAD_REACTORS
330
43
102
}
102
{ACAD_XDICTIONARY
360
35B
102
}
330
43
100
AcDbMaterial
  1
ByBlock
  0
MATERIAL
  5
44
102
{ACAD_REACTORS
330
43
102
}
102
{ACAD_XDICTIONARY
360
359
102
}
330
43
100
AcDbMaterial
  1
ByLayer
  0
MATERIAL
  5
46
102
{ACAD_REACTORS
330
43
102
}
102
{ACAD_XDICTIONARY
360
35D
102
}
330
43
100
AcDbMaterial
  1
Global
  0
MLEADERSTYLE
  5
6C
102
{ACAD_REACTORS
330
6B
102
}
102
{ACAD_XDICTIONARY
360
363
102
}
330
6B
100
AcDbMLeaderStyle
170
     2
171
     1
172
     0
 90
        2
 40
0.0
 41
0.0
173
     1
 91
-1056964608
340
14
 92
       -2
290
     1
 42
2.0
291
     1
 43
8.0
  3
Standard
341
0
 44
4.0
300

342
11
174
     1
178
     6
175
     1
176
     0
 93
-1056964608
 45
4.0
292
     0
297
     0
 46
4.0
343
0
 94
-1056964608
 47
1.0
 49
1.0
140
1.0
293
     1
141
0.0
294
     1
177
     0
142
1.0
295
     0
296
     0
143
3.75
1001
ACAD_MLEADERVER
1070
     2
  0
MLINESTYLE
  5
18
102
{ACAD_REACTORS
330
17
102
}
330
17
100
AcDbMlineStyle
  2
Standard
 70
     0
  3

 62
   256
 51
90.0
 52
90.0
 71
     2
 49
0.5
 62
   256
  6
BYLAYER
 49
-0.5
 62
   256
  6
BYLAYER
  0
ACDBPLACEHOLDER
  5
F
102
{ACAD_REACTORS
330
E
102
}
330
E
  0
SCALE
  5
48
102
{ACAD_REACTORS
330
47
102
}
330
47
100
AcDbScale
 70
     0
300
1:1
140
1.0
141
1.0
290
     1
  0
SCALE
  5
49
102
{ACAD_REACTORS
330
47
102
}
330
47
100
AcDbScale
 70
     0
300
1:2
140
1.0
141
2.0
290
     0
  0
SCALE
  5
4A
102
{ACAD_REACTORS
330
47
102
}
330
47
100
AcDbScale
 70
     0
300
1:4
140
1.0
141
4.0
290
     0
  0
SCALE
  5
4B
102
{ACAD_REACTORS
330
47
102
}
330
47
100
AcDbScale
 70
     0
300
1:5
140
1.0
141
5.0
290
     0
  0
SCALE
  5
4C
102
{ACAD_REACTORS
330
47
102
}
330
47
100
AcDbScale
 70
     0
300
1:8
140
1.0
141
8.0
290
     0
  0
SCALE
  5
4D
102
{ACAD_REACTORS
330
47
102
}
330
47
100
AcDbScale
 70
     0
300
1:10
140
1.0
141
10.0
290
     0
  0
SCALE
  5
4E
102
{ACAD_REACTORS
330
47
102
}
330
47
100
AcDbScale
 70
     0
300
1:16
140
1.0
141
16.0
290
     0
  0
SCALE
  5
4F
102
{ACAD_REACTORS
330
47
102
}
330
47
100
AcDbScale
 70
     0
300
1:20
140
1.0
141
20.0
290
     0
  0
SCALE
  5
50
102
{ACAD_REACTORS
330
47
102
}
330
47
100
AcDbScale
 70
     0
300
1:30
140
1.0
141
30.0
290
     0
  0
SCALE
  5
51
102
{ACAD_REACTORS
330
47
102
}
330
47
100
AcDbScale
 70
     0
300
1:40
140
1.0
141
40.0
290
     0
  0
SCALE
  5
52
102
{ACAD_REACTORS
330
47
102
}
330
47
100
AcDbScale
 70
     0
300
1:50
140
1.0
141
50.0
290
     0
  0
SCALE
  5
53
102
{ACAD_REACTORS
330
47
102
}
330
47
100
AcDbScale
 70
     0
300
1:100
140
1.0
141
100.0
290
     0
  0
SCALE
  5
54
102
{ACAD_REACTORS
330
47
102
}
330
47
100
AcDbScale
 70
     0
300
2:1
140
2.0
141
1.0
290
     0
  0
SCALE
  5
55
102
{ACAD_REACTORS
330
47
102
}
330
47
100
AcDbScale
 70
     0
300
4:1
140
4.0
141
1.0
290
     0
  0
SCALE
  5
56
102
{ACAD_REACTORS
330
47
102
}
330
47
100
AcDbScale
 70
     0
300
8:1
140
8.0
141
1.0
290
     0
  0
SCALE
  5
57
102
{ACAD_REACTORS
330
47
102
}
330
47
100
AcDbScale
 70
     0
300
10:1
140
10.0
141
1.0
290
     0
  0
SCALE
  5
58
102
{ACAD_REACTORS
330
47
102
}
330
47
100
AcDbScale
 70
     0
300
100:1
140
100.0
141
1.0
290
     0
  0
SCALE
  5
59
102
{ACAD_REACTORS
330
47
102
}
330
47
100
AcDbScale
 70
     0
300
1/128" = 1'-0"
140
0.0078125
141
12.0
290
     0
  0
SCALE
  5
5A
102
{ACAD_REACTORS
330
47
102
}
330
47
100
AcDbScale
 70
     0
300
1/64" = 1'-0"
140
0.015625
141
12.0
290
     0
  0
SCALE
  5
5B
102
{ACAD_REACTORS
330
47
102
}
330
47
100
AcDbScale
 70
     0
300
1/32" = 1'-0"
140
0.03125
141
12.0
290
     0
  0
SCALE
  5
5C
102
{ACAD_REACTORS
330
47
102
}
330
47
100
AcDbScale
 70
     0
300
1/16" = 1'-0"
140
0.0625
141
12.0
290
     0
  0
SCALE
  5
5D
102
{ACAD_REACTORS
330
47
102
}
330
47
100
AcDbScale
 70
     0
300
3/32" = 1'-0"
140
0.09375
141
12.0
290
     0
  0
SCALE
  5
5E
102
{ACAD_REACTORS
330
47
102
}
330
47
100
AcDbScale
 70
     0
300
1/8" = 1'-0"
140
0.125
141
12.0
290
     0
  0
SCALE
  5
5F
102
{ACAD_REACTORS
330
47
102
}
330
47
100
AcDbScale
 70
     0
300
3/16" = 1'-0"
140
0.1875
141
12.0
290
     0
  0
SCALE
  5
60
102
{ACAD_REACTORS
330
47
102
}
330
47
100
AcDbScale
 70
     0
300
1/4" = 1'-0"
140
0.25
141
12.0
290
     0
  0
SCALE
  5
61
102
{ACAD_REACTORS
330
47
102
}
330
47
100
AcDbScale
 70
     0
300
3/8" = 1'-0"
140
0.375
141
12.0
290
     0
  0
SCALE
  5
62
102
{ACAD_REACTORS
330
47
102
}
330
47
100
AcDbScale
 70
     0
300
1/2" = 1'-0"
140
0.5
141
12.0
290
     0
  0
SCALE
  5
63
102
{ACAD_REACTORS
330
47
102
}
330
47
100
AcDbScale
 70
     0
300
3/4" = 1'-0"
140
0.75
141
12.0
290
     0
  0
SCALE
  5
64
102
{ACAD_REACTORS
330
47
102
}
330
47
100
AcDbScale
 70
     0
300
1" = 1'-0"
140
1.0
141
12.0
290
     0
  0
SCALE
  5
65
102
{ACAD_REACTORS
330
47
102
}
330
47
100
AcDbScale
 70
     0
300
1-1/2" = 1'-0"
140
1.5
141
12.0
290
     0
  0
SCALE
  5
66
102
{ACAD_REACTORS
330
47
102
}
330
47
100
AcDbScale
 70
     0
300
3" = 1'-0"
140
3.0
141
12.0
290
     0
  0
SCALE
  5
67
102
{ACAD_REACTORS
330
47
102
}
330
47
100
AcDbScale
 70
     0
300
6" = 1'-0"
140
6.0
141
12.0
290
     0
  0
SCALE
  5
68
102
{ACAD_REACTORS
330
47
102
}
330
47
100
AcDbScale
 70
     0
300
1'-0" = 1'-0"
140
12.0
141
12.0
290
     0
  0
TABLESTYLE
  5
6A
102
{ACAD_REACTORS
330
69
102
}
102
{ACAD_XDICTIONARY
360
35F
102
}
330
69
100
AcDbTableStyle
  3
Standard
 70
     0
 71
     0
 40
0.06
 41
0.06
280
     0
281
     0
  7
Standard
140
4.5
170
     2
 62
     0
 63
   257
283
     0
274
    -2
284
     1
 64
     0
275
    -2
285
     1
 65
     0
276
    -2
286
     1
 66
     0
277
    -2
287
     1
 67
     0
278
    -2
288
     1
 68
     0
279
    -2
289
     1
 69
     0
  7
Standard
140
6.0
170
     5
 62
     0
 63
   257
283
     0
274
    -2
284
     1
 64
     0
275
    -2
285
     1
 65
     0
276
    -2
286
     1
 66
     0
277
    -2
287
     1
 67
     0
278
    -2
288
     1
 68
     0
279
    -2
289
     1
 69
     0
  7
Standard
140
4.5
170
     5
 62
     0
 63
   257
283
     0
274
    -2
284
     1
 64
     0
275
    -2
285
     1
 65
     0
276
    -2
286
     1
 66
     0
277
    -2
287
     1
 67
     0
278
    -2
288
     1
 68
     0
279
    -2
289
     1
 69
     0
  0
VISUALSTYLE
  5
2F
102
{ACAD_REACTORS
330
2A
102
}
102
{ACAD_XDICTIONARY
360
331
102
}
330
2A
100
AcDbVisualStyle
  2
2dWireframe
 70
     4
 71
     0
 72
     2
 73
     0
 90
        0
 40
0.6
 41
30.0
 62
     5
 63
     7
421
 16777215
 74
     1
 91
        4
 64
     7
 65
   257
 75
     1
175
     1
 42
1.0
 92
        0
 66
   257
 43
1.0
 76
     1
 77
     6
 78
     2
 67
     7
 79
     5
170
     0
171
     0
290
     0
174
     0
 93
        1
 44
0.0
173
     0
291
     0
 45
0.0
1001
ACAD
1000
AcDbSavedByObjectVersion
1070
     0
  0
VISUALSTYLE
  5
32
102
{ACAD_REACTORS
330
2A
102
}
102
{ACAD_XDICTIONARY
360
337
102
}
330
2A
100
AcDbVisualStyle
  2
Basic
 70
     7
 71
     1
 72
     0
 73
     1
 90
        0
 40
0.6
 41
30.0
 62
     5
 63
     7
421
 16777215
 74
     0
 91
        4
 64
     7
 65
   257
 75
     1
175
     1
 42
1.0
 92
        8
 66
     7
 43
1.0
 76
     1
 77
     6
 78
     2
 67
     7
 79
     5
170
     0
171
     0
290
     0
174
     0
 93
        1
 44
0.0
173
     0
291
     1
 45
0.0
1001
ACAD
1000
AcDbSavedByObjectVersion
1070
     0
  0
VISUALSTYLE
  5
36
102
{ACAD_REACTORS
330
2A
102
}
102
{ACAD_XDICTIONARY
360
33F
102
}
330
2A
100
AcDbVisualStyle
  2
Brighten
 70
    12
 71
     2
 72
     2
 73
     0
 90
        0
 40
0.6
 41
30.0
 62
     5
 63
     7
421
 16777215
 74
     1
 91
        4
 64
     7
 65
   257
 75
     1
175
     1
 42
1.0
 92
        8
 66
     7
 43
1.0
 76
     1
 77
     6
 78
     2
 67
     7
 79
     5
170
     0
171
     0
290
     0
174
     0
 93
        1
 44
50.0
173
     0
291
     1
 45
0.0
1001
ACAD
1000
AcDbSavedByObjectVersion
1070
     0
  0
VISUALSTYLE
  5
3A
102
{ACAD_REACTORS
330
2A
102
}
102
{ACAD_XDICTIONARY
360
347
102
}
330
2A
100
AcDbVisualStyle
  2
ColorChange
 70
    16
 71
     2
 72
     2
 73
     3
 90
        0
 40
0.6
 41
30.0
 62
     5
 63
     8
421
  8421504
 74
     1
 91
        4
 64
     7
 65
   257
 75
     1
175
     1
 42
1.0
 92
        8
 66
     8
424
  8421504
 43
1.0
 76
     1
 77
     6
 78
     2
 67
     7
 79
     5
170
     0
171
     0
290
     0
174
     0
 93
        1
 44
0.0
173
     0
291
     1
 45
0.0
1001
ACAD
1000
AcDbSavedByObjectVersion
1070
     0
  0
VISUALSTYLE
  5
34
102
{ACAD_REACTORS
330
2A
102
}
102
{ACAD_XDICTIONARY
360
33B
102
}
330
2A
100
AcDbVisualStyle
  2
Conceptual
 70
     9
 71
     3
 72
     2
 73
     0
 90
        0
 40
0.6
 41
30.0
 62
     5
 63
     7
421
 16777215
 74
     2
 91
        2
 64
     7
 65
   257
 75
     1
175
     1
 42
179.0
 92
        8
 66
     7
 43
1.0
 76
     1
 77
     6
 78
     2
 67
     7
 79
     3
170
     0
171
     0
290
     0
174
     0
 93
        1
 44
0.0
173
     0
291
     0
 45
0.0
1001
ACAD
1000
AcDbSavedByObjectVersion
1070
     0
  0
VISUALSTYLE
  5
35
102
{ACAD_REACTORS
330
2A
102
}
102
{ACAD_XDICTIONARY
360
33D
102
}
330
2A
100
AcDbVisualStyle
  2
Dim
 70
    11
 71
     2
 72
     2
 73
     0
 90
        0
 40
0.6
 41
30.0
 62
     5
 63
     7
421
 16777215
 74
     1
 91
        4
 64
     7
 65
   257
 75
     1
175
     1
 42
1.0
 92
        8
 66
     7
 43
1.0
 76
     1
 77
     6
 78
     2
 67
     7
 79
     5
170
     0
171
     0
290
     0
174
     0
 93
        1
 44
-50.0
173
     0
291
     1
 45
0.0
1001
ACAD
1000
AcDbSavedByObjectVersion
1070
     0
  0
VISUALSTYLE
  5
3D
102
{ACAD_REACTORS
330
2A
102
}
102
{ACAD_XDICTIONARY
360
34D
102
}
330
2A
100
AcDbVisualStyle
  2
EdgeColorOff
 70
    22
 71
     2
 72
     2
 73
     0
 90
        0
 40
0.6
 41
30.0
 62
     5
 63
     7
421
 16777215
 74
     1
 91
        4
 64
     7
 65
   257
 75
     1
175
     1
 42
1.0
 92
        8
 66
     7
 43
1.0
 76
     1
 77
     6
 78
     2
 67
     7
 79
     5
170
     0
171
     0
290
     0
174
     0
 93
        1
 44
0.0
173
     0
291
     1
 45
0.0
1001
ACAD
1000
AcDbSavedByObjectVersion
1070
     0
  0
VISUALSTYLE
  5
39
102
{ACAD_REACTORS
330
2A
102
}
102
{ACAD_XDICTIONARY
360
345
102
}
330
2A
100
AcDbVisualStyle
  2
Facepattern
 70
    15
 71
     2
 72
     2
 73
     0
 90
        0
 40
0.6
 41
30.0
 62
     5
 63
     7
421
 16777215
 74
     1
 91
        4
 64
     7
 65
   257
 75
     1
175
     1
 42
1.0
 92
        8
 66
     7
 43
1.0
 76
     1
 77
     6
 78
     2
 67
     7
 79
     5
170
     0
171
     0
290
     0
174
     0
 93
        1
 44
0.0
173
     0
291
     1
 45
0.0
1001
ACAD
1000
AcDbSavedByObjectVersion
1070
     0
  0
VISUALSTYLE
  5
2B
102
{ACAD_REACTORS
330
2A
102
}
102
{ACAD_XDICTIONARY
360
329
102
}
330
2A
100
AcDbVisualStyle
  2
Flat
 70
     0
 71
     2
 72
     1
 73
     1
 90
        2
 40
0.6
 41
30.0
 62
     5
 63
     7
421
 16777215
 74
     0
 91
        0
 64
     7
 65
   257
 75
     1
175
     1
 42
1.0
 92
        8
 66
     7
 43
1.0
 76
     1
 77
     6
 78
     2
 67
     7
 79
     5
170
     0
171
     0
290
     0
174
     0
 93
       13
 44
0.0
173
     0
291
     1
 45
0.0
1001
ACAD
1000
AcDbSavedByObjectVersion
1070
     0
  0
VISUALSTYLE
  5
2C
102
{ACAD_REACTORS
330
2A
102
}
102
{ACAD_XDICTIONARY
360
32B
102
}
330
2A
100
AcDbVisualStyle
  2
FlatWithEdges
 70
     1
 71
     2
 72
     1
 73
     1
 90
        2
 40
0.6
 41
30.0
 62
     5
 63
     7
421
 16777215
 74
     1
 91
        0
 64
     7
 65
   257
 75
     1
175
     1
 42
1.0
 92
        0
 66
   257
 43
1.0
 76
     1
 77
     6
 78
     2
 67
     7
 79
     5
170
     0
171
     0
290
     0
174
     0
 93
       13
 44
0.0
173
     0
291
     1
 45
0.0
1001
ACAD
1000
AcDbSavedByObjectVersion
1070
     0
  0
VISUALSTYLE
  5
2D
102
{ACAD_REACTORS
330
2A
102
}
102
{ACAD_XDICTIONARY
360
32D
102
}
330
2A
100
AcDbVisualStyle
  2
Gouraud
 70
     2
 71
     2
 72
     2
 73
     1
 90
        2
 40
0.6
 41
30.0
 62
     5
 63
     7
421
 16777215
 74
     0
 91
        0
 64
     7
 65
   257
 75
     1
175
     1
 42
1.0
 92
        0
 66
     7
 43
1.0
 76
     1
 77
     6
 78
     2
 67
     7
 79
     5
170
     0
171
     0
290
     0
174
     0
 93
       13
 44
0.0
173
     0
291
     1
 45
0.0
1001
ACAD
1000
AcDbSavedByObjectVersion
1070
     0
  0
VISUALSTYLE
  5
2E
102
{ACAD_REACTORS
330
2A
102
}
102
{ACAD_XDICTIONARY
360
32F
102
}
330
2A
100
AcDbVisualStyle
  2
GouraudWithEdges
 70
     3
 71
     2
 72
     2
 73
     1
 90
        2
 40
0.6
 41
30.0
 62
     5
 63
     7
421
 16777215
 74
     1
 91
        0
 64
     7
 65
   257
 75
     1
175
     1
 42
1.0
 92
        0
 66
   257
 43
1.0
 76
     1
 77
     6
 78
     2
 67
     7
 79
     5
170
     0
171
     0
290
     0
174
     0
 93
       13
 44
0.0
173
     0
291
     1
 45
0.0
1001
ACAD
1000
AcDbSavedByObjectVersion
1070
     0
  0
VISUALSTYLE
  5
31
102
{ACAD_REACTORS
330
2A
102
}
102
{ACAD_XDICTIONARY
360
335
102
}
330
2A
100
AcDbVisualStyle
  2
Hidden
 70
     6
 71
     1
 72
     2
 73
     2
 90
        0
 40
0.6
 41
30.0
 62
     5
 63
     7
421
 16777215
 74
     2
 91
        2
 64
     7
 65
   257
 75
     2
175
     1
 42
40.0
 92
        0
 66
   257
 43
1.0
 76
     1
 77
     6
 78
     2
 67
     7
 79
     3
170
     0
171
     0
290
     0
174
     0
 93
        1
 44
0.0
173
     0
291
     0
 45
0.0
1001
ACAD
1000
AcDbSavedByObjectVersion
1070
     0
  0
VISUALSTYLE
  5
3B
102
{ACAD_REACTORS
330
2A
102
}
102
{ACAD_XDICTIONARY
360
349
102
}
330
2A
100
AcDbVisualStyle
  2
JitterOff
 70
    20
 71
     2
 72
     2
 73
     0
 90
        0
 40
0.6
 41
30.0
 62
     5
 63
     7
421
 16777215
 74
     1
 91
        4
 64
     7
 65
   257
 75
     1
175
     1
 42
1.0
 92
       10
 66
     7
 43
1.0
 76
     1
 77
     6
 78
     2
 67
     7
 79
     5
170
     0
171
     0
290
     0
174
     0
 93
        1
 44
0.0
173
     0
291
     1
 45
0.0
1001
ACAD
1000
AcDbSavedByObjectVersion
1070
     0
  0
VISUALSTYLE
  5
38
102
{ACAD_REACTORS
330
2A
102
}
102
{ACAD_XDICTIONARY
360
343
102
}
330
2A
100
AcDbVisualStyle
  2
Linepattern
 70
    14
 71
     2
 72
     2
 73
     0
 90
        0
 40
0.6
 41
30.0
 62
     5
 63
     7
421
 16777215
 74
     1
 91
        4
 64
     7
 65
   257
 75
     7
175
     7
 42
1.0
 92
        8
 66
     7
 43
1.0
 76
     1
 77
     6
 78
     2
 67
     7
 79
     5
170
     0
171
     0
290
     0
174
     0
 93
        1
 44
0.0
173
     0
291
     1
 45
0.0
1001
ACAD
1000
AcDbSavedByObjectVersion
1070
     0
  0
VISUALSTYLE
  5
3C
102
{ACAD_REACTORS
330
2A
102
}
102
{ACAD_XDICTIONARY
360
34B
102
}
330
2A
100
AcDbVisualStyle
  2
OverhangOff
 70
    21
 71
     2
 72
     2
 73
     0
 90
        0
 40
0.6
 41
30.0
 62
     5
 63
     7
421
 16777215
 74
     1
 91
        4
 64
     7
 65
   257
 75
     1
175
     1
 42
1.0
 92
        9
 66
     7
 43
1.0
 76
     1
 77
     6
 78
     2
 67
     7
 79
     5
170
     0
171
     0
290
     0
174
     0
 93
        1
 44
0.0
173
     0
291
     1
 45
0.0
1001
ACAD
1000
AcDbSavedByObjectVersion
1070
     0
  0
VISUALSTYLE
  5
33
102
{ACAD_REACTORS
330
2A
102
}
102
{ACAD_XDICTIONARY
360
339
102
}
330
2A
100
AcDbVisualStyle
  2
Realistic
 70
     8
 71
     2
 72
     3
 73
     0
 90
        2
 40
0.6
 41
30.0
 62
     5
 63
     7
421
 16777215
 74
     0
 91
        0
 64
     7
 65
   257
 75
     1
175
     1
 42
1.0
 92
        8
 66
   257
 43
1.0
 76
     1
 77
     6
 78
     2
 67
     7
 79
     3
170
     0
171
     0
290
     0
174
     0
 93
       13
 44
0.0
173
     0
291
     0
 45
0.0
1001
ACAD
1000
AcDbSavedByObjectVersion
1070
     0
  0
VISUALSTYLE
  5
42
102
{ACAD_REACTORS
330
2A
102
}
102
{ACAD_XDICTIONARY
360
357
102
}
330
2A
100
AcDbVisualStyle
  2
Shaded
 70
    27
 71
     2
 72
     2
 73
     1
 90
        2
 40
0.6
 41
30.0
 62
     5
 63
     7
421
 16777215
 74
     0
 91
        4
 64
     7
 65
   257
 75
     1
175
     1
 42
1.0
 92
        8
 66
   257
 43
1.0
 76
     1
 77
     6
 78
     2
 67
     8
425
  7895160
 79
     3
170
     0
171
     0
290
     0
174
     0
 93
        5
 44
0.0
173
     0
291
     0
 45
0.0
1001
ACAD
1000
AcDbSavedByObjectVersion
1070
     0
  0
VISUALSTYLE
  5
41
102
{ACAD_REACTORS
330
2A
102
}
102
{ACAD_XDICTIONARY
360
355
102
}
330
2A
100
AcDbVisualStyle
  2
Shaded with edges
 70
    26
 71
     2
 72
     2
 73
     1
 90
        2
 40
0.6
 41
30.0
 62
     5
 63
     7
421
 16777215
 74
     1
 91
       10
 64
     7
 65
   257
 75
     2
175
     1
 42
1.0
 92
        8
 66
   257
 43
1.0
 76
     1
 77
     6
 78
     2
 67
     7
 79
     3
170
     0
171
     0
290
     0
174
     0
 93
        5
 44
0.0
173
     0
291
     0
 45
0.0
1001
ACAD
1000
AcDbSavedByObjectVersion
1070
     0
  0
VISUALSTYLE
  5
3E
102
{ACAD_REACTORS
330
2A
102
}
102
{ACAD_XDICTIONARY
360
34F
102
}
330
2A
100
AcDbVisualStyle
  2
Shades of Gray
 70
    23
 71
     2
 72
     2
 73
     3
 90
        0
 40
0.6
 41
30.0
 62
     5
 63
     7
421
 16777215
 74
     2
 91
        2
 64
     7
 65
     7
 75
     1
175
     1
 42
40.0
 92
        8
 66
     7
 43
1.0
 76
     1
 77
     6
 78
     2
 67
     7
 79
     3
170
     0
171
     0
290
     0
174
     0
 93
        1
 44
0.0
173
     0
291
     0
 45
0.0
1001
ACAD
1000
AcDbSavedByObjectVersion
1070
     0
  0
VISUALSTYLE
  5
3F
102
{ACAD_REACTORS
330
2A
102
}
102
{ACAD_XDICTIONARY
360
351
102
}
330
2A
100
AcDbVisualStyle
  2
Sketchy
 70
    24
 71
     1
 72
     2
 73
     2
 90
        0
 40
0.6
 41
30.0
 62
     5
 63
     7
421
 16777215
 74
     2
 91
        2
 64
     7
 65
     7
 75
     1
175
     1
 42
40.0
 92
       11
 66
     7
 43
1.0
 76
     1
 77
     6
 78
     2
 67
     7
 79
     6
170
     0
171
     0
290
     0
174
     0
 93
        1
 44
0.0
173
     0
291
     0
 45
0.0
1001
ACAD
1000
AcDbSavedByObjectVersion
1070
     0
  0
VISUALSTYLE
  5
37
102
{ACAD_REACTORS
330
2A
102
}
102
{ACAD_XDICTIONARY
360
341
102
}
330
2A
100
AcDbVisualStyle
  2
Thicken
 70
    13
 71
     2
 72
     2
 73
     0
 90
        0
 40
0.6
 41
30.0
 62
     5
 63
     7
421
 16777215
 74
     1
 91
        4
 64
     7
 65
   257
 75
     1
175
     1
 42
1.0
 92
       12
 66
     7
 43
1.0
 76
     1
 77
     6
 78
     2
 67
     7
 79
     5
170
     0
171
     0
290
     0
174
     0
 93
        1
 44
0.0
173
     0
291
     1
 45
0.0
1001
ACAD
1000
AcDbSavedByObjectVersion
1070
     0
  0
VISUALSTYLE
  5
30
102
{ACAD_REACTORS
330
2A
102
}
102
{ACAD_XDICTIONARY
360
333
102
}
330
2A
100
AcDbVisualStyle
  2
Wireframe
 70
     5
 71
     0
 72
     2
 73
     0
 90
        0
 40
0.6
 41
30.0
 62
     5
 63
     7
421
 16777215
 74
     1
 91
        4
 64
     7
 65
   257
 75
     1
175
     1
 42
1.0
 92
        0
 66
   257
 43
1.0
 76
     1
 77
     6
 78
     2
 67
     7
 79
     3
170
     0
171
     0
290
     0
174
     0
 93
        1
 44
0.0
173
     0
291
     0
 45
0.0
1001
ACAD
1000
AcDbSavedByObjectVersion
1070
     0
  0
VISUALSTYLE
  5
40
102
{ACAD_REACTORS
330
2A
102
}
102
{ACAD_XDICTIONARY
360
353
102
}
330
2A
100
AcDbVisualStyle
  2
X-Ray
 70
    25
 71
     2
 72
     2
 73
     1
 90
        1
 40
0.5
 41
30.0
 62
     5
 63
     7
421
 16777215
 74
     1
 91
        0
 64
     7
 65
   257
 75
     1
175
     1
 42
1.0
 92
        8
 66
     7
 43
1.0
 76
     1
 77
     6
 78
     2
 67
     7
 79
     3
170
     0
171
     0
290
     0
174
     0
 93
       13
 44
0.0
173
     0
291
     0
 45
0.0
1001
ACAD
1000
AcDbSavedByObjectVersion
1070
     0
  0
DICTIONARYVAR
  5
326
102
{ACAD_REACTORS
330
325
102
}
330
325
100
DictionaryVariables
280
     0
  1
1:1
  0
DICTIONARYVAR
  5
36A
102
{ACAD_REACTORS
330
325
102
}
330
325
100
DictionaryVariables
280
     0
  1
3.500000
  0
DICTIONARYVAR
  5
36B
102
{ACAD_REACTORS
330
325
102
}
330
325
100
DictionaryVariables
280
     0
  1
acadiso.lin
  0
DICTIONARYVAR
  5
367
102
{ACAD_REACTORS
330
325
102
}
330
325
100
DictionaryVariables
280
     0
  1
Standard
  0
DICTIONARYVAR
  5
366
102
{ACAD_REACTORS
330
325
102
}
330
325
100
DictionaryVariables
280
     0
  1
Standard
  0
DICTIONARYVAR
  5
327
102
{ACAD_REACTORS
330
325
102
}
330
325
100
DictionaryVariables
280
     0
  1
1
  0
DICTIONARYVAR
  5
328
102
{ACAD_REACTORS
330
325
102
}
330
325
100
DictionaryVariables
280
     0
  1
2
  0
DICTIONARY
  5
35B
330
45
100
AcDbDictionary
280
     1
281
     1
  3
ACAD_XREC_ROUNDTRIP
360
35C
  0
DICTIONARY
  5
359
330
44
100
AcDbDictionary
280
     1
281
     1
  3
ACAD_XREC_ROUNDTRIP
360
35A
  0
DICTIONARY
  5
35D
330
46
100
AcDbDictionary
280
     1
281
     1
  3
ACAD_XREC_ROUNDTRIP
360
35E
  0
DICTIONARY
  5
363
330
6C
100
AcDbDictionary
280
     1
281
     1
  3
ACAD_XREC_ROUNDTRIP
360
364
  0
DICTIONARY
  5
35F
330
6A
100
AcDbDictionary
280
     1
281
     1
  3
ACAD_ROUNDTRIP_2008_TABLESTYLE_CELLSTYLEMAP
360
361
  3
ACAD_XREC_ROUNDTRIP
360
360
  0
DICTIONARY
  5
331
330
2F
100
AcDbDictionary
280
     1
281
     1
  3
ACAD_XREC_ROUNDTRIP
360
332
  0
DICTIONARY
  5
337
330
32
100
AcDbDictionary
280
     1
281
     1
  3
ACAD_XREC_ROUNDTRIP
360
338
  0
DICTIONARY
  5
33F
330
36
100
AcDbDictionary
280
     1
281
     1
  3
ACAD_XREC_ROUNDTRIP
360
340
  0
DICTIONARY
  5
347
330
3A
100
AcDbDictionary
280
     1
281
     1
  3
ACAD_XREC_ROUNDTRIP
360
348
  0
DICTIONARY
  5
33B
330
34
100
AcDbDictionary
280
     1
281
     1
  3
ACAD_XREC_ROUNDTRIP
360
33C
  0
DICTIONARY
  5
33D
330
35
100
AcDbDictionary
280
     1
281
     1
  3
ACAD_XREC_ROUNDTRIP
360
33E
  0
DICTIONARY
  5
34D
330
3D
100
AcDbDictionary
280
     1
281
     1
  3
ACAD_XREC_ROUNDTRIP
360
34E
  0
DICTIONARY
  5
345
330
39
100
AcDbDictionary
280
     1
281
     1
  3
ACAD_XREC_ROUNDTRIP
360
346
  0
DICTIONARY
  5
329
330
2B
100
AcDbDictionary
280
     1
281
     1
  3
ACAD_XREC_ROUNDTRIP
360
32A
  0
DICTIONARY
  5
32B
330
2C
100
AcDbDictionary
280
     1
281
     1
  3
ACAD_XREC_ROUNDTRIP
360
32C
  0
DICTIONARY
  5
32D
330
2D
100
AcDbDictionary
280
     1
281
     1
  3
ACAD_XREC_ROUNDTRIP
360
32E
  0
DICTIONARY
  5
32F
330
2E
100
AcDbDictionary
280
     1
281
     1
  3
ACAD_XREC_ROUNDTRIP
360
330
  0
DICTIONARY
  5
335
330
31
100
AcDbDictionary
280
     1
281
     1
  3
ACAD_XREC_ROUNDTRIP
360
336
  0
DICTIONARY
  5
349
330
3B
100
AcDbDictionary
280
     1
281
     1
  3
ACAD_XREC_ROUNDTRIP
360
34A
  0
DICTIONARY
  5
343
330
38
100
AcDbDictionary
280
     1
281
     1
  3
ACAD_XREC_ROUNDTRIP
360
344
  0
DICTIONARY
  5
34B
330
3C
100
AcDbDictionary
280
     1
281
     1
  3
ACAD_XREC_ROUNDTRIP
360
34C
  0
DICTIONARY
  5
339
330
33
100
AcDbDictionary
280
     1
281
     1
  3
ACAD_XREC_ROUNDTRIP
360
33A
  0
DICTIONARY
  5
357
330
42
100
AcDbDictionary
280
     1
281
     1
  3
ACAD_XREC_ROUNDTRIP
360
358
  0
DICTIONARY
  5
355
330
41
100
AcDbDictionary
280
     1
281
     1
  3
ACAD_XREC_ROUNDTRIP
360
356
  0
DICTIONARY
  5
34F
330
3E
100
AcDbDictionary
280
     1
281
     1
  3
ACAD_XREC_ROUNDTRIP
360
350
  0
DICTIONARY
  5
351
330
3F
100
AcDbDictionary
280
     1
281
     1
  3
ACAD_XREC_ROUNDTRIP
360
352
  0
DICTIONARY
  5
341
330
37
100
AcDbDictionary
280
     1
281
     1
  3
ACAD_XREC_ROUNDTRIP
360
342
  0
DICTIONARY
  5
333
330
30
100
AcDbDictionary
280
     1
281
     1
  3
ACAD_XREC_ROUNDTRIP
360
334
  0
DICTIONARY
  5
353
330
40
100
AcDbDictionary
280
     1
281
     1
  3
ACAD_XREC_ROUNDTRIP
360
354
  0
XRECORD
  5
35C
102
{ACAD_REACTORS
330
35B
102
}
330
35B
100
AcDbXrecord
280
     1
102
MATERIAL
148
0.0
149
0.0
149
0.0
 93
        0
 94
      127
282
     0
 72
     1
 77
     1
171
     1
175
     1
179
     1
273
     0
  0
XRECORD
  5
35A
102
{ACAD_REACTORS
330
359
102
}
330
359
100
AcDbXrecord
280
     1
102
MATERIAL
148
0.0
149
0.0
149
0.0
 93
        0
 94
      127
282
     0
 72
     1
 77
     1
171
     1
175
     1
179
     1
273
     0
  0
XRECORD
  5
35E
102
{ACAD_REACTORS
330
35D
102
}
330
35D
100
AcDbXrecord
280
     1
102
MATERIAL
148
0.0
149
0.0
149
0.0
 93
        0
 94
      127
282
     0
 72
     1
 77
     1
171
     1
175
     1
179
     1
273
     0
  0
XRECORD
  5
364
102
{ACAD_REACTORS
330
363
102
}
330
363
100
AcDbXrecord
280
     1
102
ACAD_ROUNDTRIP_2010_MLEADER_STYLE
  0
CELLSTYLEMAP
  5
361
102
{ACAD_REACTORS
330
35F
102
}
330
35F
100
AcDbCellStyleMap
 90
        3
300
CELLSTYLE
  1
TABLEFORMAT_BEGIN
 90
        5
170
     1
 91
        0
 92
    32768
 62
   257
 93
        1
300
CONTENTFORMAT
  1
CONTENTFORMAT_BEGIN
 90
        0
 91
        0
 92
        4
 93
        0
300

 40
0.0
140
1.0
 94
        5
 62
     0
340
11
144
6.0
309
CONTENTFORMAT_END
171
     1
301
MARGIN
  1
CELLMARGIN_BEGIN
 40
1.5
 40
1.5
 40
1.5
 40
1.5
 40
1.5
 40
1.5
309
CELLMARGIN_END
 94
        6
 95
        1
302
GRIDFORMAT
  1
GRIDFORMAT_BEGIN
 90
        0
 91
        1
 62
     0
 92
       -2
340
14
 93
        0
 40
0.045
309
GRIDFORMAT_END
 95
        2
302
GRIDFORMAT
  1
GRIDFORMAT_BEGIN
 90
        0
 91
        1
 62
     0
 92
       -2
340
14
 93
        0
 40
0.045
309
GRIDFORMAT_END
 95
        4
302
GRIDFORMAT
  1
GRIDFORMAT_BEGIN
 90
        0
 91
        1
 62
     0
 92
       -2
340
14
 93
        0
 40
0.045
309
GRIDFORMAT_END
 95
        8
302
GRIDFORMAT
  1
GRIDFORMAT_BEGIN
 90
        0
 91
        1
 62
     0
 92
       -2
340
14
 93
        0
 40
0.045
309
GRIDFORMAT_END
 95
       16
302
GRIDFORMAT
  1
GRIDFORMAT_BEGIN
 90
        0
 91
        1
 62
     0
 92
       -2
340
14
 93
        0
 40
0.045
309
GRIDFORMAT_END
 95
       32
302
GRIDFORMAT
  1
GRIDFORMAT_BEGIN
 90
        0
 91
        1
 62
     0
 92
       -2
340
14
 93
        0
 40
0.045
309
GRIDFORMAT_END
309
TABLEFORMAT_END
  1
CELLSTYLE_BEGIN
 90
        1
 91
        1
300
_TITLE
309
CELLSTYLE_END
300
CELLSTYLE
  1
TABLEFORMAT_BEGIN
 90
        5
170
     1
 91
        0
 92
        0
 62
   257
 93
        1
300
CONTENTFORMAT
  1
CONTENTFORMAT_BEGIN
 90
        0
 91
        0
 92
        4
 93
        0
300

 40
0.0
140
1.0
 94
        5
 62
     0
340
11
144
4.5
309
CONTENTFORMAT_END
171
     1
301
MARGIN
  1
CELLMARGIN_BEGIN
 40
1.5
 40
1.5
 40
1.5
 40
1.5
 40
1.5
 40
1.5
309
CELLMARGIN_END
 94
        6
 95
        1
302
GRIDFORMAT
  1
GRIDFORMAT_BEGIN
 90
        0
 91
        1
 62
     0
 92
       -2
340
14
 93
        0
 40
0.045
309
GRIDFORMAT_END
 95
        2
302
GRIDFORMAT
  1
GRIDFORMAT_BEGIN
 90
        0
 91
        1
 62
     0
 92
       -2
340
14
 93
        0
 40
0.045
309
GRIDFORMAT_END
 95
        4
302
GRIDFORMAT
  1
GRIDFORMAT_BEGIN
 90
        0
 91
        1
 62
     0
 92
       -2
340
14
 93
        0
 40
0.045
309
GRIDFORMAT_END
 95
        8
302
GRIDFORMAT
  1
GRIDFORMAT_BEGIN
 90
        0
 91
        1
 62
     0
 92
       -2
340
14
 93
        0
 40
0.045
309
GRIDFORMAT_END
 95
       16
302
GRIDFORMAT
  1
GRIDFORMAT_BEGIN
 90
        0
 91
        1
 62
     0
 92
       -2
340
14
 93
        0
 40
0.045
309
GRIDFORMAT_END
 95
       32
302
GRIDFORMAT
  1
GRIDFORMAT_BEGIN
 90
        0
 91
        1
 62
     0
 92
       -2
340
14
 93
        0
 40
0.045
309
GRIDFORMAT_END
309
TABLEFORMAT_END
  1
CELLSTYLE_BEGIN
 90
        2
 91
        1
300
_HEADER
309
CELLSTYLE_END
300
CELLSTYLE
  1
TABLEFORMAT_BEGIN
 90
        5
170
     1
 91
        0
 92
        0
 62
   257
 93
        1
300
CONTENTFORMAT
  1
CONTENTFORMAT_BEGIN
 90
        0
 91
        0
 92
        4
 93
        0
300

 40
0.0
140
1.0
 94
        2
 62
     0
340
11
144
4.5
309
CONTENTFORMAT_END
171
     1
301
MARGIN
  1
CELLMARGIN_BEGIN
 40
1.5
 40
1.5
 40
1.5
 40
1.5
 40
1.5
 40
1.5
309
CELLMARGIN_END
 94
        6
 95
        1
302
GRIDFORMAT
  1
GRIDFORMAT_BEGIN
 90
        0
 91
        1
 62
     0
 92
       -2
340
14
 93
        0
 40
0.045
309
GRIDFORMAT_END
 95
        2
302
GRIDFORMAT
  1
GRIDFORMAT_BEGIN
 90
        0
 91
        1
 62
     0
 92
       -2
340
14
 93
        0
 40
0.045
309
GRIDFORMAT_END
 95
        4
302
GRIDFORMAT
  1
GRIDFORMAT_BEGIN
 90
        0
 91
        1
 62
     0
 92
       -2
340
14
 93
        0
 40
0.045
309
GRIDFORMAT_END
 95
        8
302
GRIDFORMAT
  1
GRIDFORMAT_BEGIN
 90
        0
 91
        1
 62
     0
 92
       -2
340
14
 93
        0
 40
0.045
309
GRIDFORMAT_END
 95
       16
302
GRIDFORMAT
  1
GRIDFORMAT_BEGIN
 90
        0
 91
        1
 62
     0
 92
       -2
340
14
 93
        0
 40
0.045
309
GRIDFORMAT_END
 95
       32
302
GRIDFORMAT
  1
GRIDFORMAT_BEGIN
 90
        0
 91
        1
 62
     0
 92
       -2
340
14
 93
        0
 40
0.045
309
GRIDFORMAT_END
309
TABLEFORMAT_END
  1
CELLSTYLE_BEGIN
 90
        3
 91
        2
300
_DATA
309
CELLSTYLE_END
  0
XRECORD
  5
360
102
{ACAD_REACTORS
330
35F
102
}
330
35F
100
AcDbXrecord
280
     1
102
ACAD_ROUNDTRIP_PRE2007_TABLESTYLE
 90
        4
 91
        0
  1

 92
        4
 93
        0
  2

 94
        4
 95
        0
  3

  0
XRECORD
  5
332
102
{ACAD_REACTORS
330
331
102
}
330
331
100
AcDbXrecord
280
     1
102
RTVSPropertyOp0
 70
     1
102
RTVSPropertyOp1
 70
     1
102
RTVSPropertyOp2
 70
     1
102
RTVSPropertyOp3
 70
     1
102
RTVSPropertyOp4
 70
     1
102
RTVSPropertyOp5
 70
     1
102
RTVSPropertyOp6
 70
     1
102
RTVSPropertyOp7
 70
     1
102
RTVSPropertyOp8
 70
     1
102
RTVSPropertyOp9
 70
     1
102
RTVSPropertyOp10
 70
     1
102
RTVSPropertyOp11
 70
     1
102
RTVSPropertyOp12
 70
     1
102
RTVSPropertyOp13
 70
     1
102
RTVSPropertyOp14
 70
     1
102
RTVSPropertyOp15
 70
     1
102
RTVSPropertyOp16
 70
     1
102
RTVSPropertyOp17
 70
     1
102
RTVSPropertyOp18
 70
     1
102
RTVSPropertyOp19
 70
     1
102
RTVSPropertyOp20
 70
     1
102
RTVSPropertyOp21
 70
     1
102
RTVSPropertyOp22
 70
     1
102
RTVSPropertyOp23
 70
     1
102
RTVSPropertyOp24
 70
     1
102
RTVSPropertyOp25
 70
     1
102
RTVSPropertyOp26
 70
     1
102
RTVSPropertyOp27
 70
     1
102
RTVSPropertyOp28
 70
     1
102
RTVSPropertyOp29
 70
     1
102
RTVSPropertyOp30
 70
     1
102
RTVSPropertyOp31
 70
     1
102
RTVSPropertyOp32
 70
     1
102
RTVSPropertyOp33
 70
     1
102
RTVSPropertyOp34
 70
     1
102
RTVSPropertyOp35
 70
     1
102
RTVSPropertyOp36
 70
     1
102
RTVSPropertyOp37
 70
     1
102
RTVSPropertyOp38
 70
     1
102
RTVSPropertyOp39
 70
     1
102
RTVSPropertyOp40
 70
     1
102
RTVSPropertyOp41
 70
     1
102
RTVSPropertyOp42
 70
     1
102
RTVSPropertyOp43
 70
     1
102
RTVSPropertyOp44
 70
     1
102
RTVSPropertyOp45
 70
     1
102
RTVSPropertyOp46
 70
     1
102
RTVSPropertyOp47
 70
     1
102
RTVSPropertyOp48
 70
     1
102
RTVSPropertyOp49
 70
     1
102
RTVSPropertyOp50
 70
     1
102
RTVSPropertyOp51
 70
     0
102
RTVSPropertyOp52
 70
     0
102
RTVSPropertyOp53
 70
     1
102
RTVSPropertyOp54
 70
     1
102
RTVSPropertyOp55
 70
     1
102
RTVSPropertyOp56
 70
     1
102
RTVSPropertyOp57
 70
     1
102
RTVSPost2010Prop28
280
     1
102
RTVSPost2010PropOp28
 70
     1
102
RTVSPost2010Prop29
280
     1
102
RTVSPost2010PropOp29
 70
     1
102
RTVSPost2010Prop30
280
     0
102
RTVSPost2010PropOp30
 70
     1
102
RTVSPost2010Prop31
280
     0
102
RTVSPost2010PropOp31
 70
     1
102
RTVSPost2010Prop32
280
     0
102
RTVSPost2010PropOp32
 70
     1
102
RTVSPost2010Prop33
280
     0
102
RTVSPost2010PropOp33
 70
     1
102
RTVSPost2010Prop34
280
     0
102
RTVSPost2010PropOp34
 70
     1
102
RTVSPost2010Prop35
280
     0
102
RTVSPost2010PropOp35
 70
     1
102
RTVSPost2010Prop36
280
     0
102
RTVSPost2010PropOp36
 70
     1
102
RTVSPost2010Prop37
 90
       50
102
RTVSPost2010PropOp37
 70
     1
102
RTVSPost2010Prop38
140
0.0
102
RTVSPost2010PropOp38
 70
     1
102
RTVSPost2010Prop39
140
1.0
102
RTVSPost2010PropOp39
 70
     1
102
RTVSPost2010Prop40
 90
        0
102
RTVSPost2010PropOp40
 70
     1
102
RTVSPost2010Prop41ColorIndex
 90
       18
102
RTVSPost2010Prop41ColorRGB
 90
        0
102
RTVSPost2010PropOp41
 70
     1
102
RTVSPost2010Prop42
 90
       50
102
RTVSPost2010PropOp42
 70
     1
102
RTVSPost2010Prop43
 90
        3
102
RTVSPost2010PropOp43
 70
     1
102
RTVSPost2010Prop44ColorIndex
 90
        5
102
RTVSPost2010Prop44ColorRGB
 90
      255
102
RTVSPost2010PropOp44
 70
     1
102
RTVSPost2010Prop45
280
     0
102
RTVSPost2010PropOp45
 70
     1
102
RTVSPost2010Prop46
 90
       50
102
RTVSPost2010PropOp46
 70
     1
102
RTVSPost2010Prop47
 90
       50
102
RTVSPost2010PropOp47
 70
     1
102
RTVSPost2010Prop48
 90
       50
102
RTVSPost2010PropOp48
 70
     1
102
RTVSPost2010Prop49
280
     0
102
RTVSPost2010PropOp49
 70
     1
102
RTVSPost2010Prop50
 90
       50
102
RTVSPost2010PropOp50
 70
     1
102
RTVSPost2010Prop51ColorIndex
 90
      256
102
RTVSPost2010Prop51ColorRGB
 90
-16777216
102
RTVSPost2010PropOp51
 70
     0
102
RTVSPost2010Prop52
140
1.0
102
RTVSPost2010PropOp52
 70
     0
102
RTVSPost2010Prop53
 90
        2
102
RTVSPost2010PropOp53
 70
     1
102
RTVSPost2010Prop54
  1
strokes_ogs.tif
102
RTVSPost2010PropOp54
 70
     1
102
RTVSPost2010Prop55
280
     0
102
RTVSPost2010PropOp55
 70
     1
102
RTVSPost2010Prop56
140
1.0
102
RTVSPost2010PropOp56
 70
     1
102
RTVSPost2010Prop57
140
1.0
102
RTVSPost2010PropOp57
 70
     1
  0
XRECORD
  5
338
102
{ACAD_REACTORS
330
337
102
}
330
337
100
AcDbXrecord
280
     1
102
RTVSPropertyOp0
 70
     1
102
RTVSPropertyOp1
 70
     1
102
RTVSPropertyOp2
 70
     1
102
RTVSPropertyOp3
 70
     1
102
RTVSPropertyOp4
 70
     1
102
RTVSPropertyOp5
 70
     1
102
RTVSPropertyOp6
 70
     1
102
RTVSPropertyOp7
 70
     1
102
RTVSPropertyOp8
 70
     1
102
RTVSPropertyOp9
 70
     1
102
RTVSPropertyOp10
 70
     1
102
RTVSPropertyOp11
 70
     1
102
RTVSPropertyOp12
 70
     1
102
RTVSPropertyOp13
 70
     1
102
RTVSPropertyOp14
 70
     1
102
RTVSPropertyOp15
 70
     1
102
RTVSPropertyOp16
 70
     1
102
RTVSPropertyOp17
 70
     1
102
RTVSPropertyOp18
 70
     1
102
RTVSPropertyOp19
 70
     1
102
RTVSPropertyOp20
 70
     1
102
RTVSPropertyOp21
 70
     1
102
RTVSPropertyOp22
 70
     1
102
RTVSPropertyOp23
 70
     1
102
RTVSPropertyOp24
 70
     1
102
RTVSPropertyOp25
 70
     1
102
RTVSPropertyOp26
 70
     1
102
RTVSPropertyOp27
 70
     1
102
RTVSPropertyOp28
 70
     1
102
RTVSPropertyOp29
 70
     1
102
RTVSPropertyOp30
 70
     1
102
RTVSPropertyOp31
 70
     1
102
RTVSPropertyOp32
 70
     1
102
RTVSPropertyOp33
 70
     1
102
RTVSPropertyOp34
 70
     1
102
RTVSPropertyOp35
 70
     1
102
RTVSPropertyOp36
 70
     1
102
RTVSPropertyOp37
 70
     1
102
RTVSPropertyOp38
 70
     1
102
RTVSPropertyOp39
 70
     1
102
RTVSPropertyOp40
 70
     1
102
RTVSPropertyOp41
 70
     1
102
RTVSPropertyOp42
 70
     1
102
RTVSPropertyOp43
 70
     1
102
RTVSPropertyOp44
 70
     1
102
RTVSPropertyOp45
 70
     1
102
RTVSPropertyOp46
 70
     1
102
RTVSPropertyOp47
 70
     1
102
RTVSPropertyOp48
 70
     1
102
RTVSPropertyOp49
 70
     1
102
RTVSPropertyOp50
 70
     1
102
RTVSPropertyOp51
 70
     0
102
RTVSPropertyOp52
 70
     0
102
RTVSPropertyOp53
 70
     1
102
RTVSPropertyOp54
 70
     1
102
RTVSPropertyOp55
 70
     1
102
RTVSPropertyOp56
 70
     1
102
RTVSPropertyOp57
 70
     1
102
RTVSPost2010Prop28
280
     0
102
RTVSPost2010PropOp28
 70
     1
102
RTVSPost2010Prop29
280
     1
102
RTVSPost2010PropOp29
 70
     1
102
RTVSPost2010Prop30
280
     1
102
RTVSPost2010PropOp30
 70
     1
102
RTVSPost2010Prop31
280
     0
102
RTVSPost2010PropOp31
 70
     1
102
RTVSPost2010Prop32
280
     0
102
RTVSPost2010PropOp32
 70
     1
102
RTVSPost2010Prop33
280
     0
102
RTVSPost2010PropOp33
 70
     1
102
RTVSPost2010Prop34
280
     0
102
RTVSPost2010PropOp34
 70
     1
102
RTVSPost2010Prop35
280
     0
102
RTVSPost2010PropOp35
 70
     1
102
RTVSPost2010Prop36
280
     0
102
RTVSPost2010PropOp36
 70
     1
102
RTVSPost2010Prop37
 90
       50
102
RTVSPost2010PropOp37
 70
     1
102
RTVSPost2010Prop38
140
0.0
102
RTVSPost2010PropOp38
 70
     1
102
RTVSPost2010Prop39
140
1.0
102
RTVSPost2010PropOp39
 70
     1
102
RTVSPost2010Prop40
 90
        0
102
RTVSPost2010PropOp40
 70
     1
102
RTVSPost2010Prop41ColorIndex
 90
       18
102
RTVSPost2010Prop41ColorRGB
 90
        0
102
RTVSPost2010PropOp41
 70
     1
102
RTVSPost2010Prop42
 90
       50
102
RTVSPost2010PropOp42
 70
     1
102
RTVSPost2010Prop43
 90
        3
102
RTVSPost2010PropOp43
 70
     1
102
RTVSPost2010Prop44ColorIndex
 90
        5
102
RTVSPost2010Prop44ColorRGB
 90
      255
102
RTVSPost2010PropOp44
 70
     1
102
RTVSPost2010Prop45
280
     0
102
RTVSPost2010PropOp45
 70
     1
102
RTVSPost2010Prop46
 90
       50
102
RTVSPost2010PropOp46
 70
     1
102
RTVSPost2010Prop47
 90
       50
102
RTVSPost2010PropOp47
 70
     1
102
RTVSPost2010Prop48
 90
       50
102
RTVSPost2010PropOp48
 70
     1
102
RTVSPost2010Prop49
280
     0
102
RTVSPost2010PropOp49
 70
     1
102
RTVSPost2010Prop50
 90
       50
102
RTVSPost2010PropOp50
 70
     1
102
RTVSPost2010Prop51ColorIndex
 90
      256
102
RTVSPost2010Prop51ColorRGB
 90
-16777216
102
RTVSPost2010PropOp51
 70
     0
102
RTVSPost2010Prop52
140
1.0
102
RTVSPost2010PropOp52
 70
     0
102
RTVSPost2010Prop53
 90
        2
102
RTVSPost2010PropOp53
 70
     1
102
RTVSPost2010Prop54
  1
strokes_ogs.tif
102
RTVSPost2010PropOp54
 70
     1
102
RTVSPost2010Prop55
280
     0
102
RTVSPost2010PropOp55
 70
     1
102
RTVSPost2010Prop56
140
1.0
102
RTVSPost2010PropOp56
 70
     1
102
RTVSPost2010Prop57
140
1.0
102
RTVSPost2010PropOp57
 70
     1
  0
XRECORD
  5
340
102
{ACAD_REACTORS
330
33F
102
}
330
33F
100
AcDbXrecord
280
     1
102
RTVSPropertyOp0
 70
     1
102
RTVSPropertyOp1
 70
     1
102
RTVSPropertyOp2
 70
     1
102
RTVSPropertyOp3
 70
     1
102
RTVSPropertyOp4
 70
     1
102
RTVSPropertyOp5
 70
     1
102
RTVSPropertyOp6
 70
     1
102
RTVSPropertyOp7
 70
     1
102
RTVSPropertyOp8
 70
     1
102
RTVSPropertyOp9
 70
     1
102
RTVSPropertyOp10
 70
     1
102
RTVSPropertyOp11
 70
     1
102
RTVSPropertyOp12
 70
     1
102
RTVSPropertyOp13
 70
     1
102
RTVSPropertyOp14
 70
     1
102
RTVSPropertyOp15
 70
     1
102
RTVSPropertyOp16
 70
     1
102
RTVSPropertyOp17
 70
     1
102
RTVSPropertyOp18
 70
     1
102
RTVSPropertyOp19
 70
     1
102
RTVSPropertyOp20
 70
     1
102
RTVSPropertyOp21
 70
     1
102
RTVSPropertyOp22
 70
     1
102
RTVSPropertyOp23
 70
     1
102
RTVSPropertyOp24
 70
     1
102
RTVSPropertyOp25
 70
     1
102
RTVSPropertyOp26
 70
     1
102
RTVSPropertyOp27
 70
     1
102
RTVSPropertyOp28
 70
     1
102
RTVSPropertyOp29
 70
     1
102
RTVSPropertyOp30
 70
     1
102
RTVSPropertyOp31
 70
     1
102
RTVSPropertyOp32
 70
     1
102
RTVSPropertyOp33
 70
     1
102
RTVSPropertyOp34
 70
     1
102
RTVSPropertyOp35
 70
     1
102
RTVSPropertyOp36
 70
     1
102
RTVSPropertyOp37
 70
     1
102
RTVSPropertyOp38
 70
     1
102
RTVSPropertyOp39
 70
     1
102
RTVSPropertyOp40
 70
     1
102
RTVSPropertyOp41
 70
     1
102
RTVSPropertyOp42
 70
     1
102
RTVSPropertyOp43
 70
     1
102
RTVSPropertyOp44
 70
     1
102
RTVSPropertyOp45
 70
     1
102
RTVSPropertyOp46
 70
     1
102
RTVSPropertyOp47
 70
     1
102
RTVSPropertyOp48
 70
     1
102
RTVSPropertyOp49
 70
     1
102
RTVSPropertyOp50
 70
     1
102
RTVSPropertyOp51
 70
     0
102
RTVSPropertyOp52
 70
     0
102
RTVSPropertyOp53
 70
     1
102
RTVSPropertyOp54
 70
     1
102
RTVSPropertyOp55
 70
     1
102
RTVSPropertyOp56
 70
     1
102
RTVSPropertyOp57
 70
     1
102
RTVSPost2010Prop28
280
     0
102
RTVSPost2010PropOp28
 70
     1
102
RTVSPost2010Prop29
280
     1
102
RTVSPost2010PropOp29
 70
     1
102
RTVSPost2010Prop30
280
     1
102
RTVSPost2010PropOp30
 70
     1
102
RTVSPost2010Prop31
280
     0
102
RTVSPost2010PropOp31
 70
     1
102
RTVSPost2010Prop32
280
     0
102
RTVSPost2010PropOp32
 70
     1
102
RTVSPost2010Prop33
280
     0
102
RTVSPost2010PropOp33
 70
     1
102
RTVSPost2010Prop34
280
     0
102
RTVSPost2010PropOp34
 70
     1
102
RTVSPost2010Prop35
280
     0
102
RTVSPost2010PropOp35
 70
     1
102
RTVSPost2010Prop36
280
     0
102
RTVSPost2010PropOp36
 70
     1
102
RTVSPost2010Prop37
 90
       50
102
RTVSPost2010PropOp37
 70
     1
102
RTVSPost2010Prop38
140
0.0
102
RTVSPost2010PropOp38
 70
     1
102
RTVSPost2010Prop39
140
1.0
102
RTVSPost2010PropOp39
 70
     1
102
RTVSPost2010Prop40
 90
        0
102
RTVSPost2010PropOp40
 70
     1
102
RTVSPost2010Prop41ColorIndex
 90
       18
102
RTVSPost2010Prop41ColorRGB
 90
        0
102
RTVSPost2010PropOp41
 70
     1
102
RTVSPost2010Prop42
 90
       50
102
RTVSPost2010PropOp42
 70
     1
102
RTVSPost2010Prop43
 90
        3
102
RTVSPost2010PropOp43
 70
     1
102
RTVSPost2010Prop44ColorIndex
 90
        5
102
RTVSPost2010Prop44ColorRGB
 90
      255
102
RTVSPost2010PropOp44
 70
     1
102
RTVSPost2010Prop45
280
     0
102
RTVSPost2010PropOp45
 70
     1
102
RTVSPost2010Prop46
 90
       50
102
RTVSPost2010PropOp46
 70
     1
102
RTVSPost2010Prop47
 90
       50
102
RTVSPost2010PropOp47
 70
     1
102
RTVSPost2010Prop48
 90
       50
102
RTVSPost2010PropOp48
 70
     1
102
RTVSPost2010Prop49
280
     0
102
RTVSPost2010PropOp49
 70
     1
102
RTVSPost2010Prop50
 90
       50
102
RTVSPost2010PropOp50
 70
     1
102
RTVSPost2010Prop51ColorIndex
 90
      256
102
RTVSPost2010Prop51ColorRGB
 90
-16777216
102
RTVSPost2010PropOp51
 70
     0
102
RTVSPost2010Prop52
140
1.0
102
RTVSPost2010PropOp52
 70
     0
102
RTVSPost2010Prop53
 90
        2
102
RTVSPost2010PropOp53
 70
     1
102
RTVSPost2010Prop54
  1
strokes_ogs.tif
102
RTVSPost2010PropOp54
 70
     1
102
RTVSPost2010Prop55
280
     0
102
RTVSPost2010PropOp55
 70
     1
102
RTVSPost2010Prop56
140
1.0
102
RTVSPost2010PropOp56
 70
     1
102
RTVSPost2010Prop57
140
1.0
102
RTVSPost2010PropOp57
 70
     1
  0
XRECORD
  5
348
102
{ACAD_REACTORS
330
347
102
}
330
347
100
AcDbXrecord
280
     1
102
RTVSPropertyOp0
 70
     1
102
RTVSPropertyOp1
 70
     1
102
RTVSPropertyOp2
 70
     1
102
RTVSPropertyOp3
 70
     1
102
RTVSPropertyOp4
 70
     1
102
RTVSPropertyOp5
 70
     1
102
RTVSPropertyOp6
 70
     1
102
RTVSPropertyOp7
 70
     1
102
RTVSPropertyOp8
 70
     1
102
RTVSPropertyOp9
 70
     1
102
RTVSPropertyOp10
 70
     1
102
RTVSPropertyOp11
 70
     1
102
RTVSPropertyOp12
 70
     1
102
RTVSPropertyOp13
 70
     1
102
RTVSPropertyOp14
 70
     1
102
RTVSPropertyOp15
 70
     1
102
RTVSPropertyOp16
 70
     1
102
RTVSPropertyOp17
 70
     1
102
RTVSPropertyOp18
 70
     1
102
RTVSPropertyOp19
 70
     1
102
RTVSPropertyOp20
 70
     1
102
RTVSPropertyOp21
 70
     1
102
RTVSPropertyOp22
 70
     1
102
RTVSPropertyOp23
 70
     1
102
RTVSPropertyOp24
 70
     1
102
RTVSPropertyOp25
 70
     1
102
RTVSPropertyOp26
 70
     1
102
RTVSPropertyOp27
 70
     1
102
RTVSPropertyOp28
 70
     1
102
RTVSPropertyOp29
 70
     1
102
RTVSPropertyOp30
 70
     1
102
RTVSPropertyOp31
 70
     1
102
RTVSPropertyOp32
 70
     1
102
RTVSPropertyOp33
 70
     1
102
RTVSPropertyOp34
 70
     1
102
RTVSPropertyOp35
 70
     1
102
RTVSPropertyOp36
 70
     1
102
RTVSPropertyOp37
 70
     1
102
RTVSPropertyOp38
 70
     1
102
RTVSPropertyOp39
 70
     1
102
RTVSPropertyOp40
 70
     1
102
RTVSPropertyOp41
 70
     1
102
RTVSPropertyOp42
 70
     1
102
RTVSPropertyOp43
 70
     1
102
RTVSPropertyOp44
 70
     1
102
RTVSPropertyOp45
 70
     1
102
RTVSPropertyOp46
 70
     1
102
RTVSPropertyOp47
 70
     1
102
RTVSPropertyOp48
 70
     1
102
RTVSPropertyOp49
 70
     1
102
RTVSPropertyOp50
 70
     1
102
RTVSPropertyOp51
 70
     0
102
RTVSPropertyOp52
 70
     0
102
RTVSPropertyOp53
 70
     1
102
RTVSPropertyOp54
 70
     1
102
RTVSPropertyOp55
 70
     1
102
RTVSPropertyOp56
 70
     1
102
RTVSPropertyOp57
 70
     1
102
RTVSPost2010Prop28
280
     0
102
RTVSPost2010PropOp28
 70
     1
102
RTVSPost2010Prop29
280
     1
102
RTVSPost2010PropOp29
 70
     1
102
RTVSPost2010Prop30
280
     1
102
RTVSPost2010PropOp30
 70
     1
102
RTVSPost2010Prop31
280
     0
102
RTVSPost2010PropOp31
 70
     1
102
RTVSPost2010Prop32
280
     0
102
RTVSPost2010PropOp32
 70
     1
102
RTVSPost2010Prop33
280
     0
102
RTVSPost2010PropOp33
 70
     1
102
RTVSPost2010Prop34
280
     0
102
RTVSPost2010PropOp34
 70
     1
102
RTVSPost2010Prop35
280
     0
102
RTVSPost2010PropOp35
 70
     1
102
RTVSPost2010Prop36
280
     0
102
RTVSPost2010PropOp36
 70
     1
102
RTVSPost2010Prop37
 90
       50
102
RTVSPost2010PropOp37
 70
     1
102
RTVSPost2010Prop38
140
0.0
102
RTVSPost2010PropOp38
 70
     1
102
RTVSPost2010Prop39
140
1.0
102
RTVSPost2010PropOp39
 70
     1
102
RTVSPost2010Prop40
 90
        0
102
RTVSPost2010PropOp40
 70
     1
102
RTVSPost2010Prop41ColorIndex
 90
       18
102
RTVSPost2010Prop41ColorRGB
 90
        0
102
RTVSPost2010PropOp41
 70
     1
102
RTVSPost2010Prop42
 90
       50
102
RTVSPost2010PropOp42
 70
     1
102
RTVSPost2010Prop43
 90
        3
102
RTVSPost2010PropOp43
 70
     1
102
RTVSPost2010Prop44ColorIndex
 90
        5
102
RTVSPost2010Prop44ColorRGB
 90
      255
102
RTVSPost2010PropOp44
 70
     1
102
RTVSPost2010Prop45
280
     0
102
RTVSPost2010PropOp45
 70
     1
102
RTVSPost2010Prop46
 90
       50
102
RTVSPost2010PropOp46
 70
     1
102
RTVSPost2010Prop47
 90
       50
102
RTVSPost2010PropOp47
 70
     1
102
RTVSPost2010Prop48
 90
       50
102
RTVSPost2010PropOp48
 70
     1
102
RTVSPost2010Prop49
280
     0
102
RTVSPost2010PropOp49
 70
     1
102
RTVSPost2010Prop50
 90
       50
102
RTVSPost2010PropOp50
 70
     1
102
RTVSPost2010Prop51ColorIndex
 90
      256
102
RTVSPost2010Prop51ColorRGB
 90
-16777216
102
RTVSPost2010PropOp51
 70
     0
102
RTVSPost2010Prop52
140
1.0
102
RTVSPost2010PropOp52
 70
     0
102
RTVSPost2010Prop53
 90
        2
102
RTVSPost2010PropOp53
 70
     1
102
RTVSPost2010Prop54
  1
strokes_ogs.tif
102
RTVSPost2010PropOp54
 70
     1
102
RTVSPost2010Prop55
280
     0
102
RTVSPost2010PropOp55
 70
     1
102
RTVSPost2010Prop56
140
1.0
102
RTVSPost2010PropOp56
 70
     1
102
RTVSPost2010Prop57
140
1.0
102
RTVSPost2010PropOp57
 70
     1
  0
XRECORD
  5
33C
102
{ACAD_REACTORS
330
33B
102
}
330
33B
100
AcDbXrecord
280
     1
102
RTVSPropertyOp0
 70
     1
102
RTVSPropertyOp1
 70
     1
102
RTVSPropertyOp2
 70
     1
102
RTVSPropertyOp3
 70
     1
102
RTVSPropertyOp4
 70
     1
102
RTVSPropertyOp5
 70
     1
102
RTVSPropertyOp6
 70
     1
102
RTVSPropertyOp7
 70
     1
102
RTVSPropertyOp8
 70
     1
102
RTVSPropertyOp9
 70
     1
102
RTVSPropertyOp10
 70
     1
102
RTVSPropertyOp11
 70
     1
102
RTVSPropertyOp12
 70
     1
102
RTVSPropertyOp13
 70
     1
102
RTVSPropertyOp14
 70
     1
102
RTVSPropertyOp15
 70
     1
102
RTVSPropertyOp16
 70
     1
102
RTVSPropertyOp17
 70
     1
102
RTVSPropertyOp18
 70
     1
102
RTVSPropertyOp19
 70
     1
102
RTVSPropertyOp20
 70
     1
102
RTVSPropertyOp21
 70
     1
102
RTVSPropertyOp22
 70
     1
102
RTVSPropertyOp23
 70
     1
102
RTVSPropertyOp24
 70
     1
102
RTVSPropertyOp25
 70
     1
102
RTVSPropertyOp26
 70
     1
102
RTVSPropertyOp27
 70
     1
102
RTVSPropertyOp28
 70
     1
102
RTVSPropertyOp29
 70
     1
102
RTVSPropertyOp30
 70
     1
102
RTVSPropertyOp31
 70
     1
102
RTVSPropertyOp32
 70
     1
102
RTVSPropertyOp33
 70
     1
102
RTVSPropertyOp34
 70
     1
102
RTVSPropertyOp35
 70
     1
102
RTVSPropertyOp36
 70
     1
102
RTVSPropertyOp37
 70
     1
102
RTVSPropertyOp38
 70
     1
102
RTVSPropertyOp39
 70
     1
102
RTVSPropertyOp40
 70
     1
102
RTVSPropertyOp41
 70
     1
102
RTVSPropertyOp42
 70
     1
102
RTVSPropertyOp43
 70
     1
102
RTVSPropertyOp44
 70
     1
102
RTVSPropertyOp45
 70
     1
102
RTVSPropertyOp46
 70
     1
102
RTVSPropertyOp47
 70
     1
102
RTVSPropertyOp48
 70
     1
102
RTVSPropertyOp49
 70
     1
102
RTVSPropertyOp50
 70
     1
102
RTVSPropertyOp51
 70
     0
102
RTVSPropertyOp52
 70
     0
102
RTVSPropertyOp53
 70
     1
102
RTVSPropertyOp54
 70
     1
102
RTVSPropertyOp55
 70
     1
102
RTVSPropertyOp56
 70
     1
102
RTVSPropertyOp57
 70
     1
102
RTVSPost2010Prop28
280
     0
102
RTVSPost2010PropOp28
 70
     1
102
RTVSPost2010Prop29
280
     1
102
RTVSPost2010PropOp29
 70
     1
102
RTVSPost2010Prop30
280
     1
102
RTVSPost2010PropOp30
 70
     1
102
RTVSPost2010Prop31
280
     0
102
RTVSPost2010PropOp31
 70
     1
102
RTVSPost2010Prop32
280
     0
102
RTVSPost2010PropOp32
 70
     1
102
RTVSPost2010Prop33
280
     0
102
RTVSPost2010PropOp33
 70
     1
102
RTVSPost2010Prop34
280
     0
102
RTVSPost2010PropOp34
 70
     1
102
RTVSPost2010Prop35
280
     0
102
RTVSPost2010PropOp35
 70
     1
102
RTVSPost2010Prop36
280
     0
102
RTVSPost2010PropOp36
 70
     1
102
RTVSPost2010Prop37
 90
       50
102
RTVSPost2010PropOp37
 70
     1
102
RTVSPost2010Prop38
140
0.0
102
RTVSPost2010PropOp38
 70
     1
102
RTVSPost2010Prop39
140
1.0
102
RTVSPost2010PropOp39
 70
     1
102
RTVSPost2010Prop40
 90
        0
102
RTVSPost2010PropOp40
 70
     1
102
RTVSPost2010Prop41ColorIndex
 90
       18
102
RTVSPost2010Prop41ColorRGB
 90
        0
102
RTVSPost2010PropOp41
 70
     1
102
RTVSPost2010Prop42
 90
       50
102
RTVSPost2010PropOp42
 70
     1
102
RTVSPost2010Prop43
 90
        3
102
RTVSPost2010PropOp43
 70
     1
102
RTVSPost2010Prop44ColorIndex
 90
        5
102
RTVSPost2010Prop44ColorRGB
 90
      255
102
RTVSPost2010PropOp44
 70
     1
102
RTVSPost2010Prop45
280
     0
102
RTVSPost2010PropOp45
 70
     1
102
RTVSPost2010Prop46
 90
       50
102
RTVSPost2010PropOp46
 70
     1
102
RTVSPost2010Prop47
 90
       50
102
RTVSPost2010PropOp47
 70
     1
102
RTVSPost2010Prop48
 90
       50
102
RTVSPost2010PropOp48
 70
     1
102
RTVSPost2010Prop49
280
     0
102
RTVSPost2010PropOp49
 70
     1
102
RTVSPost2010Prop50
 90
       50
102
RTVSPost2010PropOp50
 70
     1
102
RTVSPost2010Prop51ColorIndex
 90
      256
102
RTVSPost2010Prop51ColorRGB
 90
-16777216
102
RTVSPost2010PropOp51
 70
     0
102
RTVSPost2010Prop52
140
1.0
102
RTVSPost2010PropOp52
 70
     0
102
RTVSPost2010Prop53
 90
        2
102
RTVSPost2010PropOp53
 70
     1
102
RTVSPost2010Prop54
  1
strokes_ogs.tif
102
RTVSPost2010PropOp54
 70
     1
102
RTVSPost2010Prop55
280
     0
102
RTVSPost2010PropOp55
 70
     1
102
RTVSPost2010Prop56
140
1.0
102
RTVSPost2010PropOp56
 70
     1
102
RTVSPost2010Prop57
140
1.0
102
RTVSPost2010PropOp57
 70
     1
  0
XRECORD
  5
33E
102
{ACAD_REACTORS
330
33D
102
}
330
33D
100
AcDbXrecord
280
     1
102
RTVSPropertyOp0
 70
     1
102
RTVSPropertyOp1
 70
     1
102
RTVSPropertyOp2
 70
     1
102
RTVSPropertyOp3
 70
     1
102
RTVSPropertyOp4
 70
     1
102
RTVSPropertyOp5
 70
     1
102
RTVSPropertyOp6
 70
     1
102
RTVSPropertyOp7
 70
     1
102
RTVSPropertyOp8
 70
     1
102
RTVSPropertyOp9
 70
     1
102
RTVSPropertyOp10
 70
     1
102
RTVSPropertyOp11
 70
     1
102
RTVSPropertyOp12
 70
     1
102
RTVSPropertyOp13
 70
     1
102
RTVSPropertyOp14
 70
     1
102
RTVSPropertyOp15
 70
     1
102
RTVSPropertyOp16
 70
     1
102
RTVSPropertyOp17
 70
     1
102
RTVSPropertyOp18
 70
     1
102
RTVSPropertyOp19
 70
     1
102
RTVSPropertyOp20
 70
     1
102
RTVSPropertyOp21
 70
     1
102
RTVSPropertyOp22
 70
     1
102
RTVSPropertyOp23
 70
     1
102
RTVSPropertyOp24
 70
     1
102
RTVSPropertyOp25
 70
     1
102
RTVSPropertyOp26
 70
     1
102
RTVSPropertyOp27
 70
     1
102
RTVSPropertyOp28
 70
     1
102
RTVSPropertyOp29
 70
     1
102
RTVSPropertyOp30
 70
     1
102
RTVSPropertyOp31
 70
     1
102
RTVSPropertyOp32
 70
     1
102
RTVSPropertyOp33
 70
     1
102
RTVSPropertyOp34
 70
     1
102
RTVSPropertyOp35
 70
     1
102
RTVSPropertyOp36
 70
     1
102
RTVSPropertyOp37
 70
     1
102
RTVSPropertyOp38
 70
     1
102
RTVSPropertyOp39
 70
     1
102
RTVSPropertyOp40
 70
     1
102
RTVSPropertyOp41
 70
     1
102
RTVSPropertyOp42
 70
     1
102
RTVSPropertyOp43
 70
     1
102
RTVSPropertyOp44
 70
     1
102
RTVSPropertyOp45
 70
     1
102
RTVSPropertyOp46
 70
     1
102
RTVSPropertyOp47
 70
     1
102
RTVSPropertyOp48
 70
     1
102
RTVSPropertyOp49
 70
     1
102
RTVSPropertyOp50
 70
     1
102
RTVSPropertyOp51
 70
     0
102
RTVSPropertyOp52
 70
     0
102
RTVSPropertyOp53
 70
     1
102
RTVSPropertyOp54
 70
     1
102
RTVSPropertyOp55
 70
     1
102
RTVSPropertyOp56
 70
     1
102
RTVSPropertyOp57
 70
     1
102
RTVSPost2010Prop28
280
     0
102
RTVSPost2010PropOp28
 70
     1
102
RTVSPost2010Prop29
280
     1
102
RTVSPost2010PropOp29
 70
     1
102
RTVSPost2010Prop30
280
     1
102
RTVSPost2010PropOp30
 70
     1
102
RTVSPost2010Prop31
280
     0
102
RTVSPost2010PropOp31
 70
     1
102
RTVSPost2010Prop32
280
     0
102
RTVSPost2010PropOp32
 70
     1
102
RTVSPost2010Prop33
280
     0
102
RTVSPost2010PropOp33
 70
     1
102
RTVSPost2010Prop34
280
     0
102
RTVSPost2010PropOp34
 70
     1
102
RTVSPost2010Prop35
280
     0
102
RTVSPost2010PropOp35
 70
     1
102
RTVSPost2010Prop36
280
     0
102
RTVSPost2010PropOp36
 70
     1
102
RTVSPost2010Prop37
 90
       50
102
RTVSPost2010PropOp37
 70
     1
102
RTVSPost2010Prop38
140
0.0
102
RTVSPost2010PropOp38
 70
     1
102
RTVSPost2010Prop39
140
1.0
102
RTVSPost2010PropOp39
 70
     1
102
RTVSPost2010Prop40
 90
        0
102
RTVSPost2010PropOp40
 70
     1
102
RTVSPost2010Prop41ColorIndex
 90
       18
102
RTVSPost2010Prop41ColorRGB
 90
        0
102
RTVSPost2010PropOp41
 70
     1
102
RTVSPost2010Prop42
 90
       50
102
RTVSPost2010PropOp42
 70
     1
102
RTVSPost2010Prop43
 90
        3
102
RTVSPost2010PropOp43
 70
     1
102
RTVSPost2010Prop44ColorIndex
 90
        5
102
RTVSPost2010Prop44ColorRGB
 90
      255
102
RTVSPost2010PropOp44
 70
     1
102
RTVSPost2010Prop45
280
     0
102
RTVSPost2010PropOp45
 70
     1
102
RTVSPost2010Prop46
 90
       50
102
RTVSPost2010PropOp46
 70
     1
102
RTVSPost2010Prop47
 90
       50
102
RTVSPost2010PropOp47
 70
     1
102
RTVSPost2010Prop48
 90
       50
102
RTVSPost2010PropOp48
 70
     1
102
RTVSPost2010Prop49
280
     0
102
RTVSPost2010PropOp49
 70
     1
102
RTVSPost2010Prop50
 90
       50
102
RTVSPost2010PropOp50
 70
     1
102
RTVSPost2010Prop51ColorIndex
 90
      256
102
RTVSPost2010Prop51ColorRGB
 90
-16777216
102
RTVSPost2010PropOp51
 70
     0
102
RTVSPost2010Prop52
140
1.0
102
RTVSPost2010PropOp52
 70
     0
102
RTVSPost2010Prop53
 90
        2
102
RTVSPost2010PropOp53
 70
     1
102
RTVSPost2010Prop54
  1
strokes_ogs.tif
102
RTVSPost2010PropOp54
 70
     1
102
RTVSPost2010Prop55
280
     0
102
RTVSPost2010PropOp55
 70
     1
102
RTVSPost2010Prop56
140
1.0
102
RTVSPost2010PropOp56
 70
     1
102
RTVSPost2010Prop57
140
1.0
102
RTVSPost2010PropOp57
 70
     1
  0
XRECORD
  5
34E
102
{ACAD_REACTORS
330
34D
102
}
330
34D
100
AcDbXrecord
280
     1
102
RTVSPropertyOp0
 70
     0
102
RTVSPropertyOp1
 70
     0
102
RTVSPropertyOp2
 70
     0
102
RTVSPropertyOp3
 70
     0
102
RTVSPropertyOp4
 70
     0
102
RTVSPropertyOp5
 70
     0
102
RTVSPropertyOp6
 70
     0
102
RTVSPropertyOp7
 70
     0
102
RTVSPropertyOp8
 70
     0
102
RTVSPropertyOp9
 70
     0
102
RTVSPropertyOp10
 70
     0
102
RTVSPropertyOp11
 70
     0
102
RTVSPropertyOp12
 70
     0
102
RTVSPropertyOp13
 70
     0
102
RTVSPropertyOp14
 70
     2
102
RTVSPropertyOp15
 70
     0
102
RTVSPropertyOp16
 70
     0
102
RTVSPropertyOp17
 70
     0
102
RTVSPropertyOp18
 70
     0
102
RTVSPropertyOp19
 70
     0
102
RTVSPropertyOp20
 70
     0
102
RTVSPropertyOp21
 70
     0
102
RTVSPropertyOp22
 70
     0
102
RTVSPropertyOp23
 70
     0
102
RTVSPropertyOp24
 70
     0
102
RTVSPropertyOp25
 70
     0
102
RTVSPropertyOp26
 70
     0
102
RTVSPropertyOp27
 70
     0
102
RTVSPropertyOp28
 70
     0
102
RTVSPropertyOp29
 70
     0
102
RTVSPropertyOp30
 70
     0
102
RTVSPropertyOp31
 70
     0
102
RTVSPropertyOp32
 70
     0
102
RTVSPropertyOp33
 70
     0
102
RTVSPropertyOp34
 70
     0
102
RTVSPropertyOp35
 70
     0
102
RTVSPropertyOp36
 70
     0
102
RTVSPropertyOp37
 70
     0
102
RTVSPropertyOp38
 70
     0
102
RTVSPropertyOp39
 70
     0
102
RTVSPropertyOp40
 70
     0
102
RTVSPropertyOp41
 70
     0
102
RTVSPropertyOp42
 70
     0
102
RTVSPropertyOp43
 70
     0
102
RTVSPropertyOp44
 70
     0
102
RTVSPropertyOp45
 70
     0
102
RTVSPropertyOp46
 70
     0
102
RTVSPropertyOp47
 70
     0
102
RTVSPropertyOp48
 70
     0
102
RTVSPropertyOp49
 70
     0
102
RTVSPropertyOp50
 70
     0
102
RTVSPropertyOp51
 70
     0
102
RTVSPropertyOp52
 70
     0
102
RTVSPropertyOp53
 70
     0
102
RTVSPropertyOp54
 70
     0
102
RTVSPropertyOp55
 70
     0
102
RTVSPropertyOp56
 70
     0
102
RTVSPropertyOp57
 70
     0
102
RTVSPost2010Prop28
280
     0
102
RTVSPost2010PropOp28
 70
     0
102
RTVSPost2010Prop29
280
     1
102
RTVSPost2010PropOp29
 70
     0
102
RTVSPost2010Prop30
280
     1
102
RTVSPost2010PropOp30
 70
     0
102
RTVSPost2010Prop31
280
     0
102
RTVSPost2010PropOp31
 70
     0
102
RTVSPost2010Prop32
280
     0
102
RTVSPost2010PropOp32
 70
     0
102
RTVSPost2010Prop33
280
     0
102
RTVSPost2010PropOp33
 70
     0
102
RTVSPost2010Prop34
280
     0
102
RTVSPost2010PropOp34
 70
     0
102
RTVSPost2010Prop35
280
     0
102
RTVSPost2010PropOp35
 70
     0
102
RTVSPost2010Prop36
280
     0
102
RTVSPost2010PropOp36
 70
     0
102
RTVSPost2010Prop37
 90
       50
102
RTVSPost2010PropOp37
 70
     0
102
RTVSPost2010Prop38
140
0.0
102
RTVSPost2010PropOp38
 70
     0
102
RTVSPost2010Prop39
140
1.0
102
RTVSPost2010PropOp39
 70
     0
102
RTVSPost2010Prop40
 90
        0
102
RTVSPost2010PropOp40
 70
     0
102
RTVSPost2010Prop41ColorIndex
 90
       18
102
RTVSPost2010Prop41ColorRGB
 90
        0
102
RTVSPost2010PropOp41
 70
     0
102
RTVSPost2010Prop42
 90
       50
102
RTVSPost2010PropOp42
 70
     0
102
RTVSPost2010Prop43
 90
        3
102
RTVSPost2010PropOp43
 70
     0
102
RTVSPost2010Prop44ColorIndex
 90
        5
102
RTVSPost2010Prop44ColorRGB
 90
      255
102
RTVSPost2010PropOp44
 70
     0
102
RTVSPost2010Prop45
280
     0
102
RTVSPost2010PropOp45
 70
     0
102
RTVSPost2010Prop46
 90
       50
102
RTVSPost2010PropOp46
 70
     0
102
RTVSPost2010Prop47
 90
       50
102
RTVSPost2010PropOp47
 70
     0
102
RTVSPost2010Prop48
 90
       50
102
RTVSPost2010PropOp48
 70
     0
102
RTVSPost2010Prop49
280
     0
102
RTVSPost2010PropOp49
 70
     0
102
RTVSPost2010Prop50
 90
       50
102
RTVSPost2010PropOp50
 70
     0
102
RTVSPost2010Prop51ColorIndex
 90
      256
102
RTVSPost2010Prop51ColorRGB
 90
-16777216
102
RTVSPost2010PropOp51
 70
     0
102
RTVSPost2010Prop52
140
1.0
102
RTVSPost2010PropOp52
 70
     0
102
RTVSPost2010Prop53
 90
        2
102
RTVSPost2010PropOp53
 70
     0
102
RTVSPost2010Prop54
  1
strokes_ogs.tif
102
RTVSPost2010PropOp54
 70
     0
102
RTVSPost2010Prop55
280
     0
102
RTVSPost2010PropOp55
 70
     0
102
RTVSPost2010Prop56
140
1.0
102
RTVSPost2010PropOp56
 70
     0
102
RTVSPost2010Prop57
140
1.0
102
RTVSPost2010PropOp57
 70
     0
  0
XRECORD
  5
346
102
{ACAD_REACTORS
330
345
102
}
330
345
100
AcDbXrecord
280
     1
102
RTVSPropertyOp0
 70
     1
102
RTVSPropertyOp1
 70
     1
102
RTVSPropertyOp2
 70
     1
102
RTVSPropertyOp3
 70
     1
102
RTVSPropertyOp4
 70
     1
102
RTVSPropertyOp5
 70
     1
102
RTVSPropertyOp6
 70
     1
102
RTVSPropertyOp7
 70
     1
102
RTVSPropertyOp8
 70
     1
102
RTVSPropertyOp9
 70
     1
102
RTVSPropertyOp10
 70
     1
102
RTVSPropertyOp11
 70
     1
102
RTVSPropertyOp12
 70
     1
102
RTVSPropertyOp13
 70
     1
102
RTVSPropertyOp14
 70
     1
102
RTVSPropertyOp15
 70
     1
102
RTVSPropertyOp16
 70
     1
102
RTVSPropertyOp17
 70
     1
102
RTVSPropertyOp18
 70
     1
102
RTVSPropertyOp19
 70
     1
102
RTVSPropertyOp20
 70
     1
102
RTVSPropertyOp21
 70
     1
102
RTVSPropertyOp22
 70
     1
102
RTVSPropertyOp23
 70
     1
102
RTVSPropertyOp24
 70
     1
102
RTVSPropertyOp25
 70
     1
102
RTVSPropertyOp26
 70
     1
102
RTVSPropertyOp27
 70
     1
102
RTVSPropertyOp28
 70
     1
102
RTVSPropertyOp29
 70
     1
102
RTVSPropertyOp30
 70
     1
102
RTVSPropertyOp31
 70
     1
102
RTVSPropertyOp32
 70
     1
102
RTVSPropertyOp33
 70
     1
102
RTVSPropertyOp34
 70
     1
102
RTVSPropertyOp35
 70
     1
102
RTVSPropertyOp36
 70
     1
102
RTVSPropertyOp37
 70
     1
102
RTVSPropertyOp38
 70
     1
102
RTVSPropertyOp39
 70
     1
102
RTVSPropertyOp40
 70
     1
102
RTVSPropertyOp41
 70
     1
102
RTVSPropertyOp42
 70
     1
102
RTVSPropertyOp43
 70
     1
102
RTVSPropertyOp44
 70
     1
102
RTVSPropertyOp45
 70
     1
102
RTVSPropertyOp46
 70
     1
102
RTVSPropertyOp47
 70
     1
102
RTVSPropertyOp48
 70
     1
102
RTVSPropertyOp49
 70
     1
102
RTVSPropertyOp50
 70
     1
102
RTVSPropertyOp51
 70
     0
102
RTVSPropertyOp52
 70
     0
102
RTVSPropertyOp53
 70
     1
102
RTVSPropertyOp54
 70
     1
102
RTVSPropertyOp55
 70
     1
102
RTVSPropertyOp56
 70
     1
102
RTVSPropertyOp57
 70
     1
102
RTVSPost2010Prop28
280
     0
102
RTVSPost2010PropOp28
 70
     1
102
RTVSPost2010Prop29
280
     1
102
RTVSPost2010PropOp29
 70
     1
102
RTVSPost2010Prop30
280
     1
102
RTVSPost2010PropOp30
 70
     1
102
RTVSPost2010Prop31
280
     0
102
RTVSPost2010PropOp31
 70
     1
102
RTVSPost2010Prop32
280
     0
102
RTVSPost2010PropOp32
 70
     1
102
RTVSPost2010Prop33
280
     0
102
RTVSPost2010PropOp33
 70
     1
102
RTVSPost2010Prop34
280
     0
102
RTVSPost2010PropOp34
 70
     1
102
RTVSPost2010Prop35
280
     0
102
RTVSPost2010PropOp35
 70
     1
102
RTVSPost2010Prop36
280
     0
102
RTVSPost2010PropOp36
 70
     1
102
RTVSPost2010Prop37
 90
       50
102
RTVSPost2010PropOp37
 70
     1
102
RTVSPost2010Prop38
140
0.0
102
RTVSPost2010PropOp38
 70
     1
102
RTVSPost2010Prop39
140
1.0
102
RTVSPost2010PropOp39
 70
     1
102
RTVSPost2010Prop40
 90
        0
102
RTVSPost2010PropOp40
 70
     1
102
RTVSPost2010Prop41ColorIndex
 90
       18
102
RTVSPost2010Prop41ColorRGB
 90
        0
102
RTVSPost2010PropOp41
 70
     1
102
RTVSPost2010Prop42
 90
       50
102
RTVSPost2010PropOp42
 70
     1
102
RTVSPost2010Prop43
 90
        3
102
RTVSPost2010PropOp43
 70
     1
102
RTVSPost2010Prop44ColorIndex
 90
        5
102
RTVSPost2010Prop44ColorRGB
 90
      255
102
RTVSPost2010PropOp44
 70
     1
102
RTVSPost2010Prop45
280
     0
102
RTVSPost2010PropOp45
 70
     1
102
RTVSPost2010Prop46
 90
       50
102
RTVSPost2010PropOp46
 70
     1
102
RTVSPost2010Prop47
 90
       50
102
RTVSPost2010PropOp47
 70
     1
102
RTVSPost2010Prop48
 90
       50
102
RTVSPost2010PropOp48
 70
     1
102
RTVSPost2010Prop49
280
     0
102
RTVSPost2010PropOp49
 70
     1
102
RTVSPost2010Prop50
 90
       50
102
RTVSPost2010PropOp50
 70
     1
102
RTVSPost2010Prop51ColorIndex
 90
      256
102
RTVSPost2010Prop51ColorRGB
 90
-16777216
102
RTVSPost2010PropOp51
 70
     0
102
RTVSPost2010Prop52
140
1.0
102
RTVSPost2010PropOp52
 70
     0
102
RTVSPost2010Prop53
 90
        2
102
RTVSPost2010PropOp53
 70
     1
102
RTVSPost2010Prop54
  1
strokes_ogs.tif
102
RTVSPost2010PropOp54
 70
     1
102
RTVSPost2010Prop55
280
     0
102
RTVSPost2010PropOp55
 70
     1
102
RTVSPost2010Prop56
140
1.0
102
RTVSPost2010PropOp56
 70
     1
102
RTVSPost2010Prop57
140
1.0
102
RTVSPost2010PropOp57
 70
     1
  0
XRECORD
  5
32A
102
{ACAD_REACTORS
330
329
102
}
330
329
100
AcDbXrecord
280
     1
102
RTVSPropertyOp0
 70
     1
102
RTVSPropertyOp1
 70
     1
102
RTVSPropertyOp2
 70
     1
102
RTVSPropertyOp3
 70
     1
102
RTVSPropertyOp4
 70
     1
102
RTVSPropertyOp5
 70
     1
102
RTVSPropertyOp6
 70
     1
102
RTVSPropertyOp7
 70
     1
102
RTVSPropertyOp8
 70
     1
102
RTVSPropertyOp9
 70
     1
102
RTVSPropertyOp10
 70
     1
102
RTVSPropertyOp11
 70
     1
102
RTVSPropertyOp12
 70
     1
102
RTVSPropertyOp13
 70
     1
102
RTVSPropertyOp14
 70
     1
102
RTVSPropertyOp15
 70
     1
102
RTVSPropertyOp16
 70
     1
102
RTVSPropertyOp17
 70
     1
102
RTVSPropertyOp18
 70
     1
102
RTVSPropertyOp19
 70
     1
102
RTVSPropertyOp20
 70
     1
102
RTVSPropertyOp21
 70
     1
102
RTVSPropertyOp22
 70
     1
102
RTVSPropertyOp23
 70
     1
102
RTVSPropertyOp24
 70
     1
102
RTVSPropertyOp25
 70
     1
102
RTVSPropertyOp26
 70
     1
102
RTVSPropertyOp27
 70
     1
102
RTVSPropertyOp28
 70
     1
102
RTVSPropertyOp29
 70
     1
102
RTVSPropertyOp30
 70
     1
102
RTVSPropertyOp31
 70
     1
102
RTVSPropertyOp32
 70
     1
102
RTVSPropertyOp33
 70
     1
102
RTVSPropertyOp34
 70
     1
102
RTVSPropertyOp35
 70
     1
102
RTVSPropertyOp36
 70
     1
102
RTVSPropertyOp37
 70
     1
102
RTVSPropertyOp38
 70
     1
102
RTVSPropertyOp39
 70
     1
102
RTVSPropertyOp40
 70
     1
102
RTVSPropertyOp41
 70
     1
102
RTVSPropertyOp42
 70
     1
102
RTVSPropertyOp43
 70
     1
102
RTVSPropertyOp44
 70
     1
102
RTVSPropertyOp45
 70
     1
102
RTVSPropertyOp46
 70
     1
102
RTVSPropertyOp47
 70
     1
102
RTVSPropertyOp48
 70
     1
102
RTVSPropertyOp49
 70
     1
102
RTVSPropertyOp50
 70
     1
102
RTVSPropertyOp51
 70
     0
102
RTVSPropertyOp52
 70
     0
102
RTVSPropertyOp53
 70
     1
102
RTVSPropertyOp54
 70
     1
102
RTVSPropertyOp55
 70
     1
102
RTVSPropertyOp56
 70
     1
102
RTVSPropertyOp57
 70
     1
102
RTVSPost2010Prop28
280
     0
102
RTVSPost2010PropOp28
 70
     1
102
RTVSPost2010Prop29
280
     1
102
RTVSPost2010PropOp29
 70
     1
102
RTVSPost2010Prop30
280
     1
102
RTVSPost2010PropOp30
 70
     1
102
RTVSPost2010Prop31
280
     0
102
RTVSPost2010PropOp31
 70
     1
102
RTVSPost2010Prop32
280
     0
102
RTVSPost2010PropOp32
 70
     1
102
RTVSPost2010Prop33
280
     0
102
RTVSPost2010PropOp33
 70
     1
102
RTVSPost2010Prop34
280
     0
102
RTVSPost2010PropOp34
 70
     1
102
RTVSPost2010Prop35
280
     0
102
RTVSPost2010PropOp35
 70
     1
102
RTVSPost2010Prop36
280
     0
102
RTVSPost2010PropOp36
 70
     1
102
RTVSPost2010Prop37
 90
       50
102
RTVSPost2010PropOp37
 70
     1
102
RTVSPost2010Prop38
140
0.0
102
RTVSPost2010PropOp38
 70
     1
102
RTVSPost2010Prop39
140
1.0
102
RTVSPost2010PropOp39
 70
     1
102
RTVSPost2010Prop40
 90
        0
102
RTVSPost2010PropOp40
 70
     1
102
RTVSPost2010Prop41ColorIndex
 90
       18
102
RTVSPost2010Prop41ColorRGB
 90
        0
102
RTVSPost2010PropOp41
 70
     1
102
RTVSPost2010Prop42
 90
       50
102
RTVSPost2010PropOp42
 70
     1
102
RTVSPost2010Prop43
 90
        3
102
RTVSPost2010PropOp43
 70
     1
102
RTVSPost2010Prop44ColorIndex
 90
        5
102
RTVSPost2010Prop44ColorRGB
 90
      255
102
RTVSPost2010PropOp44
 70
     1
102
RTVSPost2010Prop45
280
     0
102
RTVSPost2010PropOp45
 70
     1
102
RTVSPost2010Prop46
 90
       50
102
RTVSPost2010PropOp46
 70
     1
102
RTVSPost2010Prop47
 90
       50
102
RTVSPost2010PropOp47
 70
     1
102
RTVSPost2010Prop48
 90
       50
102
RTVSPost2010PropOp48
 70
     1
102
RTVSPost2010Prop49
280
     0
102
RTVSPost2010PropOp49
 70
     1
102
RTVSPost2010Prop50
 90
       50
102
RTVSPost2010PropOp50
 70
     1
102
RTVSPost2010Prop51ColorIndex
 90
      256
102
RTVSPost2010Prop51ColorRGB
 90
-16777216
102
RTVSPost2010PropOp51
 70
     0
102
RTVSPost2010Prop52
140
1.0
102
RTVSPost2010PropOp52
 70
     0
102
RTVSPost2010Prop53
 90
        2
102
RTVSPost2010PropOp53
 70
     1
102
RTVSPost2010Prop54
  1
strokes_ogs.tif
102
RTVSPost2010PropOp54
 70
     1
102
RTVSPost2010Prop55
280
     0
102
RTVSPost2010PropOp55
 70
     1
102
RTVSPost2010Prop56
140
1.0
102
RTVSPost2010PropOp56
 70
     1
102
RTVSPost2010Prop57
140
1.0
102
RTVSPost2010PropOp57
 70
     1
  0
XRECORD
  5
32C
102
{ACAD_REACTORS
330
32B
102
}
330
32B
100
AcDbXrecord
280
     1
102
RTVSPropertyOp0
 70
     1
102
RTVSPropertyOp1
 70
     1
102
RTVSPropertyOp2
 70
     1
102
RTVSPropertyOp3
 70
     1
102
RTVSPropertyOp4
 70
     1
102
RTVSPropertyOp5
 70
     1
102
RTVSPropertyOp6
 70
     1
102
RTVSPropertyOp7
 70
     1
102
RTVSPropertyOp8
 70
     1
102
RTVSPropertyOp9
 70
     1
102
RTVSPropertyOp10
 70
     1
102
RTVSPropertyOp11
 70
     1
102
RTVSPropertyOp12
 70
     1
102
RTVSPropertyOp13
 70
     1
102
RTVSPropertyOp14
 70
     1
102
RTVSPropertyOp15
 70
     1
102
RTVSPropertyOp16
 70
     1
102
RTVSPropertyOp17
 70
     1
102
RTVSPropertyOp18
 70
     1
102
RTVSPropertyOp19
 70
     1
102
RTVSPropertyOp20
 70
     1
102
RTVSPropertyOp21
 70
     1
102
RTVSPropertyOp22
 70
     1
102
RTVSPropertyOp23
 70
     1
102
RTVSPropertyOp24
 70
     1
102
RTVSPropertyOp25
 70
     1
102
RTVSPropertyOp26
 70
     1
102
RTVSPropertyOp27
 70
     1
102
RTVSPropertyOp28
 70
     1
102
RTVSPropertyOp29
 70
     1
102
RTVSPropertyOp30
 70
     1
102
RTVSPropertyOp31
 70
     1
102
RTVSPropertyOp32
 70
     1
102
RTVSPropertyOp33
 70
     1
102
RTVSPropertyOp34
 70
     1
102
RTVSPropertyOp35
 70
     1
102
RTVSPropertyOp36
 70
     1
102
RTVSPropertyOp37
 70
     1
102
RTVSPropertyOp38
 70
     1
102
RTVSPropertyOp39
 70
     1
102
RTVSPropertyOp40
 70
     1
102
RTVSPropertyOp41
 70
     1
102
RTVSPropertyOp42
 70
     1
102
RTVSPropertyOp43
 70
     1
102
RTVSPropertyOp44
 70
     1
102
RTVSPropertyOp45
 70
     1
102
RTVSPropertyOp46
 70
     1
102
RTVSPropertyOp47
 70
     1
102
RTVSPropertyOp48
 70
     1
102
RTVSPropertyOp49
 70
     1
102
RTVSPropertyOp50
 70
     1
102
RTVSPropertyOp51
 70
     0
102
RTVSPropertyOp52
 70
     0
102
RTVSPropertyOp53
 70
     1
102
RTVSPropertyOp54
 70
     1
102
RTVSPropertyOp55
 70
     1
102
RTVSPropertyOp56
 70
     1
102
RTVSPropertyOp57
 70
     1
102
RTVSPost2010Prop28
280
     0
102
RTVSPost2010PropOp28
 70
     1
102
RTVSPost2010Prop29
280
     1
102
RTVSPost2010PropOp29
 70
     1
102
RTVSPost2010Prop30
280
     1
102
RTVSPost2010PropOp30
 70
     1
102
RTVSPost2010Prop31
280
     0
102
RTVSPost2010PropOp31
 70
     1
102
RTVSPost2010Prop32
280
     0
102
RTVSPost2010PropOp32
 70
     1
102
RTVSPost2010Prop33
280
     0
102
RTVSPost2010PropOp33
 70
     1
102
RTVSPost2010Prop34
280
     0
102
RTVSPost2010PropOp34
 70
     1
102
RTVSPost2010Prop35
280
     0
102
RTVSPost2010PropOp35
 70
     1
102
RTVSPost2010Prop36
280
     0
102
RTVSPost2010PropOp36
 70
     1
102
RTVSPost2010Prop37
 90
       50
102
RTVSPost2010PropOp37
 70
     1
102
RTVSPost2010Prop38
140
0.0
102
RTVSPost2010PropOp38
 70
     1
102
RTVSPost2010Prop39
140
1.0
102
RTVSPost2010PropOp39
 70
     1
102
RTVSPost2010Prop40
 90
        0
102
RTVSPost2010PropOp40
 70
     1
102
RTVSPost2010Prop41ColorIndex
 90
       18
102
RTVSPost2010Prop41ColorRGB
 90
        0
102
RTVSPost2010PropOp41
 70
     1
102
RTVSPost2010Prop42
 90
       50
102
RTVSPost2010PropOp42
 70
     1
102
RTVSPost2010Prop43
 90
        3
102
RTVSPost2010PropOp43
 70
     1
102
RTVSPost2010Prop44ColorIndex
 90
        5
102
RTVSPost2010Prop44ColorRGB
 90
      255
102
RTVSPost2010PropOp44
 70
     1
102
RTVSPost2010Prop45
280
     0
102
RTVSPost2010PropOp45
 70
     1
102
RTVSPost2010Prop46
 90
       50
102
RTVSPost2010PropOp46
 70
     1
102
RTVSPost2010Prop47
 90
       50
102
RTVSPost2010PropOp47
 70
     1
102
RTVSPost2010Prop48
 90
       50
102
RTVSPost2010PropOp48
 70
     1
102
RTVSPost2010Prop49
280
     0
102
RTVSPost2010PropOp49
 70
     1
102
RTVSPost2010Prop50
 90
       50
102
RTVSPost2010PropOp50
 70
     1
102
RTVSPost2010Prop51ColorIndex
 90
      256
102
RTVSPost2010Prop51ColorRGB
 90
-16777216
102
RTVSPost2010PropOp51
 70
     0
102
RTVSPost2010Prop52
140
1.0
102
RTVSPost2010PropOp52
 70
     0
102
RTVSPost2010Prop53
 90
        2
102
RTVSPost2010PropOp53
 70
     1
102
RTVSPost2010Prop54
  1
strokes_ogs.tif
102
RTVSPost2010PropOp54
 70
     1
102
RTVSPost2010Prop55
280
     0
102
RTVSPost2010PropOp55
 70
     1
102
RTVSPost2010Prop56
140
1.0
102
RTVSPost2010PropOp56
 70
     1
102
RTVSPost2010Prop57
140
1.0
102
RTVSPost2010PropOp57
 70
     1
  0
XRECORD
  5
32E
102
{ACAD_REACTORS
330
32D
102
}
330
32D
100
AcDbXrecord
280
     1
102
RTVSPropertyOp0
 70
     1
102
RTVSPropertyOp1
 70
     1
102
RTVSPropertyOp2
 70
     1
102
RTVSPropertyOp3
 70
     1
102
RTVSPropertyOp4
 70
     1
102
RTVSPropertyOp5
 70
     1
102
RTVSPropertyOp6
 70
     1
102
RTVSPropertyOp7
 70
     1
102
RTVSPropertyOp8
 70
     1
102
RTVSPropertyOp9
 70
     1
102
RTVSPropertyOp10
 70
     1
102
RTVSPropertyOp11
 70
     1
102
RTVSPropertyOp12
 70
     1
102
RTVSPropertyOp13
 70
     1
102
RTVSPropertyOp14
 70
     1
102
RTVSPropertyOp15
 70
     1
102
RTVSPropertyOp16
 70
     1
102
RTVSPropertyOp17
 70
     1
102
RTVSPropertyOp18
 70
     1
102
RTVSPropertyOp19
 70
     1
102
RTVSPropertyOp20
 70
     1
102
RTVSPropertyOp21
 70
     1
102
RTVSPropertyOp22
 70
     1
102
RTVSPropertyOp23
 70
     1
102
RTVSPropertyOp24
 70
     1
102
RTVSPropertyOp25
 70
     1
102
RTVSPropertyOp26
 70
     1
102
RTVSPropertyOp27
 70
     1
102
RTVSPropertyOp28
 70
     1
102
RTVSPropertyOp29
 70
     1
102
RTVSPropertyOp30
 70
     1
102
RTVSPropertyOp31
 70
     1
102
RTVSPropertyOp32
 70
     1
102
RTVSPropertyOp33
 70
     1
102
RTVSPropertyOp34
 70
     1
102
RTVSPropertyOp35
 70
     1
102
RTVSPropertyOp36
 70
     1
102
RTVSPropertyOp37
 70
     1
102
RTVSPropertyOp38
 70
     1
102
RTVSPropertyOp39
 70
     1
102
RTVSPropertyOp40
 70
     1
102
RTVSPropertyOp41
 70
     1
102
RTVSPropertyOp42
 70
     1
102
RTVSPropertyOp43
 70
     1
102
RTVSPropertyOp44
 70
     1
102
RTVSPropertyOp45
 70
     1
102
RTVSPropertyOp46
 70
     1
102
RTVSPropertyOp47
 70
     1
102
RTVSPropertyOp48
 70
     1
102
RTVSPropertyOp49
 70
     1
102
RTVSPropertyOp50
 70
     1
102
RTVSPropertyOp51
 70
     0
102
RTVSPropertyOp52
 70
     0
102
RTVSPropertyOp53
 70
     1
102
RTVSPropertyOp54
 70
     1
102
RTVSPropertyOp55
 70
     1
102
RTVSPropertyOp56
 70
     1
102
RTVSPropertyOp57
 70
     1
102
RTVSPost2010Prop28
280
     0
102
RTVSPost2010PropOp28
 70
     1
102
RTVSPost2010Prop29
280
     1
102
RTVSPost2010PropOp29
 70
     1
102
RTVSPost2010Prop30
280
     1
102
RTVSPost2010PropOp30
 70
     1
102
RTVSPost2010Prop31
280
     0
102
RTVSPost2010PropOp31
 70
     1
102
RTVSPost2010Prop32
280
     0
102
RTVSPost2010PropOp32
 70
     1
102
RTVSPost2010Prop33
280
     0
102
RTVSPost2010PropOp33
 70
     1
102
RTVSPost2010Prop34
280
     0
102
RTVSPost2010PropOp34
 70
     1
102
RTVSPost2010Prop35
280
     0
102
RTVSPost2010PropOp35
 70
     1
102
RTVSPost2010Prop36
280
     0
102
RTVSPost2010PropOp36
 70
     1
102
RTVSPost2010Prop37
 90
       50
102
RTVSPost2010PropOp37
 70
     1
102
RTVSPost2010Prop38
140
0.0
102
RTVSPost2010PropOp38
 70
     1
102
RTVSPost2010Prop39
140
1.0
102
RTVSPost2010PropOp39
 70
     1
102
RTVSPost2010Prop40
 90
        0
102
RTVSPost2010PropOp40
 70
     1
102
RTVSPost2010Prop41ColorIndex
 90
       18
102
RTVSPost2010Prop41ColorRGB
 90
        0
102
RTVSPost2010PropOp41
 70
     1
102
RTVSPost2010Prop42
 90
       50
102
RTVSPost2010PropOp42
 70
     1
102
RTVSPost2010Prop43
 90
        3
102
RTVSPost2010PropOp43
 70
     1
102
RTVSPost2010Prop44ColorIndex
 90
        5
102
RTVSPost2010Prop44ColorRGB
 90
      255
102
RTVSPost2010PropOp44
 70
     1
102
RTVSPost2010Prop45
280
     0
102
RTVSPost2010PropOp45
 70
     1
102
RTVSPost2010Prop46
 90
       50
102
RTVSPost2010PropOp46
 70
     1
102
RTVSPost2010Prop47
 90
       50
102
RTVSPost2010PropOp47
 70
     1
102
RTVSPost2010Prop48
 90
       50
102
RTVSPost2010PropOp48
 70
     1
102
RTVSPost2010Prop49
280
     0
102
RTVSPost2010PropOp49
 70
     1
102
RTVSPost2010Prop50
 90
       50
102
RTVSPost2010PropOp50
 70
     1
102
RTVSPost2010Prop51ColorIndex
 90
      256
102
RTVSPost2010Prop51ColorRGB
 90
-16777216
102
RTVSPost2010PropOp51
 70
     0
102
RTVSPost2010Prop52
140
1.0
102
RTVSPost2010PropOp52
 70
     0
102
RTVSPost2010Prop53
 90
        2
102
RTVSPost2010PropOp53
 70
     1
102
RTVSPost2010Prop54
  1
strokes_ogs.tif
102
RTVSPost2010PropOp54
 70
     1
102
RTVSPost2010Prop55
280
     0
102
RTVSPost2010PropOp55
 70
     1
102
RTVSPost2010Prop56
140
1.0
102
RTVSPost2010PropOp56
 70
     1
102
RTVSPost2010Prop57
140
1.0
102
RTVSPost2010PropOp57
 70
     1
  0
XRECORD
  5
330
102
{ACAD_REACTORS
330
32F
102
}
330
32F
100
AcDbXrecord
280
     1
102
RTVSPropertyOp0
 70
     1
102
RTVSPropertyOp1
 70
     1
102
RTVSPropertyOp2
 70
     1
102
RTVSPropertyOp3
 70
     1
102
RTVSPropertyOp4
 70
     1
102
RTVSPropertyOp5
 70
     1
102
RTVSPropertyOp6
 70
     1
102
RTVSPropertyOp7
 70
     1
102
RTVSPropertyOp8
 70
     1
102
RTVSPropertyOp9
 70
     1
102
RTVSPropertyOp10
 70
     1
102
RTVSPropertyOp11
 70
     1
102
RTVSPropertyOp12
 70
     1
102
RTVSPropertyOp13
 70
     1
102
RTVSPropertyOp14
 70
     1
102
RTVSPropertyOp15
 70
     1
102
RTVSPropertyOp16
 70
     1
102
RTVSPropertyOp17
 70
     1
102
RTVSPropertyOp18
 70
     1
102
RTVSPropertyOp19
 70
     1
102
RTVSPropertyOp20
 70
     1
102
RTVSPropertyOp21
 70
     1
102
RTVSPropertyOp22
 70
     1
102
RTVSPropertyOp23
 70
     1
102
RTVSPropertyOp24
 70
     1
102
RTVSPropertyOp25
 70
     1
102
RTVSPropertyOp26
 70
     1
102
RTVSPropertyOp27
 70
     1
102
RTVSPropertyOp28
 70
     1
102
RTVSPropertyOp29
 70
     1
102
RTVSPropertyOp30
 70
     1
102
RTVSPropertyOp31
 70
     1
102
RTVSPropertyOp32
 70
     1
102
RTVSPropertyOp33
 70
     1
102
RTVSPropertyOp34
 70
     1
102
RTVSPropertyOp35
 70
     1
102
RTVSPropertyOp36
 70
     1
102
RTVSPropertyOp37
 70
     1
102
RTVSPropertyOp38
 70
     1
102
RTVSPropertyOp39
 70
     1
102
RTVSPropertyOp40
 70
     1
102
RTVSPropertyOp41
 70
     1
102
RTVSPropertyOp42
 70
     1
102
RTVSPropertyOp43
 70
     1
102
RTVSPropertyOp44
 70
     1
102
RTVSPropertyOp45
 70
     1
102
RTVSPropertyOp46
 70
     1
102
RTVSPropertyOp47
 70
     1
102
RTVSPropertyOp48
 70
     1
102
RTVSPropertyOp49
 70
     1
102
RTVSPropertyOp50
 70
     1
102
RTVSPropertyOp51
 70
     0
102
RTVSPropertyOp52
 70
     0
102
RTVSPropertyOp53
 70
     1
102
RTVSPropertyOp54
 70
     1
102
RTVSPropertyOp55
 70
     1
102
RTVSPropertyOp56
 70
     1
102
RTVSPropertyOp57
 70
     1
102
RTVSPost2010Prop28
280
     0
102
RTVSPost2010PropOp28
 70
     1
102
RTVSPost2010Prop29
280
     1
102
RTVSPost2010PropOp29
 70
     1
102
RTVSPost2010Prop30
280
     1
102
RTVSPost2010PropOp30
 70
     1
102
RTVSPost2010Prop31
280
     0
102
RTVSPost2010PropOp31
 70
     1
102
RTVSPost2010Prop32
280
     0
102
RTVSPost2010PropOp32
 70
     1
102
RTVSPost2010Prop33
280
     0
102
RTVSPost2010PropOp33
 70
     1
102
RTVSPost2010Prop34
280
     0
102
RTVSPost2010PropOp34
 70
     1
102
RTVSPost2010Prop35
280
     0
102
RTVSPost2010PropOp35
 70
     1
102
RTVSPost2010Prop36
280
     0
102
RTVSPost2010PropOp36
 70
     1
102
RTVSPost2010Prop37
 90
       50
102
RTVSPost2010PropOp37
 70
     1
102
RTVSPost2010Prop38
140
0.0
102
RTVSPost2010PropOp38
 70
     1
102
RTVSPost2010Prop39
140
1.0
102
RTVSPost2010PropOp39
 70
     1
102
RTVSPost2010Prop40
 90
        0
102
RTVSPost2010PropOp40
 70
     1
102
RTVSPost2010Prop41ColorIndex
 90
       18
102
RTVSPost2010Prop41ColorRGB
 90
        0
102
RTVSPost2010PropOp41
 70
     1
102
RTVSPost2010Prop42
 90
       50
102
RTVSPost2010PropOp42
 70
     1
102
RTVSPost2010Prop43
 90
        3
102
RTVSPost2010PropOp43
 70
     1
102
RTVSPost2010Prop44ColorIndex
 90
        5
102
RTVSPost2010Prop44ColorRGB
 90
      255
102
RTVSPost2010PropOp44
 70
     1
102
RTVSPost2010Prop45
280
     0
102
RTVSPost2010PropOp45
 70
     1
102
RTVSPost2010Prop46
 90
       50
102
RTVSPost2010PropOp46
 70
     1
102
RTVSPost2010Prop47
 90
       50
102
RTVSPost2010PropOp47
 70
     1
102
RTVSPost2010Prop48
 90
       50
102
RTVSPost2010PropOp48
 70
     1
102
RTVSPost2010Prop49
280
     0
102
RTVSPost2010PropOp49
 70
     1
102
RTVSPost2010Prop50
 90
       50
102
RTVSPost2010PropOp50
 70
     1
102
RTVSPost2010Prop51ColorIndex
 90
      256
102
RTVSPost2010Prop51ColorRGB
 90
-16777216
102
RTVSPost2010PropOp51
 70
     0
102
RTVSPost2010Prop52
140
1.0
102
RTVSPost2010PropOp52
 70
     0
102
RTVSPost2010Prop53
 90
        2
102
RTVSPost2010PropOp53
 70
     1
102
RTVSPost2010Prop54
  1
strokes_ogs.tif
102
RTVSPost2010PropOp54
 70
     1
102
RTVSPost2010Prop55
280
     0
102
RTVSPost2010PropOp55
 70
     1
102
RTVSPost2010Prop56
140
1.0
102
RTVSPost2010PropOp56
 70
     1
102
RTVSPost2010Prop57
140
1.0
102
RTVSPost2010PropOp57
 70
     1
  0
XRECORD
  5
336
102
{ACAD_REACTORS
330
335
102
}
330
335
100
AcDbXrecord
280
     1
102
RTVSPropertyOp0
 70
     1
102
RTVSPropertyOp1
 70
     1
102
RTVSPropertyOp2
 70
     1
102
RTVSPropertyOp3
 70
     1
102
RTVSPropertyOp4
 70
     1
102
RTVSPropertyOp5
 70
     1
102
RTVSPropertyOp6
 70
     1
102
RTVSPropertyOp7
 70
     1
102
RTVSPropertyOp8
 70
     1
102
RTVSPropertyOp9
 70
     1
102
RTVSPropertyOp10
 70
     1
102
RTVSPropertyOp11
 70
     1
102
RTVSPropertyOp12
 70
     1
102
RTVSPropertyOp13
 70
     1
102
RTVSPropertyOp14
 70
     1
102
RTVSPropertyOp15
 70
     1
102
RTVSPropertyOp16
 70
     1
102
RTVSPropertyOp17
 70
     1
102
RTVSPropertyOp18
 70
     1
102
RTVSPropertyOp19
 70
     1
102
RTVSPropertyOp20
 70
     1
102
RTVSPropertyOp21
 70
     1
102
RTVSPropertyOp22
 70
     1
102
RTVSPropertyOp23
 70
     1
102
RTVSPropertyOp24
 70
     1
102
RTVSPropertyOp25
 70
     1
102
RTVSPropertyOp26
 70
     1
102
RTVSPropertyOp27
 70
     1
102
RTVSPropertyOp28
 70
     1
102
RTVSPropertyOp29
 70
     1
102
RTVSPropertyOp30
 70
     1
102
RTVSPropertyOp31
 70
     1
102
RTVSPropertyOp32
 70
     1
102
RTVSPropertyOp33
 70
     1
102
RTVSPropertyOp34
 70
     1
102
RTVSPropertyOp35
 70
     1
102
RTVSPropertyOp36
 70
     1
102
RTVSPropertyOp37
 70
     1
102
RTVSPropertyOp38
 70
     1
102
RTVSPropertyOp39
 70
     1
102
RTVSPropertyOp40
 70
     1
102
RTVSPropertyOp41
 70
     1
102
RTVSPropertyOp42
 70
     1
102
RTVSPropertyOp43
 70
     1
102
RTVSPropertyOp44
 70
     1
102
RTVSPropertyOp45
 70
     1
102
RTVSPropertyOp46
 70
     1
102
RTVSPropertyOp47
 70
     1
102
RTVSPropertyOp48
 70
     1
102
RTVSPropertyOp49
 70
     1
102
RTVSPropertyOp50
 70
     1
102
RTVSPropertyOp51
 70
     0
102
RTVSPropertyOp52
 70
     0
102
RTVSPropertyOp53
 70
     1
102
RTVSPropertyOp54
 70
     1
102
RTVSPropertyOp55
 70
     1
102
RTVSPropertyOp56
 70
     1
102
RTVSPropertyOp57
 70
     1
102
RTVSPost2010Prop28
280
     0
102
RTVSPost2010PropOp28
 70
     1
102
RTVSPost2010Prop29
280
     1
102
RTVSPost2010PropOp29
 70
     1
102
RTVSPost2010Prop30
280
     1
102
RTVSPost2010PropOp30
 70
     1
102
RTVSPost2010Prop31
280
     0
102
RTVSPost2010PropOp31
 70
     1
102
RTVSPost2010Prop32
280
     0
102
RTVSPost2010PropOp32
 70
     1
102
RTVSPost2010Prop33
280
     0
102
RTVSPost2010PropOp33
 70
     1
102
RTVSPost2010Prop34
280
     0
102
RTVSPost2010PropOp34
 70
     1
102
RTVSPost2010Prop35
280
     0
102
RTVSPost2010PropOp35
 70
     1
102
RTVSPost2010Prop36
280
     0
102
RTVSPost2010PropOp36
 70
     1
102
RTVSPost2010Prop37
 90
       50
102
RTVSPost2010PropOp37
 70
     1
102
RTVSPost2010Prop38
140
0.0
102
RTVSPost2010PropOp38
 70
     1
102
RTVSPost2010Prop39
140
1.0
102
RTVSPost2010PropOp39
 70
     1
102
RTVSPost2010Prop40
 90
        0
102
RTVSPost2010PropOp40
 70
     1
102
RTVSPost2010Prop41ColorIndex
 90
       18
102
RTVSPost2010Prop41ColorRGB
 90
        0
102
RTVSPost2010PropOp41
 70
     1
102
RTVSPost2010Prop42
 90
       50
102
RTVSPost2010PropOp42
 70
     1
102
RTVSPost2010Prop43
 90
        3
102
RTVSPost2010PropOp43
 70
     1
102
RTVSPost2010Prop44ColorIndex
 90
        5
102
RTVSPost2010Prop44ColorRGB
 90
      255
102
RTVSPost2010PropOp44
 70
     1
102
RTVSPost2010Prop45
280
     0
102
RTVSPost2010PropOp45
 70
     1
102
RTVSPost2010Prop46
 90
       50
102
RTVSPost2010PropOp46
 70
     1
102
RTVSPost2010Prop47
 90
       50
102
RTVSPost2010PropOp47
 70
     1
102
RTVSPost2010Prop48
 90
       50
102
RTVSPost2010PropOp48
 70
     1
102
RTVSPost2010Prop49
280
     0
102
RTVSPost2010PropOp49
 70
     1
102
RTVSPost2010Prop50
 90
       50
102
RTVSPost2010PropOp50
 70
     1
102
RTVSPost2010Prop51ColorIndex
 90
      256
102
RTVSPost2010Prop51ColorRGB
 90
-16777216
102
RTVSPost2010PropOp51
 70
     0
102
RTVSPost2010Prop52
140
1.0
102
RTVSPost2010PropOp52
 70
     0
102
RTVSPost2010Prop53
 90
        2
102
RTVSPost2010PropOp53
 70
     1
102
RTVSPost2010Prop54
  1
strokes_ogs.tif
102
RTVSPost2010PropOp54
 70
     1
102
RTVSPost2010Prop55
280
     0
102
RTVSPost2010PropOp55
 70
     1
102
RTVSPost2010Prop56
140
1.0
102
RTVSPost2010PropOp56
 70
     1
102
RTVSPost2010Prop57
140
1.0
102
RTVSPost2010PropOp57
 70
     1
  0
XRECORD
  5
34A
102
{ACAD_REACTORS
330
349
102
}
330
349
100
AcDbXrecord
280
     1
102
RTVSPropertyOp0
 70
     0
102
RTVSPropertyOp1
 70
     0
102
RTVSPropertyOp2
 70
     0
102
RTVSPropertyOp3
 70
     0
102
RTVSPropertyOp4
 70
     0
102
RTVSPropertyOp5
 70
     0
102
RTVSPropertyOp6
 70
     0
102
RTVSPropertyOp7
 70
     0
102
RTVSPropertyOp8
 70
     0
102
RTVSPropertyOp9
 70
     0
102
RTVSPropertyOp10
 70
     0
102
RTVSPropertyOp11
 70
     0
102
RTVSPropertyOp12
 70
     0
102
RTVSPropertyOp13
 70
     0
102
RTVSPropertyOp14
 70
     2
102
RTVSPropertyOp15
 70
     0
102
RTVSPropertyOp16
 70
     0
102
RTVSPropertyOp17
 70
     0
102
RTVSPropertyOp18
 70
     0
102
RTVSPropertyOp19
 70
     0
102
RTVSPropertyOp20
 70
     0
102
RTVSPropertyOp21
 70
     0
102
RTVSPropertyOp22
 70
     0
102
RTVSPropertyOp23
 70
     0
102
RTVSPropertyOp24
 70
     0
102
RTVSPropertyOp25
 70
     0
102
RTVSPropertyOp26
 70
     0
102
RTVSPropertyOp27
 70
     0
102
RTVSPropertyOp28
 70
     0
102
RTVSPropertyOp29
 70
     0
102
RTVSPropertyOp30
 70
     0
102
RTVSPropertyOp31
 70
     0
102
RTVSPropertyOp32
 70
     0
102
RTVSPropertyOp33
 70
     0
102
RTVSPropertyOp34
 70
     0
102
RTVSPropertyOp35
 70
     0
102
RTVSPropertyOp36
 70
     0
102
RTVSPropertyOp37
 70
     0
102
RTVSPropertyOp38
 70
     0
102
RTVSPropertyOp39
 70
     0
102
RTVSPropertyOp40
 70
     0
102
RTVSPropertyOp41
 70
     0
102
RTVSPropertyOp42
 70
     0
102
RTVSPropertyOp43
 70
     0
102
RTVSPropertyOp44
 70
     0
102
RTVSPropertyOp45
 70
     0
102
RTVSPropertyOp46
 70
     0
102
RTVSPropertyOp47
 70
     0
102
RTVSPropertyOp48
 70
     0
102
RTVSPropertyOp49
 70
     0
102
RTVSPropertyOp50
 70
     0
102
RTVSPropertyOp51
 70
     0
102
RTVSPropertyOp52
 70
     0
102
RTVSPropertyOp53
 70
     0
102
RTVSPropertyOp54
 70
     0
102
RTVSPropertyOp55
 70
     0
102
RTVSPropertyOp56
 70
     0
102
RTVSPropertyOp57
 70
     0
102
RTVSPost2010Prop28
280
     0
102
RTVSPost2010PropOp28
 70
     0
102
RTVSPost2010Prop29
280
     1
102
RTVSPost2010PropOp29
 70
     0
102
RTVSPost2010Prop30
280
     1
102
RTVSPost2010PropOp30
 70
     0
102
RTVSPost2010Prop31
280
     0
102
RTVSPost2010PropOp31
 70
     0
102
RTVSPost2010Prop32
280
     0
102
RTVSPost2010PropOp32
 70
     0
102
RTVSPost2010Prop33
280
     0
102
RTVSPost2010PropOp33
 70
     0
102
RTVSPost2010Prop34
280
     0
102
RTVSPost2010PropOp34
 70
     0
102
RTVSPost2010Prop35
280
     0
102
RTVSPost2010PropOp35
 70
     0
102
RTVSPost2010Prop36
280
     0
102
RTVSPost2010PropOp36
 70
     0
102
RTVSPost2010Prop37
 90
       50
102
RTVSPost2010PropOp37
 70
     0
102
RTVSPost2010Prop38
140
0.0
102
RTVSPost2010PropOp38
 70
     0
102
RTVSPost2010Prop39
140
1.0
102
RTVSPost2010PropOp39
 70
     0
102
RTVSPost2010Prop40
 90
        0
102
RTVSPost2010PropOp40
 70
     0
102
RTVSPost2010Prop41ColorIndex
 90
       18
102
RTVSPost2010Prop41ColorRGB
 90
        0
102
RTVSPost2010PropOp41
 70
     0
102
RTVSPost2010Prop42
 90
       50
102
RTVSPost2010PropOp42
 70
     0
102
RTVSPost2010Prop43
 90
        3
102
RTVSPost2010PropOp43
 70
     0
102
RTVSPost2010Prop44ColorIndex
 90
        5
102
RTVSPost2010Prop44ColorRGB
 90
      255
102
RTVSPost2010PropOp44
 70
     0
102
RTVSPost2010Prop45
280
     0
102
RTVSPost2010PropOp45
 70
     0
102
RTVSPost2010Prop46
 90
       50
102
RTVSPost2010PropOp46
 70
     0
102
RTVSPost2010Prop47
 90
       50
102
RTVSPost2010PropOp47
 70
     0
102
RTVSPost2010Prop48
 90
       50
102
RTVSPost2010PropOp48
 70
     0
102
RTVSPost2010Prop49
280
     0
102
RTVSPost2010PropOp49
 70
     0
102
RTVSPost2010Prop50
 90
       50
102
RTVSPost2010PropOp50
 70
     0
102
RTVSPost2010Prop51ColorIndex
 90
      256
102
RTVSPost2010Prop51ColorRGB
 90
-16777216
102
RTVSPost2010PropOp51
 70
     0
102
RTVSPost2010Prop52
140
1.0
102
RTVSPost2010PropOp52
 70
     0
102
RTVSPost2010Prop53
 90
        2
102
RTVSPost2010PropOp53
 70
     0
102
RTVSPost2010Prop54
  1
strokes_ogs.tif
102
RTVSPost2010PropOp54
 70
     0
102
RTVSPost2010Prop55
280
     0
102
RTVSPost2010PropOp55
 70
     0
102
RTVSPost2010Prop56
140
1.0
102
RTVSPost2010PropOp56
 70
     0
102
RTVSPost2010Prop57
140
1.0
102
RTVSPost2010PropOp57
 70
     0
  0
XRECORD
  5
344
102
{ACAD_REACTORS
330
343
102
}
330
343
100
AcDbXrecord
280
     1
102
RTVSPropertyOp0
 70
     1
102
RTVSPropertyOp1
 70
     1
102
RTVSPropertyOp2
 70
     1
102
RTVSPropertyOp3
 70
     1
102
RTVSPropertyOp4
 70
     1
102
RTVSPropertyOp5
 70
     1
102
RTVSPropertyOp6
 70
     1
102
RTVSPropertyOp7
 70
     1
102
RTVSPropertyOp8
 70
     1
102
RTVSPropertyOp9
 70
     1
102
RTVSPropertyOp10
 70
     1
102
RTVSPropertyOp11
 70
     1
102
RTVSPropertyOp12
 70
     1
102
RTVSPropertyOp13
 70
     1
102
RTVSPropertyOp14
 70
     1
102
RTVSPropertyOp15
 70
     1
102
RTVSPropertyOp16
 70
     1
102
RTVSPropertyOp17
 70
     1
102
RTVSPropertyOp18
 70
     1
102
RTVSPropertyOp19
 70
     1
102
RTVSPropertyOp20
 70
     1
102
RTVSPropertyOp21
 70
     1
102
RTVSPropertyOp22
 70
     1
102
RTVSPropertyOp23
 70
     1
102
RTVSPropertyOp24
 70
     1
102
RTVSPropertyOp25
 70
     1
102
RTVSPropertyOp26
 70
     1
102
RTVSPropertyOp27
 70
     1
102
RTVSPropertyOp28
 70
     1
102
RTVSPropertyOp29
 70
     1
102
RTVSPropertyOp30
 70
     1
102
RTVSPropertyOp31
 70
     1
102
RTVSPropertyOp32
 70
     1
102
RTVSPropertyOp33
 70
     1
102
RTVSPropertyOp34
 70
     1
102
RTVSPropertyOp35
 70
     1
102
RTVSPropertyOp36
 70
     1
102
RTVSPropertyOp37
 70
     1
102
RTVSPropertyOp38
 70
     1
102
RTVSPropertyOp39
 70
     1
102
RTVSPropertyOp40
 70
     1
102
RTVSPropertyOp41
 70
     1
102
RTVSPropertyOp42
 70
     1
102
RTVSPropertyOp43
 70
     1
102
RTVSPropertyOp44
 70
     1
102
RTVSPropertyOp45
 70
     1
102
RTVSPropertyOp46
 70
     1
102
RTVSPropertyOp47
 70
     1
102
RTVSPropertyOp48
 70
     1
102
RTVSPropertyOp49
 70
     1
102
RTVSPropertyOp50
 70
     1
102
RTVSPropertyOp51
 70
     0
102
RTVSPropertyOp52
 70
     0
102
RTVSPropertyOp53
 70
     1
102
RTVSPropertyOp54
 70
     1
102
RTVSPropertyOp55
 70
     1
102
RTVSPropertyOp56
 70
     1
102
RTVSPropertyOp57
 70
     1
102
RTVSPost2010Prop28
280
     0
102
RTVSPost2010PropOp28
 70
     1
102
RTVSPost2010Prop29
280
     1
102
RTVSPost2010PropOp29
 70
     1
102
RTVSPost2010Prop30
280
     1
102
RTVSPost2010PropOp30
 70
     1
102
RTVSPost2010Prop31
280
     0
102
RTVSPost2010PropOp31
 70
     1
102
RTVSPost2010Prop32
280
     0
102
RTVSPost2010PropOp32
 70
     1
102
RTVSPost2010Prop33
280
     0
102
RTVSPost2010PropOp33
 70
     1
102
RTVSPost2010Prop34
280
     0
102
RTVSPost2010PropOp34
 70
     1
102
RTVSPost2010Prop35
280
     0
102
RTVSPost2010PropOp35
 70
     1
102
RTVSPost2010Prop36
280
     0
102
RTVSPost2010PropOp36
 70
     1
102
RTVSPost2010Prop37
 90
       50
102
RTVSPost2010PropOp37
 70
     1
102
RTVSPost2010Prop38
140
0.0
102
RTVSPost2010PropOp38
 70
     1
102
RTVSPost2010Prop39
140
1.0
102
RTVSPost2010PropOp39
 70
     1
102
RTVSPost2010Prop40
 90
        0
102
RTVSPost2010PropOp40
 70
     1
102
RTVSPost2010Prop41ColorIndex
 90
       18
102
RTVSPost2010Prop41ColorRGB
 90
        0
102
RTVSPost2010PropOp41
 70
     1
102
RTVSPost2010Prop42
 90
       50
102
RTVSPost2010PropOp42
 70
     1
102
RTVSPost2010Prop43
 90
        3
102
RTVSPost2010PropOp43
 70
     1
102
RTVSPost2010Prop44ColorIndex
 90
        5
102
RTVSPost2010Prop44ColorRGB
 90
      255
102
RTVSPost2010PropOp44
 70
     1
102
RTVSPost2010Prop45
280
     0
102
RTVSPost2010PropOp45
 70
     1
102
RTVSPost2010Prop46
 90
       50
102
RTVSPost2010PropOp46
 70
     1
102
RTVSPost2010Prop47
 90
       50
102
RTVSPost2010PropOp47
 70
     1
102
RTVSPost2010Prop48
 90
       50
102
RTVSPost2010PropOp48
 70
     1
102
RTVSPost2010Prop49
280
     0
102
RTVSPost2010PropOp49
 70
     1
102
RTVSPost2010Prop50
 90
       50
102
RTVSPost2010PropOp50
 70
     1
102
RTVSPost2010Prop51ColorIndex
 90
      256
102
RTVSPost2010Prop51ColorRGB
 90
-16777216
102
RTVSPost2010PropOp51
 70
     0
102
RTVSPost2010Prop52
140
1.0
102
RTVSPost2010PropOp52
 70
     0
102
RTVSPost2010Prop53
 90
        2
102
RTVSPost2010PropOp53
 70
     1
102
RTVSPost2010Prop54
  1
strokes_ogs.tif
102
RTVSPost2010PropOp54
 70
     1
102
RTVSPost2010Prop55
280
     0
102
RTVSPost2010PropOp55
 70
     1
102
RTVSPost2010Prop56
140
1.0
102
RTVSPost2010PropOp56
 70
     1
102
RTVSPost2010Prop57
140
1.0
102
RTVSPost2010PropOp57
 70
     1
  0
XRECORD
  5
34C
102
{ACAD_REACTORS
330
34B
102
}
330
34B
100
AcDbXrecord
280
     1
102
RTVSPropertyOp0
 70
     0
102
RTVSPropertyOp1
 70
     0
102
RTVSPropertyOp2
 70
     0
102
RTVSPropertyOp3
 70
     0
102
RTVSPropertyOp4
 70
     0
102
RTVSPropertyOp5
 70
     0
102
RTVSPropertyOp6
 70
     0
102
RTVSPropertyOp7
 70
     0
102
RTVSPropertyOp8
 70
     0
102
RTVSPropertyOp9
 70
     0
102
RTVSPropertyOp10
 70
     0
102
RTVSPropertyOp11
 70
     0
102
RTVSPropertyOp12
 70
     0
102
RTVSPropertyOp13
 70
     0
102
RTVSPropertyOp14
 70
     2
102
RTVSPropertyOp15
 70
     0
102
RTVSPropertyOp16
 70
     0
102
RTVSPropertyOp17
 70
     0
102
RTVSPropertyOp18
 70
     0
102
RTVSPropertyOp19
 70
     0
102
RTVSPropertyOp20
 70
     0
102
RTVSPropertyOp21
 70
     0
102
RTVSPropertyOp22
 70
     0
102
RTVSPropertyOp23
 70
     0
102
RTVSPropertyOp24
 70
     0
102
RTVSPropertyOp25
 70
     0
102
RTVSPropertyOp26
 70
     0
102
RTVSPropertyOp27
 70
     0
102
RTVSPropertyOp28
 70
     0
102
RTVSPropertyOp29
 70
     0
102
RTVSPropertyOp30
 70
     0
102
RTVSPropertyOp31
 70
     0
102
RTVSPropertyOp32
 70
     0
102
RTVSPropertyOp33
 70
     0
102
RTVSPropertyOp34
 70
     0
102
RTVSPropertyOp35
 70
     0
102
RTVSPropertyOp36
 70
     0
102
RTVSPropertyOp37
 70
     0
102
RTVSPropertyOp38
 70
     0
102
RTVSPropertyOp39
 70
     0
102
RTVSPropertyOp40
 70
     0
102
RTVSPropertyOp41
 70
     0
102
RTVSPropertyOp42
 70
     0
102
RTVSPropertyOp43
 70
     0
102
RTVSPropertyOp44
 70
     0
102
RTVSPropertyOp45
 70
     0
102
RTVSPropertyOp46
 70
     0
102
RTVSPropertyOp47
 70
     0
102
RTVSPropertyOp48
 70
     0
102
RTVSPropertyOp49
 70
     0
102
RTVSPropertyOp50
 70
     0
102
RTVSPropertyOp51
 70
     0
102
RTVSPropertyOp52
 70
     0
102
RTVSPropertyOp53
 70
     0
102
RTVSPropertyOp54
 70
     0
102
RTVSPropertyOp55
 70
     0
102
RTVSPropertyOp56
 70
     0
102
RTVSPropertyOp57
 70
     0
102
RTVSPost2010Prop28
280
     0
102
RTVSPost2010PropOp28
 70
     0
102
RTVSPost2010Prop29
280
     1
102
RTVSPost2010PropOp29
 70
     0
102
RTVSPost2010Prop30
280
     1
102
RTVSPost2010PropOp30
 70
     0
102
RTVSPost2010Prop31
280
     0
102
RTVSPost2010PropOp31
 70
     0
102
RTVSPost2010Prop32
280
     0
102
RTVSPost2010PropOp32
 70
     0
102
RTVSPost2010Prop33
280
     0
102
RTVSPost2010PropOp33
 70
     0
102
RTVSPost2010Prop34
280
     0
102
RTVSPost2010PropOp34
 70
     0
102
RTVSPost2010Prop35
280
     0
102
RTVSPost2010PropOp35
 70
     0
102
RTVSPost2010Prop36
280
     0
102
RTVSPost2010PropOp36
 70
     0
102
RTVSPost2010Prop37
 90
       50
102
RTVSPost2010PropOp37
 70
     0
102
RTVSPost2010Prop38
140
0.0
102
RTVSPost2010PropOp38
 70
     0
102
RTVSPost2010Prop39
140
1.0
102
RTVSPost2010PropOp39
 70
     0
102
RTVSPost2010Prop40
 90
        0
102
RTVSPost2010PropOp40
 70
     0
102
RTVSPost2010Prop41ColorIndex
 90
       18
102
RTVSPost2010Prop41ColorRGB
 90
        0
102
RTVSPost2010PropOp41
 70
     0
102
RTVSPost2010Prop42
 90
       50
102
RTVSPost2010PropOp42
 70
     0
102
RTVSPost2010Prop43
 90
        3
102
RTVSPost2010PropOp43
 70
     0
102
RTVSPost2010Prop44ColorIndex
 90
        5
102
RTVSPost2010Prop44ColorRGB
 90
      255
102
RTVSPost2010PropOp44
 70
     0
102
RTVSPost2010Prop45
280
     0
102
RTVSPost2010PropOp45
 70
     0
102
RTVSPost2010Prop46
 90
       50
102
RTVSPost2010PropOp46
 70
     0
102
RTVSPost2010Prop47
 90
       50
102
RTVSPost2010PropOp47
 70
     0
102
RTVSPost2010Prop48
 90
       50
102
RTVSPost2010PropOp48
 70
     0
102
RTVSPost2010Prop49
280
     0
102
RTVSPost2010PropOp49
 70
     0
102
RTVSPost2010Prop50
 90
       50
102
RTVSPost2010PropOp50
 70
     0
102
RTVSPost2010Prop51ColorIndex
 90
      256
102
RTVSPost2010Prop51ColorRGB
 90
-16777216
102
RTVSPost2010PropOp51
 70
     0
102
RTVSPost2010Prop52
140
1.0
102
RTVSPost2010PropOp52
 70
     0
102
RTVSPost2010Prop53
 90
        2
102
RTVSPost2010PropOp53
 70
     0
102
RTVSPost2010Prop54
  1
strokes_ogs.tif
102
RTVSPost2010PropOp54
 70
     0
102
RTVSPost2010Prop55
280
     0
102
RTVSPost2010PropOp55
 70
     0
102
RTVSPost2010Prop56
140
1.0
102
RTVSPost2010PropOp56
 70
     0
102
RTVSPost2010Prop57
140
1.0
102
RTVSPost2010PropOp57
 70
     0
  0
XRECORD
  5
33A
102
{ACAD_REACTORS
330
339
102
}
330
339
100
AcDbXrecord
280
     1
102
RTVSPropertyOp0
 70
     1
102
RTVSPropertyOp1
 70
     1
102
RTVSPropertyOp2
 70
     1
102
RTVSPropertyOp3
 70
     1
102
RTVSPropertyOp4
 70
     1
102
RTVSPropertyOp5
 70
     1
102
RTVSPropertyOp6
 70
     1
102
RTVSPropertyOp7
 70
     1
102
RTVSPropertyOp8
 70
     1
102
RTVSPropertyOp9
 70
     1
102
RTVSPropertyOp10
 70
     1
102
RTVSPropertyOp11
 70
     1
102
RTVSPropertyOp12
 70
     1
102
RTVSPropertyOp13
 70
     1
102
RTVSPropertyOp14
 70
     1
102
RTVSPropertyOp15
 70
     1
102
RTVSPropertyOp16
 70
     1
102
RTVSPropertyOp17
 70
     1
102
RTVSPropertyOp18
 70
     1
102
RTVSPropertyOp19
 70
     1
102
RTVSPropertyOp20
 70
     1
102
RTVSPropertyOp21
 70
     1
102
RTVSPropertyOp22
 70
     1
102
RTVSPropertyOp23
 70
     1
102
RTVSPropertyOp24
 70
     1
102
RTVSPropertyOp25
 70
     1
102
RTVSPropertyOp26
 70
     1
102
RTVSPropertyOp27
 70
     1
102
RTVSPropertyOp28
 70
     1
102
RTVSPropertyOp29
 70
     1
102
RTVSPropertyOp30
 70
     1
102
RTVSPropertyOp31
 70
     1
102
RTVSPropertyOp32
 70
     1
102
RTVSPropertyOp33
 70
     1
102
RTVSPropertyOp34
 70
     1
102
RTVSPropertyOp35
 70
     1
102
RTVSPropertyOp36
 70
     1
102
RTVSPropertyOp37
 70
     1
102
RTVSPropertyOp38
 70
     1
102
RTVSPropertyOp39
 70
     1
102
RTVSPropertyOp40
 70
     1
102
RTVSPropertyOp41
 70
     1
102
RTVSPropertyOp42
 70
     1
102
RTVSPropertyOp43
 70
     1
102
RTVSPropertyOp44
 70
     1
102
RTVSPropertyOp45
 70
     1
102
RTVSPropertyOp46
 70
     1
102
RTVSPropertyOp47
 70
     1
102
RTVSPropertyOp48
 70
     1
102
RTVSPropertyOp49
 70
     1
102
RTVSPropertyOp50
 70
     1
102
RTVSPropertyOp51
 70
     0
102
RTVSPropertyOp52
 70
     0
102
RTVSPropertyOp53
 70
     1
102
RTVSPropertyOp54
 70
     1
102
RTVSPropertyOp55
 70
     1
102
RTVSPropertyOp56
 70
     1
102
RTVSPropertyOp57
 70
     1
102
RTVSPost2010Prop28
280
     0
102
RTVSPost2010PropOp28
 70
     1
102
RTVSPost2010Prop29
280
     1
102
RTVSPost2010PropOp29
 70
     1
102
RTVSPost2010Prop30
280
     1
102
RTVSPost2010PropOp30
 70
     1
102
RTVSPost2010Prop31
280
     0
102
RTVSPost2010PropOp31
 70
     1
102
RTVSPost2010Prop32
280
     0
102
RTVSPost2010PropOp32
 70
     1
102
RTVSPost2010Prop33
280
     0
102
RTVSPost2010PropOp33
 70
     1
102
RTVSPost2010Prop34
280
     0
102
RTVSPost2010PropOp34
 70
     1
102
RTVSPost2010Prop35
280
     0
102
RTVSPost2010PropOp35
 70
     1
102
RTVSPost2010Prop36
280
     0
102
RTVSPost2010PropOp36
 70
     1
102
RTVSPost2010Prop37
 90
       50
102
RTVSPost2010PropOp37
 70
     1
102
RTVSPost2010Prop38
140
0.0
102
RTVSPost2010PropOp38
 70
     1
102
RTVSPost2010Prop39
140
1.0
102
RTVSPost2010PropOp39
 70
     1
102
RTVSPost2010Prop40
 90
        0
102
RTVSPost2010PropOp40
 70
     1
102
RTVSPost2010Prop41ColorIndex
 90
       18
102
RTVSPost2010Prop41ColorRGB
 90
        0
102
RTVSPost2010PropOp41
 70
     1
102
RTVSPost2010Prop42
 90
       50
102
RTVSPost2010PropOp42
 70
     1
102
RTVSPost2010Prop43
 90
        3
102
RTVSPost2010PropOp43
 70
     1
102
RTVSPost2010Prop44ColorIndex
 90
        5
102
RTVSPost2010Prop44ColorRGB
 90
      255
102
RTVSPost2010PropOp44
 70
     1
102
RTVSPost2010Prop45
280
     0
102
RTVSPost2010PropOp45
 70
     1
102
RTVSPost2010Prop46
 90
       50
102
RTVSPost2010PropOp46
 70
     1
102
RTVSPost2010Prop47
 90
       50
102
RTVSPost2010PropOp47
 70
     1
102
RTVSPost2010Prop48
 90
       50
102
RTVSPost2010PropOp48
 70
     1
102
RTVSPost2010Prop49
280
     0
102
RTVSPost2010PropOp49
 70
     1
102
RTVSPost2010Prop50
 90
       50
102
RTVSPost2010PropOp50
 70
     1
102
RTVSPost2010Prop51ColorIndex
 90
      256
102
RTVSPost2010Prop51ColorRGB
 90
-16777216
102
RTVSPost2010PropOp51
 70
     0
102
RTVSPost2010Prop52
140
1.0
102
RTVSPost2010PropOp52
 70
     0
102
RTVSPost2010Prop53
 90
        2
102
RTVSPost2010PropOp53
 70
     1
102
RTVSPost2010Prop54
  1
strokes_ogs.tif
102
RTVSPost2010PropOp54
 70
     1
102
RTVSPost2010Prop55
280
     0
102
RTVSPost2010PropOp55
 70
     1
102
RTVSPost2010Prop56
140
1.0
102
RTVSPost2010PropOp56
 70
     1
102
RTVSPost2010Prop57
140
1.0
102
RTVSPost2010PropOp57
 70
     1
  0
XRECORD
  5
358
102
{ACAD_REACTORS
330
357
102
}
330
357
100
AcDbXrecord
280
     1
102
RTVSPropertyOp0
 70
     1
102
RTVSPropertyOp1
 70
     1
102
RTVSPropertyOp2
 70
     1
102
RTVSPropertyOp3
 70
     1
102
RTVSPropertyOp4
 70
     1
102
RTVSPropertyOp5
 70
     1
102
RTVSPropertyOp6
 70
     1
102
RTVSPropertyOp7
 70
     1
102
RTVSPropertyOp8
 70
     1
102
RTVSPropertyOp9
 70
     1
102
RTVSPropertyOp10
 70
     1
102
RTVSPropertyOp11
 70
     1
102
RTVSPropertyOp12
 70
     1
102
RTVSPropertyOp13
 70
     1
102
RTVSPropertyOp14
 70
     1
102
RTVSPropertyOp15
 70
     1
102
RTVSPropertyOp16
 70
     1
102
RTVSPropertyOp17
 70
     1
102
RTVSPropertyOp18
 70
     1
102
RTVSPropertyOp19
 70
     1
102
RTVSPropertyOp20
 70
     1
102
RTVSPropertyOp21
 70
     1
102
RTVSPropertyOp22
 70
     1
102
RTVSPropertyOp23
 70
     1
102
RTVSPropertyOp24
 70
     1
102
RTVSPropertyOp25
 70
     1
102
RTVSPropertyOp26
 70
     1
102
RTVSPropertyOp27
 70
     1
102
RTVSPropertyOp28
 70
     1
102
RTVSPropertyOp29
 70
     1
102
RTVSPropertyOp30
 70
     1
102
RTVSPropertyOp31
 70
     1
102
RTVSPropertyOp32
 70
     1
102
RTVSPropertyOp33
 70
     1
102
RTVSPropertyOp34
 70
     1
102
RTVSPropertyOp35
 70
     1
102
RTVSPropertyOp36
 70
     1
102
RTVSPropertyOp37
 70
     1
102
RTVSPropertyOp38
 70
     1
102
RTVSPropertyOp39
 70
     1
102
RTVSPropertyOp40
 70
     1
102
RTVSPropertyOp41
 70
     1
102
RTVSPropertyOp42
 70
     1
102
RTVSPropertyOp43
 70
     1
102
RTVSPropertyOp44
 70
     1
102
RTVSPropertyOp45
 70
     1
102
RTVSPropertyOp46
 70
     1
102
RTVSPropertyOp47
 70
     1
102
RTVSPropertyOp48
 70
     1
102
RTVSPropertyOp49
 70
     1
102
RTVSPropertyOp50
 70
     1
102
RTVSPropertyOp51
 70
     0
102
RTVSPropertyOp52
 70
     0
102
RTVSPropertyOp53
 70
     1
102
RTVSPropertyOp54
 70
     1
102
RTVSPropertyOp55
 70
     1
102
RTVSPropertyOp56
 70
     1
102
RTVSPropertyOp57
 70
     1
102
RTVSPost2010Prop28
280
     0
102
RTVSPost2010PropOp28
 70
     1
102
RTVSPost2010Prop29
280
     1
102
RTVSPost2010PropOp29
 70
     1
102
RTVSPost2010Prop30
280
     1
102
RTVSPost2010PropOp30
 70
     1
102
RTVSPost2010Prop31
280
     0
102
RTVSPost2010PropOp31
 70
     1
102
RTVSPost2010Prop32
280
     0
102
RTVSPost2010PropOp32
 70
     1
102
RTVSPost2010Prop33
280
     0
102
RTVSPost2010PropOp33
 70
     1
102
RTVSPost2010Prop34
280
     0
102
RTVSPost2010PropOp34
 70
     1
102
RTVSPost2010Prop35
280
     0
102
RTVSPost2010PropOp35
 70
     1
102
RTVSPost2010Prop36
280
     0
102
RTVSPost2010PropOp36
 70
     1
102
RTVSPost2010Prop37
 90
       50
102
RTVSPost2010PropOp37
 70
     1
102
RTVSPost2010Prop38
140
0.0
102
RTVSPost2010PropOp38
 70
     1
102
RTVSPost2010Prop39
140
1.0
102
RTVSPost2010PropOp39
 70
     1
102
RTVSPost2010Prop40
 90
        0
102
RTVSPost2010PropOp40
 70
     1
102
RTVSPost2010Prop41ColorIndex
 90
       18
102
RTVSPost2010Prop41ColorRGB
 90
        0
102
RTVSPost2010PropOp41
 70
     1
102
RTVSPost2010Prop42
 90
       50
102
RTVSPost2010PropOp42
 70
     1
102
RTVSPost2010Prop43
 90
        3
102
RTVSPost2010PropOp43
 70
     1
102
RTVSPost2010Prop44ColorIndex
 90
        5
102
RTVSPost2010Prop44ColorRGB
 90
      255
102
RTVSPost2010PropOp44
 70
     1
102
RTVSPost2010Prop45
280
     0
102
RTVSPost2010PropOp45
 70
     1
102
RTVSPost2010Prop46
 90
       50
102
RTVSPost2010PropOp46
 70
     1
102
RTVSPost2010Prop47
 90
       50
102
RTVSPost2010PropOp47
 70
     1
102
RTVSPost2010Prop48
 90
       50
102
RTVSPost2010PropOp48
 70
     1
102
RTVSPost2010Prop49
280
     0
102
RTVSPost2010PropOp49
 70
     1
102
RTVSPost2010Prop50
 90
       50
102
RTVSPost2010PropOp50
 70
     1
102
RTVSPost2010Prop51ColorIndex
 90
      256
102
RTVSPost2010Prop51ColorRGB
 90
-16777216
102
RTVSPost2010PropOp51
 70
     0
102
RTVSPost2010Prop52
140
1.0
102
RTVSPost2010PropOp52
 70
     0
102
RTVSPost2010Prop53
 90
        2
102
RTVSPost2010PropOp53
 70
     1
102
RTVSPost2010Prop54
  1
strokes_ogs.tif
102
RTVSPost2010PropOp54
 70
     1
102
RTVSPost2010Prop55
280
     0
102
RTVSPost2010PropOp55
 70
     1
102
RTVSPost2010Prop56
140
1.0
102
RTVSPost2010PropOp56
 70
     1
102
RTVSPost2010Prop57
140
1.0
102
RTVSPost2010PropOp57
 70
     1
  0
XRECORD
  5
356
102
{ACAD_REACTORS
330
355
102
}
330
355
100
AcDbXrecord
280
     1
102
RTVSPropertyOp0
 70
     1
102
RTVSPropertyOp1
 70
     1
102
RTVSPropertyOp2
 70
     1
102
RTVSPropertyOp3
 70
     1
102
RTVSPropertyOp4
 70
     1
102
RTVSPropertyOp5
 70
     1
102
RTVSPropertyOp6
 70
     1
102
RTVSPropertyOp7
 70
     1
102
RTVSPropertyOp8
 70
     1
102
RTVSPropertyOp9
 70
     1
102
RTVSPropertyOp10
 70
     1
102
RTVSPropertyOp11
 70
     1
102
RTVSPropertyOp12
 70
     1
102
RTVSPropertyOp13
 70
     1
102
RTVSPropertyOp14
 70
     1
102
RTVSPropertyOp15
 70
     1
102
RTVSPropertyOp16
 70
     1
102
RTVSPropertyOp17
 70
     1
102
RTVSPropertyOp18
 70
     1
102
RTVSPropertyOp19
 70
     1
102
RTVSPropertyOp20
 70
     1
102
RTVSPropertyOp21
 70
     1
102
RTVSPropertyOp22
 70
     1
102
RTVSPropertyOp23
 70
     1
102
RTVSPropertyOp24
 70
     1
102
RTVSPropertyOp25
 70
     1
102
RTVSPropertyOp26
 70
     1
102
RTVSPropertyOp27
 70
     1
102
RTVSPropertyOp28
 70
     1
102
RTVSPropertyOp29
 70
     1
102
RTVSPropertyOp30
 70
     1
102
RTVSPropertyOp31
 70
     1
102
RTVSPropertyOp32
 70
     1
102
RTVSPropertyOp33
 70
     1
102
RTVSPropertyOp34
 70
     1
102
RTVSPropertyOp35
 70
     1
102
RTVSPropertyOp36
 70
     1
102
RTVSPropertyOp37
 70
     1
102
RTVSPropertyOp38
 70
     1
102
RTVSPropertyOp39
 70
     1
102
RTVSPropertyOp40
 70
     1
102
RTVSPropertyOp41
 70
     1
102
RTVSPropertyOp42
 70
     1
102
RTVSPropertyOp43
 70
     1
102
RTVSPropertyOp44
 70
     1
102
RTVSPropertyOp45
 70
     1
102
RTVSPropertyOp46
 70
     1
102
RTVSPropertyOp47
 70
     1
102
RTVSPropertyOp48
 70
     1
102
RTVSPropertyOp49
 70
     1
102
RTVSPropertyOp50
 70
     1
102
RTVSPropertyOp51
 70
     0
102
RTVSPropertyOp52
 70
     0
102
RTVSPropertyOp53
 70
     1
102
RTVSPropertyOp54
 70
     1
102
RTVSPropertyOp55
 70
     1
102
RTVSPropertyOp56
 70
     1
102
RTVSPropertyOp57
 70
     1
102
RTVSPost2010Prop28
280
     0
102
RTVSPost2010PropOp28
 70
     1
102
RTVSPost2010Prop29
280
     1
102
RTVSPost2010PropOp29
 70
     1
102
RTVSPost2010Prop30
280
     1
102
RTVSPost2010PropOp30
 70
     1
102
RTVSPost2010Prop31
280
     0
102
RTVSPost2010PropOp31
 70
     1
102
RTVSPost2010Prop32
280
     0
102
RTVSPost2010PropOp32
 70
     1
102
RTVSPost2010Prop33
280
     0
102
RTVSPost2010PropOp33
 70
     1
102
RTVSPost2010Prop34
280
     0
102
RTVSPost2010PropOp34
 70
     1
102
RTVSPost2010Prop35
280
     0
102
RTVSPost2010PropOp35
 70
     1
102
RTVSPost2010Prop36
280
     0
102
RTVSPost2010PropOp36
 70
     1
102
RTVSPost2010Prop37
 90
       50
102
RTVSPost2010PropOp37
 70
     1
102
RTVSPost2010Prop38
140
0.0
102
RTVSPost2010PropOp38
 70
     1
102
RTVSPost2010Prop39
140
1.0
102
RTVSPost2010PropOp39
 70
     1
102
RTVSPost2010Prop40
 90
        0
102
RTVSPost2010PropOp40
 70
     1
102
RTVSPost2010Prop41ColorIndex
 90
       18
102
RTVSPost2010Prop41ColorRGB
 90
        0
102
RTVSPost2010PropOp41
 70
     1
102
RTVSPost2010Prop42
 90
       50
102
RTVSPost2010PropOp42
 70
     1
102
RTVSPost2010Prop43
 90
        3
102
RTVSPost2010PropOp43
 70
     1
102
RTVSPost2010Prop44ColorIndex
 90
        5
102
RTVSPost2010Prop44ColorRGB
 90
      255
102
RTVSPost2010PropOp44
 70
     1
102
RTVSPost2010Prop45
280
     0
102
RTVSPost2010PropOp45
 70
     1
102
RTVSPost2010Prop46
 90
       50
102
RTVSPost2010PropOp46
 70
     1
102
RTVSPost2010Prop47
 90
       50
102
RTVSPost2010PropOp47
 70
     1
102
RTVSPost2010Prop48
 90
       50
102
RTVSPost2010PropOp48
 70
     1
102
RTVSPost2010Prop49
280
     0
102
RTVSPost2010PropOp49
 70
     1
102
RTVSPost2010Prop50
 90
       50
102
RTVSPost2010PropOp50
 70
     1
102
RTVSPost2010Prop51ColorIndex
 90
      256
102
RTVSPost2010Prop51ColorRGB
 90
-16777216
102
RTVSPost2010PropOp51
 70
     0
102
RTVSPost2010Prop52
140
1.0
102
RTVSPost2010PropOp52
 70
     0
102
RTVSPost2010Prop53
 90
        2
102
RTVSPost2010PropOp53
 70
     1
102
RTVSPost2010Prop54
  1
strokes_ogs.tif
102
RTVSPost2010PropOp54
 70
     1
102
RTVSPost2010Prop55
280
     0
102
RTVSPost2010PropOp55
 70
     1
102
RTVSPost2010Prop56
140
1.0
102
RTVSPost2010PropOp56
 70
     1
102
RTVSPost2010Prop57
140
1.0
102
RTVSPost2010PropOp57
 70
     1
  0
XRECORD
  5
350
102
{ACAD_REACTORS
330
34F
102
}
330
34F
100
AcDbXrecord
280
     1
102
RTVSPropertyOp0
 70
     1
102
RTVSPropertyOp1
 70
     1
102
RTVSPropertyOp2
 70
     1
102
RTVSPropertyOp3
 70
     1
102
RTVSPropertyOp4
 70
     1
102
RTVSPropertyOp5
 70
     1
102
RTVSPropertyOp6
 70
     1
102
RTVSPropertyOp7
 70
     1
102
RTVSPropertyOp8
 70
     1
102
RTVSPropertyOp9
 70
     1
102
RTVSPropertyOp10
 70
     1
102
RTVSPropertyOp11
 70
     1
102
RTVSPropertyOp12
 70
     1
102
RTVSPropertyOp13
 70
     1
102
RTVSPropertyOp14
 70
     1
102
RTVSPropertyOp15
 70
     1
102
RTVSPropertyOp16
 70
     1
102
RTVSPropertyOp17
 70
     1
102
RTVSPropertyOp18
 70
     1
102
RTVSPropertyOp19
 70
     1
102
RTVSPropertyOp20
 70
     1
102
RTVSPropertyOp21
 70
     1
102
RTVSPropertyOp22
 70
     1
102
RTVSPropertyOp23
 70
     1
102
RTVSPropertyOp24
 70
     1
102
RTVSPropertyOp25
 70
     1
102
RTVSPropertyOp26
 70
     1
102
RTVSPropertyOp27
 70
     1
102
RTVSPropertyOp28
 70
     1
102
RTVSPropertyOp29
 70
     1
102
RTVSPropertyOp30
 70
     1
102
RTVSPropertyOp31
 70
     1
102
RTVSPropertyOp32
 70
     1
102
RTVSPropertyOp33
 70
     1
102
RTVSPropertyOp34
 70
     1
102
RTVSPropertyOp35
 70
     1
102
RTVSPropertyOp36
 70
     1
102
RTVSPropertyOp37
 70
     1
102
RTVSPropertyOp38
 70
     1
102
RTVSPropertyOp39
 70
     1
102
RTVSPropertyOp40
 70
     1
102
RTVSPropertyOp41
 70
     1
102
RTVSPropertyOp42
 70
     1
102
RTVSPropertyOp43
 70
     1
102
RTVSPropertyOp44
 70
     1
102
RTVSPropertyOp45
 70
     1
102
RTVSPropertyOp46
 70
     1
102
RTVSPropertyOp47
 70
     1
102
RTVSPropertyOp48
 70
     1
102
RTVSPropertyOp49
 70
     1
102
RTVSPropertyOp50
 70
     1
102
RTVSPropertyOp51
 70
     0
102
RTVSPropertyOp52
 70
     0
102
RTVSPropertyOp53
 70
     1
102
RTVSPropertyOp54
 70
     1
102
RTVSPropertyOp55
 70
     1
102
RTVSPropertyOp56
 70
     1
102
RTVSPropertyOp57
 70
     1
102
RTVSPost2010Prop28
280
     0
102
RTVSPost2010PropOp28
 70
     1
102
RTVSPost2010Prop29
280
     1
102
RTVSPost2010PropOp29
 70
     1
102
RTVSPost2010Prop30
280
     1
102
RTVSPost2010PropOp30
 70
     1
102
RTVSPost2010Prop31
280
     0
102
RTVSPost2010PropOp31
 70
     1
102
RTVSPost2010Prop32
280
     0
102
RTVSPost2010PropOp32
 70
     1
102
RTVSPost2010Prop33
280
     0
102
RTVSPost2010PropOp33
 70
     1
102
RTVSPost2010Prop34
280
     0
102
RTVSPost2010PropOp34
 70
     1
102
RTVSPost2010Prop35
280
     0
102
RTVSPost2010PropOp35
 70
     1
102
RTVSPost2010Prop36
280
     0
102
RTVSPost2010PropOp36
 70
     1
102
RTVSPost2010Prop37
 90
       50
102
RTVSPost2010PropOp37
 70
     1
102
RTVSPost2010Prop38
140
0.0
102
RTVSPost2010PropOp38
 70
     1
102
RTVSPost2010Prop39
140
1.0
102
RTVSPost2010PropOp39
 70
     1
102
RTVSPost2010Prop40
 90
        0
102
RTVSPost2010PropOp40
 70
     1
102
RTVSPost2010Prop41ColorIndex
 90
       18
102
RTVSPost2010Prop41ColorRGB
 90
        0
102
RTVSPost2010PropOp41
 70
     1
102
RTVSPost2010Prop42
 90
       50
102
RTVSPost2010PropOp42
 70
     1
102
RTVSPost2010Prop43
 90
        3
102
RTVSPost2010PropOp43
 70
     1
102
RTVSPost2010Prop44ColorIndex
 90
        5
102
RTVSPost2010Prop44ColorRGB
 90
      255
102
RTVSPost2010PropOp44
 70
     1
102
RTVSPost2010Prop45
280
     0
102
RTVSPost2010PropOp45
 70
     1
102
RTVSPost2010Prop46
 90
       50
102
RTVSPost2010PropOp46
 70
     1
102
RTVSPost2010Prop47
 90
       50
102
RTVSPost2010PropOp47
 70
     1
102
RTVSPost2010Prop48
 90
       50
102
RTVSPost2010PropOp48
 70
     1
102
RTVSPost2010Prop49
280
     0
102
RTVSPost2010PropOp49
 70
     1
102
RTVSPost2010Prop50
 90
       50
102
RTVSPost2010PropOp50
 70
     1
102
RTVSPost2010Prop51ColorIndex
 90
      256
102
RTVSPost2010Prop51ColorRGB
 90
-16777216
102
RTVSPost2010PropOp51
 70
     0
102
RTVSPost2010Prop52
140
1.0
102
RTVSPost2010PropOp52
 70
     0
102
RTVSPost2010Prop53
 90
        2
102
RTVSPost2010PropOp53
 70
     1
102
RTVSPost2010Prop54
  1
strokes_ogs.tif
102
RTVSPost2010PropOp54
 70
     1
102
RTVSPost2010Prop55
280
     0
102
RTVSPost2010PropOp55
 70
     1
102
RTVSPost2010Prop56
140
1.0
102
RTVSPost2010PropOp56
 70
     1
102
RTVSPost2010Prop57
140
1.0
102
RTVSPost2010PropOp57
 70
     1
  0
XRECORD
  5
352
102
{ACAD_REACTORS
330
351
102
}
330
351
100
AcDbXrecord
280
     1
102
RTVSPropertyOp0
 70
     1
102
RTVSPropertyOp1
 70
     1
102
RTVSPropertyOp2
 70
     1
102
RTVSPropertyOp3
 70
     1
102
RTVSPropertyOp4
 70
     1
102
RTVSPropertyOp5
 70
     1
102
RTVSPropertyOp6
 70
     1
102
RTVSPropertyOp7
 70
     1
102
RTVSPropertyOp8
 70
     1
102
RTVSPropertyOp9
 70
     1
102
RTVSPropertyOp10
 70
     1
102
RTVSPropertyOp11
 70
     1
102
RTVSPropertyOp12
 70
     1
102
RTVSPropertyOp13
 70
     1
102
RTVSPropertyOp14
 70
     1
102
RTVSPropertyOp15
 70
     1
102
RTVSPropertyOp16
 70
     1
102
RTVSPropertyOp17
 70
     1
102
RTVSPropertyOp18
 70
     1
102
RTVSPropertyOp19
 70
     1
102
RTVSPropertyOp20
 70
     1
102
RTVSPropertyOp21
 70
     1
102
RTVSPropertyOp22
 70
     1
102
RTVSPropertyOp23
 70
     1
102
RTVSPropertyOp24
 70
     1
102
RTVSPropertyOp25
 70
     1
102
RTVSPropertyOp26
 70
     1
102
RTVSPropertyOp27
 70
     1
102
RTVSPropertyOp28
 70
     1
102
RTVSPropertyOp29
 70
     1
102
RTVSPropertyOp30
 70
     1
102
RTVSPropertyOp31
 70
     1
102
RTVSPropertyOp32
 70
     1
102
RTVSPropertyOp33
 70
     1
102
RTVSPropertyOp34
 70
     1
102
RTVSPropertyOp35
 70
     1
102
RTVSPropertyOp36
 70
     1
102
RTVSPropertyOp37
 70
     1
102
RTVSPropertyOp38
 70
     1
102
RTVSPropertyOp39
 70
     1
102
RTVSPropertyOp40
 70
     1
102
RTVSPropertyOp41
 70
     1
102
RTVSPropertyOp42
 70
     1
102
RTVSPropertyOp43
 70
     1
102
RTVSPropertyOp44
 70
     1
102
RTVSPropertyOp45
 70
     1
102
RTVSPropertyOp46
 70
     1
102
RTVSPropertyOp47
 70
     1
102
RTVSPropertyOp48
 70
     1
102
RTVSPropertyOp49
 70
     1
102
RTVSPropertyOp50
 70
     1
102
RTVSPropertyOp51
 70
     0
102
RTVSPropertyOp52
 70
     0
102
RTVSPropertyOp53
 70
     1
102
RTVSPropertyOp54
 70
     1
102
RTVSPropertyOp55
 70
     1
102
RTVSPropertyOp56
 70
     1
102
RTVSPropertyOp57
 70
     1
102
RTVSPost2010Prop28
280
     0
102
RTVSPost2010PropOp28
 70
     1
102
RTVSPost2010Prop29
280
     1
102
RTVSPost2010PropOp29
 70
     1
102
RTVSPost2010Prop30
280
     1
102
RTVSPost2010PropOp30
 70
     1
102
RTVSPost2010Prop31
280
     0
102
RTVSPost2010PropOp31
 70
     1
102
RTVSPost2010Prop32
280
     0
102
RTVSPost2010PropOp32
 70
     1
102
RTVSPost2010Prop33
280
     0
102
RTVSPost2010PropOp33
 70
     1
102
RTVSPost2010Prop34
280
     0
102
RTVSPost2010PropOp34
 70
     1
102
RTVSPost2010Prop35
280
     0
102
RTVSPost2010PropOp35
 70
     1
102
RTVSPost2010Prop36
280
     0
102
RTVSPost2010PropOp36
 70
     1
102
RTVSPost2010Prop37
 90
       50
102
RTVSPost2010PropOp37
 70
     1
102
RTVSPost2010Prop38
140
0.0
102
RTVSPost2010PropOp38
 70
     1
102
RTVSPost2010Prop39
140
1.0
102
RTVSPost2010PropOp39
 70
     1
102
RTVSPost2010Prop40
 90
        0
102
RTVSPost2010PropOp40
 70
     1
102
RTVSPost2010Prop41ColorIndex
 90
       18
102
RTVSPost2010Prop41ColorRGB
 90
        0
102
RTVSPost2010PropOp41
 70
     1
102
RTVSPost2010Prop42
 90
       50
102
RTVSPost2010PropOp42
 70
     1
102
RTVSPost2010Prop43
 90
        3
102
RTVSPost2010PropOp43
 70
     1
102
RTVSPost2010Prop44ColorIndex
 90
        5
102
RTVSPost2010Prop44ColorRGB
 90
      255
102
RTVSPost2010PropOp44
 70
     1
102
RTVSPost2010Prop45
280
     0
102
RTVSPost2010PropOp45
 70
     1
102
RTVSPost2010Prop46
 90
       50
102
RTVSPost2010PropOp46
 70
     1
102
RTVSPost2010Prop47
 90
       50
102
RTVSPost2010PropOp47
 70
     1
102
RTVSPost2010Prop48
 90
       50
102
RTVSPost2010PropOp48
 70
     1
102
RTVSPost2010Prop49
280
     0
102
RTVSPost2010PropOp49
 70
     1
102
RTVSPost2010Prop50
 90
       50
102
RTVSPost2010PropOp50
 70
     1
102
RTVSPost2010Prop51ColorIndex
 90
      256
102
RTVSPost2010Prop51ColorRGB
 90
-16777216
102
RTVSPost2010PropOp51
 70
     0
102
RTVSPost2010Prop52
140
1.0
102
RTVSPost2010PropOp52
 70
     0
102
RTVSPost2010Prop53
 90
        2
102
RTVSPost2010PropOp53
 70
     1
102
RTVSPost2010Prop54
  1
strokes_ogs.tif
102
RTVSPost2010PropOp54
 70
     1
102
RTVSPost2010Prop55
280
     0
102
RTVSPost2010PropOp55
 70
     1
102
RTVSPost2010Prop56
140
1.0
102
RTVSPost2010PropOp56
 70
     1
102
RTVSPost2010Prop57
140
1.0
102
RTVSPost2010PropOp57
 70
     1
  0
XRECORD
  5
342
102
{ACAD_REACTORS
330
341
102
}
330
341
100
AcDbXrecord
280
     1
102
RTVSPropertyOp0
 70
     1
102
RTVSPropertyOp1
 70
     1
102
RTVSPropertyOp2
 70
     1
102
RTVSPropertyOp3
 70
     1
102
RTVSPropertyOp4
 70
     1
102
RTVSPropertyOp5
 70
     1
102
RTVSPropertyOp6
 70
     1
102
RTVSPropertyOp7
 70
     1
102
RTVSPropertyOp8
 70
     1
102
RTVSPropertyOp9
 70
     1
102
RTVSPropertyOp10
 70
     1
102
RTVSPropertyOp11
 70
     1
102
RTVSPropertyOp12
 70
     1
102
RTVSPropertyOp13
 70
     1
102
RTVSPropertyOp14
 70
     1
102
RTVSPropertyOp15
 70
     1
102
RTVSPropertyOp16
 70
     1
102
RTVSPropertyOp17
 70
     1
102
RTVSPropertyOp18
 70
     1
102
RTVSPropertyOp19
 70
     1
102
RTVSPropertyOp20
 70
     1
102
RTVSPropertyOp21
 70
     1
102
RTVSPropertyOp22
 70
     1
102
RTVSPropertyOp23
 70
     1
102
RTVSPropertyOp24
 70
     1
102
RTVSPropertyOp25
 70
     1
102
RTVSPropertyOp26
 70
     1
102
RTVSPropertyOp27
 70
     1
102
RTVSPropertyOp28
 70
     1
102
RTVSPropertyOp29
 70
     1
102
RTVSPropertyOp30
 70
     1
102
RTVSPropertyOp31
 70
     1
102
RTVSPropertyOp32
 70
     1
102
RTVSPropertyOp33
 70
     1
102
RTVSPropertyOp34
 70
     1
102
RTVSPropertyOp35
 70
     1
102
RTVSPropertyOp36
 70
     1
102
RTVSPropertyOp37
 70
     1
102
RTVSPropertyOp38
 70
     1
102
RTVSPropertyOp39
 70
     1
102
RTVSPropertyOp40
 70
     1
102
RTVSPropertyOp41
 70
     1
102
RTVSPropertyOp42
 70
     1
102
RTVSPropertyOp43
 70
     1
102
RTVSPropertyOp44
 70
     1
102
RTVSPropertyOp45
 70
     1
102
RTVSPropertyOp46
 70
     1
102
RTVSPropertyOp47
 70
     1
102
RTVSPropertyOp48
 70
     1
102
RTVSPropertyOp49
 70
     1
102
RTVSPropertyOp50
 70
     1
102
RTVSPropertyOp51
 70
     0
102
RTVSPropertyOp52
 70
     0
102
RTVSPropertyOp53
 70
     1
102
RTVSPropertyOp54
 70
     1
102
RTVSPropertyOp55
 70
     1
102
RTVSPropertyOp56
 70
     1
102
RTVSPropertyOp57
 70
     1
102
RTVSPost2010Prop28
280
     0
102
RTVSPost2010PropOp28
 70
     1
102
RTVSPost2010Prop29
280
     1
102
RTVSPost2010PropOp29
 70
     1
102
RTVSPost2010Prop30
280
     1
102
RTVSPost2010PropOp30
 70
     1
102
RTVSPost2010Prop31
280
     0
102
RTVSPost2010PropOp31
 70
     1
102
RTVSPost2010Prop32
280
     0
102
RTVSPost2010PropOp32
 70
     1
102
RTVSPost2010Prop33
280
     0
102
RTVSPost2010PropOp33
 70
     1
102
RTVSPost2010Prop34
280
     0
102
RTVSPost2010PropOp34
 70
     1
102
RTVSPost2010Prop35
280
     0
102
RTVSPost2010PropOp35
 70
     1
102
RTVSPost2010Prop36
280
     0
102
RTVSPost2010PropOp36
 70
     1
102
RTVSPost2010Prop37
 90
       50
102
RTVSPost2010PropOp37
 70
     1
102
RTVSPost2010Prop38
140
0.0
102
RTVSPost2010PropOp38
 70
     1
102
RTVSPost2010Prop39
140
1.0
102
RTVSPost2010PropOp39
 70
     1
102
RTVSPost2010Prop40
 90
        0
102
RTVSPost2010PropOp40
 70
     1
102
RTVSPost2010Prop41ColorIndex
 90
       18
102
RTVSPost2010Prop41ColorRGB
 90
        0
102
RTVSPost2010PropOp41
 70
     1
102
RTVSPost2010Prop42
 90
       50
102
RTVSPost2010PropOp42
 70
     1
102
RTVSPost2010Prop43
 90
        3
102
RTVSPost2010PropOp43
 70
     1
102
RTVSPost2010Prop44ColorIndex
 90
        5
102
RTVSPost2010Prop44ColorRGB
 90
      255
102
RTVSPost2010PropOp44
 70
     1
102
RTVSPost2010Prop45
280
     0
102
RTVSPost2010PropOp45
 70
     1
102
RTVSPost2010Prop46
 90
       50
102
RTVSPost2010PropOp46
 70
     1
102
RTVSPost2010Prop47
 90
       50
102
RTVSPost2010PropOp47
 70
     1
102
RTVSPost2010Prop48
 90
       50
102
RTVSPost2010PropOp48
 70
     1
102
RTVSPost2010Prop49
280
     0
102
RTVSPost2010PropOp49
 70
     1
102
RTVSPost2010Prop50
 90
       50
102
RTVSPost2010PropOp50
 70
     1
102
RTVSPost2010Prop51ColorIndex
 90
      256
102
RTVSPost2010Prop51ColorRGB
 90
-16777216
102
RTVSPost2010PropOp51
 70
     0
102
RTVSPost2010Prop52
140
1.0
102
RTVSPost2010PropOp52
 70
     0
102
RTVSPost2010Prop53
 90
        2
102
RTVSPost2010PropOp53
 70
     1
102
RTVSPost2010Prop54
  1
strokes_ogs.tif
102
RTVSPost2010PropOp54
 70
     1
102
RTVSPost2010Prop55
280
     0
102
RTVSPost2010PropOp55
 70
     1
102
RTVSPost2010Prop56
140
1.0
102
RTVSPost2010PropOp56
 70
     1
102
RTVSPost2010Prop57
140
1.0
102
RTVSPost2010PropOp57
 70
     1
  0
XRECORD
  5
334
102
{ACAD_REACTORS
330
333
102
}
330
333
100
AcDbXrecord
280
     1
102
RTVSPropertyOp0
 70
     1
102
RTVSPropertyOp1
 70
     1
102
RTVSPropertyOp2
 70
     1
102
RTVSPropertyOp3
 70
     1
102
RTVSPropertyOp4
 70
     1
102
RTVSPropertyOp5
 70
     1
102
RTVSPropertyOp6
 70
     1
102
RTVSPropertyOp7
 70
     1
102
RTVSPropertyOp8
 70
     1
102
RTVSPropertyOp9
 70
     1
102
RTVSPropertyOp10
 70
     1
102
RTVSPropertyOp11
 70
     1
102
RTVSPropertyOp12
 70
     1
102
RTVSPropertyOp13
 70
     1
102
RTVSPropertyOp14
 70
     1
102
RTVSPropertyOp15
 70
     1
102
RTVSPropertyOp16
 70
     1
102
RTVSPropertyOp17
 70
     1
102
RTVSPropertyOp18
 70
     1
102
RTVSPropertyOp19
 70
     1
102
RTVSPropertyOp20
 70
     1
102
RTVSPropertyOp21
 70
     1
102
RTVSPropertyOp22
 70
     1
102
RTVSPropertyOp23
 70
     1
102
RTVSPropertyOp24
 70
     1
102
RTVSPropertyOp25
 70
     1
102
RTVSPropertyOp26
 70
     1
102
RTVSPropertyOp27
 70
     1
102
RTVSPropertyOp28
 70
     1
102
RTVSPropertyOp29
 70
     1
102
RTVSPropertyOp30
 70
     1
102
RTVSPropertyOp31
 70
     1
102
RTVSPropertyOp32
 70
     1
102
RTVSPropertyOp33
 70
     1
102
RTVSPropertyOp34
 70
     1
102
RTVSPropertyOp35
 70
     1
102
RTVSPropertyOp36
 70
     1
102
RTVSPropertyOp37
 70
     1
102
RTVSPropertyOp38
 70
     1
102
RTVSPropertyOp39
 70
     1
102
RTVSPropertyOp40
 70
     1
102
RTVSPropertyOp41
 70
     1
102
RTVSPropertyOp42
 70
     1
102
RTVSPropertyOp43
 70
     1
102
RTVSPropertyOp44
 70
     1
102
RTVSPropertyOp45
 70
     1
102
RTVSPropertyOp46
 70
     1
102
RTVSPropertyOp47
 70
     1
102
RTVSPropertyOp48
 70
     1
102
RTVSPropertyOp49
 70
     1
102
RTVSPropertyOp50
 70
     1
102
RTVSPropertyOp51
 70
     0
102
RTVSPropertyOp52
 70
     0
102
RTVSPropertyOp53
 70
     1
102
RTVSPropertyOp54
 70
     1
102
RTVSPropertyOp55
 70
     1
102
RTVSPropertyOp56
 70
     1
102
RTVSPropertyOp57
 70
     1
102
RTVSPost2010Prop28
280
     0
102
RTVSPost2010PropOp28
 70
     1
102
RTVSPost2010Prop29
280
     1
102
RTVSPost2010PropOp29
 70
     1
102
RTVSPost2010Prop30
280
     1
102
RTVSPost2010PropOp30
 70
     1
102
RTVSPost2010Prop31
280
     0
102
RTVSPost2010PropOp31
 70
     1
102
RTVSPost2010Prop32
280
     0
102
RTVSPost2010PropOp32
 70
     1
102
RTVSPost2010Prop33
280
     0
102
RTVSPost2010PropOp33
 70
     1
102
RTVSPost2010Prop34
280
     0
102
RTVSPost2010PropOp34
 70
     1
102
RTVSPost2010Prop35
280
     0
102
RTVSPost2010PropOp35
 70
     1
102
RTVSPost2010Prop36
280
     0
102
RTVSPost2010PropOp36
 70
     1
102
RTVSPost2010Prop37
 90
       50
102
RTVSPost2010PropOp37
 70
     1
102
RTVSPost2010Prop38
140
0.0
102
RTVSPost2010PropOp38
 70
     1
102
RTVSPost2010Prop39
140
1.0
102
RTVSPost2010PropOp39
 70
     1
102
RTVSPost2010Prop40
 90
        0
102
RTVSPost2010PropOp40
 70
     1
102
RTVSPost2010Prop41ColorIndex
 90
       18
102
RTVSPost2010Prop41ColorRGB
 90
        0
102
RTVSPost2010PropOp41
 70
     1
102
RTVSPost2010Prop42
 90
       50
102
RTVSPost2010PropOp42
 70
     1
102
RTVSPost2010Prop43
 90
        3
102
RTVSPost2010PropOp43
 70
     1
102
RTVSPost2010Prop44ColorIndex
 90
        5
102
RTVSPost2010Prop44ColorRGB
 90
      255
102
RTVSPost2010PropOp44
 70
     1
102
RTVSPost2010Prop45
280
     0
102
RTVSPost2010PropOp45
 70
     1
102
RTVSPost2010Prop46
 90
       50
102
RTVSPost2010PropOp46
 70
     1
102
RTVSPost2010Prop47
 90
       50
102
RTVSPost2010PropOp47
 70
     1
102
RTVSPost2010Prop48
 90
       50
102
RTVSPost2010PropOp48
 70
     1
102
RTVSPost2010Prop49
280
     0
102
RTVSPost2010PropOp49
 70
     1
102
RTVSPost2010Prop50
 90
       50
102
RTVSPost2010PropOp50
 70
     1
102
RTVSPost2010Prop51ColorIndex
 90
      256
102
RTVSPost2010Prop51ColorRGB
 90
-16777216
102
RTVSPost2010PropOp51
 70
     0
102
RTVSPost2010Prop52
140
1.0
102
RTVSPost2010PropOp52
 70
     0
102
RTVSPost2010Prop53
 90
        2
102
RTVSPost2010PropOp53
 70
     1
102
RTVSPost2010Prop54
  1
strokes_ogs.tif
102
RTVSPost2010PropOp54
 70
     1
102
RTVSPost2010Prop55
280
     0
102
RTVSPost2010PropOp55
 70
     1
102
RTVSPost2010Prop56
140
1.0
102
RTVSPost2010PropOp56
 70
     1
102
RTVSPost2010Prop57
140
1.0
102
RTVSPost2010PropOp57
 70
     1
  0
XRECORD
  5
354
102
{ACAD_REACTORS
330
353
102
}
330
353
100
AcDbXrecord
280
     1
102
RTVSPropertyOp0
 70
     1
102
RTVSPropertyOp1
 70
     1
102
RTVSPropertyOp2
 70
     1
102
RTVSPropertyOp3
 70
     1
102
RTVSPropertyOp4
 70
     1
102
RTVSPropertyOp5
 70
     1
102
RTVSPropertyOp6
 70
     1
102
RTVSPropertyOp7
 70
     1
102
RTVSPropertyOp8
 70
     1
102
RTVSPropertyOp9
 70
     1
102
RTVSPropertyOp10
 70
     1
102
RTVSPropertyOp11
 70
     1
102
RTVSPropertyOp12
 70
     1
102
RTVSPropertyOp13
 70
     1
102
RTVSPropertyOp14
 70
     1
102
RTVSPropertyOp15
 70
     1
102
RTVSPropertyOp16
 70
     1
102
RTVSPropertyOp17
 70
     1
102
RTVSPropertyOp18
 70
     1
102
RTVSPropertyOp19
 70
     1
102
RTVSPropertyOp20
 70
     1
102
RTVSPropertyOp21
 70
     1
102
RTVSPropertyOp22
 70
     1
102
RTVSPropertyOp23
 70
     1
102
RTVSPropertyOp24
 70
     1
102
RTVSPropertyOp25
 70
     1
102
RTVSPropertyOp26
 70
     1
102
RTVSPropertyOp27
 70
     1
102
RTVSPropertyOp28
 70
     1
102
RTVSPropertyOp29
 70
     1
102
RTVSPropertyOp30
 70
     1
102
RTVSPropertyOp31
 70
     1
102
RTVSPropertyOp32
 70
     1
102
RTVSPropertyOp33
 70
     1
102
RTVSPropertyOp34
 70
     1
102
RTVSPropertyOp35
 70
     1
102
RTVSPropertyOp36
 70
     1
102
RTVSPropertyOp37
 70
     1
102
RTVSPropertyOp38
 70
     1
102
RTVSPropertyOp39
 70
     1
102
RTVSPropertyOp40
 70
     1
102
RTVSPropertyOp41
 70
     1
102
RTVSPropertyOp42
 70
     1
102
RTVSPropertyOp43
 70
     1
102
RTVSPropertyOp44
 70
     1
102
RTVSPropertyOp45
 70
     1
102
RTVSPropertyOp46
 70
     1
102
RTVSPropertyOp47
 70
     1
102
RTVSPropertyOp48
 70
     1
102
RTVSPropertyOp49
 70
     1
102
RTVSPropertyOp50
 70
     1
102
RTVSPropertyOp51
 70
     0
102
RTVSPropertyOp52
 70
     0
102
RTVSPropertyOp53
 70
     1
102
RTVSPropertyOp54
 70
     1
102
RTVSPropertyOp55
 70
     1
102
RTVSPropertyOp56
 70
     1
102
RTVSPropertyOp57
 70
     1
102
RTVSPost2010Prop28
280
     0
102
RTVSPost2010PropOp28
 70
     1
102
RTVSPost2010Prop29
280
     1
102
RTVSPost2010PropOp29
 70
     1
102
RTVSPost2010Prop30
280
     1
102
RTVSPost2010PropOp30
 70
     1
102
RTVSPost2010Prop31
280
     0
102
RTVSPost2010PropOp31
 70
     1
102
RTVSPost2010Prop32
280
     0
102
RTVSPost2010PropOp32
 70
     1
102
RTVSPost2010Prop33
280
     0
102
RTVSPost2010PropOp33
 70
     1
102
RTVSPost2010Prop34
280
     0
102
RTVSPost2010PropOp34
 70
     1
102
RTVSPost2010Prop35
280
     0
102
RTVSPost2010PropOp35
 70
     1
102
RTVSPost2010Prop36
280
     0
102
RTVSPost2010PropOp36
 70
     1
102
RTVSPost2010Prop37
 90
       50
102
RTVSPost2010PropOp37
 70
     1
102
RTVSPost2010Prop38
140
0.0
102
RTVSPost2010PropOp38
 70
     1
102
RTVSPost2010Prop39
140
1.0
102
RTVSPost2010PropOp39
 70
     1
102
RTVSPost2010Prop40
 90
        0
102
RTVSPost2010PropOp40
 70
     1
102
RTVSPost2010Prop41ColorIndex
 90
       18
102
RTVSPost2010Prop41ColorRGB
 90
        0
102
RTVSPost2010PropOp41
 70
     1
102
RTVSPost2010Prop42
 90
       50
102
RTVSPost2010PropOp42
 70
     1
102
RTVSPost2010Prop43
 90
        3
102
RTVSPost2010PropOp43
 70
     1
102
RTVSPost2010Prop44ColorIndex
 90
        5
102
RTVSPost2010Prop44ColorRGB
 90
      255
102
RTVSPost2010PropOp44
 70
     1
102
RTVSPost2010Prop45
280
     0
102
RTVSPost2010PropOp45
 70
     1
102
RTVSPost2010Prop46
 90
       50
102
RTVSPost2010PropOp46
 70
     1
102
RTVSPost2010Prop47
 90
       50
102
RTVSPost2010PropOp47
 70
     1
102
RTVSPost2010Prop48
 90
       50
102
RTVSPost2010PropOp48
 70
     1
102
RTVSPost2010Prop49
280
     0
102
RTVSPost2010PropOp49
 70
     1
102
RTVSPost2010Prop50
 90
       50
102
RTVSPost2010PropOp50
 70
     1
102
RTVSPost2010Prop51ColorIndex
 90
      256
102
RTVSPost2010Prop51ColorRGB
 90
-16777216
102
RTVSPost2010PropOp51
 70
     0
102
RTVSPost2010Prop52
140
1.0
102
RTVSPost2010PropOp52
 70
     0
102
RTVSPost2010Prop53
 90
        2
102
RTVSPost2010PropOp53
 70
     1
102
RTVSPost2010Prop54
  1
strokes_ogs.tif
102
RTVSPost2010PropOp54
 70
     1
102
RTVSPost2010Prop55
280
     0
102
RTVSPost2010PropOp55
 70
     1
102
RTVSPost2010Prop56
140
1.0
102
RTVSPost2010PropOp56
 70
     1
102
RTVSPost2010Prop57
140
1.0
102
RTVSPost2010PropOp57
 70
     1
  0
ENDSEC
  0
EOF
