  0
SECTION
  2
HEADER
  9
$ACADVER
  1
AC1018
  9
$ACADMAINTVER
 70
     0
  9
$DWGCODEPAGE
  3
ANSI_932
  9
$INSBASE
 10
0.0
 20
0.0
 30
0.0
  9
$EXTMIN
 10
-2100.0
 20
-1485.0
 30
0.0
  9
$EXTMAX
 10
2100.0
 20
1485.0
 30
0.0
  9
$LIMMIN
 10
-2100.0
 20
-1485.0
  9
$LIMMAX
 10
2100.0
 20
1485.0
  9
$ORTHOMODE
 70
     0
  9
$REGENMODE
 70
     1
  9
$FILLMODE
 70
     1
  9
$QTEXTMODE
 70
     0
  9
$MIRRTEXT
 70
     1
  9
$LTSCALE
 40
10.0
  9
$ATTMODE
 70
     1
  9
$TEXTSIZE
 40
2.5
  9
$TRACEWID
 40
1.0
  9
$TEXTSTYLE
  7
Standard
  9
$CLAYER
  8
0
  9
$CELTYPE
  6
ByLayer
  9
$CECOLOR
 62
   256
  9
$CELTSCALE
 40
1.0
  9
$DISPSILH
 70
     0
  9
$DIMSCALE
 40
1.0
  9
$DIMASZ
 40
2.5
  9
$DIMEXO
 40
0.625
  9
$DIMDLI
 40
3.75
  9
$DIMRND
 40
0.0
  9
$DIMDLE
 40
0.0
  9
$DIMEXE
 40
1.25
  9
$DIMTP
 40
0.0
  9
$DIMTM
 40
0.0
  9
$DIMTXT
 40
2.5
  9
$DIMCEN
 40
2.5
  9
$DIMTSZ
 40
0.0
  9
$DIMTOL
 70
     0
  9
$DIMLIM
 70
     0
  9
$DIMTIH
 70
     0
  9
$DIMTOH
 70
     0
  9
$DIMSE1
 70
     0
  9
$DIMSE2
 70
     0
  9
$DIMTAD
 70
     1
  9
$DIMZIN
 70
     8
  9
$DIMBLK
  1

  9
$DIMASO
 70
     1
  9
$DIMSHO
 70
     1
  9
$DIMPOST
  1

  9
$DIMAPOST
  1

  9
$DIMALT
 70
     0
  9
$DIMALTD
 70
     3
  9
$DIMALTF
 40
0.03937007874016
  9
$DIMLFAC
 40
1.0
  9
$DIMTOFL
 70
     1
  9
$DIMTVP
 40
0.0
  9
$DIMTIX
 70
     0
  9
$DIMSOXD
 70
     0
  9
$DIMSAH
 70
     0
  9
$DIMBLK1
  1

  9
$DIMBLK2
  1

  9
$DIMSTYLE
  2
ISO-25
  9
$DIMCLRD
 70
     0
  9
$DIMCLRE
 70
     0
  9
$DIMCLRT
 70
     0
  9
$DIMTFAC
 40
1.0
  9
$DIMGAP
 40
0.625
  9
$DIMJUST
 70
     0
  9
$DIMSD1
 70
     0
  9
$DIMSD2
 70
     0
  9
$DIMTOLJ
 70
     0
  9
$DIMTZIN
 70
     8
  9
$DIMALTZ
 70
     0
  9
$DIMALTTZ
 70
     0
  9
$DIMUPT
 70
     0
  9
$DIMDEC
 70
     2
  9
$DIMTDEC
 70
     2
  9
$DIMALTU
 70
     2
  9
$DIMALTTD
 70
     3
  9
$DIMTXSTY
  7
Standard
  9
$DIMAUNIT
 70
     0
  9
$DIMADEC
 70
     0
  9
$DIMALTRND
 40
0.0
  9
$DIMAZIN
 70
     0
  9
$DIMDSEP
 70
    44
  9
$DIMATFIT
 70
     3
  9
$DIMFRAC
 70
     0
  9
$DIMLDRBLK
  1

  9
$DIMLUNIT
 70
     2
  9
$DIMLWD
 70
    -2
  9
$DIMLWE
 70
    -2
  9
$DIMTMOVE
 70
     0
  9
$LUNITS
 70
     2
  9
$LUPREC
 70
     4
  9
$SKETCHINC
 40
1.0
  9
$FILLETRAD
 40
10.0
  9
$AUNITS
 70
     0
  9
$AUPREC
 70
     0
  9
$MENU
  1
.
  9
$ELEVATION
 40
0.0
  9
$PELEVATION
 40
0.0
  9
$THICKNESS
 40
0.0
  9
$LIMCHECK
 70
     0
  9
$CHAMFERA
 40
0.0
  9
$CHAMFERB
 40
0.0
  9
$CHAMFERC
 40
0.0
  9
$CHAMFERD
 40
0.0
  9
$SKPOLY
 70
     0
  9
$TDCREATE
 40
2459972.482736238
  9
$TDUCREATE
 40
2459972.107736238
  9
$TDUPDATE
 40
2459972.482736447
  9
$TDUUPDATE
 40
2459972.107736447
  9
$TDINDWG
 40
0.0000000116
  9
$TDUSRTIMER
 40
0.0000000116
  9
$USRTIMER
 70
     1
  9
$ANGBASE
 50
0.0
  9
$ANGDIR
 70
     0
  9
$PDMODE
 70
     0
  9
$PDSIZE
 40
0.0
  9
$PLINEWID
 40
0.0
  9
$SPLFRAME
 70
     0
  9
$SPLINETYPE
 70
     6
  9
$SPLINESEGS
 70
     8
  9
$HANDSEED
  5
46B
  9
$SURFTAB1
 70
     6
  9
$SURFTAB2
 70
     6
  9
$SURFTYPE
 70
     6
  9
$SURFU
 70
     6
  9
$SURFV
 70
     6
  9
$UCSBASE
  2

  9
$UCSNAME
  2

  9
$UCSORG
 10
0.0
 20
0.0
 30
0.0
  9
$UCSXDIR
 10
1.0
 20
0.0
 30
0.0
  9
$UCSYDIR
 10
0.0
 20
1.0
 30
0.0
  9
$UCSORTHOREF
  2

  9
$UCSORTHOVIEW
 70
     0
  9
$UCSORGTOP
 10
0.0
 20
0.0
 30
0.0
  9
$UCSORGBOTTOM
 10
0.0
 20
0.0
 30
0.0
  9
$UCSORGLEFT
 10
0.0
 20
0.0
 30
0.0
  9
$UCSORGRIGHT
 10
0.0
 20
0.0
 30
0.0
  9
$UCSORGFRONT
 10
0.0
 20
0.0
 30
0.0
  9
$UCSORGBACK
 10
0.0
 20
0.0
 30
0.0
  9
$PUCSBASE
  2

  9
$PUCSNAME
  2

  9
$PUCSORG
 10
0.0
 20
0.0
 30
0.0
  9
$PUCSXDIR
 10
1.0
 20
0.0
 30
0.0
  9
$PUCSYDIR
 10
0.0
 20
1.0
 30
0.0
  9
$PUCSORTHOREF
  2

  9
$PUCSORTHOVIEW
 70
     0
  9
$PUCSORGTOP
 10
0.0
 20
0.0
 30
0.0
  9
$PUCSORGBOTTOM
 10
0.0
 20
0.0
 30
0.0
  9
$PUCSORGLEFT
 10
0.0
 20
0.0
 30
0.0
  9
$PUCSORGRIGHT
 10
0.0
 20
0.0
 30
0.0
  9
$PUCSORGFRONT
 10
0.0
 20
0.0
 30
0.0
  9
$PUCSORGBACK
 10
0.0
 20
0.0
 30
0.0
  9
$USERI1
 70
     0
  9
$USERI2
 70
     0
  9
$USERI3
 70
     0
  9
$USERI4
 70
     0
  9
$USERI5
 70
     0
  9
$USERR1
 40
0.0
  9
$USERR2
 40
0.0
  9
$USERR3
 40
0.0
  9
$USERR4
 40
0.0
  9
$USERR5
 40
0.0
  9
$WORLDVIEW
 70
     1
  9
$SHADEDGE
 70
     3
  9
$SHADEDIF
 70
    70
  9
$TILEMODE
 70
     1
  9
$MAXACTVP
 70
    64
  9
$PINSBASE
 10
0.0
 20
0.0
 30
0.0
  9
$PLIMCHECK
 70
     0
  9
$PEXTMIN
 10
1.000000000000000E+20
 20
1.000000000000000E+20
 30
1.000000000000000E+20
  9
$PEXTMAX
 10
-1.000000000000000E+20
 20
-1.000000000000000E+20
 30
-1.000000000000000E+20
  9
$PLIMMIN
 10
0.0
 20
0.0
  9
$PLIMMAX
 10
420.0
 20
297.0
  9
$UNITMODE
 70
     0
  9
$VISRETAIN
 70
     1
  9
$PLINEGEN
 70
     0
  9
$PSLTSCALE
 70
     1
  9
$TREEDEPTH
 70
  3020
  9
$CMLSTYLE
  2
Standard
  9
$CMLJUST
 70
     0
  9
$CMLSCALE
 40
20.0
  9
$PROXYGRAPHICS
 70
     1
  9
$MEASUREMENT
 70
     1
  9
$CELWEIGHT
370
    -1
  9
$ENDCAPS
280
     0
  9
$JOINSTYLE
280
     0
  9
$LWDISPLAY
290
     0
  9
$INSUNITS
 70
     4
  9
$HYPERLINKBASE
  1

  9
$STYLESHEET
  1

  9
$XEDIT
290
     1
  9
$CEPSNTYPE
380
     0
  9
$PSTYLEMODE
290
     1
  9
$FINGERPRINTGUID
  2
{5BAA6BB4-805C-4A68-A941-F4B7F26DF56D}
  9
$VERSIONGUID
  2
{FAEB1C32-E019-11D5-929B-00C0DF256EC4}
  9
$EXTNAMES
290
     1
  9
$PSVPSCALE
 40
0.0
  9
$OLESTARTUP
290
     0
  9
$SORTENTS
280
   127
  9
$INDEXCTL
280
     0
  9
$HIDETEXT
280
     1
  9
$XCLIPFRAME
290
     0
  9
$HALOGAP
280
     0
  9
$OBSCOLOR
 70
   257
  9
$OBSLTYPE
280
     0
  9
$INTERSECTIONDISPLAY
280
     0
  9
$INTERSECTIONCOLOR
 70
   257
  9
$DIMASSOC
280
     2
  9
$PROJECTNAME
  1

  0
ENDSEC
  0
SECTION
  2
CLASSES
  0
CLASS
  1
ACDBDICTIONARYWDFLT
  2
AcDbDictionaryWithDefault
  3
ObjectDBX Classes
 90
        0
 91
        4
280
     0
281
     0
  0
CLASS
  1
VISUALSTYLE
  2
AcDbVisualStyle
  3
ObjectDBX Classes
 90
     4095
 91
        4
280
     0
281
     0
  0
CLASS
  1
MATERIAL
  2
AcDbMaterial
  3
ObjectDBX Classes
 90
     1153
 91
        4
280
     0
281
     0
  0
CLASS
  1
SCALE
  2
AcDbScale
  3
ObjectDBX Classes
 90
     1153
 91
        4
280
     0
281
     0
  0
CLASS
  1
TABLESTYLE
  2
AcDbTableStyle
  3
ObjectDBX Classes
 90
     4095
 91
        4
280
     0
281
     0
  0
CLASS
  1
MLEADERSTYLE
  2
AcDbMLeaderStyle
  3
ACDB_MLEADERSTYLE_CLASS
 90
     4095
 91
        4
280
     0
281
     0
  0
CLASS
  1
SUN
  2
AcDbSun
  3
SCENEOE
 90
     1153
 91
        4
280
     0
281
     0
  0
CLASS
  1
DICTIONARYVAR
  2
AcDbDictionaryVar
  3
ObjectDBX Classes
 90
        0
 91
        4
280
     0
281
     0
  0
CLASS
  1
CELLSTYLEMAP
  2
AcDbCellStyleMap
  3
ObjectDBX Classes
 90
     1152
 91
        4
280
     0
281
     0
  0
ENDSEC
  0
SECTION
  2
TABLES
  0
TABLE
  2
VPORT
  5
8
102
{ACAD_XDICTIONARY
360
422
102
}
330
0
100
AcDbSymbolTable
 70
     1
  0
VPORT
  5
29
330
8
100
AcDbSymbolTableRecord
100
AcDbViewportTableRecord
  2
*Active
 70
     0
 10
0.0
 20
0.0
 11
1.0
 21
1.0
 12
0.0
 22
0.0
 13
0.0
 23
0.0
 14
10.0
 24
10.0
 15
10.0
 25
10.0
 16
0.0
 26
0.0
 36
1.0
 17
0.0
 27
0.0
 37
0.0
 40
3267.0
 41
1.414141414141414
 42
50.0
 43
0.0
 44
0.0
 50
0.0
 51
0.0
 71
     0
 72
 10000
 73
     1
 74
     3
 75
     0
 76
     0
 77
     0
 78
     0
281
     0
 65
     1
110
0.0
120
0.0
130
0.0
111
1.0
121
0.0
131
0.0
112
0.0
122
1.0
132
0.0
 79
     0
146
0.0
  0
ENDTAB
  0
TABLE
  2
LTYPE
  5
5
330
0
100
AcDbSymbolTable
 70
     5
  0
LTYPE
  5
14
330
5
100
AcDbSymbolTableRecord
100
AcDbLinetypeTableRecord
  2
ByBlock
 70
     0
  3

 72
    65
 73
     0
 40
0.0
  0
LTYPE
  5
15
330
5
100
AcDbSymbolTableRecord
100
AcDbLinetypeTableRecord
  2
ByLayer
 70
     0
  3

 72
    65
 73
     0
 40
0.0
  0
LTYPE
  5
16
330
5
100
AcDbSymbolTableRecord
100
AcDbLinetypeTableRecord
  2
Continuous
 70
     0
  3
Solid line
 72
    65
 73
     0
 40
0.0
  0
LTYPE
  5
6F
330
5
100
AcDbSymbolTableRecord
100
AcDbLinetypeTableRecord
  2
JWW_DASHED3
 70
     0
  3
---  ------  ------  ------  ---
 72
    65
 73
     2
 40
3.386666666666667
 49
2.54
 74
     0
 49
-0.8466666666666667
 74
     0
  0
LTYPE
  5
70
330
5
100
AcDbSymbolTableRecord
100
AcDbLinetypeTableRecord
  2
JWW_DASHED2
 70
     0
  3
--    ----    ----    ----    --
 72
    65
 73
     2
 40
3.386666666666667
 49
1.693333333333333
 74
     0
 49
-1.693333333333333
 74
     0
  0
LTYPE
  5
71
330
5
100
AcDbSymbolTableRecord
100
AcDbLinetypeTableRecord
  2
JWW_CENTER1
 70
     0
  3
-----  --  ----------  --  -----
 72
    65
 73
     4
 40
6.773333333333333
 49
4.233333333333333
 74
     0
 49
-0.8466666666666667
 74
     0
 49
0.8466666666666667
 74
     0
 49
-0.8466666666666667
 74
     0
  0
LTYPE
  5
72
330
5
100
AcDbSymbolTableRecord
100
AcDbLinetypeTableRecord
  2
JWW_CENTER2
 70
     0
  3
-------------  --  -------------
 72
    65
 73
     4
 40
13.54666666666667
 49
11.00666666666667
 74
     0
 49
-0.8466666666666667
 74
     0
 49
0.8466666666666667
 74
     0
 49
-0.8466666666666667
 74
     0
  0
ENDTAB
  0
TABLE
  2
LAYER
  5
2
330
0
100
AcDbSymbolTable
 70
    15
  0
LAYER
  5
10
330
2
100
AcDbSymbolTableRecord
100
AcDbLayerTableRecord
  2
0
 70
     0
 62
     7
  6
Continuous
370
    -3
390
F
  0
LAYER
  5
73
330
2
100
AcDbSymbolTableRecord
100
AcDbLayerTableRecord
  2
D-1
 70
     0
 62
     7
  6
Continuous
370
    -3
390
F
  0
LAYER
  5
74
330
2
100
AcDbSymbolTableRecord
100
AcDbLayerTableRecord
  2
D-4
 70
     0
 62
     7
  6
Continuous
370
    -3
390
F
  0
LAYER
  5
75
330
2
100
AcDbSymbolTableRecord
100
AcDbLayerTableRecord
  2
D-6
 70
     0
 62
     7
  6
Continuous
370
    -3
390
F
  0
LAYER
  5
76
330
2
100
AcDbSymbolTableRecord
100
AcDbLayerTableRecord
  2
D-5
 70
     0
 62
     7
  6
Continuous
370
    -3
390
F
  0
LAYER
  5
77
330
2
100
AcDbSymbolTableRecord
100
AcDbLayerTableRecord
  2
D-0
 70
     0
 62
     7
  6
Continuous
370
    -3
390
F
  0
LAYER
  5
78
330
2
100
AcDbSymbolTableRecord
100
AcDbLayerTableRecord
  2
D-9
 70
     0
 62
     7
  6
Continuous
370
    -3
390
F
  0
LAYER
  5
79
330
2
100
AcDbSymbolTableRecord
100
AcDbLayerTableRecord
  2
D-2
 70
     0
 62
     7
  6
Continuous
370
    -3
390
F
  0
LAYER
  5
7A
330
2
100
AcDbSymbolTableRecord
100
AcDbLayerTableRecord
  2
F-5ﾚｲﾔ
 70
     0
 62
     7
  6
Continuous
370
    -3
390
F
  0
LAYER
  5
7B
330
2
100
AcDbSymbolTableRecord
100
AcDbLayerTableRecord
  2
C-5
 70
     0
 62
     7
  6
Continuous
370
    -3
390
F
  0
LAYER
  5
7C
330
2
100
AcDbSymbolTableRecord
100
AcDbLayerTableRecord
  2
C-A
 70
     0
 62
     7
  6
Continuous
370
    -3
390
F
  0
LAYER
  5
7D
330
2
100
AcDbSymbolTableRecord
100
AcDbLayerTableRecord
  2
C-1
 70
     0
 62
     7
  6
Continuous
370
    -3
390
F
  0
LAYER
  5
7E
330
2
100
AcDbSymbolTableRecord
100
AcDbLayerTableRecord
  2
C-4
 70
     0
 62
     7
  6
Continuous
370
    -3
390
F
  0
LAYER
  5
7F
330
2
100
AcDbSymbolTableRecord
100
AcDbLayerTableRecord
  2
C-2
 70
     0
 62
     7
  6
Continuous
370
    -3
390
F
  0
LAYER
  5
80
330
2
100
AcDbSymbolTableRecord
100
AcDbLayerTableRecord
  2
C-8
 70
     0
 62
     7
  6
Continuous
370
    -3
390
F
  0
ENDTAB
  0
TABLE
  2
STYLE
  5
3
330
0
100
AcDbSymbolTable
 70
     2
  0
STYLE
  5
11
330
3
100
AcDbSymbolTableRecord
100
AcDbTextStyleTableRecord
  2
Standard
 70
     0
 40
0.0
 41
1.0
 50
0.0
 71
     0
 42
2.5
  3
txt
  4

  0
STYLE
  5
6E
330
3
100
AcDbSymbolTableRecord
100
AcDbTextStyleTableRecord
  2
ＭＳ ゴシック
 70
     0
 40
1.0
 41
1.0
 50
0.0
 71
     0
 42
2.5
  3

  4

1001
ACAD
1000
MS Gothic
1071
    32817
  0
ENDTAB
  0
TABLE
  2
VIEW
  5
6
330
0
100
AcDbSymbolTable
 70
     0
  0
ENDTAB
  0
TABLE
  2
UCS
  5
7
330
0
100
AcDbSymbolTable
 70
     0
  0
ENDTAB
  0
TABLE
  2
APPID
  5
9
330
0
100
AcDbSymbolTable
 70
     2
  0
APPID
  5
12
330
9
100
AcDbSymbolTableRecord
100
AcDbRegAppTableRecord
  2
ACAD
 70
     0
  0
APPID
  5
461
330
9
100
AcDbSymbolTableRecord
100
AcDbRegAppTableRecord
  2
ACAD_MLEADERVER
 70
     0
  0
ENDTAB
  0
TABLE
  2
DIMSTYLE
  5
A
330
0
100
AcDbSymbolTable
 70
     1
100
AcDbDimStyleTable
  0
DIMSTYLE
105
27
330
A
100
AcDbSymbolTableRecord
100
AcDbDimStyleTableRecord
  2
ISO-25
 70
     0
 41
2.5
 42
0.625
 43
3.75
 44
1.25
 73
     0
 74
     0
 77
     1
 78
     8
140
2.5
141
2.5
143
0.03937007874016
147
0.625
171
     3
172
     1
178
     0
271
     2
272
     2
274
     3
278
    44
283
     0
284
     8
340
11
  0
ENDTAB
  0
TABLE
  2
BLOCK_RECORD
  5
1
330
0
100
AcDbSymbolTable
 70
     1
  0
BLOCK_RECORD
  5
1F
330
1
100
AcDbSymbolTableRecord
100
AcDbBlockTableRecord
  2
*Model_Space
340
22
  0
BLOCK_RECORD
  5
1B
330
1
100
AcDbSymbolTableRecord
100
AcDbBlockTableRecord
  2
*Paper_Space
340
1E
  0
BLOCK_RECORD
  5
23
330
1
100
AcDbSymbolTableRecord
100
AcDbBlockTableRecord
  2
*Paper_Space0
340
26
  0
ENDTAB
  0
ENDSEC
  0
SECTION
  2
BLOCKS
  0
BLOCK
  5
20
330
1F
100
AcDbEntity
  8
0
100
AcDbBlockBegin
  2
*Model_Space
 70
     0
 10
0.0
 20
0.0
 30
0.0
  3
*Model_Space
  1

  0
ENDBLK
  5
21
330
1F
100
AcDbEntity
  8
0
100
AcDbBlockEnd
  0
BLOCK
  5
1C
330
1B
100
AcDbEntity
 67
     1
  8
0
100
AcDbBlockBegin
  2
*Paper_Space
 70
     0
 10
0.0
 20
0.0
 30
0.0
  3
*Paper_Space
  1

  0
ENDBLK
  5
1D
330
1B
100
AcDbEntity
 67
     1
  8
0
100
AcDbBlockEnd
  0
BLOCK
  5
24
330
23
100
AcDbEntity
  8
0
100
AcDbBlockBegin
  2
*Paper_Space0
 70
     0
 10
0.0
 20
0.0
 30
0.0
  3
*Paper_Space0
  1

  0
ENDBLK
  5
25
330
23
100
AcDbEntity
  8
0
100
AcDbBlockEnd
  0
ENDSEC
  0
SECTION
  2
ENTITIES
  0
LINE
  5
81
330
1F
100
AcDbEntity
  8
D-1
  6
Continuous
 62
     2
370
     9
100
AcDbLine
 10
-713.7643107582935
 20
-519.4134851230078
 30
0.0
 11
-708.7640395571598
 21
-519.4134851230078
 31
0.0
  0
LINE
  5
82
330
1F
100
AcDbEntity
  8
D-1
  6
Continuous
 62
     2
370
     9
100
AcDbLine
 10
-708.7640395571598
 20
-404.414190842002
 30
0.0
 11
-708.7640395571598
 21
-504.4136663211279
 31
0.0
  0
LINE
  5
83
330
1F
100
AcDbEntity
  8
D-4
  6
Continuous
 62
     7
370
     9
100
AcDbLine
 10
-718.7630951825358
 20
-177.2428079379481
 30
0.0
 11
-713.7628242184528
 21
-177.2428079379481
 31
0.0
  0
LINE
  5
84
330
1F
100
AcDbEntity
  8
D-4
  6
Continuous
 62
     7
370
     9
100
AcDbLine
 10
-843.7639269043812
 20
-285.9951730502528
 30
0.0
 11
-718.7630951825358
 21
-285.9951730502528
 31
0.0
  0
LINE
  5
85
330
1F
100
AcDbEntity
  8
D-4
  6
Continuous
 62
     7
370
     9
100
AcDbLine
 10
-718.7630951825358
 20
-391.4586730731421
 30
0.0
 11
-718.7630951825358
 21
-174.2432351840419
 31
0.0
  0
LINE
  5
86
330
1F
100
AcDbEntity
  8
D-4
  6
Continuous
 62
     7
370
     9
100
AcDbLine
 10
-708.7630495240101
 20
-391.4586730731421
 30
0.0
 11
-708.7630495240101
 21
-174.2432351840419
 31
0.0
  0
LINE
  5
87
330
1F
100
AcDbEntity
  8
D-4
  6
Continuous
 62
     7
370
     9
100
AcDbLine
 10
-693.7642153908619
 20
-391.4586730731421
 30
0.0
 11
-693.7642153908619
 21
-63.54661424287976
 31
0.0
  0
LINE
  5
88
330
1F
100
AcDbEntity
  8
D-6
  6
Continuous
 62
     6
370
     9
100
AcDbLine
 10
-443.764041345299
 20
-650.4233499301367
 30
0.0
 11
-347.7531465699084
 21
-554.4133992923194
 31
0.0
  0
LINE
  5
89
330
1F
100
AcDbEntity
  8
D-6
  6
Continuous
 62
     6
370
     9
100
AcDbLine
 10
-443.764041345299
 20
-554.4133992923194
 30
0.0
 11
-278.7630495240099
 21
-554.4133992923194
 31
0.0
  0
LINE
  5
8A
330
1F
100
AcDbEntity
  8
D-6
  6
Continuous
 62
     6
370
     9
100
AcDbLine
 10
-443.764041345299
 20
-664.5650239718848
 30
0.0
 11
-333.6124071289904
 21
-554.4133992923194
 31
0.0
  0
LINE
  5
8B
330
1F
100
AcDbEntity
  8
D-6
  6
Continuous
 62
     6
370
     9
100
AcDbLine
 10
-693.7637242485889
 20
-729.413961960166
 30
0.0
 11
-693.7637242485889
 21
-904.4135423434669
 31
0.0
  0
LINE
  5
8C
330
1F
100
AcDbEntity
  8
D-6
  6
Continuous
 62
     6
370
     9
100
AcDbLine
 10
-443.764041345299
 20
-554.4133992923194
 30
0.0
 11
-443.764041345299
 21
-729.413961960166
 31
0.0
  0
LINE
  5
8D
330
1F
100
AcDbEntity
  8
D-6
  6
Continuous
 62
     6
370
     9
100
AcDbLine
 10
-693.7637242485889
 20
-729.413961960166
 30
0.0
 11
-443.764041345299
 21
-729.413961960166
 31
0.0
  0
LINE
  5
8E
330
1F
100
AcDbEntity
  8
D-6
  6
JWW_DASHED3
 62
     6
370
     9
100
AcDbLine
 10
-631.4709123780138
 20
-831.9135804904396
 30
0.0
 11
-631.4709123780138
 21
-729.413961960166
 31
0.0
  0
LINE
  5
8F
330
1F
100
AcDbEntity
  8
D-6
  6
JWW_DASHED3
 62
     6
370
     9
100
AcDbLine
 10
-586.470454614342
 20
-729.413961960166
 30
0.0
 11
-586.470454614342
 21
-831.9135804904396
 31
0.0
  0
LINE
  5
90
330
1F
100
AcDbEntity
  8
D-4
  6
Continuous
 62
     7
370
     9
100
AcDbLine
 10
-843.7639269043812
 20
-391.4586730731421
 30
0.0
 11
-843.7639269043812
 21
-282.9946084750575
 31
0.0
  0
LINE
  5
91
330
1F
100
AcDbEntity
  8
D-4
  6
Continuous
 62
     7
370
     9
100
AcDbLine
 10
-713.7628242184528
 20
-177.2428079379481
 30
0.0
 11
-656.1026462723621
 21
-177.2428079379481
 31
0.0
  0
LINE
  5
92
330
1F
100
AcDbEntity
  8
D-4
  6
Continuous
 62
     7
370
     9
100
AcDbLine
 10
-1416.432193200767
 20
-285.9951730502528
 30
0.0
 11
-843.7639269043812
 21
-285.9951730502528
 31
0.0
  0
LINE
  5
93
330
1F
100
AcDbEntity
  8
D-4
  6
Continuous
 62
     7
370
     9
100
AcDbLine
 10
-1416.432193200767
 20
-177.2428079379481
 30
0.0
 11
-718.7630951825358
 21
-177.2428079379481
 31
0.0
  0
LINE
  5
94
330
1F
100
AcDbEntity
  8
D-4
  6
Continuous
 62
     7
370
     9
100
AcDbLine
 10
-1416.432193200767
 20
-66.54710252412976
 30
0.0
 11
-693.7642153908619
 21
-66.54710252412976
 31
0.0
  0
LINE
  5
95
330
1F
100
AcDbEntity
  8
D-1
  6
Continuous
 62
     2
370
     9
100
AcDbLine
 10
-843.7644228150257
 20
-519.4134851230078
 30
0.0
 11
-843.7644228150257
 21
-504.4136663211279
 31
0.0
  0
LINE
  5
96
330
1F
100
AcDbEntity
  8
D-1
  6
Continuous
 62
     2
370
     9
100
AcDbLine
 10
-843.7644228150257
 20
-519.4134851230078
 30
0.0
 11
-713.7643107582935
 21
-519.4134851230078
 31
0.0
  0
LINE
  5
97
330
1F
100
AcDbEntity
  8
D-5
  6
Continuous
 62
     7
370
     9
100
AcDbLine
 10
-1185.758250634849
 20
-1100.355581833213
 30
0.0
 11
-1185.758250634849
 21
-1035.356039596885
 31
0.0
  0
LINE
  5
98
330
1F
100
AcDbEntity
  8
D-5
  6
Continuous
 62
     7
370
     9
100
AcDbLine
 10
-1185.758250634849
 20
-1035.356039596885
 30
0.0
 11
-610.7578405548937
 21
-1035.356039596885
 31
0.0
  0
LINE
  5
99
330
1F
100
AcDbEntity
  8
D-5
  6
Continuous
 62
     7
370
     9
100
AcDbLine
 10
-610.7578405548937
 20
-1035.356039596885
 30
0.0
 11
-610.7578405548937
 21
-1100.355581833213
 31
0.0
  0
LINE
  5
9A
330
1F
100
AcDbEntity
  8
D-5
  6
Continuous
 62
     7
370
     9
100
AcDbLine
 10
-610.7578405548937
 20
-1100.355581833213
 30
0.0
 11
-1185.758250634849
 21
-1100.355581833213
 31
0.0
  0
LINE
  5
9B
330
1F
100
AcDbEntity
  8
D-6
  6
Continuous
 62
     6
370
     9
100
AcDbLine
 10
-693.7637242485889
 20
-900.4220338595802
 30
0.0
 11
-522.7542146851428
 21
-729.413961960166
 31
0.0
  0
LINE
  5
9C
330
1F
100
AcDbEntity
  8
D-6
  6
Continuous
 62
     6
370
     9
100
AcDbLine
 10
-683.614045064629
 20
-904.4135423434669
 30
0.0
 11
-508.6134752442248
 21
-729.413961960166
 31
0.0
  0
LINE
  5
9D
330
1F
100
AcDbEntity
  8
D-6
  6
Continuous
 62
     6
370
     9
100
AcDbLine
 10
-443.764041345299
 20
-678.7057061923438
 30
0.0
 11
-319.4717439820178
 21
-554.4133992923194
 31
0.0
  0
LINE
  5
9E
330
1F
100
AcDbEntity
  8
D-6
  6
Continuous
 62
     6
370
     9
100
AcDbLine
 10
-669.4741138626941
 20
-904.4135423434669
 30
0.0
 11
-494.4733461548693
 21
-729.413961960166
 31
0.0
  0
LINE
  5
9F
330
1F
100
AcDbEntity
  8
D-0
  6
Continuous
 62
     7
370
     9
100
AcDbLine
 10
-543.4703287293322
 20
-652.750086380332
 30
0.0
 11
-543.4703287293322
 21
-651.2498040927344
 31
0.0
  0
LINE
  5
A0
330
1F
100
AcDbEntity
  8
D-0
  6
Continuous
 62
     7
370
     9
100
AcDbLine
 10
-543.4703287293322
 20
-651.2498040927344
 30
0.0
 11
-541.9702943970568
 21
-651.2498040927344
 31
0.0
  0
LINE
  5
A1
330
1F
100
AcDbEntity
  8
D-0
  6
Continuous
 62
     7
370
     9
100
AcDbLine
 10
-541.9702943970568
 20
-651.2498040927344
 30
0.0
 11
-541.9702943970568
 21
-652.750086380332
 31
0.0
  0
LINE
  5
A2
330
1F
100
AcDbEntity
  8
D-0
  6
Continuous
 62
     7
370
     9
100
AcDbLine
 10
-541.9702943970568
 20
-652.750086380332
 30
0.0
 11
-543.4703287293322
 21
-652.750086380332
 31
0.0
  0
LINE
  5
A3
330
1F
100
AcDbEntity
  8
D-0
  6
Continuous
 62
     7
370
     9
100
AcDbLine
 10
-503.5422357727892
 20
-682.526754928916
 30
0.0
 11
-503.5422357727892
 21
-681.0264726413184
 31
0.0
  0
LINE
  5
A4
330
1F
100
AcDbEntity
  8
D-0
  6
Continuous
 62
     7
370
     9
100
AcDbLine
 10
-503.5422357727892
 20
-681.0264726413184
 30
0.0
 11
-502.0422014405138
 21
-681.0264726413184
 31
0.0
  0
LINE
  5
A5
330
1F
100
AcDbEntity
  8
D-0
  6
Continuous
 62
     7
370
     9
100
AcDbLine
 10
-502.0422014405138
 20
-681.0264726413184
 30
0.0
 11
-502.0422014405138
 21
-682.526754928916
 31
0.0
  0
LINE
  5
A6
330
1F
100
AcDbEntity
  8
D-0
  6
Continuous
 62
     7
370
     9
100
AcDbLine
 10
-502.0422014405138
 20
-682.526754928916
 30
0.0
 11
-503.5422357727892
 21
-682.526754928916
 31
0.0
  0
LINE
  5
A7
330
1F
100
AcDbEntity
  8
D-0
  6
Continuous
 62
     7
370
     9
100
AcDbLine
 10
-538.0563387085803
 20
-702.8290887607031
 30
0.0
 11
-538.0563387085803
 21
-701.3288064731055
 31
0.0
  0
LINE
  5
A8
330
1F
100
AcDbEntity
  8
D-0
  6
Continuous
 62
     7
370
     9
100
AcDbLine
 10
-538.0563387085803
 20
-701.3288064731055
 30
0.0
 11
-536.5563043763049
 21
-701.3288064731055
 31
0.0
  0
LINE
  5
A9
330
1F
100
AcDbEntity
  8
D-0
  6
Continuous
 62
     7
370
     9
100
AcDbLine
 10
-536.5563043763049
 20
-701.3288064731055
 30
0.0
 11
-536.5563043763049
 21
-702.8290887607031
 31
0.0
  0
LINE
  5
AA
330
1F
100
AcDbEntity
  8
D-0
  6
Continuous
 62
     7
370
     9
100
AcDbLine
 10
-536.5563043763049
 20
-702.8290887607031
 30
0.0
 11
-538.0563387085803
 21
-702.8290887607031
 31
0.0
  0
LINE
  5
AB
330
1F
100
AcDbEntity
  8
D-0
  6
Continuous
 62
     7
370
     9
100
AcDbLine
 10
-473.0886110474474
 20
-704.859518600791
 30
0.0
 11
-473.0886110474474
 21
-703.3592363131934
 31
0.0
  0
LINE
  5
AC
330
1F
100
AcDbEntity
  8
D-0
  6
Continuous
 62
     7
370
     9
100
AcDbLine
 10
-473.0886110474474
 20
-703.3592363131934
 30
0.0
 11
-471.5885767151721
 21
-703.3592363131934
 31
0.0
  0
LINE
  5
AD
330
1F
100
AcDbEntity
  8
D-0
  6
Continuous
 62
     7
370
     9
100
AcDbLine
 10
-471.5885767151721
 20
-703.3592363131934
 30
0.0
 11
-471.5885767151721
 21
-704.859518600791
 31
0.0
  0
LINE
  5
AE
330
1F
100
AcDbEntity
  8
D-0
  6
Continuous
 62
     7
370
     9
100
AcDbLine
 10
-471.5885767151721
 20
-704.859518600791
 30
0.0
 11
-473.0886110474474
 21
-704.859518600791
 31
0.0
  0
LINE
  5
AF
330
1F
100
AcDbEntity
  8
D-0
  6
Continuous
 62
     7
370
     9
100
AcDbLine
 10
-666.6381725479969
 20
-425.3631683123999
 30
0.0
 11
-666.6381725479969
 21
-423.8628264201575
 31
0.0
  0
LINE
  5
B0
330
1F
100
AcDbEntity
  8
D-0
  6
Continuous
 62
     7
370
     9
100
AcDbLine
 10
-666.6381725479969
 20
-423.8628264201575
 30
0.0
 11
-665.1381429840931
 21
-423.8628264201575
 31
0.0
  0
LINE
  5
B1
330
1F
100
AcDbEntity
  8
D-0
  6
Continuous
 62
     7
370
     9
100
AcDbLine
 10
-665.1381429840931
 20
-423.8628264201575
 30
0.0
 11
-665.1381429840931
 21
-425.3631683123999
 31
0.0
  0
LINE
  5
B2
330
1F
100
AcDbEntity
  8
D-0
  6
Continuous
 62
     7
370
     9
100
AcDbLine
 10
-665.1381429840931
 20
-425.3631683123999
 30
0.0
 11
-666.6381725479969
 21
-425.3631683123999
 31
0.0
  0
LINE
  5
B3
330
1F
100
AcDbEntity
  8
D-0
  6
Continuous
 62
     7
370
     9
100
AcDbLine
 10
-612.4984201599963
 20
-424.6863575709754
 30
0.0
 11
-612.4984201599963
 21
-423.1860168708258
 31
0.0
  0
LINE
  5
B4
330
1F
100
AcDbEntity
  8
D-0
  6
Continuous
 62
     7
370
     9
100
AcDbLine
 10
-612.4984201599963
 20
-423.1860168708258
 30
0.0
 11
-610.998395364464
 21
-423.1860168708258
 31
0.0
  0
LINE
  5
B5
330
1F
100
AcDbEntity
  8
D-0
  6
Continuous
 62
     7
370
     9
100
AcDbLine
 10
-610.998395364464
 20
-423.1860168708258
 30
0.0
 11
-610.998395364464
 21
-424.6863575709754
 31
0.0
  0
LINE
  5
B6
330
1F
100
AcDbEntity
  8
D-0
  6
Continuous
 62
     7
370
     9
100
AcDbLine
 10
-610.998395364464
 20
-424.6863575709754
 30
0.0
 11
-612.4984201599963
 21
-424.6863575709754
 31
0.0
  0
LINE
  5
B7
330
1F
100
AcDbEntity
  8
D-0
  6
Continuous
 62
     7
370
     9
100
AcDbLine
 10
-569.8633321930773
 20
-448.3727403415137
 30
0.0
 11
-569.8633321930773
 21
-446.8723960650855
 31
0.0
  0
LINE
  5
B8
330
1F
100
AcDbEntity
  8
D-0
  6
Continuous
 62
     7
370
     9
100
AcDbLine
 10
-569.8633321930773
 20
-446.8723960650855
 30
0.0
 11
-568.3633073975451
 21
-446.8723960650855
 31
0.0
  0
LINE
  5
B9
330
1F
100
AcDbEntity
  8
D-0
  6
Continuous
 62
     7
370
     9
100
AcDbLine
 10
-568.3633073975451
 20
-446.8723960650855
 30
0.0
 11
-568.3633073975451
 21
-448.3727403415137
 31
0.0
  0
LINE
  5
BA
330
1F
100
AcDbEntity
  8
D-0
  6
Continuous
 62
     7
370
     9
100
AcDbLine
 10
-568.3633073975451
 20
-448.3727403415137
 30
0.0
 11
-569.8633321930773
 21
-448.3727403415137
 31
0.0
  0
LINE
  5
BB
330
1F
100
AcDbEntity
  8
D-0
  6
Continuous
 62
     7
370
     9
100
AcDbLine
 10
-546.177199762047
 20
-427.3935361636572
 30
0.0
 11
-546.177199762047
 21
-425.8932586444312
 31
0.0
  0
LINE
  5
BC
330
1F
100
AcDbEntity
  8
D-0
  6
Continuous
 62
     7
370
     9
100
AcDbLine
 10
-546.177199762047
 20
-425.8932586444312
 30
0.0
 11
-544.6771654297717
 21
-425.8932586444312
 31
0.0
  0
LINE
  5
BD
330
1F
100
AcDbEntity
  8
D-0
  6
Continuous
 62
     7
370
     9
100
AcDbLine
 10
-544.6771654297717
 20
-425.8932586444312
 30
0.0
 11
-544.6771654297717
 21
-427.3935361636572
 31
0.0
  0
LINE
  5
BE
330
1F
100
AcDbEntity
  8
D-0
  6
Continuous
 62
     7
370
     9
100
AcDbLine
 10
-544.6771654297717
 20
-427.3935361636572
 30
0.0
 11
-546.177199762047
 21
-427.3935361636572
 31
0.0
  0
LINE
  5
BF
330
1F
100
AcDbEntity
  8
D-0
  6
Continuous
 62
     7
370
     9
100
AcDbLine
 10
-545.5005678345568
 20
-496.4217515719824
 30
0.0
 11
-545.5005678345568
 21
-494.9214692843848
 31
0.0
  0
LINE
  5
C0
330
1F
100
AcDbEntity
  8
D-0
  6
Continuous
 62
     7
370
     9
100
AcDbLine
 10
-545.5005678345568
 20
-494.9214692843848
 30
0.0
 11
-544.0004762818224
 21
-494.9214692843848
 31
0.0
  0
LINE
  5
C1
330
1F
100
AcDbEntity
  8
D-0
  6
Continuous
 62
     7
370
     9
100
AcDbLine
 10
-544.0004762818224
 20
-494.9214692843848
 30
0.0
 11
-544.0004762818224
 21
-496.4217515719824
 31
0.0
  0
LINE
  5
C2
330
1F
100
AcDbEntity
  8
D-0
  6
Continuous
 62
     7
370
     9
100
AcDbLine
 10
-544.0004762818224
 20
-496.4217515719824
 30
0.0
 11
-545.5005678345568
 21
-496.4217515719824
 31
0.0
  0
LINE
  5
C3
330
1F
100
AcDbEntity
  8
D-0
  6
Continuous
 62
     7
370
     9
100
AcDbLine
 10
-416.9186815430529
 20
-425.3631683123999
 30
0.0
 11
-416.9186815430529
 21
-423.8628264201575
 31
0.0
  0
LINE
  5
C4
330
1F
100
AcDbEntity
  8
D-0
  6
Continuous
 62
     7
370
     9
100
AcDbLine
 10
-416.9186815430529
 20
-423.8628264201575
 30
0.0
 11
-415.4187044312365
 21
-423.8628264201575
 31
0.0
  0
LINE
  5
C5
330
1F
100
AcDbEntity
  8
D-0
  6
Continuous
 62
     7
370
     9
100
AcDbLine
 10
-415.4187044312365
 20
-423.8628264201575
 30
0.0
 11
-415.4187044312365
 21
-425.3631683123999
 31
0.0
  0
LINE
  5
C6
330
1F
100
AcDbEntity
  8
D-0
  6
Continuous
 62
     7
370
     9
100
AcDbLine
 10
-415.4187044312365
 20
-425.3631683123999
 30
0.0
 11
-416.9186815430529
 21
-425.3631683123999
 31
0.0
  0
LINE
  5
C7
330
1F
100
AcDbEntity
  8
D-0
  6
Continuous
 62
     7
370
     9
100
AcDbLine
 10
-366.162722985924
 20
-428.0703469050818
 30
0.0
 11
-366.162722985924
 21
-426.5701289905005
 31
0.0
  0
LINE
  5
C8
330
1F
100
AcDbEntity
  8
D-0
  6
Continuous
 62
     7
370
     9
100
AcDbLine
 10
-366.162722985924
 20
-426.5701289905005
 30
0.0
 11
-364.6627077271349
 21
-426.5701289905005
 31
0.0
  0
LINE
  5
C9
330
1F
100
AcDbEntity
  8
D-0
  6
Continuous
 62
     7
370
     9
100
AcDbLine
 10
-364.6627077271349
 20
-426.5701289905005
 30
0.0
 11
-364.6627077271349
 21
-428.0703469050818
 31
0.0
  0
LINE
  5
CA
330
1F
100
AcDbEntity
  8
D-0
  6
Continuous
 62
     7
370
     9
100
AcDbLine
 10
-364.6627077271349
 20
-428.0703469050818
 30
0.0
 11
-366.162722985924
 21
-428.0703469050818
 31
0.0
  0
LINE
  5
CB
330
1F
100
AcDbEntity
  8
D-0
  6
Continuous
 62
     7
370
     9
100
AcDbLine
 10
-301.1950716187365
 20
-426.0399170649939
 30
0.0
 11
-301.1950716187365
 21
-424.539637161582
 31
0.0
  0
LINE
  5
CC
330
1F
100
AcDbEntity
  8
D-0
  6
Continuous
 62
     7
370
     9
100
AcDbLine
 10
-301.1950716187365
 20
-424.539637161582
 30
0.0
 11
-299.6949800660021
 21
-424.539637161582
 31
0.0
  0
LINE
  5
CD
330
1F
100
AcDbEntity
  8
D-0
  6
Continuous
 62
     7
370
     9
100
AcDbLine
 10
-299.6949800660021
 20
-424.539637161582
 30
0.0
 11
-299.6949800660021
 21
-426.0399170649939
 31
0.0
  0
LINE
  5
CE
330
1F
100
AcDbEntity
  8
D-0
  6
Continuous
 62
     7
370
     9
100
AcDbLine
 10
-299.6949800660021
 20
-426.0399170649939
 30
0.0
 11
-301.1950716187365
 21
-426.0399170649939
 31
0.0
  0
LINE
  5
CF
330
1F
100
AcDbEntity
  8
D-0
  6
Continuous
 62
     7
370
     9
100
AcDbLine
 10
-325.5579408814318
 20
-458.5238405002051
 30
0.0
 11
-325.5579408814318
 21
-457.0236249698096
 31
0.0
  0
LINE
  5
D0
330
1F
100
AcDbEntity
  8
D-0
  6
Continuous
 62
     7
370
     9
100
AcDbLine
 10
-325.5579408814318
 20
-457.0236249698096
 30
0.0
 11
-324.0579256226428
 21
-457.0236249698096
 31
0.0
  0
LINE
  5
D1
330
1F
100
AcDbEntity
  8
D-0
  6
Continuous
 62
     7
370
     9
100
AcDbLine
 10
-324.0579256226428
 20
-457.0236249698096
 30
0.0
 11
-324.0579256226428
 21
-458.5238405002051
 31
0.0
  0
LINE
  5
D2
330
1F
100
AcDbEntity
  8
D-0
  6
Continuous
 62
     7
370
     9
100
AcDbLine
 10
-324.0579256226428
 20
-458.5238405002051
 30
0.0
 11
-325.5579408814318
 21
-458.5238405002051
 31
0.0
  0
LINE
  5
D3
330
1F
100
AcDbEntity
  8
D-0
  6
Continuous
 62
     7
370
     9
100
AcDbLine
 10
-365.4859193970568
 20
-482.2097249759131
 30
0.0
 11
-365.4859193970568
 21
-480.709447456687
 31
0.0
  0
LINE
  5
D4
330
1F
100
AcDbEntity
  8
D-0
  6
Continuous
 62
     7
370
     9
100
AcDbLine
 10
-365.4859193970568
 20
-480.709447456687
 30
0.0
 11
-363.9859041382678
 21
-480.709447456687
 31
0.0
  0
LINE
  5
D5
330
1F
100
AcDbEntity
  8
D-0
  6
Continuous
 62
     7
370
     9
100
AcDbLine
 10
-363.9859041382678
 20
-480.709447456687
 30
0.0
 11
-363.9859041382678
 21
-482.2097249759131
 31
0.0
  0
LINE
  5
D6
330
1F
100
AcDbEntity
  8
D-0
  6
Continuous
 62
     7
370
     9
100
AcDbLine
 10
-363.9859041382678
 20
-482.2097249759131
 30
0.0
 11
-365.4859193970568
 21
-482.2097249759131
 31
0.0
  0
LINE
  5
D7
330
1F
100
AcDbEntity
  8
D-0
  6
Continuous
 62
     7
370
     9
100
AcDbLine
 10
-393.2325395752795
 20
-496.4217515719824
 30
0.0
 11
-393.2325395752795
 21
-494.9214692843848
 31
0.0
  0
LINE
  5
D8
330
1F
100
AcDbEntity
  8
D-0
  6
Continuous
 62
     7
370
     9
100
AcDbLine
 10
-393.2325395752795
 20
-494.9214692843848
 30
0.0
 11
-391.7325624634631
 21
-494.9214692843848
 31
0.0
  0
LINE
  5
D9
330
1F
100
AcDbEntity
  8
D-0
  6
Continuous
 62
     7
370
     9
100
AcDbLine
 10
-391.7325624634631
 20
-494.9214692843848
 30
0.0
 11
-391.7325624634631
 21
-496.4217515719824
 31
0.0
  0
LINE
  5
DA
330
1F
100
AcDbEntity
  8
D-0
  6
Continuous
 62
     7
370
     9
100
AcDbLine
 10
-391.7325624634631
 20
-496.4217515719824
 30
0.0
 11
-393.2325395752795
 21
-496.4217515719824
 31
0.0
  0
LINE
  5
DB
330
1F
100
AcDbEntity
  8
D-0
  6
Continuous
 62
     7
370
     9
100
AcDbLine
 10
-418.2721742798693
 20
-467.3213859332495
 30
0.0
 11
-418.2721742798693
 21
-465.8211036456519
 31
0.0
  0
LINE
  5
DC
330
1F
100
AcDbEntity
  8
D-0
  6
Continuous
 62
     7
370
     9
100
AcDbLine
 10
-418.2721742798693
 20
-465.8211036456519
 30
0.0
 11
-416.7721399475939
 21
-465.8211036456519
 31
0.0
  0
LINE
  5
DD
330
1F
100
AcDbEntity
  8
D-0
  6
Continuous
 62
     7
370
     9
100
AcDbLine
 10
-416.7721399475939
 20
-465.8211036456519
 30
0.0
 11
-416.7721399475939
 21
-467.3213859332495
 31
0.0
  0
LINE
  5
DE
330
1F
100
AcDbEntity
  8
D-0
  6
Continuous
 62
     7
370
     9
100
AcDbLine
 10
-416.7721399475939
 20
-467.3213859332495
 30
0.0
 11
-418.2721742798693
 21
-467.3213859332495
 31
0.0
  0
LINE
  5
DF
330
1F
100
AcDbEntity
  8
D-0
  6
Continuous
 62
     7
370
     9
100
AcDbLine
 10
-397.9698976685412
 20
-531.6124196780615
 30
0.0
 11
-397.9698976685412
 21
-530.1121373904639
 31
0.0
  0
LINE
  5
E0
330
1F
100
AcDbEntity
  8
D-0
  6
Continuous
 62
     7
370
     9
100
AcDbLine
 10
-397.9698976685412
 20
-530.1121373904639
 30
0.0
 11
-396.4698061158068
 21
-530.1121373904639
 31
0.0
  0
LINE
  5
E1
330
1F
100
AcDbEntity
  8
D-0
  6
Continuous
 62
     7
370
     9
100
AcDbLine
 10
-396.4698061158068
 20
-530.1121373904639
 30
0.0
 11
-396.4698061158068
 21
-531.6124196780615
 31
0.0
  0
LINE
  5
E2
330
1F
100
AcDbEntity
  8
D-0
  6
Continuous
 62
     7
370
     9
100
AcDbLine
 10
-396.4698061158068
 20
-531.6124196780615
 30
0.0
 11
-397.9698976685412
 21
-531.6124196780615
 31
0.0
  0
LINE
  5
E3
330
1F
100
AcDbEntity
  8
D-0
  6
Continuous
 62
     7
370
     9
100
AcDbLine
 10
-340.446284692467
 20
-530.258802963584
 30
0.0
 11
-340.446284692467
 21
-528.7585206759863
 31
0.0
  0
LINE
  5
E4
330
1F
100
AcDbEntity
  8
D-0
  6
Continuous
 62
     7
370
     9
100
AcDbLine
 10
-340.446284692467
 20
-528.7585206759863
 30
0.0
 11
-338.9463075806506
 21
-528.7585206759863
 31
0.0
  0
LINE
  5
E5
330
1F
100
AcDbEntity
  8
D-0
  6
Continuous
 62
     7
370
     9
100
AcDbLine
 10
-338.9463075806506
 20
-528.7585206759863
 30
0.0
 11
-338.9463075806506
 21
-530.258802963584
 31
0.0
  0
LINE
  5
E6
330
1F
100
AcDbEntity
  8
D-0
  6
Continuous
 62
     7
370
     9
100
AcDbLine
 10
-338.9463075806506
 20
-530.258802963584
 30
0.0
 11
-340.446284692467
 21
-530.258802963584
 31
0.0
  0
LINE
  5
E7
330
1F
100
AcDbEntity
  8
D-0
  6
Continuous
 62
     7
370
     9
100
AcDbLine
 10
-291.0438570191271
 20
-529.5819898379737
 30
0.0
 11
-291.0438570191271
 21
-528.081707550376
 31
0.0
  0
LINE
  5
E8
330
1F
100
AcDbEntity
  8
D-0
  6
Continuous
 62
     7
370
     9
100
AcDbLine
 10
-291.0438570191271
 20
-528.081707550376
 30
0.0
 11
-289.5438036133654
 21
-528.081707550376
 31
0.0
  0
LINE
  5
E9
330
1F
100
AcDbEntity
  8
D-0
  6
Continuous
 62
     7
370
     9
100
AcDbLine
 10
-289.5438036133654
 20
-528.081707550376
 30
0.0
 11
-289.5438036133654
 21
-529.5819898379737
 31
0.0
  0
LINE
  5
EA
330
1F
100
AcDbEntity
  8
D-0
  6
Continuous
 62
     7
370
     9
100
AcDbLine
 10
-289.5438036133654
 20
-529.5819898379737
 30
0.0
 11
-291.0438570191271
 21
-529.5819898379737
 31
0.0
  0
LINE
  5
EB
330
1F
100
AcDbEntity
  8
D-0
  6
Continuous
 62
     7
370
     9
100
AcDbLine
 10
-303.2253297974474
 20
-489.6541448367529
 30
0.0
 11
-303.2253297974474
 21
-488.1538625491553
 31
0.0
  0
LINE
  5
EC
330
1F
100
AcDbEntity
  8
D-0
  6
Continuous
 62
     7
370
     9
100
AcDbLine
 10
-303.2253297974474
 20
-488.1538625491553
 30
0.0
 11
-301.7252763916857
 21
-488.1538625491553
 31
0.0
  0
LINE
  5
ED
330
1F
100
AcDbEntity
  8
D-0
  6
Continuous
 62
     7
370
     9
100
AcDbLine
 10
-301.7252763916857
 20
-488.1538625491553
 30
0.0
 11
-301.7252763916857
 21
-489.6541448367529
 31
0.0
  0
LINE
  5
EE
330
1F
100
AcDbEntity
  8
D-0
  6
Continuous
 62
     7
370
     9
100
AcDbLine
 10
-301.7252763916857
 20
-489.6541448367529
 30
0.0
 11
-303.2253297974474
 21
-489.6541448367529
 31
0.0
  0
LINE
  5
EF
330
1F
100
AcDbEntity
  8
D-0
  6
Continuous
 62
     7
370
     9
100
AcDbLine
 10
-824.7853693177112
 20
-660.9555383456641
 30
0.0
 11
-824.7853693177112
 21
-659.4552560580664
 31
0.0
  0
LINE
  5
F0
330
1F
100
AcDbEntity
  8
D-0
  6
Continuous
 62
     7
370
     9
100
AcDbLine
 10
-824.7853693177112
 20
-659.4552560580664
 30
0.0
 11
-823.2853349854358
 21
-659.4552560580664
 31
0.0
  0
LINE
  5
F1
330
1F
100
AcDbEntity
  8
D-0
  6
Continuous
 62
     7
370
     9
100
AcDbLine
 10
-823.2853349854358
 20
-659.4552560580664
 30
0.0
 11
-823.2853349854358
 21
-660.9555383456641
 31
0.0
  0
LINE
  5
F2
330
1F
100
AcDbEntity
  8
D-0
  6
Continuous
 62
     7
370
     9
100
AcDbLine
 10
-823.2853349854358
 20
-660.9555383456641
 30
0.0
 11
-824.7853693177112
 21
-660.9555383456641
 31
0.0
  0
LINE
  5
F3
330
1F
100
AcDbEntity
  8
D-0
  6
Continuous
 62
     7
370
     9
100
AcDbLine
 10
-720.1011085321315
 20
-660.9555383456641
 30
0.0
 11
-720.1011085321315
 21
-659.4552560580664
 31
0.0
  0
LINE
  5
F4
330
1F
100
AcDbEntity
  8
D-0
  6
Continuous
 62
     7
370
     9
100
AcDbLine
 10
-720.1011085321315
 20
-659.4552560580664
 30
0.0
 11
-718.6010769006916
 21
-659.4552560580664
 31
0.0
  0
LINE
  5
F5
330
1F
100
AcDbEntity
  8
D-0
  6
Continuous
 62
     7
370
     9
100
AcDbLine
 10
-718.6010769006916
 20
-659.4552560580664
 30
0.0
 11
-718.6010769006916
 21
-660.9555383456641
 31
0.0
  0
LINE
  5
F6
330
1F
100
AcDbEntity
  8
D-0
  6
Continuous
 62
     7
370
     9
100
AcDbLine
 10
-718.6010769006916
 20
-660.9555383456641
 30
0.0
 11
-720.1011085321315
 21
-660.9555383456641
 31
0.0
  0
LINE
  5
F7
330
1F
100
AcDbEntity
  8
D-0
  6
Continuous
 62
     7
370
     9
100
AcDbLine
 10
-734.1859242131122
 20
-749.271368576377
 30
0.0
 11
-734.1859242131122
 21
-747.7710862887793
 31
0.0
  0
LINE
  5
F8
330
1F
100
AcDbEntity
  8
D-0
  6
Continuous
 62
     7
370
     9
100
AcDbLine
 10
-734.1859242131122
 20
-747.7710862887793
 30
0.0
 11
-732.6858922650226
 21
-747.7710862887793
 31
0.0
  0
LINE
  5
F9
330
1F
100
AcDbEntity
  8
D-0
  6
Continuous
 62
     7
370
     9
100
AcDbLine
 10
-732.6858922650226
 20
-747.7710862887793
 30
0.0
 11
-732.6858922650226
 21
-749.271368576377
 31
0.0
  0
LINE
  5
FA
330
1F
100
AcDbEntity
  8
D-0
  6
Continuous
 62
     7
370
     9
100
AcDbLine
 10
-732.6858922650226
 20
-749.271368576377
 30
0.0
 11
-734.1859242131122
 21
-749.271368576377
 31
0.0
  0
LINE
  5
FB
330
1F
100
AcDbEntity
  8
D-0
  6
Continuous
 62
     7
370
     9
100
AcDbLine
 10
-722.0044517328151
 20
-713.8691278232031
 30
0.0
 11
-722.0044517328151
 21
-712.3688455356055
 31
0.0
  0
LINE
  5
FC
330
1F
100
AcDbEntity
  8
D-0
  6
Continuous
 62
     7
370
     9
100
AcDbLine
 10
-722.0044517328151
 20
-712.3688455356055
 30
0.0
 11
-720.5044200827488
 21
-712.3688455356055
 31
0.0
  0
LINE
  5
FD
330
1F
100
AcDbEntity
  8
D-0
  6
Continuous
 62
     7
370
     9
100
AcDbLine
 10
-720.5044200827488
 20
-712.3688455356055
 30
0.0
 11
-720.5044200827488
 21
-713.8691278232031
 31
0.0
  0
LINE
  5
FE
330
1F
100
AcDbEntity
  8
D-0
  6
Continuous
 62
     7
370
     9
100
AcDbLine
 10
-720.5044200827488
 20
-713.8691278232031
 30
0.0
 11
-722.0044517328151
 21
-713.8691278232031
 31
0.0
  0
LINE
  5
FF
330
1F
100
AcDbEntity
  8
D-0
  6
Continuous
 62
     7
370
     9
100
AcDbLine
 10
-822.5013765503772
 20
-751.5554567111426
 30
0.0
 11
-822.5013765503772
 21
-750.0551744235449
 31
0.0
  0
LINE
  5
100
330
1F
100
AcDbEntity
  8
D-0
  6
Continuous
 62
     7
370
     9
100
AcDbLine
 10
-822.5013765503772
 20
-750.0551744235449
 30
0.0
 11
-821.0013422181019
 21
-750.0551744235449
 31
0.0
  0
LINE
  5
101
330
1F
100
AcDbEntity
  8
D-0
  6
Continuous
 62
     7
370
     9
100
AcDbLine
 10
-821.0013422181019
 20
-750.0551744235449
 30
0.0
 11
-821.0013422181019
 21
-751.5554567111426
 31
0.0
  0
LINE
  5
102
330
1F
100
AcDbEntity
  8
D-0
  6
Continuous
 62
     7
370
     9
100
AcDbLine
 10
-821.0013422181019
 20
-751.5554567111426
 30
0.0
 11
-822.5013765503772
 21
-751.5554567111426
 31
0.0
  0
LINE
  5
103
330
1F
100
AcDbEntity
  8
D-0
  6
Continuous
 62
     7
370
     9
100
AcDbLine
 10
-778.3435901810535
 20
-754.6006150973731
 30
0.0
 11
-778.3435901810535
 21
-753.1003328097754
 31
0.0
  0
LINE
  5
104
330
1F
100
AcDbEntity
  8
D-0
  6
Continuous
 62
     7
370
     9
100
AcDbLine
 10
-778.3435901810535
 20
-753.1003328097754
 30
0.0
 11
-776.8435606171497
 21
-753.1003328097754
 31
0.0
  0
LINE
  5
105
330
1F
100
AcDbEntity
  8
D-0
  6
Continuous
 62
     7
370
     9
100
AcDbLine
 10
-776.8435606171497
 20
-753.1003328097754
 30
0.0
 11
-776.8435606171497
 21
-754.6006150973731
 31
0.0
  0
LINE
  5
106
330
1F
100
AcDbEntity
  8
D-0
  6
Continuous
 62
     7
370
     9
100
AcDbLine
 10
-776.8435606171497
 20
-754.6006150973731
 30
0.0
 11
-778.3435901810535
 21
-754.6006150973731
 31
0.0
  0
LINE
  5
107
330
1F
100
AcDbEntity
  8
D-0
  6
Continuous
 62
     7
370
     9
100
AcDbLine
 10
-774.9175485779651
 20
-716.9142671359473
 30
0.0
 11
-774.9175485779651
 21
-715.414003921836
 31
0.0
  0
LINE
  5
108
330
1F
100
AcDbEntity
  8
D-0
  6
Continuous
 62
     7
370
     9
100
AcDbLine
 10
-774.9175485779651
 20
-715.414003921836
 30
0.0
 11
-773.4175142456897
 21
-715.414003921836
 31
0.0
  0
LINE
  5
109
330
1F
100
AcDbEntity
  8
D-0
  6
Continuous
 62
     7
370
     9
100
AcDbLine
 10
-773.4175142456897
 20
-715.414003921836
 30
0.0
 11
-773.4175142456897
 21
-716.9142671359473
 31
0.0
  0
LINE
  5
10A
330
1F
100
AcDbEntity
  8
D-0
  6
Continuous
 62
     7
370
     9
100
AcDbLine
 10
-773.4175142456897
 20
-716.9142671359473
 30
0.0
 11
-774.9175485779651
 21
-716.9142671359473
 31
0.0
  0
LINE
  5
10B
330
1F
100
AcDbEntity
  8
D-0
  6
Continuous
 62
     7
370
     9
100
AcDbLine
 10
-825.5466493775257
 20
-715.3912111056738
 30
0.0
 11
-825.5466493775257
 21
-713.8909288180762
 31
0.0
  0
LINE
  5
10C
330
1F
100
AcDbEntity
  8
D-0
  6
Continuous
 62
     7
370
     9
100
AcDbLine
 10
-825.5466493775257
 20
-713.8909288180762
 30
0.0
 11
-824.0466245819935
 21
-713.8909288180762
 31
0.0
  0
LINE
  5
10D
330
1F
100
AcDbEntity
  8
D-0
  6
Continuous
 62
     7
370
     9
100
AcDbLine
 10
-824.0466245819935
 20
-713.8909288180762
 30
0.0
 11
-824.0466245819935
 21
-715.3912111056738
 31
0.0
  0
LINE
  5
10E
330
1F
100
AcDbEntity
  8
D-0
  6
Continuous
 62
     7
370
     9
100
AcDbLine
 10
-824.0466245819935
 20
-715.3912111056738
 30
0.0
 11
-825.5466493775257
 21
-715.3912111056738
 31
0.0
  0
LINE
  5
10F
330
1F
100
AcDbEntity
  8
D-0
  6
Continuous
 62
     7
370
     9
100
AcDbLine
 10
-817.1719869782337
 20
-836.8256517184669
 30
0.0
 11
-817.1719869782337
 21
-835.3253694308693
 31
0.0
  0
LINE
  5
110
330
1F
100
AcDbEntity
  8
D-0
  6
Continuous
 62
     7
370
     9
100
AcDbLine
 10
-817.1719869782337
 20
-835.3253694308693
 30
0.0
 11
-815.6719621827015
 21
-835.3253694308693
 31
0.0
  0
LINE
  5
111
330
1F
100
AcDbEntity
  8
D-0
  6
Continuous
 62
     7
370
     9
100
AcDbLine
 10
-815.6719621827015
 20
-835.3253694308693
 30
0.0
 11
-815.6719621827015
 21
-836.8256517184669
 31
0.0
  0
LINE
  5
112
330
1F
100
AcDbEntity
  8
D-0
  6
Continuous
 62
     7
370
     9
100
AcDbLine
 10
-815.6719621827015
 20
-836.8256517184669
 30
0.0
 11
-817.1719869782337
 21
-836.8256517184669
 31
0.0
  0
LINE
  5
113
330
1F
100
AcDbEntity
  8
D-0
  6
Continuous
 62
     7
370
     9
100
AcDbLine
 10
-765.4008325745472
 20
-833.0184694064552
 30
0.0
 11
-765.4008325745472
 21
-831.5181871188576
 31
0.0
  0
LINE
  5
114
330
1F
100
AcDbEntity
  8
D-0
  6
Continuous
 62
     7
370
     9
100
AcDbLine
 10
-765.4008325745472
 20
-831.5181871188576
 30
0.0
 11
-763.9007982422718
 21
-831.5181871188576
 31
0.0
  0
LINE
  5
115
330
1F
100
AcDbEntity
  8
D-0
  6
Continuous
 62
     7
370
     9
100
AcDbLine
 10
-763.9007982422718
 20
-831.5181871188576
 30
0.0
 11
-763.9007982422718
 21
-833.0184694064552
 31
0.0
  0
LINE
  5
116
330
1F
100
AcDbEntity
  8
D-0
  6
Continuous
 62
     7
370
     9
100
AcDbLine
 10
-763.9007982422718
 20
-833.0184694064552
 30
0.0
 11
-765.4008325745472
 21
-833.0184694064552
 31
0.0
  0
LINE
  5
117
330
1F
100
AcDbEntity
  8
D-0
  6
Continuous
 62
     7
370
     9
100
AcDbLine
 10
-715.533010344685
 20
-834.9220414889747
 30
0.0
 11
-715.533010344685
 21
-833.4217592013771
 31
0.0
  0
LINE
  5
118
330
1F
100
AcDbEntity
  8
D-0
  6
Continuous
 62
     7
370
     9
100
AcDbLine
 10
-715.533010344685
 20
-833.4217592013771
 30
0.0
 11
-714.0329786946186
 21
-833.4217592013771
 31
0.0
  0
LINE
  5
119
330
1F
100
AcDbEntity
  8
D-0
  6
Continuous
 62
     7
370
     9
100
AcDbLine
 10
-714.0329786946186
 20
-833.4217592013771
 30
0.0
 11
-714.0329786946186
 21
-834.9220414889747
 31
0.0
  0
LINE
  5
11A
330
1F
100
AcDbEntity
  8
D-0
  6
Continuous
 62
     7
370
     9
100
AcDbLine
 10
-714.0329786946186
 20
-834.9220414889747
 30
0.0
 11
-715.533010344685
 21
-834.9220414889747
 31
0.0
  0
LINE
  5
11B
330
1F
100
AcDbEntity
  8
D-0
  6
Continuous
 62
     7
370
     9
100
AcDbLine
 10
-740.2765950371631
 20
-860.8073182834083
 30
0.0
 11
-740.2765950371631
 21
-859.3070359958107
 31
0.0
  0
LINE
  5
11C
330
1F
100
AcDbEntity
  8
D-0
  6
Continuous
 62
     7
370
     9
100
AcDbLine
 10
-740.2765950371631
 20
-859.3070359958107
 30
0.0
 11
-738.7765654732593
 21
-859.3070359958107
 31
0.0
  0
LINE
  5
11D
330
1F
100
AcDbEntity
  8
D-0
  6
Continuous
 62
     7
370
     9
100
AcDbLine
 10
-738.7765654732593
 20
-859.3070359958107
 30
0.0
 11
-738.7765654732593
 21
-860.8073182834083
 31
0.0
  0
LINE
  5
11E
330
1F
100
AcDbEntity
  8
D-0
  6
Continuous
 62
     7
370
     9
100
AcDbLine
 10
-738.7765654732593
 20
-860.8073182834083
 30
0.0
 11
-740.2765950371631
 21
-860.8073182834083
 31
0.0
  0
LINE
  5
11F
330
1F
100
AcDbEntity
  8
D-0
  6
Continuous
 62
     7
370
     9
100
AcDbLine
 10
-780.6275781800159
 20
-872.6083894504005
 30
0.0
 11
-780.6275781800159
 21
-871.1081071628029
 31
0.0
  0
LINE
  5
120
330
1F
100
AcDbEntity
  8
D-0
  6
Continuous
 62
     7
370
     9
100
AcDbLine
 10
-780.6275781800159
 20
-871.1081071628029
 30
0.0
 11
-779.1275438477405
 21
-871.1081071628029
 31
0.0
  0
LINE
  5
121
330
1F
100
AcDbEntity
  8
D-0
  6
Continuous
 62
     7
370
     9
100
AcDbLine
 10
-779.1275438477405
 20
-871.1081071628029
 30
0.0
 11
-779.1275438477405
 21
-872.6083894504005
 31
0.0
  0
LINE
  5
122
330
1F
100
AcDbEntity
  8
D-0
  6
Continuous
 62
     7
370
     9
100
AcDbLine
 10
-779.1275438477405
 20
-872.6083894504005
 30
0.0
 11
-780.6275781800159
 21
-872.6083894504005
 31
0.0
  0
LINE
  5
123
330
1F
100
AcDbEntity
  8
D-0
  6
Continuous
 62
     7
370
     9
100
AcDbLine
 10
-827.8307661225208
 20
-870.3243013156349
 30
0.0
 11
-827.8307661225208
 21
-868.8240190280372
 31
0.0
  0
LINE
  5
124
330
1F
100
AcDbEntity
  8
D-0
  6
Continuous
 62
     7
370
     9
100
AcDbLine
 10
-827.8307661225208
 20
-868.8240190280372
 30
0.0
 11
-826.3307317902454
 21
-868.8240190280372
 31
0.0
  0
LINE
  5
125
330
1F
100
AcDbEntity
  8
D-0
  6
Continuous
 62
     7
370
     9
100
AcDbLine
 10
-826.3307317902454
 20
-868.8240190280372
 30
0.0
 11
-826.3307317902454
 21
-870.3243013156349
 31
0.0
  0
LINE
  5
126
330
1F
100
AcDbEntity
  8
D-0
  6
Continuous
 62
     7
370
     9
100
AcDbLine
 10
-826.3307317902454
 20
-870.3243013156349
 30
0.0
 11
-827.8307661225208
 21
-870.3243013156349
 31
0.0
  0
LINE
  5
127
330
1F
100
AcDbEntity
  8
D-0
  6
Continuous
 62
     7
370
     9
100
AcDbLine
 10
-811.4618333985218
 20
-898.8746782077247
 30
0.0
 11
-811.4618333985218
 21
-897.3743959201271
 31
0.0
  0
LINE
  5
128
330
1F
100
AcDbEntity
  8
D-0
  6
Continuous
 62
     7
370
     9
100
AcDbLine
 10
-811.4618333985218
 20
-897.3743959201271
 30
0.0
 11
-809.9618086029895
 21
-897.3743959201271
 31
0.0
  0
LINE
  5
129
330
1F
100
AcDbEntity
  8
D-0
  6
Continuous
 62
     7
370
     9
100
AcDbLine
 10
-809.9618086029895
 20
-897.3743959201271
 30
0.0
 11
-809.9618086029895
 21
-898.8746782077247
 31
0.0
  0
LINE
  5
12A
330
1F
100
AcDbEntity
  8
D-0
  6
Continuous
 62
     7
370
     9
100
AcDbLine
 10
-809.9618086029895
 20
-898.8746782077247
 30
0.0
 11
-811.4618333985218
 21
-898.8746782077247
 31
0.0
  0
LINE
  5
12B
330
1F
100
AcDbEntity
  8
D-0
  6
Continuous
 62
     7
370
     9
100
AcDbLine
 10
-759.6908029724964
 20
-897.3521180880958
 30
0.0
 11
-759.6908029724964
 21
-895.8518358004982
 31
0.0
  0
LINE
  5
12C
330
1F
100
AcDbEntity
  8
D-0
  6
Continuous
 62
     7
370
     9
100
AcDbLine
 10
-759.6908029724964
 20
-895.8518358004982
 30
0.0
 11
-758.1907662560352
 21
-895.8518358004982
 31
0.0
  0
LINE
  5
12D
330
1F
100
AcDbEntity
  8
D-0
  6
Continuous
 62
     7
370
     9
100
AcDbLine
 10
-758.1907662560352
 20
-895.8518358004982
 30
0.0
 11
-758.1907662560352
 21
-897.3521180880958
 31
0.0
  0
LINE
  5
12E
330
1F
100
AcDbEntity
  8
D-0
  6
Continuous
 62
     7
370
     9
100
AcDbLine
 10
-758.1907662560352
 20
-897.3521180880958
 30
0.0
 11
-759.6908029724964
 21
-897.3521180880958
 31
0.0
  0
LINE
  5
12F
330
1F
100
AcDbEntity
  8
D-0
  6
Continuous
 62
     7
370
     9
100
AcDbLine
 10
-721.623807828606
 20
-897.3521180880958
 30
0.0
 11
-721.623807828606
 21
-895.8518358004982
 31
0.0
  0
LINE
  5
130
330
1F
100
AcDbEntity
  8
D-0
  6
Continuous
 62
     7
370
     9
100
AcDbLine
 10
-721.623807828606
 20
-895.8518358004982
 30
0.0
 11
-720.1237761785396
 21
-895.8518358004982
 31
0.0
  0
LINE
  5
131
330
1F
100
AcDbEntity
  8
D-0
  6
Continuous
 62
     7
370
     9
100
AcDbLine
 10
-720.1237761785396
 20
-895.8518358004982
 30
0.0
 11
-720.1237761785396
 21
-897.3521180880958
 31
0.0
  0
LINE
  5
132
330
1F
100
AcDbEntity
  8
D-0
  6
Continuous
 62
     7
370
     9
100
AcDbLine
 10
-720.1237761785396
 20
-897.3521180880958
 30
0.0
 11
-721.623807828606
 21
-897.3521180880958
 31
0.0
  0
LINE
  5
133
330
1F
100
AcDbEntity
  8
D-0
  6
Continuous
 62
     7
370
     9
100
AcDbLine
 10
-664.5995649506458
 20
-714.3472429049903
 30
0.0
 11
-664.5995649506458
 21
-712.8464837802344
 31
0.0
  0
LINE
  5
134
330
1F
100
AcDbEntity
  8
D-0
  6
Continuous
 62
     7
370
     9
100
AcDbLine
 10
-664.5995649506458
 20
-712.8464837802344
 30
0.0
 11
-663.099535386742
 21
-712.8464837802344
 31
0.0
  0
LINE
  5
135
330
1F
100
AcDbEntity
  8
D-0
  6
Continuous
 62
     7
370
     9
100
AcDbLine
 10
-663.099535386742
 20
-712.8464837802344
 30
0.0
 11
-663.099535386742
 21
-714.3472429049903
 31
0.0
  0
LINE
  5
136
330
1F
100
AcDbEntity
  8
D-0
  6
Continuous
 62
     7
370
     9
100
AcDbLine
 10
-663.099535386742
 20
-714.3472429049903
 30
0.0
 11
-664.5995649506458
 21
-714.3472429049903
 31
0.0
  0
LINE
  5
137
330
1F
100
AcDbEntity
  8
D-6
  6
Continuous
 62
     6
370
     9
100
AcDbLine
 10
-843.7644228150257
 20
-519.4134851230078
 30
0.0
 11
-843.7644228150257
 21
-904.4135423434669
 31
0.0
  0
LINE
  5
138
330
1F
100
AcDbEntity
  8
D-4
  6
Continuous
 62
     7
370
     9
100
AcDbLine
 10
-843.7644228150257
 20
-809.1691346896582
 30
0.0
 11
-693.7637242485889
 21
-809.1691346896582
 31
0.0
  0
LINE
  5
139
330
1F
100
AcDbEntity
  8
D-4
  6
Continuous
 62
     7
370
     9
100
AcDbLine
 10
-843.7644228150257
 20
-962.7660890353615
 30
0.0
 11
-443.764041345299
 21
-962.7660890353615
 31
0.0
  0
LINE
  5
13A
330
1F
100
AcDbEntity
  8
D-4
  6
Continuous
 62
     7
370
     9
100
AcDbLine
 10
-843.7644228150257
 20
-965.7660814059669
 30
0.0
 11
-843.7644228150257
 21
-924.4135423434669
 31
0.0
  0
LINE
  5
13B
330
1F
100
AcDbEntity
  8
D-4
  6
Continuous
 62
     7
370
     9
100
AcDbLine
 10
-443.764041345299
 20
-965.7660814059669
 30
0.0
 11
-443.764041345299
 21
-749.413961960166
 31
0.0
  0
LINE
  5
13C
330
1F
100
AcDbEntity
  8
D-1
  6
Continuous
 62
     2
370
     9
100
AcDbLine
 10
-693.7642153908619
 20
-504.4136663211279
 30
0.0
 11
-693.7642153908619
 21
-404.414190842002
 31
0.0
  0
LINE
  5
13D
330
1F
100
AcDbEntity
  8
D-1
  6
Continuous
 62
     2
370
     9
100
AcDbLine
 10
-708.7640395571598
 20
-404.414190842002
 30
0.0
 11
-693.7642153908619
 21
-404.414190842002
 31
0.0
  0
LINE
  5
13E
330
1F
100
AcDbEntity
  8
D-6
  6
Continuous
 62
     6
370
     9
100
AcDbLine
 10
-693.7642153908619
 20
-404.414190842002
 30
0.0
 11
-278.7635454346545
 21
-404.414190842002
 31
0.0
  0
LINE
  5
13F
330
1F
100
AcDbEntity
  8
D-4
  6
Continuous
 62
     7
370
     9
100
AcDbLine
 10
-175.0015291382678
 20
-404.414190842002
 30
0.0
 11
-175.0015291382678
 21
-729.413961960166
 31
0.0
  0
LINE
  5
140
330
1F
100
AcDbEntity
  8
D-4
  6
Continuous
 62
     7
370
     9
100
AcDbLine
 10
-172.0015367676623
 20
-404.414190842002
 30
0.0
 11
-258.7635454346545
 21
-404.414190842002
 31
0.0
  0
LINE
  5
141
330
1F
100
AcDbEntity
  8
D-4
  6
Continuous
 62
     7
370
     9
100
AcDbLine
 10
-172.0015367676623
 20
-729.413961960166
 30
0.0
 11
-423.764041345299
 21
-729.413961960166
 31
0.0
  0
ARC
  5
142
330
1F
100
AcDbEntity
  8
D-1
  6
Continuous
 62
     2
370
     9
100
AcDbCircle
 10
-708.7640395571598
 20
-504.4136663211279
 30
0.0
 40
15.0
100
AcDbArc
 50
270.0
 51
0.0
  0
LWPOLYLINE
  5
143
330
1F
100
AcDbEntity
  8
D-4
  6
Continuous
 62
     7
370
     9
100
AcDbPolyline
 90
        4
 70
     1
 43
2.0
 10
-707.7630495240101
 20
-177.2428079379481
 42
0.4142135623731
 10
-708.7630495240101
 20
-176.2428079379481
 42
0.4142135623731
 10
-709.76304952401
 20
-177.2428079379481
 42
0.4142135623731
 10
-708.7630495240101
 20
-178.2428079379481
 42
0.4142135623731
  0
LWPOLYLINE
  5
144
330
1F
100
AcDbEntity
  8
D-4
  6
Continuous
 62
     7
370
     9
100
AcDbPolyline
 90
        4
 70
     1
 43
2.0
 10
-842.7639269043812
 20
-285.9951730502528
 42
0.4142135623731
 10
-843.7639269043812
 20
-284.9951730502528
 42
0.4142135623731
 10
-844.763926904381
 20
-285.9951730502528
 42
0.4142135623731
 10
-843.7639269043812
 20
-286.9951730502528
 42
0.4142135623731
  0
LWPOLYLINE
  5
145
330
1F
100
AcDbEntity
  8
D-4
  6
Continuous
 62
     7
370
     9
100
AcDbPolyline
 90
        4
 70
     1
 43
2.0
 10
-717.7630951825358
 20
-285.9951730502528
 42
0.4142135623731
 10
-718.7630951825358
 20
-284.9951730502528
 42
0.4142135623731
 10
-719.7630951825357
 20
-285.9951730502528
 42
0.4142135623731
 10
-718.7630951825358
 20
-286.9951730502528
 42
0.4142135623731
  0
LWPOLYLINE
  5
146
330
1F
100
AcDbEntity
  8
D-4
  6
Continuous
 62
     7
370
     9
100
AcDbPolyline
 90
        4
 70
     1
 43
2.0
 10
-717.7630951825358
 20
-177.2428079379481
 42
0.4142135623731
 10
-718.7630951825358
 20
-176.2428079379481
 42
0.4142135623731
 10
-719.7630951825357
 20
-177.2428079379481
 42
0.4142135623731
 10
-718.7630951825358
 20
-178.2428079379481
 42
0.4142135623731
  0
LWPOLYLINE
  5
147
330
1F
100
AcDbEntity
  8
D-4
  6
Continuous
 62
     7
370
     9
100
AcDbPolyline
 90
        4
 70
     1
 43
2.0
 10
-692.7642153908619
 20
-177.2428079379481
 42
0.4142135623731
 10
-693.7642153908619
 20
-176.2428079379481
 42
0.4142135623731
 10
-694.7642153908618
 20
-177.2428079379481
 42
0.4142135623731
 10
-693.7642153908619
 20
-178.2428079379481
 42
0.4142135623731
  0
LWPOLYLINE
  5
148
330
1F
100
AcDbEntity
  8
D-4
  6
Continuous
 62
     7
370
     9
100
AcDbPolyline
 90
        4
 70
     1
 43
2.0
 10
-692.7642153908619
 20
-66.54710252412976
 42
0.4142135623731
 10
-693.7642153908619
 20
-65.54710252412976
 42
0.4142135623731
 10
-694.7642153908618
 20
-66.54710252412976
 42
0.4142135623731
 10
-693.7642153908619
 20
-67.54710252412976
 42
0.4142135623731
  0
LWPOLYLINE
  5
149
330
1F
100
AcDbEntity
  8
D-4
  6
Continuous
 62
     7
370
     9
100
AcDbPolyline
 90
        4
 70
     1
 43
2.0
 10
-842.7644228150257
 20
-809.1691346896582
 42
0.4142135623731
 10
-843.7644228150257
 20
-808.1691346896582
 42
0.4142135623731
 10
-844.7644228150256
 20
-809.1691346896582
 42
0.4142135623731
 10
-843.7644228150257
 20
-810.1691346896581
 42
0.4142135623731
  0
LWPOLYLINE
  5
14A
330
1F
100
AcDbEntity
  8
D-4
  6
Continuous
 62
     7
370
     9
100
AcDbPolyline
 90
        4
 70
     1
 43
2.0
 10
-692.7637242485889
 20
-809.1691346896582
 42
0.4142135623731
 10
-693.7637242485889
 20
-808.1691346896582
 42
0.4142135623731
 10
-694.7637242485888
 20
-809.1691346896582
 42
0.4142135623731
 10
-693.7637242485889
 20
-810.1691346896581
 42
0.4142135623731
  0
LWPOLYLINE
  5
14B
330
1F
100
AcDbEntity
  8
D-4
  6
Continuous
 62
     7
370
     9
100
AcDbPolyline
 90
        4
 70
     1
 43
2.0
 10
-842.7644228150257
 20
-962.7660890353615
 42
0.4142135623731
 10
-843.7644228150257
 20
-961.7660890353615
 42
0.4142135623731
 10
-844.7644228150256
 20
-962.7660890353615
 42
0.4142135623731
 10
-843.7644228150257
 20
-963.7660890353613
 42
0.4142135623731
  0
LWPOLYLINE
  5
14C
330
1F
100
AcDbEntity
  8
D-4
  6
Continuous
 62
     7
370
     9
100
AcDbPolyline
 90
        4
 70
     1
 43
2.0
 10
-442.764041345299
 20
-962.7660890353615
 42
0.4142135623731
 10
-443.764041345299
 20
-961.7660890353615
 42
0.4142135623731
 10
-444.764041345299
 20
-962.7660890353615
 42
0.4142135623731
 10
-443.764041345299
 20
-963.7660890353613
 42
0.4142135623731
  0
LWPOLYLINE
  5
14D
330
1F
100
AcDbEntity
  8
D-4
  6
Continuous
 62
     7
370
     9
100
AcDbPolyline
 90
        4
 70
     1
 43
2.0
 10
-174.0015291382677
 20
-404.414190842002
 42
0.4142135623731
 10
-175.0015291382678
 20
-403.414190842002
 42
0.4142135623731
 10
-176.0015291382678
 20
-404.414190842002
 42
0.4142135623731
 10
-175.0015291382678
 20
-405.414190842002
 42
0.4142135623731
  0
LWPOLYLINE
  5
14E
330
1F
100
AcDbEntity
  8
D-4
  6
Continuous
 62
     7
370
     9
100
AcDbPolyline
 90
        4
 70
     1
 43
2.0
 10
-174.0015291382677
 20
-729.413961960166
 42
0.4142135623731
 10
-175.0015291382678
 20
-728.413961960166
 42
0.4142135623731
 10
-176.0015291382678
 20
-729.413961960166
 42
0.4142135623731
 10
-175.0015291382678
 20
-730.4139619601659
 42
0.4142135623731
  0
TEXT
  5
14F
330
1F
100
AcDbEntity
  8
D-4
  6
Continuous
 62
     2
370
     9
100
AcDbText
 10
-802.5131735016712
 20
-275.3549632419032
 30
0.0
 40
30.48
  1
25
 41
1.0625
  7
ＭＳ ゴシック
100
AcDbText
  0
TEXT
  5
150
330
1F
100
AcDbEntity
  8
D-4
  6
Continuous
 62
     2
370
     9
100
AcDbText
 10
-827.9649099518665
 20
-799.3924006808692
 30
0.0
 40
30.48
  1
25～30
 41
1.104166666666667
  7
ＭＳ ゴシック
100
AcDbText
  0
TEXT
  5
151
330
1F
100
AcDbEntity
  8
D-4
  6
Continuous
 62
     2
370
     9
100
AcDbText
 10
-711.6318127323993
 20
-953.8567790378029
 30
0.0
 40
30.48
  1
75～80
 41
1.104166666666667
  7
ＭＳ ゴシック
100
AcDbText
  0
TEXT
  5
152
330
1F
100
AcDbEntity
  8
D-4
  6
Continuous
 62
     2
370
     9
100
AcDbText
 10
-188.2489510132677
 20
-627.418742022372
 30
0.0
 40
30.48
  1
55～65
 50
90.00000250447756
 41
1.104166666666667
  7
ＭＳ ゴシック
100
AcDbText
  0
TEXT
  5
153
330
1F
100
AcDbEntity
  8
D-4
  6
Continuous
 62
     2
370
     9
100
AcDbText
 10
-680.462861936272
 20
-166.6034755099696
 30
0.0
 40
30.48
  1
3
 41
0.9999999999999998
  7
ＭＳ ゴシック
100
AcDbText
  0
TEXT
  5
154
330
1F
100
AcDbEntity
  8
D-4
  6
Continuous
 62
     2
370
     9
100
AcDbText
 10
-745.6041249443897
 20
-166.6034755099696
 30
0.0
 40
30.48
  1
2
 41
0.9999999999999998
  7
ＭＳ ゴシック
100
AcDbText
  0
TEXT
  5
155
330
1F
100
AcDbEntity
  8
D-5
  6
Continuous
 62
     2
370
     9
100
AcDbText
 10
-1142.332423608483
 20
-1078.744665085166
 30
0.0
 40
30.48
  1
断面詳細図　Ｓ＝１：２
 41
1.113636363636364
  7
ＭＳ ゴシック
100
AcDbText
  0
LINE
  5
156
330
1F
100
AcDbEntity
  8
D-4
  6
Continuous
 62
     7
370
     9
100
AcDbLine
 10
-460.7992014099963
 20
-550.9121652377539
 30
0.0
 11
-518.7551721741564
 21
-550.9121652377539
 31
0.0
  0
LINE
  5
157
330
1F
100
AcDbEntity
  8
D-4
  6
Continuous
 62
     7
370
     9
100
AcDbLine
 10
-463.7991937806017
 20
-519.4129892123633
 30
0.0
 11
-463.7991937806017
 21
-636.1631150973731
 31
0.0
  0
LINE
  5
158
330
1F
100
AcDbEntity
  8
D-9
  6
Continuous
 62
     4
370
     9
100
AcDbLine
 10
-653.7552150895008
 20
-550.9121652377539
 30
0.0
 11
-538.7551721741564
 21
-550.9121652377539
 31
0.0
  0
LINE
  5
159
330
1F
100
AcDbEntity
  8
D-9
  6
Continuous
 62
     4
370
     9
100
AcDbLine
 10
-668.7552866150745
 20
-535.9120984805518
 30
0.0
 11
-668.7552866150745
 21
-521.9121309054785
 31
0.0
  0
LINE
  5
15A
330
1F
100
AcDbEntity
  8
D-9
  6
Continuous
 62
     4
370
     9
100
AcDbLine
 10
-523.7553629090197
 20
-535.9120984805518
 30
0.0
 11
-523.7553629090197
 21
-521.9121309054785
 31
0.0
  0
LINE
  5
15B
330
1F
100
AcDbEntity
  8
D-9
  6
Continuous
 62
     4
370
     9
100
AcDbLine
 10
-688.7553795983204
 20
-531.9121785891944
 30
0.0
 11
-688.7553795983204
 21
-521.9121309054785
 31
0.0
  0
LINE
  5
15C
330
1F
100
AcDbEntity
  8
D-9
  6
Continuous
 62
     4
370
     9
100
AcDbLine
 10
-668.730262201012
 20
-531.9121785891944
 30
0.0
 11
-718.7550905802309
 21
-531.9121785891944
 31
0.0
  0
LINE
  5
15D
330
1F
100
AcDbEntity
  8
D-9
  6
Continuous
 62
     4
370
     9
100
AcDbLine
 10
-523.7553629090197
 20
-521.9121309054785
 30
0.0
 11
-718.7550905802309
 21
-521.9121309054785
 31
0.0
  0
LINE
  5
15E
330
1F
100
AcDbEntity
  8
D-9
  6
Continuous
 62
     3
370
     9
100
AcDbLine
 10
-718.7550905802309
 20
-541.9134660495215
 30
0.0
 11
-818.7554201294788
 21
-541.9134660495215
 31
0.0
  0
LINE
  5
15F
330
1F
100
AcDbEntity
  8
D-9
  6
Continuous
 62
     2
370
     9
100
AcDbLine
 10
-755.005520265282
 20
-544.4121118319922
 30
0.0
 11
-755.005520265282
 21
-541.9134660495215
 31
0.0
  0
LINE
  5
160
330
1F
100
AcDbEntity
  8
D-9
  6
Continuous
 62
     2
370
     9
100
AcDbLine
 10
-763.7562307526478
 20
-551.911520553916
 30
0.0
 11
-755.005520265282
 21
-544.4121118319922
 31
0.0
  0
LINE
  5
161
330
1F
100
AcDbEntity
  8
D-9
  6
Continuous
 62
     2
370
     9
100
AcDbLine
 10
-773.7551483322986
 20
-551.911520553916
 30
0.0
 11
-763.7562307526478
 21
-551.911520553916
 31
0.0
  0
LINE
  5
162
330
1F
100
AcDbEntity
  8
D-9
  6
Continuous
 62
     2
370
     9
100
AcDbLine
 10
-782.5056108643421
 20
-544.4121118319922
 30
0.0
 11
-773.7551483322986
 21
-551.911520553916
 31
0.0
  0
LINE
  5
163
330
1F
100
AcDbEntity
  8
D-9
  6
Continuous
 62
     2
370
     9
100
AcDbLine
 10
-782.5056108643421
 20
-544.4121118319922
 30
0.0
 11
-782.5056108643421
 21
-541.9134660495215
 31
0.0
  0
LINE
  5
164
330
1F
100
AcDbEntity
  8
D-9
  6
Continuous
 62
     2
370
     9
100
AcDbLine
 10
-782.5056108643421
 20
-544.4121118319922
 30
0.0
 11
-755.005520265282
 21
-544.4121118319922
 31
0.0
  0
LINE
  5
165
330
1F
100
AcDbEntity
  8
D-9
  6
Continuous
 62
     3
370
     9
100
AcDbLine
 10
-718.7550905802309
 20
-519.4134851230078
 30
0.0
 11
-718.7550905802309
 21
-541.9134660495215
 31
0.0
  0
LINE
  5
166
330
1F
100
AcDbEntity
  8
D-9
  6
JWW_DASHED2
 62
     3
370
     9
100
AcDbLine
 10
-718.7550905802309
 20
-531.9134660495215
 30
0.0
 11
-818.7554201294788
 21
-531.9134660495215
 31
0.0
  0
LINE
  5
167
330
1F
100
AcDbEntity
  8
D-9
  6
JWW_CENTER1
 62
     4
370
     9
100
AcDbLine
 10
-768.7552532364734
 20
-559.6524854434424
 30
0.0
 11
-768.7552532364734
 21
-519.4134851230078
 31
0.0
  0
ARC
  5
168
330
1F
100
AcDbEntity
  8
D-9
  6
Continuous
 62
     4
370
     9
100
AcDbCircle
 10
-653.7552150895008
 20
-535.9120984805518
 30
0.0
 40
15.00000238418579
100
AcDbArc
 50
180.0
 51
270.0
  0
ARC
  5
169
330
1F
100
AcDbEntity
  8
D-9
  6
Continuous
 62
     4
370
     9
100
AcDbCircle
 10
-538.7551721741564
 20
-535.9120984805518
 30
0.0
 40
15.00000238418579
100
AcDbArc
 50
270.0
 51
0.0
  0
LWPOLYLINE
  5
16A
330
1F
100
AcDbEntity
  8
D-4
  6
Continuous
 62
     7
370
     9
100
AcDbPolyline
 90
        4
 70
     1
 43
2.0
 10
-462.7991937806017
 20
-550.9121652377539
 42
0.4142135623731
 10
-463.7991937806017
 20
-549.9121652377539
 42
0.4142135623731
 10
-464.7991937806017
 20
-550.9121652377539
 42
0.4142135623731
 10
-463.7991937806017
 20
-551.9121652377539
 42
0.4142135623731
  0
TEXT
  5
16B
330
1F
100
AcDbEntity
  8
D-4
  6
Continuous
 62
     2
370
     9
100
AcDbText
 10
-475.439197595299
 20
-622.6073788021571
 30
0.0
 40
30.48
  1
6.5
 50
90.00000250447674
 41
1.083333333333334
  7
ＭＳ ゴシック
100
AcDbText
  0
LINE
  5
16C
330
1F
100
AcDbEntity
  8
D-4
  6
Continuous
 62
     7
370
     9
100
AcDbLine
 10
-659.7532591034778
 20
-519.4129892123633
 30
0.0
 11
-460.7986292054064
 21
-519.4129892123633
 31
0.0
  0
LWPOLYLINE
  5
16D
330
1F
100
AcDbEntity
  8
D-4
  6
Continuous
 62
     7
370
     9
100
AcDbPolyline
 90
        4
 70
     1
 43
2.0
 10
-462.7991937806017
 20
-519.4129892123633
 42
0.4142135623731
 10
-463.7991937806017
 20
-518.4129892123633
 42
0.4142135623731
 10
-464.7991937806017
 20
-519.4129892123633
 42
0.4142135623731
 10
-463.7991937806017
 20
-520.4129892123633
 42
0.4142135623731
  0
LINE
  5
16E
330
1F
100
AcDbEntity
  8
D-4
  6
Continuous
 62
     7
370
     9
100
AcDbLine
 10
-463.7991937806017
 20
-519.4129892123633
 30
0.0
 11
-463.7991937806017
 21
-404.414190842002
 31
0.0
  0
LWPOLYLINE
  5
16F
330
1F
100
AcDbEntity
  8
D-4
  6
Continuous
 62
     7
370
     9
100
AcDbPolyline
 90
        4
 70
     1
 43
2.0
 10
-462.7991937806017
 20
-404.414190842002
 42
0.4142135623731
 10
-463.7991937806017
 20
-403.414190842002
 42
0.4142135623731
 10
-464.7991937806017
 20
-404.414190842002
 42
0.4142135623731
 10
-463.7991937806017
 20
-405.414190842002
 42
0.4142135623731
  0
TEXT
  5
170
330
1F
100
AcDbEntity
  8
D-4
  6
Continuous
 62
     2
370
   211
100
AcDbText
 10
-479.4391937806017
 20
-483.1635900271826
 30
0.0
 40
30.48
  1
23
 50
90.0
 41
1.0625
  7
ＭＳ ゴシック
100
AcDbText
  0
LINE
  5
171
330
1F
100
AcDbEntity
  8
D-6
  6
Continuous
 62
     6
370
     9
100
AcDbLine
 10
-586.470454614342
 20
-729.413961960166
 30
0.0
 11
-586.470454614342
 21
-550.9121652377539
 31
0.0
  0
LINE
  5
172
330
1F
100
AcDbEntity
  8
D-6
  6
Continuous
 62
     6
370
     9
100
AcDbLine
 10
-631.4709123780138
 20
-729.413961960166
 30
0.0
 11
-631.4709123780138
 21
-550.9121652377539
 31
0.0
  0
LINE
  5
173
330
1F
100
AcDbEntity
  8
D-6
  6
Continuous
 62
     6
370
     9
100
AcDbLine
 10
-631.4709123780138
 20
-521.9121309054785
 30
0.0
 11
-631.4709123780138
 21
-486.9121309054785
 31
0.0
  0
LINE
  5
174
330
1F
100
AcDbEntity
  8
D-6
  6
Continuous
 62
     6
370
     9
100
AcDbLine
 10
-586.470454614342
 20
-521.9121309054785
 30
0.0
 11
-586.470454614342
 21
-486.9121309054785
 31
0.0
  0
LINE
  5
175
330
1F
100
AcDbEntity
  8
D-6
  6
Continuous
 62
     6
370
     9
100
AcDbLine
 10
-631.4709123780138
 20
-486.9121309054785
 30
0.0
 11
-586.470454614342
 21
-486.9121309054785
 31
0.0
  0
LINE
  5
176
330
1F
100
AcDbEntity
  8
D-6
  6
JWW_CENTER2
 62
     6
370
     9
100
AcDbLine
 10
-608.9706834961779
 20
-474.5987363589697
 30
0.0
 11
-608.9706834961779
 21
-842.7464814914161
 31
0.0
  0
LINE
  5
177
330
1F
100
AcDbEntity
  8
D-5
  6
Continuous
 62
     7
370
     9
100
AcDbLine
 10
-675.644381921471
 20
-521.9121309054785
 30
0.0
 11
-661.8326934983143
 21
-501.07370813021
 31
0.0
  0
LINE
  5
178
330
1F
100
AcDbEntity
  8
D-5
  6
Continuous
 62
     7
370
     9
100
AcDbLine
 10
-675.644381921471
 20
-521.9121309054785
 30
0.0
 11
-656.9107040573963
 21
-505.3580232394629
 31
0.0
  0
LINE
  5
179
330
1F
100
AcDbEntity
  8
D-5
  6
Continuous
 62
     7
370
     9
100
AcDbLine
 10
-501.0952505280383
 20
-321.3647027743739
 30
0.0
 11
-675.644381921471
 21
-521.9121309054785
 31
0.0
  0
LINE
  5
17A
330
1F
100
AcDbEntity
  8
D-1
  6
JWW_CENTER2
 62
     2
370
     9
100
AcDbLine
 10
-801.2642557931449
 20
-549.8230727769155
 30
0.0
 11
-801.2642557931449
 21
-407.7830262912207
 31
0.0
  0
LINE
  5
17B
330
1F
100
AcDbEntity
  8
D-1
  6
Continuous
 62
     2
370
     9
100
AcDbLine
 10
-763.7642557931449
 20
-448.9134633689233
 30
0.0
 11
-767.7641205260418
 21
-444.9134749161153
 31
0.0
  0
LINE
  5
17C
330
1F
100
AcDbEntity
  8
D-1
  6
Continuous
 62
     2
370
     9
100
AcDbLine
 10
-834.764391060248
 20
-444.9134749161153
 30
0.0
 11
-767.7641205260418
 21
-444.9134749161153
 31
0.0
  0
LINE
  5
17D
330
1F
100
AcDbEntity
  8
D-1
  6
Continuous
 62
     2
370
     9
100
AcDbLine
 10
-838.7642557931449
 20
-448.9134633689233
 30
0.0
 11
-834.764391060248
 21
-444.9134749161153
 31
0.0
  0
LINE
  5
17E
330
1F
100
AcDbEntity
  8
D-1
  6
Continuous
 62
     2
370
     9
100
AcDbLine
 10
-838.7642557931449
 20
-481.413694312758
 30
0.0
 11
-838.7642557931449
 21
-448.9134633689233
 31
0.0
  0
LINE
  5
17F
330
1F
100
AcDbEntity
  8
D-1
  6
Continuous
 62
     2
370
     9
100
AcDbLine
 10
-763.7642557931449
 20
-481.413694312758
 30
0.0
 11
-763.7642557931449
 21
-448.9134633689233
 31
0.0
  0
LINE
  5
180
330
1F
100
AcDbEntity
  8
D-1
  6
Continuous
 62
     2
370
     9
100
AcDbLine
 10
-781.263694929547
 20
-519.4136464743924
 30
0.0
 11
-781.263694929547
 21
-448.9134633689233
 31
0.0
  0
LINE
  5
181
330
1F
100
AcDbEntity
  8
D-1
  6
Continuous
 62
     2
370
     9
100
AcDbLine
 10
-821.2638268974522
 20
-519.4136464743924
 30
0.0
 11
-821.2638268974522
 21
-448.9134633689233
 31
0.0
  0
LINE
  5
182
330
1F
100
AcDbEntity
  8
D-1
  6
Continuous
 62
     2
370
     9
100
AcDbLine
 10
-838.7642557931449
 20
-448.9134633689233
 30
0.0
 11
-763.7642557931449
 21
-448.9134633689233
 31
0.0
  0
LINE
  5
183
330
1F
100
AcDbEntity
  8
D-1
  6
Continuous
 62
     2
370
     9
100
AcDbLine
 10
-778.7645527209324
 20
-489.4135474984632
 30
0.0
 11
-778.7645527209324
 21
-481.413694312758
 31
0.0
  0
LINE
  5
184
330
1F
100
AcDbEntity
  8
D-1
  6
Continuous
 62
     2
370
     9
100
AcDbLine
 10
-823.7639588653585
 20
-489.4135474984632
 30
0.0
 11
-823.7639588653585
 21
-481.413694312758
 31
0.0
  0
LINE
  5
185
330
1F
100
AcDbEntity
  8
D-1
  6
Continuous
 62
     2
370
     9
100
AcDbLine
 10
-758.7639918573345
 20
-489.4135474984632
 30
0.0
 11
-758.7639918573345
 21
-481.413694312758
 31
0.0
  0
LINE
  5
186
330
1F
100
AcDbEntity
  8
D-1
  6
Continuous
 62
     2
370
     9
100
AcDbLine
 10
-843.764148569222
 20
-481.413694312758
 30
0.0
 11
-758.7639918573345
 21
-481.413694312758
 31
0.0
  0
LINE
  5
187
330
1F
100
AcDbEntity
  8
D-1
  6
Continuous
 62
     2
370
     9
100
AcDbLine
 10
-843.764148569222
 20
-489.4135474984632
 30
0.0
 11
-843.764148569222
 21
-481.413694312758
 31
0.0
  0
LINE
  5
188
330
1F
100
AcDbEntity
  8
D-2
  6
Continuous
 62
     3
370
     9
100
AcDbLine
 10
-863.7647094328199
 20
-489.4135474984632
 30
0.0
 11
-821.2638268974522
 21
-489.4135474984632
 31
0.0
  0
LINE
  5
189
330
1F
100
AcDbEntity
  8
D-2
  6
Continuous
 62
     3
370
     9
100
AcDbLine
 10
-883.7637856574825
 20
-404.4138856662207
 30
0.0
 11
-883.7637856574825
 21
-504.4133495466051
 31
0.0
  0
LINE
  5
18A
330
1F
100
AcDbEntity
  8
D-2
  6
Continuous
 62
     3
370
     9
100
AcDbLine
 10
-863.7647094328199
 20
-404.4138856662207
 30
0.0
 11
-863.7647094328199
 21
-504.4133495466051
 31
0.0
  0
LINE
  5
18B
330
1F
100
AcDbEntity
  8
D-2
  6
Continuous
 62
     3
370
     9
100
AcDbLine
 10
-738.7638021534699
 20
-404.4138856662207
 30
0.0
 11
-738.7638021534699
 21
-504.4133495466051
 31
0.0
  0
LINE
  5
18C
330
1F
100
AcDbEntity
  8
D-1
  6
Continuous
 62
     2
370
     9
100
AcDbLine
 10
-763.7642557931449
 20
-530.9135359512716
 30
0.0
 11
-763.7642557931449
 21
-519.4136464743924
 31
0.0
  0
LINE
  5
18D
330
1F
100
AcDbEntity
  8
D-1
  6
Continuous
 62
     2
370
     9
100
AcDbLine
 10
-763.7642557931449
 20
-530.9135359512716
 30
0.0
 11
-843.764148569222
 21
-530.9135359512716
 31
0.0
  0
LINE
  5
18E
330
1F
100
AcDbEntity
  8
D-1
  6
Continuous
 62
     2
370
     9
100
AcDbLine
 10
-786.2644537450033
 20
-514.4138774182268
 30
0.0
 11
-781.263694929547
 21
-519.4136464743924
 31
0.0
  0
LINE
  5
18F
330
1F
100
AcDbEntity
  8
D-1
  6
Continuous
 62
     2
370
     9
100
AcDbLine
 10
-821.2638268974522
 20
-519.4136464743924
 30
0.0
 11
-816.2645527209324
 21
-514.4138774182268
 31
0.0
  0
LINE
  5
190
330
1F
100
AcDbEntity
  8
D-1
  6
Continuous
 62
     2
370
     9
100
AcDbLine
 10
-786.2644537450033
 20
-514.4138774182268
 30
0.0
 11
-786.2644537450033
 21
-481.413694312758
 31
0.0
  0
LINE
  5
191
330
1F
100
AcDbEntity
  8
D-1
  6
Continuous
 62
     2
370
     9
100
AcDbLine
 10
-816.2645527209324
 20
-514.4138774182268
 30
0.0
 11
-816.2645527209324
 21
-481.413694312758
 31
0.0
  0
LINE
  5
192
330
1F
100
AcDbEntity
  8
D-2
  6
Continuous
 62
     3
370
     9
100
AcDbLine
 10
-781.263694929547
 20
-489.4135474984632
 30
0.0
 11
-738.7638021534699
 21
-489.4135474984632
 31
0.0
  0
LINE
  5
193
330
1F
100
AcDbEntity
  8
D-2
  6
Continuous
 62
     3
370
     9
100
AcDbLine
 10
-718.7637361695179
 20
-404.4138856662207
 30
0.0
 11
-718.7637361695179
 21
-504.4133495466051
 31
0.0
  0
LINE
  5
194
330
1F
100
AcDbEntity
  8
D-1
  6
Continuous
 62
     2
370
     9
100
AcDbLine
 10
-771.2641568172157
 20
-519.4136464743924
 30
0.0
 11
-771.2641568172157
 21
-489.4135474984632
 31
0.0
  0
LINE
  5
195
330
1F
100
AcDbEntity
  8
D-1
  6
Continuous
 62
     2
370
     9
100
AcDbLine
 10
-831.2638598894293
 20
-519.4136464743924
 30
0.0
 11
-831.2638598894293
 21
-489.4135474984632
 31
0.0
  0
LINE
  5
196
330
1F
100
AcDbEntity
  8
D-1
  6
Continuous
 62
     2
370
     9
100
AcDbLine
 10
-843.764148569222
 20
-530.9135359512716
 30
0.0
 11
-843.764148569222
 21
-504.4133495466051
 31
0.0
  0
LINE
  5
197
330
1F
100
AcDbEntity
  8
D-2
  6
Continuous
 62
     3
370
     9
100
AcDbLine
 10
-1416.431822041033
 20
-559.6576303875046
 30
0.0
 11
-1416.431822041033
 21
-335.7151881894473
 31
0.0
  0
LINE
  5
198
330
1F
100
AcDbEntity
  8
D-2
  6
Continuous
 62
     3
370
     9
100
AcDbLine
 10
-1416.431822041033
 20
-404.4138856662207
 30
0.0
 11
-718.7637361695179
 21
-404.4138856662207
 31
0.0
  0
LINE
  5
199
330
1F
100
AcDbEntity
  8
D-2
  6
Continuous
 62
     3
370
     9
100
AcDbLine
 10
-1416.431822041033
 20
-504.4133495466051
 30
0.0
 11
-821.2638268974522
 21
-504.4133495466051
 31
0.0
  0
ARC
  5
19A
330
1F
100
AcDbEntity
  8
D-1
  6
Continuous
 62
     2
370
     9
100
AcDbCircle
 10
-801.2642557931449
 20
-448.9134633689233
 30
0.0
 40
32.49999510275351
100
AcDbArc
 50
7.0697021484375
 51
172.9302825927734
  0
LINE
  5
19B
330
1F
100
AcDbEntity
  8
D-4
  6
Continuous
 62
     7
370
     9
100
AcDbLine
 10
-1476.833181805339
 20
-404.4138856662207
 30
0.0
 11
-1476.833181805339
 21
-504.4133495466051
 31
0.0
  0
LWPOLYLINE
  5
19C
330
1F
100
AcDbEntity
  8
D-4
  6
Continuous
 62
     7
370
     9
100
AcDbPolyline
 90
        4
 70
     1
 43
2.0
 10
-1475.833181805339
 20
-404.4138856662207
 42
0.4142135623731
 10
-1476.833181805339
 20
-403.4138856662207
 42
0.4142135623731
 10
-1477.833181805338
 20
-404.4138856662207
 42
0.4142135623731
 10
-1476.833181805339
 20
-405.4138856662207
 42
0.4142135623731
  0
LWPOLYLINE
  5
19D
330
1F
100
AcDbEntity
  8
D-4
  6
Continuous
 62
     7
370
     9
100
AcDbPolyline
 90
        4
 70
     1
 43
2.0
 10
-1475.833181805339
 20
-504.4133495466051
 42
0.4142135623731
 10
-1476.833181805339
 20
-503.4133495466051
 42
0.4142135623731
 10
-1477.833181805338
 20
-504.4133495466051
 42
0.4142135623731
 10
-1476.833181805339
 20
-505.4133495466051
 42
0.4142135623731
  0
LINE
  5
19E
330
1F
100
AcDbEntity
  8
D-4
  6
Continuous
 62
     7
370
     9
100
AcDbLine
 10
-1479.833181805339
 20
-404.4138856662207
 30
0.0
 11
-1436.431822041033
 21
-404.4138856662207
 31
0.0
  0
LINE
  5
19F
330
1F
100
AcDbEntity
  8
D-4
  6
Continuous
 62
     7
370
     9
100
AcDbLine
 10
-1479.833181805339
 20
-504.4133495466051
 30
0.0
 11
-1436.431822041033
 21
-504.4133495466051
 31
0.0
  0
TEXT
  5
1A0
330
1F
100
AcDbEntity
  8
D-4
  6
Continuous
 62
     2
370
   211
100
AcDbText
 10
-1488.473181805338
 20
-475.6636176064129
 30
0.0
 40
30.48
  1
20
 50
90.0
 41
1.0625
  7
ＭＳ ゴシック
100
AcDbText
  0
LINE
  5
1A1
330
1F
100
AcDbEntity
  8
D-1
  6
Continuous
 62
     2
370
     9
100
AcDbLine
 10
-708.7640395571598
 20
-504.4136663211279
 30
0.0
 11
-781.263694929547
 21
-504.4136663211279
 31
0.0
  0
LINE
  5
1A2
330
1F
100
AcDbEntity
  8
D-1
  6
Continuous
 62
     2
370
     9
100
AcDbLine
 10
-821.2638268974522
 20
-504.4136663211279
 30
0.0
 11
-843.7644228150257
 21
-504.4136663211279
 31
0.0
  0
LINE
  5
1A3
330
1F
100
AcDbEntity
  8
D-9
  6
Continuous
 62
     3
370
     9
100
AcDbLine
 10
-818.7554201294788
 20
-530.9135359512716
 30
0.0
 11
-818.7554201294788
 21
-541.9134660495215
 31
0.0
  0
LINE
  5
1A4
330
1F
100
AcDbEntity
  8
D-9
  6
Continuous
 62
     3
370
     9
100
AcDbLine
 10
-718.7550905802309
 20
-529.4134851230078
 30
0.0
 11
-763.7642557931449
 21
-529.4134851230078
 31
0.0
  0
LINE
  5
1A5
330
1F
100
AcDbEntity
  8
D-9
  6
Continuous
 62
     3
370
     9
100
AcDbLine
 10
-718.7550905802309
 20
-519.4134851230078
 30
0.0
 11
-763.7642557931449
 21
-519.4134851230078
 31
0.0
  0
LINE
  5
1A6
330
1F
100
AcDbEntity
  8
D-5
  6
Continuous
 62
     7
370
     9
100
AcDbLine
 10
-958.0032793626126
 20
-747.0800580031084
 30
0.0
 11
-801.2642557931449
 21
-530.9135359512716
 31
0.0
  0
LINE
  5
1A7
330
1F
100
AcDbEntity
  8
D-5
  6
Continuous
 62
     7
370
     9
100
AcDbLine
 10
-801.2642557931449
 20
-530.9135359512716
 30
0.0
 11
-813.1722972574605
 21
-552.8954711946202
 31
0.0
  0
LINE
  5
1A8
330
1F
100
AcDbEntity
  8
D-5
  6
Continuous
 62
     7
370
     9
100
AcDbLine
 10
-801.2642557931449
 20
-530.9135359512716
 30
0.0
 11
-818.4560035101001
 21
-549.0644841406718
 31
0.0
  0
LINE
  5
1A9
330
1F
100
AcDbEntity
  8
D-4
  6
Continuous
 62
     7
370
     9
100
AcDbLine
 10
-843.7555059601673
 20
-707.2282084593832
 30
0.0
 11
-693.7553939034351
 21
-707.2282084593832
 31
0.0
  0
LINE
  5
1AA
330
1F
100
AcDbEntity
  8
D-4
  6
Continuous
 62
     7
370
     9
100
AcDbLine
 10
-693.7553939034351
 20
-707.2282084593832
 30
0.0
 11
-523.7551721741564
 21
-707.2282084593832
 31
0.0
  0
LINE
  5
1AB
330
1F
100
AcDbEntity
  8
D-4
  6
Continuous
 62
     7
370
     9
100
AcDbLine
 10
-523.7551721741564
 20
-710.228219903475
 30
0.0
 11
-523.7551721741564
 21
-555.9120984805518
 31
0.0
  0
LINE
  5
1AC
330
1F
100
AcDbEntity
  8
D-4
  6
Continuous
 62
     7
370
     9
100
AcDbLine
 10
-693.7553939034351
 20
-710.228219903475
 30
0.0
 11
-693.7553939034351
 21
-555.9120984805518
 31
0.0
  0
LWPOLYLINE
  5
1AD
330
1F
100
AcDbEntity
  8
D-4
  6
Continuous
 62
     7
370
     9
100
AcDbPolyline
 90
        4
 70
     1
 43
2.0
 10
-842.7555059601673
 20
-707.2282084593832
 42
0.4142135623731
 10
-843.7555059601673
 20
-706.2282084593833
 42
0.4142135623731
 10
-844.7555059601672
 20
-707.2282084593832
 42
0.4142135623731
 10
-843.7555059601673
 20
-708.228208459383
 42
0.4142135623731
  0
LWPOLYLINE
  5
1AE
330
1F
100
AcDbEntity
  8
D-4
  6
Continuous
 62
     7
370
     9
100
AcDbPolyline
 90
        4
 70
     1
 43
2.0
 10
-692.7553939034351
 20
-707.2282084593832
 42
0.4142135623731
 10
-693.7553939034351
 20
-706.2282084593833
 42
0.4142135623731
 10
-694.755393903435
 20
-707.2282084593832
 42
0.4142135623731
 10
-693.7553939034351
 20
-708.228208459383
 42
0.4142135623731
  0
LWPOLYLINE
  5
1AF
330
1F
100
AcDbEntity
  8
D-4
  6
Continuous
 62
     7
370
     9
100
AcDbPolyline
 90
        4
 70
     1
 43
2.0
 10
-522.7551721741564
 20
-707.2282084593832
 42
0.4142135623731
 10
-523.7551721741564
 20
-706.2282084593833
 42
0.4142135623731
 10
-524.7551721741564
 20
-707.2282084593832
 42
0.4142135623731
 10
-523.7551721741564
 20
-708.228208459383
 42
0.4142135623731
  0
TEXT
  5
1B0
330
1F
100
AcDbEntity
  8
D-4
  6
Continuous
 62
     2
370
     9
100
AcDbText
 10
-790.0054487397083
 20
-695.5882046446859
 30
0.0
 40
30.48
  1
30
 41
1.0625
  7
ＭＳ ゴシック
100
AcDbText
  0
TEXT
  5
1B1
330
1F
100
AcDbEntity
  8
D-4
  6
Continuous
 62
     2
370
     9
100
AcDbText
 10
-683.3892020394214
 20
-695.5882046446859
 30
0.0
 40
30.48
  1
34
 41
1.0625
  7
ＭＳ ゴシック
100
AcDbText
  0
LINE
  5
1B2
330
1F
100
AcDbEntity
  8
D-4
  6
Continuous
 62
     7
370
     9
100
AcDbLine
 10
-693.7553939034351
 20
-631.5701534699676
 30
0.0
 11
-801.2642557931449
 21
-631.5701534699676
 31
0.0
  0
LWPOLYLINE
  5
1B3
330
1F
100
AcDbEntity
  8
D-4
  6
Continuous
 62
     7
370
     9
100
AcDbPolyline
 90
        4
 70
     1
 43
2.0
 10
-692.7553939034351
 20
-631.5701534699676
 42
0.4142135623731
 10
-693.7553939034351
 20
-630.5701534699676
 42
0.4142135623731
 10
-694.755393903435
 20
-631.5701534699676
 42
0.4142135623731
 10
-693.7553939034351
 20
-632.5701534699676
 42
0.4142135623731
  0
LWPOLYLINE
  5
1B4
330
1F
100
AcDbEntity
  8
D-4
  6
Continuous
 62
     7
370
     9
100
AcDbPolyline
 90
        4
 70
     1
 43
2.0
 10
-800.2642557931449
 20
-631.5701534699676
 42
0.4142135623731
 10
-801.2642557931449
 20
-630.5701534699676
 42
0.4142135623731
 10
-802.2642557931448
 20
-631.5701534699676
 42
0.4142135623731
 10
-801.2642557931449
 20
-632.5701534699676
 42
0.4142135623731
  0
LINE
  5
1B5
330
1F
100
AcDbEntity
  8
D-4
  6
Continuous
 62
     7
370
     9
100
AcDbLine
 10
-801.2642557931449
 20
-634.5701534699675
 30
0.0
 11
-801.2642557931449
 21
-569.8230727769155
 31
0.0
  0
TEXT
  5
1B6
330
1F
100
AcDbEntity
  8
D-4
  6
Continuous
 62
     2
370
   211
100
AcDbText
 10
-791.25982484829
 20
-619.9301534699674
 30
0.0
 40
30.48
  1
21.5
 41
1.09375
  7
ＭＳ ゴシック
100
AcDbText
  0
LINE
  5
1B7
330
1F
100
AcDbEntity
  8
D-5
  6
Continuous
 62
     7
370
     9
100
AcDbLine
 10
-563.0275576591824
 20
-165.5578953410202
 30
0.0
 11
-770.9196035427815
 21
-404.413885666221
 31
0.0
  0
LINE
  5
1B8
330
1F
100
AcDbEntity
  8
D-5
  6
Continuous
 62
     7
370
     9
100
AcDbLine
 10
-770.9196035427815
 20
-404.413885666221
 30
0.0
 11
-752.1859280628926
 21
-387.8602739108499
 31
0.0
  0
LINE
  5
1B9
330
1F
100
AcDbEntity
  8
D-5
  6
Continuous
 62
     7
370
     9
100
AcDbLine
 10
-770.9196035427815
 20
-404.413885666221
 30
0.0
 11
-757.1089069409138
 21
-383.5759546292718
 31
0.0
  0
TEXT
  5
1BA
330
1F
100
AcDbEntity
  8
D-5
  6
Continuous
 62
     2
370
     9
100
AcDbText
 10
118.0593051132963
 20
-906.1003033516986
 30
0.0
 40
30.48
  1
材質：ステンレス鋼板ｔ＝３．０（ＳＵＳ３０４）
 41
1.119565217391305
  7
ＭＳ ゴシック
100
AcDbText
  0
TEXT
  5
1BB
330
1F
100
AcDbEntity
  8
D-5
  6
Continuous
 62
     2
370
     9
100
AcDbText
 10
58.34739105079635
 20
-996.8974302091875
 30
0.0
 40
30.48
  1
施工場所の状況に合わせて、アンカーをプライヤー等で折り曲げてご使用ください。
 41
1.12171052631579
  7
ＭＳ ゴシック
100
AcDbText
  0
TEXT
  5
1BC
330
1F
100
AcDbEntity
  8
D-5
  6
Continuous
 62
     2
370
     9
100
AcDbText
 10
58.34739105079635
 20
-851.1002842782123
 30
0.0
 40
30.48
  1
ステンレス製受枠　ＲＬ－２０Ａ（四方枠）
 41
1.11875
  7
ＭＳ ゴシック
100
AcDbText
  0
TEXT
  5
1BD
330
1F
100
AcDbEntity
  8
D-5
  6
Continuous
 62
     2
370
     9
100
AcDbText
 10
58.34739105079635
 20
-511.0992161629779
 30
0.0
 40
30.48
  1
ステンレス製グレーチング　ボルト固定式　プレーンタイプ　集水桝用
 41
1.12109375
  7
ＭＳ ゴシック
100
AcDbText
  0
LINE
  5
1BE
330
1F
100
AcDbEntity
  8
D-5
  6
Continuous
 62
     7
370
     9
100
AcDbLine
 10
-8.896489442192745
 20
-442.7620817166398
 30
0.0
 11
-8.896489442192745
 21
-392.7617930368468
 31
0.0
  0
LINE
  5
1BF
330
1F
100
AcDbEntity
  8
D-5
  6
Continuous
 62
     7
370
     9
100
AcDbLine
 10
-8.896489442192745
 20
-392.7617930368468
 30
0.0
 11
216.1035105578073
 21
-392.7617930368468
 31
0.0
  0
LINE
  5
1C0
330
1F
100
AcDbEntity
  8
D-5
  6
Continuous
 62
     7
370
     9
100
AcDbLine
 10
216.1035105578073
 20
-392.7617930368468
 30
0.0
 11
216.1035105578073
 21
-442.7620817166398
 31
0.0
  0
LINE
  5
1C1
330
1F
100
AcDbEntity
  8
D-5
  6
Continuous
 62
     7
370
     9
100
AcDbLine
 10
216.1035105578073
 20
-442.7620817166398
 30
0.0
 11
-8.896489442192745
 21
-442.7620817166398
 31
0.0
  0
TEXT
  5
1C2
330
1F
100
AcDbEntity
  8
D-5
  6
Continuous
 62
     2
370
     9
100
AcDbText
 10
38.60351055780725
 20
-432.1219415007404
 30
0.0
 40
30.48
  1
仕　様
 41
1.083333333333333
  7
ＭＳ ゴシック
100
AcDbText
  0
TEXT
  5
1C3
330
1F
100
AcDbEntity
  8
D-5
  6
Continuous
 62
     2
370
     9
100
AcDbText
 10
118.0593051132965
 20
-629.9320241097041
 30
0.0
 40
30.48
  1
材質：メインバー　ＦＢ４×２０（ＳＵＳ３０４）
 41
1.119565217391304
  7
ＭＳ ゴシック
100
AcDbText
  0
TEXT
  5
1C4
330
1F
100
AcDbEntity
  8
D-5
  6
Continuous
 62
     2
370
     9
100
AcDbText
 10
118.0593047745693
 20
-744.3840156910024
 30
0.0
 40
30.48
  1
　　　サイドバー　ＦＢ４×２０（ＳＵＳ３０４）
 50
0.0000034410821164
 41
1.119565217391304
  7
ＭＳ ゴシック
100
AcDbText
  0
LINE
  5
1C5
330
1F
100
AcDbEntity
  8
D-5
  6
Continuous
 62
     7
370
     9
100
AcDbLine
 10
-693.7642189671406
 20
-404.4141962379824
 30
0.0
 11
-679.9535223652729
 21
-383.5762652010333
 31
0.0
  0
LINE
  5
1C6
330
1F
100
AcDbEntity
  8
D-5
  6
Continuous
 62
     7
370
     9
100
AcDbLine
 10
-693.7642189671406
 20
-404.4141962379824
 30
0.0
 11
-675.0305434872516
 21
-387.8605844826113
 31
0.0
  0
LINE
  5
1C7
330
1F
100
AcDbEntity
  8
D-5
  6
Continuous
 62
     7
370
     9
100
AcDbLine
 10
-552.5861559096471
 20
-242.2087307981352
 30
0.0
 11
-693.7642189671406
 21
-404.4141962379824
 31
0.0
  0
TEXT
  5
1C8
330
1F
100
AcDbEntity
  8
D-5
  6
Continuous
 62
     7
370
     9
100
AcDbText
 10
-501.0952505280383
 20
-351.7937355960291
 30
0.0
 40
22.86
  1
ｔ＝２．０（ＳＥＣＣ）
 41
1.151515151515152
  7
ＭＳ ゴシック
100
AcDbText
  0
TEXT
  5
1C9
330
1F
100
AcDbEntity
  8
D-5
  6
Continuous
 62
     7
370
     9
100
AcDbText
 10
-501.0952505280383
 20
-312.4758130038661
 30
0.0
 40
22.86
  1
アンカー
 41
1.125
  7
ＭＳ ゴシック
100
AcDbText
  0
TEXT
  5
1CA
330
1F
100
AcDbEntity
  8
D-5
  6
Continuous
 62
     7
370
     9
100
AcDbText
 10
-552.5861559096471
 20
-233.2207351926664
 30
0.0
 40
22.86
  1
ステンレス製受枠ＲＬ－２０Ａ
 41
1.154761904761905
  7
ＭＳ ゴシック
100
AcDbText
  0
TEXT
  5
1CB
330
1F
100
AcDbEntity
  8
D-5
  6
Continuous
 62
     7
370
     9
100
AcDbText
 10
-563.0275576591824
 20
-121.5927398916907
 30
0.0
 40
22.86
  1
ボルト固定式　プレーンタイプ　集水桝用
 41
1.157894736842105
  7
ＭＳ ゴシック
100
AcDbText
  0
TEXT
  5
1CC
330
1F
100
AcDbEntity
  8
D-5
  6
Continuous
 62
     7
370
     9
100
AcDbText
 10
-563.0275576591824
 20
-80.63836363636364
 30
0.0
 40
22.86
  1
ステンレス製グレーチング
 41
1.152777777777778
  7
ＭＳ ゴシック
100
AcDbText
  0
LINE
  5
1CD
330
1F
100
AcDbEntity
  8
D-5
  6
Continuous
 62
     7
370
     9
100
AcDbLine
 10
-563.0275576591824
 20
-165.5578953410202
 30
0.0
 11
96.97244234081758
 21
-165.5578953410202
 31
0.0
  0
LINE
  5
1CE
330
1F
100
AcDbEntity
  8
D-5
  6
Continuous
 62
     7
370
     9
100
AcDbLine
 10
-552.5861559096471
 20
-242.2087307981352
 30
0.0
 11
-67.58615590964716
 21
-242.2087307981352
 31
0.0
  0
LINE
  5
1CF
330
1F
100
AcDbEntity
  8
D-5
  6
Continuous
 62
     7
370
     9
100
AcDbLine
 10
-501.0952505280383
 20
-321.3647027743739
 30
0.0
 11
-121.0952505280382
 21
-321.3647027743739
 31
0.0
  0
TEXT
  5
1D0
330
1F
100
AcDbEntity
  8
F-5ﾚｲﾔ
  6
Continuous
 62
     2
370
     9
100
AcDbText
 10
-798.1871145887625
 20
-1325.866511779441
 30
0.0
 40
30.48
  1
ステンレス製グレーチング　ボルト固定式　プレーンタイプ　集水桝用
 41
0.8992187499999998
  7
ＭＳ ゴシック
100
AcDbText
  0
LINE
  5
1D1
330
1F
100
AcDbEntity
  8
D-5
  6
Continuous
 62
     7
370
     9
100
AcDbLine
 10
-958.0032793626126
 20
-747.0800580031084
 30
0.0
 11
-1513.003279362613
 21
-747.0800580031084
 31
0.0
  0
TEXT
  5
1D2
330
1F
100
AcDbEntity
  8
D-5
  6
Continuous
 62
     7
370
     9
100
AcDbText
 10
-1513.003279362613
 20
-783.4904405120822
 30
0.0
 40
22.86
  1
溶接ボルトＭ８×１６（ＳＵＳ）
 41
1.155555555555556
  7
ＭＳ ゴシック
100
AcDbText
  0
TEXT
  5
1D3
330
1F
100
AcDbEntity
  8
D-5
  6
Continuous
 62
     7
370
     9
100
AcDbText
 10
-1513.003279362613
 20
-732.4625961088409
 30
0.0
 40
22.86
  1
キャップ付Ｕナット，ワッシャー，
 41
1.15625
  7
ＭＳ ゴシック
100
AcDbText
  0
LINE
  5
1D4
330
1F
100
AcDbEntity
  8
D-2
  6
Continuous
 62
     3
370
     9
100
AcDbLine
 10
-1228.764016601317
 20
-431.9138526742444
 30
0.0
 11
-1226.263884633412
 21
-431.9138526742444
 31
0.0
  0
LINE
  5
1D5
330
1F
100
AcDbEntity
  8
D-2
  6
Continuous
 62
     3
370
     9
100
AcDbLine
 10
-1228.764016601317
 20
-479.4140093861322
 30
0.0
 11
-1206.263323769814
 21
-479.4140093861322
 31
0.0
  0
LINE
  5
1D6
330
1F
100
AcDbEntity
  8
D-2
  6
Continuous
 62
     3
370
     9
100
AcDbLine
 10
-1211.263587705624
 20
-431.9138526742444
 30
0.0
 11
-1206.263323769814
 21
-431.9138526742444
 31
0.0
  0
LINE
  5
1D7
330
1F
100
AcDbEntity
  8
D-2
  6
Continuous
 62
     3
370
     9
100
AcDbLine
 10
-1211.263587705624
 20
-479.4140093861322
 30
0.0
 11
-1211.263587705624
 21
-404.4138856662207
 31
0.0
  0
LINE
  5
1D8
330
1F
100
AcDbEntity
  8
D-2
  6
Continuous
 62
     3
370
     9
100
AcDbLine
 10
-1226.263884633412
 20
-404.4138856662207
 30
0.0
 11
-1226.263884633412
 21
-479.4140093861322
 31
0.0
  0
LINE
  5
1D9
330
1F
100
AcDbEntity
  8
D-2
  6
Continuous
 62
     3
370
     9
100
AcDbLine
 10
-1258.763125817955
 20
-441.9138856662207
 30
0.0
 11
-1258.763125817955
 21
-469.4134815145106
 31
0.0
  0
LINE
  5
1DA
330
1F
100
AcDbEntity
  8
D-2
  6
Continuous
 62
     3
370
     9
100
AcDbLine
 10
-1228.764016601317
 20
-479.4140093861322
 30
0.0
 11
-1258.763125817955
 21
-469.4134815145106
 31
0.0
  0
LINE
  5
1DB
330
1F
100
AcDbEntity
  8
D-2
  6
Continuous
 62
     3
370
     9
100
AcDbLine
 10
-1258.763125817955
 20
-441.9138856662207
 30
0.0
 11
-1228.764016601317
 21
-441.9138856662207
 31
0.0
  0
LINE
  5
1DC
330
1F
100
AcDbEntity
  8
D-2
  6
Continuous
 62
     3
370
     9
100
AcDbLine
 10
-1228.764016601317
 20
-431.9138526742444
 30
0.0
 11
-1228.764016601317
 21
-441.9138856662207
 31
0.0
  0
LINE
  5
1DD
330
1F
100
AcDbEntity
  8
D-2
  6
Continuous
 62
     3
370
     9
100
AcDbLine
 10
-1206.263323769814
 20
-469.4139763941556
 30
0.0
 11
-1206.263323769814
 21
-479.4140093861322
 31
0.0
  0
LINE
  5
1DE
330
1F
100
AcDbEntity
  8
D-2
  6
Continuous
 62
     3
370
     9
100
AcDbLine
 10
-1206.263323769814
 20
-469.4139763941556
 30
0.0
 11
-1176.263595953618
 21
-469.4139763941556
 31
0.0
  0
LINE
  5
1DF
330
1F
100
AcDbEntity
  8
D-2
  6
Continuous
 62
     3
370
     9
100
AcDbLine
 10
-1176.263595953618
 20
-441.9138856662207
 30
0.0
 11
-1176.263595953618
 21
-469.4139763941556
 31
0.0
  0
LINE
  5
1E0
330
1F
100
AcDbEntity
  8
D-2
  6
Continuous
 62
     3
370
     9
100
AcDbLine
 10
-1176.263595953618
 20
-441.9138856662207
 30
0.0
 11
-1206.263323769814
 21
-431.9138526742444
 31
0.0
  0
TEXT
  5
1E1
330
1F
100
AcDbEntity
  8
D-5
  6
Continuous
 62
     2
370
     9
100
AcDbText
 10
118.0593051132965
 20
-689.5227304702149
 30
0.0
 40
30.48
  1
　　　クロスバー　ＦＢ３×１５（ＳＵＳ３０４）
 41
1.119565217391304
  7
ＭＳ ゴシック
100
AcDbText
  0
TEXT
  5
1E2
330
1F
100
AcDbEntity
  8
D-5
  6
Continuous
 62
     7
370
     9
100
AcDbText
 10
-563.0275677685914
 20
-157.1703613516637
 30
0.0
 40
22.86
  1
ＳＭＷＬ（Ｐ＝３０）
 50
0.0001369329743
 41
1.150000000000048
  7
ＭＳ ゴシック
100
AcDbText
  0
TEXT
  5
1E3
330
1F
100
AcDbEntity
  8
D-5
  6
Continuous
 62
     2
370
     9
100
AcDbText
 10
58.77664983394126
 20
-566.5577808374153
 30
0.0
 40
30.48
  1
ＳＭＷＬ　６６２０（Ｐ＝３０）
 50
359.9999837238019
 41
1.116666666666667
  7
ＭＳ ゴシック
100
AcDbText
  0
TEXT
  5
1E4
330
1F
100
AcDbEntity
  8
C-5
  6
Continuous
 62
     2
370
     9
100
AcDbText
 10
-510.1871145887628
 20
-1370.707965521153
 30
0.0
 40
30.48
  1
　ＳＭＷＬ　６６２０（Ｐ＝３０）＋ＲＬ－２０Ａ
 41
0.8989130434782607
  7
ＭＳ ゴシック
100
AcDbText
  0
TEXT
  5
1E5
330
1F
100
AcDbEntity
  8
D-4
  6
Continuous
 62
     2
370
     9
100
AcDbText
 10
-1416.432193200767
 20
-55.85517305025281
 30
0.0
 40
30.48
  1
□610
 41
1.1
  7
ＭＳ ゴシック
100
AcDbText
  0
TEXT
  5
1E6
330
1F
100
AcDbEntity
  8
D-4
  6
Continuous
 62
     2
370
     9
100
AcDbText
 10
-1416.432193200767
 20
-166.5551730502528
 30
0.0
 40
30.48
  1
□600
 41
1.1
  7
ＭＳ ゴシック
100
AcDbText
  0
TEXT
  5
1E7
330
1F
100
AcDbEntity
  8
D-4
  6
Continuous
 62
     2
370
     9
100
AcDbText
 10
-1416.432193200767
 20
-275.3551730502528
 30
0.0
 40
30.48
  1
□550
 41
1.1
  7
ＭＳ ゴシック
100
AcDbText
  0
LINE
  5
1E8
330
1F
100
AcDbEntity
  8
C-A
  6
Continuous
 62
     3
370
     9
100
AcDbLine
 10
-183.7496681213382
 20
1046.009689583059
 30
0.0
 11
-182.4996681213382
 21
1046.009689583059
 31
0.0
  0
LINE
  5
1E9
330
1F
100
AcDbEntity
  8
C-A
  6
Continuous
 62
     3
370
     9
100
AcDbLine
 10
-183.7496681213382
 20
1046.009689583059
 30
0.0
 11
-183.7496681213382
 21
1075.00967432427
 31
0.0
  0
LINE
  5
1EA
330
1F
100
AcDbEntity
  8
C-A
  6
Continuous
 62
     3
370
     9
100
AcDbLine
 10
-182.494998931886
 20
1042.00967432427
 30
0.0
 11
-183.0081520080579
 21
1042.00967432427
 31
0.0
  0
LINE
  5
1EB
330
1F
100
AcDbEntity
  8
C-A
  6
Continuous
 62
     3
370
     9
100
AcDbLine
 10
-166.9997291564958
 20
1042.00967432427
 30
0.0
 11
-167.4996986389174
 21
1042.00967432427
 31
0.0
  0
LINE
  5
1EC
330
1F
100
AcDbEntity
  8
C-A
  6
Continuous
 62
     3
370
     9
100
AcDbLine
 10
-166.2496070861833
 20
1046.009689583059
 30
0.0
 11
-167.4995765686047
 21
1046.009689583059
 31
0.0
  0
LINE
  5
1ED
330
1F
100
AcDbEntity
  8
C-A
  6
Continuous
 62
     3
370
     9
100
AcDbLine
 10
-166.2496070861833
 20
1046.009689583059
 30
0.0
 11
-166.2496070861833
 21
1075.00967432427
 31
0.0
  0
LINE
  5
1EE
330
1F
100
AcDbEntity
  8
C-A
  6
Continuous
 62
     3
370
     9
100
AcDbLine
 10
-183.7496681213382
 20
1075.00967432427
 30
0.0
 11
-166.2496070861833
 21
1075.00967432427
 31
0.0
  0
LINE
  5
1EF
330
1F
100
AcDbEntity
  8
C-A
  6
JWW_DASHED2
 62
     3
370
     9
100
AcDbLine
 10
-181.7496376037614
 20
1045.863785042044
 30
0.0
 11
-181.7496376037614
 21
1075.00967432427
 31
0.0
  0
LINE
  5
1F0
330
1F
100
AcDbEntity
  8
C-A
  6
JWW_DASHED2
 62
     3
370
     9
100
AcDbLine
 10
-168.2496070861815
 20
1045.863785042044
 30
0.0
 11
-168.2496070861815
 21
1075.00967432427
 31
0.0
  0
LINE
  5
1F1
330
1F
100
AcDbEntity
  8
C-A
  6
JWW_CENTER2
 62
     7
370
     9
100
AcDbLine
 10
-169.2236671447766
 20
1065.009628547903
 30
0.0
 11
-180.7756996154784
 21
1065.009628547903
 31
0.0
  0
ARC
  5
1F2
330
1F
100
AcDbEntity
  8
C-A
  6
Continuous
 62
     3
370
     9
100
AcDbCircle
 10
-182.9997291564955
 20
1040.009704841848
 30
0.0
 40
1.999999642372131
100
AcDbArc
 50
90.24162292480467
 51
150.0007171630859
  0
ARC
  5
1F3
330
1F
100
AcDbEntity
  8
C-A
  6
Continuous
 62
     3
370
     9
100
AcDbCircle
 10
-182.4996681213382
 20
1044.009674324268
 30
0.0
 40
1.999999642372131
100
AcDbArc
 50
270.1332855224609
 51
90.0
  0
ARC
  5
1F4
330
1F
100
AcDbEntity
  8
C-A
  6
Continuous
 62
     3
370
     9
100
AcDbCircle
 10
-166.9997291564958
 20
1040.009704841848
 30
0.0
 40
1.999999642372131
100
AcDbArc
 50
29.99951171875
 51
89.72402954101562
  0
ARC
  5
1F5
330
1F
100
AcDbEntity
  8
C-A
  6
Continuous
 62
     3
370
     9
100
AcDbCircle
 10
-167.4995765686047
 20
1044.009674324268
 30
0.0
 40
1.999999642372131
100
AcDbArc
 50
90.0
 51
270.0
  0
CIRCLE
  5
1F6
330
1F
100
AcDbEntity
  8
C-A
  6
Continuous
 62
     3
370
     9
100
AcDbCircle
 10
-174.9996681213382
 20
1065.009628547903
 30
0.0
 40
4.249999523162842
  0
LINE
  5
1F7
330
1F
100
AcDbEntity
  8
C-A
  6
JWW_CENTER2
 62
     7
370
     9
100
AcDbLine
 10
-174.9996681213382
 20
1032.009155636938
 30
0.0
 11
-174.9996681213382
 21
1080.00967432427
 31
0.0
  0
LINE
  5
1F8
330
1F
100
AcDbEntity
  8
C-1
  6
Continuous
 62
     2
370
     9
100
AcDbLine
 10
-305.0000000000001
 20
1041.00978124729
 30
0.0
 11
-305.0000000000001
 21
431.00978124729
 31
0.0
  0
LINE
  5
1F9
330
1F
100
AcDbEntity
  8
C-1
  6
Continuous
 62
     2
370
     9
100
AcDbLine
 10
-302.0000000000003
 20
1038.00978124729
 30
0.0
 11
-302.0000000000003
 21
434.0097812472903
 31
0.0
  0
LINE
  5
1FA
330
1F
100
AcDbEntity
  8
C-1
  6
JWW_DASHED3
 62
     2
370
     9
100
AcDbLine
 10
-275.0000000000001
 20
1011.00978124729
 30
0.0
 11
-275.0000000000001
 21
461.00978124729
 31
0.0
  0
LINE
  5
1FB
330
1F
100
AcDbEntity
  8
C-A
  6
Continuous
 62
     3
370
     9
100
AcDbLine
 10
-183.7496681213382
 20
426.0098729115207
 30
0.0
 11
-182.4996681213382
 21
426.0098729115207
 31
0.0
  0
LINE
  5
1FC
330
1F
100
AcDbEntity
  8
C-A
  6
Continuous
 62
     3
370
     9
100
AcDbLine
 10
-183.7496681213382
 20
426.0098729115207
 30
0.0
 11
-183.7496681213382
 21
397.0098881703099
 31
0.0
  0
LINE
  5
1FD
330
1F
100
AcDbEntity
  8
C-A
  6
Continuous
 62
     3
370
     9
100
AcDbLine
 10
-182.494998931886
 20
430.0098881703098
 30
0.0
 11
-183.0081520080579
 21
430.0098881703098
 31
0.0
  0
LINE
  5
1FE
330
1F
100
AcDbEntity
  8
C-A
  6
Continuous
 62
     3
370
     9
100
AcDbLine
 10
-166.9997291564958
 20
430.0098881703098
 30
0.0
 11
-167.4996986389174
 21
430.0098881703098
 31
0.0
  0
LINE
  5
1FF
330
1F
100
AcDbEntity
  8
C-A
  6
Continuous
 62
     3
370
     9
100
AcDbLine
 10
-166.2496070861833
 20
426.0098729115207
 30
0.0
 11
-167.4995765686047
 21
426.0098729115207
 31
0.0
  0
LINE
  5
200
330
1F
100
AcDbEntity
  8
C-A
  6
Continuous
 62
     3
370
     9
100
AcDbLine
 10
-166.2496070861833
 20
426.0098729115207
 30
0.0
 11
-166.2496070861833
 21
397.0098881703099
 31
0.0
  0
LINE
  5
201
330
1F
100
AcDbEntity
  8
C-A
  6
Continuous
 62
     3
370
     9
100
AcDbLine
 10
-183.7496681213382
 20
397.0098881703099
 30
0.0
 11
-166.2496070861833
 21
397.0098881703099
 31
0.0
  0
LINE
  5
202
330
1F
100
AcDbEntity
  8
C-A
  6
JWW_DASHED2
 62
     3
370
     9
100
AcDbLine
 10
-181.7496376037614
 20
426.1557774525364
 30
0.0
 11
-181.7496376037614
 21
397.0098881703099
 31
0.0
  0
LINE
  5
203
330
1F
100
AcDbEntity
  8
C-A
  6
JWW_DASHED2
 62
     3
370
     9
100
AcDbLine
 10
-168.2496070861815
 20
426.1557774525364
 30
0.0
 11
-168.2496070861815
 21
397.0098881703099
 31
0.0
  0
LINE
  5
204
330
1F
100
AcDbEntity
  8
C-A
  6
JWW_CENTER2
 62
     7
370
     9
100
AcDbLine
 10
-169.2236671447766
 20
407.0099339466769
 30
0.0
 11
-180.7756996154784
 21
407.0099339466769
 31
0.0
  0
ARC
  5
205
330
1F
100
AcDbEntity
  8
C-A
  6
Continuous
 62
     3
370
     9
100
AcDbCircle
 10
-182.9997291564955
 20
432.0098576527316
 30
0.0
 40
1.999999642372131
100
AcDbArc
 50
209.9992828369141
 51
269.7583770751953
  0
ARC
  5
206
330
1F
100
AcDbEntity
  8
C-A
  6
Continuous
 62
     3
370
     9
100
AcDbCircle
 10
-182.4996681213382
 20
428.0098881703116
 30
0.0
 40
1.999999642372131
100
AcDbArc
 50
270.0
 51
89.86671447753905
  0
ARC
  5
207
330
1F
100
AcDbEntity
  8
C-A
  6
Continuous
 62
     3
370
     9
100
AcDbCircle
 10
-166.9997291564958
 20
432.0098576527316
 30
0.0
 40
1.999999642372131
100
AcDbArc
 50
270.2759704589844
 51
330.00048828125
  0
ARC
  5
208
330
1F
100
AcDbEntity
  8
C-A
  6
Continuous
 62
     3
370
     9
100
AcDbCircle
 10
-167.4995765686047
 20
428.0098881703116
 30
0.0
 40
1.999999642372131
100
AcDbArc
 50
90.0
 51
270.0
  0
CIRCLE
  5
209
330
1F
100
AcDbEntity
  8
C-A
  6
Continuous
 62
     3
370
     9
100
AcDbCircle
 10
-174.9996681213382
 20
407.0099339466769
 30
0.0
 40
4.249999523162842
  0
LINE
  5
20A
330
1F
100
AcDbEntity
  8
C-A
  6
JWW_CENTER2
 62
     7
370
     9
100
AcDbLine
 10
-174.9996681213382
 20
440.0104068576416
 30
0.0
 11
-174.9996681213382
 21
392.0098881703099
 31
0.0
  0
LINE
  5
20B
330
1F
100
AcDbEntity
  8
C-1
  6
Continuous
 62
     2
370
     9
100
AcDbLine
 10
304.9999999999999
 20
1041.00978124729
 30
0.0
 11
-305.0000000000001
 21
1041.00978124729
 31
0.0
  0
LINE
  5
20C
330
1F
100
AcDbEntity
  8
C-1
  6
Continuous
 62
     2
370
     9
100
AcDbLine
 10
301.9999999999998
 20
1038.00978124729
 30
0.0
 11
-302.0000000000003
 21
1038.00978124729
 31
0.0
  0
LINE
  5
20D
330
1F
100
AcDbEntity
  8
C-1
  6
Continuous
 62
     2
370
     9
100
AcDbLine
 10
-305.0000000000001
 20
431.00978124729
 30
0.0
 11
304.9999999999999
 21
431.00978124729
 31
0.0
  0
LINE
  5
20E
330
1F
100
AcDbEntity
  8
C-1
  6
Continuous
 62
     2
370
     9
100
AcDbLine
 10
304.9999999999999
 20
431.00978124729
 30
0.0
 11
304.9999999999999
 21
1041.00978124729
 31
0.0
  0
LINE
  5
20F
330
1F
100
AcDbEntity
  8
C-1
  6
Continuous
 62
     2
370
     9
100
AcDbLine
 10
-302.0000000000003
 20
434.0097812472903
 30
0.0
 11
301.9999999999998
 21
434.0097812472903
 31
0.0
  0
LINE
  5
210
330
1F
100
AcDbEntity
  8
C-1
  6
Continuous
 62
     2
370
     9
100
AcDbLine
 10
301.9999999999998
 20
434.0097812472903
 30
0.0
 11
301.9999999999998
 21
1038.00978124729
 31
0.0
  0
LINE
  5
211
330
1F
100
AcDbEntity
  8
C-A
  6
Continuous
 62
     3
370
     9
100
AcDbLine
 10
166.2499999999999
 20
1046.009689583059
 30
0.0
 11
167.4999999999999
 21
1046.009689583059
 31
0.0
  0
LINE
  5
212
330
1F
100
AcDbEntity
  8
C-A
  6
Continuous
 62
     3
370
     9
100
AcDbLine
 10
166.2499999999999
 20
1046.009689583059
 30
0.0
 11
166.2499999999999
 21
1075.00967432427
 31
0.0
  0
LINE
  5
213
330
1F
100
AcDbEntity
  8
C-A
  6
Continuous
 62
     3
370
     9
100
AcDbLine
 10
167.5046691894521
 20
1042.00967432427
 30
0.0
 11
166.9915161132802
 21
1042.00967432427
 31
0.0
  0
LINE
  5
214
330
1F
100
AcDbEntity
  8
C-A
  6
Continuous
 62
     3
370
     9
100
AcDbLine
 10
182.9999389648422
 20
1042.00967432427
 30
0.0
 11
182.4999694824207
 21
1042.00967432427
 31
0.0
  0
LINE
  5
215
330
1F
100
AcDbEntity
  8
C-A
  6
Continuous
 62
     3
370
     9
100
AcDbLine
 10
183.7500610351547
 20
1046.009689583059
 30
0.0
 11
182.5000915527333
 21
1046.009689583059
 31
0.0
  0
LINE
  5
216
330
1F
100
AcDbEntity
  8
C-A
  6
Continuous
 62
     3
370
     9
100
AcDbLine
 10
183.7500610351547
 20
1046.009689583059
 30
0.0
 11
183.7500610351547
 21
1075.00967432427
 31
0.0
  0
LINE
  5
217
330
1F
100
AcDbEntity
  8
C-A
  6
Continuous
 62
     3
370
     9
100
AcDbLine
 10
166.2499999999999
 20
1075.00967432427
 30
0.0
 11
183.7500610351547
 21
1075.00967432427
 31
0.0
  0
LINE
  5
218
330
1F
100
AcDbEntity
  8
C-A
  6
JWW_DASHED2
 62
     3
370
     9
100
AcDbLine
 10
168.2500305175766
 20
1045.863785042044
 30
0.0
 11
168.2500305175766
 21
1075.00967432427
 31
0.0
  0
LINE
  5
219
330
1F
100
AcDbEntity
  8
C-A
  6
JWW_DASHED2
 62
     3
370
     9
100
AcDbLine
 10
181.7500610351566
 20
1045.863785042044
 30
0.0
 11
181.7500610351566
 21
1075.00967432427
 31
0.0
  0
LINE
  5
21A
330
1F
100
AcDbEntity
  8
C-A
  6
JWW_CENTER2
 62
     7
370
     9
100
AcDbLine
 10
180.7760009765614
 20
1065.009628547903
 30
0.0
 11
169.2239685058597
 21
1065.009628547903
 31
0.0
  0
ARC
  5
21B
330
1F
100
AcDbEntity
  8
C-A
  6
Continuous
 62
     3
370
     9
100
AcDbCircle
 10
166.9999389648426
 20
1040.009704841848
 30
0.0
 40
1.999999642372131
100
AcDbArc
 50
90.24162292480467
 51
150.0007171630859
  0
ARC
  5
21C
330
1F
100
AcDbEntity
  8
C-A
  6
Continuous
 62
     3
370
     9
100
AcDbCircle
 10
167.4999999999999
 20
1044.009674324268
 30
0.0
 40
1.999999642372131
100
AcDbArc
 50
270.1332855224609
 51
90.0
  0
ARC
  5
21D
330
1F
100
AcDbEntity
  8
C-A
  6
Continuous
 62
     3
370
     9
100
AcDbCircle
 10
182.9999389648422
 20
1040.009704841848
 30
0.0
 40
1.999999642372131
100
AcDbArc
 50
29.99951171875
 51
89.72402954101562
  0
ARC
  5
21E
330
1F
100
AcDbEntity
  8
C-A
  6
Continuous
 62
     3
370
     9
100
AcDbCircle
 10
182.5000915527333
 20
1044.009674324268
 30
0.0
 40
1.999999642372131
100
AcDbArc
 50
90.0
 51
270.0
  0
CIRCLE
  5
21F
330
1F
100
AcDbEntity
  8
C-A
  6
Continuous
 62
     3
370
     9
100
AcDbCircle
 10
174.9999999999999
 20
1065.009628547903
 30
0.0
 40
4.249999523162842
  0
LINE
  5
220
330
1F
100
AcDbEntity
  8
C-A
  6
JWW_CENTER2
 62
     7
370
     9
100
AcDbLine
 10
174.9999999999999
 20
1032.009155636938
 30
0.0
 11
174.9999999999999
 21
1080.00967432427
 31
0.0
  0
LINE
  5
221
330
1F
100
AcDbEntity
  8
C-A
  6
Continuous
 62
     3
370
     9
100
AcDbLine
 10
166.2499999999999
 20
426.0098729115207
 30
0.0
 11
167.4999999999999
 21
426.0098729115207
 31
0.0
  0
LINE
  5
222
330
1F
100
AcDbEntity
  8
C-A
  6
Continuous
 62
     3
370
     9
100
AcDbLine
 10
166.2499999999999
 20
426.0098729115207
 30
0.0
 11
166.2499999999999
 21
397.0098881703099
 31
0.0
  0
LINE
  5
223
330
1F
100
AcDbEntity
  8
C-A
  6
Continuous
 62
     3
370
     9
100
AcDbLine
 10
167.5046691894521
 20
430.0098881703098
 30
0.0
 11
166.9915161132802
 21
430.0098881703098
 31
0.0
  0
LINE
  5
224
330
1F
100
AcDbEntity
  8
C-A
  6
Continuous
 62
     3
370
     9
100
AcDbLine
 10
182.9999389648422
 20
430.0098881703098
 30
0.0
 11
182.4999694824207
 21
430.0098881703098
 31
0.0
  0
LINE
  5
225
330
1F
100
AcDbEntity
  8
C-A
  6
Continuous
 62
     3
370
     9
100
AcDbLine
 10
183.7500610351547
 20
426.0098729115207
 30
0.0
 11
182.5000915527333
 21
426.0098729115207
 31
0.0
  0
LINE
  5
226
330
1F
100
AcDbEntity
  8
C-A
  6
Continuous
 62
     3
370
     9
100
AcDbLine
 10
183.7500610351547
 20
426.0098729115207
 30
0.0
 11
183.7500610351547
 21
397.0098881703099
 31
0.0
  0
LINE
  5
227
330
1F
100
AcDbEntity
  8
C-A
  6
Continuous
 62
     3
370
     9
100
AcDbLine
 10
166.2499999999999
 20
397.0098881703099
 30
0.0
 11
183.7500610351547
 21
397.0098881703099
 31
0.0
  0
LINE
  5
228
330
1F
100
AcDbEntity
  8
C-A
  6
JWW_DASHED2
 62
     3
370
     9
100
AcDbLine
 10
168.2500305175766
 20
426.1557774525364
 30
0.0
 11
168.2500305175766
 21
397.0098881703099
 31
0.0
  0
LINE
  5
229
330
1F
100
AcDbEntity
  8
C-A
  6
JWW_DASHED2
 62
     3
370
     9
100
AcDbLine
 10
181.7500610351566
 20
426.1557774525364
 30
0.0
 11
181.7500610351566
 21
397.0098881703099
 31
0.0
  0
LINE
  5
22A
330
1F
100
AcDbEntity
  8
C-A
  6
JWW_CENTER2
 62
     7
370
     9
100
AcDbLine
 10
180.7760009765614
 20
407.0099339466769
 30
0.0
 11
169.2239685058597
 21
407.0099339466769
 31
0.0
  0
ARC
  5
22B
330
1F
100
AcDbEntity
  8
C-A
  6
Continuous
 62
     3
370
     9
100
AcDbCircle
 10
166.9999389648426
 20
432.0098576527316
 30
0.0
 40
1.999999642372131
100
AcDbArc
 50
209.9992828369141
 51
269.7583770751953
  0
ARC
  5
22C
330
1F
100
AcDbEntity
  8
C-A
  6
Continuous
 62
     3
370
     9
100
AcDbCircle
 10
167.4999999999999
 20
428.0098881703116
 30
0.0
 40
1.999999642372131
100
AcDbArc
 50
270.0
 51
89.86671447753905
  0
ARC
  5
22D
330
1F
100
AcDbEntity
  8
C-A
  6
Continuous
 62
     3
370
     9
100
AcDbCircle
 10
182.9999389648422
 20
432.0098576527316
 30
0.0
 40
1.999999642372131
100
AcDbArc
 50
270.2759704589844
 51
330.00048828125
  0
ARC
  5
22E
330
1F
100
AcDbEntity
  8
C-A
  6
Continuous
 62
     3
370
     9
100
AcDbCircle
 10
182.5000915527333
 20
428.0098881703116
 30
0.0
 40
1.999999642372131
100
AcDbArc
 50
90.0
 51
270.0
  0
CIRCLE
  5
22F
330
1F
100
AcDbEntity
  8
C-A
  6
Continuous
 62
     3
370
     9
100
AcDbCircle
 10
174.9999999999999
 20
407.0099339466769
 30
0.0
 40
4.249999523162842
  0
LINE
  5
230
330
1F
100
AcDbEntity
  8
C-A
  6
JWW_CENTER2
 62
     7
370
     9
100
AcDbLine
 10
174.9999999999999
 20
440.0104068576416
 30
0.0
 11
174.9999999999999
 21
392.0098881703099
 31
0.0
  0
LINE
  5
231
330
1F
100
AcDbEntity
  8
C-1
  6
JWW_DASHED3
 62
     2
370
     9
100
AcDbLine
 10
274.9999999999999
 20
1011.00978124729
 30
0.0
 11
-275.0000000000001
 21
1011.00978124729
 31
0.0
  0
LINE
  5
232
330
1F
100
AcDbEntity
  8
C-1
  6
JWW_DASHED3
 62
     2
370
     9
100
AcDbLine
 10
-275.0000000000001
 20
461.00978124729
 30
0.0
 11
274.9999999999999
 21
461.00978124729
 31
0.0
  0
LINE
  5
233
330
1F
100
AcDbEntity
  8
C-1
  6
JWW_DASHED3
 62
     2
370
     9
100
AcDbLine
 10
274.9999999999999
 20
461.00978124729
 30
0.0
 11
274.9999999999999
 21
1011.00978124729
 31
0.0
  0
LWPOLYLINE
  5
234
330
1F
100
AcDbEntity
  8
C-4
  6
Continuous
 62
     7
370
     9
100
AcDbPolyline
 90
        4
 70
     1
 43
2.0
 10
175.9999999999999
 20
343.6097812472899
 42
0.4142135623731
 10
174.9999999999999
 20
344.6097812472899
 42
0.4142135623731
 10
173.9999999999998
 20
343.6097812472899
 42
0.4142135623731
 10
174.9999999999999
 20
342.6097812472898
 42
0.4142135623731
  0
LINE
  5
235
330
1F
100
AcDbEntity
  8
C-4
  6
Continuous
 62
     7
370
     9
100
AcDbLine
 10
174.9999999999999
 20
340.60978124729
 30
0.0
 11
174.9999999999999
 21
372.0098881703099
 31
0.0
  0
LINE
  5
236
330
1F
100
AcDbEntity
  8
C-4
  6
Continuous
 62
     7
370
     9
100
AcDbLine
 10
174.9999999999999
 20
343.6097812472899
 30
0.0
 11
304.9999999999999
 21
343.6097812472899
 31
0.0
  0
LWPOLYLINE
  5
237
330
1F
100
AcDbEntity
  8
C-4
  6
Continuous
 62
     7
370
     9
100
AcDbPolyline
 90
        4
 70
     1
 43
2.0
 10
305.9999999999999
 20
343.6097812472899
 42
0.4142135623731
 10
304.9999999999999
 20
344.6097812472899
 42
0.4142135623731
 10
303.9999999999999
 20
343.6097812472899
 42
0.4142135623731
 10
304.9999999999999
 20
342.6097812472898
 42
0.4142135623731
  0
TEXT
  5
238
330
1F
100
AcDbEntity
  8
C-4
  6
Continuous
 62
     2
370
   211
100
AcDbText
 10
207.4999999999999
 20
355.2497812472901
 30
0.0
 40
30.48
  1
130
 41
1.083333333333333
  7
ＭＳ ゴシック
100
AcDbText
  0
LWPOLYLINE
  5
239
330
1F
100
AcDbEntity
  8
C-4
  6
Continuous
 62
     7
370
     9
100
AcDbPolyline
 90
        4
 70
     1
 43
2.0
 10
305.9999999999999
 20
278.6097812472897
 42
0.4142135623731
 10
304.9999999999999
 20
279.6097812472897
 42
0.4142135623731
 10
303.9999999999999
 20
278.6097812472897
 42
0.4142135623731
 10
304.9999999999999
 20
277.6097812472897
 42
0.4142135623731
  0
LINE
  5
23A
330
1F
100
AcDbEntity
  8
C-4
  6
Continuous
 62
     7
370
     9
100
AcDbLine
 10
304.9999999999999
 20
275.6097812472899
 30
0.0
 11
304.9999999999999
 21
411.00978124729
 31
0.0
  0
LINE
  5
23B
330
1F
100
AcDbEntity
  8
C-4
  6
Continuous
 62
     7
370
     9
100
AcDbLine
 10
-305.0000000000001
 20
343.6097812472899
 30
0.0
 11
-174.9996681213379
 21
343.6097812472899
 31
0.0
  0
LWPOLYLINE
  5
23C
330
1F
100
AcDbEntity
  8
C-4
  6
Continuous
 62
     7
370
     9
100
AcDbPolyline
 90
        4
 70
     1
 43
2.0
 10
-304.0000000000001
 20
343.6097812472899
 42
0.4142135623731
 10
-305.0000000000001
 20
344.6097812472899
 42
0.4142135623731
 10
-306.0000000000002
 20
343.6097812472899
 42
0.4142135623731
 10
-305.0000000000001
 20
342.6097812472898
 42
0.4142135623731
  0
LWPOLYLINE
  5
23D
330
1F
100
AcDbEntity
  8
C-4
  6
Continuous
 62
     7
370
     9
100
AcDbPolyline
 90
        4
 70
     1
 43
2.0
 10
-173.9996681213379
 20
343.6097812472899
 42
0.4142135623731
 10
-174.9996681213379
 20
344.6097812472899
 42
0.4142135623731
 10
-175.9996681213379
 20
343.6097812472899
 42
0.4142135623731
 10
-174.9996681213379
 20
342.6097812472898
 42
0.4142135623731
  0
LINE
  5
23E
330
1F
100
AcDbEntity
  8
C-4
  6
Continuous
 62
     7
370
     9
100
AcDbLine
 10
-174.9996681213379
 20
340.60978124729
 30
0.0
 11
-174.9996681213379
 21
372.0098881703099
 31
0.0
  0
TEXT
  5
23F
330
1F
100
AcDbEntity
  8
C-4
  6
Continuous
 62
     2
370
   211
100
AcDbText
 10
-272.4998340606691
 20
355.2497812472901
 30
0.0
 40
30.48
  1
130
 41
1.083333333333333
  7
ＭＳ ゴシック
100
AcDbText
  0
LWPOLYLINE
  5
240
330
1F
100
AcDbEntity
  8
C-4
  6
Continuous
 62
     7
370
     9
100
AcDbPolyline
 90
        4
 70
     1
 43
2.0
 10
-304.0000000000001
 20
278.6097812472897
 42
0.4142135623731
 10
-305.0000000000001
 20
279.6097812472897
 42
0.4142135623731
 10
-306.0000000000002
 20
278.6097812472897
 42
0.4142135623731
 10
-305.0000000000001
 20
277.6097812472897
 42
0.4142135623731
  0
LINE
  5
241
330
1F
100
AcDbEntity
  8
C-4
  6
Continuous
 62
     7
370
     9
100
AcDbLine
 10
-305.0000000000001
 20
275.6097812472899
 30
0.0
 11
-305.0000000000001
 21
411.00978124729
 31
0.0
  0
LINE
  5
242
330
1F
100
AcDbEntity
  8
C-4
  6
Continuous
 62
     7
370
     9
100
AcDbLine
 10
-174.9996681213379
 20
343.6097812472899
 30
0.0
 11
174.9999999999999
 21
343.6097812472899
 31
0.0
  0
TEXT
  5
243
330
1F
100
AcDbEntity
  8
C-4
  6
Continuous
 62
     2
370
   211
100
AcDbText
 10
-32.49983406066903
 20
355.2497812472901
 30
0.0
 40
30.48
  1
350
 41
1.083333333333333
  7
ＭＳ ゴシック
100
AcDbText
  0
LWPOLYLINE
  5
244
330
1F
100
AcDbEntity
  8
C-4
  6
Continuous
 62
     7
370
     9
100
AcDbPolyline
 90
        4
 70
     1
 43
2.0
 10
-274.0000000000001
 20
1128.42774999729
 42
0.4142135623731
 10
-275.0000000000001
 20
1129.42774999729
 42
0.4142135623731
 10
-276.0000000000002
 20
1128.42774999729
 42
0.4142135623731
 10
-275.0000000000001
 20
1127.42774999729
 42
0.4142135623731
  0
LINE
  5
245
330
1F
100
AcDbEntity
  8
C-4
  6
Continuous
 62
     7
370
     9
100
AcDbLine
 10
-275.0000000000001
 20
1131.42774999729
 30
0.0
 11
-275.0000000000001
 21
1061.00978124729
 31
0.0
  0
LINE
  5
246
330
1F
100
AcDbEntity
  8
C-4
  6
Continuous
 62
     7
370
     9
100
AcDbLine
 10
-305.0000000000001
 20
1193.42774999729
 30
0.0
 11
-302.0
 21
1193.42774999729
 31
0.0
  0
LWPOLYLINE
  5
247
330
1F
100
AcDbEntity
  8
C-4
  6
Continuous
 62
     7
370
     9
100
AcDbPolyline
 90
        4
 70
     1
 43
2.0
 10
-304.0000000000001
 20
1193.42774999729
 42
0.4142135623731
 10
-305.0000000000001
 20
1194.42774999729
 42
0.4142135623731
 10
-306.0000000000002
 20
1193.42774999729
 42
0.4142135623731
 10
-305.0000000000001
 20
1192.42774999729
 42
0.4142135623731
  0
LWPOLYLINE
  5
248
330
1F
100
AcDbEntity
  8
C-4
  6
Continuous
 62
     7
370
     9
100
AcDbPolyline
 90
        4
 70
     1
 43
2.0
 10
-301.0
 20
1193.42774999729
 42
0.4142135623731
 10
-302.0
 20
1194.42774999729
 42
0.4142135623731
 10
-303.0000000000001
 20
1193.42774999729
 42
0.4142135623731
 10
-302.0
 20
1192.42774999729
 42
0.4142135623731
  0
LINE
  5
249
330
1F
100
AcDbEntity
  8
C-4
  6
Continuous
 62
     7
370
     9
100
AcDbLine
 10
-302.0
 20
1193.42774999729
 30
0.0
 11
-300.0000000000001
 21
1193.42774999729
 31
0.0
  0
LWPOLYLINE
  5
24A
330
1F
100
AcDbEntity
  8
C-4
  6
Continuous
 62
     7
370
     9
100
AcDbPolyline
 90
        4
 70
     1
 43
2.0
 10
-299.0000000000001
 20
1193.42774999729
 42
0.4142135623731
 10
-300.0000000000001
 20
1194.42774999729
 42
0.4142135623731
 10
-301.0000000000002
 20
1193.42774999729
 42
0.4142135623731
 10
-300.0000000000001
 20
1192.42774999729
 42
0.4142135623731
  0
LINE
  5
24B
330
1F
100
AcDbEntity
  8
C-4
  6
Continuous
 62
     7
370
     9
100
AcDbLine
 10
-302.0
 20
1196.42774999729
 30
0.0
 11
-302.0
 21
1061.00978124729
 31
0.0
  0
LINE
  5
24C
330
1F
100
AcDbEntity
  8
C-4
  6
Continuous
 62
     7
370
     9
100
AcDbLine
 10
-300.0000000000001
 20
1196.42774999729
 30
0.0
 11
-300.0000000000001
 21
1061.00978124729
 31
0.0
  0
LWPOLYLINE
  5
24D
330
1F
100
AcDbEntity
  8
C-4
  6
Continuous
 62
     7
370
     9
100
AcDbPolyline
 90
        4
 70
     1
 43
2.0
 10
-304.0000000000001
 20
1258.42774999729
 42
0.4142135623731
 10
-305.0000000000001
 20
1259.42774999729
 42
0.4142135623731
 10
-306.0000000000002
 20
1258.42774999729
 42
0.4142135623731
 10
-305.0000000000001
 20
1257.42774999729
 42
0.4142135623731
  0
LINE
  5
24E
330
1F
100
AcDbEntity
  8
C-4
  6
Continuous
 62
     7
370
     9
100
AcDbLine
 10
-305.0000000000001
 20
1261.42774999729
 30
0.0
 11
-305.0000000000001
 21
1061.00978124729
 31
0.0
  0
TEXT
  5
24F
330
1F
100
AcDbEntity
  8
C-4
  6
Continuous
 62
     2
370
   211
100
AcDbText
 10
-336.8993773343657
 20
1205.067749997291
 30
0.0
 40
30.48
  1
3
 41
0.999999999999998
  7
ＭＳ ゴシック
100
AcDbText
  0
TEXT
  5
250
330
1F
100
AcDbEntity
  8
C-4
  6
Continuous
 62
     2
370
   211
100
AcDbText
 10
-293.4273678823615
 20
1205.067749997291
 30
0.0
 40
30.48
  1
2
 41
0.9999999999999998
  7
ＭＳ ゴシック
100
AcDbText
  0
LINE
  5
251
330
1F
100
AcDbEntity
  8
C-4
  6
Continuous
 62
     7
370
     9
100
AcDbLine
 10
-305.0000000000001
 20
1193.42774999729
 30
0.0
 11
-347.5672255015378
 21
1193.42774999729
 31
0.0
  0
LWPOLYLINE
  5
252
330
1F
100
AcDbEntity
  8
C-4
  6
Continuous
 62
     7
370
     9
100
AcDbPolyline
 90
        4
 70
     1
 43
2.0
 10
-391.4179687500005
 20
1011.00978124729
 42
0.4142135623731
 10
-392.4179687500005
 20
1012.00978124729
 42
0.4142135623731
 10
-393.4179687500005
 20
1011.00978124729
 42
0.4142135623731
 10
-392.4179687500005
 20
1010.00978124729
 42
0.4142135623731
  0
LINE
  5
253
330
1F
100
AcDbEntity
  8
C-4
  6
Continuous
 62
     7
370
     9
100
AcDbLine
 10
-395.4179687500006
 20
1011.00978124729
 30
0.0
 11
-325.0000000000001
 21
1011.00978124729
 31
0.0
  0
LWPOLYLINE
  5
254
330
1F
100
AcDbEntity
  8
C-4
  6
Continuous
 62
     7
370
     9
100
AcDbPolyline
 90
        4
 70
     1
 43
2.0
 10
-456.4179687500005
 20
1036.00978124729
 42
0.4142135623731
 10
-457.4179687500005
 20
1037.00978124729
 42
0.4142135623731
 10
-458.4179687500005
 20
1036.00978124729
 42
0.4142135623731
 10
-457.4179687500005
 20
1035.00978124729
 42
0.4142135623731
  0
LINE
  5
255
330
1F
100
AcDbEntity
  8
C-4
  6
Continuous
 62
     7
370
     9
100
AcDbLine
 10
-457.4179687500005
 20
1036.00978124729
 30
0.0
 11
-457.4179687500005
 21
1038.00978124729
 31
0.0
  0
LWPOLYLINE
  5
256
330
1F
100
AcDbEntity
  8
C-4
  6
Continuous
 62
     7
370
     9
100
AcDbPolyline
 90
        4
 70
     1
 43
2.0
 10
-456.4179687500005
 20
1038.00978124729
 42
0.4142135623731
 10
-457.4179687500005
 20
1039.00978124729
 42
0.4142135623731
 10
-458.4179687500005
 20
1038.00978124729
 42
0.4142135623731
 10
-457.4179687500005
 20
1037.00978124729
 42
0.4142135623731
  0
LINE
  5
257
330
1F
100
AcDbEntity
  8
C-4
  6
Continuous
 62
     7
370
     9
100
AcDbLine
 10
-460.4179687500006
 20
1036.00978124729
 30
0.0
 11
-325.0000000000001
 21
1036.00978124729
 31
0.0
  0
LINE
  5
258
330
1F
100
AcDbEntity
  8
C-4
  6
Continuous
 62
     7
370
     9
100
AcDbLine
 10
-460.4179687500006
 20
1038.00978124729
 30
0.0
 11
-325.0000000000001
 21
1038.00978124729
 31
0.0
  0
LWPOLYLINE
  5
259
330
1F
100
AcDbEntity
  8
C-4
  6
Continuous
 62
     7
370
     9
100
AcDbPolyline
 90
        4
 70
     1
 43
2.0
 10
-521.4179687500005
 20
1041.00978124729
 42
0.4142135623731
 10
-522.4179687500005
 20
1042.00978124729
 42
0.4142135623731
 10
-523.4179687500005
 20
1041.00978124729
 42
0.4142135623731
 10
-522.4179687500005
 20
1040.00978124729
 42
0.4142135623731
  0
LINE
  5
25A
330
1F
100
AcDbEntity
  8
C-4
  6
Continuous
 62
     7
370
     9
100
AcDbLine
 10
-525.4179687500006
 20
1041.00978124729
 30
0.0
 11
-325.0000000000001
 21
1041.00978124729
 31
0.0
  0
LINE
  5
25B
330
1F
100
AcDbEntity
  8
C-4
  6
Continuous
 62
     7
370
     9
100
AcDbLine
 10
-457.4179687500005
 20
1038.00978124729
 30
0.0
 11
-457.4179687500005
 21
1041.00978124729
 31
0.0
  0
LWPOLYLINE
  5
25C
330
1F
100
AcDbEntity
  8
C-4
  6
Continuous
 62
     7
370
     9
100
AcDbPolyline
 90
        4
 70
     1
 43
2.0
 10
-456.4179687500005
 20
1041.00978124729
 42
0.4142135623731
 10
-457.4179687500005
 20
1042.00978124729
 42
0.4142135623731
 10
-458.4179687500005
 20
1041.00978124729
 42
0.4142135623731
 10
-457.4179687500005
 20
1040.00978124729
 42
0.4142135623731
  0
TEXT
  5
25D
330
1F
100
AcDbEntity
  8
C-4
  6
Continuous
 62
     2
370
   211
100
AcDbText
 10
-469.0579687500007
 20
1008.616977261076
 30
0.0
 40
30.48
  1
2
 50
90.0
 41
0.9999999999999998
  7
ＭＳ ゴシック
100
AcDbText
  0
TEXT
  5
25E
330
1F
100
AcDbEntity
  8
C-4
  6
Continuous
 62
     2
370
   211
100
AcDbText
 10
-469.0579687500007
 20
1055.447652218272
 30
0.0
 40
30.48
  1
3
 50
90.0
 41
0.9999999999999998
  7
ＭＳ ゴシック
100
AcDbText
  0
LINE
  5
25F
330
1F
100
AcDbEntity
  8
C-4
  6
Continuous
 62
     7
370
     9
100
AcDbLine
 10
-457.4179687500005
 20
1041.00978124729
 30
0.0
 11
-457.4179687500005
 21
1085.184718292187
 31
0.0
  0
LWPOLYLINE
  5
260
330
1F
100
AcDbEntity
  8
C-4
  6
Continuous
 62
     7
370
     9
100
AcDbPolyline
 90
        4
 70
     1
 43
2.0
 10
-391.4179687500005
 20
461.00978124729
 42
0.4142135623731
 10
-392.4179687500005
 20
462.00978124729
 42
0.4142135623731
 10
-393.4179687500005
 20
461.00978124729
 42
0.4142135623731
 10
-392.4179687500005
 20
460.0097812472899
 42
0.4142135623731
  0
LINE
  5
261
330
1F
100
AcDbEntity
  8
C-4
  6
Continuous
 62
     7
370
     9
100
AcDbLine
 10
-395.4179687500006
 20
461.00978124729
 30
0.0
 11
-325.0000000000001
 21
461.00978124729
 31
0.0
  0
LINE
  5
262
330
1F
100
AcDbEntity
  8
C-4
  6
Continuous
 62
     7
370
     9
100
AcDbLine
 10
-457.4179687500005
 20
431.00978124729
 30
0.0
 11
-457.4179687500005
 21
434.0097812472903
 31
0.0
  0
LWPOLYLINE
  5
263
330
1F
100
AcDbEntity
  8
C-4
  6
Continuous
 62
     7
370
     9
100
AcDbPolyline
 90
        4
 70
     1
 43
2.0
 10
-456.4179687500005
 20
431.00978124729
 42
0.4142135623731
 10
-457.4179687500005
 20
432.00978124729
 42
0.4142135623731
 10
-458.4179687500005
 20
431.00978124729
 42
0.4142135623731
 10
-457.4179687500005
 20
430.0097812472899
 42
0.4142135623731
  0
LWPOLYLINE
  5
264
330
1F
100
AcDbEntity
  8
C-4
  6
Continuous
 62
     7
370
     9
100
AcDbPolyline
 90
        4
 70
     1
 43
2.0
 10
-456.4179687500005
 20
434.0097812472903
 42
0.4142135623731
 10
-457.4179687500005
 20
435.0097812472904
 42
0.4142135623731
 10
-458.4179687500005
 20
434.0097812472903
 42
0.4142135623731
 10
-457.4179687500005
 20
433.0097812472903
 42
0.4142135623731
  0
LINE
  5
265
330
1F
100
AcDbEntity
  8
C-4
  6
Continuous
 62
     7
370
     9
100
AcDbLine
 10
-457.4179687500005
 20
434.0097812472903
 30
0.0
 11
-457.4179687500005
 21
436.00978124729
 31
0.0
  0
LWPOLYLINE
  5
266
330
1F
100
AcDbEntity
  8
C-4
  6
Continuous
 62
     7
370
     9
100
AcDbPolyline
 90
        4
 70
     1
 43
2.0
 10
-456.4179687500005
 20
436.00978124729
 42
0.4142135623731
 10
-457.4179687500005
 20
437.00978124729
 42
0.4142135623731
 10
-458.4179687500005
 20
436.00978124729
 42
0.4142135623731
 10
-457.4179687500005
 20
435.0097812472899
 42
0.4142135623731
  0
LINE
  5
267
330
1F
100
AcDbEntity
  8
C-4
  6
Continuous
 62
     7
370
     9
100
AcDbLine
 10
-460.4179687500006
 20
434.0097812472903
 30
0.0
 11
-325.0000000000001
 21
434.0097812472903
 31
0.0
  0
LINE
  5
268
330
1F
100
AcDbEntity
  8
C-4
  6
Continuous
 62
     7
370
     9
100
AcDbLine
 10
-460.4179687500006
 20
436.00978124729
 30
0.0
 11
-325.0000000000001
 21
436.00978124729
 31
0.0
  0
LWPOLYLINE
  5
269
330
1F
100
AcDbEntity
  8
C-4
  6
Continuous
 62
     7
370
     9
100
AcDbPolyline
 90
        4
 70
     1
 43
2.0
 10
-521.4179687500005
 20
431.00978124729
 42
0.4142135623731
 10
-522.4179687500005
 20
432.00978124729
 42
0.4142135623731
 10
-523.4179687500005
 20
431.00978124729
 42
0.4142135623731
 10
-522.4179687500005
 20
430.0097812472899
 42
0.4142135623731
  0
LINE
  5
26A
330
1F
100
AcDbEntity
  8
C-4
  6
Continuous
 62
     7
370
     9
100
AcDbLine
 10
-525.4179687500006
 20
431.00978124729
 30
0.0
 11
-325.0000000000001
 21
431.00978124729
 31
0.0
  0
TEXT
  5
26B
330
1F
100
AcDbEntity
  8
C-4
  6
Continuous
 62
     2
370
   211
100
AcDbText
 10
-469.0579687500007
 20
399.1104039129246
 30
0.0
 40
30.48
  1
3
 50
90.0
 41
0.9999999999999998
  7
ＭＳ ゴシック
100
AcDbText
  0
TEXT
  5
26C
330
1F
100
AcDbEntity
  8
C-4
  6
Continuous
 62
     2
370
   211
100
AcDbText
 10
-469.0579687500007
 20
442.5824133649283
 30
0.0
 40
30.48
  1
2
 50
90.0
 41
0.9999999999999998
  7
ＭＳ ゴシック
100
AcDbText
  0
LINE
  5
26D
330
1F
100
AcDbEntity
  8
C-4
  6
Continuous
 62
     7
370
     9
100
AcDbLine
 10
-457.4179687500005
 20
431.00978124729
 30
0.0
 11
-457.4179687500005
 21
388.4425557457524
 31
0.0
  0
LWPOLYLINE
  5
26E
330
1F
100
AcDbEntity
  8
C-4
  6
Continuous
 62
     7
370
     9
100
AcDbPolyline
 90
        4
 70
     1
 43
2.0
 10
275.9999999999999
 20
1128.42774999729
 42
0.4142135623731
 10
274.9999999999999
 20
1129.42774999729
 42
0.4142135623731
 10
273.9999999999999
 20
1128.42774999729
 42
0.4142135623731
 10
274.9999999999999
 20
1127.42774999729
 42
0.4142135623731
  0
LINE
  5
26F
330
1F
100
AcDbEntity
  8
C-4
  6
Continuous
 62
     7
370
     9
100
AcDbLine
 10
274.9999999999999
 20
1131.42774999729
 30
0.0
 11
274.9999999999999
 21
1061.00978124729
 31
0.0
  0
LWPOLYLINE
  5
270
330
1F
100
AcDbEntity
  8
C-4
  6
Continuous
 62
     7
370
     9
100
AcDbPolyline
 90
        4
 70
     1
 43
2.0
 10
300.9999999999999
 20
1193.42774999729
 42
0.4142135623731
 10
299.9999999999999
 20
1194.42774999729
 42
0.4142135623731
 10
298.9999999999999
 20
1193.42774999729
 42
0.4142135623731
 10
299.9999999999999
 20
1192.42774999729
 42
0.4142135623731
  0
LINE
  5
271
330
1F
100
AcDbEntity
  8
C-4
  6
Continuous
 62
     7
370
     9
100
AcDbLine
 10
299.9999999999999
 20
1193.42774999729
 30
0.0
 11
302.0
 21
1193.42774999729
 31
0.0
  0
LWPOLYLINE
  5
272
330
1F
100
AcDbEntity
  8
C-4
  6
Continuous
 62
     7
370
     9
100
AcDbPolyline
 90
        4
 70
     1
 43
2.0
 10
303.0000000000001
 20
1193.42774999729
 42
0.4142135623731
 10
302.0
 20
1194.42774999729
 42
0.4142135623731
 10
301.0
 20
1193.42774999729
 42
0.4142135623731
 10
302.0
 20
1192.42774999729
 42
0.4142135623731
  0
LINE
  5
273
330
1F
100
AcDbEntity
  8
C-4
  6
Continuous
 62
     7
370
     9
100
AcDbLine
 10
299.9999999999999
 20
1196.42774999729
 30
0.0
 11
299.9999999999999
 21
1061.00978124729
 31
0.0
  0
LINE
  5
274
330
1F
100
AcDbEntity
  8
C-4
  6
Continuous
 62
     7
370
     9
100
AcDbLine
 10
302.0
 20
1196.42774999729
 30
0.0
 11
302.0
 21
1061.00978124729
 31
0.0
  0
LWPOLYLINE
  5
275
330
1F
100
AcDbEntity
  8
C-4
  6
Continuous
 62
     7
370
     9
100
AcDbPolyline
 90
        4
 70
     1
 43
2.0
 10
305.9999999999999
 20
1258.42774999729
 42
0.4142135623731
 10
304.9999999999999
 20
1259.42774999729
 42
0.4142135623731
 10
303.9999999999999
 20
1258.42774999729
 42
0.4142135623731
 10
304.9999999999999
 20
1257.42774999729
 42
0.4142135623731
  0
LINE
  5
276
330
1F
100
AcDbEntity
  8
C-4
  6
Continuous
 62
     7
370
     9
100
AcDbLine
 10
304.9999999999999
 20
1261.42774999729
 30
0.0
 11
304.9999999999999
 21
1061.00978124729
 31
0.0
  0
LINE
  5
277
330
1F
100
AcDbEntity
  8
C-4
  6
Continuous
 62
     7
370
     9
100
AcDbLine
 10
302.0
 20
1193.42774999729
 30
0.0
 11
304.9999999999999
 21
1193.42774999729
 31
0.0
  0
LWPOLYLINE
  5
278
330
1F
100
AcDbEntity
  8
C-4
  6
Continuous
 62
     7
370
     9
100
AcDbPolyline
 90
        4
 70
     1
 43
2.0
 10
305.9999999999999
 20
1193.42774999729
 42
0.4142135623731
 10
304.9999999999999
 20
1194.42774999729
 42
0.4142135623731
 10
303.9999999999999
 20
1193.42774999729
 42
0.4142135623731
 10
304.9999999999999
 20
1192.42774999729
 42
0.4142135623731
  0
TEXT
  5
279
330
1F
100
AcDbEntity
  8
C-4
  6
Continuous
 62
     2
370
   211
100
AcDbText
 10
272.6071960137865
 20
1205.067749997291
 30
0.0
 40
30.48
  1
2
 41
0.9999999999999998
  7
ＭＳ ゴシック
100
AcDbText
  0
TEXT
  5
27A
330
1F
100
AcDbEntity
  8
C-4
  6
Continuous
 62
     2
370
   211
100
AcDbText
 10
319.4378709709822
 20
1205.067749997291
 30
0.0
 40
30.48
  1
3
 41
0.9999999999999998
  7
ＭＳ ゴシック
100
AcDbText
  0
LINE
  5
27B
330
1F
100
AcDbEntity
  8
C-4
  6
Continuous
 62
     7
370
     9
100
AcDbLine
 10
304.9999999999999
 20
1193.42774999729
 30
0.0
 11
349.1749370448962
 21
1193.42774999729
 31
0.0
  0
LINE
  5
27C
330
1F
100
AcDbEntity
  8
C-4
  6
Continuous
 62
     7
370
     9
100
AcDbLine
 10
-275.0000000000001
 20
1128.42774999729
 30
0.0
 11
274.9999999999999
 21
1128.42774999729
 31
0.0
  0
TEXT
  5
27D
330
1F
100
AcDbEntity
  8
C-4
  6
Continuous
 62
     2
370
   211
100
AcDbText
 10
-32.50000000000014
 20
1140.067749997291
 30
0.0
 40
30.48
  1
550
 41
1.083333333333333
  7
ＭＳ ゴシック
100
AcDbText
  0
LINE
  5
27E
330
1F
100
AcDbEntity
  8
C-4
  6
Continuous
 62
     7
370
     9
100
AcDbLine
 10
-300.0000000000001
 20
1193.42774999729
 30
0.0
 11
299.9999999999999
 21
1193.42774999729
 31
0.0
  0
TEXT
  5
27F
330
1F
100
AcDbEntity
  8
C-4
  6
Continuous
 62
     2
370
   211
100
AcDbText
 10
-32.50000000000014
 20
1205.067749997291
 30
0.0
 40
30.48
  1
600
 41
1.083333333333333
  7
ＭＳ ゴシック
100
AcDbText
  0
LINE
  5
280
330
1F
100
AcDbEntity
  8
C-4
  6
Continuous
 62
     7
370
     9
100
AcDbLine
 10
-305.0000000000001
 20
1258.42774999729
 30
0.0
 11
304.9999999999999
 21
1258.42774999729
 31
0.0
  0
TEXT
  5
281
330
1F
100
AcDbEntity
  8
C-4
  6
Continuous
 62
     2
370
   211
100
AcDbText
 10
-32.50000000000014
 20
1270.067749997291
 30
0.0
 40
30.48
  1
610
 41
1.083333333333333
  7
ＭＳ ゴシック
100
AcDbText
  0
LINE
  5
282
330
1F
100
AcDbEntity
  8
C-4
  6
Continuous
 62
     7
370
     9
100
AcDbLine
 10
-392.4179687500005
 20
461.00978124729
 30
0.0
 11
-392.4179687500005
 21
1011.00978124729
 31
0.0
  0
TEXT
  5
283
330
1F
100
AcDbEntity
  8
C-4
  6
Continuous
 62
     2
370
   211
100
AcDbText
 10
-404.0579687500007
 20
703.5097812472901
 30
0.0
 40
30.48
  1
550
 50
90.0
 41
1.083333333333333
  7
ＭＳ ゴシック
100
AcDbText
  0
LINE
  5
284
330
1F
100
AcDbEntity
  8
C-4
  6
Continuous
 62
     7
370
     9
100
AcDbLine
 10
-457.4179687500005
 20
436.00978124729
 30
0.0
 11
-457.4179687500005
 21
1036.00978124729
 31
0.0
  0
TEXT
  5
285
330
1F
100
AcDbEntity
  8
C-4
  6
Continuous
 62
     2
370
   211
100
AcDbText
 10
-469.0579687500007
 20
703.5097812472901
 30
0.0
 40
30.48
  1
600
 50
90.0
 41
1.083333333333333
  7
ＭＳ ゴシック
100
AcDbText
  0
LINE
  5
286
330
1F
100
AcDbEntity
  8
C-4
  6
Continuous
 62
     7
370
     9
100
AcDbLine
 10
-522.4179687500005
 20
431.00978124729
 30
0.0
 11
-522.4179687500005
 21
1041.00978124729
 31
0.0
  0
TEXT
  5
287
330
1F
100
AcDbEntity
  8
C-4
  6
Continuous
 62
     2
370
   211
100
AcDbText
 10
-534.0579687500007
 20
703.5097812472901
 30
0.0
 40
30.48
  1
610
 50
90.0
 41
1.083333333333333
  7
ＭＳ ゴシック
100
AcDbText
  0
LINE
  5
288
330
1F
100
AcDbEntity
  8
C-5
  6
Continuous
 62
     7
370
     9
100
AcDbLine
 10
-287.5000915527344
 20
141.8658173795689
 30
0.0
 11
-287.5000915527344
 21
206.865290951346
 31
0.0
  0
LINE
  5
289
330
1F
100
AcDbEntity
  8
C-5
  6
Continuous
 62
     7
370
     9
100
AcDbLine
 10
-287.5000915527344
 20
206.865290951346
 30
0.0
 11
287.5000915527344
 21
206.865290951346
 31
0.0
  0
LINE
  5
28A
330
1F
100
AcDbEntity
  8
C-5
  6
Continuous
 62
     7
370
     9
100
AcDbLine
 10
287.5000915527344
 20
206.865290951346
 30
0.0
 11
287.5000915527344
 21
141.8658173795689
 31
0.0
  0
LINE
  5
28B
330
1F
100
AcDbEntity
  8
C-5
  6
Continuous
 62
     7
370
     9
100
AcDbLine
 10
287.5000915527344
 20
141.8658173795689
 30
0.0
 11
-287.5000915527344
 21
141.8658173795689
 31
0.0
  0
TEXT
  5
28C
330
1F
100
AcDbEntity
  8
C-5
  6
Continuous
 62
     2
370
     9
100
AcDbText
 10
-267.5000247955324
 20
160.0054883619297
 30
0.0
 40
30.48
  1
平面詳細図　Ｓ＝１：１０
 41
1.114583333333333
  7
ＭＳ ゴシック
100
AcDbText
  0
LINE
  5
28D
330
1F
100
AcDbEntity
  8
C-4
  6
Continuous
 62
     7
370
     9
100
AcDbLine
 10
-305.0000000000001
 20
278.6097812472897
 30
0.0
 11
-403.4786735972867
 21
278.6097812472897
 31
0.0
  0
LINE
  5
28E
330
1F
100
AcDbEntity
  8
C-4
  6
Continuous
 62
     7
370
     9
100
AcDbLine
 10
304.9999999999999
 20
278.6097812472897
 30
0.0
 11
400.7949015704492
 21
278.6097812472897
 31
0.0
  0
LWPOLYLINE
  5
28F
330
1F
100
AcDbEntity
  8
C-4
  6
Continuous
 62
     7
370
     9
100
AcDbPolyline
 90
        4
 70
     1
 43
2.0
 10
246.5000000000001
 20
278.6097812472897
 42
0.4142135623731
 10
245.5000000000001
 20
279.6097812472897
 42
0.4142135623731
 10
244.5000000000001
 20
278.6097812472897
 42
0.4142135623731
 10
245.5000000000001
 20
277.6097812472897
 42
0.4142135623731
  0
LINE
  5
290
330
1F
100
AcDbEntity
  8
C-4
  6
Continuous
 62
     7
370
     9
100
AcDbLine
 10
245.5000000000001
 20
275.6097812472899
 30
0.0
 11
245.5000000000001
 21
329.0379558124513
 31
0.0
  0
LWPOLYLINE
  5
291
330
1F
100
AcDbEntity
  8
C-4
  6
Continuous
 62
     7
370
     9
100
AcDbPolyline
 90
        4
 70
     1
 43
2.0
 10
-244.5000000000001
 20
278.6097812472897
 42
0.4142135623731
 10
-245.5000000000001
 20
279.6097812472897
 42
0.4142135623731
 10
-246.5000000000001
 20
278.6097812472897
 42
0.4142135623731
 10
-245.5000000000001
 20
277.6097812472897
 42
0.4142135623731
  0
LINE
  5
292
330
1F
100
AcDbEntity
  8
C-4
  6
Continuous
 62
     7
370
     9
100
AcDbLine
 10
-245.5000000000001
 20
275.6097812472899
 30
0.0
 11
-245.5000000000001
 21
329.0379558124513
 31
0.0
  0
LINE
  5
293
330
1F
100
AcDbEntity
  8
C-4
  6
Continuous
 62
     7
370
     9
100
AcDbLine
 10
-305.0000000000001
 20
278.6097812472897
 30
0.0
 11
-245.5000000000001
 21
278.6097812472897
 31
0.0
  0
TEXT
  5
294
330
1F
100
AcDbEntity
  8
C-4
  6
Continuous
 62
     2
370
   211
100
AcDbText
 10
-403.4786735972867
 20
290.2497812472902
 30
0.0
 40
30.48
  1
59.5
 41
1.09375
  7
ＭＳ ゴシック
100
AcDbText
  0
LINE
  5
295
330
1F
100
AcDbEntity
  8
C-4
  6
Continuous
 62
     7
370
     9
100
AcDbLine
 10
-245.5000000000001
 20
278.6097812472897
 30
0.0
 11
245.5000000000001
 21
278.6097812472897
 31
0.0
  0
TEXT
  5
296
330
1F
100
AcDbEntity
  8
C-4
  6
Continuous
 62
     2
370
   211
100
AcDbText
 10
-32.5
 20
290.2497812472902
 30
0.0
 40
30.48
  1
491
 41
1.083333333333333
  7
ＭＳ ゴシック
100
AcDbText
  0
LINE
  5
297
330
1F
100
AcDbEntity
  8
C-4
  6
Continuous
 62
     7
370
     9
100
AcDbLine
 10
245.5000000000001
 20
278.6097812472897
 30
0.0
 11
304.9999999999999
 21
278.6097812472897
 31
0.0
  0
TEXT
  5
298
330
1F
100
AcDbEntity
  8
C-4
  6
Continuous
 62
     2
370
   211
100
AcDbText
 10
313.2949015704491
 20
290.2497812472902
 30
0.0
 40
30.48
  1
59.5
 41
1.09375
  7
ＭＳ ゴシック
100
AcDbText
  0
LINE
  5
299
330
1F
100
AcDbEntity
  8
C-2
  6
Continuous
 62
     3
370
     9
100
AcDbLine
 10
-300.0000228881838
 20
436.0099185763917
 30
0.0
 11
-300.0000228881838
 21
1036.00978124729
 31
0.0
  0
LINE
  5
29A
330
1F
100
AcDbEntity
  8
C-2
  6
Continuous
 62
     3
370
     9
100
AcDbLine
 10
-295.9996070861819
 20
440.0098270236572
 30
0.0
 11
-295.9996070861819
 21
1032.009842282446
 31
0.0
  0
LINE
  5
29B
330
1F
100
AcDbEntity
  8
C-2
  6
Continuous
 62
     3
370
     9
100
AcDbLine
 10
-300.0000228881838
 20
1036.00978124729
 30
0.0
 11
300.0003547668457
 21
1036.00978124729
 31
0.0
  0
LINE
  5
29C
330
1F
100
AcDbEntity
  8
C-2
  6
Continuous
 62
     3
370
     9
100
AcDbLine
 10
-300.0000228881838
 20
1032.009842282446
 30
0.0
 11
300.0003547668457
 21
1032.009842282446
 31
0.0
  0
LINE
  5
29D
330
1F
100
AcDbEntity
  8
C-2
  6
Continuous
 62
     3
370
     9
100
AcDbLine
 10
300.0003547668457
 20
1036.00978124729
 30
0.0
 11
300.0003547668457
 21
436.0099185763917
 31
0.0
  0
LINE
  5
29E
330
1F
100
AcDbEntity
  8
C-2
  6
Continuous
 62
     3
370
     9
100
AcDbLine
 10
300.0003547668457
 20
436.0099185763917
 30
0.0
 11
-300.0000228881838
 21
436.0099185763917
 31
0.0
  0
LINE
  5
29F
330
1F
100
AcDbEntity
  8
C-2
  6
Continuous
 62
     3
370
     9
100
AcDbLine
 10
300.0003547668457
 20
440.0098270236572
 30
0.0
 11
-300.0000228881838
 21
440.0098270236572
 31
0.0
  0
LINE
  5
2A0
330
1F
100
AcDbEntity
  8
C-2
  6
Continuous
 62
     3
370
     9
100
AcDbLine
 10
296.000415802002
 20
440.0098270236572
 30
0.0
 11
296.000415802002
 21
1032.009842282446
 31
0.0
  0
LINE
  5
2A1
330
1F
100
AcDbEntity
  8
C-2
  6
Continuous
 62
     3
370
     9
100
AcDbLine
 10
-268.0001430511477
 20
1007.008987790259
 30
0.0
 11
-212.0002803802493
 21
1007.008987790259
 31
0.0
  0
LINE
  5
2A2
330
1F
100
AcDbEntity
  8
C-2
  6
Continuous
 62
     3
370
     9
100
AcDbLine
 10
-268.0001430511477
 20
1003.009537106665
 30
0.0
 11
-212.0002803802493
 21
1003.009537106665
 31
0.0
  0
LINE
  5
2A3
330
1F
100
AcDbEntity
  8
C-2
  6
Continuous
 62
     3
370
     9
100
AcDbLine
 10
-295.9996070861819
 20
937.5100864230712
 30
0.0
 11
-272.0000667572025
 21
937.5100864230712
 31
0.0
  0
LINE
  5
2A4
330
1F
100
AcDbEntity
  8
C-2
  6
Continuous
 62
     3
370
     9
100
AcDbLine
 10
-295.9996070861819
 20
934.5100253879151
 30
0.0
 11
-272.0000667572025
 21
934.5100253879151
 31
0.0
  0
LINE
  5
2A5
330
1F
100
AcDbEntity
  8
C-2
  6
Continuous
 62
     3
370
     9
100
AcDbLine
 10
-295.9996070861819
 20
837.5095981418212
 30
0.0
 11
-272.0000667572025
 21
837.5095981418212
 31
0.0
  0
LINE
  5
2A6
330
1F
100
AcDbEntity
  8
C-2
  6
Continuous
 62
     3
370
     9
100
AcDbLine
 10
-295.9996070861819
 20
834.510025387915
 30
0.0
 11
-272.0000667572025
 21
834.510025387915
 31
0.0
  0
LINE
  5
2A7
330
1F
100
AcDbEntity
  8
C-2
  6
Continuous
 62
     3
370
     9
100
AcDbLine
 10
-295.9996070861819
 20
737.5101169406496
 30
0.0
 11
-272.0000667572025
 21
737.5101169406496
 31
0.0
  0
LINE
  5
2A8
330
1F
100
AcDbEntity
  8
C-2
  6
Continuous
 62
     3
370
     9
100
AcDbLine
 10
-295.9996070861819
 20
734.5095676242431
 30
0.0
 11
-272.0000667572025
 21
734.5095676242431
 31
0.0
  0
LINE
  5
2A9
330
1F
100
AcDbEntity
  8
C-2
  6
Continuous
 62
     3
370
     9
100
AcDbLine
 10
-295.9996070861819
 20
637.5096591769777
 30
0.0
 11
-272.0000667572025
 21
637.5096591769777
 31
0.0
  0
LINE
  5
2AA
330
1F
100
AcDbEntity
  8
C-2
  6
Continuous
 62
     3
370
     9
100
AcDbLine
 10
-295.9996070861819
 20
634.5100864230715
 30
0.0
 11
-272.0000667572025
 21
634.5100864230715
 31
0.0
  0
LINE
  5
2AB
330
1F
100
AcDbEntity
  8
C-2
  6
Continuous
 62
     3
370
     9
100
AcDbLine
 10
-268.0001430511477
 20
937.5100864230712
 30
0.0
 11
-241.9999217987063
 21
937.5100864230712
 31
0.0
  0
LINE
  5
2AC
330
1F
100
AcDbEntity
  8
C-2
  6
Continuous
 62
     3
370
     9
100
AcDbLine
 10
-268.0001430511477
 20
934.5100253879151
 30
0.0
 11
-241.9999217987063
 21
934.5100253879151
 31
0.0
  0
LINE
  5
2AD
330
1F
100
AcDbEntity
  8
C-2
  6
Continuous
 62
     3
370
     9
100
AcDbLine
 10
-268.0001430511477
 20
837.5095981418212
 30
0.0
 11
-241.9999217987063
 21
837.5095981418212
 31
0.0
  0
LINE
  5
2AE
330
1F
100
AcDbEntity
  8
C-2
  6
Continuous
 62
     3
370
     9
100
AcDbLine
 10
-268.0001430511477
 20
834.510025387915
 30
0.0
 11
-241.9999217987063
 21
834.510025387915
 31
0.0
  0
LINE
  5
2AF
330
1F
100
AcDbEntity
  8
C-2
  6
Continuous
 62
     3
370
     9
100
AcDbLine
 10
-268.0001430511477
 20
737.5101169406496
 30
0.0
 11
-241.9999217987063
 21
737.5101169406496
 31
0.0
  0
LINE
  5
2B0
330
1F
100
AcDbEntity
  8
C-2
  6
Continuous
 62
     3
370
     9
100
AcDbLine
 10
-268.0001430511477
 20
734.5095676242431
 30
0.0
 11
-241.9999217987063
 21
734.5095676242431
 31
0.0
  0
LINE
  5
2B1
330
1F
100
AcDbEntity
  8
C-2
  6
Continuous
 62
     3
370
     9
100
AcDbLine
 10
-268.0001430511477
 20
637.5096591769777
 30
0.0
 11
-241.9999217987063
 21
637.5096591769777
 31
0.0
  0
LINE
  5
2B2
330
1F
100
AcDbEntity
  8
C-2
  6
Continuous
 62
     3
370
     9
100
AcDbLine
 10
-268.0001430511477
 20
634.5100864230715
 30
0.0
 11
-241.9999217987063
 21
634.5100864230715
 31
0.0
  0
LINE
  5
2B3
330
1F
100
AcDbEntity
  8
C-2
  6
Continuous
 62
     3
370
     9
100
AcDbLine
 10
-238.0000057220461
 20
937.5100864230712
 30
0.0
 11
-212.0002803802493
 21
937.5100864230712
 31
0.0
  0
LINE
  5
2B4
330
1F
100
AcDbEntity
  8
C-2
  6
Continuous
 62
     3
370
     9
100
AcDbLine
 10
-238.0000057220461
 20
934.5100253879151
 30
0.0
 11
-212.0002803802493
 21
934.5100253879151
 31
0.0
  0
LINE
  5
2B5
330
1F
100
AcDbEntity
  8
C-2
  6
Continuous
 62
     3
370
     9
100
AcDbLine
 10
-238.0000057220461
 20
837.5095981418212
 30
0.0
 11
-212.0002803802493
 21
837.5095981418212
 31
0.0
  0
LINE
  5
2B6
330
1F
100
AcDbEntity
  8
C-2
  6
Continuous
 62
     3
370
     9
100
AcDbLine
 10
-238.0000057220461
 20
834.510025387915
 30
0.0
 11
-212.0002803802493
 21
834.510025387915
 31
0.0
  0
LINE
  5
2B7
330
1F
100
AcDbEntity
  8
C-2
  6
Continuous
 62
     3
370
     9
100
AcDbLine
 10
-238.0000057220461
 20
737.5101169406496
 30
0.0
 11
-212.0002803802493
 21
737.5101169406496
 31
0.0
  0
LINE
  5
2B8
330
1F
100
AcDbEntity
  8
C-2
  6
Continuous
 62
     3
370
     9
100
AcDbLine
 10
-238.0000057220461
 20
734.5095676242431
 30
0.0
 11
-212.0002803802493
 21
734.5095676242431
 31
0.0
  0
LINE
  5
2B9
330
1F
100
AcDbEntity
  8
C-2
  6
Continuous
 62
     3
370
     9
100
AcDbLine
 10
-238.0000057220461
 20
637.5096591769777
 30
0.0
 11
-212.0002803802493
 21
637.5096591769777
 31
0.0
  0
LINE
  5
2BA
330
1F
100
AcDbEntity
  8
C-2
  6
Continuous
 62
     3
370
     9
100
AcDbLine
 10
-238.0000057220461
 20
634.5100864230715
 30
0.0
 11
-212.0002803802493
 21
634.5100864230715
 31
0.0
  0
LINE
  5
2BB
330
1F
100
AcDbEntity
  8
C-2
  6
Continuous
 62
     3
370
     9
100
AcDbLine
 10
-207.9998683929446
 20
937.5100864230712
 30
0.0
 11
-182.0001354217531
 21
937.5100864230712
 31
0.0
  0
LINE
  5
2BC
330
1F
100
AcDbEntity
  8
C-2
  6
Continuous
 62
     3
370
     9
100
AcDbLine
 10
-207.9998683929446
 20
934.5100253879151
 30
0.0
 11
-182.0001354217531
 21
934.5100253879151
 31
0.0
  0
LINE
  5
2BD
330
1F
100
AcDbEntity
  8
C-2
  6
Continuous
 62
     3
370
     9
100
AcDbLine
 10
-207.9998683929446
 20
837.5095981418212
 30
0.0
 11
-182.0001354217531
 21
837.5095981418212
 31
0.0
  0
LINE
  5
2BE
330
1F
100
AcDbEntity
  8
C-2
  6
Continuous
 62
     3
370
     9
100
AcDbLine
 10
-207.9998683929446
 20
834.510025387915
 30
0.0
 11
-182.0001354217531
 21
834.510025387915
 31
0.0
  0
LINE
  5
2BF
330
1F
100
AcDbEntity
  8
C-2
  6
Continuous
 62
     3
370
     9
100
AcDbLine
 10
-207.9998683929446
 20
737.5101169406496
 30
0.0
 11
-182.0001354217531
 21
737.5101169406496
 31
0.0
  0
LINE
  5
2C0
330
1F
100
AcDbEntity
  8
C-2
  6
Continuous
 62
     3
370
     9
100
AcDbLine
 10
-207.9998683929446
 20
734.5095676242431
 30
0.0
 11
-182.0001354217531
 21
734.5095676242431
 31
0.0
  0
LINE
  5
2C1
330
1F
100
AcDbEntity
  8
C-2
  6
Continuous
 62
     3
370
     9
100
AcDbLine
 10
-207.9998683929446
 20
637.5096591769777
 30
0.0
 11
-182.0001354217531
 21
637.5096591769777
 31
0.0
  0
LINE
  5
2C2
330
1F
100
AcDbEntity
  8
C-2
  6
Continuous
 62
     3
370
     9
100
AcDbLine
 10
-207.9998683929446
 20
634.5100864230715
 30
0.0
 11
-182.0001354217531
 21
634.5100864230715
 31
0.0
  0
LINE
  5
2C3
330
1F
100
AcDbEntity
  8
C-2
  6
Continuous
 62
     3
370
     9
100
AcDbLine
 10
-177.9997234344485
 20
937.5100864230712
 30
0.0
 11
-151.9999980926517
 21
937.5100864230712
 31
0.0
  0
LINE
  5
2C4
330
1F
100
AcDbEntity
  8
C-2
  6
Continuous
 62
     3
370
     9
100
AcDbLine
 10
-177.9997234344485
 20
934.5100253879151
 30
0.0
 11
-151.9999980926517
 21
934.5100253879151
 31
0.0
  0
LINE
  5
2C5
330
1F
100
AcDbEntity
  8
C-2
  6
Continuous
 62
     3
370
     9
100
AcDbLine
 10
-177.9997234344485
 20
837.5095981418212
 30
0.0
 11
-151.9999980926517
 21
837.5095981418212
 31
0.0
  0
LINE
  5
2C6
330
1F
100
AcDbEntity
  8
C-2
  6
Continuous
 62
     3
370
     9
100
AcDbLine
 10
-177.9997234344485
 20
834.510025387915
 30
0.0
 11
-151.9999980926517
 21
834.510025387915
 31
0.0
  0
LINE
  5
2C7
330
1F
100
AcDbEntity
  8
C-2
  6
Continuous
 62
     3
370
     9
100
AcDbLine
 10
-177.9997234344485
 20
737.5101169406496
 30
0.0
 11
-151.9999980926517
 21
737.5101169406496
 31
0.0
  0
LINE
  5
2C8
330
1F
100
AcDbEntity
  8
C-2
  6
Continuous
 62
     3
370
     9
100
AcDbLine
 10
-177.9997234344485
 20
734.5095676242431
 30
0.0
 11
-151.9999980926517
 21
734.5095676242431
 31
0.0
  0
LINE
  5
2C9
330
1F
100
AcDbEntity
  8
C-2
  6
Continuous
 62
     3
370
     9
100
AcDbLine
 10
-177.9997234344485
 20
637.5096591769777
 30
0.0
 11
-151.9999980926517
 21
637.5096591769777
 31
0.0
  0
LINE
  5
2CA
330
1F
100
AcDbEntity
  8
C-2
  6
Continuous
 62
     3
370
     9
100
AcDbLine
 10
-177.9997234344485
 20
634.5100864230715
 30
0.0
 11
-151.9999980926517
 21
634.5100864230715
 31
0.0
  0
LINE
  5
2CB
330
1F
100
AcDbEntity
  8
C-2
  6
Continuous
 62
     3
370
     9
100
AcDbLine
 10
-148.0000743865969
 20
937.5100864230712
 30
0.0
 11
-121.99986076355
 21
937.5100864230712
 31
0.0
  0
LINE
  5
2CC
330
1F
100
AcDbEntity
  8
C-2
  6
Continuous
 62
     3
370
     9
100
AcDbLine
 10
-148.0000743865969
 20
934.5100253879151
 30
0.0
 11
-121.99986076355
 21
934.5100253879151
 31
0.0
  0
LINE
  5
2CD
330
1F
100
AcDbEntity
  8
C-2
  6
Continuous
 62
     3
370
     9
100
AcDbLine
 10
-148.0000743865969
 20
837.5095981418212
 30
0.0
 11
-121.99986076355
 21
837.5095981418212
 31
0.0
  0
LINE
  5
2CE
330
1F
100
AcDbEntity
  8
C-2
  6
Continuous
 62
     3
370
     9
100
AcDbLine
 10
-148.0000743865969
 20
834.510025387915
 30
0.0
 11
-121.99986076355
 21
834.510025387915
 31
0.0
  0
LINE
  5
2CF
330
1F
100
AcDbEntity
  8
C-2
  6
Continuous
 62
     3
370
     9
100
AcDbLine
 10
-148.0000743865969
 20
737.5101169406496
 30
0.0
 11
-121.99986076355
 21
737.5101169406496
 31
0.0
  0
LINE
  5
2D0
330
1F
100
AcDbEntity
  8
C-2
  6
Continuous
 62
     3
370
     9
100
AcDbLine
 10
-148.0000743865969
 20
734.5095676242431
 30
0.0
 11
-121.99986076355
 21
734.5095676242431
 31
0.0
  0
LINE
  5
2D1
330
1F
100
AcDbEntity
  8
C-2
  6
Continuous
 62
     3
370
     9
100
AcDbLine
 10
-148.0000743865969
 20
637.5096591769777
 30
0.0
 11
-121.99986076355
 21
637.5096591769777
 31
0.0
  0
LINE
  5
2D2
330
1F
100
AcDbEntity
  8
C-2
  6
Continuous
 62
     3
370
     9
100
AcDbLine
 10
-148.0000743865969
 20
634.5100864230715
 30
0.0
 11
-121.99986076355
 21
634.5100864230715
 31
0.0
  0
LINE
  5
2D3
330
1F
100
AcDbEntity
  8
C-2
  6
Continuous
 62
     3
370
     9
100
AcDbLine
 10
-117.9999370574953
 20
937.5100864230712
 30
0.0
 11
-91.99972343444841
 21
937.5100864230712
 31
0.0
  0
LINE
  5
2D4
330
1F
100
AcDbEntity
  8
C-2
  6
Continuous
 62
     3
370
     9
100
AcDbLine
 10
-117.9999370574953
 20
934.5100253879151
 30
0.0
 11
-91.99972343444841
 21
934.5100253879151
 31
0.0
  0
LINE
  5
2D5
330
1F
100
AcDbEntity
  8
C-2
  6
Continuous
 62
     3
370
     9
100
AcDbLine
 10
-117.9999370574953
 20
837.5095981418212
 30
0.0
 11
-91.99972343444841
 21
837.5095981418212
 31
0.0
  0
LINE
  5
2D6
330
1F
100
AcDbEntity
  8
C-2
  6
Continuous
 62
     3
370
     9
100
AcDbLine
 10
-117.9999370574953
 20
834.510025387915
 30
0.0
 11
-91.99972343444841
 21
834.510025387915
 31
0.0
  0
LINE
  5
2D7
330
1F
100
AcDbEntity
  8
C-2
  6
Continuous
 62
     3
370
     9
100
AcDbLine
 10
-117.9999370574953
 20
737.5101169406496
 30
0.0
 11
-91.99972343444841
 21
737.5101169406496
 31
0.0
  0
LINE
  5
2D8
330
1F
100
AcDbEntity
  8
C-2
  6
Continuous
 62
     3
370
     9
100
AcDbLine
 10
-117.9999370574953
 20
734.5095676242431
 30
0.0
 11
-91.99972343444841
 21
734.5095676242431
 31
0.0
  0
LINE
  5
2D9
330
1F
100
AcDbEntity
  8
C-2
  6
Continuous
 62
     3
370
     9
100
AcDbLine
 10
-117.9999370574953
 20
637.5096591769777
 30
0.0
 11
-91.99972343444841
 21
637.5096591769777
 31
0.0
  0
LINE
  5
2DA
330
1F
100
AcDbEntity
  8
C-2
  6
Continuous
 62
     3
370
     9
100
AcDbLine
 10
-117.9999370574953
 20
634.5100864230715
 30
0.0
 11
-91.99972343444841
 21
634.5100864230715
 31
0.0
  0
LINE
  5
2DB
330
1F
100
AcDbEntity
  8
C-2
  6
Continuous
 62
     3
370
     9
100
AcDbLine
 10
-87.99979972839381
 20
937.5100864230712
 30
0.0
 11
-62.00008964538597
 21
937.5100864230712
 31
0.0
  0
LINE
  5
2DC
330
1F
100
AcDbEntity
  8
C-2
  6
Continuous
 62
     3
370
     9
100
AcDbLine
 10
-87.99979972839381
 20
934.5100253879151
 30
0.0
 11
-62.00008964538597
 21
934.5100253879151
 31
0.0
  0
LINE
  5
2DD
330
1F
100
AcDbEntity
  8
C-2
  6
Continuous
 62
     3
370
     9
100
AcDbLine
 10
-87.99979972839381
 20
837.5095981418212
 30
0.0
 11
-62.00008964538597
 21
837.5095981418212
 31
0.0
  0
LINE
  5
2DE
330
1F
100
AcDbEntity
  8
C-2
  6
Continuous
 62
     3
370
     9
100
AcDbLine
 10
-87.99979972839381
 20
834.510025387915
 30
0.0
 11
-62.00008964538597
 21
834.510025387915
 31
0.0
  0
LINE
  5
2DF
330
1F
100
AcDbEntity
  8
C-2
  6
Continuous
 62
     3
370
     9
100
AcDbLine
 10
-87.99979972839381
 20
737.5101169406496
 30
0.0
 11
-62.00008964538597
 21
737.5101169406496
 31
0.0
  0
LINE
  5
2E0
330
1F
100
AcDbEntity
  8
C-2
  6
Continuous
 62
     3
370
     9
100
AcDbLine
 10
-87.99979972839381
 20
734.5095676242431
 30
0.0
 11
-62.00008964538597
 21
734.5095676242431
 31
0.0
  0
LINE
  5
2E1
330
1F
100
AcDbEntity
  8
C-2
  6
Continuous
 62
     3
370
     9
100
AcDbLine
 10
-87.99979972839381
 20
637.5096591769777
 30
0.0
 11
-62.00008964538597
 21
637.5096591769777
 31
0.0
  0
LINE
  5
2E2
330
1F
100
AcDbEntity
  8
C-2
  6
Continuous
 62
     3
370
     9
100
AcDbLine
 10
-87.99979972839381
 20
634.5100864230715
 30
0.0
 11
-62.00008964538597
 21
634.5100864230715
 31
0.0
  0
LINE
  5
2E3
330
1F
100
AcDbEntity
  8
C-2
  6
Continuous
 62
     3
370
     9
100
AcDbLine
 10
-58.00015068054222
 20
937.5100864230712
 30
0.0
 11
-31.99993705749534
 21
937.5100864230712
 31
0.0
  0
LINE
  5
2E4
330
1F
100
AcDbEntity
  8
C-2
  6
Continuous
 62
     3
370
     9
100
AcDbLine
 10
-58.00015068054222
 20
934.5100253879151
 30
0.0
 11
-31.99993705749534
 21
934.5100253879151
 31
0.0
  0
LINE
  5
2E5
330
1F
100
AcDbEntity
  8
C-2
  6
Continuous
 62
     3
370
     9
100
AcDbLine
 10
-58.00015068054222
 20
837.5095981418212
 30
0.0
 11
-31.99993705749534
 21
837.5095981418212
 31
0.0
  0
LINE
  5
2E6
330
1F
100
AcDbEntity
  8
C-2
  6
Continuous
 62
     3
370
     9
100
AcDbLine
 10
-58.00015068054222
 20
834.510025387915
 30
0.0
 11
-31.99993705749534
 21
834.510025387915
 31
0.0
  0
LINE
  5
2E7
330
1F
100
AcDbEntity
  8
C-2
  6
Continuous
 62
     3
370
     9
100
AcDbLine
 10
-58.00015068054222
 20
737.5101169406496
 30
0.0
 11
-31.99993705749534
 21
737.5101169406496
 31
0.0
  0
LINE
  5
2E8
330
1F
100
AcDbEntity
  8
C-2
  6
Continuous
 62
     3
370
     9
100
AcDbLine
 10
-58.00015068054222
 20
734.5095676242431
 30
0.0
 11
-31.99993705749534
 21
734.5095676242431
 31
0.0
  0
LINE
  5
2E9
330
1F
100
AcDbEntity
  8
C-2
  6
Continuous
 62
     3
370
     9
100
AcDbLine
 10
-58.00015068054222
 20
637.5096591769777
 30
0.0
 11
-31.99993705749534
 21
637.5096591769777
 31
0.0
  0
LINE
  5
2EA
330
1F
100
AcDbEntity
  8
C-2
  6
Continuous
 62
     3
370
     9
100
AcDbLine
 10
-58.00015068054222
 20
634.5100864230715
 30
0.0
 11
-31.99993705749534
 21
634.5100864230715
 31
0.0
  0
LINE
  5
2EB
330
1F
100
AcDbEntity
  8
C-2
  6
Continuous
 62
     3
370
     9
100
AcDbLine
 10
-28.00002861022975
 20
937.5100864230712
 30
0.0
 11
-1.99978446960472
 21
937.5100864230712
 31
0.0
  0
LINE
  5
2EC
330
1F
100
AcDbEntity
  8
C-2
  6
Continuous
 62
     3
370
     9
100
AcDbLine
 10
-28.00002861022975
 20
934.5100253879151
 30
0.0
 11
-1.99978446960472
 21
934.5100253879151
 31
0.0
  0
LINE
  5
2ED
330
1F
100
AcDbEntity
  8
C-2
  6
Continuous
 62
     3
370
     9
100
AcDbLine
 10
-28.00002861022975
 20
837.5095981418212
 30
0.0
 11
-1.99978446960472
 21
837.5095981418212
 31
0.0
  0
LINE
  5
2EE
330
1F
100
AcDbEntity
  8
C-2
  6
Continuous
 62
     3
370
     9
100
AcDbLine
 10
-28.00002861022975
 20
834.510025387915
 30
0.0
 11
-1.99978446960472
 21
834.510025387915
 31
0.0
  0
LINE
  5
2EF
330
1F
100
AcDbEntity
  8
C-2
  6
Continuous
 62
     3
370
     9
100
AcDbLine
 10
-28.00002861022975
 20
737.5101169406496
 30
0.0
 11
-1.99978446960472
 21
737.5101169406496
 31
0.0
  0
LINE
  5
2F0
330
1F
100
AcDbEntity
  8
C-2
  6
Continuous
 62
     3
370
     9
100
AcDbLine
 10
-28.00002861022975
 20
734.5095676242431
 30
0.0
 11
-1.99978446960472
 21
734.5095676242431
 31
0.0
  0
LINE
  5
2F1
330
1F
100
AcDbEntity
  8
C-2
  6
Continuous
 62
     3
370
     9
100
AcDbLine
 10
-28.00002861022975
 20
637.5096591769777
 30
0.0
 11
-1.99978446960472
 21
637.5096591769777
 31
0.0
  0
LINE
  5
2F2
330
1F
100
AcDbEntity
  8
C-2
  6
Continuous
 62
     3
370
     9
100
AcDbLine
 10
-28.00002861022975
 20
634.5100864230715
 30
0.0
 11
-1.99978446960472
 21
634.5100864230715
 31
0.0
  0
LINE
  5
2F3
330
1F
100
AcDbEntity
  8
C-2
  6
Continuous
 62
     3
370
     9
100
AcDbLine
 10
2.000123977660877
 20
937.5100864230712
 30
0.0
 11
27.99984931945772
 21
937.5100864230712
 31
0.0
  0
LINE
  5
2F4
330
1F
100
AcDbEntity
  8
C-2
  6
Continuous
 62
     3
370
     9
100
AcDbLine
 10
2.000123977660877
 20
934.5100253879151
 30
0.0
 11
27.99984931945772
 21
934.5100253879151
 31
0.0
  0
LINE
  5
2F5
330
1F
100
AcDbEntity
  8
C-2
  6
Continuous
 62
     3
370
     9
100
AcDbLine
 10
2.000123977660877
 20
837.5095981418212
 30
0.0
 11
27.99984931945772
 21
837.5095981418212
 31
0.0
  0
LINE
  5
2F6
330
1F
100
AcDbEntity
  8
C-2
  6
Continuous
 62
     3
370
     9
100
AcDbLine
 10
2.000123977660877
 20
834.510025387915
 30
0.0
 11
27.99984931945772
 21
834.510025387915
 31
0.0
  0
LINE
  5
2F7
330
1F
100
AcDbEntity
  8
C-2
  6
Continuous
 62
     3
370
     9
100
AcDbLine
 10
2.000123977660877
 20
737.5101169406496
 30
0.0
 11
27.99984931945772
 21
737.5101169406496
 31
0.0
  0
LINE
  5
2F8
330
1F
100
AcDbEntity
  8
C-2
  6
Continuous
 62
     3
370
     9
100
AcDbLine
 10
2.000123977660877
 20
734.5095676242431
 30
0.0
 11
27.99984931945772
 21
734.5095676242431
 31
0.0
  0
LINE
  5
2F9
330
1F
100
AcDbEntity
  8
C-2
  6
Continuous
 62
     3
370
     9
100
AcDbLine
 10
2.000123977660877
 20
637.5096591769777
 30
0.0
 11
27.99984931945772
 21
637.5096591769777
 31
0.0
  0
LINE
  5
2FA
330
1F
100
AcDbEntity
  8
C-2
  6
Continuous
 62
     3
370
     9
100
AcDbLine
 10
2.000123977660877
 20
634.5100864230715
 30
0.0
 11
27.99984931945772
 21
634.5100864230715
 31
0.0
  0
LINE
  5
2FB
330
1F
100
AcDbEntity
  8
C-2
  6
Continuous
 62
     3
370
     9
100
AcDbLine
 10
32.00024604797335
 20
937.5100864230712
 30
0.0
 11
57.99997138977034
 21
937.5100864230712
 31
0.0
  0
LINE
  5
2FC
330
1F
100
AcDbEntity
  8
C-2
  6
Continuous
 62
     3
370
     9
100
AcDbLine
 10
32.00024604797335
 20
934.5100253879151
 30
0.0
 11
57.99997138977034
 21
934.5100253879151
 31
0.0
  0
LINE
  5
2FD
330
1F
100
AcDbEntity
  8
C-2
  6
Continuous
 62
     3
370
     9
100
AcDbLine
 10
32.00024604797335
 20
837.5095981418212
 30
0.0
 11
57.99997138977034
 21
837.5095981418212
 31
0.0
  0
LINE
  5
2FE
330
1F
100
AcDbEntity
  8
C-2
  6
Continuous
 62
     3
370
     9
100
AcDbLine
 10
32.00024604797335
 20
834.510025387915
 30
0.0
 11
57.99997138977034
 21
834.510025387915
 31
0.0
  0
LINE
  5
2FF
330
1F
100
AcDbEntity
  8
C-2
  6
Continuous
 62
     3
370
     9
100
AcDbLine
 10
32.00024604797335
 20
737.5101169406496
 30
0.0
 11
57.99997138977034
 21
737.5101169406496
 31
0.0
  0
LINE
  5
300
330
1F
100
AcDbEntity
  8
C-2
  6
Continuous
 62
     3
370
     9
100
AcDbLine
 10
32.00024604797335
 20
734.5095676242431
 30
0.0
 11
57.99997138977034
 21
734.5095676242431
 31
0.0
  0
LINE
  5
301
330
1F
100
AcDbEntity
  8
C-2
  6
Continuous
 62
     3
370
     9
100
AcDbLine
 10
32.00024604797335
 20
637.5096591769777
 30
0.0
 11
57.99997138977034
 21
637.5096591769777
 31
0.0
  0
LINE
  5
302
330
1F
100
AcDbEntity
  8
C-2
  6
Continuous
 62
     3
370
     9
100
AcDbLine
 10
32.00024604797335
 20
634.5100864230715
 30
0.0
 11
57.99997138977034
 21
634.5100864230715
 31
0.0
  0
LINE
  5
303
330
1F
100
AcDbEntity
  8
C-2
  6
Continuous
 62
     3
370
     9
100
AcDbLine
 10
61.99991035461409
 20
937.5100864230712
 30
0.0
 11
88.00012397766096
 21
937.5100864230712
 31
0.0
  0
LINE
  5
304
330
1F
100
AcDbEntity
  8
C-2
  6
Continuous
 62
     3
370
     9
100
AcDbLine
 10
61.99991035461409
 20
934.5100253879151
 30
0.0
 11
88.00012397766096
 21
934.5100253879151
 31
0.0
  0
LINE
  5
305
330
1F
100
AcDbEntity
  8
C-2
  6
Continuous
 62
     3
370
     9
100
AcDbLine
 10
61.99991035461409
 20
837.5095981418212
 30
0.0
 11
88.00012397766096
 21
837.5095981418212
 31
0.0
  0
LINE
  5
306
330
1F
100
AcDbEntity
  8
C-2
  6
Continuous
 62
     3
370
     9
100
AcDbLine
 10
61.99991035461409
 20
834.510025387915
 30
0.0
 11
88.00012397766096
 21
834.510025387915
 31
0.0
  0
LINE
  5
307
330
1F
100
AcDbEntity
  8
C-2
  6
Continuous
 62
     3
370
     9
100
AcDbLine
 10
61.99991035461409
 20
737.5101169406496
 30
0.0
 11
88.00012397766096
 21
737.5101169406496
 31
0.0
  0
LINE
  5
308
330
1F
100
AcDbEntity
  8
C-2
  6
Continuous
 62
     3
370
     9
100
AcDbLine
 10
61.99991035461409
 20
734.5095676242431
 30
0.0
 11
88.00012397766096
 21
734.5095676242431
 31
0.0
  0
LINE
  5
309
330
1F
100
AcDbEntity
  8
C-2
  6
Continuous
 62
     3
370
     9
100
AcDbLine
 10
61.99991035461409
 20
637.5096591769777
 30
0.0
 11
88.00012397766096
 21
637.5096591769777
 31
0.0
  0
LINE
  5
30A
330
1F
100
AcDbEntity
  8
C-2
  6
Continuous
 62
     3
370
     9
100
AcDbLine
 10
61.99991035461409
 20
634.5100864230715
 30
0.0
 11
88.00012397766096
 21
634.5100864230715
 31
0.0
  0
LINE
  5
30B
330
1F
100
AcDbEntity
  8
C-2
  6
Continuous
 62
     3
370
     9
100
AcDbLine
 10
92.00003242492656
 20
937.5100864230712
 30
0.0
 11
118.0002765655516
 21
937.5100864230712
 31
0.0
  0
LINE
  5
30C
330
1F
100
AcDbEntity
  8
C-2
  6
Continuous
 62
     3
370
     9
100
AcDbLine
 10
92.00003242492656
 20
934.5100253879151
 30
0.0
 11
118.0002765655516
 21
934.5100253879151
 31
0.0
  0
LINE
  5
30D
330
1F
100
AcDbEntity
  8
C-2
  6
Continuous
 62
     3
370
     9
100
AcDbLine
 10
92.00003242492656
 20
837.5095981418212
 30
0.0
 11
118.0002765655516
 21
837.5095981418212
 31
0.0
  0
LINE
  5
30E
330
1F
100
AcDbEntity
  8
C-2
  6
Continuous
 62
     3
370
     9
100
AcDbLine
 10
92.00003242492656
 20
834.510025387915
 30
0.0
 11
118.0002765655516
 21
834.510025387915
 31
0.0
  0
LINE
  5
30F
330
1F
100
AcDbEntity
  8
C-2
  6
Continuous
 62
     3
370
     9
100
AcDbLine
 10
92.00003242492656
 20
737.5101169406496
 30
0.0
 11
118.0002765655516
 21
737.5101169406496
 31
0.0
  0
LINE
  5
310
330
1F
100
AcDbEntity
  8
C-2
  6
Continuous
 62
     3
370
     9
100
AcDbLine
 10
92.00003242492656
 20
734.5095676242431
 30
0.0
 11
118.0002765655516
 21
734.5095676242431
 31
0.0
  0
LINE
  5
311
330
1F
100
AcDbEntity
  8
C-2
  6
Continuous
 62
     3
370
     9
100
AcDbLine
 10
92.00003242492656
 20
637.5096591769777
 30
0.0
 11
118.0002765655516
 21
637.5096591769777
 31
0.0
  0
LINE
  5
312
330
1F
100
AcDbEntity
  8
C-2
  6
Continuous
 62
     3
370
     9
100
AcDbLine
 10
92.00003242492656
 20
634.5100864230715
 30
0.0
 11
118.0002765655516
 21
634.5100864230715
 31
0.0
  0
LINE
  5
313
330
1F
100
AcDbEntity
  8
C-2
  6
Continuous
 62
     3
370
     9
100
AcDbLine
 10
122.0001850128172
 20
937.5100864230712
 30
0.0
 11
147.9999103546142
 21
937.5100864230712
 31
0.0
  0
LINE
  5
314
330
1F
100
AcDbEntity
  8
C-2
  6
Continuous
 62
     3
370
     9
100
AcDbLine
 10
122.0001850128172
 20
934.5100253879151
 30
0.0
 11
147.9999103546142
 21
934.5100253879151
 31
0.0
  0
LINE
  5
315
330
1F
100
AcDbEntity
  8
C-2
  6
Continuous
 62
     3
370
     9
100
AcDbLine
 10
122.0001850128172
 20
837.5095981418212
 30
0.0
 11
147.9999103546142
 21
837.5095981418212
 31
0.0
  0
LINE
  5
316
330
1F
100
AcDbEntity
  8
C-2
  6
Continuous
 62
     3
370
     9
100
AcDbLine
 10
122.0001850128172
 20
834.510025387915
 30
0.0
 11
147.9999103546142
 21
834.510025387915
 31
0.0
  0
LINE
  5
317
330
1F
100
AcDbEntity
  8
C-2
  6
Continuous
 62
     3
370
     9
100
AcDbLine
 10
122.0001850128172
 20
737.5101169406496
 30
0.0
 11
147.9999103546142
 21
737.5101169406496
 31
0.0
  0
LINE
  5
318
330
1F
100
AcDbEntity
  8
C-2
  6
Continuous
 62
     3
370
     9
100
AcDbLine
 10
122.0001850128172
 20
734.5095676242431
 30
0.0
 11
147.9999103546142
 21
734.5095676242431
 31
0.0
  0
LINE
  5
319
330
1F
100
AcDbEntity
  8
C-2
  6
Continuous
 62
     3
370
     9
100
AcDbLine
 10
122.0001850128172
 20
637.5096591769777
 30
0.0
 11
147.9999103546142
 21
637.5096591769777
 31
0.0
  0
LINE
  5
31A
330
1F
100
AcDbEntity
  8
C-2
  6
Continuous
 62
     3
370
     9
100
AcDbLine
 10
122.0001850128172
 20
634.5100864230715
 30
0.0
 11
147.9999103546142
 21
634.5100864230715
 31
0.0
  0
LINE
  5
31B
330
1F
100
AcDbEntity
  8
C-2
  6
Continuous
 62
     3
370
     9
100
AcDbLine
 10
151.9998188018799
 20
937.5100864230712
 30
0.0
 11
178.0000629425048
 21
937.5100864230712
 31
0.0
  0
LINE
  5
31C
330
1F
100
AcDbEntity
  8
C-2
  6
Continuous
 62
     3
370
     9
100
AcDbLine
 10
151.9998188018799
 20
934.5100253879151
 30
0.0
 11
178.0000629425048
 21
934.5100253879151
 31
0.0
  0
LINE
  5
31D
330
1F
100
AcDbEntity
  8
C-2
  6
Continuous
 62
     3
370
     9
100
AcDbLine
 10
151.9998188018799
 20
837.5095981418212
 30
0.0
 11
178.0000629425048
 21
837.5095981418212
 31
0.0
  0
LINE
  5
31E
330
1F
100
AcDbEntity
  8
C-2
  6
Continuous
 62
     3
370
     9
100
AcDbLine
 10
151.9998188018799
 20
834.510025387915
 30
0.0
 11
178.0000629425048
 21
834.510025387915
 31
0.0
  0
LINE
  5
31F
330
1F
100
AcDbEntity
  8
C-2
  6
Continuous
 62
     3
370
     9
100
AcDbLine
 10
151.9998188018799
 20
737.5101169406496
 30
0.0
 11
178.0000629425048
 21
737.5101169406496
 31
0.0
  0
LINE
  5
320
330
1F
100
AcDbEntity
  8
C-2
  6
Continuous
 62
     3
370
     9
100
AcDbLine
 10
151.9998188018799
 20
734.5095676242431
 30
0.0
 11
178.0000629425048
 21
734.5095676242431
 31
0.0
  0
LINE
  5
321
330
1F
100
AcDbEntity
  8
C-2
  6
Continuous
 62
     3
370
     9
100
AcDbLine
 10
151.9998188018799
 20
637.5096591769777
 30
0.0
 11
178.0000629425048
 21
637.5096591769777
 31
0.0
  0
LINE
  5
322
330
1F
100
AcDbEntity
  8
C-2
  6
Continuous
 62
     3
370
     9
100
AcDbLine
 10
151.9998188018799
 20
634.5100864230715
 30
0.0
 11
178.0000629425048
 21
634.5100864230715
 31
0.0
  0
LINE
  5
323
330
1F
100
AcDbEntity
  8
C-2
  6
Continuous
 62
     3
370
     9
100
AcDbLine
 10
-295.9996070861819
 20
537.5096591769777
 30
0.0
 11
-272.0000667572025
 21
537.5096591769777
 31
0.0
  0
LINE
  5
324
330
1F
100
AcDbEntity
  8
C-2
  6
Continuous
 62
     3
370
     9
100
AcDbLine
 10
-295.9996070861819
 20
534.5100864230715
 30
0.0
 11
-272.0000667572025
 21
534.5100864230715
 31
0.0
  0
LINE
  5
325
330
1F
100
AcDbEntity
  8
C-2
  6
Continuous
 62
     3
370
     9
100
AcDbLine
 10
-268.0001430511477
 20
537.5096591769777
 30
0.0
 11
-241.9999217987063
 21
537.5096591769777
 31
0.0
  0
LINE
  5
326
330
1F
100
AcDbEntity
  8
C-2
  6
Continuous
 62
     3
370
     9
100
AcDbLine
 10
-268.0001430511477
 20
534.5100864230715
 30
0.0
 11
-241.9999217987063
 21
534.5100864230715
 31
0.0
  0
LINE
  5
327
330
1F
100
AcDbEntity
  8
C-2
  6
Continuous
 62
     3
370
     9
100
AcDbLine
 10
-238.0000057220461
 20
537.5096591769777
 30
0.0
 11
-212.0002803802493
 21
537.5096591769777
 31
0.0
  0
LINE
  5
328
330
1F
100
AcDbEntity
  8
C-2
  6
Continuous
 62
     3
370
     9
100
AcDbLine
 10
-238.0000057220461
 20
534.5100864230715
 30
0.0
 11
-212.0002803802493
 21
534.5100864230715
 31
0.0
  0
LINE
  5
329
330
1F
100
AcDbEntity
  8
C-2
  6
Continuous
 62
     3
370
     9
100
AcDbLine
 10
-207.9998683929446
 20
537.5096591769777
 30
0.0
 11
-182.0001354217531
 21
537.5096591769777
 31
0.0
  0
LINE
  5
32A
330
1F
100
AcDbEntity
  8
C-2
  6
Continuous
 62
     3
370
     9
100
AcDbLine
 10
-207.9998683929446
 20
534.5100864230715
 30
0.0
 11
-182.0001354217531
 21
534.5100864230715
 31
0.0
  0
LINE
  5
32B
330
1F
100
AcDbEntity
  8
C-2
  6
Continuous
 62
     3
370
     9
100
AcDbLine
 10
-177.9997234344485
 20
537.5096591769777
 30
0.0
 11
-151.9999980926517
 21
537.5096591769777
 31
0.0
  0
LINE
  5
32C
330
1F
100
AcDbEntity
  8
C-2
  6
Continuous
 62
     3
370
     9
100
AcDbLine
 10
-177.9997234344485
 20
534.5100864230715
 30
0.0
 11
-151.9999980926517
 21
534.5100864230715
 31
0.0
  0
LINE
  5
32D
330
1F
100
AcDbEntity
  8
C-2
  6
Continuous
 62
     3
370
     9
100
AcDbLine
 10
-148.0000743865969
 20
537.5096591769777
 30
0.0
 11
-121.99986076355
 21
537.5096591769777
 31
0.0
  0
LINE
  5
32E
330
1F
100
AcDbEntity
  8
C-2
  6
Continuous
 62
     3
370
     9
100
AcDbLine
 10
-148.0000743865969
 20
534.5100864230715
 30
0.0
 11
-121.99986076355
 21
534.5100864230715
 31
0.0
  0
LINE
  5
32F
330
1F
100
AcDbEntity
  8
C-2
  6
Continuous
 62
     3
370
     9
100
AcDbLine
 10
-117.9999370574953
 20
537.5096591769777
 30
0.0
 11
-91.99972343444841
 21
537.5096591769777
 31
0.0
  0
LINE
  5
330
330
1F
100
AcDbEntity
  8
C-2
  6
Continuous
 62
     3
370
     9
100
AcDbLine
 10
-117.9999370574953
 20
534.5100864230715
 30
0.0
 11
-91.99972343444841
 21
534.5100864230715
 31
0.0
  0
LINE
  5
331
330
1F
100
AcDbEntity
  8
C-2
  6
Continuous
 62
     3
370
     9
100
AcDbLine
 10
-87.99979972839381
 20
537.5096591769777
 30
0.0
 11
-62.00008964538597
 21
537.5096591769777
 31
0.0
  0
LINE
  5
332
330
1F
100
AcDbEntity
  8
C-2
  6
Continuous
 62
     3
370
     9
100
AcDbLine
 10
-87.99979972839381
 20
534.5100864230715
 30
0.0
 11
-62.00008964538597
 21
534.5100864230715
 31
0.0
  0
LINE
  5
333
330
1F
100
AcDbEntity
  8
C-2
  6
Continuous
 62
     3
370
     9
100
AcDbLine
 10
-58.00015068054222
 20
537.5096591769777
 30
0.0
 11
-31.99993705749534
 21
537.5096591769777
 31
0.0
  0
LINE
  5
334
330
1F
100
AcDbEntity
  8
C-2
  6
Continuous
 62
     3
370
     9
100
AcDbLine
 10
-58.00015068054222
 20
534.5100864230715
 30
0.0
 11
-31.99993705749534
 21
534.5100864230715
 31
0.0
  0
LINE
  5
335
330
1F
100
AcDbEntity
  8
C-2
  6
Continuous
 62
     3
370
     9
100
AcDbLine
 10
-28.00002861022975
 20
537.5096591769777
 30
0.0
 11
-1.99978446960472
 21
537.5096591769777
 31
0.0
  0
LINE
  5
336
330
1F
100
AcDbEntity
  8
C-2
  6
Continuous
 62
     3
370
     9
100
AcDbLine
 10
-28.00002861022975
 20
534.5100864230715
 30
0.0
 11
-1.99978446960472
 21
534.5100864230715
 31
0.0
  0
LINE
  5
337
330
1F
100
AcDbEntity
  8
C-2
  6
Continuous
 62
     3
370
     9
100
AcDbLine
 10
2.000123977660877
 20
537.5096591769777
 30
0.0
 11
27.99984931945772
 21
537.5096591769777
 31
0.0
  0
LINE
  5
338
330
1F
100
AcDbEntity
  8
C-2
  6
Continuous
 62
     3
370
     9
100
AcDbLine
 10
2.000123977660877
 20
534.5100864230715
 30
0.0
 11
27.99984931945772
 21
534.5100864230715
 31
0.0
  0
LINE
  5
339
330
1F
100
AcDbEntity
  8
C-2
  6
Continuous
 62
     3
370
     9
100
AcDbLine
 10
32.00024604797335
 20
537.5096591769777
 30
0.0
 11
57.99997138977034
 21
537.5096591769777
 31
0.0
  0
LINE
  5
33A
330
1F
100
AcDbEntity
  8
C-2
  6
Continuous
 62
     3
370
     9
100
AcDbLine
 10
32.00024604797335
 20
534.5100864230715
 30
0.0
 11
57.99997138977034
 21
534.5100864230715
 31
0.0
  0
LINE
  5
33B
330
1F
100
AcDbEntity
  8
C-2
  6
Continuous
 62
     3
370
     9
100
AcDbLine
 10
61.99991035461409
 20
537.5096591769777
 30
0.0
 11
88.00012397766096
 21
537.5096591769777
 31
0.0
  0
LINE
  5
33C
330
1F
100
AcDbEntity
  8
C-2
  6
Continuous
 62
     3
370
     9
100
AcDbLine
 10
61.99991035461409
 20
534.5100864230715
 30
0.0
 11
88.00012397766096
 21
534.5100864230715
 31
0.0
  0
LINE
  5
33D
330
1F
100
AcDbEntity
  8
C-2
  6
Continuous
 62
     3
370
     9
100
AcDbLine
 10
92.00003242492656
 20
537.5096591769777
 30
0.0
 11
118.0002765655516
 21
537.5096591769777
 31
0.0
  0
LINE
  5
33E
330
1F
100
AcDbEntity
  8
C-2
  6
Continuous
 62
     3
370
     9
100
AcDbLine
 10
92.00003242492656
 20
534.5100864230715
 30
0.0
 11
118.0002765655516
 21
534.5100864230715
 31
0.0
  0
LINE
  5
33F
330
1F
100
AcDbEntity
  8
C-2
  6
Continuous
 62
     3
370
     9
100
AcDbLine
 10
122.0001850128172
 20
537.5096591769777
 30
0.0
 11
147.9999103546142
 21
537.5096591769777
 31
0.0
  0
LINE
  5
340
330
1F
100
AcDbEntity
  8
C-2
  6
Continuous
 62
     3
370
     9
100
AcDbLine
 10
122.0001850128172
 20
534.5100864230715
 30
0.0
 11
147.9999103546142
 21
534.5100864230715
 31
0.0
  0
LINE
  5
341
330
1F
100
AcDbEntity
  8
C-2
  6
Continuous
 62
     3
370
     9
100
AcDbLine
 10
151.9998188018799
 20
537.5096591769777
 30
0.0
 11
178.0000629425048
 21
537.5096591769777
 31
0.0
  0
LINE
  5
342
330
1F
100
AcDbEntity
  8
C-2
  6
Continuous
 62
     3
370
     9
100
AcDbLine
 10
151.9998188018799
 20
534.5100864230715
 30
0.0
 11
178.0000629425048
 21
534.5100864230715
 31
0.0
  0
LINE
  5
343
330
1F
100
AcDbEntity
  8
C-2
  6
Continuous
 62
     3
370
     9
100
AcDbLine
 10
181.9999713897705
 20
937.5100864230712
 30
0.0
 11
208.0001850128174
 21
937.5100864230712
 31
0.0
  0
LINE
  5
344
330
1F
100
AcDbEntity
  8
C-2
  6
Continuous
 62
     3
370
     9
100
AcDbLine
 10
181.9999713897705
 20
934.5100253879151
 30
0.0
 11
208.0001850128174
 21
934.5100253879151
 31
0.0
  0
LINE
  5
345
330
1F
100
AcDbEntity
  8
C-2
  6
Continuous
 62
     3
370
     9
100
AcDbLine
 10
181.9999713897705
 20
837.5095981418212
 30
0.0
 11
208.0001850128174
 21
837.5095981418212
 31
0.0
  0
LINE
  5
346
330
1F
100
AcDbEntity
  8
C-2
  6
Continuous
 62
     3
370
     9
100
AcDbLine
 10
181.9999713897705
 20
834.510025387915
 30
0.0
 11
208.0001850128174
 21
834.510025387915
 31
0.0
  0
LINE
  5
347
330
1F
100
AcDbEntity
  8
C-2
  6
Continuous
 62
     3
370
     9
100
AcDbLine
 10
181.9999713897705
 20
737.5101169406496
 30
0.0
 11
208.0001850128174
 21
737.5101169406496
 31
0.0
  0
LINE
  5
348
330
1F
100
AcDbEntity
  8
C-2
  6
Continuous
 62
     3
370
     9
100
AcDbLine
 10
181.9999713897705
 20
734.5095676242431
 30
0.0
 11
208.0001850128174
 21
734.5095676242431
 31
0.0
  0
LINE
  5
349
330
1F
100
AcDbEntity
  8
C-2
  6
Continuous
 62
     3
370
     9
100
AcDbLine
 10
181.9999713897705
 20
637.5096591769777
 30
0.0
 11
208.0001850128174
 21
637.5096591769777
 31
0.0
  0
LINE
  5
34A
330
1F
100
AcDbEntity
  8
C-2
  6
Continuous
 62
     3
370
     9
100
AcDbLine
 10
181.9999713897705
 20
634.5100864230715
 30
0.0
 11
208.0001850128174
 21
634.5100864230715
 31
0.0
  0
LINE
  5
34B
330
1F
100
AcDbEntity
  8
C-2
  6
Continuous
 62
     3
370
     9
100
AcDbLine
 10
212.000093460083
 20
937.5100864230712
 30
0.0
 11
238.000337600708
 21
937.5100864230712
 31
0.0
  0
LINE
  5
34C
330
1F
100
AcDbEntity
  8
C-2
  6
Continuous
 62
     3
370
     9
100
AcDbLine
 10
212.000093460083
 20
934.5100253879151
 30
0.0
 11
238.000337600708
 21
934.5100253879151
 31
0.0
  0
LINE
  5
34D
330
1F
100
AcDbEntity
  8
C-2
  6
Continuous
 62
     3
370
     9
100
AcDbLine
 10
212.000093460083
 20
837.5095981418212
 30
0.0
 11
238.000337600708
 21
837.5095981418212
 31
0.0
  0
LINE
  5
34E
330
1F
100
AcDbEntity
  8
C-2
  6
Continuous
 62
     3
370
     9
100
AcDbLine
 10
212.000093460083
 20
834.510025387915
 30
0.0
 11
238.000337600708
 21
834.510025387915
 31
0.0
  0
LINE
  5
34F
330
1F
100
AcDbEntity
  8
C-2
  6
Continuous
 62
     3
370
     9
100
AcDbLine
 10
212.000093460083
 20
737.5101169406496
 30
0.0
 11
238.000337600708
 21
737.5101169406496
 31
0.0
  0
LINE
  5
350
330
1F
100
AcDbEntity
  8
C-2
  6
Continuous
 62
     3
370
     9
100
AcDbLine
 10
212.000093460083
 20
734.5095676242431
 30
0.0
 11
238.000337600708
 21
734.5095676242431
 31
0.0
  0
LINE
  5
351
330
1F
100
AcDbEntity
  8
C-2
  6
Continuous
 62
     3
370
     9
100
AcDbLine
 10
212.000093460083
 20
637.5096591769777
 30
0.0
 11
238.000337600708
 21
637.5096591769777
 31
0.0
  0
LINE
  5
352
330
1F
100
AcDbEntity
  8
C-2
  6
Continuous
 62
     3
370
     9
100
AcDbLine
 10
212.000093460083
 20
634.5100864230715
 30
0.0
 11
238.000337600708
 21
634.5100864230715
 31
0.0
  0
LINE
  5
353
330
1F
100
AcDbEntity
  8
C-2
  6
Continuous
 62
     3
370
     9
100
AcDbLine
 10
181.9999713897705
 20
537.5096591769777
 30
0.0
 11
208.0001850128174
 21
537.5096591769777
 31
0.0
  0
LINE
  5
354
330
1F
100
AcDbEntity
  8
C-2
  6
Continuous
 62
     3
370
     9
100
AcDbLine
 10
181.9999713897705
 20
534.5100864230715
 30
0.0
 11
208.0001850128174
 21
534.5100864230715
 31
0.0
  0
LINE
  5
355
330
1F
100
AcDbEntity
  8
C-2
  6
Continuous
 62
     3
370
     9
100
AcDbLine
 10
212.000093460083
 20
537.5096591769777
 30
0.0
 11
238.000337600708
 21
537.5096591769777
 31
0.0
  0
LINE
  5
356
330
1F
100
AcDbEntity
  8
C-2
  6
Continuous
 62
     3
370
     9
100
AcDbLine
 10
212.000093460083
 20
534.5100864230715
 30
0.0
 11
238.000337600708
 21
534.5100864230715
 31
0.0
  0
LINE
  5
357
330
1F
100
AcDbEntity
  8
C-2
  6
Continuous
 62
     3
370
     9
100
AcDbLine
 10
-268.0001430511477
 20
440.0098270236572
 30
0.0
 11
-268.0001430511477
 21
1032.009842282446
 31
0.0
  0
LINE
  5
358
330
1F
100
AcDbEntity
  8
C-2
  6
Continuous
 62
     3
370
     9
100
AcDbLine
 10
-272.0000667572025
 20
440.0098270236572
 30
0.0
 11
-272.0000667572025
 21
1032.009842282446
 31
0.0
  0
LINE
  5
359
330
1F
100
AcDbEntity
  8
C-2
  6
Continuous
 62
     3
370
     9
100
AcDbLine
 10
-207.9998683929446
 20
440.0098270236572
 30
0.0
 11
-207.9998683929446
 21
1032.009842282446
 31
0.0
  0
LINE
  5
35A
330
1F
100
AcDbEntity
  8
C-2
  6
Continuous
 62
     3
370
     9
100
AcDbLine
 10
-212.0002803802493
 20
440.0098270236572
 30
0.0
 11
-212.0002803802493
 21
1032.009842282446
 31
0.0
  0
LINE
  5
35B
330
1F
100
AcDbEntity
  8
C-2
  6
Continuous
 62
     3
370
     9
100
AcDbLine
 10
-178.0002269744875
 20
440.0098270236572
 30
0.0
 11
-178.0002269744875
 21
1032.009842282446
 31
0.0
  0
LINE
  5
35C
330
1F
100
AcDbEntity
  8
C-2
  6
Continuous
 62
     3
370
     9
100
AcDbLine
 10
-182.0001354217531
 20
440.0098270236572
 30
0.0
 11
-182.0001354217531
 21
1032.009842282446
 31
0.0
  0
LINE
  5
35D
330
1F
100
AcDbEntity
  8
C-2
  6
Continuous
 62
     3
370
     9
100
AcDbLine
 10
-148.0000743865969
 20
440.0098270236572
 30
0.0
 11
-148.0000743865969
 21
1032.009842282446
 31
0.0
  0
LINE
  5
35E
330
1F
100
AcDbEntity
  8
C-2
  6
Continuous
 62
     3
370
     9
100
AcDbLine
 10
-151.9999980926517
 20
440.0098270236572
 30
0.0
 11
-151.9999980926517
 21
1032.009842282446
 31
0.0
  0
LINE
  5
35F
330
1F
100
AcDbEntity
  8
C-2
  6
Continuous
 62
     3
370
     9
100
AcDbLine
 10
-117.9999370574953
 20
440.0098270236572
 30
0.0
 11
-117.9999370574953
 21
1032.009842282446
 31
0.0
  0
LINE
  5
360
330
1F
100
AcDbEntity
  8
C-2
  6
Continuous
 62
     3
370
     9
100
AcDbLine
 10
-121.99986076355
 20
440.0098270236572
 30
0.0
 11
-121.99986076355
 21
1032.009842282446
 31
0.0
  0
LINE
  5
361
330
1F
100
AcDbEntity
  8
C-2
  6
Continuous
 62
     3
370
     9
100
AcDbLine
 10
-87.99979972839381
 20
440.0098270236572
 30
0.0
 11
-87.99979972839381
 21
1032.009842282446
 31
0.0
  0
LINE
  5
362
330
1F
100
AcDbEntity
  8
C-2
  6
Continuous
 62
     3
370
     9
100
AcDbLine
 10
-91.99972343444841
 20
440.0098270236572
 30
0.0
 11
-91.99972343444841
 21
1032.009842282446
 31
0.0
  0
LINE
  5
363
330
1F
100
AcDbEntity
  8
C-2
  6
Continuous
 62
     3
370
     9
100
AcDbLine
 10
-58.00015068054222
 20
440.0098270236572
 30
0.0
 11
-58.00015068054222
 21
1032.009842282446
 31
0.0
  0
LINE
  5
364
330
1F
100
AcDbEntity
  8
C-2
  6
Continuous
 62
     3
370
     9
100
AcDbLine
 10
-62.00008964538597
 20
440.0098270236572
 30
0.0
 11
-62.00008964538597
 21
1032.009842282446
 31
0.0
  0
LINE
  5
365
330
1F
100
AcDbEntity
  8
C-2
  6
Continuous
 62
     3
370
     9
100
AcDbLine
 10
-28.00002861022975
 20
440.0098270236572
 30
0.0
 11
-28.00002861022975
 21
1032.009842282446
 31
0.0
  0
LINE
  5
366
330
1F
100
AcDbEntity
  8
C-2
  6
Continuous
 62
     3
370
     9
100
AcDbLine
 10
-31.99993705749534
 20
440.0098270236572
 30
0.0
 11
-31.99993705749534
 21
1032.009842282446
 31
0.0
  0
LINE
  5
367
330
1F
100
AcDbEntity
  8
C-2
  6
Continuous
 62
     3
370
     9
100
AcDbLine
 10
1.999635696410991
 20
440.0098270236572
 30
0.0
 11
1.999635696410991
 21
1032.009842282446
 31
0.0
  0
LINE
  5
368
330
1F
100
AcDbEntity
  8
C-2
  6
Continuous
 62
     3
370
     9
100
AcDbLine
 10
-1.99978446960472
 20
440.0098270236572
 30
0.0
 11
-1.99978446960472
 21
1032.009842282446
 31
0.0
  0
LINE
  5
369
330
1F
100
AcDbEntity
  8
C-2
  6
Continuous
 62
     3
370
     9
100
AcDbLine
 10
31.99975776672346
 20
440.0098270236572
 30
0.0
 11
31.99975776672346
 21
1032.009842282446
 31
0.0
  0
LINE
  5
36A
330
1F
100
AcDbEntity
  8
C-2
  6
Continuous
 62
     3
370
     9
100
AcDbLine
 10
27.99984931945772
 20
440.0098270236572
 30
0.0
 11
27.99984931945772
 21
1032.009842282446
 31
0.0
  0
LINE
  5
36B
330
1F
100
AcDbEntity
  8
C-2
  6
Continuous
 62
     3
370
     9
100
AcDbLine
 10
61.99991035461409
 20
440.0098270236572
 30
0.0
 11
61.99991035461409
 21
1032.009842282446
 31
0.0
  0
LINE
  5
36C
330
1F
100
AcDbEntity
  8
C-2
  6
Continuous
 62
     3
370
     9
100
AcDbLine
 10
57.99997138977034
 20
440.0098270236572
 30
0.0
 11
57.99997138977034
 21
1032.009842282446
 31
0.0
  0
LINE
  5
36D
330
1F
100
AcDbEntity
  8
C-2
  6
Continuous
 62
     3
370
     9
100
AcDbLine
 10
92.00003242492656
 20
440.0098270236572
 30
0.0
 11
92.00003242492656
 21
1032.009842282446
 31
0.0
  0
LINE
  5
36E
330
1F
100
AcDbEntity
  8
C-2
  6
Continuous
 62
     3
370
     9
100
AcDbLine
 10
88.00012397766096
 20
440.0098270236572
 30
0.0
 11
88.00012397766096
 21
1032.009842282446
 31
0.0
  0
LINE
  5
36F
330
1F
100
AcDbEntity
  8
C-2
  6
Continuous
 62
     3
370
     9
100
AcDbLine
 10
122.0001850128172
 20
440.0098270236572
 30
0.0
 11
122.0001850128172
 21
1032.009842282446
 31
0.0
  0
LINE
  5
370
330
1F
100
AcDbEntity
  8
C-2
  6
Continuous
 62
     3
370
     9
100
AcDbLine
 10
118.0002765655516
 20
440.0098270236572
 30
0.0
 11
118.0002765655516
 21
1032.009842282446
 31
0.0
  0
LINE
  5
371
330
1F
100
AcDbEntity
  8
C-2
  6
Continuous
 62
     3
370
     9
100
AcDbLine
 10
181.9999713897705
 20
440.0098270236572
 30
0.0
 11
181.9999713897705
 21
1032.009842282446
 31
0.0
  0
LINE
  5
372
330
1F
100
AcDbEntity
  8
C-2
  6
Continuous
 62
     3
370
     9
100
AcDbLine
 10
178.0000629425048
 20
440.0098270236572
 30
0.0
 11
178.0000629425048
 21
1032.009842282446
 31
0.0
  0
LINE
  5
373
330
1F
100
AcDbEntity
  8
C-2
  6
Continuous
 62
     3
370
     9
100
AcDbLine
 10
-268.0001430511477
 20
465.0102084933837
 30
0.0
 11
-212.0002803802493
 21
465.0102084933837
 31
0.0
  0
LINE
  5
374
330
1F
100
AcDbEntity
  8
C-2
  6
Continuous
 62
     3
370
     9
100
AcDbLine
 10
-268.0001430511477
 20
469.0096286593993
 30
0.0
 11
-212.0002803802493
 21
469.0096286593993
 31
0.0
  0
LINE
  5
375
330
1F
100
AcDbEntity
  8
C-2
  6
Continuous
 62
     3
370
     9
100
AcDbLine
 10
-238.0000057220461
 20
469.0096286593993
 30
0.0
 11
-238.0000057220461
 21
1003.009537106665
 31
0.0
  0
LINE
  5
376
330
1F
100
AcDbEntity
  8
C-2
  6
Continuous
 62
     3
370
     9
100
AcDbLine
 10
-241.9999217987063
 20
469.0096286593993
 30
0.0
 11
-241.9999217987063
 21
1003.009537106665
 31
0.0
  0
LINE
  5
377
330
1F
100
AcDbEntity
  8
C-2
  6
Continuous
 62
     3
370
     9
100
AcDbLine
 10
147.9999103546142
 20
440.0098270236572
 30
0.0
 11
147.9999103546142
 21
1032.009842282446
 31
0.0
  0
LINE
  5
378
330
1F
100
AcDbEntity
  8
C-2
  6
Continuous
 62
     3
370
     9
100
AcDbLine
 10
151.9998188018799
 20
440.0098270236572
 30
0.0
 11
151.9998188018799
 21
1032.009842282446
 31
0.0
  0
LINE
  5
379
330
1F
100
AcDbEntity
  8
C-2
  6
Continuous
 62
     3
370
     9
100
AcDbLine
 10
242.0002460479736
 20
937.5100864230712
 30
0.0
 11
268.0004901885986
 21
937.5100864230712
 31
0.0
  0
LINE
  5
37A
330
1F
100
AcDbEntity
  8
C-2
  6
Continuous
 62
     3
370
     9
100
AcDbLine
 10
242.0002460479736
 20
934.5100253879151
 30
0.0
 11
268.0004901885986
 21
934.5100253879151
 31
0.0
  0
LINE
  5
37B
330
1F
100
AcDbEntity
  8
C-2
  6
Continuous
 62
     3
370
     9
100
AcDbLine
 10
242.0002460479736
 20
837.5095981418212
 30
0.0
 11
268.0004901885986
 21
837.5095981418212
 31
0.0
  0
LINE
  5
37C
330
1F
100
AcDbEntity
  8
C-2
  6
Continuous
 62
     3
370
     9
100
AcDbLine
 10
242.0002460479736
 20
834.510025387915
 30
0.0
 11
268.0004901885986
 21
834.510025387915
 31
0.0
  0
LINE
  5
37D
330
1F
100
AcDbEntity
  8
C-2
  6
Continuous
 62
     3
370
     9
100
AcDbLine
 10
242.0002460479736
 20
737.5101169406496
 30
0.0
 11
268.0004901885986
 21
737.5101169406496
 31
0.0
  0
LINE
  5
37E
330
1F
100
AcDbEntity
  8
C-2
  6
Continuous
 62
     3
370
     9
100
AcDbLine
 10
242.0002460479736
 20
734.5095676242431
 30
0.0
 11
268.0004901885986
 21
734.5095676242431
 31
0.0
  0
LINE
  5
37F
330
1F
100
AcDbEntity
  8
C-2
  6
Continuous
 62
     3
370
     9
100
AcDbLine
 10
242.0002460479736
 20
637.5096591769777
 30
0.0
 11
268.0004901885986
 21
637.5096591769777
 31
0.0
  0
LINE
  5
380
330
1F
100
AcDbEntity
  8
C-2
  6
Continuous
 62
     3
370
     9
100
AcDbLine
 10
242.0002460479736
 20
634.5100864230715
 30
0.0
 11
268.0004901885986
 21
634.5100864230715
 31
0.0
  0
LINE
  5
381
330
1F
100
AcDbEntity
  8
C-2
  6
Continuous
 62
     3
370
     9
100
AcDbLine
 10
242.0002460479736
 20
537.5096591769777
 30
0.0
 11
268.0004901885986
 21
537.5096591769777
 31
0.0
  0
LINE
  5
382
330
1F
100
AcDbEntity
  8
C-2
  6
Continuous
 62
     3
370
     9
100
AcDbLine
 10
242.0002460479736
 20
534.5100864230715
 30
0.0
 11
268.0004901885986
 21
534.5100864230715
 31
0.0
  0
LINE
  5
383
330
1F
100
AcDbEntity
  8
C-2
  6
Continuous
 62
     3
370
     9
100
AcDbLine
 10
272.0003986358643
 20
440.0098270236572
 30
0.0
 11
272.0003986358643
 21
1032.009842282446
 31
0.0
  0
LINE
  5
384
330
1F
100
AcDbEntity
  8
C-2
  6
Continuous
 62
     3
370
     9
100
AcDbLine
 10
268.0004901885986
 20
440.0098270236572
 30
0.0
 11
268.0004901885986
 21
1032.009842282446
 31
0.0
  0
LINE
  5
385
330
1F
100
AcDbEntity
  8
C-2
  6
Continuous
 62
     3
370
     9
100
AcDbLine
 10
272.0003986358643
 20
534.5100864230715
 30
0.0
 11
296.000415802002
 21
534.5100864230715
 31
0.0
  0
LINE
  5
386
330
1F
100
AcDbEntity
  8
C-2
  6
Continuous
 62
     3
370
     9
100
AcDbLine
 10
272.0003986358643
 20
937.5100864230712
 30
0.0
 11
296.000415802002
 21
937.5100864230712
 31
0.0
  0
LINE
  5
387
330
1F
100
AcDbEntity
  8
C-2
  6
Continuous
 62
     3
370
     9
100
AcDbLine
 10
272.0003986358643
 20
934.5100253879151
 30
0.0
 11
296.000415802002
 21
934.5100253879151
 31
0.0
  0
LINE
  5
388
330
1F
100
AcDbEntity
  8
C-2
  6
Continuous
 62
     3
370
     9
100
AcDbLine
 10
272.0003986358643
 20
837.5095981418212
 30
0.0
 11
296.000415802002
 21
837.5095981418212
 31
0.0
  0
LINE
  5
389
330
1F
100
AcDbEntity
  8
C-2
  6
Continuous
 62
     3
370
     9
100
AcDbLine
 10
272.0003986358643
 20
834.510025387915
 30
0.0
 11
296.000415802002
 21
834.510025387915
 31
0.0
  0
LINE
  5
38A
330
1F
100
AcDbEntity
  8
C-2
  6
Continuous
 62
     3
370
     9
100
AcDbLine
 10
272.0003986358643
 20
737.5101169406496
 30
0.0
 11
296.000415802002
 21
737.5101169406496
 31
0.0
  0
LINE
  5
38B
330
1F
100
AcDbEntity
  8
C-2
  6
Continuous
 62
     3
370
     9
100
AcDbLine
 10
272.0003986358643
 20
734.5095676242431
 30
0.0
 11
296.000415802002
 21
734.5095676242431
 31
0.0
  0
LINE
  5
38C
330
1F
100
AcDbEntity
  8
C-2
  6
Continuous
 62
     3
370
     9
100
AcDbLine
 10
272.0003986358643
 20
637.5096591769777
 30
0.0
 11
296.000415802002
 21
637.5096591769777
 31
0.0
  0
LINE
  5
38D
330
1F
100
AcDbEntity
  8
C-2
  6
Continuous
 62
     3
370
     9
100
AcDbLine
 10
272.0003986358643
 20
634.5100864230715
 30
0.0
 11
296.000415802002
 21
634.5100864230715
 31
0.0
  0
LINE
  5
38E
330
1F
100
AcDbEntity
  8
C-2
  6
Continuous
 62
     3
370
     9
100
AcDbLine
 10
272.0003986358643
 20
537.5096591769777
 30
0.0
 11
296.000415802002
 21
537.5096591769777
 31
0.0
  0
LINE
  5
38F
330
1F
100
AcDbEntity
  8
C-2
  6
Continuous
 62
     3
370
     9
100
AcDbLine
 10
268.0004901885986
 20
1007.008987790259
 30
0.0
 11
212.0006122589113
 21
1007.008987790259
 31
0.0
  0
LINE
  5
390
330
1F
100
AcDbEntity
  8
C-2
  6
Continuous
 62
     3
370
     9
100
AcDbLine
 10
268.0004901885986
 20
1003.009537106665
 30
0.0
 11
212.0006122589113
 21
1003.009537106665
 31
0.0
  0
LINE
  5
391
330
1F
100
AcDbEntity
  8
C-2
  6
Continuous
 62
     3
370
     9
100
AcDbLine
 10
268.0004901885986
 20
465.0102084933837
 30
0.0
 11
212.0006122589113
 21
465.0102084933837
 31
0.0
  0
LINE
  5
392
330
1F
100
AcDbEntity
  8
C-2
  6
Continuous
 62
     3
370
     9
100
AcDbLine
 10
268.0004901885986
 20
469.0096286593993
 30
0.0
 11
212.0006122589113
 21
469.0096286593993
 31
0.0
  0
LINE
  5
393
330
1F
100
AcDbEntity
  8
C-2
  6
Continuous
 62
     3
370
     9
100
AcDbLine
 10
208.0001850128174
 20
440.0098270236572
 30
0.0
 11
208.0001850128174
 21
1032.009842282446
 31
0.0
  0
LINE
  5
394
330
1F
100
AcDbEntity
  8
C-2
  6
Continuous
 62
     3
370
     9
100
AcDbLine
 10
212.000093460083
 20
440.0098270236572
 30
0.0
 11
212.000093460083
 21
1032.009842282446
 31
0.0
  0
LINE
  5
395
330
1F
100
AcDbEntity
  8
C-2
  6
Continuous
 62
     3
370
     9
100
AcDbLine
 10
238.000337600708
 20
469.0096286593993
 30
0.0
 11
238.000337600708
 21
1003.009537106665
 31
0.0
  0
LINE
  5
396
330
1F
100
AcDbEntity
  8
C-2
  6
Continuous
 62
     3
370
     9
100
AcDbLine
 10
242.0002460479736
 20
469.0096286593993
 30
0.0
 11
242.0002460479736
 21
1003.009537106665
 31
0.0
  0
LWPOLYLINE
  5
397
330
1F
100
AcDbEntity
  8
C-4
  6
Continuous
 62
     7
370
     9
100
AcDbPolyline
 90
        4
 70
     1
 43
2.0
 10
91.00043678283717
 20
1063.427666073951
 42
0.4142135623731
 10
90.00043678283717
 20
1064.427666073951
 42
0.4142135623731
 10
89.00043678283717
 20
1063.427666073951
 42
0.4142135623731
 10
90.00043678283717
 20
1062.427666073951
 42
0.4142135623731
  0
LINE
  5
398
330
1F
100
AcDbEntity
  8
C-4
  6
Continuous
 62
     7
370
     9
100
AcDbLine
 10
90.00043678283717
 20
1066.427666073951
 30
0.0
 11
90.00043678283717
 21
1021.96877111466
 31
0.0
  0
LWPOLYLINE
  5
399
330
1F
100
AcDbEntity
  8
C-4
  6
Continuous
 62
     7
370
     9
100
AcDbPolyline
 90
        4
 70
     1
 43
2.0
 10
121.0002307891845
 20
1063.427666073951
 42
0.4142135623731
 10
120.0002307891845
 20
1064.427666073951
 42
0.4142135623731
 10
119.0002307891845
 20
1063.427666073951
 42
0.4142135623731
 10
120.0002307891845
 20
1062.427666073951
 42
0.4142135623731
  0
LINE
  5
39A
330
1F
100
AcDbEntity
  8
C-4
  6
Continuous
 62
     7
370
     9
100
AcDbLine
 10
120.0002307891845
 20
1066.427666073951
 30
0.0
 11
120.0002307891845
 21
1021.96877111466
 31
0.0
  0
LINE
  5
39B
330
1F
100
AcDbEntity
  8
C-4
  6
Continuous
 62
     7
370
     9
100
AcDbLine
 10
90.00043678283717
 20
1063.427666073951
 30
0.0
 11
120.0002307891845
 21
1063.427666073951
 31
0.0
  0
TEXT
  5
39C
330
1F
100
AcDbEntity
  8
C-4
  6
Continuous
 62
     2
370
   211
100
AcDbText
 10
83.75033378601088
 20
1075.067666073951
 30
0.0
 40
30.48
  1
30
 41
1.0625
  7
ＭＳ ゴシック
100
AcDbText
  0
LINE
  5
39D
330
1F
100
AcDbEntity
  8
C-8
  6
Continuous
 62
     4
370
     9
100
AcDbLine
 10
-239.0004425048831
 20
1015.756973630102
 30
0.0
 11
-239.0004425048831
 21
1023.262344723852
 31
0.0
  0
LINE
  5
39E
330
1F
100
AcDbEntity
  8
C-8
  6
Continuous
 62
     4
370
     9
100
AcDbLine
 10
-239.0004425048831
 20
1023.262344723852
 30
0.0
 11
-245.5000000000001
 21
1027.015030270727
 31
0.0
  0
LINE
  5
39F
330
1F
100
AcDbEntity
  8
C-8
  6
Continuous
 62
     4
370
     9
100
AcDbLine
 10
-245.5000000000001
 20
1027.015030270727
 30
0.0
 11
-252.0010452270509
 21
1023.262344723852
 31
0.0
  0
LINE
  5
3A0
330
1F
100
AcDbEntity
  8
C-8
  6
Continuous
 62
     4
370
     9
100
AcDbLine
 10
-252.0010452270509
 20
1023.262344723852
 30
0.0
 11
-252.0010452270509
 21
1015.756973630102
 31
0.0
  0
LINE
  5
3A1
330
1F
100
AcDbEntity
  8
C-8
  6
Continuous
 62
     4
370
     9
100
AcDbLine
 10
-252.0010452270509
 20
1015.756973630102
 30
0.0
 11
-245.5000000000001
 21
1012.003799801977
 31
0.0
  0
LINE
  5
3A2
330
1F
100
AcDbEntity
  8
C-8
  6
Continuous
 62
     4
370
     9
100
AcDbLine
 10
-245.5000000000001
 20
1012.003799801977
 30
0.0
 11
-239.0004425048831
 21
1015.756973630102
 31
0.0
  0
LINE
  5
3A3
330
1F
100
AcDbEntity
  8
C-8
  6
JWW_CENTER1
 62
     4
370
     9
100
AcDbLine
 10
-245.5000000000001
 20
1003.536758786353
 30
0.0
 11
-245.5000000000001
 21
1033.892654782446
 31
0.0
  0
LINE
  5
3A4
330
1F
100
AcDbEntity
  8
C-8
  6
JWW_CENTER1
 62
     4
370
     9
100
AcDbLine
 10
-265.97029876709
 20
1019.509659176978
 30
0.0
 11
-226.2797775268557
 21
1019.509659176978
 31
0.0
  0
CIRCLE
  5
3A5
330
1F
100
AcDbEntity
  8
C-8
  6
Continuous
 62
     4
370
     9
100
AcDbCircle
 10
-245.5000000000001
 20
1019.509659176978
 30
0.0
 40
7.750003337860107
  0
CIRCLE
  5
3A6
330
1F
100
AcDbEntity
  8
C-8
  6
Continuous
 62
     4
370
     9
100
AcDbCircle
 10
-245.5000000000001
 20
1019.509659176978
 30
0.0
 40
6.500002384185791
  0
CIRCLE
  5
3A7
330
1F
100
AcDbEntity
  8
C-8
  6
Continuous
 62
     4
370
     9
100
AcDbCircle
 10
-245.5000000000001
 20
1019.509659176978
 30
0.0
 40
5.5
  0
LINE
  5
3A8
330
1F
100
AcDbEntity
  8
C-8
  6
Continuous
 62
     4
370
     9
100
AcDbLine
 10
-239.0004425048831
 20
456.2621921359619
 30
0.0
 11
-239.0004425048831
 21
448.75685155979
 31
0.0
  0
LINE
  5
3A9
330
1F
100
AcDbEntity
  8
C-8
  6
Continuous
 62
     4
370
     9
100
AcDbLine
 10
-239.0004425048831
 20
448.75685155979
 30
0.0
 11
-245.5000000000001
 21
445.0041660129152
 31
0.0
  0
LINE
  5
3AA
330
1F
100
AcDbEntity
  8
C-8
  6
Continuous
 62
     4
370
     9
100
AcDbLine
 10
-245.5000000000001
 20
445.0041660129152
 30
0.0
 11
-252.0010452270509
 21
448.75685155979
 31
0.0
  0
LINE
  5
3AB
330
1F
100
AcDbEntity
  8
C-8
  6
Continuous
 62
     4
370
     9
100
AcDbLine
 10
-252.0010452270509
 20
448.75685155979
 30
0.0
 11
-252.0010452270509
 21
456.2621921359619
 31
0.0
  0
LINE
  5
3AC
330
1F
100
AcDbEntity
  8
C-8
  6
Continuous
 62
     4
370
     9
100
AcDbLine
 10
-252.0010452270509
 20
456.2621921359619
 30
0.0
 11
-245.5000000000001
 21
460.0153659640869
 31
0.0
  0
LINE
  5
3AD
330
1F
100
AcDbEntity
  8
C-8
  6
Continuous
 62
     4
370
     9
100
AcDbLine
 10
-245.5000000000001
 20
460.0153659640869
 30
0.0
 11
-239.0004425048831
 21
456.2621921359619
 31
0.0
  0
LINE
  5
3AE
330
1F
100
AcDbEntity
  8
C-8
  6
JWW_CENTER1
 62
     4
370
     9
100
AcDbLine
 10
-245.5000000000001
 20
468.4824374972899
 30
0.0
 11
-245.5000000000001
 21
438.1265567599853
 31
0.0
  0
LINE
  5
3AF
330
1F
100
AcDbEntity
  8
C-8
  6
JWW_CENTER1
 62
     4
370
     9
100
AcDbLine
 10
-265.97029876709
 20
452.5095065890871
 30
0.0
 11
-226.2797775268557
 21
452.5095065890871
 31
0.0
  0
CIRCLE
  5
3B0
330
1F
100
AcDbEntity
  8
C-8
  6
Continuous
 62
     4
370
     9
100
AcDbCircle
 10
-245.5000000000001
 20
452.5095065890871
 30
0.0
 40
7.750003337860107
  0
CIRCLE
  5
3B1
330
1F
100
AcDbEntity
  8
C-8
  6
Continuous
 62
     4
370
     9
100
AcDbCircle
 10
-245.5000000000001
 20
452.5095065890871
 30
0.0
 40
6.500002384185791
  0
CIRCLE
  5
3B2
330
1F
100
AcDbEntity
  8
C-8
  6
Continuous
 62
     4
370
     9
100
AcDbCircle
 10
-245.5000000000001
 20
452.5095065890871
 30
0.0
 40
5.5
  0
CIRCLE
  5
3B3
330
1F
100
AcDbEntity
  8
C-8
  6
Continuous
 62
     4
370
     9
100
AcDbCircle
 10
245.5000000000001
 20
1019.509659176978
 30
0.0
 40
7.750003337860107
  0
LINE
  5
3B4
330
1F
100
AcDbEntity
  8
C-8
  6
Continuous
 62
     4
370
     9
100
AcDbLine
 10
239.0004272460939
 20
1015.756973630102
 30
0.0
 11
239.0004272460939
 21
1023.262344723852
 31
0.0
  0
LINE
  5
3B5
330
1F
100
AcDbEntity
  8
C-8
  6
Continuous
 62
     4
370
     9
100
AcDbLine
 10
239.0004272460939
 20
1023.262344723852
 30
0.0
 11
245.5000000000001
 21
1027.015030270727
 31
0.0
  0
LINE
  5
3B6
330
1F
100
AcDbEntity
  8
C-8
  6
Continuous
 62
     4
370
     9
100
AcDbLine
 10
245.5000000000001
 20
1027.015030270727
 30
0.0
 11
252.0010375976562
 21
1023.262344723852
 31
0.0
  0
LINE
  5
3B7
330
1F
100
AcDbEntity
  8
C-8
  6
Continuous
 62
     4
370
     9
100
AcDbLine
 10
252.0010375976562
 20
1023.262344723852
 30
0.0
 11
252.0010375976562
 21
1015.756973630102
 31
0.0
  0
LINE
  5
3B8
330
1F
100
AcDbEntity
  8
C-8
  6
Continuous
 62
     4
370
     9
100
AcDbLine
 10
252.0010375976562
 20
1015.756973630102
 30
0.0
 11
245.5000000000001
 21
1012.003799801977
 31
0.0
  0
LINE
  5
3B9
330
1F
100
AcDbEntity
  8
C-8
  6
Continuous
 62
     4
370
     9
100
AcDbLine
 10
245.5000000000001
 20
1012.003799801977
 30
0.0
 11
239.0004272460939
 21
1015.756973630102
 31
0.0
  0
LINE
  5
3BA
330
1F
100
AcDbEntity
  8
C-8
  6
JWW_CENTER1
 62
     4
370
     9
100
AcDbLine
 10
245.5000000000001
 20
1003.536758786353
 30
0.0
 11
245.5000000000001
 21
1033.892654782446
 31
0.0
  0
LINE
  5
3BB
330
1F
100
AcDbEntity
  8
C-8
  6
JWW_CENTER1
 62
     4
370
     9
100
AcDbLine
 10
265.9702758789064
 20
1019.509659176978
 30
0.0
 11
226.279754638672
 21
1019.509659176978
 31
0.0
  0
CIRCLE
  5
3BC
330
1F
100
AcDbEntity
  8
C-8
  6
Continuous
 62
     4
370
     9
100
AcDbCircle
 10
245.5000000000001
 20
1019.509659176978
 30
0.0
 40
6.500002384185791
  0
CIRCLE
  5
3BD
330
1F
100
AcDbEntity
  8
C-8
  6
Continuous
 62
     4
370
     9
100
AcDbCircle
 10
245.5000000000001
 20
1019.509659176978
 30
0.0
 40
5.5
  0
LINE
  5
3BE
330
1F
100
AcDbEntity
  8
C-8
  6
Continuous
 62
     4
370
     9
100
AcDbLine
 10
239.0004272460939
 20
456.2621921359619
 30
0.0
 11
239.0004272460939
 21
448.75685155979
 31
0.0
  0
LINE
  5
3BF
330
1F
100
AcDbEntity
  8
C-8
  6
Continuous
 62
     4
370
     9
100
AcDbLine
 10
239.0004272460939
 20
448.75685155979
 30
0.0
 11
245.5000000000001
 21
445.0041660129152
 31
0.0
  0
LINE
  5
3C0
330
1F
100
AcDbEntity
  8
C-8
  6
Continuous
 62
     4
370
     9
100
AcDbLine
 10
245.5000000000001
 20
445.0041660129152
 30
0.0
 11
252.0010375976562
 21
448.75685155979
 31
0.0
  0
LINE
  5
3C1
330
1F
100
AcDbEntity
  8
C-8
  6
Continuous
 62
     4
370
     9
100
AcDbLine
 10
252.0010375976562
 20
448.75685155979
 30
0.0
 11
252.0010375976562
 21
456.2621921359619
 31
0.0
  0
LINE
  5
3C2
330
1F
100
AcDbEntity
  8
C-8
  6
Continuous
 62
     4
370
     9
100
AcDbLine
 10
252.0010375976562
 20
456.2621921359619
 30
0.0
 11
245.5000000000001
 21
460.0153659640869
 31
0.0
  0
LINE
  5
3C3
330
1F
100
AcDbEntity
  8
C-8
  6
Continuous
 62
     4
370
     9
100
AcDbLine
 10
245.5000000000001
 20
460.0153659640869
 30
0.0
 11
239.0004272460939
 21
456.2621921359619
 31
0.0
  0
LINE
  5
3C4
330
1F
100
AcDbEntity
  8
C-8
  6
JWW_CENTER1
 62
     4
370
     9
100
AcDbLine
 10
245.5000000000001
 20
468.4824374972899
 30
0.0
 11
245.5000000000001
 21
438.1265567599853
 31
0.0
  0
LINE
  5
3C5
330
1F
100
AcDbEntity
  8
C-8
  6
JWW_CENTER1
 62
     4
370
     9
100
AcDbLine
 10
265.9702758789064
 20
452.5095065890871
 30
0.0
 11
226.279754638672
 21
452.5095065890871
 31
0.0
  0
CIRCLE
  5
3C6
330
1F
100
AcDbEntity
  8
C-8
  6
Continuous
 62
     4
370
     9
100
AcDbCircle
 10
245.5000000000001
 20
452.5095065890871
 30
0.0
 40
7.750003337860107
  0
CIRCLE
  5
3C7
330
1F
100
AcDbEntity
  8
C-8
  6
Continuous
 62
     4
370
     9
100
AcDbCircle
 10
245.5000000000001
 20
452.5095065890871
 30
0.0
 40
6.500002384185791
  0
CIRCLE
  5
3C8
330
1F
100
AcDbEntity
  8
C-8
  6
Continuous
 62
     4
370
     9
100
AcDbCircle
 10
245.5000000000001
 20
452.5095065890871
 30
0.0
 40
5.5
  0
ARC
  5
3C9
330
1F
100
AcDbEntity
  8
C-2
  6
Continuous
 62
     3
370
     9
100
AcDbCircle
 10
-234.0000820159915
 20
452.5095065890871
 30
0.0
 40
6.000002861022949
100
AcDbArc
 50
270.0
 51
90.0
  0
LINE
  5
3CA
330
1F
100
AcDbEntity
  8
C-2
  6
Continuous
 62
     3
370
     9
100
AcDbLine
 10
-234.0000820159915
 20
446.5093845187744
 30
0.0
 11
-240.5947898232401
 21
446.5093845187744
 31
0.0
  0
LINE
  5
3CB
330
1F
100
AcDbEntity
  8
C-2
  6
Continuous
 62
     3
370
     9
100
AcDbLine
 10
-234.0000820159915
 20
458.5096591769775
 30
0.0
 11
-240.5948271530075
 21
458.5096591769775
 31
0.0
  0
ARC
  5
3CC
330
1F
100
AcDbEntity
  8
C-2
  6
Continuous
 62
     3
370
     9
100
AcDbCircle
 10
-234.0000820159915
 20
1019.50914037815
 30
0.0
 40
6.000002861022949
100
AcDbArc
 50
270.0
 51
90.0
  0
LINE
  5
3CD
330
1F
100
AcDbEntity
  8
C-2
  6
Continuous
 62
     3
370
     9
100
AcDbLine
 10
-234.0000820159915
 20
1013.509018307837
 30
0.0
 11
-240.5947898232401
 21
1013.509018307837
 31
0.0
  0
LINE
  5
3CE
330
1F
100
AcDbEntity
  8
C-2
  6
Continuous
 62
     3
370
     9
100
AcDbLine
 10
-234.0000820159915
 20
1025.50929296604
 30
0.0
 11
-240.5948271530075
 21
1025.50929296604
 31
0.0
  0
ARC
  5
3CF
330
1F
100
AcDbEntity
  8
C-2
  6
Continuous
 62
     3
370
     9
100
AcDbCircle
 10
234.0004138946534
 20
452.5095065890871
 30
0.0
 40
6.000002861022949
100
AcDbArc
 50
90.0
 51
270.0
  0
LINE
  5
3D0
330
1F
100
AcDbEntity
  8
C-2
  6
Continuous
 62
     3
370
     9
100
AcDbLine
 10
234.0004138946534
 20
446.5093845187744
 30
0.0
 11
240.595121701902
 21
446.5093845187744
 31
0.0
  0
LINE
  5
3D1
330
1F
100
AcDbEntity
  8
C-2
  6
Continuous
 62
     3
370
     9
100
AcDbLine
 10
234.0004138946534
 20
458.5096591769775
 30
0.0
 11
240.5951590316694
 21
458.5096591769775
 31
0.0
  0
ARC
  5
3D2
330
1F
100
AcDbEntity
  8
C-2
  6
Continuous
 62
     3
370
     9
100
AcDbCircle
 10
234.0004138946534
 20
1019.50914037815
 30
0.0
 40
6.000002861022949
100
AcDbArc
 50
90.0
 51
270.0
  0
LINE
  5
3D3
330
1F
100
AcDbEntity
  8
C-2
  6
Continuous
 62
     3
370
     9
100
AcDbLine
 10
234.0004138946534
 20
1013.509018307837
 30
0.0
 11
240.595121701902
 21
1013.509018307837
 31
0.0
  0
LINE
  5
3D4
330
1F
100
AcDbEntity
  8
C-2
  6
Continuous
 62
     3
370
     9
100
AcDbLine
 10
234.0004138946534
 20
1025.50929296604
 30
0.0
 11
240.5951590316694
 21
1025.50929296604
 31
0.0
  0
LINE
  5
3D5
330
1F
100
AcDbEntity
  8
C-4
  6
Continuous
 62
     7
370
     9
100
AcDbLine
 10
-275.0000000000001
 20
1128.42774999729
 30
0.0
 11
-300.0000000000001
 21
1128.42774999729
 31
0.0
  0
LWPOLYLINE
  5
3D6
330
1F
100
AcDbEntity
  8
C-4
  6
Continuous
 62
     7
370
     9
100
AcDbPolyline
 90
        4
 70
     1
 43
2.0
 10
-299.0000000000001
 20
1128.42774999729
 42
0.4142135623731
 10
-300.0000000000001
 20
1129.42774999729
 42
0.4142135623731
 10
-301.0000000000002
 20
1128.42774999729
 42
0.4142135623731
 10
-300.0000000000001
 20
1127.42774999729
 42
0.4142135623731
  0
TEXT
  5
3D7
330
1F
100
AcDbEntity
  8
C-4
  6
Continuous
 62
     2
370
   211
100
AcDbText
 10
-296.2500000000001
 20
1140.067749997291
 30
0.0
 40
30.48
  1
25
 41
1.0625
  7
ＭＳ ゴシック
100
AcDbText
  0
LINE
  5
3D8
330
1F
100
AcDbEntity
  8
C-4
  6
Continuous
 62
     7
370
     9
100
AcDbLine
 10
274.9999999999999
 20
1128.42774999729
 30
0.0
 11
299.9999999999999
 21
1128.42774999729
 31
0.0
  0
LWPOLYLINE
  5
3D9
330
1F
100
AcDbEntity
  8
C-4
  6
Continuous
 62
     7
370
     9
100
AcDbPolyline
 90
        4
 70
     1
 43
2.0
 10
300.9999999999999
 20
1128.42774999729
 42
0.4142135623731
 10
299.9999999999999
 20
1129.42774999729
 42
0.4142135623731
 10
298.9999999999999
 20
1128.42774999729
 42
0.4142135623731
 10
299.9999999999999
 20
1127.42774999729
 42
0.4142135623731
  0
TEXT
  5
3DA
330
1F
100
AcDbEntity
  8
C-4
  6
Continuous
 62
     2
370
   211
100
AcDbText
 10
253.7499999999999
 20
1140.067749997291
 30
0.0
 40
30.48
  1
25
 41
1.0625
  7
ＭＳ ゴシック
100
AcDbText
  0
LINE
  5
3DB
330
1F
100
AcDbEntity
  8
C-4
  6
Continuous
 62
     7
370
     9
100
AcDbLine
 10
-392.4179687500005
 20
1011.00978124729
 30
0.0
 11
-392.4179687500005
 21
1036.00978124729
 31
0.0
  0
LWPOLYLINE
  5
3DC
330
1F
100
AcDbEntity
  8
C-4
  6
Continuous
 62
     7
370
     9
100
AcDbPolyline
 90
        4
 70
     1
 43
2.0
 10
-391.4179687500005
 20
1036.00978124729
 42
0.4142135623731
 10
-392.4179687500005
 20
1037.00978124729
 42
0.4142135623731
 10
-393.4179687500005
 20
1036.00978124729
 42
0.4142135623731
 10
-392.4179687500005
 20
1035.00978124729
 42
0.4142135623731
  0
TEXT
  5
3DD
330
1F
100
AcDbEntity
  8
C-4
  6
Continuous
 62
     2
370
   211
100
AcDbText
 10
-404.0579687500006
 20
989.7597812472901
 30
0.0
 40
30.48
  1
25
 50
90.0
 41
1.0625
  7
ＭＳ ゴシック
100
AcDbText
  0
LINE
  5
3DE
330
1F
100
AcDbEntity
  8
C-4
  6
Continuous
 62
     7
370
     9
100
AcDbLine
 10
-392.4179687500005
 20
461.00978124729
 30
0.0
 11
-392.4179687500005
 21
436.00978124729
 31
0.0
  0
LWPOLYLINE
  5
3DF
330
1F
100
AcDbEntity
  8
C-4
  6
Continuous
 62
     7
370
     9
100
AcDbPolyline
 90
        4
 70
     1
 43
2.0
 10
-391.4179687500005
 20
436.00978124729
 42
0.4142135623731
 10
-392.4179687500005
 20
437.00978124729
 42
0.4142135623731
 10
-393.4179687500005
 20
436.00978124729
 42
0.4142135623731
 10
-392.4179687500005
 20
435.0097812472899
 42
0.4142135623731
  0
TEXT
  5
3E0
330
1F
100
AcDbEntity
  8
C-4
  6
Continuous
 62
     2
370
   211
100
AcDbText
 10
-404.0579687500006
 20
439.7597812472898
 30
0.0
 40
30.48
  1
25
 50
90.0
 41
1.0625
  7
ＭＳ ゴシック
100
AcDbText
  0
LINE
  5
3E1
330
1F
100
AcDbEntity
  8
C-A
  6
Continuous
 62
     3
370
     9
100
AcDbLine
 10
-309.9999083357694
 20
552.2601131259521
 30
0.0
 11
-309.9999083357694
 21
553.5101131259521
 31
0.0
  0
LINE
  5
3E2
330
1F
100
AcDbEntity
  8
C-A
  6
Continuous
 62
     3
370
     9
100
AcDbLine
 10
-309.9999083357694
 20
552.2601131259521
 30
0.0
 11
-338.9998930769805
 21
552.2601131259521
 31
0.0
  0
LINE
  5
3E3
330
1F
100
AcDbEntity
  8
C-A
  6
Continuous
 62
     3
370
     9
100
AcDbLine
 10
-305.9998930769804
 20
553.5147823154043
 30
0.0
 11
-305.9998930769804
 21
553.0016292392324
 31
0.0
  0
LINE
  5
3E4
330
1F
100
AcDbEntity
  8
C-A
  6
Continuous
 62
     3
370
     9
100
AcDbLine
 10
-305.9998930769804
 20
569.0100520907945
 30
0.0
 11
-305.9998930769804
 21
568.5100826083727
 31
0.0
  0
LINE
  5
3E5
330
1F
100
AcDbEntity
  8
C-A
  6
Continuous
 62
     3
370
     9
100
AcDbLine
 10
-309.9999083357694
 20
569.760174161107
 30
0.0
 11
-309.9999083357694
 21
568.5102046786856
 31
0.0
  0
LINE
  5
3E6
330
1F
100
AcDbEntity
  8
C-A
  6
Continuous
 62
     3
370
     9
100
AcDbLine
 10
-309.9999083357694
 20
569.760174161107
 30
0.0
 11
-338.9998930769805
 21
569.760174161107
 31
0.0
  0
LINE
  5
3E7
330
1F
100
AcDbEntity
  8
C-A
  6
Continuous
 62
     3
370
     9
100
AcDbLine
 10
-338.9998930769805
 20
552.2601131259521
 30
0.0
 11
-338.9998930769805
 21
569.760174161107
 31
0.0
  0
LINE
  5
3E8
330
1F
100
AcDbEntity
  8
C-A
  6
JWW_DASHED2
 62
     3
370
     9
100
AcDbLine
 10
-309.8540037947539
 20
554.2601436435289
 30
0.0
 11
-338.9998930769805
 21
554.2601436435289
 31
0.0
  0
LINE
  5
3E9
330
1F
100
AcDbEntity
  8
C-A
  6
JWW_DASHED2
 62
     3
370
     9
100
AcDbLine
 10
-309.8540037947539
 20
567.7601741611088
 30
0.0
 11
-338.9998930769805
 21
567.7601741611088
 31
0.0
  0
LINE
  5
3EA
330
1F
100
AcDbEntity
  8
C-A
  6
JWW_CENTER2
 62
     7
370
     9
100
AcDbLine
 10
-328.9998473006132
 20
566.7861141025137
 30
0.0
 11
-328.9998473006132
 21
555.2340816318119
 31
0.0
  0
ARC
  5
3EB
330
1F
100
AcDbEntity
  8
C-A
  6
Continuous
 62
     3
370
     9
100
AcDbCircle
 10
-303.9999235945585
 20
553.0100520907946
 30
0.0
 40
1.999999642372131
100
AcDbArc
 50
180.2416229248047
 51
240.0007171630859
  0
ARC
  5
3EC
330
1F
100
AcDbEntity
  8
C-A
  6
Continuous
 62
     3
370
     9
100
AcDbCircle
 10
-307.9998930769785
 20
553.5101131259521
 30
0.0
 40
1.999999642372131
100
AcDbArc
 50
0.1332855224609433
 51
180.0
  0
ARC
  5
3ED
330
1F
100
AcDbEntity
  8
C-A
  6
Continuous
 62
     3
370
     9
100
AcDbCircle
 10
-303.9999235945585
 20
569.0100520907945
 30
0.0
 40
1.999999642372131
100
AcDbArc
 50
119.99951171875
 51
179.7240295410156
  0
ARC
  5
3EE
330
1F
100
AcDbEntity
  8
C-A
  6
Continuous
 62
     3
370
     9
100
AcDbCircle
 10
-307.9998930769785
 20
568.5102046786856
 30
0.0
 40
1.999999642372131
100
AcDbArc
 50
180.0
 51
0.0
  0
CIRCLE
  5
3EF
330
1F
100
AcDbEntity
  8
C-A
  6
Continuous
 62
     3
370
     9
100
AcDbCircle
 10
-328.9998473006132
 20
561.0101131259521
 30
0.0
 40
4.249999523162842
  0
LINE
  5
3F0
330
1F
100
AcDbEntity
  8
C-A
  6
JWW_CENTER2
 62
     7
370
     9
100
AcDbLine
 10
-295.9993743896486
 20
561.0101131259521
 30
0.0
 11
-343.9998930769805
 21
561.0101131259521
 31
0.0
  0
LINE
  5
3F1
330
1F
100
AcDbEntity
  8
C-A
  6
Continuous
 62
     3
370
     9
100
AcDbLine
 10
309.9999083357692
 20
552.2601131259521
 30
0.0
 11
309.9999083357692
 21
553.5101131259521
 31
0.0
  0
LINE
  5
3F2
330
1F
100
AcDbEntity
  8
C-A
  6
Continuous
 62
     3
370
     9
100
AcDbLine
 10
309.9999083357692
 20
552.2601131259521
 30
0.0
 11
338.9998930769801
 21
552.2601131259521
 31
0.0
  0
LINE
  5
3F3
330
1F
100
AcDbEntity
  8
C-A
  6
Continuous
 62
     3
370
     9
100
AcDbLine
 10
305.9998930769801
 20
553.5147823154043
 30
0.0
 11
305.9998930769801
 21
553.0016292392324
 31
0.0
  0
LINE
  5
3F4
330
1F
100
AcDbEntity
  8
C-A
  6
Continuous
 62
     3
370
     9
100
AcDbLine
 10
305.9998930769801
 20
569.0100520907945
 30
0.0
 11
305.9998930769801
 21
568.5100826083727
 31
0.0
  0
LINE
  5
3F5
330
1F
100
AcDbEntity
  8
C-A
  6
Continuous
 62
     3
370
     9
100
AcDbLine
 10
309.9999083357692
 20
569.760174161107
 30
0.0
 11
309.9999083357692
 21
568.5102046786856
 31
0.0
  0
LINE
  5
3F6
330
1F
100
AcDbEntity
  8
C-A
  6
Continuous
 62
     3
370
     9
100
AcDbLine
 10
309.9999083357692
 20
569.760174161107
 30
0.0
 11
338.9998930769801
 21
569.760174161107
 31
0.0
  0
LINE
  5
3F7
330
1F
100
AcDbEntity
  8
C-A
  6
Continuous
 62
     3
370
     9
100
AcDbLine
 10
338.9998930769801
 20
552.2601131259521
 30
0.0
 11
338.9998930769801
 21
569.760174161107
 31
0.0
  0
LINE
  5
3F8
330
1F
100
AcDbEntity
  8
C-A
  6
JWW_DASHED2
 62
     3
370
     9
100
AcDbLine
 10
309.8540037947535
 20
554.2601436435289
 30
0.0
 11
338.9998930769801
 21
554.2601436435289
 31
0.0
  0
LINE
  5
3F9
330
1F
100
AcDbEntity
  8
C-A
  6
JWW_DASHED2
 62
     3
370
     9
100
AcDbLine
 10
309.8540037947535
 20
567.7601741611088
 30
0.0
 11
338.9998930769801
 21
567.7601741611088
 31
0.0
  0
LINE
  5
3FA
330
1F
100
AcDbEntity
  8
C-A
  6
JWW_CENTER2
 62
     7
370
     9
100
AcDbLine
 10
328.999847300613
 20
566.7861141025137
 30
0.0
 11
328.999847300613
 21
555.2340816318119
 31
0.0
  0
ARC
  5
3FB
330
1F
100
AcDbEntity
  8
C-A
  6
Continuous
 62
     3
370
     9
100
AcDbCircle
 10
303.9999235945583
 20
553.0100520907946
 30
0.0
 40
1.999999642372131
100
AcDbArc
 50
299.9992828369141
 51
359.7583770751953
  0
ARC
  5
3FC
330
1F
100
AcDbEntity
  8
C-A
  6
Continuous
 62
     3
370
     9
100
AcDbCircle
 10
307.9998930769783
 20
553.5101131259521
 30
0.0
 40
1.999999642372131
100
AcDbArc
 50
0.0
 51
179.8667144775392
  0
ARC
  5
3FD
330
1F
100
AcDbEntity
  8
C-A
  6
Continuous
 62
     3
370
     9
100
AcDbCircle
 10
303.9999235945583
 20
569.0100520907945
 30
0.0
 40
1.999999642372131
100
AcDbArc
 50
0.2759704589843719
 51
60.00048828124999
  0
ARC
  5
3FE
330
1F
100
AcDbEntity
  8
C-A
  6
Continuous
 62
     3
370
     9
100
AcDbCircle
 10
307.9998930769783
 20
568.5102046786856
 30
0.0
 40
1.999999642372131
100
AcDbArc
 50
180.0
 51
0.0
  0
CIRCLE
  5
3FF
330
1F
100
AcDbEntity
  8
C-A
  6
Continuous
 62
     3
370
     9
100
AcDbCircle
 10
328.999847300613
 20
561.0101131259521
 30
0.0
 40
4.249999523162842
  0
LINE
  5
400
330
1F
100
AcDbEntity
  8
C-A
  6
JWW_CENTER2
 62
     7
370
     9
100
AcDbLine
 10
295.9993743896483
 20
561.0101131259521
 30
0.0
 11
343.9998930769801
 21
561.0101131259521
 31
0.0
  0
LINE
  5
401
330
1F
100
AcDbEntity
  8
C-A
  6
Continuous
 62
     3
370
     9
100
AcDbLine
 10
-309.9999083357694
 20
902.2597812472901
 30
0.0
 11
-309.9999083357694
 21
903.5097812472901
 31
0.0
  0
LINE
  5
402
330
1F
100
AcDbEntity
  8
C-A
  6
Continuous
 62
     3
370
     9
100
AcDbLine
 10
-309.9999083357694
 20
902.2597812472901
 30
0.0
 11
-338.9998930769805
 21
902.2597812472901
 31
0.0
  0
LINE
  5
403
330
1F
100
AcDbEntity
  8
C-A
  6
Continuous
 62
     3
370
     9
100
AcDbLine
 10
-305.9998930769804
 20
903.5144504367423
 30
0.0
 11
-305.9998930769804
 21
903.0012973605704
 31
0.0
  0
LINE
  5
404
330
1F
100
AcDbEntity
  8
C-A
  6
Continuous
 62
     3
370
     9
100
AcDbLine
 10
-305.9998930769804
 20
919.0097202121325
 30
0.0
 11
-305.9998930769804
 21
918.509750729711
 31
0.0
  0
LINE
  5
405
330
1F
100
AcDbEntity
  8
C-A
  6
Continuous
 62
     3
370
     9
100
AcDbLine
 10
-309.9999083357694
 20
919.759842282445
 30
0.0
 11
-309.9999083357694
 21
918.5098728000236
 31
0.0
  0
LINE
  5
406
330
1F
100
AcDbEntity
  8
C-A
  6
Continuous
 62
     3
370
     9
100
AcDbLine
 10
-309.9999083357694
 20
919.759842282445
 30
0.0
 11
-338.9998930769805
 21
919.759842282445
 31
0.0
  0
LINE
  5
407
330
1F
100
AcDbEntity
  8
C-A
  6
Continuous
 62
     3
370
     9
100
AcDbLine
 10
-338.9998930769805
 20
902.2597812472901
 30
0.0
 11
-338.9998930769805
 21
919.759842282445
 31
0.0
  0
LINE
  5
408
330
1F
100
AcDbEntity
  8
C-A
  6
JWW_DASHED2
 62
     3
370
     9
100
AcDbLine
 10
-309.8540037947539
 20
904.2598117648669
 30
0.0
 11
-338.9998930769805
 21
904.2598117648669
 31
0.0
  0
LINE
  5
409
330
1F
100
AcDbEntity
  8
C-A
  6
JWW_DASHED2
 62
     3
370
     9
100
AcDbLine
 10
-309.8540037947539
 20
917.7598422824468
 30
0.0
 11
-338.9998930769805
 21
917.7598422824468
 31
0.0
  0
LINE
  5
40A
330
1F
100
AcDbEntity
  8
C-A
  6
JWW_CENTER2
 62
     7
370
     9
100
AcDbLine
 10
-328.9998473006132
 20
916.7857822238517
 30
0.0
 11
-328.9998473006132
 21
905.2337497531499
 31
0.0
  0
ARC
  5
40B
330
1F
100
AcDbEntity
  8
C-A
  6
Continuous
 62
     3
370
     9
100
AcDbCircle
 10
-303.9999235945585
 20
903.0097202121328
 30
0.0
 40
1.999999642372131
100
AcDbArc
 50
180.2416229248047
 51
240.0007171630859
  0
ARC
  5
40C
330
1F
100
AcDbEntity
  8
C-A
  6
Continuous
 62
     3
370
     9
100
AcDbCircle
 10
-307.9998930769785
 20
903.5097812472901
 30
0.0
 40
1.999999642372131
100
AcDbArc
 50
0.1332855224609433
 51
180.0
  0
ARC
  5
40D
330
1F
100
AcDbEntity
  8
C-A
  6
Continuous
 62
     3
370
     9
100
AcDbCircle
 10
-303.9999235945585
 20
919.0097202121325
 30
0.0
 40
1.999999642372131
100
AcDbArc
 50
119.99951171875
 51
179.7240295410156
  0
ARC
  5
40E
330
1F
100
AcDbEntity
  8
C-A
  6
Continuous
 62
     3
370
     9
100
AcDbCircle
 10
-307.9998930769785
 20
918.5098728000236
 30
0.0
 40
1.999999642372131
100
AcDbArc
 50
180.0
 51
0.0
  0
CIRCLE
  5
40F
330
1F
100
AcDbEntity
  8
C-A
  6
Continuous
 62
     3
370
     9
100
AcDbCircle
 10
-328.9998473006132
 20
911.0097812472901
 30
0.0
 40
4.249999523162842
  0
LINE
  5
410
330
1F
100
AcDbEntity
  8
C-A
  6
JWW_CENTER2
 62
     7
370
     9
100
AcDbLine
 10
-295.9993743896486
 20
911.0097812472901
 30
0.0
 11
-343.9998930769805
 21
911.0097812472901
 31
0.0
  0
LINE
  5
411
330
1F
100
AcDbEntity
  8
C-A
  6
Continuous
 62
     3
370
     9
100
AcDbLine
 10
309.9999083357692
 20
902.2597812472901
 30
0.0
 11
309.9999083357692
 21
903.5097812472901
 31
0.0
  0
LINE
  5
412
330
1F
100
AcDbEntity
  8
C-A
  6
Continuous
 62
     3
370
     9
100
AcDbLine
 10
309.9999083357692
 20
902.2597812472901
 30
0.0
 11
338.9998930769801
 21
902.2597812472901
 31
0.0
  0
LINE
  5
413
330
1F
100
AcDbEntity
  8
C-A
  6
Continuous
 62
     3
370
     9
100
AcDbLine
 10
305.9998930769801
 20
903.5144504367423
 30
0.0
 11
305.9998930769801
 21
903.0012973605704
 31
0.0
  0
LINE
  5
414
330
1F
100
AcDbEntity
  8
C-A
  6
Continuous
 62
     3
370
     9
100
AcDbLine
 10
305.9998930769801
 20
919.0097202121325
 30
0.0
 11
305.9998930769801
 21
918.509750729711
 31
0.0
  0
LINE
  5
415
330
1F
100
AcDbEntity
  8
C-A
  6
Continuous
 62
     3
370
     9
100
AcDbLine
 10
309.9999083357692
 20
919.759842282445
 30
0.0
 11
309.9999083357692
 21
918.5098728000236
 31
0.0
  0
LINE
  5
416
330
1F
100
AcDbEntity
  8
C-A
  6
Continuous
 62
     3
370
     9
100
AcDbLine
 10
309.9999083357692
 20
919.759842282445
 30
0.0
 11
338.9998930769801
 21
919.759842282445
 31
0.0
  0
LINE
  5
417
330
1F
100
AcDbEntity
  8
C-A
  6
Continuous
 62
     3
370
     9
100
AcDbLine
 10
338.9998930769801
 20
902.2597812472901
 30
0.0
 11
338.9998930769801
 21
919.759842282445
 31
0.0
  0
LINE
  5
418
330
1F
100
AcDbEntity
  8
C-A
  6
JWW_DASHED2
 62
     3
370
     9
100
AcDbLine
 10
309.8540037947535
 20
904.2598117648669
 30
0.0
 11
338.9998930769801
 21
904.2598117648669
 31
0.0
  0
LINE
  5
419
330
1F
100
AcDbEntity
  8
C-A
  6
JWW_DASHED2
 62
     3
370
     9
100
AcDbLine
 10
309.8540037947535
 20
917.7598422824468
 30
0.0
 11
338.9998930769801
 21
917.7598422824468
 31
0.0
  0
LINE
  5
41A
330
1F
100
AcDbEntity
  8
C-A
  6
JWW_CENTER2
 62
     7
370
     9
100
AcDbLine
 10
328.999847300613
 20
916.7857822238517
 30
0.0
 11
328.999847300613
 21
905.2337497531499
 31
0.0
  0
ARC
  5
41B
330
1F
100
AcDbEntity
  8
C-A
  6
Continuous
 62
     3
370
     9
100
AcDbCircle
 10
303.9999235945583
 20
903.0097202121328
 30
0.0
 40
1.999999642372131
100
AcDbArc
 50
299.9992828369141
 51
359.7583770751953
  0
ARC
  5
41C
330
1F
100
AcDbEntity
  8
C-A
  6
Continuous
 62
     3
370
     9
100
AcDbCircle
 10
307.9998930769783
 20
903.5097812472901
 30
0.0
 40
1.999999642372131
100
AcDbArc
 50
0.0
 51
179.8667144775392
  0
ARC
  5
41D
330
1F
100
AcDbEntity
  8
C-A
  6
Continuous
 62
     3
370
     9
100
AcDbCircle
 10
303.9999235945583
 20
919.0097202121325
 30
0.0
 40
1.999999642372131
100
AcDbArc
 50
0.2759704589843719
 51
60.00048828124999
  0
ARC
  5
41E
330
1F
100
AcDbEntity
  8
C-A
  6
Continuous
 62
     3
370
     9
100
AcDbCircle
 10
307.9998930769783
 20
918.5098728000236
 30
0.0
 40
1.999999642372131
100
AcDbArc
 50
180.0
 51
0.0
  0
CIRCLE
  5
41F
330
1F
100
AcDbEntity
  8
C-A
  6
Continuous
 62
     3
370
     9
100
AcDbCircle
 10
328.999847300613
 20
911.0097812472901
 30
0.0
 40
4.249999523162842
  0
LINE
  5
420
330
1F
100
AcDbEntity
  8
C-A
  6
JWW_CENTER2
 62
     7
370
     9
100
AcDbLine
 10
295.9993743896483
 20
911.0097812472901
 30
0.0
 11
343.9998930769801
 21
911.0097812472901
 31
0.0
  0
TEXT
  5
421
330
1F
100
AcDbEntity
  8
D-5
  6
Continuous
 62
     3
370
     9
100
AcDbText
 10
266.1035105578072
 20
-435.7120817166398
 30
0.0
 40
38.1
  1
※適用荷重：歩行用
 41
1.088888888888889
  7
ＭＳ ゴシック
100
AcDbText
  0
ENDSEC
  0
SECTION
  2
OBJECTS
  0
DICTIONARY
  5
C
330
0
100
AcDbDictionary
281
     1
  3
ACAD_DETAILVIEWSTYLE
350
467
  3
ACAD_GROUP
350
D
  3
ACAD_LAYOUT
350
1A
  3
ACAD_MATERIAL
350
43
  3
ACAD_MLEADERSTYLE
350
6B
  3
ACAD_MLINESTYLE
350
17
  3
ACAD_PLOTSETTINGS
350
19
  3
ACAD_PLOTSTYLENAME
350
E
  3
ACAD_SCALELIST
350
47
  3
ACAD_SECTIONVIEWSTYLE
350
468
  3
ACAD_TABLESTYLE
350
69
  3
ACAD_VISUALSTYLE
350
2A
  3
ACDB_RECOMPOSE_DATA
350
464
  3
AcDbVariableDictionary
350
424
  0
DICTIONARY
  5
422
330
8
100
AcDbDictionary
280
     1
281
     1
  3
ACAD_XREC_ROUNDTRIP
360
423
  0
DICTIONARY
  5
467
102
{ACAD_REACTORS
330
C
102
}
330
C
100
AcDbDictionary
281
     1
  0
DICTIONARY
  5
D
102
{ACAD_REACTORS
330
C
102
}
330
C
100
AcDbDictionary
281
     1
  0
DICTIONARY
  5
1A
102
{ACAD_REACTORS
330
C
102
}
330
C
100
AcDbDictionary
281
     1
  3
Layout1
350
1E
  3
Layout2
350
26
  3
Model
350
22
  0
DICTIONARY
  5
43
102
{ACAD_REACTORS
330
C
102
}
330
C
100
AcDbDictionary
281
     1
  3
ByBlock
350
45
  3
ByLayer
350
44
  3
Global
350
46
  0
DICTIONARY
  5
6B
102
{ACAD_REACTORS
330
C
102
}
330
C
100
AcDbDictionary
281
     1
  3
Standard
350
6C
  0
DICTIONARY
  5
17
102
{ACAD_REACTORS
330
C
102
}
330
C
100
AcDbDictionary
281
     1
  3
Standard
350
18
  0
DICTIONARY
  5
19
102
{ACAD_REACTORS
330
C
102
}
330
C
100
AcDbDictionary
281
     1
  0
ACDBDICTIONARYWDFLT
  5
E
102
{ACAD_REACTORS
330
C
102
}
330
C
100
AcDbDictionary
281
     1
  3
Normal
350
F
100
AcDbDictionaryWithDefault
340
F
  0
DICTIONARY
  5
47
102
{ACAD_REACTORS
330
C
102
}
330
C
100
AcDbDictionary
281
     1
  3
A0
350
48
  3
A1
350
49
  3
A2
350
4A
  3
A3
350
4B
  3
A4
350
4C
  3
A5
350
4D
  3
A6
350
4E
  3
A7
350
4F
  3
A8
350
50
  3
A9
350
51
  3
B0
350
52
  3
B1
350
53
  3
B2
350
54
  3
B3
350
55
  3
B4
350
56
  3
B5
350
57
  3
B6
350
58
  3
B7
350
59
  3
B8
350
5A
  3
B9
350
5B
  3
C0
350
5C
  3
C1
350
5D
  3
C2
350
5E
  3
C3
350
5F
  3
C4
350
60
  3
C5
350
61
  3
C6
350
62
  3
C7
350
63
  3
C8
350
64
  3
C9
350
65
  3
D0
350
66
  3
D1
350
67
  3
D2
350
68
  0
DICTIONARY
  5
468
102
{ACAD_REACTORS
330
C
102
}
330
C
100
AcDbDictionary
281
     1
  0
DICTIONARY
  5
69
102
{ACAD_REACTORS
330
C
102
}
330
C
100
AcDbDictionary
281
     1
  3
Standard
350
6A
  0
DICTIONARY
  5
2A
102
{ACAD_REACTORS
330
C
102
}
330
C
100
AcDbDictionary
281
     1
  3
2dWireframe
350
2F
  3
Basic
350
32
  3
Brighten
350
36
  3
ColorChange
350
3A
  3
Conceptual
350
34
  3
Dim
350
35
  3
EdgeColorOff
350
3D
  3
Facepattern
350
39
  3
Flat
350
2B
  3
FlatWithEdges
350
2C
  3
Gouraud
350
2D
  3
GouraudWithEdges
350
2E
  3
Hidden
350
31
  3
JitterOff
350
3B
  3
Linepattern
350
38
  3
OverhangOff
350
3C
  3
Realistic
350
33
  3
Shaded
350
42
  3
Shaded with edges
350
41
  3
Shades of Gray
350
3E
  3
Sketchy
350
3F
  3
Thicken
350
37
  3
Wireframe
350
30
  3
X-Ray
350
40
  0
XRECORD
  5
464
102
{ACAD_REACTORS
330
C
102
}
330
C
100
AcDbXrecord
280
     1
 90
        1
330
6A
  0
DICTIONARY
  5
424
102
{ACAD_REACTORS
330
C
102
}
330
C
100
AcDbDictionary
281
     1
  3
CANNOSCALE
350
425
  3
CENTEREXE
350
469
  3
CENTERLTYPEFILE
350
46A
  3
CMLEADERSTYLE
350
466
  3
CTABLESTYLE
350
465
  3
MSLTSCALE
350
426
  3
XCLIPFRAME
350
427
  0
XRECORD
  5
423
102
{ACAD_REACTORS
330
422
102
}
330
422
100
AcDbXrecord
280
     1
102
VTR_0.000_0.000_1.000_1.000_VISUALSTYLE
340
2F
102
VTR_0.000_0.000_1.000_1.000_GRIDDISPLAY
 70
     3
102
VTR_0.000_0.000_1.000_1.000_GRIDMAJOR
 70
     5
102
VTR_0.000_0.000_1.000_1.000_DEFAULTLIGHTING
280
     1
102
VTR_0.000_0.000_1.000_1.000_DEFAULTLIGHTINGTYPE
 70
     1
102
VTR_0.000_0.000_1.000_1.000_BRIGHTNESS
141
0.0
102
VTR_0.000_0.000_1.000_1.000_CONTRAST
142
0.0
  0
LAYOUT
  5
1E
102
{ACAD_REACTORS
330
1A
102
}
330
1A
100
AcDbPlotSettings
  1

  2
none_device
  4

  6

 40
0.0
 41
0.0
 42
0.0
 43
0.0
 44
0.0
 45
0.0
 46
0.0
 47
0.0
 48
0.0
 49
0.0
140
0.0
141
0.0
142
1.0
143
1.0
 70
   688
 72
     1
 73
     0
 74
     5
  7

 75
    16
 76
     0
 77
     5
 78
   300
147
1.0
148
0.0
149
0.0
100
AcDbLayout
  1
Layout1
 70
     1
 71
     1
 10
0.0
 20
0.0
 11
420.0
 21
297.0
 12
0.0
 22
0.0
 32
0.0
 14
1.000000000000000E+20
 24
1.000000000000000E+20
 34
1.000000000000000E+20
 15
-1.000000000000000E+20
 25
-1.000000000000000E+20
 35
-1.000000000000000E+20
146
0.0
 13
0.0
 23
0.0
 33
0.0
 16
1.0
 26
0.0
 36
0.0
 17
0.0
 27
1.0
 37
0.0
 76
     0
330
1B
  0
LAYOUT
  5
26
102
{ACAD_REACTORS
330
1A
102
}
330
1A
100
AcDbPlotSettings
  1

  2
none_device
  4

  6

 40
0.0
 41
0.0
 42
0.0
 43
0.0
 44
0.0
 45
0.0
 46
0.0
 47
0.0
 48
0.0
 49
0.0
140
0.0
141
0.0
142
1.0
143
1.0
 70
   688
 72
     1
 73
     0
 74
     5
  7

 75
    16
 76
     0
 77
     5
 78
   300
147
1.0
148
0.0
149
0.0
100
AcDbLayout
  1
Layout2
 70
     1
 71
     2
 10
0.0
 20
0.0
 11
0.0
 21
0.0
 12
0.0
 22
0.0
 32
0.0
 14
0.0
 24
0.0
 34
0.0
 15
0.0
 25
0.0
 35
0.0
146
0.0
 13
0.0
 23
0.0
 33
0.0
 16
1.0
 26
0.0
 36
0.0
 17
0.0
 27
1.0
 37
0.0
 76
     0
330
23
  0
LAYOUT
  5
22
102
{ACAD_REACTORS
330
1A
102
}
330
1A
100
AcDbPlotSettings
  1

  2
none_device
  4
Letter_(8.50_x_11.00_Inches)
  6

 40
6.35
 41
6.35
 42
6.35000508
 43
6.35000508
 44
215.9
 45
279.4
 46
0.0
 47
0.0
 48
0.0
 49
0.0
140
0.0
141
0.0
142
1.0
143
1.0
 70
  1712
 72
     1
 73
     0
 74
     0
  7

 75
     0
 76
     0
 77
     5
 78
   300
147
1.0
148
0.0
149
0.0
100
AcDbLayout
  1
Model
 70
     1
 71
     0
 10
-2100.0
 20
-1485.0
 11
2100.0
 21
1485.0
 12
0.0
 22
0.0
 32
0.0
 14
-2100.0
 24
-1485.0
 34
0.0
 15
2100.0
 25
1485.0
 35
0.0
146
0.0
 13
0.0
 23
0.0
 33
0.0
 16
1.0
 26
0.0
 36
0.0
 17
0.0
 27
1.0
 37
0.0
 76
     0
330
1F
331
29
  0
MATERIAL
  5
45
102
{ACAD_REACTORS
330
43
102
}
102
{ACAD_XDICTIONARY
360
45A
102
}
330
43
100
AcDbMaterial
  1
ByBlock
  0
MATERIAL
  5
44
102
{ACAD_REACTORS
330
43
102
}
102
{ACAD_XDICTIONARY
360
458
102
}
330
43
100
AcDbMaterial
  1
ByLayer
  0
MATERIAL
  5
46
102
{ACAD_REACTORS
330
43
102
}
102
{ACAD_XDICTIONARY
360
45C
102
}
330
43
100
AcDbMaterial
  1
Global
  0
MLEADERSTYLE
  5
6C
102
{ACAD_REACTORS
330
6B
102
}
102
{ACAD_XDICTIONARY
360
462
102
}
330
6B
100
AcDbMLeaderStyle
170
     2
171
     1
172
     0
 90
        2
 40
0.0
 41
0.0
173
     1
 91
-1056964608
340
14
 92
       -2
290
     1
 42
2.0
291
     1
 43
8.0
  3
Standard
341
0
 44
4.0
300

342
11
174
     1
178
     6
175
     1
176
     0
 93
-1056964608
 45
4.0
292
     0
297
     0
 46
4.0
343
0
 94
-1056964608
 47
1.0
 49
1.0
140
1.0
293
     1
141
0.0
294
     1
177
     0
142
1.0
295
     0
296
     0
143
3.75
1001
ACAD_MLEADERVER
1070
     2
  0
MLINESTYLE
  5
18
102
{ACAD_REACTORS
330
17
102
}
330
17
100
AcDbMlineStyle
  2
Standard
 70
     0
  3

 62
   256
 51
90.0
 52
90.0
 71
     2
 49
0.5
 62
   256
  6
BYLAYER
 49
-0.5
 62
   256
  6
BYLAYER
  0
ACDBPLACEHOLDER
  5
F
102
{ACAD_REACTORS
330
E
102
}
330
E
  0
SCALE
  5
48
102
{ACAD_REACTORS
330
47
102
}
330
47
100
AcDbScale
 70
     0
300
1:1
140
1.0
141
1.0
290
     1
  0
SCALE
  5
49
102
{ACAD_REACTORS
330
47
102
}
330
47
100
AcDbScale
 70
     0
300
1:2
140
1.0
141
2.0
290
     0
  0
SCALE
  5
4A
102
{ACAD_REACTORS
330
47
102
}
330
47
100
AcDbScale
 70
     0
300
1:4
140
1.0
141
4.0
290
     0
  0
SCALE
  5
4B
102
{ACAD_REACTORS
330
47
102
}
330
47
100
AcDbScale
 70
     0
300
1:5
140
1.0
141
5.0
290
     0
  0
SCALE
  5
4C
102
{ACAD_REACTORS
330
47
102
}
330
47
100
AcDbScale
 70
     0
300
1:8
140
1.0
141
8.0
290
     0
  0
SCALE
  5
4D
102
{ACAD_REACTORS
330
47
102
}
330
47
100
AcDbScale
 70
     0
300
1:10
140
1.0
141
10.0
290
     0
  0
SCALE
  5
4E
102
{ACAD_REACTORS
330
47
102
}
330
47
100
AcDbScale
 70
     0
300
1:16
140
1.0
141
16.0
290
     0
  0
SCALE
  5
4F
102
{ACAD_REACTORS
330
47
102
}
330
47
100
AcDbScale
 70
     0
300
1:20
140
1.0
141
20.0
290
     0
  0
SCALE
  5
50
102
{ACAD_REACTORS
330
47
102
}
330
47
100
AcDbScale
 70
     0
300
1:30
140
1.0
141
30.0
290
     0
  0
SCALE
  5
51
102
{ACAD_REACTORS
330
47
102
}
330
47
100
AcDbScale
 70
     0
300
1:40
140
1.0
141
40.0
290
     0
  0
SCALE
  5
52
102
{ACAD_REACTORS
330
47
102
}
330
47
100
AcDbScale
 70
     0
300
1:50
140
1.0
141
50.0
290
     0
  0
SCALE
  5
53
102
{ACAD_REACTORS
330
47
102
}
330
47
100
AcDbScale
 70
     0
300
1:100
140
1.0
141
100.0
290
     0
  0
SCALE
  5
54
102
{ACAD_REACTORS
330
47
102
}
330
47
100
AcDbScale
 70
     0
300
2:1
140
2.0
141
1.0
290
     0
  0
SCALE
  5
55
102
{ACAD_REACTORS
330
47
102
}
330
47
100
AcDbScale
 70
     0
300
4:1
140
4.0
141
1.0
290
     0
  0
SCALE
  5
56
102
{ACAD_REACTORS
330
47
102
}
330
47
100
AcDbScale
 70
     0
300
8:1
140
8.0
141
1.0
290
     0
  0
SCALE
  5
57
102
{ACAD_REACTORS
330
47
102
}
330
47
100
AcDbScale
 70
     0
300
10:1
140
10.0
141
1.0
290
     0
  0
SCALE
  5
58
102
{ACAD_REACTORS
330
47
102
}
330
47
100
AcDbScale
 70
     0
300
100:1
140
100.0
141
1.0
290
     0
  0
SCALE
  5
59
102
{ACAD_REACTORS
330
47
102
}
330
47
100
AcDbScale
 70
     0
300
1/128" = 1'-0"
140
0.0078125
141
12.0
290
     0
  0
SCALE
  5
5A
102
{ACAD_REACTORS
330
47
102
}
330
47
100
AcDbScale
 70
     0
300
1/64" = 1'-0"
140
0.015625
141
12.0
290
     0
  0
SCALE
  5
5B
102
{ACAD_REACTORS
330
47
102
}
330
47
100
AcDbScale
 70
     0
300
1/32" = 1'-0"
140
0.03125
141
12.0
290
     0
  0
SCALE
  5
5C
102
{ACAD_REACTORS
330
47
102
}
330
47
100
AcDbScale
 70
     0
300
1/16" = 1'-0"
140
0.0625
141
12.0
290
     0
  0
SCALE
  5
5D
102
{ACAD_REACTORS
330
47
102
}
330
47
100
AcDbScale
 70
     0
300
3/32" = 1'-0"
140
0.09375
141
12.0
290
     0
  0
SCALE
  5
5E
102
{ACAD_REACTORS
330
47
102
}
330
47
100
AcDbScale
 70
     0
300
1/8" = 1'-0"
140
0.125
141
12.0
290
     0
  0
SCALE
  5
5F
102
{ACAD_REACTORS
330
47
102
}
330
47
100
AcDbScale
 70
     0
300
3/16" = 1'-0"
140
0.1875
141
12.0
290
     0
  0
SCALE
  5
60
102
{ACAD_REACTORS
330
47
102
}
330
47
100
AcDbScale
 70
     0
300
1/4" = 1'-0"
140
0.25
141
12.0
290
     0
  0
SCALE
  5
61
102
{ACAD_REACTORS
330
47
102
}
330
47
100
AcDbScale
 70
     0
300
3/8" = 1'-0"
140
0.375
141
12.0
290
     0
  0
SCALE
  5
62
102
{ACAD_REACTORS
330
47
102
}
330
47
100
AcDbScale
 70
     0
300
1/2" = 1'-0"
140
0.5
141
12.0
290
     0
  0
SCALE
  5
63
102
{ACAD_REACTORS
330
47
102
}
330
47
100
AcDbScale
 70
     0
300
3/4" = 1'-0"
140
0.75
141
12.0
290
     0
  0
SCALE
  5
64
102
{ACAD_REACTORS
330
47
102
}
330
47
100
AcDbScale
 70
     0
300
1" = 1'-0"
140
1.0
141
12.0
290
     0
  0
SCALE
  5
65
102
{ACAD_REACTORS
330
47
102
}
330
47
100
AcDbScale
 70
     0
300
1-1/2" = 1'-0"
140
1.5
141
12.0
290
     0
  0
SCALE
  5
66
102
{ACAD_REACTORS
330
47
102
}
330
47
100
AcDbScale
 70
     0
300
3" = 1'-0"
140
3.0
141
12.0
290
     0
  0
SCALE
  5
67
102
{ACAD_REACTORS
330
47
102
}
330
47
100
AcDbScale
 70
     0
300
6" = 1'-0"
140
6.0
141
12.0
290
     0
  0
SCALE
  5
68
102
{ACAD_REACTORS
330
47
102
}
330
47
100
AcDbScale
 70
     0
300
1'-0" = 1'-0"
140
12.0
141
12.0
290
     0
  0
TABLESTYLE
  5
6A
102
{ACAD_REACTORS
330
69
102
}
102
{ACAD_XDICTIONARY
360
45E
102
}
330
69
100
AcDbTableStyle
  3
Standard
 70
     0
 71
     0
 40
0.06
 41
0.06
280
     0
281
     0
  7
Standard
140
4.5
170
     2
 62
     0
 63
   257
283
     0
274
    -2
284
     1
 64
     0
275
    -2
285
     1
 65
     0
276
    -2
286
     1
 66
     0
277
    -2
287
     1
 67
     0
278
    -2
288
     1
 68
     0
279
    -2
289
     1
 69
     0
  7
Standard
140
6.0
170
     5
 62
     0
 63
   257
283
     0
274
    -2
284
     1
 64
     0
275
    -2
285
     1
 65
     0
276
    -2
286
     1
 66
     0
277
    -2
287
     1
 67
     0
278
    -2
288
     1
 68
     0
279
    -2
289
     1
 69
     0
  7
Standard
140
4.5
170
     5
 62
     0
 63
   257
283
     0
274
    -2
284
     1
 64
     0
275
    -2
285
     1
 65
     0
276
    -2
286
     1
 66
     0
277
    -2
287
     1
 67
     0
278
    -2
288
     1
 68
     0
279
    -2
289
     1
 69
     0
  0
VISUALSTYLE
  5
2F
102
{ACAD_REACTORS
330
2A
102
}
102
{ACAD_XDICTIONARY
360
430
102
}
330
2A
100
AcDbVisualStyle
  2
2dWireframe
 70
     4
 71
     0
 72
     2
 73
     0
 90
        0
 40
0.6
 41
30.0
 62
     5
 63
     7
421
 16777215
 74
     1
 91
        4
 64
     7
 65
   257
 75
     1
175
     1
 42
1.0
 92
        0
 66
   257
 43
1.0
 76
     1
 77
     6
 78
     2
 67
     7
 79
     5
170
     0
171
     0
290
     0
174
     0
 93
        1
 44
0.0
173
     0
291
     0
 45
0.0
1001
ACAD
1000
AcDbSavedByObjectVersion
1070
     0
  0
VISUALSTYLE
  5
32
102
{ACAD_REACTORS
330
2A
102
}
102
{ACAD_XDICTIONARY
360
436
102
}
330
2A
100
AcDbVisualStyle
  2
Basic
 70
     7
 71
     1
 72
     0
 73
     1
 90
        0
 40
0.6
 41
30.0
 62
     5
 63
     7
421
 16777215
 74
     0
 91
        4
 64
     7
 65
   257
 75
     1
175
     1
 42
1.0
 92
        8
 66
     7
 43
1.0
 76
     1
 77
     6
 78
     2
 67
     7
 79
     5
170
     0
171
     0
290
     0
174
     0
 93
        1
 44
0.0
173
     0
291
     1
 45
0.0
1001
ACAD
1000
AcDbSavedByObjectVersion
1070
     0
  0
VISUALSTYLE
  5
36
102
{ACAD_REACTORS
330
2A
102
}
102
{ACAD_XDICTIONARY
360
43E
102
}
330
2A
100
AcDbVisualStyle
  2
Brighten
 70
    12
 71
     2
 72
     2
 73
     0
 90
        0
 40
0.6
 41
30.0
 62
     5
 63
     7
421
 16777215
 74
     1
 91
        4
 64
     7
 65
   257
 75
     1
175
     1
 42
1.0
 92
        8
 66
     7
 43
1.0
 76
     1
 77
     6
 78
     2
 67
     7
 79
     5
170
     0
171
     0
290
     0
174
     0
 93
        1
 44
50.0
173
     0
291
     1
 45
0.0
1001
ACAD
1000
AcDbSavedByObjectVersion
1070
     0
  0
VISUALSTYLE
  5
3A
102
{ACAD_REACTORS
330
2A
102
}
102
{ACAD_XDICTIONARY
360
446
102
}
330
2A
100
AcDbVisualStyle
  2
ColorChange
 70
    16
 71
     2
 72
     2
 73
     3
 90
        0
 40
0.6
 41
30.0
 62
     5
 63
     8
421
  8421504
 74
     1
 91
        4
 64
     7
 65
   257
 75
     1
175
     1
 42
1.0
 92
        8
 66
     8
424
  8421504
 43
1.0
 76
     1
 77
     6
 78
     2
 67
     7
 79
     5
170
     0
171
     0
290
     0
174
     0
 93
        1
 44
0.0
173
     0
291
     1
 45
0.0
1001
ACAD
1000
AcDbSavedByObjectVersion
1070
     0
  0
VISUALSTYLE
  5
34
102
{ACAD_REACTORS
330
2A
102
}
102
{ACAD_XDICTIONARY
360
43A
102
}
330
2A
100
AcDbVisualStyle
  2
Conceptual
 70
     9
 71
     3
 72
     2
 73
     0
 90
        0
 40
0.6
 41
30.0
 62
     5
 63
     7
421
 16777215
 74
     2
 91
        2
 64
     7
 65
   257
 75
     1
175
     1
 42
179.0
 92
        8
 66
     7
 43
1.0
 76
     1
 77
     6
 78
     2
 67
     7
 79
     3
170
     0
171
     0
290
     0
174
     0
 93
        1
 44
0.0
173
     0
291
     0
 45
0.0
1001
ACAD
1000
AcDbSavedByObjectVersion
1070
     0
  0
VISUALSTYLE
  5
35
102
{ACAD_REACTORS
330
2A
102
}
102
{ACAD_XDICTIONARY
360
43C
102
}
330
2A
100
AcDbVisualStyle
  2
Dim
 70
    11
 71
     2
 72
     2
 73
     0
 90
        0
 40
0.6
 41
30.0
 62
     5
 63
     7
421
 16777215
 74
     1
 91
        4
 64
     7
 65
   257
 75
     1
175
     1
 42
1.0
 92
        8
 66
     7
 43
1.0
 76
     1
 77
     6
 78
     2
 67
     7
 79
     5
170
     0
171
     0
290
     0
174
     0
 93
        1
 44
-50.0
173
     0
291
     1
 45
0.0
1001
ACAD
1000
AcDbSavedByObjectVersion
1070
     0
  0
VISUALSTYLE
  5
3D
102
{ACAD_REACTORS
330
2A
102
}
102
{ACAD_XDICTIONARY
360
44C
102
}
330
2A
100
AcDbVisualStyle
  2
EdgeColorOff
 70
    22
 71
     2
 72
     2
 73
     0
 90
        0
 40
0.6
 41
30.0
 62
     5
 63
     7
421
 16777215
 74
     1
 91
        4
 64
     7
 65
   257
 75
     1
175
     1
 42
1.0
 92
        8
 66
     7
 43
1.0
 76
     1
 77
     6
 78
     2
 67
     7
 79
     5
170
     0
171
     0
290
     0
174
     0
 93
        1
 44
0.0
173
     0
291
     1
 45
0.0
1001
ACAD
1000
AcDbSavedByObjectVersion
1070
     0
  0
VISUALSTYLE
  5
39
102
{ACAD_REACTORS
330
2A
102
}
102
{ACAD_XDICTIONARY
360
444
102
}
330
2A
100
AcDbVisualStyle
  2
Facepattern
 70
    15
 71
     2
 72
     2
 73
     0
 90
        0
 40
0.6
 41
30.0
 62
     5
 63
     7
421
 16777215
 74
     1
 91
        4
 64
     7
 65
   257
 75
     1
175
     1
 42
1.0
 92
        8
 66
     7
 43
1.0
 76
     1
 77
     6
 78
     2
 67
     7
 79
     5
170
     0
171
     0
290
     0
174
     0
 93
        1
 44
0.0
173
     0
291
     1
 45
0.0
1001
ACAD
1000
AcDbSavedByObjectVersion
1070
     0
  0
VISUALSTYLE
  5
2B
102
{ACAD_REACTORS
330
2A
102
}
102
{ACAD_XDICTIONARY
360
428
102
}
330
2A
100
AcDbVisualStyle
  2
Flat
 70
     0
 71
     2
 72
     1
 73
     1
 90
        2
 40
0.6
 41
30.0
 62
     5
 63
     7
421
 16777215
 74
     0
 91
        0
 64
     7
 65
   257
 75
     1
175
     1
 42
1.0
 92
        8
 66
     7
 43
1.0
 76
     1
 77
     6
 78
     2
 67
     7
 79
     5
170
     0
171
     0
290
     0
174
     0
 93
       13
 44
0.0
173
     0
291
     1
 45
0.0
1001
ACAD
1000
AcDbSavedByObjectVersion
1070
     0
  0
VISUALSTYLE
  5
2C
102
{ACAD_REACTORS
330
2A
102
}
102
{ACAD_XDICTIONARY
360
42A
102
}
330
2A
100
AcDbVisualStyle
  2
FlatWithEdges
 70
     1
 71
     2
 72
     1
 73
     1
 90
        2
 40
0.6
 41
30.0
 62
     5
 63
     7
421
 16777215
 74
     1
 91
        0
 64
     7
 65
   257
 75
     1
175
     1
 42
1.0
 92
        0
 66
   257
 43
1.0
 76
     1
 77
     6
 78
     2
 67
     7
 79
     5
170
     0
171
     0
290
     0
174
     0
 93
       13
 44
0.0
173
     0
291
     1
 45
0.0
1001
ACAD
1000
AcDbSavedByObjectVersion
1070
     0
  0
VISUALSTYLE
  5
2D
102
{ACAD_REACTORS
330
2A
102
}
102
{ACAD_XDICTIONARY
360
42C
102
}
330
2A
100
AcDbVisualStyle
  2
Gouraud
 70
     2
 71
     2
 72
     2
 73
     1
 90
        2
 40
0.6
 41
30.0
 62
     5
 63
     7
421
 16777215
 74
     0
 91
        0
 64
     7
 65
   257
 75
     1
175
     1
 42
1.0
 92
        0
 66
     7
 43
1.0
 76
     1
 77
     6
 78
     2
 67
     7
 79
     5
170
     0
171
     0
290
     0
174
     0
 93
       13
 44
0.0
173
     0
291
     1
 45
0.0
1001
ACAD
1000
AcDbSavedByObjectVersion
1070
     0
  0
VISUALSTYLE
  5
2E
102
{ACAD_REACTORS
330
2A
102
}
102
{ACAD_XDICTIONARY
360
42E
102
}
330
2A
100
AcDbVisualStyle
  2
GouraudWithEdges
 70
     3
 71
     2
 72
     2
 73
     1
 90
        2
 40
0.6
 41
30.0
 62
     5
 63
     7
421
 16777215
 74
     1
 91
        0
 64
     7
 65
   257
 75
     1
175
     1
 42
1.0
 92
        0
 66
   257
 43
1.0
 76
     1
 77
     6
 78
     2
 67
     7
 79
     5
170
     0
171
     0
290
     0
174
     0
 93
       13
 44
0.0
173
     0
291
     1
 45
0.0
1001
ACAD
1000
AcDbSavedByObjectVersion
1070
     0
  0
VISUALSTYLE
  5
31
102
{ACAD_REACTORS
330
2A
102
}
102
{ACAD_XDICTIONARY
360
434
102
}
330
2A
100
AcDbVisualStyle
  2
Hidden
 70
     6
 71
     1
 72
     2
 73
     2
 90
        0
 40
0.6
 41
30.0
 62
     5
 63
     7
421
 16777215
 74
     2
 91
        2
 64
     7
 65
   257
 75
     2
175
     1
 42
40.0
 92
        0
 66
   257
 43
1.0
 76
     1
 77
     6
 78
     2
 67
     7
 79
     3
170
     0
171
     0
290
     0
174
     0
 93
        1
 44
0.0
173
     0
291
     0
 45
0.0
1001
ACAD
1000
AcDbSavedByObjectVersion
1070
     0
  0
VISUALSTYLE
  5
3B
102
{ACAD_REACTORS
330
2A
102
}
102
{ACAD_XDICTIONARY
360
448
102
}
330
2A
100
AcDbVisualStyle
  2
JitterOff
 70
    20
 71
     2
 72
     2
 73
     0
 90
        0
 40
0.6
 41
30.0
 62
     5
 63
     7
421
 16777215
 74
     1
 91
        4
 64
     7
 65
   257
 75
     1
175
     1
 42
1.0
 92
       10
 66
     7
 43
1.0
 76
     1
 77
     6
 78
     2
 67
     7
 79
     5
170
     0
171
     0
290
     0
174
     0
 93
        1
 44
0.0
173
     0
291
     1
 45
0.0
1001
ACAD
1000
AcDbSavedByObjectVersion
1070
     0
  0
VISUALSTYLE
  5
38
102
{ACAD_REACTORS
330
2A
102
}
102
{ACAD_XDICTIONARY
360
442
102
}
330
2A
100
AcDbVisualStyle
  2
Linepattern
 70
    14
 71
     2
 72
     2
 73
     0
 90
        0
 40
0.6
 41
30.0
 62
     5
 63
     7
421
 16777215
 74
     1
 91
        4
 64
     7
 65
   257
 75
     7
175
     7
 42
1.0
 92
        8
 66
     7
 43
1.0
 76
     1
 77
     6
 78
     2
 67
     7
 79
     5
170
     0
171
     0
290
     0
174
     0
 93
        1
 44
0.0
173
     0
291
     1
 45
0.0
1001
ACAD
1000
AcDbSavedByObjectVersion
1070
     0
  0
VISUALSTYLE
  5
3C
102
{ACAD_REACTORS
330
2A
102
}
102
{ACAD_XDICTIONARY
360
44A
102
}
330
2A
100
AcDbVisualStyle
  2
OverhangOff
 70
    21
 71
     2
 72
     2
 73
     0
 90
        0
 40
0.6
 41
30.0
 62
     5
 63
     7
421
 16777215
 74
     1
 91
        4
 64
     7
 65
   257
 75
     1
175
     1
 42
1.0
 92
        9
 66
     7
 43
1.0
 76
     1
 77
     6
 78
     2
 67
     7
 79
     5
170
     0
171
     0
290
     0
174
     0
 93
        1
 44
0.0
173
     0
291
     1
 45
0.0
1001
ACAD
1000
AcDbSavedByObjectVersion
1070
     0
  0
VISUALSTYLE
  5
33
102
{ACAD_REACTORS
330
2A
102
}
102
{ACAD_XDICTIONARY
360
438
102
}
330
2A
100
AcDbVisualStyle
  2
Realistic
 70
     8
 71
     2
 72
     3
 73
     0
 90
        2
 40
0.6
 41
30.0
 62
     5
 63
     7
421
 16777215
 74
     0
 91
        0
 64
     7
 65
   257
 75
     1
175
     1
 42
1.0
 92
        8
 66
   257
 43
1.0
 76
     1
 77
     6
 78
     2
 67
     7
 79
     3
170
     0
171
     0
290
     0
174
     0
 93
       13
 44
0.0
173
     0
291
     0
 45
0.0
1001
ACAD
1000
AcDbSavedByObjectVersion
1070
     0
  0
VISUALSTYLE
  5
42
102
{ACAD_REACTORS
330
2A
102
}
102
{ACAD_XDICTIONARY
360
456
102
}
330
2A
100
AcDbVisualStyle
  2
Shaded
 70
    27
 71
     2
 72
     2
 73
     1
 90
        2
 40
0.6
 41
30.0
 62
     5
 63
     7
421
 16777215
 74
     0
 91
        4
 64
     7
 65
   257
 75
     1
175
     1
 42
1.0
 92
        8
 66
   257
 43
1.0
 76
     1
 77
     6
 78
     2
 67
     8
425
  7895160
 79
     3
170
     0
171
     0
290
     0
174
     0
 93
        5
 44
0.0
173
     0
291
     0
 45
0.0
1001
ACAD
1000
AcDbSavedByObjectVersion
1070
     0
  0
VISUALSTYLE
  5
41
102
{ACAD_REACTORS
330
2A
102
}
102
{ACAD_XDICTIONARY
360
454
102
}
330
2A
100
AcDbVisualStyle
  2
Shaded with edges
 70
    26
 71
     2
 72
     2
 73
     1
 90
        2
 40
0.6
 41
30.0
 62
     5
 63
     7
421
 16777215
 74
     1
 91
       10
 64
     7
 65
   257
 75
     2
175
     1
 42
1.0
 92
        8
 66
   257
 43
1.0
 76
     1
 77
     6
 78
     2
 67
     7
 79
     3
170
     0
171
     0
290
     0
174
     0
 93
        5
 44
0.0
173
     0
291
     0
 45
0.0
1001
ACAD
1000
AcDbSavedByObjectVersion
1070
     0
  0
VISUALSTYLE
  5
3E
102
{ACAD_REACTORS
330
2A
102
}
102
{ACAD_XDICTIONARY
360
44E
102
}
330
2A
100
AcDbVisualStyle
  2
Shades of Gray
 70
    23
 71
     2
 72
     2
 73
     3
 90
        0
 40
0.6
 41
30.0
 62
     5
 63
     7
421
 16777215
 74
     2
 91
        2
 64
     7
 65
     7
 75
     1
175
     1
 42
40.0
 92
        8
 66
     7
 43
1.0
 76
     1
 77
     6
 78
     2
 67
     7
 79
     3
170
     0
171
     0
290
     0
174
     0
 93
        1
 44
0.0
173
     0
291
     0
 45
0.0
1001
ACAD
1000
AcDbSavedByObjectVersion
1070
     0
  0
VISUALSTYLE
  5
3F
102
{ACAD_REACTORS
330
2A
102
}
102
{ACAD_XDICTIONARY
360
450
102
}
330
2A
100
AcDbVisualStyle
  2
Sketchy
 70
    24
 71
     1
 72
     2
 73
     2
 90
        0
 40
0.6
 41
30.0
 62
     5
 63
     7
421
 16777215
 74
     2
 91
        2
 64
     7
 65
     7
 75
     1
175
     1
 42
40.0
 92
       11
 66
     7
 43
1.0
 76
     1
 77
     6
 78
     2
 67
     7
 79
     6
170
     0
171
     0
290
     0
174
     0
 93
        1
 44
0.0
173
     0
291
     0
 45
0.0
1001
ACAD
1000
AcDbSavedByObjectVersion
1070
     0
  0
VISUALSTYLE
  5
37
102
{ACAD_REACTORS
330
2A
102
}
102
{ACAD_XDICTIONARY
360
440
102
}
330
2A
100
AcDbVisualStyle
  2
Thicken
 70
    13
 71
     2
 72
     2
 73
     0
 90
        0
 40
0.6
 41
30.0
 62
     5
 63
     7
421
 16777215
 74
     1
 91
        4
 64
     7
 65
   257
 75
     1
175
     1
 42
1.0
 92
       12
 66
     7
 43
1.0
 76
     1
 77
     6
 78
     2
 67
     7
 79
     5
170
     0
171
     0
290
     0
174
     0
 93
        1
 44
0.0
173
     0
291
     1
 45
0.0
1001
ACAD
1000
AcDbSavedByObjectVersion
1070
     0
  0
VISUALSTYLE
  5
30
102
{ACAD_REACTORS
330
2A
102
}
102
{ACAD_XDICTIONARY
360
432
102
}
330
2A
100
AcDbVisualStyle
  2
Wireframe
 70
     5
 71
     0
 72
     2
 73
     0
 90
        0
 40
0.6
 41
30.0
 62
     5
 63
     7
421
 16777215
 74
     1
 91
        4
 64
     7
 65
   257
 75
     1
175
     1
 42
1.0
 92
        0
 66
   257
 43
1.0
 76
     1
 77
     6
 78
     2
 67
     7
 79
     3
170
     0
171
     0
290
     0
174
     0
 93
        1
 44
0.0
173
     0
291
     0
 45
0.0
1001
ACAD
1000
AcDbSavedByObjectVersion
1070
     0
  0
VISUALSTYLE
  5
40
102
{ACAD_REACTORS
330
2A
102
}
102
{ACAD_XDICTIONARY
360
452
102
}
330
2A
100
AcDbVisualStyle
  2
X-Ray
 70
    25
 71
     2
 72
     2
 73
     1
 90
        1
 40
0.5
 41
30.0
 62
     5
 63
     7
421
 16777215
 74
     1
 91
        0
 64
     7
 65
   257
 75
     1
175
     1
 42
1.0
 92
        8
 66
     7
 43
1.0
 76
     1
 77
     6
 78
     2
 67
     7
 79
     3
170
     0
171
     0
290
     0
174
     0
 93
       13
 44
0.0
173
     0
291
     0
 45
0.0
1001
ACAD
1000
AcDbSavedByObjectVersion
1070
     0
  0
DICTIONARYVAR
  5
425
102
{ACAD_REACTORS
330
424
102
}
330
424
100
DictionaryVariables
280
     0
  1
1:1
  0
DICTIONARYVAR
  5
469
102
{ACAD_REACTORS
330
424
102
}
330
424
100
DictionaryVariables
280
     0
  1
3.500000
  0
DICTIONARYVAR
  5
46A
102
{ACAD_REACTORS
330
424
102
}
330
424
100
DictionaryVariables
280
     0
  1
acadiso.lin
  0
DICTIONARYVAR
  5
466
102
{ACAD_REACTORS
330
424
102
}
330
424
100
DictionaryVariables
280
     0
  1
Standard
  0
DICTIONARYVAR
  5
465
102
{ACAD_REACTORS
330
424
102
}
330
424
100
DictionaryVariables
280
     0
  1
Standard
  0
DICTIONARYVAR
  5
426
102
{ACAD_REACTORS
330
424
102
}
330
424
100
DictionaryVariables
280
     0
  1
1
  0
DICTIONARYVAR
  5
427
102
{ACAD_REACTORS
330
424
102
}
330
424
100
DictionaryVariables
280
     0
  1
2
  0
DICTIONARY
  5
45A
330
45
100
AcDbDictionary
280
     1
281
     1
  3
ACAD_XREC_ROUNDTRIP
360
45B
  0
DICTIONARY
  5
458
330
44
100
AcDbDictionary
280
     1
281
     1
  3
ACAD_XREC_ROUNDTRIP
360
459
  0
DICTIONARY
  5
45C
330
46
100
AcDbDictionary
280
     1
281
     1
  3
ACAD_XREC_ROUNDTRIP
360
45D
  0
DICTIONARY
  5
462
330
6C
100
AcDbDictionary
280
     1
281
     1
  3
ACAD_XREC_ROUNDTRIP
360
463
  0
DICTIONARY
  5
45E
330
6A
100
AcDbDictionary
280
     1
281
     1
  3
ACAD_ROUNDTRIP_2008_TABLESTYLE_CELLSTYLEMAP
360
460
  3
ACAD_XREC_ROUNDTRIP
360
45F
  0
DICTIONARY
  5
430
330
2F
100
AcDbDictionary
280
     1
281
     1
  3
ACAD_XREC_ROUNDTRIP
360
431
  0
DICTIONARY
  5
436
330
32
100
AcDbDictionary
280
     1
281
     1
  3
ACAD_XREC_ROUNDTRIP
360
437
  0
DICTIONARY
  5
43E
330
36
100
AcDbDictionary
280
     1
281
     1
  3
ACAD_XREC_ROUNDTRIP
360
43F
  0
DICTIONARY
  5
446
330
3A
100
AcDbDictionary
280
     1
281
     1
  3
ACAD_XREC_ROUNDTRIP
360
447
  0
DICTIONARY
  5
43A
330
34
100
AcDbDictionary
280
     1
281
     1
  3
ACAD_XREC_ROUNDTRIP
360
43B
  0
DICTIONARY
  5
43C
330
35
100
AcDbDictionary
280
     1
281
     1
  3
ACAD_XREC_ROUNDTRIP
360
43D
  0
DICTIONARY
  5
44C
330
3D
100
AcDbDictionary
280
     1
281
     1
  3
ACAD_XREC_ROUNDTRIP
360
44D
  0
DICTIONARY
  5
444
330
39
100
AcDbDictionary
280
     1
281
     1
  3
ACAD_XREC_ROUNDTRIP
360
445
  0
DICTIONARY
  5
428
330
2B
100
AcDbDictionary
280
     1
281
     1
  3
ACAD_XREC_ROUNDTRIP
360
429
  0
DICTIONARY
  5
42A
330
2C
100
AcDbDictionary
280
     1
281
     1
  3
ACAD_XREC_ROUNDTRIP
360
42B
  0
DICTIONARY
  5
42C
330
2D
100
AcDbDictionary
280
     1
281
     1
  3
ACAD_XREC_ROUNDTRIP
360
42D
  0
DICTIONARY
  5
42E
330
2E
100
AcDbDictionary
280
     1
281
     1
  3
ACAD_XREC_ROUNDTRIP
360
42F
  0
DICTIONARY
  5
434
330
31
100
AcDbDictionary
280
     1
281
     1
  3
ACAD_XREC_ROUNDTRIP
360
435
  0
DICTIONARY
  5
448
330
3B
100
AcDbDictionary
280
     1
281
     1
  3
ACAD_XREC_ROUNDTRIP
360
449
  0
DICTIONARY
  5
442
330
38
100
AcDbDictionary
280
     1
281
     1
  3
ACAD_XREC_ROUNDTRIP
360
443
  0
DICTIONARY
  5
44A
330
3C
100
AcDbDictionary
280
     1
281
     1
  3
ACAD_XREC_ROUNDTRIP
360
44B
  0
DICTIONARY
  5
438
330
33
100
AcDbDictionary
280
     1
281
     1
  3
ACAD_XREC_ROUNDTRIP
360
439
  0
DICTIONARY
  5
456
330
42
100
AcDbDictionary
280
     1
281
     1
  3
ACAD_XREC_ROUNDTRIP
360
457
  0
DICTIONARY
  5
454
330
41
100
AcDbDictionary
280
     1
281
     1
  3
ACAD_XREC_ROUNDTRIP
360
455
  0
DICTIONARY
  5
44E
330
3E
100
AcDbDictionary
280
     1
281
     1
  3
ACAD_XREC_ROUNDTRIP
360
44F
  0
DICTIONARY
  5
450
330
3F
100
AcDbDictionary
280
     1
281
     1
  3
ACAD_XREC_ROUNDTRIP
360
451
  0
DICTIONARY
  5
440
330
37
100
AcDbDictionary
280
     1
281
     1
  3
ACAD_XREC_ROUNDTRIP
360
441
  0
DICTIONARY
  5
432
330
30
100
AcDbDictionary
280
     1
281
     1
  3
ACAD_XREC_ROUNDTRIP
360
433
  0
DICTIONARY
  5
452
330
40
100
AcDbDictionary
280
     1
281
     1
  3
ACAD_XREC_ROUNDTRIP
360
453
  0
XRECORD
  5
45B
102
{ACAD_REACTORS
330
45A
102
}
330
45A
100
AcDbXrecord
280
     1
102
MATERIAL
148
0.0
149
0.0
149
0.0
 93
        0
 94
      127
282
     0
 72
     1
 77
     1
171
     1
175
     1
179
     1
273
     0
  0
XRECORD
  5
459
102
{ACAD_REACTORS
330
458
102
}
330
458
100
AcDbXrecord
280
     1
102
MATERIAL
148
0.0
149
0.0
149
0.0
 93
        0
 94
      127
282
     0
 72
     1
 77
     1
171
     1
175
     1
179
     1
273
     0
  0
XRECORD
  5
45D
102
{ACAD_REACTORS
330
45C
102
}
330
45C
100
AcDbXrecord
280
     1
102
MATERIAL
148
0.0
149
0.0
149
0.0
 93
        0
 94
      127
282
     0
 72
     1
 77
     1
171
     1
175
     1
179
     1
273
     0
  0
XRECORD
  5
463
102
{ACAD_REACTORS
330
462
102
}
330
462
100
AcDbXrecord
280
     1
102
ACAD_ROUNDTRIP_2010_MLEADER_STYLE
  0
CELLSTYLEMAP
  5
460
102
{ACAD_REACTORS
330
45E
102
}
330
45E
100
AcDbCellStyleMap
 90
        3
300
CELLSTYLE
  1
TABLEFORMAT_BEGIN
 90
        5
170
     1
 91
        0
 92
    32768
 62
   257
 93
        1
300
CONTENTFORMAT
  1
CONTENTFORMAT_BEGIN
 90
        0
 91
        0
 92
        4
 93
        0
300

 40
0.0
140
1.0
 94
        5
 62
     0
340
11
144
6.0
309
CONTENTFORMAT_END
171
     1
301
MARGIN
  1
CELLMARGIN_BEGIN
 40
1.5
 40
1.5
 40
1.5
 40
1.5
 40
1.5
 40
1.5
309
CELLMARGIN_END
 94
        6
 95
        1
302
GRIDFORMAT
  1
GRIDFORMAT_BEGIN
 90
        0
 91
        1
 62
     0
 92
       -2
340
14
 93
        0
 40
0.045
309
GRIDFORMAT_END
 95
        2
302
GRIDFORMAT
  1
GRIDFORMAT_BEGIN
 90
        0
 91
        1
 62
     0
 92
       -2
340
14
 93
        0
 40
0.045
309
GRIDFORMAT_END
 95
        4
302
GRIDFORMAT
  1
GRIDFORMAT_BEGIN
 90
        0
 91
        1
 62
     0
 92
       -2
340
14
 93
        0
 40
0.045
309
GRIDFORMAT_END
 95
        8
302
GRIDFORMAT
  1
GRIDFORMAT_BEGIN
 90
        0
 91
        1
 62
     0
 92
       -2
340
14
 93
        0
 40
0.045
309
GRIDFORMAT_END
 95
       16
302
GRIDFORMAT
  1
GRIDFORMAT_BEGIN
 90
        0
 91
        1
 62
     0
 92
       -2
340
14
 93
        0
 40
0.045
309
GRIDFORMAT_END
 95
       32
302
GRIDFORMAT
  1
GRIDFORMAT_BEGIN
 90
        0
 91
        1
 62
     0
 92
       -2
340
14
 93
        0
 40
0.045
309
GRIDFORMAT_END
309
TABLEFORMAT_END
  1
CELLSTYLE_BEGIN
 90
        1
 91
        1
300
_TITLE
309
CELLSTYLE_END
300
CELLSTYLE
  1
TABLEFORMAT_BEGIN
 90
        5
170
     1
 91
        0
 92
        0
 62
   257
 93
        1
300
CONTENTFORMAT
  1
CONTENTFORMAT_BEGIN
 90
        0
 91
        0
 92
        4
 93
        0
300

 40
0.0
140
1.0
 94
        5
 62
     0
340
11
144
4.5
309
CONTENTFORMAT_END
171
     1
301
MARGIN
  1
CELLMARGIN_BEGIN
 40
1.5
 40
1.5
 40
1.5
 40
1.5
 40
1.5
 40
1.5
309
CELLMARGIN_END
 94
        6
 95
        1
302
GRIDFORMAT
  1
GRIDFORMAT_BEGIN
 90
        0
 91
        1
 62
     0
 92
       -2
340
14
 93
        0
 40
0.045
309
GRIDFORMAT_END
 95
        2
302
GRIDFORMAT
  1
GRIDFORMAT_BEGIN
 90
        0
 91
        1
 62
     0
 92
       -2
340
14
 93
        0
 40
0.045
309
GRIDFORMAT_END
 95
        4
302
GRIDFORMAT
  1
GRIDFORMAT_BEGIN
 90
        0
 91
        1
 62
     0
 92
       -2
340
14
 93
        0
 40
0.045
309
GRIDFORMAT_END
 95
        8
302
GRIDFORMAT
  1
GRIDFORMAT_BEGIN
 90
        0
 91
        1
 62
     0
 92
       -2
340
14
 93
        0
 40
0.045
309
GRIDFORMAT_END
 95
       16
302
GRIDFORMAT
  1
GRIDFORMAT_BEGIN
 90
        0
 91
        1
 62
     0
 92
       -2
340
14
 93
        0
 40
0.045
309
GRIDFORMAT_END
 95
       32
302
GRIDFORMAT
  1
GRIDFORMAT_BEGIN
 90
        0
 91
        1
 62
     0
 92
       -2
340
14
 93
        0
 40
0.045
309
GRIDFORMAT_END
309
TABLEFORMAT_END
  1
CELLSTYLE_BEGIN
 90
        2
 91
        1
300
_HEADER
309
CELLSTYLE_END
300
CELLSTYLE
  1
TABLEFORMAT_BEGIN
 90
        5
170
     1
 91
        0
 92
        0
 62
   257
 93
        1
300
CONTENTFORMAT
  1
CONTENTFORMAT_BEGIN
 90
        0
 91
        0
 92
        4
 93
        0
300

 40
0.0
140
1.0
 94
        2
 62
     0
340
11
144
4.5
309
CONTENTFORMAT_END
171
     1
301
MARGIN
  1
CELLMARGIN_BEGIN
 40
1.5
 40
1.5
 40
1.5
 40
1.5
 40
1.5
 40
1.5
309
CELLMARGIN_END
 94
        6
 95
        1
302
GRIDFORMAT
  1
GRIDFORMAT_BEGIN
 90
        0
 91
        1
 62
     0
 92
       -2
340
14
 93
        0
 40
0.045
309
GRIDFORMAT_END
 95
        2
302
GRIDFORMAT
  1
GRIDFORMAT_BEGIN
 90
        0
 91
        1
 62
     0
 92
       -2
340
14
 93
        0
 40
0.045
309
GRIDFORMAT_END
 95
        4
302
GRIDFORMAT
  1
GRIDFORMAT_BEGIN
 90
        0
 91
        1
 62
     0
 92
       -2
340
14
 93
        0
 40
0.045
309
GRIDFORMAT_END
 95
        8
302
GRIDFORMAT
  1
GRIDFORMAT_BEGIN
 90
        0
 91
        1
 62
     0
 92
       -2
340
14
 93
        0
 40
0.045
309
GRIDFORMAT_END
 95
       16
302
GRIDFORMAT
  1
GRIDFORMAT_BEGIN
 90
        0
 91
        1
 62
     0
 92
       -2
340
14
 93
        0
 40
0.045
309
GRIDFORMAT_END
 95
       32
302
GRIDFORMAT
  1
GRIDFORMAT_BEGIN
 90
        0
 91
        1
 62
     0
 92
       -2
340
14
 93
        0
 40
0.045
309
GRIDFORMAT_END
309
TABLEFORMAT_END
  1
CELLSTYLE_BEGIN
 90
        3
 91
        2
300
_DATA
309
CELLSTYLE_END
  0
XRECORD
  5
45F
102
{ACAD_REACTORS
330
45E
102
}
330
45E
100
AcDbXrecord
280
     1
102
ACAD_ROUNDTRIP_PRE2007_TABLESTYLE
 90
        4
 91
        0
  1

 92
        4
 93
        0
  2

 94
        4
 95
        0
  3

  0
XRECORD
  5
431
102
{ACAD_REACTORS
330
430
102
}
330
430
100
AcDbXrecord
280
     1
102
RTVSPropertyOp0
 70
     1
102
RTVSPropertyOp1
 70
     1
102
RTVSPropertyOp2
 70
     1
102
RTVSPropertyOp3
 70
     1
102
RTVSPropertyOp4
 70
     1
102
RTVSPropertyOp5
 70
     1
102
RTVSPropertyOp6
 70
     1
102
RTVSPropertyOp7
 70
     1
102
RTVSPropertyOp8
 70
     1
102
RTVSPropertyOp9
 70
     1
102
RTVSPropertyOp10
 70
     1
102
RTVSPropertyOp11
 70
     1
102
RTVSPropertyOp12
 70
     1
102
RTVSPropertyOp13
 70
     1
102
RTVSPropertyOp14
 70
     1
102
RTVSPropertyOp15
 70
     1
102
RTVSPropertyOp16
 70
     1
102
RTVSPropertyOp17
 70
     1
102
RTVSPropertyOp18
 70
     1
102
RTVSPropertyOp19
 70
     1
102
RTVSPropertyOp20
 70
     1
102
RTVSPropertyOp21
 70
     1
102
RTVSPropertyOp22
 70
     1
102
RTVSPropertyOp23
 70
     1
102
RTVSPropertyOp24
 70
     1
102
RTVSPropertyOp25
 70
     1
102
RTVSPropertyOp26
 70
     1
102
RTVSPropertyOp27
 70
     1
102
RTVSPropertyOp28
 70
     1
102
RTVSPropertyOp29
 70
     1
102
RTVSPropertyOp30
 70
     1
102
RTVSPropertyOp31
 70
     1
102
RTVSPropertyOp32
 70
     1
102
RTVSPropertyOp33
 70
     1
102
RTVSPropertyOp34
 70
     1
102
RTVSPropertyOp35
 70
     1
102
RTVSPropertyOp36
 70
     1
102
RTVSPropertyOp37
 70
     1
102
RTVSPropertyOp38
 70
     1
102
RTVSPropertyOp39
 70
     1
102
RTVSPropertyOp40
 70
     1
102
RTVSPropertyOp41
 70
     1
102
RTVSPropertyOp42
 70
     1
102
RTVSPropertyOp43
 70
     1
102
RTVSPropertyOp44
 70
     1
102
RTVSPropertyOp45
 70
     1
102
RTVSPropertyOp46
 70
     1
102
RTVSPropertyOp47
 70
     1
102
RTVSPropertyOp48
 70
     1
102
RTVSPropertyOp49
 70
     1
102
RTVSPropertyOp50
 70
     1
102
RTVSPropertyOp51
 70
     0
102
RTVSPropertyOp52
 70
     0
102
RTVSPropertyOp53
 70
     1
102
RTVSPropertyOp54
 70
     1
102
RTVSPropertyOp55
 70
     1
102
RTVSPropertyOp56
 70
     1
102
RTVSPropertyOp57
 70
     1
102
RTVSPost2010Prop28
280
     1
102
RTVSPost2010PropOp28
 70
     1
102
RTVSPost2010Prop29
280
     1
102
RTVSPost2010PropOp29
 70
     1
102
RTVSPost2010Prop30
280
     0
102
RTVSPost2010PropOp30
 70
     1
102
RTVSPost2010Prop31
280
     0
102
RTVSPost2010PropOp31
 70
     1
102
RTVSPost2010Prop32
280
     0
102
RTVSPost2010PropOp32
 70
     1
102
RTVSPost2010Prop33
280
     0
102
RTVSPost2010PropOp33
 70
     1
102
RTVSPost2010Prop34
280
     0
102
RTVSPost2010PropOp34
 70
     1
102
RTVSPost2010Prop35
280
     0
102
RTVSPost2010PropOp35
 70
     1
102
RTVSPost2010Prop36
280
     0
102
RTVSPost2010PropOp36
 70
     1
102
RTVSPost2010Prop37
 90
       50
102
RTVSPost2010PropOp37
 70
     1
102
RTVSPost2010Prop38
140
0.0
102
RTVSPost2010PropOp38
 70
     1
102
RTVSPost2010Prop39
140
1.0
102
RTVSPost2010PropOp39
 70
     1
102
RTVSPost2010Prop40
 90
        0
102
RTVSPost2010PropOp40
 70
     1
102
RTVSPost2010Prop41ColorIndex
 90
       18
102
RTVSPost2010Prop41ColorRGB
 90
        0
102
RTVSPost2010PropOp41
 70
     1
102
RTVSPost2010Prop42
 90
       50
102
RTVSPost2010PropOp42
 70
     1
102
RTVSPost2010Prop43
 90
        3
102
RTVSPost2010PropOp43
 70
     1
102
RTVSPost2010Prop44ColorIndex
 90
        5
102
RTVSPost2010Prop44ColorRGB
 90
      255
102
RTVSPost2010PropOp44
 70
     1
102
RTVSPost2010Prop45
280
     0
102
RTVSPost2010PropOp45
 70
     1
102
RTVSPost2010Prop46
 90
       50
102
RTVSPost2010PropOp46
 70
     1
102
RTVSPost2010Prop47
 90
       50
102
RTVSPost2010PropOp47
 70
     1
102
RTVSPost2010Prop48
 90
       50
102
RTVSPost2010PropOp48
 70
     1
102
RTVSPost2010Prop49
280
     0
102
RTVSPost2010PropOp49
 70
     1
102
RTVSPost2010Prop50
 90
       50
102
RTVSPost2010PropOp50
 70
     1
102
RTVSPost2010Prop51ColorIndex
 90
      256
102
RTVSPost2010Prop51ColorRGB
 90
-16777216
102
RTVSPost2010PropOp51
 70
     0
102
RTVSPost2010Prop52
140
1.0
102
RTVSPost2010PropOp52
 70
     0
102
RTVSPost2010Prop53
 90
        2
102
RTVSPost2010PropOp53
 70
     1
102
RTVSPost2010Prop54
  1
strokes_ogs.tif
102
RTVSPost2010PropOp54
 70
     1
102
RTVSPost2010Prop55
280
     0
102
RTVSPost2010PropOp55
 70
     1
102
RTVSPost2010Prop56
140
1.0
102
RTVSPost2010PropOp56
 70
     1
102
RTVSPost2010Prop57
140
1.0
102
RTVSPost2010PropOp57
 70
     1
  0
XRECORD
  5
437
102
{ACAD_REACTORS
330
436
102
}
330
436
100
AcDbXrecord
280
     1
102
RTVSPropertyOp0
 70
     1
102
RTVSPropertyOp1
 70
     1
102
RTVSPropertyOp2
 70
     1
102
RTVSPropertyOp3
 70
     1
102
RTVSPropertyOp4
 70
     1
102
RTVSPropertyOp5
 70
     1
102
RTVSPropertyOp6
 70
     1
102
RTVSPropertyOp7
 70
     1
102
RTVSPropertyOp8
 70
     1
102
RTVSPropertyOp9
 70
     1
102
RTVSPropertyOp10
 70
     1
102
RTVSPropertyOp11
 70
     1
102
RTVSPropertyOp12
 70
     1
102
RTVSPropertyOp13
 70
     1
102
RTVSPropertyOp14
 70
     1
102
RTVSPropertyOp15
 70
     1
102
RTVSPropertyOp16
 70
     1
102
RTVSPropertyOp17
 70
     1
102
RTVSPropertyOp18
 70
     1
102
RTVSPropertyOp19
 70
     1
102
RTVSPropertyOp20
 70
     1
102
RTVSPropertyOp21
 70
     1
102
RTVSPropertyOp22
 70
     1
102
RTVSPropertyOp23
 70
     1
102
RTVSPropertyOp24
 70
     1
102
RTVSPropertyOp25
 70
     1
102
RTVSPropertyOp26
 70
     1
102
RTVSPropertyOp27
 70
     1
102
RTVSPropertyOp28
 70
     1
102
RTVSPropertyOp29
 70
     1
102
RTVSPropertyOp30
 70
     1
102
RTVSPropertyOp31
 70
     1
102
RTVSPropertyOp32
 70
     1
102
RTVSPropertyOp33
 70
     1
102
RTVSPropertyOp34
 70
     1
102
RTVSPropertyOp35
 70
     1
102
RTVSPropertyOp36
 70
     1
102
RTVSPropertyOp37
 70
     1
102
RTVSPropertyOp38
 70
     1
102
RTVSPropertyOp39
 70
     1
102
RTVSPropertyOp40
 70
     1
102
RTVSPropertyOp41
 70
     1
102
RTVSPropertyOp42
 70
     1
102
RTVSPropertyOp43
 70
     1
102
RTVSPropertyOp44
 70
     1
102
RTVSPropertyOp45
 70
     1
102
RTVSPropertyOp46
 70
     1
102
RTVSPropertyOp47
 70
     1
102
RTVSPropertyOp48
 70
     1
102
RTVSPropertyOp49
 70
     1
102
RTVSPropertyOp50
 70
     1
102
RTVSPropertyOp51
 70
     0
102
RTVSPropertyOp52
 70
     0
102
RTVSPropertyOp53
 70
     1
102
RTVSPropertyOp54
 70
     1
102
RTVSPropertyOp55
 70
     1
102
RTVSPropertyOp56
 70
     1
102
RTVSPropertyOp57
 70
     1
102
RTVSPost2010Prop28
280
     0
102
RTVSPost2010PropOp28
 70
     1
102
RTVSPost2010Prop29
280
     1
102
RTVSPost2010PropOp29
 70
     1
102
RTVSPost2010Prop30
280
     1
102
RTVSPost2010PropOp30
 70
     1
102
RTVSPost2010Prop31
280
     0
102
RTVSPost2010PropOp31
 70
     1
102
RTVSPost2010Prop32
280
     0
102
RTVSPost2010PropOp32
 70
     1
102
RTVSPost2010Prop33
280
     0
102
RTVSPost2010PropOp33
 70
     1
102
RTVSPost2010Prop34
280
     0
102
RTVSPost2010PropOp34
 70
     1
102
RTVSPost2010Prop35
280
     0
102
RTVSPost2010PropOp35
 70
     1
102
RTVSPost2010Prop36
280
     0
102
RTVSPost2010PropOp36
 70
     1
102
RTVSPost2010Prop37
 90
       50
102
RTVSPost2010PropOp37
 70
     1
102
RTVSPost2010Prop38
140
0.0
102
RTVSPost2010PropOp38
 70
     1
102
RTVSPost2010Prop39
140
1.0
102
RTVSPost2010PropOp39
 70
     1
102
RTVSPost2010Prop40
 90
        0
102
RTVSPost2010PropOp40
 70
     1
102
RTVSPost2010Prop41ColorIndex
 90
       18
102
RTVSPost2010Prop41ColorRGB
 90
        0
102
RTVSPost2010PropOp41
 70
     1
102
RTVSPost2010Prop42
 90
       50
102
RTVSPost2010PropOp42
 70
     1
102
RTVSPost2010Prop43
 90
        3
102
RTVSPost2010PropOp43
 70
     1
102
RTVSPost2010Prop44ColorIndex
 90
        5
102
RTVSPost2010Prop44ColorRGB
 90
      255
102
RTVSPost2010PropOp44
 70
     1
102
RTVSPost2010Prop45
280
     0
102
RTVSPost2010PropOp45
 70
     1
102
RTVSPost2010Prop46
 90
       50
102
RTVSPost2010PropOp46
 70
     1
102
RTVSPost2010Prop47
 90
       50
102
RTVSPost2010PropOp47
 70
     1
102
RTVSPost2010Prop48
 90
       50
102
RTVSPost2010PropOp48
 70
     1
102
RTVSPost2010Prop49
280
     0
102
RTVSPost2010PropOp49
 70
     1
102
RTVSPost2010Prop50
 90
       50
102
RTVSPost2010PropOp50
 70
     1
102
RTVSPost2010Prop51ColorIndex
 90
      256
102
RTVSPost2010Prop51ColorRGB
 90
-16777216
102
RTVSPost2010PropOp51
 70
     0
102
RTVSPost2010Prop52
140
1.0
102
RTVSPost2010PropOp52
 70
     0
102
RTVSPost2010Prop53
 90
        2
102
RTVSPost2010PropOp53
 70
     1
102
RTVSPost2010Prop54
  1
strokes_ogs.tif
102
RTVSPost2010PropOp54
 70
     1
102
RTVSPost2010Prop55
280
     0
102
RTVSPost2010PropOp55
 70
     1
102
RTVSPost2010Prop56
140
1.0
102
RTVSPost2010PropOp56
 70
     1
102
RTVSPost2010Prop57
140
1.0
102
RTVSPost2010PropOp57
 70
     1
  0
XRECORD
  5
43F
102
{ACAD_REACTORS
330
43E
102
}
330
43E
100
AcDbXrecord
280
     1
102
RTVSPropertyOp0
 70
     1
102
RTVSPropertyOp1
 70
     1
102
RTVSPropertyOp2
 70
     1
102
RTVSPropertyOp3
 70
     1
102
RTVSPropertyOp4
 70
     1
102
RTVSPropertyOp5
 70
     1
102
RTVSPropertyOp6
 70
     1
102
RTVSPropertyOp7
 70
     1
102
RTVSPropertyOp8
 70
     1
102
RTVSPropertyOp9
 70
     1
102
RTVSPropertyOp10
 70
     1
102
RTVSPropertyOp11
 70
     1
102
RTVSPropertyOp12
 70
     1
102
RTVSPropertyOp13
 70
     1
102
RTVSPropertyOp14
 70
     1
102
RTVSPropertyOp15
 70
     1
102
RTVSPropertyOp16
 70
     1
102
RTVSPropertyOp17
 70
     1
102
RTVSPropertyOp18
 70
     1
102
RTVSPropertyOp19
 70
     1
102
RTVSPropertyOp20
 70
     1
102
RTVSPropertyOp21
 70
     1
102
RTVSPropertyOp22
 70
     1
102
RTVSPropertyOp23
 70
     1
102
RTVSPropertyOp24
 70
     1
102
RTVSPropertyOp25
 70
     1
102
RTVSPropertyOp26
 70
     1
102
RTVSPropertyOp27
 70
     1
102
RTVSPropertyOp28
 70
     1
102
RTVSPropertyOp29
 70
     1
102
RTVSPropertyOp30
 70
     1
102
RTVSPropertyOp31
 70
     1
102
RTVSPropertyOp32
 70
     1
102
RTVSPropertyOp33
 70
     1
102
RTVSPropertyOp34
 70
     1
102
RTVSPropertyOp35
 70
     1
102
RTVSPropertyOp36
 70
     1
102
RTVSPropertyOp37
 70
     1
102
RTVSPropertyOp38
 70
     1
102
RTVSPropertyOp39
 70
     1
102
RTVSPropertyOp40
 70
     1
102
RTVSPropertyOp41
 70
     1
102
RTVSPropertyOp42
 70
     1
102
RTVSPropertyOp43
 70
     1
102
RTVSPropertyOp44
 70
     1
102
RTVSPropertyOp45
 70
     1
102
RTVSPropertyOp46
 70
     1
102
RTVSPropertyOp47
 70
     1
102
RTVSPropertyOp48
 70
     1
102
RTVSPropertyOp49
 70
     1
102
RTVSPropertyOp50
 70
     1
102
RTVSPropertyOp51
 70
     0
102
RTVSPropertyOp52
 70
     0
102
RTVSPropertyOp53
 70
     1
102
RTVSPropertyOp54
 70
     1
102
RTVSPropertyOp55
 70
     1
102
RTVSPropertyOp56
 70
     1
102
RTVSPropertyOp57
 70
     1
102
RTVSPost2010Prop28
280
     0
102
RTVSPost2010PropOp28
 70
     1
102
RTVSPost2010Prop29
280
     1
102
RTVSPost2010PropOp29
 70
     1
102
RTVSPost2010Prop30
280
     1
102
RTVSPost2010PropOp30
 70
     1
102
RTVSPost2010Prop31
280
     0
102
RTVSPost2010PropOp31
 70
     1
102
RTVSPost2010Prop32
280
     0
102
RTVSPost2010PropOp32
 70
     1
102
RTVSPost2010Prop33
280
     0
102
RTVSPost2010PropOp33
 70
     1
102
RTVSPost2010Prop34
280
     0
102
RTVSPost2010PropOp34
 70
     1
102
RTVSPost2010Prop35
280
     0
102
RTVSPost2010PropOp35
 70
     1
102
RTVSPost2010Prop36
280
     0
102
RTVSPost2010PropOp36
 70
     1
102
RTVSPost2010Prop37
 90
       50
102
RTVSPost2010PropOp37
 70
     1
102
RTVSPost2010Prop38
140
0.0
102
RTVSPost2010PropOp38
 70
     1
102
RTVSPost2010Prop39
140
1.0
102
RTVSPost2010PropOp39
 70
     1
102
RTVSPost2010Prop40
 90
        0
102
RTVSPost2010PropOp40
 70
     1
102
RTVSPost2010Prop41ColorIndex
 90
       18
102
RTVSPost2010Prop41ColorRGB
 90
        0
102
RTVSPost2010PropOp41
 70
     1
102
RTVSPost2010Prop42
 90
       50
102
RTVSPost2010PropOp42
 70
     1
102
RTVSPost2010Prop43
 90
        3
102
RTVSPost2010PropOp43
 70
     1
102
RTVSPost2010Prop44ColorIndex
 90
        5
102
RTVSPost2010Prop44ColorRGB
 90
      255
102
RTVSPost2010PropOp44
 70
     1
102
RTVSPost2010Prop45
280
     0
102
RTVSPost2010PropOp45
 70
     1
102
RTVSPost2010Prop46
 90
       50
102
RTVSPost2010PropOp46
 70
     1
102
RTVSPost2010Prop47
 90
       50
102
RTVSPost2010PropOp47
 70
     1
102
RTVSPost2010Prop48
 90
       50
102
RTVSPost2010PropOp48
 70
     1
102
RTVSPost2010Prop49
280
     0
102
RTVSPost2010PropOp49
 70
     1
102
RTVSPost2010Prop50
 90
       50
102
RTVSPost2010PropOp50
 70
     1
102
RTVSPost2010Prop51ColorIndex
 90
      256
102
RTVSPost2010Prop51ColorRGB
 90
-16777216
102
RTVSPost2010PropOp51
 70
     0
102
RTVSPost2010Prop52
140
1.0
102
RTVSPost2010PropOp52
 70
     0
102
RTVSPost2010Prop53
 90
        2
102
RTVSPost2010PropOp53
 70
     1
102
RTVSPost2010Prop54
  1
strokes_ogs.tif
102
RTVSPost2010PropOp54
 70
     1
102
RTVSPost2010Prop55
280
     0
102
RTVSPost2010PropOp55
 70
     1
102
RTVSPost2010Prop56
140
1.0
102
RTVSPost2010PropOp56
 70
     1
102
RTVSPost2010Prop57
140
1.0
102
RTVSPost2010PropOp57
 70
     1
  0
XRECORD
  5
447
102
{ACAD_REACTORS
330
446
102
}
330
446
100
AcDbXrecord
280
     1
102
RTVSPropertyOp0
 70
     1
102
RTVSPropertyOp1
 70
     1
102
RTVSPropertyOp2
 70
     1
102
RTVSPropertyOp3
 70
     1
102
RTVSPropertyOp4
 70
     1
102
RTVSPropertyOp5
 70
     1
102
RTVSPropertyOp6
 70
     1
102
RTVSPropertyOp7
 70
     1
102
RTVSPropertyOp8
 70
     1
102
RTVSPropertyOp9
 70
     1
102
RTVSPropertyOp10
 70
     1
102
RTVSPropertyOp11
 70
     1
102
RTVSPropertyOp12
 70
     1
102
RTVSPropertyOp13
 70
     1
102
RTVSPropertyOp14
 70
     1
102
RTVSPropertyOp15
 70
     1
102
RTVSPropertyOp16
 70
     1
102
RTVSPropertyOp17
 70
     1
102
RTVSPropertyOp18
 70
     1
102
RTVSPropertyOp19
 70
     1
102
RTVSPropertyOp20
 70
     1
102
RTVSPropertyOp21
 70
     1
102
RTVSPropertyOp22
 70
     1
102
RTVSPropertyOp23
 70
     1
102
RTVSPropertyOp24
 70
     1
102
RTVSPropertyOp25
 70
     1
102
RTVSPropertyOp26
 70
     1
102
RTVSPropertyOp27
 70
     1
102
RTVSPropertyOp28
 70
     1
102
RTVSPropertyOp29
 70
     1
102
RTVSPropertyOp30
 70
     1
102
RTVSPropertyOp31
 70
     1
102
RTVSPropertyOp32
 70
     1
102
RTVSPropertyOp33
 70
     1
102
RTVSPropertyOp34
 70
     1
102
RTVSPropertyOp35
 70
     1
102
RTVSPropertyOp36
 70
     1
102
RTVSPropertyOp37
 70
     1
102
RTVSPropertyOp38
 70
     1
102
RTVSPropertyOp39
 70
     1
102
RTVSPropertyOp40
 70
     1
102
RTVSPropertyOp41
 70
     1
102
RTVSPropertyOp42
 70
     1
102
RTVSPropertyOp43
 70
     1
102
RTVSPropertyOp44
 70
     1
102
RTVSPropertyOp45
 70
     1
102
RTVSPropertyOp46
 70
     1
102
RTVSPropertyOp47
 70
     1
102
RTVSPropertyOp48
 70
     1
102
RTVSPropertyOp49
 70
     1
102
RTVSPropertyOp50
 70
     1
102
RTVSPropertyOp51
 70
     0
102
RTVSPropertyOp52
 70
     0
102
RTVSPropertyOp53
 70
     1
102
RTVSPropertyOp54
 70
     1
102
RTVSPropertyOp55
 70
     1
102
RTVSPropertyOp56
 70
     1
102
RTVSPropertyOp57
 70
     1
102
RTVSPost2010Prop28
280
     0
102
RTVSPost2010PropOp28
 70
     1
102
RTVSPost2010Prop29
280
     1
102
RTVSPost2010PropOp29
 70
     1
102
RTVSPost2010Prop30
280
     1
102
RTVSPost2010PropOp30
 70
     1
102
RTVSPost2010Prop31
280
     0
102
RTVSPost2010PropOp31
 70
     1
102
RTVSPost2010Prop32
280
     0
102
RTVSPost2010PropOp32
 70
     1
102
RTVSPost2010Prop33
280
     0
102
RTVSPost2010PropOp33
 70
     1
102
RTVSPost2010Prop34
280
     0
102
RTVSPost2010PropOp34
 70
     1
102
RTVSPost2010Prop35
280
     0
102
RTVSPost2010PropOp35
 70
     1
102
RTVSPost2010Prop36
280
     0
102
RTVSPost2010PropOp36
 70
     1
102
RTVSPost2010Prop37
 90
       50
102
RTVSPost2010PropOp37
 70
     1
102
RTVSPost2010Prop38
140
0.0
102
RTVSPost2010PropOp38
 70
     1
102
RTVSPost2010Prop39
140
1.0
102
RTVSPost2010PropOp39
 70
     1
102
RTVSPost2010Prop40
 90
        0
102
RTVSPost2010PropOp40
 70
     1
102
RTVSPost2010Prop41ColorIndex
 90
       18
102
RTVSPost2010Prop41ColorRGB
 90
        0
102
RTVSPost2010PropOp41
 70
     1
102
RTVSPost2010Prop42
 90
       50
102
RTVSPost2010PropOp42
 70
     1
102
RTVSPost2010Prop43
 90
        3
102
RTVSPost2010PropOp43
 70
     1
102
RTVSPost2010Prop44ColorIndex
 90
        5
102
RTVSPost2010Prop44ColorRGB
 90
      255
102
RTVSPost2010PropOp44
 70
     1
102
RTVSPost2010Prop45
280
     0
102
RTVSPost2010PropOp45
 70
     1
102
RTVSPost2010Prop46
 90
       50
102
RTVSPost2010PropOp46
 70
     1
102
RTVSPost2010Prop47
 90
       50
102
RTVSPost2010PropOp47
 70
     1
102
RTVSPost2010Prop48
 90
       50
102
RTVSPost2010PropOp48
 70
     1
102
RTVSPost2010Prop49
280
     0
102
RTVSPost2010PropOp49
 70
     1
102
RTVSPost2010Prop50
 90
       50
102
RTVSPost2010PropOp50
 70
     1
102
RTVSPost2010Prop51ColorIndex
 90
      256
102
RTVSPost2010Prop51ColorRGB
 90
-16777216
102
RTVSPost2010PropOp51
 70
     0
102
RTVSPost2010Prop52
140
1.0
102
RTVSPost2010PropOp52
 70
     0
102
RTVSPost2010Prop53
 90
        2
102
RTVSPost2010PropOp53
 70
     1
102
RTVSPost2010Prop54
  1
strokes_ogs.tif
102
RTVSPost2010PropOp54
 70
     1
102
RTVSPost2010Prop55
280
     0
102
RTVSPost2010PropOp55
 70
     1
102
RTVSPost2010Prop56
140
1.0
102
RTVSPost2010PropOp56
 70
     1
102
RTVSPost2010Prop57
140
1.0
102
RTVSPost2010PropOp57
 70
     1
  0
XRECORD
  5
43B
102
{ACAD_REACTORS
330
43A
102
}
330
43A
100
AcDbXrecord
280
     1
102
RTVSPropertyOp0
 70
     1
102
RTVSPropertyOp1
 70
     1
102
RTVSPropertyOp2
 70
     1
102
RTVSPropertyOp3
 70
     1
102
RTVSPropertyOp4
 70
     1
102
RTVSPropertyOp5
 70
     1
102
RTVSPropertyOp6
 70
     1
102
RTVSPropertyOp7
 70
     1
102
RTVSPropertyOp8
 70
     1
102
RTVSPropertyOp9
 70
     1
102
RTVSPropertyOp10
 70
     1
102
RTVSPropertyOp11
 70
     1
102
RTVSPropertyOp12
 70
     1
102
RTVSPropertyOp13
 70
     1
102
RTVSPropertyOp14
 70
     1
102
RTVSPropertyOp15
 70
     1
102
RTVSPropertyOp16
 70
     1
102
RTVSPropertyOp17
 70
     1
102
RTVSPropertyOp18
 70
     1
102
RTVSPropertyOp19
 70
     1
102
RTVSPropertyOp20
 70
     1
102
RTVSPropertyOp21
 70
     1
102
RTVSPropertyOp22
 70
     1
102
RTVSPropertyOp23
 70
     1
102
RTVSPropertyOp24
 70
     1
102
RTVSPropertyOp25
 70
     1
102
RTVSPropertyOp26
 70
     1
102
RTVSPropertyOp27
 70
     1
102
RTVSPropertyOp28
 70
     1
102
RTVSPropertyOp29
 70
     1
102
RTVSPropertyOp30
 70
     1
102
RTVSPropertyOp31
 70
     1
102
RTVSPropertyOp32
 70
     1
102
RTVSPropertyOp33
 70
     1
102
RTVSPropertyOp34
 70
     1
102
RTVSPropertyOp35
 70
     1
102
RTVSPropertyOp36
 70
     1
102
RTVSPropertyOp37
 70
     1
102
RTVSPropertyOp38
 70
     1
102
RTVSPropertyOp39
 70
     1
102
RTVSPropertyOp40
 70
     1
102
RTVSPropertyOp41
 70
     1
102
RTVSPropertyOp42
 70
     1
102
RTVSPropertyOp43
 70
     1
102
RTVSPropertyOp44
 70
     1
102
RTVSPropertyOp45
 70
     1
102
RTVSPropertyOp46
 70
     1
102
RTVSPropertyOp47
 70
     1
102
RTVSPropertyOp48
 70
     1
102
RTVSPropertyOp49
 70
     1
102
RTVSPropertyOp50
 70
     1
102
RTVSPropertyOp51
 70
     0
102
RTVSPropertyOp52
 70
     0
102
RTVSPropertyOp53
 70
     1
102
RTVSPropertyOp54
 70
     1
102
RTVSPropertyOp55
 70
     1
102
RTVSPropertyOp56
 70
     1
102
RTVSPropertyOp57
 70
     1
102
RTVSPost2010Prop28
280
     0
102
RTVSPost2010PropOp28
 70
     1
102
RTVSPost2010Prop29
280
     1
102
RTVSPost2010PropOp29
 70
     1
102
RTVSPost2010Prop30
280
     1
102
RTVSPost2010PropOp30
 70
     1
102
RTVSPost2010Prop31
280
     0
102
RTVSPost2010PropOp31
 70
     1
102
RTVSPost2010Prop32
280
     0
102
RTVSPost2010PropOp32
 70
     1
102
RTVSPost2010Prop33
280
     0
102
RTVSPost2010PropOp33
 70
     1
102
RTVSPost2010Prop34
280
     0
102
RTVSPost2010PropOp34
 70
     1
102
RTVSPost2010Prop35
280
     0
102
RTVSPost2010PropOp35
 70
     1
102
RTVSPost2010Prop36
280
     0
102
RTVSPost2010PropOp36
 70
     1
102
RTVSPost2010Prop37
 90
       50
102
RTVSPost2010PropOp37
 70
     1
102
RTVSPost2010Prop38
140
0.0
102
RTVSPost2010PropOp38
 70
     1
102
RTVSPost2010Prop39
140
1.0
102
RTVSPost2010PropOp39
 70
     1
102
RTVSPost2010Prop40
 90
        0
102
RTVSPost2010PropOp40
 70
     1
102
RTVSPost2010Prop41ColorIndex
 90
       18
102
RTVSPost2010Prop41ColorRGB
 90
        0
102
RTVSPost2010PropOp41
 70
     1
102
RTVSPost2010Prop42
 90
       50
102
RTVSPost2010PropOp42
 70
     1
102
RTVSPost2010Prop43
 90
        3
102
RTVSPost2010PropOp43
 70
     1
102
RTVSPost2010Prop44ColorIndex
 90
        5
102
RTVSPost2010Prop44ColorRGB
 90
      255
102
RTVSPost2010PropOp44
 70
     1
102
RTVSPost2010Prop45
280
     0
102
RTVSPost2010PropOp45
 70
     1
102
RTVSPost2010Prop46
 90
       50
102
RTVSPost2010PropOp46
 70
     1
102
RTVSPost2010Prop47
 90
       50
102
RTVSPost2010PropOp47
 70
     1
102
RTVSPost2010Prop48
 90
       50
102
RTVSPost2010PropOp48
 70
     1
102
RTVSPost2010Prop49
280
     0
102
RTVSPost2010PropOp49
 70
     1
102
RTVSPost2010Prop50
 90
       50
102
RTVSPost2010PropOp50
 70
     1
102
RTVSPost2010Prop51ColorIndex
 90
      256
102
RTVSPost2010Prop51ColorRGB
 90
-16777216
102
RTVSPost2010PropOp51
 70
     0
102
RTVSPost2010Prop52
140
1.0
102
RTVSPost2010PropOp52
 70
     0
102
RTVSPost2010Prop53
 90
        2
102
RTVSPost2010PropOp53
 70
     1
102
RTVSPost2010Prop54
  1
strokes_ogs.tif
102
RTVSPost2010PropOp54
 70
     1
102
RTVSPost2010Prop55
280
     0
102
RTVSPost2010PropOp55
 70
     1
102
RTVSPost2010Prop56
140
1.0
102
RTVSPost2010PropOp56
 70
     1
102
RTVSPost2010Prop57
140
1.0
102
RTVSPost2010PropOp57
 70
     1
  0
XRECORD
  5
43D
102
{ACAD_REACTORS
330
43C
102
}
330
43C
100
AcDbXrecord
280
     1
102
RTVSPropertyOp0
 70
     1
102
RTVSPropertyOp1
 70
     1
102
RTVSPropertyOp2
 70
     1
102
RTVSPropertyOp3
 70
     1
102
RTVSPropertyOp4
 70
     1
102
RTVSPropertyOp5
 70
     1
102
RTVSPropertyOp6
 70
     1
102
RTVSPropertyOp7
 70
     1
102
RTVSPropertyOp8
 70
     1
102
RTVSPropertyOp9
 70
     1
102
RTVSPropertyOp10
 70
     1
102
RTVSPropertyOp11
 70
     1
102
RTVSPropertyOp12
 70
     1
102
RTVSPropertyOp13
 70
     1
102
RTVSPropertyOp14
 70
     1
102
RTVSPropertyOp15
 70
     1
102
RTVSPropertyOp16
 70
     1
102
RTVSPropertyOp17
 70
     1
102
RTVSPropertyOp18
 70
     1
102
RTVSPropertyOp19
 70
     1
102
RTVSPropertyOp20
 70
     1
102
RTVSPropertyOp21
 70
     1
102
RTVSPropertyOp22
 70
     1
102
RTVSPropertyOp23
 70
     1
102
RTVSPropertyOp24
 70
     1
102
RTVSPropertyOp25
 70
     1
102
RTVSPropertyOp26
 70
     1
102
RTVSPropertyOp27
 70
     1
102
RTVSPropertyOp28
 70
     1
102
RTVSPropertyOp29
 70
     1
102
RTVSPropertyOp30
 70
     1
102
RTVSPropertyOp31
 70
     1
102
RTVSPropertyOp32
 70
     1
102
RTVSPropertyOp33
 70
     1
102
RTVSPropertyOp34
 70
     1
102
RTVSPropertyOp35
 70
     1
102
RTVSPropertyOp36
 70
     1
102
RTVSPropertyOp37
 70
     1
102
RTVSPropertyOp38
 70
     1
102
RTVSPropertyOp39
 70
     1
102
RTVSPropertyOp40
 70
     1
102
RTVSPropertyOp41
 70
     1
102
RTVSPropertyOp42
 70
     1
102
RTVSPropertyOp43
 70
     1
102
RTVSPropertyOp44
 70
     1
102
RTVSPropertyOp45
 70
     1
102
RTVSPropertyOp46
 70
     1
102
RTVSPropertyOp47
 70
     1
102
RTVSPropertyOp48
 70
     1
102
RTVSPropertyOp49
 70
     1
102
RTVSPropertyOp50
 70
     1
102
RTVSPropertyOp51
 70
     0
102
RTVSPropertyOp52
 70
     0
102
RTVSPropertyOp53
 70
     1
102
RTVSPropertyOp54
 70
     1
102
RTVSPropertyOp55
 70
     1
102
RTVSPropertyOp56
 70
     1
102
RTVSPropertyOp57
 70
     1
102
RTVSPost2010Prop28
280
     0
102
RTVSPost2010PropOp28
 70
     1
102
RTVSPost2010Prop29
280
     1
102
RTVSPost2010PropOp29
 70
     1
102
RTVSPost2010Prop30
280
     1
102
RTVSPost2010PropOp30
 70
     1
102
RTVSPost2010Prop31
280
     0
102
RTVSPost2010PropOp31
 70
     1
102
RTVSPost2010Prop32
280
     0
102
RTVSPost2010PropOp32
 70
     1
102
RTVSPost2010Prop33
280
     0
102
RTVSPost2010PropOp33
 70
     1
102
RTVSPost2010Prop34
280
     0
102
RTVSPost2010PropOp34
 70
     1
102
RTVSPost2010Prop35
280
     0
102
RTVSPost2010PropOp35
 70
     1
102
RTVSPost2010Prop36
280
     0
102
RTVSPost2010PropOp36
 70
     1
102
RTVSPost2010Prop37
 90
       50
102
RTVSPost2010PropOp37
 70
     1
102
RTVSPost2010Prop38
140
0.0
102
RTVSPost2010PropOp38
 70
     1
102
RTVSPost2010Prop39
140
1.0
102
RTVSPost2010PropOp39
 70
     1
102
RTVSPost2010Prop40
 90
        0
102
RTVSPost2010PropOp40
 70
     1
102
RTVSPost2010Prop41ColorIndex
 90
       18
102
RTVSPost2010Prop41ColorRGB
 90
        0
102
RTVSPost2010PropOp41
 70
     1
102
RTVSPost2010Prop42
 90
       50
102
RTVSPost2010PropOp42
 70
     1
102
RTVSPost2010Prop43
 90
        3
102
RTVSPost2010PropOp43
 70
     1
102
RTVSPost2010Prop44ColorIndex
 90
        5
102
RTVSPost2010Prop44ColorRGB
 90
      255
102
RTVSPost2010PropOp44
 70
     1
102
RTVSPost2010Prop45
280
     0
102
RTVSPost2010PropOp45
 70
     1
102
RTVSPost2010Prop46
 90
       50
102
RTVSPost2010PropOp46
 70
     1
102
RTVSPost2010Prop47
 90
       50
102
RTVSPost2010PropOp47
 70
     1
102
RTVSPost2010Prop48
 90
       50
102
RTVSPost2010PropOp48
 70
     1
102
RTVSPost2010Prop49
280
     0
102
RTVSPost2010PropOp49
 70
     1
102
RTVSPost2010Prop50
 90
       50
102
RTVSPost2010PropOp50
 70
     1
102
RTVSPost2010Prop51ColorIndex
 90
      256
102
RTVSPost2010Prop51ColorRGB
 90
-16777216
102
RTVSPost2010PropOp51
 70
     0
102
RTVSPost2010Prop52
140
1.0
102
RTVSPost2010PropOp52
 70
     0
102
RTVSPost2010Prop53
 90
        2
102
RTVSPost2010PropOp53
 70
     1
102
RTVSPost2010Prop54
  1
strokes_ogs.tif
102
RTVSPost2010PropOp54
 70
     1
102
RTVSPost2010Prop55
280
     0
102
RTVSPost2010PropOp55
 70
     1
102
RTVSPost2010Prop56
140
1.0
102
RTVSPost2010PropOp56
 70
     1
102
RTVSPost2010Prop57
140
1.0
102
RTVSPost2010PropOp57
 70
     1
  0
XRECORD
  5
44D
102
{ACAD_REACTORS
330
44C
102
}
330
44C
100
AcDbXrecord
280
     1
102
RTVSPropertyOp0
 70
     0
102
RTVSPropertyOp1
 70
     0
102
RTVSPropertyOp2
 70
     0
102
RTVSPropertyOp3
 70
     0
102
RTVSPropertyOp4
 70
     0
102
RTVSPropertyOp5
 70
     0
102
RTVSPropertyOp6
 70
     0
102
RTVSPropertyOp7
 70
     0
102
RTVSPropertyOp8
 70
     0
102
RTVSPropertyOp9
 70
     0
102
RTVSPropertyOp10
 70
     0
102
RTVSPropertyOp11
 70
     0
102
RTVSPropertyOp12
 70
     0
102
RTVSPropertyOp13
 70
     0
102
RTVSPropertyOp14
 70
     2
102
RTVSPropertyOp15
 70
     0
102
RTVSPropertyOp16
 70
     0
102
RTVSPropertyOp17
 70
     0
102
RTVSPropertyOp18
 70
     0
102
RTVSPropertyOp19
 70
     0
102
RTVSPropertyOp20
 70
     0
102
RTVSPropertyOp21
 70
     0
102
RTVSPropertyOp22
 70
     0
102
RTVSPropertyOp23
 70
     0
102
RTVSPropertyOp24
 70
     0
102
RTVSPropertyOp25
 70
     0
102
RTVSPropertyOp26
 70
     0
102
RTVSPropertyOp27
 70
     0
102
RTVSPropertyOp28
 70
     0
102
RTVSPropertyOp29
 70
     0
102
RTVSPropertyOp30
 70
     0
102
RTVSPropertyOp31
 70
     0
102
RTVSPropertyOp32
 70
     0
102
RTVSPropertyOp33
 70
     0
102
RTVSPropertyOp34
 70
     0
102
RTVSPropertyOp35
 70
     0
102
RTVSPropertyOp36
 70
     0
102
RTVSPropertyOp37
 70
     0
102
RTVSPropertyOp38
 70
     0
102
RTVSPropertyOp39
 70
     0
102
RTVSPropertyOp40
 70
     0
102
RTVSPropertyOp41
 70
     0
102
RTVSPropertyOp42
 70
     0
102
RTVSPropertyOp43
 70
     0
102
RTVSPropertyOp44
 70
     0
102
RTVSPropertyOp45
 70
     0
102
RTVSPropertyOp46
 70
     0
102
RTVSPropertyOp47
 70
     0
102
RTVSPropertyOp48
 70
     0
102
RTVSPropertyOp49
 70
     0
102
RTVSPropertyOp50
 70
     0
102
RTVSPropertyOp51
 70
     0
102
RTVSPropertyOp52
 70
     0
102
RTVSPropertyOp53
 70
     0
102
RTVSPropertyOp54
 70
     0
102
RTVSPropertyOp55
 70
     0
102
RTVSPropertyOp56
 70
     0
102
RTVSPropertyOp57
 70
     0
102
RTVSPost2010Prop28
280
     0
102
RTVSPost2010PropOp28
 70
     0
102
RTVSPost2010Prop29
280
     1
102
RTVSPost2010PropOp29
 70
     0
102
RTVSPost2010Prop30
280
     1
102
RTVSPost2010PropOp30
 70
     0
102
RTVSPost2010Prop31
280
     0
102
RTVSPost2010PropOp31
 70
     0
102
RTVSPost2010Prop32
280
     0
102
RTVSPost2010PropOp32
 70
     0
102
RTVSPost2010Prop33
280
     0
102
RTVSPost2010PropOp33
 70
     0
102
RTVSPost2010Prop34
280
     0
102
RTVSPost2010PropOp34
 70
     0
102
RTVSPost2010Prop35
280
     0
102
RTVSPost2010PropOp35
 70
     0
102
RTVSPost2010Prop36
280
     0
102
RTVSPost2010PropOp36
 70
     0
102
RTVSPost2010Prop37
 90
       50
102
RTVSPost2010PropOp37
 70
     0
102
RTVSPost2010Prop38
140
0.0
102
RTVSPost2010PropOp38
 70
     0
102
RTVSPost2010Prop39
140
1.0
102
RTVSPost2010PropOp39
 70
     0
102
RTVSPost2010Prop40
 90
        0
102
RTVSPost2010PropOp40
 70
     0
102
RTVSPost2010Prop41ColorIndex
 90
       18
102
RTVSPost2010Prop41ColorRGB
 90
        0
102
RTVSPost2010PropOp41
 70
     0
102
RTVSPost2010Prop42
 90
       50
102
RTVSPost2010PropOp42
 70
     0
102
RTVSPost2010Prop43
 90
        3
102
RTVSPost2010PropOp43
 70
     0
102
RTVSPost2010Prop44ColorIndex
 90
        5
102
RTVSPost2010Prop44ColorRGB
 90
      255
102
RTVSPost2010PropOp44
 70
     0
102
RTVSPost2010Prop45
280
     0
102
RTVSPost2010PropOp45
 70
     0
102
RTVSPost2010Prop46
 90
       50
102
RTVSPost2010PropOp46
 70
     0
102
RTVSPost2010Prop47
 90
       50
102
RTVSPost2010PropOp47
 70
     0
102
RTVSPost2010Prop48
 90
       50
102
RTVSPost2010PropOp48
 70
     0
102
RTVSPost2010Prop49
280
     0
102
RTVSPost2010PropOp49
 70
     0
102
RTVSPost2010Prop50
 90
       50
102
RTVSPost2010PropOp50
 70
     0
102
RTVSPost2010Prop51ColorIndex
 90
      256
102
RTVSPost2010Prop51ColorRGB
 90
-16777216
102
RTVSPost2010PropOp51
 70
     0
102
RTVSPost2010Prop52
140
1.0
102
RTVSPost2010PropOp52
 70
     0
102
RTVSPost2010Prop53
 90
        2
102
RTVSPost2010PropOp53
 70
     0
102
RTVSPost2010Prop54
  1
strokes_ogs.tif
102
RTVSPost2010PropOp54
 70
     0
102
RTVSPost2010Prop55
280
     0
102
RTVSPost2010PropOp55
 70
     0
102
RTVSPost2010Prop56
140
1.0
102
RTVSPost2010PropOp56
 70
     0
102
RTVSPost2010Prop57
140
1.0
102
RTVSPost2010PropOp57
 70
     0
  0
XRECORD
  5
445
102
{ACAD_REACTORS
330
444
102
}
330
444
100
AcDbXrecord
280
     1
102
RTVSPropertyOp0
 70
     1
102
RTVSPropertyOp1
 70
     1
102
RTVSPropertyOp2
 70
     1
102
RTVSPropertyOp3
 70
     1
102
RTVSPropertyOp4
 70
     1
102
RTVSPropertyOp5
 70
     1
102
RTVSPropertyOp6
 70
     1
102
RTVSPropertyOp7
 70
     1
102
RTVSPropertyOp8
 70
     1
102
RTVSPropertyOp9
 70
     1
102
RTVSPropertyOp10
 70
     1
102
RTVSPropertyOp11
 70
     1
102
RTVSPropertyOp12
 70
     1
102
RTVSPropertyOp13
 70
     1
102
RTVSPropertyOp14
 70
     1
102
RTVSPropertyOp15
 70
     1
102
RTVSPropertyOp16
 70
     1
102
RTVSPropertyOp17
 70
     1
102
RTVSPropertyOp18
 70
     1
102
RTVSPropertyOp19
 70
     1
102
RTVSPropertyOp20
 70
     1
102
RTVSPropertyOp21
 70
     1
102
RTVSPropertyOp22
 70
     1
102
RTVSPropertyOp23
 70
     1
102
RTVSPropertyOp24
 70
     1
102
RTVSPropertyOp25
 70
     1
102
RTVSPropertyOp26
 70
     1
102
RTVSPropertyOp27
 70
     1
102
RTVSPropertyOp28
 70
     1
102
RTVSPropertyOp29
 70
     1
102
RTVSPropertyOp30
 70
     1
102
RTVSPropertyOp31
 70
     1
102
RTVSPropertyOp32
 70
     1
102
RTVSPropertyOp33
 70
     1
102
RTVSPropertyOp34
 70
     1
102
RTVSPropertyOp35
 70
     1
102
RTVSPropertyOp36
 70
     1
102
RTVSPropertyOp37
 70
     1
102
RTVSPropertyOp38
 70
     1
102
RTVSPropertyOp39
 70
     1
102
RTVSPropertyOp40
 70
     1
102
RTVSPropertyOp41
 70
     1
102
RTVSPropertyOp42
 70
     1
102
RTVSPropertyOp43
 70
     1
102
RTVSPropertyOp44
 70
     1
102
RTVSPropertyOp45
 70
     1
102
RTVSPropertyOp46
 70
     1
102
RTVSPropertyOp47
 70
     1
102
RTVSPropertyOp48
 70
     1
102
RTVSPropertyOp49
 70
     1
102
RTVSPropertyOp50
 70
     1
102
RTVSPropertyOp51
 70
     0
102
RTVSPropertyOp52
 70
     0
102
RTVSPropertyOp53
 70
     1
102
RTVSPropertyOp54
 70
     1
102
RTVSPropertyOp55
 70
     1
102
RTVSPropertyOp56
 70
     1
102
RTVSPropertyOp57
 70
     1
102
RTVSPost2010Prop28
280
     0
102
RTVSPost2010PropOp28
 70
     1
102
RTVSPost2010Prop29
280
     1
102
RTVSPost2010PropOp29
 70
     1
102
RTVSPost2010Prop30
280
     1
102
RTVSPost2010PropOp30
 70
     1
102
RTVSPost2010Prop31
280
     0
102
RTVSPost2010PropOp31
 70
     1
102
RTVSPost2010Prop32
280
     0
102
RTVSPost2010PropOp32
 70
     1
102
RTVSPost2010Prop33
280
     0
102
RTVSPost2010PropOp33
 70
     1
102
RTVSPost2010Prop34
280
     0
102
RTVSPost2010PropOp34
 70
     1
102
RTVSPost2010Prop35
280
     0
102
RTVSPost2010PropOp35
 70
     1
102
RTVSPost2010Prop36
280
     0
102
RTVSPost2010PropOp36
 70
     1
102
RTVSPost2010Prop37
 90
       50
102
RTVSPost2010PropOp37
 70
     1
102
RTVSPost2010Prop38
140
0.0
102
RTVSPost2010PropOp38
 70
     1
102
RTVSPost2010Prop39
140
1.0
102
RTVSPost2010PropOp39
 70
     1
102
RTVSPost2010Prop40
 90
        0
102
RTVSPost2010PropOp40
 70
     1
102
RTVSPost2010Prop41ColorIndex
 90
       18
102
RTVSPost2010Prop41ColorRGB
 90
        0
102
RTVSPost2010PropOp41
 70
     1
102
RTVSPost2010Prop42
 90
       50
102
RTVSPost2010PropOp42
 70
     1
102
RTVSPost2010Prop43
 90
        3
102
RTVSPost2010PropOp43
 70
     1
102
RTVSPost2010Prop44ColorIndex
 90
        5
102
RTVSPost2010Prop44ColorRGB
 90
      255
102
RTVSPost2010PropOp44
 70
     1
102
RTVSPost2010Prop45
280
     0
102
RTVSPost2010PropOp45
 70
     1
102
RTVSPost2010Prop46
 90
       50
102
RTVSPost2010PropOp46
 70
     1
102
RTVSPost2010Prop47
 90
       50
102
RTVSPost2010PropOp47
 70
     1
102
RTVSPost2010Prop48
 90
       50
102
RTVSPost2010PropOp48
 70
     1
102
RTVSPost2010Prop49
280
     0
102
RTVSPost2010PropOp49
 70
     1
102
RTVSPost2010Prop50
 90
       50
102
RTVSPost2010PropOp50
 70
     1
102
RTVSPost2010Prop51ColorIndex
 90
      256
102
RTVSPost2010Prop51ColorRGB
 90
-16777216
102
RTVSPost2010PropOp51
 70
     0
102
RTVSPost2010Prop52
140
1.0
102
RTVSPost2010PropOp52
 70
     0
102
RTVSPost2010Prop53
 90
        2
102
RTVSPost2010PropOp53
 70
     1
102
RTVSPost2010Prop54
  1
strokes_ogs.tif
102
RTVSPost2010PropOp54
 70
     1
102
RTVSPost2010Prop55
280
     0
102
RTVSPost2010PropOp55
 70
     1
102
RTVSPost2010Prop56
140
1.0
102
RTVSPost2010PropOp56
 70
     1
102
RTVSPost2010Prop57
140
1.0
102
RTVSPost2010PropOp57
 70
     1
  0
XRECORD
  5
429
102
{ACAD_REACTORS
330
428
102
}
330
428
100
AcDbXrecord
280
     1
102
RTVSPropertyOp0
 70
     1
102
RTVSPropertyOp1
 70
     1
102
RTVSPropertyOp2
 70
     1
102
RTVSPropertyOp3
 70
     1
102
RTVSPropertyOp4
 70
     1
102
RTVSPropertyOp5
 70
     1
102
RTVSPropertyOp6
 70
     1
102
RTVSPropertyOp7
 70
     1
102
RTVSPropertyOp8
 70
     1
102
RTVSPropertyOp9
 70
     1
102
RTVSPropertyOp10
 70
     1
102
RTVSPropertyOp11
 70
     1
102
RTVSPropertyOp12
 70
     1
102
RTVSPropertyOp13
 70
     1
102
RTVSPropertyOp14
 70
     1
102
RTVSPropertyOp15
 70
     1
102
RTVSPropertyOp16
 70
     1
102
RTVSPropertyOp17
 70
     1
102
RTVSPropertyOp18
 70
     1
102
RTVSPropertyOp19
 70
     1
102
RTVSPropertyOp20
 70
     1
102
RTVSPropertyOp21
 70
     1
102
RTVSPropertyOp22
 70
     1
102
RTVSPropertyOp23
 70
     1
102
RTVSPropertyOp24
 70
     1
102
RTVSPropertyOp25
 70
     1
102
RTVSPropertyOp26
 70
     1
102
RTVSPropertyOp27
 70
     1
102
RTVSPropertyOp28
 70
     1
102
RTVSPropertyOp29
 70
     1
102
RTVSPropertyOp30
 70
     1
102
RTVSPropertyOp31
 70
     1
102
RTVSPropertyOp32
 70
     1
102
RTVSPropertyOp33
 70
     1
102
RTVSPropertyOp34
 70
     1
102
RTVSPropertyOp35
 70
     1
102
RTVSPropertyOp36
 70
     1
102
RTVSPropertyOp37
 70
     1
102
RTVSPropertyOp38
 70
     1
102
RTVSPropertyOp39
 70
     1
102
RTVSPropertyOp40
 70
     1
102
RTVSPropertyOp41
 70
     1
102
RTVSPropertyOp42
 70
     1
102
RTVSPropertyOp43
 70
     1
102
RTVSPropertyOp44
 70
     1
102
RTVSPropertyOp45
 70
     1
102
RTVSPropertyOp46
 70
     1
102
RTVSPropertyOp47
 70
     1
102
RTVSPropertyOp48
 70
     1
102
RTVSPropertyOp49
 70
     1
102
RTVSPropertyOp50
 70
     1
102
RTVSPropertyOp51
 70
     0
102
RTVSPropertyOp52
 70
     0
102
RTVSPropertyOp53
 70
     1
102
RTVSPropertyOp54
 70
     1
102
RTVSPropertyOp55
 70
     1
102
RTVSPropertyOp56
 70
     1
102
RTVSPropertyOp57
 70
     1
102
RTVSPost2010Prop28
280
     0
102
RTVSPost2010PropOp28
 70
     1
102
RTVSPost2010Prop29
280
     1
102
RTVSPost2010PropOp29
 70
     1
102
RTVSPost2010Prop30
280
     1
102
RTVSPost2010PropOp30
 70
     1
102
RTVSPost2010Prop31
280
     0
102
RTVSPost2010PropOp31
 70
     1
102
RTVSPost2010Prop32
280
     0
102
RTVSPost2010PropOp32
 70
     1
102
RTVSPost2010Prop33
280
     0
102
RTVSPost2010PropOp33
 70
     1
102
RTVSPost2010Prop34
280
     0
102
RTVSPost2010PropOp34
 70
     1
102
RTVSPost2010Prop35
280
     0
102
RTVSPost2010PropOp35
 70
     1
102
RTVSPost2010Prop36
280
     0
102
RTVSPost2010PropOp36
 70
     1
102
RTVSPost2010Prop37
 90
       50
102
RTVSPost2010PropOp37
 70
     1
102
RTVSPost2010Prop38
140
0.0
102
RTVSPost2010PropOp38
 70
     1
102
RTVSPost2010Prop39
140
1.0
102
RTVSPost2010PropOp39
 70
     1
102
RTVSPost2010Prop40
 90
        0
102
RTVSPost2010PropOp40
 70
     1
102
RTVSPost2010Prop41ColorIndex
 90
       18
102
RTVSPost2010Prop41ColorRGB
 90
        0
102
RTVSPost2010PropOp41
 70
     1
102
RTVSPost2010Prop42
 90
       50
102
RTVSPost2010PropOp42
 70
     1
102
RTVSPost2010Prop43
 90
        3
102
RTVSPost2010PropOp43
 70
     1
102
RTVSPost2010Prop44ColorIndex
 90
        5
102
RTVSPost2010Prop44ColorRGB
 90
      255
102
RTVSPost2010PropOp44
 70
     1
102
RTVSPost2010Prop45
280
     0
102
RTVSPost2010PropOp45
 70
     1
102
RTVSPost2010Prop46
 90
       50
102
RTVSPost2010PropOp46
 70
     1
102
RTVSPost2010Prop47
 90
       50
102
RTVSPost2010PropOp47
 70
     1
102
RTVSPost2010Prop48
 90
       50
102
RTVSPost2010PropOp48
 70
     1
102
RTVSPost2010Prop49
280
     0
102
RTVSPost2010PropOp49
 70
     1
102
RTVSPost2010Prop50
 90
       50
102
RTVSPost2010PropOp50
 70
     1
102
RTVSPost2010Prop51ColorIndex
 90
      256
102
RTVSPost2010Prop51ColorRGB
 90
-16777216
102
RTVSPost2010PropOp51
 70
     0
102
RTVSPost2010Prop52
140
1.0
102
RTVSPost2010PropOp52
 70
     0
102
RTVSPost2010Prop53
 90
        2
102
RTVSPost2010PropOp53
 70
     1
102
RTVSPost2010Prop54
  1
strokes_ogs.tif
102
RTVSPost2010PropOp54
 70
     1
102
RTVSPost2010Prop55
280
     0
102
RTVSPost2010PropOp55
 70
     1
102
RTVSPost2010Prop56
140
1.0
102
RTVSPost2010PropOp56
 70
     1
102
RTVSPost2010Prop57
140
1.0
102
RTVSPost2010PropOp57
 70
     1
  0
XRECORD
  5
42B
102
{ACAD_REACTORS
330
42A
102
}
330
42A
100
AcDbXrecord
280
     1
102
RTVSPropertyOp0
 70
     1
102
RTVSPropertyOp1
 70
     1
102
RTVSPropertyOp2
 70
     1
102
RTVSPropertyOp3
 70
     1
102
RTVSPropertyOp4
 70
     1
102
RTVSPropertyOp5
 70
     1
102
RTVSPropertyOp6
 70
     1
102
RTVSPropertyOp7
 70
     1
102
RTVSPropertyOp8
 70
     1
102
RTVSPropertyOp9
 70
     1
102
RTVSPropertyOp10
 70
     1
102
RTVSPropertyOp11
 70
     1
102
RTVSPropertyOp12
 70
     1
102
RTVSPropertyOp13
 70
     1
102
RTVSPropertyOp14
 70
     1
102
RTVSPropertyOp15
 70
     1
102
RTVSPropertyOp16
 70
     1
102
RTVSPropertyOp17
 70
     1
102
RTVSPropertyOp18
 70
     1
102
RTVSPropertyOp19
 70
     1
102
RTVSPropertyOp20
 70
     1
102
RTVSPropertyOp21
 70
     1
102
RTVSPropertyOp22
 70
     1
102
RTVSPropertyOp23
 70
     1
102
RTVSPropertyOp24
 70
     1
102
RTVSPropertyOp25
 70
     1
102
RTVSPropertyOp26
 70
     1
102
RTVSPropertyOp27
 70
     1
102
RTVSPropertyOp28
 70
     1
102
RTVSPropertyOp29
 70
     1
102
RTVSPropertyOp30
 70
     1
102
RTVSPropertyOp31
 70
     1
102
RTVSPropertyOp32
 70
     1
102
RTVSPropertyOp33
 70
     1
102
RTVSPropertyOp34
 70
     1
102
RTVSPropertyOp35
 70
     1
102
RTVSPropertyOp36
 70
     1
102
RTVSPropertyOp37
 70
     1
102
RTVSPropertyOp38
 70
     1
102
RTVSPropertyOp39
 70
     1
102
RTVSPropertyOp40
 70
     1
102
RTVSPropertyOp41
 70
     1
102
RTVSPropertyOp42
 70
     1
102
RTVSPropertyOp43
 70
     1
102
RTVSPropertyOp44
 70
     1
102
RTVSPropertyOp45
 70
     1
102
RTVSPropertyOp46
 70
     1
102
RTVSPropertyOp47
 70
     1
102
RTVSPropertyOp48
 70
     1
102
RTVSPropertyOp49
 70
     1
102
RTVSPropertyOp50
 70
     1
102
RTVSPropertyOp51
 70
     0
102
RTVSPropertyOp52
 70
     0
102
RTVSPropertyOp53
 70
     1
102
RTVSPropertyOp54
 70
     1
102
RTVSPropertyOp55
 70
     1
102
RTVSPropertyOp56
 70
     1
102
RTVSPropertyOp57
 70
     1
102
RTVSPost2010Prop28
280
     0
102
RTVSPost2010PropOp28
 70
     1
102
RTVSPost2010Prop29
280
     1
102
RTVSPost2010PropOp29
 70
     1
102
RTVSPost2010Prop30
280
     1
102
RTVSPost2010PropOp30
 70
     1
102
RTVSPost2010Prop31
280
     0
102
RTVSPost2010PropOp31
 70
     1
102
RTVSPost2010Prop32
280
     0
102
RTVSPost2010PropOp32
 70
     1
102
RTVSPost2010Prop33
280
     0
102
RTVSPost2010PropOp33
 70
     1
102
RTVSPost2010Prop34
280
     0
102
RTVSPost2010PropOp34
 70
     1
102
RTVSPost2010Prop35
280
     0
102
RTVSPost2010PropOp35
 70
     1
102
RTVSPost2010Prop36
280
     0
102
RTVSPost2010PropOp36
 70
     1
102
RTVSPost2010Prop37
 90
       50
102
RTVSPost2010PropOp37
 70
     1
102
RTVSPost2010Prop38
140
0.0
102
RTVSPost2010PropOp38
 70
     1
102
RTVSPost2010Prop39
140
1.0
102
RTVSPost2010PropOp39
 70
     1
102
RTVSPost2010Prop40
 90
        0
102
RTVSPost2010PropOp40
 70
     1
102
RTVSPost2010Prop41ColorIndex
 90
       18
102
RTVSPost2010Prop41ColorRGB
 90
        0
102
RTVSPost2010PropOp41
 70
     1
102
RTVSPost2010Prop42
 90
       50
102
RTVSPost2010PropOp42
 70
     1
102
RTVSPost2010Prop43
 90
        3
102
RTVSPost2010PropOp43
 70
     1
102
RTVSPost2010Prop44ColorIndex
 90
        5
102
RTVSPost2010Prop44ColorRGB
 90
      255
102
RTVSPost2010PropOp44
 70
     1
102
RTVSPost2010Prop45
280
     0
102
RTVSPost2010PropOp45
 70
     1
102
RTVSPost2010Prop46
 90
       50
102
RTVSPost2010PropOp46
 70
     1
102
RTVSPost2010Prop47
 90
       50
102
RTVSPost2010PropOp47
 70
     1
102
RTVSPost2010Prop48
 90
       50
102
RTVSPost2010PropOp48
 70
     1
102
RTVSPost2010Prop49
280
     0
102
RTVSPost2010PropOp49
 70
     1
102
RTVSPost2010Prop50
 90
       50
102
RTVSPost2010PropOp50
 70
     1
102
RTVSPost2010Prop51ColorIndex
 90
      256
102
RTVSPost2010Prop51ColorRGB
 90
-16777216
102
RTVSPost2010PropOp51
 70
     0
102
RTVSPost2010Prop52
140
1.0
102
RTVSPost2010PropOp52
 70
     0
102
RTVSPost2010Prop53
 90
        2
102
RTVSPost2010PropOp53
 70
     1
102
RTVSPost2010Prop54
  1
strokes_ogs.tif
102
RTVSPost2010PropOp54
 70
     1
102
RTVSPost2010Prop55
280
     0
102
RTVSPost2010PropOp55
 70
     1
102
RTVSPost2010Prop56
140
1.0
102
RTVSPost2010PropOp56
 70
     1
102
RTVSPost2010Prop57
140
1.0
102
RTVSPost2010PropOp57
 70
     1
  0
XRECORD
  5
42D
102
{ACAD_REACTORS
330
42C
102
}
330
42C
100
AcDbXrecord
280
     1
102
RTVSPropertyOp0
 70
     1
102
RTVSPropertyOp1
 70
     1
102
RTVSPropertyOp2
 70
     1
102
RTVSPropertyOp3
 70
     1
102
RTVSPropertyOp4
 70
     1
102
RTVSPropertyOp5
 70
     1
102
RTVSPropertyOp6
 70
     1
102
RTVSPropertyOp7
 70
     1
102
RTVSPropertyOp8
 70
     1
102
RTVSPropertyOp9
 70
     1
102
RTVSPropertyOp10
 70
     1
102
RTVSPropertyOp11
 70
     1
102
RTVSPropertyOp12
 70
     1
102
RTVSPropertyOp13
 70
     1
102
RTVSPropertyOp14
 70
     1
102
RTVSPropertyOp15
 70
     1
102
RTVSPropertyOp16
 70
     1
102
RTVSPropertyOp17
 70
     1
102
RTVSPropertyOp18
 70
     1
102
RTVSPropertyOp19
 70
     1
102
RTVSPropertyOp20
 70
     1
102
RTVSPropertyOp21
 70
     1
102
RTVSPropertyOp22
 70
     1
102
RTVSPropertyOp23
 70
     1
102
RTVSPropertyOp24
 70
     1
102
RTVSPropertyOp25
 70
     1
102
RTVSPropertyOp26
 70
     1
102
RTVSPropertyOp27
 70
     1
102
RTVSPropertyOp28
 70
     1
102
RTVSPropertyOp29
 70
     1
102
RTVSPropertyOp30
 70
     1
102
RTVSPropertyOp31
 70
     1
102
RTVSPropertyOp32
 70
     1
102
RTVSPropertyOp33
 70
     1
102
RTVSPropertyOp34
 70
     1
102
RTVSPropertyOp35
 70
     1
102
RTVSPropertyOp36
 70
     1
102
RTVSPropertyOp37
 70
     1
102
RTVSPropertyOp38
 70
     1
102
RTVSPropertyOp39
 70
     1
102
RTVSPropertyOp40
 70
     1
102
RTVSPropertyOp41
 70
     1
102
RTVSPropertyOp42
 70
     1
102
RTVSPropertyOp43
 70
     1
102
RTVSPropertyOp44
 70
     1
102
RTVSPropertyOp45
 70
     1
102
RTVSPropertyOp46
 70
     1
102
RTVSPropertyOp47
 70
     1
102
RTVSPropertyOp48
 70
     1
102
RTVSPropertyOp49
 70
     1
102
RTVSPropertyOp50
 70
     1
102
RTVSPropertyOp51
 70
     0
102
RTVSPropertyOp52
 70
     0
102
RTVSPropertyOp53
 70
     1
102
RTVSPropertyOp54
 70
     1
102
RTVSPropertyOp55
 70
     1
102
RTVSPropertyOp56
 70
     1
102
RTVSPropertyOp57
 70
     1
102
RTVSPost2010Prop28
280
     0
102
RTVSPost2010PropOp28
 70
     1
102
RTVSPost2010Prop29
280
     1
102
RTVSPost2010PropOp29
 70
     1
102
RTVSPost2010Prop30
280
     1
102
RTVSPost2010PropOp30
 70
     1
102
RTVSPost2010Prop31
280
     0
102
RTVSPost2010PropOp31
 70
     1
102
RTVSPost2010Prop32
280
     0
102
RTVSPost2010PropOp32
 70
     1
102
RTVSPost2010Prop33
280
     0
102
RTVSPost2010PropOp33
 70
     1
102
RTVSPost2010Prop34
280
     0
102
RTVSPost2010PropOp34
 70
     1
102
RTVSPost2010Prop35
280
     0
102
RTVSPost2010PropOp35
 70
     1
102
RTVSPost2010Prop36
280
     0
102
RTVSPost2010PropOp36
 70
     1
102
RTVSPost2010Prop37
 90
       50
102
RTVSPost2010PropOp37
 70
     1
102
RTVSPost2010Prop38
140
0.0
102
RTVSPost2010PropOp38
 70
     1
102
RTVSPost2010Prop39
140
1.0
102
RTVSPost2010PropOp39
 70
     1
102
RTVSPost2010Prop40
 90
        0
102
RTVSPost2010PropOp40
 70
     1
102
RTVSPost2010Prop41ColorIndex
 90
       18
102
RTVSPost2010Prop41ColorRGB
 90
        0
102
RTVSPost2010PropOp41
 70
     1
102
RTVSPost2010Prop42
 90
       50
102
RTVSPost2010PropOp42
 70
     1
102
RTVSPost2010Prop43
 90
        3
102
RTVSPost2010PropOp43
 70
     1
102
RTVSPost2010Prop44ColorIndex
 90
        5
102
RTVSPost2010Prop44ColorRGB
 90
      255
102
RTVSPost2010PropOp44
 70
     1
102
RTVSPost2010Prop45
280
     0
102
RTVSPost2010PropOp45
 70
     1
102
RTVSPost2010Prop46
 90
       50
102
RTVSPost2010PropOp46
 70
     1
102
RTVSPost2010Prop47
 90
       50
102
RTVSPost2010PropOp47
 70
     1
102
RTVSPost2010Prop48
 90
       50
102
RTVSPost2010PropOp48
 70
     1
102
RTVSPost2010Prop49
280
     0
102
RTVSPost2010PropOp49
 70
     1
102
RTVSPost2010Prop50
 90
       50
102
RTVSPost2010PropOp50
 70
     1
102
RTVSPost2010Prop51ColorIndex
 90
      256
102
RTVSPost2010Prop51ColorRGB
 90
-16777216
102
RTVSPost2010PropOp51
 70
     0
102
RTVSPost2010Prop52
140
1.0
102
RTVSPost2010PropOp52
 70
     0
102
RTVSPost2010Prop53
 90
        2
102
RTVSPost2010PropOp53
 70
     1
102
RTVSPost2010Prop54
  1
strokes_ogs.tif
102
RTVSPost2010PropOp54
 70
     1
102
RTVSPost2010Prop55
280
     0
102
RTVSPost2010PropOp55
 70
     1
102
RTVSPost2010Prop56
140
1.0
102
RTVSPost2010PropOp56
 70
     1
102
RTVSPost2010Prop57
140
1.0
102
RTVSPost2010PropOp57
 70
     1
  0
XRECORD
  5
42F
102
{ACAD_REACTORS
330
42E
102
}
330
42E
100
AcDbXrecord
280
     1
102
RTVSPropertyOp0
 70
     1
102
RTVSPropertyOp1
 70
     1
102
RTVSPropertyOp2
 70
     1
102
RTVSPropertyOp3
 70
     1
102
RTVSPropertyOp4
 70
     1
102
RTVSPropertyOp5
 70
     1
102
RTVSPropertyOp6
 70
     1
102
RTVSPropertyOp7
 70
     1
102
RTVSPropertyOp8
 70
     1
102
RTVSPropertyOp9
 70
     1
102
RTVSPropertyOp10
 70
     1
102
RTVSPropertyOp11
 70
     1
102
RTVSPropertyOp12
 70
     1
102
RTVSPropertyOp13
 70
     1
102
RTVSPropertyOp14
 70
     1
102
RTVSPropertyOp15
 70
     1
102
RTVSPropertyOp16
 70
     1
102
RTVSPropertyOp17
 70
     1
102
RTVSPropertyOp18
 70
     1
102
RTVSPropertyOp19
 70
     1
102
RTVSPropertyOp20
 70
     1
102
RTVSPropertyOp21
 70
     1
102
RTVSPropertyOp22
 70
     1
102
RTVSPropertyOp23
 70
     1
102
RTVSPropertyOp24
 70
     1
102
RTVSPropertyOp25
 70
     1
102
RTVSPropertyOp26
 70
     1
102
RTVSPropertyOp27
 70
     1
102
RTVSPropertyOp28
 70
     1
102
RTVSPropertyOp29
 70
     1
102
RTVSPropertyOp30
 70
     1
102
RTVSPropertyOp31
 70
     1
102
RTVSPropertyOp32
 70
     1
102
RTVSPropertyOp33
 70
     1
102
RTVSPropertyOp34
 70
     1
102
RTVSPropertyOp35
 70
     1
102
RTVSPropertyOp36
 70
     1
102
RTVSPropertyOp37
 70
     1
102
RTVSPropertyOp38
 70
     1
102
RTVSPropertyOp39
 70
     1
102
RTVSPropertyOp40
 70
     1
102
RTVSPropertyOp41
 70
     1
102
RTVSPropertyOp42
 70
     1
102
RTVSPropertyOp43
 70
     1
102
RTVSPropertyOp44
 70
     1
102
RTVSPropertyOp45
 70
     1
102
RTVSPropertyOp46
 70
     1
102
RTVSPropertyOp47
 70
     1
102
RTVSPropertyOp48
 70
     1
102
RTVSPropertyOp49
 70
     1
102
RTVSPropertyOp50
 70
     1
102
RTVSPropertyOp51
 70
     0
102
RTVSPropertyOp52
 70
     0
102
RTVSPropertyOp53
 70
     1
102
RTVSPropertyOp54
 70
     1
102
RTVSPropertyOp55
 70
     1
102
RTVSPropertyOp56
 70
     1
102
RTVSPropertyOp57
 70
     1
102
RTVSPost2010Prop28
280
     0
102
RTVSPost2010PropOp28
 70
     1
102
RTVSPost2010Prop29
280
     1
102
RTVSPost2010PropOp29
 70
     1
102
RTVSPost2010Prop30
280
     1
102
RTVSPost2010PropOp30
 70
     1
102
RTVSPost2010Prop31
280
     0
102
RTVSPost2010PropOp31
 70
     1
102
RTVSPost2010Prop32
280
     0
102
RTVSPost2010PropOp32
 70
     1
102
RTVSPost2010Prop33
280
     0
102
RTVSPost2010PropOp33
 70
     1
102
RTVSPost2010Prop34
280
     0
102
RTVSPost2010PropOp34
 70
     1
102
RTVSPost2010Prop35
280
     0
102
RTVSPost2010PropOp35
 70
     1
102
RTVSPost2010Prop36
280
     0
102
RTVSPost2010PropOp36
 70
     1
102
RTVSPost2010Prop37
 90
       50
102
RTVSPost2010PropOp37
 70
     1
102
RTVSPost2010Prop38
140
0.0
102
RTVSPost2010PropOp38
 70
     1
102
RTVSPost2010Prop39
140
1.0
102
RTVSPost2010PropOp39
 70
     1
102
RTVSPost2010Prop40
 90
        0
102
RTVSPost2010PropOp40
 70
     1
102
RTVSPost2010Prop41ColorIndex
 90
       18
102
RTVSPost2010Prop41ColorRGB
 90
        0
102
RTVSPost2010PropOp41
 70
     1
102
RTVSPost2010Prop42
 90
       50
102
RTVSPost2010PropOp42
 70
     1
102
RTVSPost2010Prop43
 90
        3
102
RTVSPost2010PropOp43
 70
     1
102
RTVSPost2010Prop44ColorIndex
 90
        5
102
RTVSPost2010Prop44ColorRGB
 90
      255
102
RTVSPost2010PropOp44
 70
     1
102
RTVSPost2010Prop45
280
     0
102
RTVSPost2010PropOp45
 70
     1
102
RTVSPost2010Prop46
 90
       50
102
RTVSPost2010PropOp46
 70
     1
102
RTVSPost2010Prop47
 90
       50
102
RTVSPost2010PropOp47
 70
     1
102
RTVSPost2010Prop48
 90
       50
102
RTVSPost2010PropOp48
 70
     1
102
RTVSPost2010Prop49
280
     0
102
RTVSPost2010PropOp49
 70
     1
102
RTVSPost2010Prop50
 90
       50
102
RTVSPost2010PropOp50
 70
     1
102
RTVSPost2010Prop51ColorIndex
 90
      256
102
RTVSPost2010Prop51ColorRGB
 90
-16777216
102
RTVSPost2010PropOp51
 70
     0
102
RTVSPost2010Prop52
140
1.0
102
RTVSPost2010PropOp52
 70
     0
102
RTVSPost2010Prop53
 90
        2
102
RTVSPost2010PropOp53
 70
     1
102
RTVSPost2010Prop54
  1
strokes_ogs.tif
102
RTVSPost2010PropOp54
 70
     1
102
RTVSPost2010Prop55
280
     0
102
RTVSPost2010PropOp55
 70
     1
102
RTVSPost2010Prop56
140
1.0
102
RTVSPost2010PropOp56
 70
     1
102
RTVSPost2010Prop57
140
1.0
102
RTVSPost2010PropOp57
 70
     1
  0
XRECORD
  5
435
102
{ACAD_REACTORS
330
434
102
}
330
434
100
AcDbXrecord
280
     1
102
RTVSPropertyOp0
 70
     1
102
RTVSPropertyOp1
 70
     1
102
RTVSPropertyOp2
 70
     1
102
RTVSPropertyOp3
 70
     1
102
RTVSPropertyOp4
 70
     1
102
RTVSPropertyOp5
 70
     1
102
RTVSPropertyOp6
 70
     1
102
RTVSPropertyOp7
 70
     1
102
RTVSPropertyOp8
 70
     1
102
RTVSPropertyOp9
 70
     1
102
RTVSPropertyOp10
 70
     1
102
RTVSPropertyOp11
 70
     1
102
RTVSPropertyOp12
 70
     1
102
RTVSPropertyOp13
 70
     1
102
RTVSPropertyOp14
 70
     1
102
RTVSPropertyOp15
 70
     1
102
RTVSPropertyOp16
 70
     1
102
RTVSPropertyOp17
 70
     1
102
RTVSPropertyOp18
 70
     1
102
RTVSPropertyOp19
 70
     1
102
RTVSPropertyOp20
 70
     1
102
RTVSPropertyOp21
 70
     1
102
RTVSPropertyOp22
 70
     1
102
RTVSPropertyOp23
 70
     1
102
RTVSPropertyOp24
 70
     1
102
RTVSPropertyOp25
 70
     1
102
RTVSPropertyOp26
 70
     1
102
RTVSPropertyOp27
 70
     1
102
RTVSPropertyOp28
 70
     1
102
RTVSPropertyOp29
 70
     1
102
RTVSPropertyOp30
 70
     1
102
RTVSPropertyOp31
 70
     1
102
RTVSPropertyOp32
 70
     1
102
RTVSPropertyOp33
 70
     1
102
RTVSPropertyOp34
 70
     1
102
RTVSPropertyOp35
 70
     1
102
RTVSPropertyOp36
 70
     1
102
RTVSPropertyOp37
 70
     1
102
RTVSPropertyOp38
 70
     1
102
RTVSPropertyOp39
 70
     1
102
RTVSPropertyOp40
 70
     1
102
RTVSPropertyOp41
 70
     1
102
RTVSPropertyOp42
 70
     1
102
RTVSPropertyOp43
 70
     1
102
RTVSPropertyOp44
 70
     1
102
RTVSPropertyOp45
 70
     1
102
RTVSPropertyOp46
 70
     1
102
RTVSPropertyOp47
 70
     1
102
RTVSPropertyOp48
 70
     1
102
RTVSPropertyOp49
 70
     1
102
RTVSPropertyOp50
 70
     1
102
RTVSPropertyOp51
 70
     0
102
RTVSPropertyOp52
 70
     0
102
RTVSPropertyOp53
 70
     1
102
RTVSPropertyOp54
 70
     1
102
RTVSPropertyOp55
 70
     1
102
RTVSPropertyOp56
 70
     1
102
RTVSPropertyOp57
 70
     1
102
RTVSPost2010Prop28
280
     0
102
RTVSPost2010PropOp28
 70
     1
102
RTVSPost2010Prop29
280
     1
102
RTVSPost2010PropOp29
 70
     1
102
RTVSPost2010Prop30
280
     1
102
RTVSPost2010PropOp30
 70
     1
102
RTVSPost2010Prop31
280
     0
102
RTVSPost2010PropOp31
 70
     1
102
RTVSPost2010Prop32
280
     0
102
RTVSPost2010PropOp32
 70
     1
102
RTVSPost2010Prop33
280
     0
102
RTVSPost2010PropOp33
 70
     1
102
RTVSPost2010Prop34
280
     0
102
RTVSPost2010PropOp34
 70
     1
102
RTVSPost2010Prop35
280
     0
102
RTVSPost2010PropOp35
 70
     1
102
RTVSPost2010Prop36
280
     0
102
RTVSPost2010PropOp36
 70
     1
102
RTVSPost2010Prop37
 90
       50
102
RTVSPost2010PropOp37
 70
     1
102
RTVSPost2010Prop38
140
0.0
102
RTVSPost2010PropOp38
 70
     1
102
RTVSPost2010Prop39
140
1.0
102
RTVSPost2010PropOp39
 70
     1
102
RTVSPost2010Prop40
 90
        0
102
RTVSPost2010PropOp40
 70
     1
102
RTVSPost2010Prop41ColorIndex
 90
       18
102
RTVSPost2010Prop41ColorRGB
 90
        0
102
RTVSPost2010PropOp41
 70
     1
102
RTVSPost2010Prop42
 90
       50
102
RTVSPost2010PropOp42
 70
     1
102
RTVSPost2010Prop43
 90
        3
102
RTVSPost2010PropOp43
 70
     1
102
RTVSPost2010Prop44ColorIndex
 90
        5
102
RTVSPost2010Prop44ColorRGB
 90
      255
102
RTVSPost2010PropOp44
 70
     1
102
RTVSPost2010Prop45
280
     0
102
RTVSPost2010PropOp45
 70
     1
102
RTVSPost2010Prop46
 90
       50
102
RTVSPost2010PropOp46
 70
     1
102
RTVSPost2010Prop47
 90
       50
102
RTVSPost2010PropOp47
 70
     1
102
RTVSPost2010Prop48
 90
       50
102
RTVSPost2010PropOp48
 70
     1
102
RTVSPost2010Prop49
280
     0
102
RTVSPost2010PropOp49
 70
     1
102
RTVSPost2010Prop50
 90
       50
102
RTVSPost2010PropOp50
 70
     1
102
RTVSPost2010Prop51ColorIndex
 90
      256
102
RTVSPost2010Prop51ColorRGB
 90
-16777216
102
RTVSPost2010PropOp51
 70
     0
102
RTVSPost2010Prop52
140
1.0
102
RTVSPost2010PropOp52
 70
     0
102
RTVSPost2010Prop53
 90
        2
102
RTVSPost2010PropOp53
 70
     1
102
RTVSPost2010Prop54
  1
strokes_ogs.tif
102
RTVSPost2010PropOp54
 70
     1
102
RTVSPost2010Prop55
280
     0
102
RTVSPost2010PropOp55
 70
     1
102
RTVSPost2010Prop56
140
1.0
102
RTVSPost2010PropOp56
 70
     1
102
RTVSPost2010Prop57
140
1.0
102
RTVSPost2010PropOp57
 70
     1
  0
XRECORD
  5
449
102
{ACAD_REACTORS
330
448
102
}
330
448
100
AcDbXrecord
280
     1
102
RTVSPropertyOp0
 70
     0
102
RTVSPropertyOp1
 70
     0
102
RTVSPropertyOp2
 70
     0
102
RTVSPropertyOp3
 70
     0
102
RTVSPropertyOp4
 70
     0
102
RTVSPropertyOp5
 70
     0
102
RTVSPropertyOp6
 70
     0
102
RTVSPropertyOp7
 70
     0
102
RTVSPropertyOp8
 70
     0
102
RTVSPropertyOp9
 70
     0
102
RTVSPropertyOp10
 70
     0
102
RTVSPropertyOp11
 70
     0
102
RTVSPropertyOp12
 70
     0
102
RTVSPropertyOp13
 70
     0
102
RTVSPropertyOp14
 70
     2
102
RTVSPropertyOp15
 70
     0
102
RTVSPropertyOp16
 70
     0
102
RTVSPropertyOp17
 70
     0
102
RTVSPropertyOp18
 70
     0
102
RTVSPropertyOp19
 70
     0
102
RTVSPropertyOp20
 70
     0
102
RTVSPropertyOp21
 70
     0
102
RTVSPropertyOp22
 70
     0
102
RTVSPropertyOp23
 70
     0
102
RTVSPropertyOp24
 70
     0
102
RTVSPropertyOp25
 70
     0
102
RTVSPropertyOp26
 70
     0
102
RTVSPropertyOp27
 70
     0
102
RTVSPropertyOp28
 70
     0
102
RTVSPropertyOp29
 70
     0
102
RTVSPropertyOp30
 70
     0
102
RTVSPropertyOp31
 70
     0
102
RTVSPropertyOp32
 70
     0
102
RTVSPropertyOp33
 70
     0
102
RTVSPropertyOp34
 70
     0
102
RTVSPropertyOp35
 70
     0
102
RTVSPropertyOp36
 70
     0
102
RTVSPropertyOp37
 70
     0
102
RTVSPropertyOp38
 70
     0
102
RTVSPropertyOp39
 70
     0
102
RTVSPropertyOp40
 70
     0
102
RTVSPropertyOp41
 70
     0
102
RTVSPropertyOp42
 70
     0
102
RTVSPropertyOp43
 70
     0
102
RTVSPropertyOp44
 70
     0
102
RTVSPropertyOp45
 70
     0
102
RTVSPropertyOp46
 70
     0
102
RTVSPropertyOp47
 70
     0
102
RTVSPropertyOp48
 70
     0
102
RTVSPropertyOp49
 70
     0
102
RTVSPropertyOp50
 70
     0
102
RTVSPropertyOp51
 70
     0
102
RTVSPropertyOp52
 70
     0
102
RTVSPropertyOp53
 70
     0
102
RTVSPropertyOp54
 70
     0
102
RTVSPropertyOp55
 70
     0
102
RTVSPropertyOp56
 70
     0
102
RTVSPropertyOp57
 70
     0
102
RTVSPost2010Prop28
280
     0
102
RTVSPost2010PropOp28
 70
     0
102
RTVSPost2010Prop29
280
     1
102
RTVSPost2010PropOp29
 70
     0
102
RTVSPost2010Prop30
280
     1
102
RTVSPost2010PropOp30
 70
     0
102
RTVSPost2010Prop31
280
     0
102
RTVSPost2010PropOp31
 70
     0
102
RTVSPost2010Prop32
280
     0
102
RTVSPost2010PropOp32
 70
     0
102
RTVSPost2010Prop33
280
     0
102
RTVSPost2010PropOp33
 70
     0
102
RTVSPost2010Prop34
280
     0
102
RTVSPost2010PropOp34
 70
     0
102
RTVSPost2010Prop35
280
     0
102
RTVSPost2010PropOp35
 70
     0
102
RTVSPost2010Prop36
280
     0
102
RTVSPost2010PropOp36
 70
     0
102
RTVSPost2010Prop37
 90
       50
102
RTVSPost2010PropOp37
 70
     0
102
RTVSPost2010Prop38
140
0.0
102
RTVSPost2010PropOp38
 70
     0
102
RTVSPost2010Prop39
140
1.0
102
RTVSPost2010PropOp39
 70
     0
102
RTVSPost2010Prop40
 90
        0
102
RTVSPost2010PropOp40
 70
     0
102
RTVSPost2010Prop41ColorIndex
 90
       18
102
RTVSPost2010Prop41ColorRGB
 90
        0
102
RTVSPost2010PropOp41
 70
     0
102
RTVSPost2010Prop42
 90
       50
102
RTVSPost2010PropOp42
 70
     0
102
RTVSPost2010Prop43
 90
        3
102
RTVSPost2010PropOp43
 70
     0
102
RTVSPost2010Prop44ColorIndex
 90
        5
102
RTVSPost2010Prop44ColorRGB
 90
      255
102
RTVSPost2010PropOp44
 70
     0
102
RTVSPost2010Prop45
280
     0
102
RTVSPost2010PropOp45
 70
     0
102
RTVSPost2010Prop46
 90
       50
102
RTVSPost2010PropOp46
 70
     0
102
RTVSPost2010Prop47
 90
       50
102
RTVSPost2010PropOp47
 70
     0
102
RTVSPost2010Prop48
 90
       50
102
RTVSPost2010PropOp48
 70
     0
102
RTVSPost2010Prop49
280
     0
102
RTVSPost2010PropOp49
 70
     0
102
RTVSPost2010Prop50
 90
       50
102
RTVSPost2010PropOp50
 70
     0
102
RTVSPost2010Prop51ColorIndex
 90
      256
102
RTVSPost2010Prop51ColorRGB
 90
-16777216
102
RTVSPost2010PropOp51
 70
     0
102
RTVSPost2010Prop52
140
1.0
102
RTVSPost2010PropOp52
 70
     0
102
RTVSPost2010Prop53
 90
        2
102
RTVSPost2010PropOp53
 70
     0
102
RTVSPost2010Prop54
  1
strokes_ogs.tif
102
RTVSPost2010PropOp54
 70
     0
102
RTVSPost2010Prop55
280
     0
102
RTVSPost2010PropOp55
 70
     0
102
RTVSPost2010Prop56
140
1.0
102
RTVSPost2010PropOp56
 70
     0
102
RTVSPost2010Prop57
140
1.0
102
RTVSPost2010PropOp57
 70
     0
  0
XRECORD
  5
443
102
{ACAD_REACTORS
330
442
102
}
330
442
100
AcDbXrecord
280
     1
102
RTVSPropertyOp0
 70
     1
102
RTVSPropertyOp1
 70
     1
102
RTVSPropertyOp2
 70
     1
102
RTVSPropertyOp3
 70
     1
102
RTVSPropertyOp4
 70
     1
102
RTVSPropertyOp5
 70
     1
102
RTVSPropertyOp6
 70
     1
102
RTVSPropertyOp7
 70
     1
102
RTVSPropertyOp8
 70
     1
102
RTVSPropertyOp9
 70
     1
102
RTVSPropertyOp10
 70
     1
102
RTVSPropertyOp11
 70
     1
102
RTVSPropertyOp12
 70
     1
102
RTVSPropertyOp13
 70
     1
102
RTVSPropertyOp14
 70
     1
102
RTVSPropertyOp15
 70
     1
102
RTVSPropertyOp16
 70
     1
102
RTVSPropertyOp17
 70
     1
102
RTVSPropertyOp18
 70
     1
102
RTVSPropertyOp19
 70
     1
102
RTVSPropertyOp20
 70
     1
102
RTVSPropertyOp21
 70
     1
102
RTVSPropertyOp22
 70
     1
102
RTVSPropertyOp23
 70
     1
102
RTVSPropertyOp24
 70
     1
102
RTVSPropertyOp25
 70
     1
102
RTVSPropertyOp26
 70
     1
102
RTVSPropertyOp27
 70
     1
102
RTVSPropertyOp28
 70
     1
102
RTVSPropertyOp29
 70
     1
102
RTVSPropertyOp30
 70
     1
102
RTVSPropertyOp31
 70
     1
102
RTVSPropertyOp32
 70
     1
102
RTVSPropertyOp33
 70
     1
102
RTVSPropertyOp34
 70
     1
102
RTVSPropertyOp35
 70
     1
102
RTVSPropertyOp36
 70
     1
102
RTVSPropertyOp37
 70
     1
102
RTVSPropertyOp38
 70
     1
102
RTVSPropertyOp39
 70
     1
102
RTVSPropertyOp40
 70
     1
102
RTVSPropertyOp41
 70
     1
102
RTVSPropertyOp42
 70
     1
102
RTVSPropertyOp43
 70
     1
102
RTVSPropertyOp44
 70
     1
102
RTVSPropertyOp45
 70
     1
102
RTVSPropertyOp46
 70
     1
102
RTVSPropertyOp47
 70
     1
102
RTVSPropertyOp48
 70
     1
102
RTVSPropertyOp49
 70
     1
102
RTVSPropertyOp50
 70
     1
102
RTVSPropertyOp51
 70
     0
102
RTVSPropertyOp52
 70
     0
102
RTVSPropertyOp53
 70
     1
102
RTVSPropertyOp54
 70
     1
102
RTVSPropertyOp55
 70
     1
102
RTVSPropertyOp56
 70
     1
102
RTVSPropertyOp57
 70
     1
102
RTVSPost2010Prop28
280
     0
102
RTVSPost2010PropOp28
 70
     1
102
RTVSPost2010Prop29
280
     1
102
RTVSPost2010PropOp29
 70
     1
102
RTVSPost2010Prop30
280
     1
102
RTVSPost2010PropOp30
 70
     1
102
RTVSPost2010Prop31
280
     0
102
RTVSPost2010PropOp31
 70
     1
102
RTVSPost2010Prop32
280
     0
102
RTVSPost2010PropOp32
 70
     1
102
RTVSPost2010Prop33
280
     0
102
RTVSPost2010PropOp33
 70
     1
102
RTVSPost2010Prop34
280
     0
102
RTVSPost2010PropOp34
 70
     1
102
RTVSPost2010Prop35
280
     0
102
RTVSPost2010PropOp35
 70
     1
102
RTVSPost2010Prop36
280
     0
102
RTVSPost2010PropOp36
 70
     1
102
RTVSPost2010Prop37
 90
       50
102
RTVSPost2010PropOp37
 70
     1
102
RTVSPost2010Prop38
140
0.0
102
RTVSPost2010PropOp38
 70
     1
102
RTVSPost2010Prop39
140
1.0
102
RTVSPost2010PropOp39
 70
     1
102
RTVSPost2010Prop40
 90
        0
102
RTVSPost2010PropOp40
 70
     1
102
RTVSPost2010Prop41ColorIndex
 90
       18
102
RTVSPost2010Prop41ColorRGB
 90
        0
102
RTVSPost2010PropOp41
 70
     1
102
RTVSPost2010Prop42
 90
       50
102
RTVSPost2010PropOp42
 70
     1
102
RTVSPost2010Prop43
 90
        3
102
RTVSPost2010PropOp43
 70
     1
102
RTVSPost2010Prop44ColorIndex
 90
        5
102
RTVSPost2010Prop44ColorRGB
 90
      255
102
RTVSPost2010PropOp44
 70
     1
102
RTVSPost2010Prop45
280
     0
102
RTVSPost2010PropOp45
 70
     1
102
RTVSPost2010Prop46
 90
       50
102
RTVSPost2010PropOp46
 70
     1
102
RTVSPost2010Prop47
 90
       50
102
RTVSPost2010PropOp47
 70
     1
102
RTVSPost2010Prop48
 90
       50
102
RTVSPost2010PropOp48
 70
     1
102
RTVSPost2010Prop49
280
     0
102
RTVSPost2010PropOp49
 70
     1
102
RTVSPost2010Prop50
 90
       50
102
RTVSPost2010PropOp50
 70
     1
102
RTVSPost2010Prop51ColorIndex
 90
      256
102
RTVSPost2010Prop51ColorRGB
 90
-16777216
102
RTVSPost2010PropOp51
 70
     0
102
RTVSPost2010Prop52
140
1.0
102
RTVSPost2010PropOp52
 70
     0
102
RTVSPost2010Prop53
 90
        2
102
RTVSPost2010PropOp53
 70
     1
102
RTVSPost2010Prop54
  1
strokes_ogs.tif
102
RTVSPost2010PropOp54
 70
     1
102
RTVSPost2010Prop55
280
     0
102
RTVSPost2010PropOp55
 70
     1
102
RTVSPost2010Prop56
140
1.0
102
RTVSPost2010PropOp56
 70
     1
102
RTVSPost2010Prop57
140
1.0
102
RTVSPost2010PropOp57
 70
     1
  0
XRECORD
  5
44B
102
{ACAD_REACTORS
330
44A
102
}
330
44A
100
AcDbXrecord
280
     1
102
RTVSPropertyOp0
 70
     0
102
RTVSPropertyOp1
 70
     0
102
RTVSPropertyOp2
 70
     0
102
RTVSPropertyOp3
 70
     0
102
RTVSPropertyOp4
 70
     0
102
RTVSPropertyOp5
 70
     0
102
RTVSPropertyOp6
 70
     0
102
RTVSPropertyOp7
 70
     0
102
RTVSPropertyOp8
 70
     0
102
RTVSPropertyOp9
 70
     0
102
RTVSPropertyOp10
 70
     0
102
RTVSPropertyOp11
 70
     0
102
RTVSPropertyOp12
 70
     0
102
RTVSPropertyOp13
 70
     0
102
RTVSPropertyOp14
 70
     2
102
RTVSPropertyOp15
 70
     0
102
RTVSPropertyOp16
 70
     0
102
RTVSPropertyOp17
 70
     0
102
RTVSPropertyOp18
 70
     0
102
RTVSPropertyOp19
 70
     0
102
RTVSPropertyOp20
 70
     0
102
RTVSPropertyOp21
 70
     0
102
RTVSPropertyOp22
 70
     0
102
RTVSPropertyOp23
 70
     0
102
RTVSPropertyOp24
 70
     0
102
RTVSPropertyOp25
 70
     0
102
RTVSPropertyOp26
 70
     0
102
RTVSPropertyOp27
 70
     0
102
RTVSPropertyOp28
 70
     0
102
RTVSPropertyOp29
 70
     0
102
RTVSPropertyOp30
 70
     0
102
RTVSPropertyOp31
 70
     0
102
RTVSPropertyOp32
 70
     0
102
RTVSPropertyOp33
 70
     0
102
RTVSPropertyOp34
 70
     0
102
RTVSPropertyOp35
 70
     0
102
RTVSPropertyOp36
 70
     0
102
RTVSPropertyOp37
 70
     0
102
RTVSPropertyOp38
 70
     0
102
RTVSPropertyOp39
 70
     0
102
RTVSPropertyOp40
 70
     0
102
RTVSPropertyOp41
 70
     0
102
RTVSPropertyOp42
 70
     0
102
RTVSPropertyOp43
 70
     0
102
RTVSPropertyOp44
 70
     0
102
RTVSPropertyOp45
 70
     0
102
RTVSPropertyOp46
 70
     0
102
RTVSPropertyOp47
 70
     0
102
RTVSPropertyOp48
 70
     0
102
RTVSPropertyOp49
 70
     0
102
RTVSPropertyOp50
 70
     0
102
RTVSPropertyOp51
 70
     0
102
RTVSPropertyOp52
 70
     0
102
RTVSPropertyOp53
 70
     0
102
RTVSPropertyOp54
 70
     0
102
RTVSPropertyOp55
 70
     0
102
RTVSPropertyOp56
 70
     0
102
RTVSPropertyOp57
 70
     0
102
RTVSPost2010Prop28
280
     0
102
RTVSPost2010PropOp28
 70
     0
102
RTVSPost2010Prop29
280
     1
102
RTVSPost2010PropOp29
 70
     0
102
RTVSPost2010Prop30
280
     1
102
RTVSPost2010PropOp30
 70
     0
102
RTVSPost2010Prop31
280
     0
102
RTVSPost2010PropOp31
 70
     0
102
RTVSPost2010Prop32
280
     0
102
RTVSPost2010PropOp32
 70
     0
102
RTVSPost2010Prop33
280
     0
102
RTVSPost2010PropOp33
 70
     0
102
RTVSPost2010Prop34
280
     0
102
RTVSPost2010PropOp34
 70
     0
102
RTVSPost2010Prop35
280
     0
102
RTVSPost2010PropOp35
 70
     0
102
RTVSPost2010Prop36
280
     0
102
RTVSPost2010PropOp36
 70
     0
102
RTVSPost2010Prop37
 90
       50
102
RTVSPost2010PropOp37
 70
     0
102
RTVSPost2010Prop38
140
0.0
102
RTVSPost2010PropOp38
 70
     0
102
RTVSPost2010Prop39
140
1.0
102
RTVSPost2010PropOp39
 70
     0
102
RTVSPost2010Prop40
 90
        0
102
RTVSPost2010PropOp40
 70
     0
102
RTVSPost2010Prop41ColorIndex
 90
       18
102
RTVSPost2010Prop41ColorRGB
 90
        0
102
RTVSPost2010PropOp41
 70
     0
102
RTVSPost2010Prop42
 90
       50
102
RTVSPost2010PropOp42
 70
     0
102
RTVSPost2010Prop43
 90
        3
102
RTVSPost2010PropOp43
 70
     0
102
RTVSPost2010Prop44ColorIndex
 90
        5
102
RTVSPost2010Prop44ColorRGB
 90
      255
102
RTVSPost2010PropOp44
 70
     0
102
RTVSPost2010Prop45
280
     0
102
RTVSPost2010PropOp45
 70
     0
102
RTVSPost2010Prop46
 90
       50
102
RTVSPost2010PropOp46
 70
     0
102
RTVSPost2010Prop47
 90
       50
102
RTVSPost2010PropOp47
 70
     0
102
RTVSPost2010Prop48
 90
       50
102
RTVSPost2010PropOp48
 70
     0
102
RTVSPost2010Prop49
280
     0
102
RTVSPost2010PropOp49
 70
     0
102
RTVSPost2010Prop50
 90
       50
102
RTVSPost2010PropOp50
 70
     0
102
RTVSPost2010Prop51ColorIndex
 90
      256
102
RTVSPost2010Prop51ColorRGB
 90
-16777216
102
RTVSPost2010PropOp51
 70
     0
102
RTVSPost2010Prop52
140
1.0
102
RTVSPost2010PropOp52
 70
     0
102
RTVSPost2010Prop53
 90
        2
102
RTVSPost2010PropOp53
 70
     0
102
RTVSPost2010Prop54
  1
strokes_ogs.tif
102
RTVSPost2010PropOp54
 70
     0
102
RTVSPost2010Prop55
280
     0
102
RTVSPost2010PropOp55
 70
     0
102
RTVSPost2010Prop56
140
1.0
102
RTVSPost2010PropOp56
 70
     0
102
RTVSPost2010Prop57
140
1.0
102
RTVSPost2010PropOp57
 70
     0
  0
XRECORD
  5
439
102
{ACAD_REACTORS
330
438
102
}
330
438
100
AcDbXrecord
280
     1
102
RTVSPropertyOp0
 70
     1
102
RTVSPropertyOp1
 70
     1
102
RTVSPropertyOp2
 70
     1
102
RTVSPropertyOp3
 70
     1
102
RTVSPropertyOp4
 70
     1
102
RTVSPropertyOp5
 70
     1
102
RTVSPropertyOp6
 70
     1
102
RTVSPropertyOp7
 70
     1
102
RTVSPropertyOp8
 70
     1
102
RTVSPropertyOp9
 70
     1
102
RTVSPropertyOp10
 70
     1
102
RTVSPropertyOp11
 70
     1
102
RTVSPropertyOp12
 70
     1
102
RTVSPropertyOp13
 70
     1
102
RTVSPropertyOp14
 70
     1
102
RTVSPropertyOp15
 70
     1
102
RTVSPropertyOp16
 70
     1
102
RTVSPropertyOp17
 70
     1
102
RTVSPropertyOp18
 70
     1
102
RTVSPropertyOp19
 70
     1
102
RTVSPropertyOp20
 70
     1
102
RTVSPropertyOp21
 70
     1
102
RTVSPropertyOp22
 70
     1
102
RTVSPropertyOp23
 70
     1
102
RTVSPropertyOp24
 70
     1
102
RTVSPropertyOp25
 70
     1
102
RTVSPropertyOp26
 70
     1
102
RTVSPropertyOp27
 70
     1
102
RTVSPropertyOp28
 70
     1
102
RTVSPropertyOp29
 70
     1
102
RTVSPropertyOp30
 70
     1
102
RTVSPropertyOp31
 70
     1
102
RTVSPropertyOp32
 70
     1
102
RTVSPropertyOp33
 70
     1
102
RTVSPropertyOp34
 70
     1
102
RTVSPropertyOp35
 70
     1
102
RTVSPropertyOp36
 70
     1
102
RTVSPropertyOp37
 70
     1
102
RTVSPropertyOp38
 70
     1
102
RTVSPropertyOp39
 70
     1
102
RTVSPropertyOp40
 70
     1
102
RTVSPropertyOp41
 70
     1
102
RTVSPropertyOp42
 70
     1
102
RTVSPropertyOp43
 70
     1
102
RTVSPropertyOp44
 70
     1
102
RTVSPropertyOp45
 70
     1
102
RTVSPropertyOp46
 70
     1
102
RTVSPropertyOp47
 70
     1
102
RTVSPropertyOp48
 70
     1
102
RTVSPropertyOp49
 70
     1
102
RTVSPropertyOp50
 70
     1
102
RTVSPropertyOp51
 70
     0
102
RTVSPropertyOp52
 70
     0
102
RTVSPropertyOp53
 70
     1
102
RTVSPropertyOp54
 70
     1
102
RTVSPropertyOp55
 70
     1
102
RTVSPropertyOp56
 70
     1
102
RTVSPropertyOp57
 70
     1
102
RTVSPost2010Prop28
280
     0
102
RTVSPost2010PropOp28
 70
     1
102
RTVSPost2010Prop29
280
     1
102
RTVSPost2010PropOp29
 70
     1
102
RTVSPost2010Prop30
280
     1
102
RTVSPost2010PropOp30
 70
     1
102
RTVSPost2010Prop31
280
     0
102
RTVSPost2010PropOp31
 70
     1
102
RTVSPost2010Prop32
280
     0
102
RTVSPost2010PropOp32
 70
     1
102
RTVSPost2010Prop33
280
     0
102
RTVSPost2010PropOp33
 70
     1
102
RTVSPost2010Prop34
280
     0
102
RTVSPost2010PropOp34
 70
     1
102
RTVSPost2010Prop35
280
     0
102
RTVSPost2010PropOp35
 70
     1
102
RTVSPost2010Prop36
280
     0
102
RTVSPost2010PropOp36
 70
     1
102
RTVSPost2010Prop37
 90
       50
102
RTVSPost2010PropOp37
 70
     1
102
RTVSPost2010Prop38
140
0.0
102
RTVSPost2010PropOp38
 70
     1
102
RTVSPost2010Prop39
140
1.0
102
RTVSPost2010PropOp39
 70
     1
102
RTVSPost2010Prop40
 90
        0
102
RTVSPost2010PropOp40
 70
     1
102
RTVSPost2010Prop41ColorIndex
 90
       18
102
RTVSPost2010Prop41ColorRGB
 90
        0
102
RTVSPost2010PropOp41
 70
     1
102
RTVSPost2010Prop42
 90
       50
102
RTVSPost2010PropOp42
 70
     1
102
RTVSPost2010Prop43
 90
        3
102
RTVSPost2010PropOp43
 70
     1
102
RTVSPost2010Prop44ColorIndex
 90
        5
102
RTVSPost2010Prop44ColorRGB
 90
      255
102
RTVSPost2010PropOp44
 70
     1
102
RTVSPost2010Prop45
280
     0
102
RTVSPost2010PropOp45
 70
     1
102
RTVSPost2010Prop46
 90
       50
102
RTVSPost2010PropOp46
 70
     1
102
RTVSPost2010Prop47
 90
       50
102
RTVSPost2010PropOp47
 70
     1
102
RTVSPost2010Prop48
 90
       50
102
RTVSPost2010PropOp48
 70
     1
102
RTVSPost2010Prop49
280
     0
102
RTVSPost2010PropOp49
 70
     1
102
RTVSPost2010Prop50
 90
       50
102
RTVSPost2010PropOp50
 70
     1
102
RTVSPost2010Prop51ColorIndex
 90
      256
102
RTVSPost2010Prop51ColorRGB
 90
-16777216
102
RTVSPost2010PropOp51
 70
     0
102
RTVSPost2010Prop52
140
1.0
102
RTVSPost2010PropOp52
 70
     0
102
RTVSPost2010Prop53
 90
        2
102
RTVSPost2010PropOp53
 70
     1
102
RTVSPost2010Prop54
  1
strokes_ogs.tif
102
RTVSPost2010PropOp54
 70
     1
102
RTVSPost2010Prop55
280
     0
102
RTVSPost2010PropOp55
 70
     1
102
RTVSPost2010Prop56
140
1.0
102
RTVSPost2010PropOp56
 70
     1
102
RTVSPost2010Prop57
140
1.0
102
RTVSPost2010PropOp57
 70
     1
  0
XRECORD
  5
457
102
{ACAD_REACTORS
330
456
102
}
330
456
100
AcDbXrecord
280
     1
102
RTVSPropertyOp0
 70
     1
102
RTVSPropertyOp1
 70
     1
102
RTVSPropertyOp2
 70
     1
102
RTVSPropertyOp3
 70
     1
102
RTVSPropertyOp4
 70
     1
102
RTVSPropertyOp5
 70
     1
102
RTVSPropertyOp6
 70
     1
102
RTVSPropertyOp7
 70
     1
102
RTVSPropertyOp8
 70
     1
102
RTVSPropertyOp9
 70
     1
102
RTVSPropertyOp10
 70
     1
102
RTVSPropertyOp11
 70
     1
102
RTVSPropertyOp12
 70
     1
102
RTVSPropertyOp13
 70
     1
102
RTVSPropertyOp14
 70
     1
102
RTVSPropertyOp15
 70
     1
102
RTVSPropertyOp16
 70
     1
102
RTVSPropertyOp17
 70
     1
102
RTVSPropertyOp18
 70
     1
102
RTVSPropertyOp19
 70
     1
102
RTVSPropertyOp20
 70
     1
102
RTVSPropertyOp21
 70
     1
102
RTVSPropertyOp22
 70
     1
102
RTVSPropertyOp23
 70
     1
102
RTVSPropertyOp24
 70
     1
102
RTVSPropertyOp25
 70
     1
102
RTVSPropertyOp26
 70
     1
102
RTVSPropertyOp27
 70
     1
102
RTVSPropertyOp28
 70
     1
102
RTVSPropertyOp29
 70
     1
102
RTVSPropertyOp30
 70
     1
102
RTVSPropertyOp31
 70
     1
102
RTVSPropertyOp32
 70
     1
102
RTVSPropertyOp33
 70
     1
102
RTVSPropertyOp34
 70
     1
102
RTVSPropertyOp35
 70
     1
102
RTVSPropertyOp36
 70
     1
102
RTVSPropertyOp37
 70
     1
102
RTVSPropertyOp38
 70
     1
102
RTVSPropertyOp39
 70
     1
102
RTVSPropertyOp40
 70
     1
102
RTVSPropertyOp41
 70
     1
102
RTVSPropertyOp42
 70
     1
102
RTVSPropertyOp43
 70
     1
102
RTVSPropertyOp44
 70
     1
102
RTVSPropertyOp45
 70
     1
102
RTVSPropertyOp46
 70
     1
102
RTVSPropertyOp47
 70
     1
102
RTVSPropertyOp48
 70
     1
102
RTVSPropertyOp49
 70
     1
102
RTVSPropertyOp50
 70
     1
102
RTVSPropertyOp51
 70
     0
102
RTVSPropertyOp52
 70
     0
102
RTVSPropertyOp53
 70
     1
102
RTVSPropertyOp54
 70
     1
102
RTVSPropertyOp55
 70
     1
102
RTVSPropertyOp56
 70
     1
102
RTVSPropertyOp57
 70
     1
102
RTVSPost2010Prop28
280
     0
102
RTVSPost2010PropOp28
 70
     1
102
RTVSPost2010Prop29
280
     1
102
RTVSPost2010PropOp29
 70
     1
102
RTVSPost2010Prop30
280
     1
102
RTVSPost2010PropOp30
 70
     1
102
RTVSPost2010Prop31
280
     0
102
RTVSPost2010PropOp31
 70
     1
102
RTVSPost2010Prop32
280
     0
102
RTVSPost2010PropOp32
 70
     1
102
RTVSPost2010Prop33
280
     0
102
RTVSPost2010PropOp33
 70
     1
102
RTVSPost2010Prop34
280
     0
102
RTVSPost2010PropOp34
 70
     1
102
RTVSPost2010Prop35
280
     0
102
RTVSPost2010PropOp35
 70
     1
102
RTVSPost2010Prop36
280
     0
102
RTVSPost2010PropOp36
 70
     1
102
RTVSPost2010Prop37
 90
       50
102
RTVSPost2010PropOp37
 70
     1
102
RTVSPost2010Prop38
140
0.0
102
RTVSPost2010PropOp38
 70
     1
102
RTVSPost2010Prop39
140
1.0
102
RTVSPost2010PropOp39
 70
     1
102
RTVSPost2010Prop40
 90
        0
102
RTVSPost2010PropOp40
 70
     1
102
RTVSPost2010Prop41ColorIndex
 90
       18
102
RTVSPost2010Prop41ColorRGB
 90
        0
102
RTVSPost2010PropOp41
 70
     1
102
RTVSPost2010Prop42
 90
       50
102
RTVSPost2010PropOp42
 70
     1
102
RTVSPost2010Prop43
 90
        3
102
RTVSPost2010PropOp43
 70
     1
102
RTVSPost2010Prop44ColorIndex
 90
        5
102
RTVSPost2010Prop44ColorRGB
 90
      255
102
RTVSPost2010PropOp44
 70
     1
102
RTVSPost2010Prop45
280
     0
102
RTVSPost2010PropOp45
 70
     1
102
RTVSPost2010Prop46
 90
       50
102
RTVSPost2010PropOp46
 70
     1
102
RTVSPost2010Prop47
 90
       50
102
RTVSPost2010PropOp47
 70
     1
102
RTVSPost2010Prop48
 90
       50
102
RTVSPost2010PropOp48
 70
     1
102
RTVSPost2010Prop49
280
     0
102
RTVSPost2010PropOp49
 70
     1
102
RTVSPost2010Prop50
 90
       50
102
RTVSPost2010PropOp50
 70
     1
102
RTVSPost2010Prop51ColorIndex
 90
      256
102
RTVSPost2010Prop51ColorRGB
 90
-16777216
102
RTVSPost2010PropOp51
 70
     0
102
RTVSPost2010Prop52
140
1.0
102
RTVSPost2010PropOp52
 70
     0
102
RTVSPost2010Prop53
 90
        2
102
RTVSPost2010PropOp53
 70
     1
102
RTVSPost2010Prop54
  1
strokes_ogs.tif
102
RTVSPost2010PropOp54
 70
     1
102
RTVSPost2010Prop55
280
     0
102
RTVSPost2010PropOp55
 70
     1
102
RTVSPost2010Prop56
140
1.0
102
RTVSPost2010PropOp56
 70
     1
102
RTVSPost2010Prop57
140
1.0
102
RTVSPost2010PropOp57
 70
     1
  0
XRECORD
  5
455
102
{ACAD_REACTORS
330
454
102
}
330
454
100
AcDbXrecord
280
     1
102
RTVSPropertyOp0
 70
     1
102
RTVSPropertyOp1
 70
     1
102
RTVSPropertyOp2
 70
     1
102
RTVSPropertyOp3
 70
     1
102
RTVSPropertyOp4
 70
     1
102
RTVSPropertyOp5
 70
     1
102
RTVSPropertyOp6
 70
     1
102
RTVSPropertyOp7
 70
     1
102
RTVSPropertyOp8
 70
     1
102
RTVSPropertyOp9
 70
     1
102
RTVSPropertyOp10
 70
     1
102
RTVSPropertyOp11
 70
     1
102
RTVSPropertyOp12
 70
     1
102
RTVSPropertyOp13
 70
     1
102
RTVSPropertyOp14
 70
     1
102
RTVSPropertyOp15
 70
     1
102
RTVSPropertyOp16
 70
     1
102
RTVSPropertyOp17
 70
     1
102
RTVSPropertyOp18
 70
     1
102
RTVSPropertyOp19
 70
     1
102
RTVSPropertyOp20
 70
     1
102
RTVSPropertyOp21
 70
     1
102
RTVSPropertyOp22
 70
     1
102
RTVSPropertyOp23
 70
     1
102
RTVSPropertyOp24
 70
     1
102
RTVSPropertyOp25
 70
     1
102
RTVSPropertyOp26
 70
     1
102
RTVSPropertyOp27
 70
     1
102
RTVSPropertyOp28
 70
     1
102
RTVSPropertyOp29
 70
     1
102
RTVSPropertyOp30
 70
     1
102
RTVSPropertyOp31
 70
     1
102
RTVSPropertyOp32
 70
     1
102
RTVSPropertyOp33
 70
     1
102
RTVSPropertyOp34
 70
     1
102
RTVSPropertyOp35
 70
     1
102
RTVSPropertyOp36
 70
     1
102
RTVSPropertyOp37
 70
     1
102
RTVSPropertyOp38
 70
     1
102
RTVSPropertyOp39
 70
     1
102
RTVSPropertyOp40
 70
     1
102
RTVSPropertyOp41
 70
     1
102
RTVSPropertyOp42
 70
     1
102
RTVSPropertyOp43
 70
     1
102
RTVSPropertyOp44
 70
     1
102
RTVSPropertyOp45
 70
     1
102
RTVSPropertyOp46
 70
     1
102
RTVSPropertyOp47
 70
     1
102
RTVSPropertyOp48
 70
     1
102
RTVSPropertyOp49
 70
     1
102
RTVSPropertyOp50
 70
     1
102
RTVSPropertyOp51
 70
     0
102
RTVSPropertyOp52
 70
     0
102
RTVSPropertyOp53
 70
     1
102
RTVSPropertyOp54
 70
     1
102
RTVSPropertyOp55
 70
     1
102
RTVSPropertyOp56
 70
     1
102
RTVSPropertyOp57
 70
     1
102
RTVSPost2010Prop28
280
     0
102
RTVSPost2010PropOp28
 70
     1
102
RTVSPost2010Prop29
280
     1
102
RTVSPost2010PropOp29
 70
     1
102
RTVSPost2010Prop30
280
     1
102
RTVSPost2010PropOp30
 70
     1
102
RTVSPost2010Prop31
280
     0
102
RTVSPost2010PropOp31
 70
     1
102
RTVSPost2010Prop32
280
     0
102
RTVSPost2010PropOp32
 70
     1
102
RTVSPost2010Prop33
280
     0
102
RTVSPost2010PropOp33
 70
     1
102
RTVSPost2010Prop34
280
     0
102
RTVSPost2010PropOp34
 70
     1
102
RTVSPost2010Prop35
280
     0
102
RTVSPost2010PropOp35
 70
     1
102
RTVSPost2010Prop36
280
     0
102
RTVSPost2010PropOp36
 70
     1
102
RTVSPost2010Prop37
 90
       50
102
RTVSPost2010PropOp37
 70
     1
102
RTVSPost2010Prop38
140
0.0
102
RTVSPost2010PropOp38
 70
     1
102
RTVSPost2010Prop39
140
1.0
102
RTVSPost2010PropOp39
 70
     1
102
RTVSPost2010Prop40
 90
        0
102
RTVSPost2010PropOp40
 70
     1
102
RTVSPost2010Prop41ColorIndex
 90
       18
102
RTVSPost2010Prop41ColorRGB
 90
        0
102
RTVSPost2010PropOp41
 70
     1
102
RTVSPost2010Prop42
 90
       50
102
RTVSPost2010PropOp42
 70
     1
102
RTVSPost2010Prop43
 90
        3
102
RTVSPost2010PropOp43
 70
     1
102
RTVSPost2010Prop44ColorIndex
 90
        5
102
RTVSPost2010Prop44ColorRGB
 90
      255
102
RTVSPost2010PropOp44
 70
     1
102
RTVSPost2010Prop45
280
     0
102
RTVSPost2010PropOp45
 70
     1
102
RTVSPost2010Prop46
 90
       50
102
RTVSPost2010PropOp46
 70
     1
102
RTVSPost2010Prop47
 90
       50
102
RTVSPost2010PropOp47
 70
     1
102
RTVSPost2010Prop48
 90
       50
102
RTVSPost2010PropOp48
 70
     1
102
RTVSPost2010Prop49
280
     0
102
RTVSPost2010PropOp49
 70
     1
102
RTVSPost2010Prop50
 90
       50
102
RTVSPost2010PropOp50
 70
     1
102
RTVSPost2010Prop51ColorIndex
 90
      256
102
RTVSPost2010Prop51ColorRGB
 90
-16777216
102
RTVSPost2010PropOp51
 70
     0
102
RTVSPost2010Prop52
140
1.0
102
RTVSPost2010PropOp52
 70
     0
102
RTVSPost2010Prop53
 90
        2
102
RTVSPost2010PropOp53
 70
     1
102
RTVSPost2010Prop54
  1
strokes_ogs.tif
102
RTVSPost2010PropOp54
 70
     1
102
RTVSPost2010Prop55
280
     0
102
RTVSPost2010PropOp55
 70
     1
102
RTVSPost2010Prop56
140
1.0
102
RTVSPost2010PropOp56
 70
     1
102
RTVSPost2010Prop57
140
1.0
102
RTVSPost2010PropOp57
 70
     1
  0
XRECORD
  5
44F
102
{ACAD_REACTORS
330
44E
102
}
330
44E
100
AcDbXrecord
280
     1
102
RTVSPropertyOp0
 70
     1
102
RTVSPropertyOp1
 70
     1
102
RTVSPropertyOp2
 70
     1
102
RTVSPropertyOp3
 70
     1
102
RTVSPropertyOp4
 70
     1
102
RTVSPropertyOp5
 70
     1
102
RTVSPropertyOp6
 70
     1
102
RTVSPropertyOp7
 70
     1
102
RTVSPropertyOp8
 70
     1
102
RTVSPropertyOp9
 70
     1
102
RTVSPropertyOp10
 70
     1
102
RTVSPropertyOp11
 70
     1
102
RTVSPropertyOp12
 70
     1
102
RTVSPropertyOp13
 70
     1
102
RTVSPropertyOp14
 70
     1
102
RTVSPropertyOp15
 70
     1
102
RTVSPropertyOp16
 70
     1
102
RTVSPropertyOp17
 70
     1
102
RTVSPropertyOp18
 70
     1
102
RTVSPropertyOp19
 70
     1
102
RTVSPropertyOp20
 70
     1
102
RTVSPropertyOp21
 70
     1
102
RTVSPropertyOp22
 70
     1
102
RTVSPropertyOp23
 70
     1
102
RTVSPropertyOp24
 70
     1
102
RTVSPropertyOp25
 70
     1
102
RTVSPropertyOp26
 70
     1
102
RTVSPropertyOp27
 70
     1
102
RTVSPropertyOp28
 70
     1
102
RTVSPropertyOp29
 70
     1
102
RTVSPropertyOp30
 70
     1
102
RTVSPropertyOp31
 70
     1
102
RTVSPropertyOp32
 70
     1
102
RTVSPropertyOp33
 70
     1
102
RTVSPropertyOp34
 70
     1
102
RTVSPropertyOp35
 70
     1
102
RTVSPropertyOp36
 70
     1
102
RTVSPropertyOp37
 70
     1
102
RTVSPropertyOp38
 70
     1
102
RTVSPropertyOp39
 70
     1
102
RTVSPropertyOp40
 70
     1
102
RTVSPropertyOp41
 70
     1
102
RTVSPropertyOp42
 70
     1
102
RTVSPropertyOp43
 70
     1
102
RTVSPropertyOp44
 70
     1
102
RTVSPropertyOp45
 70
     1
102
RTVSPropertyOp46
 70
     1
102
RTVSPropertyOp47
 70
     1
102
RTVSPropertyOp48
 70
     1
102
RTVSPropertyOp49
 70
     1
102
RTVSPropertyOp50
 70
     1
102
RTVSPropertyOp51
 70
     0
102
RTVSPropertyOp52
 70
     0
102
RTVSPropertyOp53
 70
     1
102
RTVSPropertyOp54
 70
     1
102
RTVSPropertyOp55
 70
     1
102
RTVSPropertyOp56
 70
     1
102
RTVSPropertyOp57
 70
     1
102
RTVSPost2010Prop28
280
     0
102
RTVSPost2010PropOp28
 70
     1
102
RTVSPost2010Prop29
280
     1
102
RTVSPost2010PropOp29
 70
     1
102
RTVSPost2010Prop30
280
     1
102
RTVSPost2010PropOp30
 70
     1
102
RTVSPost2010Prop31
280
     0
102
RTVSPost2010PropOp31
 70
     1
102
RTVSPost2010Prop32
280
     0
102
RTVSPost2010PropOp32
 70
     1
102
RTVSPost2010Prop33
280
     0
102
RTVSPost2010PropOp33
 70
     1
102
RTVSPost2010Prop34
280
     0
102
RTVSPost2010PropOp34
 70
     1
102
RTVSPost2010Prop35
280
     0
102
RTVSPost2010PropOp35
 70
     1
102
RTVSPost2010Prop36
280
     0
102
RTVSPost2010PropOp36
 70
     1
102
RTVSPost2010Prop37
 90
       50
102
RTVSPost2010PropOp37
 70
     1
102
RTVSPost2010Prop38
140
0.0
102
RTVSPost2010PropOp38
 70
     1
102
RTVSPost2010Prop39
140
1.0
102
RTVSPost2010PropOp39
 70
     1
102
RTVSPost2010Prop40
 90
        0
102
RTVSPost2010PropOp40
 70
     1
102
RTVSPost2010Prop41ColorIndex
 90
       18
102
RTVSPost2010Prop41ColorRGB
 90
        0
102
RTVSPost2010PropOp41
 70
     1
102
RTVSPost2010Prop42
 90
       50
102
RTVSPost2010PropOp42
 70
     1
102
RTVSPost2010Prop43
 90
        3
102
RTVSPost2010PropOp43
 70
     1
102
RTVSPost2010Prop44ColorIndex
 90
        5
102
RTVSPost2010Prop44ColorRGB
 90
      255
102
RTVSPost2010PropOp44
 70
     1
102
RTVSPost2010Prop45
280
     0
102
RTVSPost2010PropOp45
 70
     1
102
RTVSPost2010Prop46
 90
       50
102
RTVSPost2010PropOp46
 70
     1
102
RTVSPost2010Prop47
 90
       50
102
RTVSPost2010PropOp47
 70
     1
102
RTVSPost2010Prop48
 90
       50
102
RTVSPost2010PropOp48
 70
     1
102
RTVSPost2010Prop49
280
     0
102
RTVSPost2010PropOp49
 70
     1
102
RTVSPost2010Prop50
 90
       50
102
RTVSPost2010PropOp50
 70
     1
102
RTVSPost2010Prop51ColorIndex
 90
      256
102
RTVSPost2010Prop51ColorRGB
 90
-16777216
102
RTVSPost2010PropOp51
 70
     0
102
RTVSPost2010Prop52
140
1.0
102
RTVSPost2010PropOp52
 70
     0
102
RTVSPost2010Prop53
 90
        2
102
RTVSPost2010PropOp53
 70
     1
102
RTVSPost2010Prop54
  1
strokes_ogs.tif
102
RTVSPost2010PropOp54
 70
     1
102
RTVSPost2010Prop55
280
     0
102
RTVSPost2010PropOp55
 70
     1
102
RTVSPost2010Prop56
140
1.0
102
RTVSPost2010PropOp56
 70
     1
102
RTVSPost2010Prop57
140
1.0
102
RTVSPost2010PropOp57
 70
     1
  0
XRECORD
  5
451
102
{ACAD_REACTORS
330
450
102
}
330
450
100
AcDbXrecord
280
     1
102
RTVSPropertyOp0
 70
     1
102
RTVSPropertyOp1
 70
     1
102
RTVSPropertyOp2
 70
     1
102
RTVSPropertyOp3
 70
     1
102
RTVSPropertyOp4
 70
     1
102
RTVSPropertyOp5
 70
     1
102
RTVSPropertyOp6
 70
     1
102
RTVSPropertyOp7
 70
     1
102
RTVSPropertyOp8
 70
     1
102
RTVSPropertyOp9
 70
     1
102
RTVSPropertyOp10
 70
     1
102
RTVSPropertyOp11
 70
     1
102
RTVSPropertyOp12
 70
     1
102
RTVSPropertyOp13
 70
     1
102
RTVSPropertyOp14
 70
     1
102
RTVSPropertyOp15
 70
     1
102
RTVSPropertyOp16
 70
     1
102
RTVSPropertyOp17
 70
     1
102
RTVSPropertyOp18
 70
     1
102
RTVSPropertyOp19
 70
     1
102
RTVSPropertyOp20
 70
     1
102
RTVSPropertyOp21
 70
     1
102
RTVSPropertyOp22
 70
     1
102
RTVSPropertyOp23
 70
     1
102
RTVSPropertyOp24
 70
     1
102
RTVSPropertyOp25
 70
     1
102
RTVSPropertyOp26
 70
     1
102
RTVSPropertyOp27
 70
     1
102
RTVSPropertyOp28
 70
     1
102
RTVSPropertyOp29
 70
     1
102
RTVSPropertyOp30
 70
     1
102
RTVSPropertyOp31
 70
     1
102
RTVSPropertyOp32
 70
     1
102
RTVSPropertyOp33
 70
     1
102
RTVSPropertyOp34
 70
     1
102
RTVSPropertyOp35
 70
     1
102
RTVSPropertyOp36
 70
     1
102
RTVSPropertyOp37
 70
     1
102
RTVSPropertyOp38
 70
     1
102
RTVSPropertyOp39
 70
     1
102
RTVSPropertyOp40
 70
     1
102
RTVSPropertyOp41
 70
     1
102
RTVSPropertyOp42
 70
     1
102
RTVSPropertyOp43
 70
     1
102
RTVSPropertyOp44
 70
     1
102
RTVSPropertyOp45
 70
     1
102
RTVSPropertyOp46
 70
     1
102
RTVSPropertyOp47
 70
     1
102
RTVSPropertyOp48
 70
     1
102
RTVSPropertyOp49
 70
     1
102
RTVSPropertyOp50
 70
     1
102
RTVSPropertyOp51
 70
     0
102
RTVSPropertyOp52
 70
     0
102
RTVSPropertyOp53
 70
     1
102
RTVSPropertyOp54
 70
     1
102
RTVSPropertyOp55
 70
     1
102
RTVSPropertyOp56
 70
     1
102
RTVSPropertyOp57
 70
     1
102
RTVSPost2010Prop28
280
     0
102
RTVSPost2010PropOp28
 70
     1
102
RTVSPost2010Prop29
280
     1
102
RTVSPost2010PropOp29
 70
     1
102
RTVSPost2010Prop30
280
     1
102
RTVSPost2010PropOp30
 70
     1
102
RTVSPost2010Prop31
280
     0
102
RTVSPost2010PropOp31
 70
     1
102
RTVSPost2010Prop32
280
     0
102
RTVSPost2010PropOp32
 70
     1
102
RTVSPost2010Prop33
280
     0
102
RTVSPost2010PropOp33
 70
     1
102
RTVSPost2010Prop34
280
     0
102
RTVSPost2010PropOp34
 70
     1
102
RTVSPost2010Prop35
280
     0
102
RTVSPost2010PropOp35
 70
     1
102
RTVSPost2010Prop36
280
     0
102
RTVSPost2010PropOp36
 70
     1
102
RTVSPost2010Prop37
 90
       50
102
RTVSPost2010PropOp37
 70
     1
102
RTVSPost2010Prop38
140
0.0
102
RTVSPost2010PropOp38
 70
     1
102
RTVSPost2010Prop39
140
1.0
102
RTVSPost2010PropOp39
 70
     1
102
RTVSPost2010Prop40
 90
        0
102
RTVSPost2010PropOp40
 70
     1
102
RTVSPost2010Prop41ColorIndex
 90
       18
102
RTVSPost2010Prop41ColorRGB
 90
        0
102
RTVSPost2010PropOp41
 70
     1
102
RTVSPost2010Prop42
 90
       50
102
RTVSPost2010PropOp42
 70
     1
102
RTVSPost2010Prop43
 90
        3
102
RTVSPost2010PropOp43
 70
     1
102
RTVSPost2010Prop44ColorIndex
 90
        5
102
RTVSPost2010Prop44ColorRGB
 90
      255
102
RTVSPost2010PropOp44
 70
     1
102
RTVSPost2010Prop45
280
     0
102
RTVSPost2010PropOp45
 70
     1
102
RTVSPost2010Prop46
 90
       50
102
RTVSPost2010PropOp46
 70
     1
102
RTVSPost2010Prop47
 90
       50
102
RTVSPost2010PropOp47
 70
     1
102
RTVSPost2010Prop48
 90
       50
102
RTVSPost2010PropOp48
 70
     1
102
RTVSPost2010Prop49
280
     0
102
RTVSPost2010PropOp49
 70
     1
102
RTVSPost2010Prop50
 90
       50
102
RTVSPost2010PropOp50
 70
     1
102
RTVSPost2010Prop51ColorIndex
 90
      256
102
RTVSPost2010Prop51ColorRGB
 90
-16777216
102
RTVSPost2010PropOp51
 70
     0
102
RTVSPost2010Prop52
140
1.0
102
RTVSPost2010PropOp52
 70
     0
102
RTVSPost2010Prop53
 90
        2
102
RTVSPost2010PropOp53
 70
     1
102
RTVSPost2010Prop54
  1
strokes_ogs.tif
102
RTVSPost2010PropOp54
 70
     1
102
RTVSPost2010Prop55
280
     0
102
RTVSPost2010PropOp55
 70
     1
102
RTVSPost2010Prop56
140
1.0
102
RTVSPost2010PropOp56
 70
     1
102
RTVSPost2010Prop57
140
1.0
102
RTVSPost2010PropOp57
 70
     1
  0
XRECORD
  5
441
102
{ACAD_REACTORS
330
440
102
}
330
440
100
AcDbXrecord
280
     1
102
RTVSPropertyOp0
 70
     1
102
RTVSPropertyOp1
 70
     1
102
RTVSPropertyOp2
 70
     1
102
RTVSPropertyOp3
 70
     1
102
RTVSPropertyOp4
 70
     1
102
RTVSPropertyOp5
 70
     1
102
RTVSPropertyOp6
 70
     1
102
RTVSPropertyOp7
 70
     1
102
RTVSPropertyOp8
 70
     1
102
RTVSPropertyOp9
 70
     1
102
RTVSPropertyOp10
 70
     1
102
RTVSPropertyOp11
 70
     1
102
RTVSPropertyOp12
 70
     1
102
RTVSPropertyOp13
 70
     1
102
RTVSPropertyOp14
 70
     1
102
RTVSPropertyOp15
 70
     1
102
RTVSPropertyOp16
 70
     1
102
RTVSPropertyOp17
 70
     1
102
RTVSPropertyOp18
 70
     1
102
RTVSPropertyOp19
 70
     1
102
RTVSPropertyOp20
 70
     1
102
RTVSPropertyOp21
 70
     1
102
RTVSPropertyOp22
 70
     1
102
RTVSPropertyOp23
 70
     1
102
RTVSPropertyOp24
 70
     1
102
RTVSPropertyOp25
 70
     1
102
RTVSPropertyOp26
 70
     1
102
RTVSPropertyOp27
 70
     1
102
RTVSPropertyOp28
 70
     1
102
RTVSPropertyOp29
 70
     1
102
RTVSPropertyOp30
 70
     1
102
RTVSPropertyOp31
 70
     1
102
RTVSPropertyOp32
 70
     1
102
RTVSPropertyOp33
 70
     1
102
RTVSPropertyOp34
 70
     1
102
RTVSPropertyOp35
 70
     1
102
RTVSPropertyOp36
 70
     1
102
RTVSPropertyOp37
 70
     1
102
RTVSPropertyOp38
 70
     1
102
RTVSPropertyOp39
 70
     1
102
RTVSPropertyOp40
 70
     1
102
RTVSPropertyOp41
 70
     1
102
RTVSPropertyOp42
 70
     1
102
RTVSPropertyOp43
 70
     1
102
RTVSPropertyOp44
 70
     1
102
RTVSPropertyOp45
 70
     1
102
RTVSPropertyOp46
 70
     1
102
RTVSPropertyOp47
 70
     1
102
RTVSPropertyOp48
 70
     1
102
RTVSPropertyOp49
 70
     1
102
RTVSPropertyOp50
 70
     1
102
RTVSPropertyOp51
 70
     0
102
RTVSPropertyOp52
 70
     0
102
RTVSPropertyOp53
 70
     1
102
RTVSPropertyOp54
 70
     1
102
RTVSPropertyOp55
 70
     1
102
RTVSPropertyOp56
 70
     1
102
RTVSPropertyOp57
 70
     1
102
RTVSPost2010Prop28
280
     0
102
RTVSPost2010PropOp28
 70
     1
102
RTVSPost2010Prop29
280
     1
102
RTVSPost2010PropOp29
 70
     1
102
RTVSPost2010Prop30
280
     1
102
RTVSPost2010PropOp30
 70
     1
102
RTVSPost2010Prop31
280
     0
102
RTVSPost2010PropOp31
 70
     1
102
RTVSPost2010Prop32
280
     0
102
RTVSPost2010PropOp32
 70
     1
102
RTVSPost2010Prop33
280
     0
102
RTVSPost2010PropOp33
 70
     1
102
RTVSPost2010Prop34
280
     0
102
RTVSPost2010PropOp34
 70
     1
102
RTVSPost2010Prop35
280
     0
102
RTVSPost2010PropOp35
 70
     1
102
RTVSPost2010Prop36
280
     0
102
RTVSPost2010PropOp36
 70
     1
102
RTVSPost2010Prop37
 90
       50
102
RTVSPost2010PropOp37
 70
     1
102
RTVSPost2010Prop38
140
0.0
102
RTVSPost2010PropOp38
 70
     1
102
RTVSPost2010Prop39
140
1.0
102
RTVSPost2010PropOp39
 70
     1
102
RTVSPost2010Prop40
 90
        0
102
RTVSPost2010PropOp40
 70
     1
102
RTVSPost2010Prop41ColorIndex
 90
       18
102
RTVSPost2010Prop41ColorRGB
 90
        0
102
RTVSPost2010PropOp41
 70
     1
102
RTVSPost2010Prop42
 90
       50
102
RTVSPost2010PropOp42
 70
     1
102
RTVSPost2010Prop43
 90
        3
102
RTVSPost2010PropOp43
 70
     1
102
RTVSPost2010Prop44ColorIndex
 90
        5
102
RTVSPost2010Prop44ColorRGB
 90
      255
102
RTVSPost2010PropOp44
 70
     1
102
RTVSPost2010Prop45
280
     0
102
RTVSPost2010PropOp45
 70
     1
102
RTVSPost2010Prop46
 90
       50
102
RTVSPost2010PropOp46
 70
     1
102
RTVSPost2010Prop47
 90
       50
102
RTVSPost2010PropOp47
 70
     1
102
RTVSPost2010Prop48
 90
       50
102
RTVSPost2010PropOp48
 70
     1
102
RTVSPost2010Prop49
280
     0
102
RTVSPost2010PropOp49
 70
     1
102
RTVSPost2010Prop50
 90
       50
102
RTVSPost2010PropOp50
 70
     1
102
RTVSPost2010Prop51ColorIndex
 90
      256
102
RTVSPost2010Prop51ColorRGB
 90
-16777216
102
RTVSPost2010PropOp51
 70
     0
102
RTVSPost2010Prop52
140
1.0
102
RTVSPost2010PropOp52
 70
     0
102
RTVSPost2010Prop53
 90
        2
102
RTVSPost2010PropOp53
 70
     1
102
RTVSPost2010Prop54
  1
strokes_ogs.tif
102
RTVSPost2010PropOp54
 70
     1
102
RTVSPost2010Prop55
280
     0
102
RTVSPost2010PropOp55
 70
     1
102
RTVSPost2010Prop56
140
1.0
102
RTVSPost2010PropOp56
 70
     1
102
RTVSPost2010Prop57
140
1.0
102
RTVSPost2010PropOp57
 70
     1
  0
XRECORD
  5
433
102
{ACAD_REACTORS
330
432
102
}
330
432
100
AcDbXrecord
280
     1
102
RTVSPropertyOp0
 70
     1
102
RTVSPropertyOp1
 70
     1
102
RTVSPropertyOp2
 70
     1
102
RTVSPropertyOp3
 70
     1
102
RTVSPropertyOp4
 70
     1
102
RTVSPropertyOp5
 70
     1
102
RTVSPropertyOp6
 70
     1
102
RTVSPropertyOp7
 70
     1
102
RTVSPropertyOp8
 70
     1
102
RTVSPropertyOp9
 70
     1
102
RTVSPropertyOp10
 70
     1
102
RTVSPropertyOp11
 70
     1
102
RTVSPropertyOp12
 70
     1
102
RTVSPropertyOp13
 70
     1
102
RTVSPropertyOp14
 70
     1
102
RTVSPropertyOp15
 70
     1
102
RTVSPropertyOp16
 70
     1
102
RTVSPropertyOp17
 70
     1
102
RTVSPropertyOp18
 70
     1
102
RTVSPropertyOp19
 70
     1
102
RTVSPropertyOp20
 70
     1
102
RTVSPropertyOp21
 70
     1
102
RTVSPropertyOp22
 70
     1
102
RTVSPropertyOp23
 70
     1
102
RTVSPropertyOp24
 70
     1
102
RTVSPropertyOp25
 70
     1
102
RTVSPropertyOp26
 70
     1
102
RTVSPropertyOp27
 70
     1
102
RTVSPropertyOp28
 70
     1
102
RTVSPropertyOp29
 70
     1
102
RTVSPropertyOp30
 70
     1
102
RTVSPropertyOp31
 70
     1
102
RTVSPropertyOp32
 70
     1
102
RTVSPropertyOp33
 70
     1
102
RTVSPropertyOp34
 70
     1
102
RTVSPropertyOp35
 70
     1
102
RTVSPropertyOp36
 70
     1
102
RTVSPropertyOp37
 70
     1
102
RTVSPropertyOp38
 70
     1
102
RTVSPropertyOp39
 70
     1
102
RTVSPropertyOp40
 70
     1
102
RTVSPropertyOp41
 70
     1
102
RTVSPropertyOp42
 70
     1
102
RTVSPropertyOp43
 70
     1
102
RTVSPropertyOp44
 70
     1
102
RTVSPropertyOp45
 70
     1
102
RTVSPropertyOp46
 70
     1
102
RTVSPropertyOp47
 70
     1
102
RTVSPropertyOp48
 70
     1
102
RTVSPropertyOp49
 70
     1
102
RTVSPropertyOp50
 70
     1
102
RTVSPropertyOp51
 70
     0
102
RTVSPropertyOp52
 70
     0
102
RTVSPropertyOp53
 70
     1
102
RTVSPropertyOp54
 70
     1
102
RTVSPropertyOp55
 70
     1
102
RTVSPropertyOp56
 70
     1
102
RTVSPropertyOp57
 70
     1
102
RTVSPost2010Prop28
280
     0
102
RTVSPost2010PropOp28
 70
     1
102
RTVSPost2010Prop29
280
     1
102
RTVSPost2010PropOp29
 70
     1
102
RTVSPost2010Prop30
280
     1
102
RTVSPost2010PropOp30
 70
     1
102
RTVSPost2010Prop31
280
     0
102
RTVSPost2010PropOp31
 70
     1
102
RTVSPost2010Prop32
280
     0
102
RTVSPost2010PropOp32
 70
     1
102
RTVSPost2010Prop33
280
     0
102
RTVSPost2010PropOp33
 70
     1
102
RTVSPost2010Prop34
280
     0
102
RTVSPost2010PropOp34
 70
     1
102
RTVSPost2010Prop35
280
     0
102
RTVSPost2010PropOp35
 70
     1
102
RTVSPost2010Prop36
280
     0
102
RTVSPost2010PropOp36
 70
     1
102
RTVSPost2010Prop37
 90
       50
102
RTVSPost2010PropOp37
 70
     1
102
RTVSPost2010Prop38
140
0.0
102
RTVSPost2010PropOp38
 70
     1
102
RTVSPost2010Prop39
140
1.0
102
RTVSPost2010PropOp39
 70
     1
102
RTVSPost2010Prop40
 90
        0
102
RTVSPost2010PropOp40
 70
     1
102
RTVSPost2010Prop41ColorIndex
 90
       18
102
RTVSPost2010Prop41ColorRGB
 90
        0
102
RTVSPost2010PropOp41
 70
     1
102
RTVSPost2010Prop42
 90
       50
102
RTVSPost2010PropOp42
 70
     1
102
RTVSPost2010Prop43
 90
        3
102
RTVSPost2010PropOp43
 70
     1
102
RTVSPost2010Prop44ColorIndex
 90
        5
102
RTVSPost2010Prop44ColorRGB
 90
      255
102
RTVSPost2010PropOp44
 70
     1
102
RTVSPost2010Prop45
280
     0
102
RTVSPost2010PropOp45
 70
     1
102
RTVSPost2010Prop46
 90
       50
102
RTVSPost2010PropOp46
 70
     1
102
RTVSPost2010Prop47
 90
       50
102
RTVSPost2010PropOp47
 70
     1
102
RTVSPost2010Prop48
 90
       50
102
RTVSPost2010PropOp48
 70
     1
102
RTVSPost2010Prop49
280
     0
102
RTVSPost2010PropOp49
 70
     1
102
RTVSPost2010Prop50
 90
       50
102
RTVSPost2010PropOp50
 70
     1
102
RTVSPost2010Prop51ColorIndex
 90
      256
102
RTVSPost2010Prop51ColorRGB
 90
-16777216
102
RTVSPost2010PropOp51
 70
     0
102
RTVSPost2010Prop52
140
1.0
102
RTVSPost2010PropOp52
 70
     0
102
RTVSPost2010Prop53
 90
        2
102
RTVSPost2010PropOp53
 70
     1
102
RTVSPost2010Prop54
  1
strokes_ogs.tif
102
RTVSPost2010PropOp54
 70
     1
102
RTVSPost2010Prop55
280
     0
102
RTVSPost2010PropOp55
 70
     1
102
RTVSPost2010Prop56
140
1.0
102
RTVSPost2010PropOp56
 70
     1
102
RTVSPost2010Prop57
140
1.0
102
RTVSPost2010PropOp57
 70
     1
  0
XRECORD
  5
453
102
{ACAD_REACTORS
330
452
102
}
330
452
100
AcDbXrecord
280
     1
102
RTVSPropertyOp0
 70
     1
102
RTVSPropertyOp1
 70
     1
102
RTVSPropertyOp2
 70
     1
102
RTVSPropertyOp3
 70
     1
102
RTVSPropertyOp4
 70
     1
102
RTVSPropertyOp5
 70
     1
102
RTVSPropertyOp6
 70
     1
102
RTVSPropertyOp7
 70
     1
102
RTVSPropertyOp8
 70
     1
102
RTVSPropertyOp9
 70
     1
102
RTVSPropertyOp10
 70
     1
102
RTVSPropertyOp11
 70
     1
102
RTVSPropertyOp12
 70
     1
102
RTVSPropertyOp13
 70
     1
102
RTVSPropertyOp14
 70
     1
102
RTVSPropertyOp15
 70
     1
102
RTVSPropertyOp16
 70
     1
102
RTVSPropertyOp17
 70
     1
102
RTVSPropertyOp18
 70
     1
102
RTVSPropertyOp19
 70
     1
102
RTVSPropertyOp20
 70
     1
102
RTVSPropertyOp21
 70
     1
102
RTVSPropertyOp22
 70
     1
102
RTVSPropertyOp23
 70
     1
102
RTVSPropertyOp24
 70
     1
102
RTVSPropertyOp25
 70
     1
102
RTVSPropertyOp26
 70
     1
102
RTVSPropertyOp27
 70
     1
102
RTVSPropertyOp28
 70
     1
102
RTVSPropertyOp29
 70
     1
102
RTVSPropertyOp30
 70
     1
102
RTVSPropertyOp31
 70
     1
102
RTVSPropertyOp32
 70
     1
102
RTVSPropertyOp33
 70
     1
102
RTVSPropertyOp34
 70
     1
102
RTVSPropertyOp35
 70
     1
102
RTVSPropertyOp36
 70
     1
102
RTVSPropertyOp37
 70
     1
102
RTVSPropertyOp38
 70
     1
102
RTVSPropertyOp39
 70
     1
102
RTVSPropertyOp40
 70
     1
102
RTVSPropertyOp41
 70
     1
102
RTVSPropertyOp42
 70
     1
102
RTVSPropertyOp43
 70
     1
102
RTVSPropertyOp44
 70
     1
102
RTVSPropertyOp45
 70
     1
102
RTVSPropertyOp46
 70
     1
102
RTVSPropertyOp47
 70
     1
102
RTVSPropertyOp48
 70
     1
102
RTVSPropertyOp49
 70
     1
102
RTVSPropertyOp50
 70
     1
102
RTVSPropertyOp51
 70
     0
102
RTVSPropertyOp52
 70
     0
102
RTVSPropertyOp53
 70
     1
102
RTVSPropertyOp54
 70
     1
102
RTVSPropertyOp55
 70
     1
102
RTVSPropertyOp56
 70
     1
102
RTVSPropertyOp57
 70
     1
102
RTVSPost2010Prop28
280
     0
102
RTVSPost2010PropOp28
 70
     1
102
RTVSPost2010Prop29
280
     1
102
RTVSPost2010PropOp29
 70
     1
102
RTVSPost2010Prop30
280
     1
102
RTVSPost2010PropOp30
 70
     1
102
RTVSPost2010Prop31
280
     0
102
RTVSPost2010PropOp31
 70
     1
102
RTVSPost2010Prop32
280
     0
102
RTVSPost2010PropOp32
 70
     1
102
RTVSPost2010Prop33
280
     0
102
RTVSPost2010PropOp33
 70
     1
102
RTVSPost2010Prop34
280
     0
102
RTVSPost2010PropOp34
 70
     1
102
RTVSPost2010Prop35
280
     0
102
RTVSPost2010PropOp35
 70
     1
102
RTVSPost2010Prop36
280
     0
102
RTVSPost2010PropOp36
 70
     1
102
RTVSPost2010Prop37
 90
       50
102
RTVSPost2010PropOp37
 70
     1
102
RTVSPost2010Prop38
140
0.0
102
RTVSPost2010PropOp38
 70
     1
102
RTVSPost2010Prop39
140
1.0
102
RTVSPost2010PropOp39
 70
     1
102
RTVSPost2010Prop40
 90
        0
102
RTVSPost2010PropOp40
 70
     1
102
RTVSPost2010Prop41ColorIndex
 90
       18
102
RTVSPost2010Prop41ColorRGB
 90
        0
102
RTVSPost2010PropOp41
 70
     1
102
RTVSPost2010Prop42
 90
       50
102
RTVSPost2010PropOp42
 70
     1
102
RTVSPost2010Prop43
 90
        3
102
RTVSPost2010PropOp43
 70
     1
102
RTVSPost2010Prop44ColorIndex
 90
        5
102
RTVSPost2010Prop44ColorRGB
 90
      255
102
RTVSPost2010PropOp44
 70
     1
102
RTVSPost2010Prop45
280
     0
102
RTVSPost2010PropOp45
 70
     1
102
RTVSPost2010Prop46
 90
       50
102
RTVSPost2010PropOp46
 70
     1
102
RTVSPost2010Prop47
 90
       50
102
RTVSPost2010PropOp47
 70
     1
102
RTVSPost2010Prop48
 90
       50
102
RTVSPost2010PropOp48
 70
     1
102
RTVSPost2010Prop49
280
     0
102
RTVSPost2010PropOp49
 70
     1
102
RTVSPost2010Prop50
 90
       50
102
RTVSPost2010PropOp50
 70
     1
102
RTVSPost2010Prop51ColorIndex
 90
      256
102
RTVSPost2010Prop51ColorRGB
 90
-16777216
102
RTVSPost2010PropOp51
 70
     0
102
RTVSPost2010Prop52
140
1.0
102
RTVSPost2010PropOp52
 70
     0
102
RTVSPost2010Prop53
 90
        2
102
RTVSPost2010PropOp53
 70
     1
102
RTVSPost2010Prop54
  1
strokes_ogs.tif
102
RTVSPost2010PropOp54
 70
     1
102
RTVSPost2010Prop55
280
     0
102
RTVSPost2010PropOp55
 70
     1
102
RTVSPost2010Prop56
140
1.0
102
RTVSPost2010PropOp56
 70
     1
102
RTVSPost2010Prop57
140
1.0
102
RTVSPost2010PropOp57
 70
     1
  0
ENDSEC
  0
EOF
