  0
SECTION
  2
HEADER
  9
$ACADVER
  1
AC1015
  9
$ACADMAINTVER
 70
     6
  9
$DWGCODEPAGE
  3
ANSI_932
  9
$INSBASE
 10
0.0
 20
0.0
 30
0.0
  9
$EXTMIN
 10
-2100.0
 20
-1485.0
 30
0.0
  9
$EXTMAX
 10
2100.0
 20
1485.0
 30
0.0
  9
$LIMMIN
 10
-2100.0
 20
-1485.0
  9
$LIMMAX
 10
2100.0
 20
1485.0
  9
$ORTHOMODE
 70
     0
  9
$REGENMODE
 70
     1
  9
$FILLMODE
 70
     1
  9
$QTEXTMODE
 70
     0
  9
$MIRRTEXT
 70
     1
  9
$LTSCALE
 40
10.0
  9
$ATTMODE
 70
     1
  9
$TEXTSIZE
 40
2.5
  9
$TRACEWID
 40
1.0
  9
$TEXTSTYLE
  7
Standard
  9
$CLAYER
  8
0
  9
$CELTYPE
  6
ByLayer
  9
$CECOLOR
 62
   256
  9
$CELTSCALE
 40
1.0
  9
$DISPSILH
 70
     0
  9
$DIMSCALE
 40
1.0
  9
$DIMASZ
 40
2.5
  9
$DIMEXO
 40
0.625
  9
$DIMDLI
 40
3.75
  9
$DIMRND
 40
0.0
  9
$DIMDLE
 40
0.0
  9
$DIMEXE
 40
1.25
  9
$DIMTP
 40
0.0
  9
$DIMTM
 40
0.0
  9
$DIMTXT
 40
2.5
  9
$DIMCEN
 40
2.5
  9
$DIMTSZ
 40
0.0
  9
$DIMTOL
 70
     0
  9
$DIMLIM
 70
     0
  9
$DIMTIH
 70
     0
  9
$DIMTOH
 70
     0
  9
$DIMSE1
 70
     0
  9
$DIMSE2
 70
     0
  9
$DIMTAD
 70
     1
  9
$DIMZIN
 70
     8
  9
$DIMBLK
  1

  9
$DIMASO
 70
     1
  9
$DIMSHO
 70
     1
  9
$DIMPOST
  1

  9
$DIMAPOST
  1

  9
$DIMALT
 70
     0
  9
$DIMALTD
 70
     3
  9
$DIMALTF
 40
0.03937007874016
  9
$DIMLFAC
 40
1.0
  9
$DIMTOFL
 70
     1
  9
$DIMTVP
 40
0.0
  9
$DIMTIX
 70
     0
  9
$DIMSOXD
 70
     0
  9
$DIMSAH
 70
     0
  9
$DIMBLK1
  1

  9
$DIMBLK2
  1

  9
$DIMSTYLE
  2
ISO-25
  9
$DIMCLRD
 70
     0
  9
$DIMCLRE
 70
     0
  9
$DIMCLRT
 70
     0
  9
$DIMTFAC
 40
1.0
  9
$DIMGAP
 40
0.625
  9
$DIMJUST
 70
     0
  9
$DIMSD1
 70
     0
  9
$DIMSD2
 70
     0
  9
$DIMTOLJ
 70
     0
  9
$DIMTZIN
 70
     8
  9
$DIMALTZ
 70
     0
  9
$DIMALTTZ
 70
     0
  9
$DIMUPT
 70
     0
  9
$DIMDEC
 70
     2
  9
$DIMTDEC
 70
     2
  9
$DIMALTU
 70
     2
  9
$DIMALTTD
 70
     3
  9
$DIMTXSTY
  7
Standard
  9
$DIMAUNIT
 70
     0
  9
$DIMADEC
 70
     0
  9
$DIMALTRND
 40
0.0
  9
$DIMAZIN
 70
     0
  9
$DIMDSEP
 70
    44
  9
$DIMATFIT
 70
     3
  9
$DIMFRAC
 70
     0
  9
$DIMLDRBLK
  1

  9
$DIMLUNIT
 70
     2
  9
$DIMLWD
 70
    -2
  9
$DIMLWE
 70
    -2
  9
$DIMTMOVE
 70
     0
  9
$LUNITS
 70
     2
  9
$LUPREC
 70
     4
  9
$SKETCHINC
 40
1.0
  9
$FILLETRAD
 40
10.0
  9
$AUNITS
 70
     0
  9
$AUPREC
 70
     0
  9
$MENU
  1
.
  9
$ELEVATION
 40
0.0
  9
$PELEVATION
 40
0.0
  9
$THICKNESS
 40
0.0
  9
$LIMCHECK
 70
     0
  9
$CHAMFERA
 40
10.0
  9
$CHAMFERB
 40
10.0
  9
$CHAMFERC
 40
20.0
  9
$CHAMFERD
 40
0.0
  9
$SKPOLY
 70
     0
  9
$TDCREATE
 40
2456541.782004016
  9
$TDUCREATE
 40
2456541.407004016
  9
$TDUPDATE
 40
2456541.782004028
  9
$TDUUPDATE
 40
2456541.407004028
  9
$TDINDWG
 40
0.0000000116
  9
$TDUSRTIMER
 40
0.0000000116
  9
$USRTIMER
 70
     1
  9
$ANGBASE
 50
0.0
  9
$ANGDIR
 70
     0
  9
$PDMODE
 70
     0
  9
$PDSIZE
 40
0.0
  9
$PLINEWID
 40
0.0
  9
$SPLFRAME
 70
     0
  9
$SPLINETYPE
 70
     6
  9
$SPLINESEGS
 70
     8
  9
$HANDSEED
  5
335
  9
$SURFTAB1
 70
     6
  9
$SURFTAB2
 70
     6
  9
$SURFTYPE
 70
     6
  9
$SURFU
 70
     6
  9
$SURFV
 70
     6
  9
$UCSBASE
  2

  9
$UCSNAME
  2

  9
$UCSORG
 10
0.0
 20
0.0
 30
0.0
  9
$UCSXDIR
 10
1.0
 20
0.0
 30
0.0
  9
$UCSYDIR
 10
0.0
 20
1.0
 30
0.0
  9
$UCSORTHOREF
  2

  9
$UCSORTHOVIEW
 70
     0
  9
$UCSORGTOP
 10
0.0
 20
0.0
 30
0.0
  9
$UCSORGBOTTOM
 10
0.0
 20
0.0
 30
0.0
  9
$UCSORGLEFT
 10
0.0
 20
0.0
 30
0.0
  9
$UCSORGRIGHT
 10
0.0
 20
0.0
 30
0.0
  9
$UCSORGFRONT
 10
0.0
 20
0.0
 30
0.0
  9
$UCSORGBACK
 10
0.0
 20
0.0
 30
0.0
  9
$PUCSBASE
  2

  9
$PUCSNAME
  2

  9
$PUCSORG
 10
0.0
 20
0.0
 30
0.0
  9
$PUCSXDIR
 10
1.0
 20
0.0
 30
0.0
  9
$PUCSYDIR
 10
0.0
 20
1.0
 30
0.0
  9
$PUCSORTHOREF
  2

  9
$PUCSORTHOVIEW
 70
     0
  9
$PUCSORGTOP
 10
0.0
 20
0.0
 30
0.0
  9
$PUCSORGBOTTOM
 10
0.0
 20
0.0
 30
0.0
  9
$PUCSORGLEFT
 10
0.0
 20
0.0
 30
0.0
  9
$PUCSORGRIGHT
 10
0.0
 20
0.0
 30
0.0
  9
$PUCSORGFRONT
 10
0.0
 20
0.0
 30
0.0
  9
$PUCSORGBACK
 10
0.0
 20
0.0
 30
0.0
  9
$USERI1
 70
     0
  9
$USERI2
 70
     0
  9
$USERI3
 70
     0
  9
$USERI4
 70
     0
  9
$USERI5
 70
     0
  9
$USERR1
 40
0.0
  9
$USERR2
 40
0.0
  9
$USERR3
 40
0.0
  9
$USERR4
 40
0.0
  9
$USERR5
 40
0.0
  9
$WORLDVIEW
 70
     1
  9
$SHADEDGE
 70
     3
  9
$SHADEDIF
 70
    70
  9
$TILEMODE
 70
     1
  9
$MAXACTVP
 70
    64
  9
$PINSBASE
 10
0.0
 20
0.0
 30
0.0
  9
$PLIMCHECK
 70
     0
  9
$PEXTMIN
 10
1.000000000000000E+20
 20
1.000000000000000E+20
 30
1.000000000000000E+20
  9
$PEXTMAX
 10
-1.000000000000000E+20
 20
-1.000000000000000E+20
 30
-1.000000000000000E+20
  9
$PLIMMIN
 10
0.0
 20
0.0
  9
$PLIMMAX
 10
420.0
 20
297.0
  9
$UNITMODE
 70
     0
  9
$VISRETAIN
 70
     1
  9
$PLINEGEN
 70
     0
  9
$PSLTSCALE
 70
     1
  9
$TREEDEPTH
 70
  3020
  9
$CMLSTYLE
  2
Standard
  9
$CMLJUST
 70
     0
  9
$CMLSCALE
 40
20.0
  9
$PROXYGRAPHICS
 70
     1
  9
$MEASUREMENT
 70
     1
  9
$CELWEIGHT
370
    -1
  9
$ENDCAPS
280
     0
  9
$JOINSTYLE
280
     0
  9
$LWDISPLAY
290
     0
  9
$INSUNITS
 70
     4
  9
$HYPERLINKBASE
  1

  9
$STYLESHEET
  1

  9
$XEDIT
290
     1
  9
$CEPSNTYPE
380
     0
  9
$PSTYLEMODE
290
     1
  9
$FINGERPRINTGUID
  2
{6D415FAD-8FC3-49BF-B382-9979D8F4C9D2}
  9
$VERSIONGUID
  2
{FAEB1C32-E019-11D5-929B-00C0DF256EC4}
  9
$EXTNAMES
290
     1
  9
$PSVPSCALE
 40
0.0
  9
$OLESTARTUP
290
     0
  0
ENDSEC
  0
SECTION
  2
CLASSES
  0
CLASS
  1
ACDBDICTIONARYWDFLT
  2
AcDbDictionaryWithDefault
  3
ObjectDBX Classes
 90
        0
280
     0
281
     0
  0
CLASS
  1
VISUALSTYLE
  2
AcDbVisualStyle
  3
ObjectDBX Classes
 90
     4095
280
     0
281
     0
  0
CLASS
  1
DICTIONARYVAR
  2
AcDbDictionaryVar
  3
ObjectDBX Classes
 90
        0
280
     0
281
     0
  0
CLASS
  1
ACDBPLACEHOLDER
  2
AcDbPlaceHolder
  3
ObjectDBX Classes
 90
        0
280
     0
281
     0
  0
CLASS
  1
LAYOUT
  2
AcDbLayout
  3
ObjectDBX Classes
 90
        0
280
     0
281
     0
  0
ENDSEC
  0
SECTION
  2
TABLES
  0
TABLE
  2
VPORT
  5
8
330
0
100
AcDbSymbolTable
 70
     1
  0
VPORT
  5
29
330
8
100
AcDbSymbolTableRecord
100
AcDbViewportTableRecord
  2
*Active
 70
     0
 10
0.0
 20
0.0
 11
1.0
 21
1.0
 12
0.0
 22
0.0
 13
0.0
 23
0.0
 14
10.0
 24
10.0
 15
10.0
 25
10.0
 16
0.0
 26
0.0
 36
1.0
 17
0.0
 27
0.0
 37
0.0
 40
3267.0
 41
1.414141414141414
 42
50.0
 43
0.0
 44
0.0
 50
0.0
 51
0.0
 71
     0
 72
 10000
 73
     1
 74
     3
 75
     0
 76
     0
 77
     0
 78
     0
281
     0
 65
     1
110
0.0
120
0.0
130
0.0
111
1.0
121
0.0
131
0.0
112
0.0
122
1.0
132
0.0
 79
     0
146
0.0
  0
ENDTAB
  0
TABLE
  2
LTYPE
  5
5
330
0
100
AcDbSymbolTable
 70
     4
  0
LTYPE
  5
14
330
5
100
AcDbSymbolTableRecord
100
AcDbLinetypeTableRecord
  2
ByBlock
 70
     0
  3

 72
    65
 73
     0
 40
0.0
  0
LTYPE
  5
15
330
5
100
AcDbSymbolTableRecord
100
AcDbLinetypeTableRecord
  2
ByLayer
 70
     0
  3

 72
    65
 73
     0
 40
0.0
  0
LTYPE
  5
16
330
5
100
AcDbSymbolTableRecord
100
AcDbLinetypeTableRecord
  2
Continuous
 70
     0
  3
Solid line
 72
    65
 73
     0
 40
0.0
  0
LTYPE
  5
3C
330
5
100
AcDbSymbolTableRecord
100
AcDbLinetypeTableRecord
  2
JWW_DASHED3
 70
     0
  3
---  ------  ------  ------  ---
 72
    65
 73
     2
 40
3.386666666666667
 49
2.54
 74
     0
 49
-0.8466666666666667
 74
     0
  0
LTYPE
  5
3D
330
5
100
AcDbSymbolTableRecord
100
AcDbLinetypeTableRecord
  2
JWW_CENTER1
 70
     0
  3
-----  --  ----------  --  -----
 72
    65
 73
     4
 40
6.773333333333333
 49
4.233333333333333
 74
     0
 49
-0.8466666666666667
 74
     0
 49
0.8466666666666667
 74
     0
 49
-0.8466666666666667
 74
     0
  0
LTYPE
  5
3E
330
5
100
AcDbSymbolTableRecord
100
AcDbLinetypeTableRecord
  2
JWW_CENTER2
 70
     0
  3
-------------  --  -------------
 72
    65
 73
     4
 40
13.54666666666667
 49
11.00666666666667
 74
     0
 49
-0.8466666666666667
 74
     0
 49
0.8466666666666667
 74
     0
 49
-0.8466666666666667
 74
     0
  0
ENDTAB
  0
TABLE
  2
LAYER
  5
2
330
0
100
AcDbSymbolTable
 70
    16
  0
LAYER
  5
10
330
2
100
AcDbSymbolTableRecord
100
AcDbLayerTableRecord
  2
0
 70
     0
 62
     7
  6
Continuous
370
    -3
390
F
  0
LAYER
  5
3F
330
2
100
AcDbSymbolTableRecord
100
AcDbLayerTableRecord
  2
F-4
 70
     0
 62
     7
  6
Continuous
370
    -1
390
F
  0
LAYER
  5
40
330
2
100
AcDbSymbolTableRecord
100
AcDbLayerTableRecord
  2
C-1
 70
     0
 62
     7
  6
Continuous
370
    -1
390
F
  0
LAYER
  5
41
330
2
100
AcDbSymbolTableRecord
100
AcDbLayerTableRecord
  2
C-2
 70
     0
 62
     7
  6
Continuous
370
    -1
390
F
  0
LAYER
  5
42
330
2
100
AcDbSymbolTableRecord
100
AcDbLayerTableRecord
  2
C-4
 70
     0
 62
     7
  6
Continuous
370
    -1
390
F
  0
LAYER
  5
43
330
2
100
AcDbSymbolTableRecord
100
AcDbLayerTableRecord
  2
C-5
 70
     0
 62
     7
  6
Continuous
370
    -1
390
F
  0
LAYER
  5
44
330
2
100
AcDbSymbolTableRecord
100
AcDbLayerTableRecord
  2
C-A
 70
     0
 62
     7
  6
Continuous
370
    -1
390
F
  0
LAYER
  5
45
330
2
100
AcDbSymbolTableRecord
100
AcDbLayerTableRecord
  2
C-0
 70
     0
 62
     7
  6
Continuous
370
    -1
390
F
  0
LAYER
  5
46
330
2
100
AcDbSymbolTableRecord
100
AcDbLayerTableRecord
  2
D-A
 70
     0
 62
     7
  6
Continuous
370
    -1
390
F
  0
LAYER
  5
47
330
2
100
AcDbSymbolTableRecord
100
AcDbLayerTableRecord
  2
D-4
 70
     0
 62
     7
  6
Continuous
370
    -1
390
F
  0
LAYER
  5
48
330
2
100
AcDbSymbolTableRecord
100
AcDbLayerTableRecord
  2
D-5
 70
     0
 62
     7
  6
Continuous
370
    -1
390
F
  0
LAYER
  5
49
330
2
100
AcDbSymbolTableRecord
100
AcDbLayerTableRecord
  2
D-6
 70
     0
 62
     7
  6
Continuous
370
    -1
390
F
  0
LAYER
  5
4A
330
2
100
AcDbSymbolTableRecord
100
AcDbLayerTableRecord
  2
D-9
 70
     0
 62
     7
  6
Continuous
370
    -1
390
F
  0
LAYER
  5
4B
330
2
100
AcDbSymbolTableRecord
100
AcDbLayerTableRecord
  2
D-1
 70
     0
 62
     7
  6
Continuous
370
    -1
390
F
  0
LAYER
  5
4C
330
2
100
AcDbSymbolTableRecord
100
AcDbLayerTableRecord
  2
D-2
 70
     0
 62
     7
  6
Continuous
370
    -1
390
F
  0
LAYER
  5
4D
330
2
100
AcDbSymbolTableRecord
100
AcDbLayerTableRecord
  2
D-0
 70
     0
 62
     7
  6
Continuous
370
    -1
390
F
  0
ENDTAB
  0
TABLE
  2
STYLE
  5
3
330
0
100
AcDbSymbolTable
 70
     2
  0
STYLE
  5
11
330
3
100
AcDbSymbolTableRecord
100
AcDbTextStyleTableRecord
  2
Standard
 70
     0
 40
0.0
 41
1.0
 50
0.0
 71
     0
 42
2.5
  3
txt
  4

1001
ACAD
1000

1071
        0
  0
STYLE
  5
3B
330
3
100
AcDbSymbolTableRecord
100
AcDbTextStyleTableRecord
  2
ＭＳ ゴシック
 70
     0
 40
1.0
 41
1.0
 50
0.0
 71
     0
 42
10.0
  3

  4

1001
ACAD
1000
MS Gothic
1071
    32817
  0
ENDTAB
  0
TABLE
  2
VIEW
  5
6
330
0
100
AcDbSymbolTable
 70
     0
  0
ENDTAB
  0
TABLE
  2
UCS
  5
7
330
0
100
AcDbSymbolTable
 70
     0
  0
ENDTAB
  0
TABLE
  2
APPID
  5
9
330
0
100
AcDbSymbolTable
 70
     1
  0
APPID
  5
12
330
9
100
AcDbSymbolTableRecord
100
AcDbRegAppTableRecord
  2
ACAD
 70
     0
  0
ENDTAB
  0
TABLE
  2
DIMSTYLE
  5
A
330
0
100
AcDbSymbolTable
 70
     1
100
AcDbDimStyleTable
  0
DIMSTYLE
105
27
330
A
100
AcDbSymbolTableRecord
100
AcDbDimStyleTableRecord
  2
ISO-25
 70
     0
 41
2.5
 42
0.625
 43
3.75
 44
1.25
 73
     0
 74
     0
 77
     1
 78
     8
140
2.5
141
2.5
143
0.03937007874016
147
0.625
171
     3
172
     1
271
     2
272
     2
274
     3
278
    44
283
     0
284
     8
340
11
  0
ENDTAB
  0
TABLE
  2
BLOCK_RECORD
  5
1
330
0
100
AcDbSymbolTable
 70
     1
  0
BLOCK_RECORD
  5
1F
330
1
100
AcDbSymbolTableRecord
100
AcDbBlockTableRecord
  2
*Model_Space
340
22
  0
BLOCK_RECORD
  5
1B
330
1
100
AcDbSymbolTableRecord
100
AcDbBlockTableRecord
  2
*Paper_Space
340
1E
  0
BLOCK_RECORD
  5
23
330
1
100
AcDbSymbolTableRecord
100
AcDbBlockTableRecord
  2
*Paper_Space0
340
26
  0
ENDTAB
  0
ENDSEC
  0
SECTION
  2
BLOCKS
  0
BLOCK
  5
20
330
1F
100
AcDbEntity
  8
0
100
AcDbBlockBegin
  2
*Model_Space
 70
     0
 10
0.0
 20
0.0
 30
0.0
  3
*Model_Space
  1

  0
ENDBLK
  5
21
330
1F
100
AcDbEntity
  8
0
100
AcDbBlockEnd
  0
BLOCK
  5
1C
330
1B
100
AcDbEntity
 67
     1
  8
0
100
AcDbBlockBegin
  2
*Paper_Space
 70
     0
 10
0.0
 20
0.0
 30
0.0
  3
*Paper_Space
  1

  0
ENDBLK
  5
1D
330
1B
100
AcDbEntity
 67
     1
  8
0
100
AcDbBlockEnd
  0
BLOCK
  5
24
330
23
100
AcDbEntity
  8
0
100
AcDbBlockBegin
  2
*Paper_Space0
 70
     0
 10
0.0
 20
0.0
 30
0.0
  3
*Paper_Space0
  1

  0
ENDBLK
  5
25
330
23
100
AcDbEntity
  8
0
100
AcDbBlockEnd
  0
ENDSEC
  0
SECTION
  2
ENTITIES
  0
TEXT
  5
4E
330
1F
100
AcDbEntity
  8
F-4
  6
Continuous
 62
     2
370
     5
100
AcDbText
 10
-869.6662025596902
 20
-1365.511899375921
 30
0.0
 40
30.48
  1
ステンレス縞鋼板製　排水ピット蓋　　ＳＰ－３　２００×５００＋ＳＦ０３Ｂ
 41
0.8993055555555554
  7
ＭＳ ゴシック
100
AcDbText
  0
LINE
  5
4F
330
1F
100
AcDbEntity
  8
C-1
  6
Continuous
 62
     2
370
     5
100
AcDbLine
 10
615.8108131305594
 20
577.6488515493033
 30
0.0
 11
-885.1895860723548
 21
577.6488515493033
 31
0.0
  0
LINE
  5
50
330
1F
100
AcDbEntity
  8
C-2
  6
Continuous
 62
     3
370
     5
100
AcDbLine
 10
-634.1895992691451
 20
583.6487558725719
 30
0.0
 11
-634.1895992691451
 21
783.6487971125425
 31
0.0
  0
LINE
  5
51
330
1F
100
AcDbEntity
  8
C-2
  6
Continuous
 62
     3
370
     5
100
AcDbLine
 10
-634.1895992691451
 20
783.6487971125425
 30
0.0
 11
-135.1895860723545
 21
783.6487971125425
 31
0.0
  0
LINE
  5
52
330
1F
100
AcDbEntity
  8
C-2
  6
Continuous
 62
     3
370
     5
100
AcDbLine
 10
-135.1895860723545
 20
783.6487971125425
 30
0.0
 11
-135.1895860723545
 21
583.6487558725719
 31
0.0
  0
LINE
  5
53
330
1F
100
AcDbEntity
  8
C-2
  6
Continuous
 62
     3
370
     5
100
AcDbLine
 10
-135.1895860723545
 20
583.6487558725719
 30
0.0
 11
-634.1895992691451
 21
583.6487558725719
 31
0.0
  0
LINE
  5
54
330
1F
100
AcDbEntity
  8
C-2
  6
Continuous
 62
     3
370
     5
100
AcDbLine
 10
-635.1893798725024
 20
583.6487558725719
 30
0.0
 11
-635.1893798725024
 21
783.6487971125425
 31
0.0
  0
LINE
  5
55
330
1F
100
AcDbEntity
  8
C-2
  6
Continuous
 62
     3
370
     5
100
AcDbLine
 10
-134.1891868694407
 20
583.6487558725719
 30
0.0
 11
-134.1891868694407
 21
783.6487971125425
 31
0.0
  0
LINE
  5
56
330
1F
100
AcDbEntity
  8
C-2
  6
Continuous
 62
     3
370
     5
100
AcDbLine
 10
-134.1891868694407
 20
783.6487971125425
 30
0.0
 11
364.81082632735
 21
783.6487971125425
 31
0.0
  0
LINE
  5
57
330
1F
100
AcDbEntity
  8
C-2
  6
Continuous
 62
     3
370
     5
100
AcDbLine
 10
364.81082632735
 20
783.6487971125425
 30
0.0
 11
364.81082632735
 21
583.6487558725719
 31
0.0
  0
LINE
  5
58
330
1F
100
AcDbEntity
  8
C-2
  6
Continuous
 62
     3
370
     5
100
AcDbLine
 10
364.81082632735
 20
583.6487558725719
 30
0.0
 11
-134.1891868694407
 21
583.6487558725719
 31
0.0
  0
LINE
  5
59
330
1F
100
AcDbEntity
  8
C-2
  6
Continuous
 62
     3
370
     5
100
AcDbLine
 10
365.8104832107958
 20
783.6487971125425
 30
0.0
 11
365.8104832107958
 21
583.6487558725719
 31
0.0
  0
LINE
  5
5A
330
1F
100
AcDbEntity
  8
C-2
  6
Continuous
 62
     3
370
     5
100
AcDbLine
 10
-635.1893798725024
 20
783.6487971125425
 30
0.0
 11
-885.1895860723546
 21
783.6487971125425
 31
0.0
  0
LINE
  5
5B
330
1F
100
AcDbEntity
  8
C-2
  6
Continuous
 62
     3
370
     5
100
AcDbLine
 10
-635.1893798725024
 20
583.6487558725719
 30
0.0
 11
-885.1895860723546
 21
583.6487558725719
 31
0.0
  0
LINE
  5
5C
330
1F
100
AcDbEntity
  8
C-2
  6
Continuous
 62
     3
370
     5
100
AcDbLine
 10
365.8104832107958
 20
783.6487971125425
 30
0.0
 11
615.8108131305594
 21
783.6487971125425
 31
0.0
  0
LINE
  5
5D
330
1F
100
AcDbEntity
  8
C-2
  6
Continuous
 62
     3
370
     5
100
AcDbLine
 10
365.8104832107958
 20
583.6487558725719
 30
0.0
 11
615.8108131305594
 21
583.6487558725719
 31
0.0
  0
LINE
  5
5E
330
1F
100
AcDbEntity
  8
C-1
  6
Continuous
 62
     2
370
     5
100
AcDbLine
 10
-885.1895860723546
 20
784.648701435811
 30
0.0
 11
615.8108131305594
 21
784.648701435811
 31
0.0
  0
LINE
  5
5F
330
1F
100
AcDbEntity
  8
C-1
  6
JWW_DASHED3
 62
     2
370
     5
100
AcDbLine
 10
-885.1895860723546
 20
758.648467192779
 30
0.0
 11
615.8108131305594
 21
758.648467192779
 31
0.0
  0
LINE
  5
60
330
1F
100
AcDbEntity
  8
C-1
  6
JWW_DASHED3
 62
     2
370
     5
100
AcDbLine
 10
615.8108131305594
 20
608.6492095122467
 30
0.0
 11
-885.1895860723546
 21
608.6492095122467
 31
0.0
  0
LINE
  5
61
330
1F
100
AcDbEntity
  8
C-1
  6
Continuous
 62
     2
370
     5
100
AcDbLine
 10
615.8108131305594
 20
582.6488515493033
 30
0.0
 11
-885.1895860723546
 21
582.6488515493033
 31
0.0
  0
LINE
  5
62
330
1F
100
AcDbEntity
  8
C-4
  6
Continuous
 62
     7
370
     5
100
AcDbLine
 10
-635.1893798725024
 20
803.6491105363177
 30
0.0
 11
-635.1893798725024
 21
886.6488400021117
 31
0.0
  0
LINE
  5
63
330
1F
100
AcDbEntity
  8
C-4
  6
Continuous
 62
     7
370
     5
100
AcDbLine
 10
-634.1895992691451
 20
803.6491105363177
 30
0.0
 11
-634.1895992691451
 21
886.6488400021117
 31
0.0
  0
LINE
  5
64
330
1F
100
AcDbEntity
  8
C-4
  6
Continuous
 62
     7
370
     5
100
AcDbLine
 10
-634.1895992691451
 20
883.6488795924834
 30
0.0
 11
-135.1895860723545
 21
883.6488795924834
 31
0.0
  0
LINE
  5
65
330
1F
100
AcDbEntity
  8
C-4
  6
Continuous
 62
     7
370
     5
100
AcDbLine
 10
-135.1895860723545
 20
803.6491105363177
 30
0.0
 11
-135.1895860723545
 21
886.6488400021117
 31
0.0
  0
LINE
  5
66
330
1F
100
AcDbEntity
  8
C-4
  6
Continuous
 62
     7
370
     5
100
AcDbLine
 10
-135.1895860723545
 20
883.6488795924834
 30
0.0
 11
-134.1891868694407
 21
883.6488795924834
 31
0.0
  0
LINE
  5
67
330
1F
100
AcDbEntity
  8
C-4
  6
Continuous
 62
     7
370
     5
100
AcDbLine
 10
-134.1891868694407
 20
803.6491105363177
 30
0.0
 11
-134.1891868694407
 21
886.6488400021117
 31
0.0
  0
LINE
  5
68
330
1F
100
AcDbEntity
  8
C-4
  6
Continuous
 62
     7
370
     5
100
AcDbLine
 10
-134.1891868694407
 20
883.6488795924834
 30
0.0
 11
364.81082632735
 21
883.6488795924834
 31
0.0
  0
LINE
  5
69
330
1F
100
AcDbEntity
  8
C-4
  6
Continuous
 62
     7
370
     5
100
AcDbLine
 10
364.81082632735
 20
803.6491105363177
 30
0.0
 11
364.81082632735
 21
886.6488400021117
 31
0.0
  0
LINE
  5
6A
330
1F
100
AcDbEntity
  8
C-4
  6
Continuous
 62
     7
370
     5
100
AcDbLine
 10
365.8104832107958
 20
803.6491105363177
 30
0.0
 11
365.8104832107958
 21
886.6488400021117
 31
0.0
  0
LINE
  5
6B
330
1F
100
AcDbEntity
  8
C-4
  6
Continuous
 62
     7
370
     5
100
AcDbLine
 10
-634.1895992691451
 20
883.6488795924834
 30
0.0
 11
-634.1895992691451
 21
966.6488564980998
 31
0.0
  0
LINE
  5
6C
330
1F
100
AcDbEntity
  8
C-4
  6
Continuous
 62
     7
370
     5
100
AcDbLine
 10
-134.1891868694407
 20
883.6488795924834
 30
0.0
 11
-134.1891868694407
 21
966.6488564980998
 31
0.0
  0
LINE
  5
6D
330
1F
100
AcDbEntity
  8
C-4
  6
Continuous
 62
     7
370
     5
100
AcDbLine
 10
365.8104832107958
 20
883.6488795924834
 30
0.0
 11
365.8104832107958
 21
966.6488564980998
 31
0.0
  0
LINE
  5
6E
330
1F
100
AcDbEntity
  8
C-4
  6
Continuous
 62
     7
370
     5
100
AcDbLine
 10
-885.1895860723546
 20
963.6486486486488
 30
0.0
 11
-134.1891868694407
 21
963.6486486486488
 31
0.0
  0
LINE
  5
6F
330
1F
100
AcDbEntity
  8
C-4
  6
Continuous
 62
     7
370
     5
100
AcDbLine
 10
-134.1891868694407
 20
963.6486486486488
 30
0.0
 11
615.8108131305594
 21
963.6486486486488
 31
0.0
  0
LINE
  5
70
330
1F
100
AcDbEntity
  8
C-4
  6
Continuous
 62
     7
370
     5
100
AcDbLine
 10
-885.1895860723546
 20
883.6488795924834
 30
0.0
 11
-634.1895992691451
 21
883.6488795924834
 31
0.0
  0
LINE
  5
71
330
1F
100
AcDbEntity
  8
C-4
  6
Continuous
 62
     7
370
     5
100
AcDbLine
 10
364.81082632735
 20
883.6488795924834
 30
0.0
 11
615.8108131305594
 21
883.6488795924834
 31
0.0
  0
LINE
  5
72
330
1F
100
AcDbEntity
  8
C-2
  6
Continuous
 62
     3
370
     5
100
AcDbLine
 10
-905.1891571766621
 20
668.648665144637
 30
0.0
 11
-865.1890252087566
 21
698.6492590002113
 31
0.0
  0
LINE
  5
73
330
1F
100
AcDbEntity
  8
C-2
  6
Continuous
 62
     3
370
     5
100
AcDbLine
 10
-905.1891571766621
 20
668.648665144637
 30
0.0
 11
-885.1895860723546
 21
668.648665144637
 31
0.0
  0
LINE
  5
74
330
1F
100
AcDbEntity
  8
C-2
  6
Continuous
 62
     3
370
     5
100
AcDbLine
 10
-885.1895860723546
 20
698.6492590002113
 30
0.0
 11
-865.1890252087566
 21
698.6492590002113
 31
0.0
  0
LINE
  5
75
330
1F
100
AcDbEntity
  8
C-2
  6
Continuous
 62
     3
370
     5
100
AcDbLine
 10
595.8107471466067
 20
668.648665144637
 30
0.0
 11
635.8108791145119
 21
698.6492590002113
 31
0.0
  0
LINE
  5
76
330
1F
100
AcDbEntity
  8
C-2
  6
Continuous
 62
     3
370
     5
100
AcDbLine
 10
595.8107471466067
 20
668.648665144637
 30
0.0
 11
615.8108131305594
 21
668.648665144637
 31
0.0
  0
LINE
  5
77
330
1F
100
AcDbEntity
  8
C-2
  6
Continuous
 62
     3
370
     5
100
AcDbLine
 10
615.8108131305594
 20
698.6492590002113
 30
0.0
 11
635.8108791145119
 21
698.6492590002113
 31
0.0
  0
LINE
  5
78
330
1F
100
AcDbEntity
  8
C-2
  6
Continuous
 62
     3
370
     5
100
AcDbLine
 10
-885.1895860723546
 20
560.6491006387248
 30
0.0
 11
-885.1895860723546
 21
668.648665144637
 31
0.0
  0
LINE
  5
79
330
1F
100
AcDbEntity
  8
C-2
  6
Continuous
 62
     3
370
     5
100
AcDbLine
 10
-885.1895860723546
 20
698.6492590002113
 30
0.0
 11
-885.1895860723546
 21
806.6485760663008
 31
0.0
  0
LINE
  5
7A
330
1F
100
AcDbEntity
  8
C-2
  6
Continuous
 62
     3
370
     5
100
AcDbLine
 10
615.8108131305594
 20
806.6485760663008
 30
0.0
 11
615.8108131305594
 21
698.6492590002113
 31
0.0
  0
LINE
  5
7B
330
1F
100
AcDbEntity
  8
C-2
  6
Continuous
 62
     3
370
     5
100
AcDbLine
 10
615.8108131305594
 20
668.648665144637
 30
0.0
 11
615.8108131305594
 21
560.6491006387248
 31
0.0
  0
LINE
  5
7C
330
1F
100
AcDbEntity
  8
C-5
  6
Continuous
 62
     7
370
     5
100
AcDbLine
 10
152.8110671687773
 20
475.648943926837
 30
0.0
 11
152.8110671687773
 21
410.6493480785474
 31
0.0
  0
LINE
  5
7D
330
1F
100
AcDbEntity
  8
C-5
  6
Continuous
 62
     7
370
     5
100
AcDbLine
 10
152.8110671687773
 20
410.6493480785474
 30
0.0
 11
-422.1893452309271
 21
410.6493480785474
 31
0.0
  0
LINE
  5
7E
330
1F
100
AcDbEntity
  8
C-5
  6
Continuous
 62
     7
370
     5
100
AcDbLine
 10
-422.1893452309271
 20
475.648943926837
 30
0.0
 11
152.8110671687773
 21
475.648943926837
 31
0.0
  0
LINE
  5
7F
330
1F
100
AcDbEntity
  8
C-5
  6
Continuous
 62
     7
370
     5
100
AcDbLine
 10
-422.1893452309271
 20
410.6493480785474
 30
0.0
 11
-422.1893452309271
 21
475.648943926837
 31
0.0
  0
LINE
  5
80
330
1F
100
AcDbEntity
  8
C-A
  6
Continuous
 62
     3
370
     5
100
AcDbLine
 10
-135.1895860723545
 20
594.4295852248734
 30
0.0
 11
-145.9709103043014
 21
583.6487558725719
 31
0.0
  0
LINE
  5
81
330
1F
100
AcDbEntity
  8
C-A
  6
Continuous
 62
     3
370
     5
100
AcDbLine
 10
-135.1895860723545
 20
614.228977512669
 30
0.0
 11
-165.7699314323631
 21
583.6487558725719
 31
0.0
  0
LINE
  5
82
330
1F
100
AcDbEntity
  8
C-A
  6
Continuous
 62
     3
370
     5
100
AcDbLine
 10
-135.1895860723545
 20
634.0281223606419
 30
0.0
 11
-185.5688288405133
 21
583.6487558725719
 31
0.0
  0
LINE
  5
83
330
1F
100
AcDbEntity
  8
C-A
  6
Continuous
 62
     3
370
     5
100
AcDbLine
 10
-135.1895860723545
 20
653.8267723289698
 30
0.0
 11
-205.3677262486636
 21
583.6487558725719
 31
0.0
  0
LINE
  5
84
330
1F
100
AcDbEntity
  8
C-A
  6
Continuous
 62
     3
370
     5
100
AcDbLine
 10
-135.1895860723545
 20
673.6259171769427
 30
0.0
 11
-225.1666236568141
 21
583.6487558725719
 31
0.0
  0
LINE
  5
85
330
1F
100
AcDbEntity
  8
C-A
  6
Continuous
 62
     3
370
     5
100
AcDbLine
 10
-223.4033674807159
 20
583.6487558725719
 30
0.0
 11
-239.3561840057373
 21
599.6018198374156
 31
0.0
  0
LINE
  5
86
330
1F
100
AcDbEntity
  8
C-A
  6
Continuous
 62
     3
370
     5
100
AcDbLine
 10
-203.6043463526545
 20
583.6487558725719
 30
0.0
 11
-229.456735301662
 21
609.5008973817568
 31
0.0
  0
LINE
  5
87
330
1F
100
AcDbEntity
  8
C-A
  6
Continuous
 62
     3
370
     5
100
AcDbLine
 10
-183.805448944504
 20
583.6487558725719
 30
0.0
 11
-219.5571628776756
 21
619.4007172455658
 31
0.0
  0
LINE
  5
88
330
1F
100
AcDbEntity
  8
C-A
  6
Continuous
 62
     3
370
     5
100
AcDbLine
 10
-164.0065515363537
 20
583.6487558725719
 30
0.0
 11
-209.6578378935118
 21
629.30004222973
 31
0.0
  0
LINE
  5
89
330
1F
100
AcDbEntity
  8
C-A
  6
Continuous
 62
     3
370
     5
100
AcDbLine
 10
-144.207530408292
 20
583.6487558725719
 30
0.0
 11
-199.758265469525
 21
639.1996146537165
 31
0.0
  0
LINE
  5
8A
330
1F
100
AcDbEntity
  8
C-A
  6
Continuous
 62
     3
370
     5
100
AcDbLine
 10
-135.1895860723545
 20
614.2284826330238
 30
0.0
 11
-179.9593680613748
 21
658.9980171822214
 31
0.0
  0
LINE
  5
8B
330
1F
100
AcDbEntity
  8
C-A
  6
Continuous
 62
     3
370
     5
100
AcDbLine
 10
-135.1895860723545
 20
634.0276274809967
 30
0.0
 11
-170.0596719174771
 21
668.8980844858531
 31
0.0
  0
LINE
  5
8C
330
1F
100
AcDbEntity
  8
C-A
  6
Continuous
 62
     3
370
     5
100
AcDbLine
 10
-135.1895860723545
 20
653.8265248891471
 30
0.0
 11
-160.1602232134019
 21
678.7974094700169
 31
0.0
  0
LINE
  5
8D
330
1F
100
AcDbEntity
  8
C-A
  6
Continuous
 62
     3
370
     5
100
AcDbLine
 10
-135.1895860723545
 20
673.6254222972974
 30
0.0
 11
-150.2607745093266
 21
688.6969818940033
 31
0.0
  0
LINE
  5
8E
330
1F
100
AcDbEntity
  8
C-A
  6
Continuous
 62
     3
370
     5
100
AcDbLine
 10
-135.1895860723545
 20
693.4243197054477
 30
0.0
 11
-140.3615732450743
 21
698.5965543179901
 31
0.0
  0
LINE
  5
8F
330
1F
100
AcDbEntity
  8
C-A
  6
Continuous
 62
     3
370
     5
100
AcDbLine
 10
-243.2022648888665
 20
583.6487558725719
 30
0.0
 11
-249.2558801496349
 21
589.7018762536953
 31
0.0
  0
LINE
  5
90
330
1F
100
AcDbEntity
  8
C-A
  6
Continuous
 62
     3
370
     5
100
AcDbLine
 10
-134.1891868694407
 20
772.8680914801521
 30
0.0
 11
-123.4077389175826
 21
783.6487971125425
 31
0.0
  0
LINE
  5
91
330
1F
100
AcDbEntity
  8
C-A
  6
Continuous
 62
     3
370
     5
100
AcDbLine
 10
-134.1891868694407
 20
753.0684517525339
 30
0.0
 11
-103.6088415094324
 21
783.6487971125425
 31
0.0
  0
LINE
  5
92
330
1F
100
AcDbEntity
  8
C-A
  6
Continuous
 62
     3
370
     5
100
AcDbLine
 10
-134.1891868694407
 20
733.2695543443836
 30
0.0
 11
-83.80994410128181
 21
783.6487971125425
 31
0.0
  0
LINE
  5
93
330
1F
100
AcDbEntity
  8
C-A
  6
Continuous
 62
     3
370
     5
100
AcDbLine
 10
-134.1891868694407
 20
713.4706569362334
 30
0.0
 11
-64.01104669313156
 21
783.6487971125425
 31
0.0
  0
LINE
  5
94
330
1F
100
AcDbEntity
  8
C-A
  6
Continuous
 62
     3
370
     5
100
AcDbLine
 10
-134.1891868694407
 20
693.6717595280828
 30
0.0
 11
-44.21202556506984
 21
783.6487971125425
 31
0.0
  0
LINE
  5
95
330
1F
100
AcDbEntity
  8
C-A
  6
Continuous
 62
     3
370
     5
100
AcDbLine
 10
-45.97540546107922
 20
783.6487971125425
 30
0.0
 11
-30.02234149623547
 21
767.6958568676099
 31
0.0
  0
LINE
  5
96
330
1F
100
AcDbEntity
  8
C-A
  6
Continuous
 62
     3
370
     5
100
AcDbLine
 10
-65.77442658914094
 20
783.6487971125425
 30
0.0
 11
-39.92179020031074
 21
757.7967793232688
 31
0.0
  0
LINE
  5
97
330
1F
100
AcDbEntity
  8
C-A
  6
Continuous
 62
     3
370
     5
100
AcDbLine
 10
-85.5733239972912
 20
783.6487971125425
 30
0.0
 11
-49.82136262429719
 21
747.8969594594596
 31
0.0
  0
LINE
  5
98
330
1F
100
AcDbEntity
  8
C-A
  6
Continuous
 62
     3
370
     5
100
AcDbLine
 10
-105.3722214054415
 20
783.6487971125425
 30
0.0
 11
-59.72068760846099
 21
737.9973870354731
 31
0.0
  0
LINE
  5
99
330
1F
100
AcDbEntity
  8
C-A
  6
Continuous
 62
     3
370
     5
100
AcDbLine
 10
-125.1712425335032
 20
783.6487971125425
 30
0.0
 11
-69.62026003244745
 21
728.0978146114867
 31
0.0
  0
LINE
  5
9A
330
1F
100
AcDbEntity
  8
C-A
  6
Continuous
 62
     3
370
     5
100
AcDbLine
 10
-134.1891868694407
 20
753.0689466321792
 30
0.0
 11
-89.4191574405977
 21
708.2994120829815
 31
0.0
  0
LINE
  5
9B
330
1F
100
AcDbEntity
  8
C-A
  6
Continuous
 62
     3
370
     5
100
AcDbLine
 10
-134.1891868694407
 20
733.270049224029
 30
0.0
 11
-99.31910102431829
 21
698.3995922191724
 31
0.0
  0
LINE
  5
9C
330
1F
100
AcDbEntity
  8
C-A
  6
Continuous
 62
     3
370
     5
100
AcDbLine
 10
-134.1891868694407
 20
713.4711518158783
 30
0.0
 11
-109.2185497283933
 21
688.500019795186
 31
0.0
  0
LINE
  5
9D
330
1F
100
AcDbEntity
  8
C-A
  6
Continuous
 62
     3
370
     5
100
AcDbLine
 10
-134.1891868694407
 20
693.6722544077281
 30
0.0
 11
-119.1179984324685
 21
678.6006948110221
 31
0.0
  0
LINE
  5
9E
330
1F
100
AcDbEntity
  8
C-A
  6
Continuous
 62
     3
370
     5
100
AcDbLine
 10
-134.1891868694407
 20
673.8733569995779
 30
0.0
 11
-129.0169522568985
 21
668.7011223870356
 31
0.0
  0
LINE
  5
9F
330
1F
100
AcDbEntity
  8
C-A
  6
Continuous
 62
     3
370
     5
100
AcDbLine
 10
-26.17650805292897
 20
783.6487971125425
 30
0.0
 11
-20.1228927921602
 21
777.595676731419
 31
0.0
  0
LINE
  5
A0
330
1F
100
AcDbEntity
  8
C-4
  6
Continuous
 62
     7
370
     5
100
AcDbLine
 10
-844.6896256627263
 20
521.2709086650127
 30
0.0
 11
-764.6894854468268
 21
521.2709086650127
 31
0.0
  0
LINE
  5
A1
330
1F
100
AcDbEntity
  8
C-4
  6
Continuous
 62
     7
370
     5
100
AcDbLine
 10
-844.6896256627263
 20
638.6490610483531
 30
0.0
 11
-844.6896256627263
 21
518.2708245354731
 31
0.0
  0
LINE
  5
A2
330
1F
100
AcDbEntity
  8
C-4
  6
Continuous
 62
     7
370
     5
100
AcDbLine
 10
-764.6894854468268
 20
638.6490610483531
 30
0.0
 11
-764.6894854468268
 21
518.2708245354731
 31
0.0
  0
LINE
  5
A3
330
1F
100
AcDbEntity
  8
C-4
  6
Continuous
 62
     7
370
     5
100
AcDbLine
 10
-937.3542308807372
 20
638.6490610483531
 30
0.0
 11
-937.3542308807372
 21
668.6489125844596
 31
0.0
  0
LINE
  5
A4
330
1F
100
AcDbEntity
  8
C-4
  6
Continuous
 62
     7
370
     5
100
AcDbLine
 10
-844.6896256627263
 20
638.6490610483531
 30
0.0
 11
-940.3541912903655
 21
638.6490610483531
 31
0.0
  0
LINE
  5
A5
330
1F
100
AcDbEntity
  8
C-4
  6
Continuous
 62
     7
370
     5
100
AcDbLine
 10
-844.6896256627263
 20
668.6489125844596
 30
0.0
 11
-940.3541912903655
 21
668.6489125844596
 31
0.0
  0
LINE
  5
A6
330
1F
100
AcDbEntity
  8
C-0
  6
JWW_CENTER1
 62
     3
370
     5
100
AcDbLine
 10
855.8041817433129
 20
507.3256951409419
 30
0.0
 11
855.8041817433129
 21
623.29418285473
 31
0.0
  0
LINE
  5
A7
330
1F
100
AcDbEntity
  8
C-0
  6
JWW_CENTER1
 62
     3
370
     5
100
AcDbLine
 10
800.7552546423838
 20
566.9405055690459
 30
0.0
 11
914.0054921846136
 21
566.9405055690459
 31
0.0
  0
LINE
  5
A8
330
1F
100
AcDbEntity
  8
C-5
  6
Continuous
 62
     7
370
     5
100
AcDbLine
 10
575.8938209430594
 20
410.6493480785474
 30
0.0
 11
575.8938209430594
 21
475.648943926837
 31
0.0
  0
LINE
  5
A9
330
1F
100
AcDbEntity
  8
C-5
  6
Continuous
 62
     7
370
     5
100
AcDbLine
 10
575.8938209430594
 20
475.648943926837
 30
0.0
 11
1150.894480782586
 21
475.648943926837
 31
0.0
  0
LINE
  5
AA
330
1F
100
AcDbEntity
  8
C-5
  6
Continuous
 62
     7
370
     5
100
AcDbLine
 10
1150.894480782586
 20
475.648943926837
 30
0.0
 11
1150.894480782586
 21
410.6493480785474
 31
0.0
  0
LINE
  5
AB
330
1F
100
AcDbEntity
  8
C-5
  6
Continuous
 62
     7
370
     5
100
AcDbLine
 10
1150.894480782586
 20
410.6493480785474
 30
0.0
 11
575.8938209430594
 21
410.6493480785474
 31
0.0
  0
LINE
  5
AC
330
1F
100
AcDbEntity
  8
C-5
  6
Continuous
 62
     7
370
     5
100
AcDbLine
 10
930.4904280482115
 20
641.6269993137669
 30
0.0
 11
1028.484268446226
 21
641.6269993137669
 31
0.0
  0
LINE
  5
AD
330
1F
100
AcDbEntity
  8
C-5
  6
Continuous
 62
     7
370
     5
100
AcDbLine
 10
880.5526179236338
 20
591.6891891891894
 30
0.0
 11
930.4904280482115
 21
641.6269993137669
 31
0.0
  0
LINE
  5
AE
330
1F
100
AcDbEntity
  8
C-5
  6
Continuous
 62
     7
370
     5
100
AcDbLine
 10
880.5526179236338
 20
591.6891891891894
 30
0.0
 11
895.7714042148077
 21
611.523223052154
 31
0.0
  0
LINE
  5
AF
330
1F
100
AcDbEntity
  8
C-5
  6
Continuous
 62
     7
370
     5
100
AcDbLine
 10
880.5526179236338
 20
591.6891891891894
 30
0.0
 11
900.3864043467754
 21
606.9084703600086
 31
0.0
  0
LINE
  5
B0
330
1F
100
AcDbEntity
  8
C-A
  6
Continuous
 62
     3
370
     5
100
AcDbLine
 10
-134.1891868694407
 20
673.8728621199325
 30
0.0
 11
-86.23943199982506
 21
721.822493269637
 31
0.0
  0
LINE
  5
B1
330
1F
100
AcDbEntity
  8
C-A
  6
Continuous
 62
     3
370
     5
100
AcDbLine
 10
-77.86322284389172
 20
730.1985787056589
 30
0.0
 11
-24.41312815691958
 21
783.6487971125425
 31
0.0
  0
LINE
  5
B2
330
1F
100
AcDbEntity
  8
C-A
  6
Continuous
 62
     3
370
     5
100
AcDbLine
 10
-134.1891868694407
 20
772.8680914801521
 30
0.0
 11
-91.51645737725318
 21
730.1958568676099
 31
0.0
  0
LINE
  5
B3
330
1F
100
AcDbEntity
  8
C-A
  6
Continuous
 62
     3
370
     5
100
AcDbLine
 10
-83.14259889963495
 20
721.821750950169
 30
0.0
 11
-79.51970873652272
 21
718.1989845069679
 31
0.0
  0
LINE
  5
B4
330
1F
100
AcDbEntity
  8
C-A
  6
Continuous
 62
     3
370
     5
100
AcDbLine
 10
-135.1895860723545
 20
594.4295852248734
 30
0.0
 11
-177.8625630043646
 21
637.102314717061
 31
0.0
  0
LINE
  5
B5
330
1F
100
AcDbEntity
  8
C-A
  6
Continuous
 62
     3
370
     5
100
AcDbLine
 10
-186.2361740421602
 20
645.4759257548565
 30
0.0
 11
-189.8588167654501
 21
649.0986921980575
 31
0.0
  0
LINE
  5
B6
330
1F
100
AcDbEntity
  8
C-A
  6
Continuous
 62
     3
370
     5
100
AcDbLine
 10
-135.1895860723545
 20
693.4248145850929
 30
0.0
 11
-183.1393409419704
 21
645.4749359955658
 31
0.0
  0
LINE
  5
B7
330
1F
100
AcDbEntity
  8
C-A
  6
Continuous
 62
     3
370
     5
100
AcDbLine
 10
-191.5156738178149
 20
637.0986031197214
 30
0.0
 11
-244.9656447848756
 21
583.6487558725719
 31
0.0
  0
LINE
  5
B8
330
1F
100
AcDbEntity
  8
D-A
  6
JWW_DASHED3
 62
     3
370
     5
100
AcDbLine
 10
-412.5682663273165
 20
-320.7272173907305
 30
0.0
 11
-412.5682663273165
 21
-270.7272998706713
 31
0.0
  0
LINE
  5
B9
330
1F
100
AcDbEntity
  8
D-A
  6
Continuous
 62
     3
370
     5
100
AcDbLine
 10
-387.5685550071097
 20
-295.7273823506122
 30
0.0
 11
-387.5685550071097
 21
-280.2273807010134
 31
0.0
  0
LINE
  5
BA
330
1F
100
AcDbEntity
  8
D-A
  6
Continuous
 62
     3
370
     5
100
AcDbLine
 10
-412.5682663273165
 20
-270.7272998706713
 30
0.0
 11
-412.5682663273165
 21
-240.7276957743876
 31
0.0
  0
LINE
  5
BB
330
1F
100
AcDbEntity
  8
D-A
  6
Continuous
 62
     3
370
     5
100
AcDbLine
 10
-262.5683900472279
 20
-359.2279877533784
 30
0.0
 11
-387.5685550071097
 21
-359.2279877533784
 31
0.0
  0
LINE
  5
BC
330
1F
100
AcDbEntity
  8
D-A
  6
Continuous
 62
     3
370
     5
100
AcDbLine
 10
-390.4976239075532
 20
-342.797859810494
 30
0.0
 11
-412.5682663273165
 21
-320.7272173907305
 31
0.0
  0
LINE
  5
BD
330
1F
100
AcDbEntity
  8
D-A
  6
Continuous
 62
     3
370
     5
100
AcDbLine
 10
-387.5685550071097
 20
-370.7277535103462
 30
0.0
 11
-387.5685550071097
 21
-349.8693187816723
 31
0.0
  0
LINE
  5
BE
330
1F
100
AcDbEntity
  8
D-A
  6
Continuous
 62
     3
370
     5
100
AcDbLine
 10
-262.5683900472279
 20
-370.7277535103462
 30
0.0
 11
-387.5685550071097
 21
-370.7277535103462
 31
0.0
  0
LINE
  5
BF
330
1F
100
AcDbEntity
  8
D-A
  6
Continuous
 62
     3
370
     5
100
AcDbLine
 10
-262.5683900472279
 20
-330.7273741026182
 30
0.0
 11
-262.5683900472279
 21
-370.7277535103462
 31
0.0
  0
LINE
  5
C0
330
1F
100
AcDbEntity
  8
D-A
  6
Continuous
 62
     3
370
     5
100
AcDbLine
 10
-352.2132396697998
 20
-320.7272173907305
 30
0.0
 11
-272.5686704790269
 21
-320.7272173907305
 31
0.0
  0
LINE
  5
C1
330
1F
100
AcDbEntity
  8
D-A
  6
Continuous
 62
     3
370
     5
100
AcDbLine
 10
-412.5682663273165
 20
-270.7272998706713
 30
0.0
 11
-369.8910829183217
 21
-313.4054730389569
 31
0.0
  0
LINE
  5
C2
330
1F
100
AcDbEntity
  8
D-A
  6
Continuous
 62
     3
370
     5
100
AcDbLine
 10
-424.0685269639297
 20
-240.7276957743876
 30
0.0
 11
-424.0685269639297
 21
-353.227819494299
 31
0.0
  0
LINE
  5
C3
330
1F
100
AcDbEntity
  8
D-A
  6
JWW_CENTER2
 62
     3
370
     5
100
AcDbLine
 10
-369.5734939059693
 20
-298.2273905986063
 30
0.0
 11
-429.9919888779922
 21
-298.2273905986063
 31
0.0
  0
LINE
  5
C4
330
1F
100
AcDbEntity
  8
D-A
  6
JWW_DASHED3
 62
     3
370
     5
100
AcDbLine
 10
-387.5685550071097
 20
-316.2271530563767
 30
0.0
 11
-387.5685550071097
 21
-295.7273823506122
 31
0.0
  0
LINE
  5
C5
330
1F
100
AcDbEntity
  8
D-A
  6
Continuous
 62
     3
370
     5
100
AcDbLine
 10
-426.3184972711511
 20
-288.2272338867188
 30
0.0
 11
-427.5681920953699
 21
-289.4776710304053
 31
0.0
  0
LINE
  5
C6
330
1F
100
AcDbEntity
  8
D-A
  6
Continuous
 62
     3
370
     5
100
AcDbLine
 10
-426.3184972711511
 20
-308.2269287109375
 30
0.0
 11
-427.5681920953699
 21
-306.9776050464526
 31
0.0
  0
LINE
  5
C7
330
1F
100
AcDbEntity
  8
D-A
  6
JWW_DASHED3
 62
     3
370
     5
100
AcDbLine
 10
-426.3184972711511
 20
-288.2272338867188
 30
0.0
 11
-426.3184972711511
 21
-308.2269287109375
 31
0.0
  0
LINE
  5
C8
330
1F
100
AcDbEntity
  8
D-A
  6
Continuous
 62
     3
370
     5
100
AcDbLine
 10
-424.0685269639297
 20
-289.4776710304053
 30
0.0
 11
-427.5681920953699
 21
-289.4776710304053
 31
0.0
  0
LINE
  5
C9
330
1F
100
AcDbEntity
  8
D-A
  6
Continuous
 62
     3
370
     5
100
AcDbLine
 10
-424.0685269639297
 20
-288.2272338867188
 30
0.0
 11
-426.3184972711511
 21
-288.2272338867188
 31
0.0
  0
LINE
  5
CA
330
1F
100
AcDbEntity
  8
D-A
  6
Continuous
 62
     3
370
     5
100
AcDbLine
 10
-424.0685269639297
 20
-306.9776050464526
 30
0.0
 11
-427.5681920953699
 21
-306.9776050464526
 31
0.0
  0
LINE
  5
CB
330
1F
100
AcDbEntity
  8
D-A
  6
Continuous
 62
     3
370
     5
100
AcDbLine
 10
-424.0685269639297
 20
-308.2269287109375
 30
0.0
 11
-426.3184972711511
 21
-308.2269287109375
 31
0.0
  0
LINE
  5
CC
330
1F
100
AcDbEntity
  8
D-A
  6
JWW_DASHED3
 62
     3
370
     5
100
AcDbLine
 10
-387.5685550071097
 20
-308.2269287109375
 30
0.0
 11
-424.0685269639297
 21
-308.2269287109375
 31
0.0
  0
LINE
  5
CD
330
1F
100
AcDbEntity
  8
D-A
  6
JWW_DASHED3
 62
     3
370
     5
100
AcDbLine
 10
-387.5685550071097
 20
-306.9776050464526
 30
0.0
 11
-424.0685269639297
 21
-306.9776050464526
 31
0.0
  0
LINE
  5
CE
330
1F
100
AcDbEntity
  8
D-A
  6
JWW_DASHED3
 62
     3
370
     5
100
AcDbLine
 10
-381.0683108664847
 20
-316.2271530563767
 30
0.0
 11
-387.5685550071097
 21
-316.2271530563767
 31
0.0
  0
LINE
  5
CF
330
1F
100
AcDbEntity
  8
D-A
  6
Continuous
 62
     3
370
     5
100
AcDbLine
 10
-381.0683108664847
 20
-280.2273807010134
 30
0.0
 11
-387.5685550071097
 21
-280.2273807010134
 31
0.0
  0
LINE
  5
D0
330
1F
100
AcDbEntity
  8
D-A
  6
Continuous
 62
     3
370
     5
100
AcDbLine
 10
-374.5684378855935
 20
-286.7273774018157
 30
0.0
 11
-374.5684378855935
 21
-308.7279943517735
 31
0.0
  0
LINE
  5
D1
330
1F
100
AcDbEntity
  8
D-A
  6
JWW_DASHED3
 62
     3
370
     5
100
AcDbLine
 10
-374.5684378855935
 20
-309.7275275153082
 30
0.0
 11
-374.5684378855935
 21
-308.7279943517735
 31
0.0
  0
LINE
  5
D2
330
1F
100
AcDbEntity
  8
D-A
  6
Continuous
 62
     3
370
     5
100
AcDbLine
 10
-387.5685550071097
 20
-288.2272338867188
 30
0.0
 11
-395.0688271909146
 21
-288.2272338867188
 31
0.0
  0
LINE
  5
D3
330
1F
100
AcDbEntity
  8
D-A
  6
Continuous
 62
     3
370
     5
100
AcDbLine
 10
-387.5685550071097
 20
-289.4776710304053
 30
0.0
 11
-393.8187612069618
 21
-289.4776710304053
 31
0.0
  0
LINE
  5
D4
330
1F
100
AcDbEntity
  8
D-A
  6
JWW_DASHED3
 62
     3
370
     5
100
AcDbLine
 10
-395.0688271909146
 20
-288.2272338867188
 30
0.0
 11
-424.0685269639297
 21
-288.2272338867188
 31
0.0
  0
LINE
  5
D5
330
1F
100
AcDbEntity
  8
D-A
  6
JWW_DASHED3
 62
     3
370
     5
100
AcDbLine
 10
-424.0685269639297
 20
-289.4776710304053
 30
0.0
 11
-393.8187612069618
 21
-289.4776710304053
 31
0.0
  0
LINE
  5
D6
330
1F
100
AcDbEntity
  8
D-4
  6
Continuous
 62
     7
370
     5
100
AcDbLine
 10
-1135.236743978552
 20
-114.8079207136823
 30
0.0
 11
-562.5690086467844
 21
-114.8079207136823
 31
0.0
  0
LINE
  5
D7
330
1F
100
AcDbEntity
  8
D-4
  6
Continuous
 62
     7
370
     5
100
AcDbLine
 10
-562.5690086467844
 20
-220.2717219172297
 30
0.0
 11
-562.5690086467844
 21
-111.8074654244086
 31
0.0
  0
LINE
  5
D8
330
1F
100
AcDbEntity
  8
D-4
  6
Continuous
 62
     7
370
     5
100
AcDbLine
 10
-562.5690086467844
 20
-114.8079207136823
 30
0.0
 11
-437.5682250873461
 21
-114.8079207136823
 31
0.0
  0
LINE
  5
D9
330
1F
100
AcDbEntity
  8
D-4
  6
Continuous
 62
     7
370
     5
100
AcDbLine
 10
-437.5682250873461
 20
-220.2717219172297
 30
0.0
 11
-437.5682250873461
 21
-3.055931297508323
 31
0.0
  0
LINE
  5
DA
330
1F
100
AcDbEntity
  8
D-4
  6
Continuous
 62
     7
370
     5
100
AcDbLine
 10
-432.5679611515352
 20
-220.2717219172297
 30
0.0
 11
-432.5679611515352
 21
-3.055931297508323
 31
0.0
  0
LINE
  5
DB
330
1F
100
AcDbEntity
  8
D-4
  6
Continuous
 62
     7
370
     5
100
AcDbLine
 10
-407.5691158707076
 20
-220.2717219172297
 30
0.0
 11
-407.5691158707076
 21
107.6404798353042
 31
0.0
  0
LINE
  5
DC
330
1F
100
AcDbEntity
  8
D-5
  6
Continuous
 62
     7
370
     5
100
AcDbLine
 10
-313.0453715453277
 20
-72.81614561338671
 30
0.0
 11
-53.6622472711511
 21
-72.81614561338671
 31
0.0
  0
LINE
  5
DD
330
1F
100
AcDbEntity
  8
D-4
  6
Continuous
 62
     7
370
     5
100
AcDbLine
 10
-162.5675652478191
 20
-555.6006849134291
 30
0.0
 11
-162.5675652478191
 21
-798.8104000607052
 31
0.0
  0
LINE
  5
DE
330
1F
100
AcDbEntity
  8
D-4
  6
Continuous
 62
     7
370
     5
100
AcDbLine
 10
-562.5685137671392
 20
-641.3461303710938
 30
0.0
 11
-412.5682663273165
 21
-641.3461303710938
 31
0.0
  0
LINE
  5
DF
330
1F
100
AcDbEntity
  8
D-4
  6
Continuous
 62
     7
370
     5
100
AcDbLine
 10
109.1164112091067
 20
-485.7275143185177
 30
0.0
 11
109.1164112091067
 21
-235.7273081186655
 31
0.0
  0
LINE
  5
E0
330
1F
100
AcDbEntity
  8
D-6
  6
Continuous
 62
     6
370
     5
100
AcDbLine
 10
-412.5682663273165
 20
-485.7275143185177
 30
0.0
 11
-412.5682663273165
 21
-735.7272256387246
 31
0.0
  0
LINE
  5
E1
330
1F
100
AcDbEntity
  8
D-6
  6
JWW_DASHED3
 62
     6
370
     5
100
AcDbLine
 10
-319.0673145087987
 20
-613.2274400865709
 30
0.0
 11
-319.0673145087987
 21
-485.7275143185177
 31
0.0
  0
LINE
  5
E2
330
1F
100
AcDbEntity
  8
D-6
  6
JWW_DASHED3
 62
     6
370
     5
100
AcDbLine
 10
-274.0671660449053
 20
-485.7275143185177
 30
0.0
 11
-274.0671660449053
 21
-613.2274400865709
 31
0.0
  0
LINE
  5
E3
330
1F
100
AcDbEntity
  8
D-6
  6
Continuous
 62
     6
370
     5
100
AcDbLine
 10
-162.5686787270209
 20
-385.7276792783995
 30
0.0
 11
2.432360520234056
 21
-385.7276792783995
 31
0.0
  0
LINE
  5
E4
330
1F
100
AcDbEntity
  8
D-6
  6
Continuous
 62
     6
370
     5
100
AcDbLine
 10
-397.568587999086
 20
-730.8766627956081
 30
0.0
 11
-52.41750124338495
 21
-385.7276792783995
 31
0.0
  0
LINE
  5
E5
330
1F
100
AcDbEntity
  8
D-6
  6
Continuous
 62
     6
370
     5
100
AcDbLine
 10
-397.568587999086
 20
-723.8043377850506
 30
0.0
 11
-59.49180577252349
 21
-385.7276792783995
 31
0.0
  0
LINE
  5
E6
330
1F
100
AcDbEntity
  8
D-6
  6
Continuous
 62
     6
370
     5
100
AcDbLine
 10
-397.568587999086
 20
-716.7359718116553
 30
0.0
 11
-166.5587695869237
 21
-485.7275143185177
 31
0.0
  0
LINE
  5
E7
330
1F
100
AcDbEntity
  8
D-6
  6
Continuous
 62
     6
370
     5
100
AcDbLine
 10
-162.5686787270209
 20
-385.7276792783995
 30
0.0
 11
-162.5686787270209
 21
-485.7275143185177
 31
0.0
  0
LINE
  5
E8
330
1F
100
AcDbEntity
  8
D-6
  6
Continuous
 62
     6
370
     5
100
AcDbLine
 10
-162.5686787270209
 20
-481.7372997387035
 30
0.0
 11
-66.55831594724901
 21
-385.7276792783995
 31
0.0
  0
LINE
  5
E9
330
1F
100
AcDbEntity
  8
D-4
  6
Continuous
 62
     7
370
     5
100
AcDbLine
 10
-106.7896804294068
 20
-485.7275143185177
 30
0.0
 11
112.1168664983801
 21
-485.7275143185177
 31
0.0
  0
LINE
  5
EA
330
1F
100
AcDbEntity
  8
D-6
  6
Continuous
 62
     6
370
     5
100
AcDbLine
 10
-412.5682663273165
 20
-485.7275143185177
 30
0.0
 11
-162.5686787270209
 21
-485.7275143185177
 31
0.0
  0
LINE
  5
EB
330
1F
100
AcDbEntity
  8
D-6
  6
Continuous
 62
     6
370
     5
100
AcDbLine
 10
-319.0673145087987
 20
-288.2276050464526
 30
0.0
 11
-274.0671660449053
 21
-288.2276050464526
 31
0.0
  0
LINE
  5
EC
330
1F
100
AcDbEntity
  8
D-6
  6
JWW_CENTER2
 62
     6
370
     5
100
AcDbLine
 10
-296.5672402768521
 20
-284.1478172508445
 30
0.0
 11
-296.5672402768521
 21
-613.2274400865709
 31
0.0
  0
LINE
  5
ED
330
1F
100
AcDbEntity
  8
D-4
  6
Continuous
 62
     7
370
     5
100
AcDbLine
 10
-407.5684972711511
 20
-426.2581985061233
 30
0.0
 11
-257.5680023915058
 21
-426.2581985061233
 31
0.0
  0
LINE
  5
EE
330
1F
100
AcDbEntity
  8
D-4
  6
Continuous
 62
     7
370
     5
100
AcDbLine
 10
-407.5684972711511
 20
-373.6949281434754
 30
0.0
 11
-407.5684972711511
 21
-429.2584063555742
 31
0.0
  0
LINE
  5
EF
330
1F
100
AcDbEntity
  8
D-4
  6
Continuous
 62
     7
370
     5
100
AcDbLine
 10
-262.5683900472279
 20
-373.6949281434754
 30
0.0
 11
-262.5683900472279
 21
-429.2584063555742
 31
0.0
  0
LINE
  5
F0
330
1F
100
AcDbEntity
  8
D-4
  6
Continuous
 62
     7
370
     5
100
AcDbLine
 10
-250.7422511642042
 20
-370.7277535103462
 30
0.0
 11
-171.5183296719113
 21
-370.7277535103462
 31
0.0
  0
LINE
  5
F1
330
1F
100
AcDbEntity
  8
D-4
  6
Continuous
 62
     7
370
     5
100
AcDbLine
 10
-250.7422511642042
 20
-320.7272173907305
 30
0.0
 11
-171.5183296719113
 21
-320.7272173907305
 31
0.0
  0
LINE
  5
F2
330
1F
100
AcDbEntity
  8
D-4
  6
Continuous
 62
     7
370
     5
100
AcDbLine
 10
-174.5184138014508
 20
-320.7272173907305
 30
0.0
 11
-174.5184138014508
 21
-235.7273081186655
 31
0.0
  0
LINE
  5
F3
330
1F
100
AcDbEntity
  8
D-6
  6
Continuous
 62
     6
370
     5
100
AcDbLine
 10
-319.0673145087987
 20
-485.7275143185177
 30
0.0
 11
-319.0673145087987
 21
-370.7277535103462
 31
0.0
  0
LINE
  5
F4
330
1F
100
AcDbEntity
  8
D-6
  6
Continuous
 62
     6
370
     5
100
AcDbLine
 10
-274.0671660449053
 20
-485.7275143185177
 30
0.0
 11
-274.0671660449053
 21
-370.7277535103462
 31
0.0
  0
LINE
  5
F5
330
1F
100
AcDbEntity
  8
D-6
  6
Continuous
 62
     6
370
     5
100
AcDbLine
 10
-319.0673145087987
 20
-320.7272173907305
 30
0.0
 11
-319.0673145087987
 21
-288.2276050464526
 31
0.0
  0
LINE
  5
F6
330
1F
100
AcDbEntity
  8
D-6
  6
Continuous
 62
     6
370
     5
100
AcDbLine
 10
-274.0671660449053
 20
-320.7272173907305
 30
0.0
 11
-274.0671660449053
 21
-288.2276050464526
 31
0.0
  0
LINE
  5
F7
330
1F
100
AcDbEntity
  8
D-4
  6
Continuous
 62
     7
370
     5
100
AcDbLine
 10
-708.051499804935
 20
-360.7275967984586
 30
0.0
 11
-708.051499804935
 21
-235.7273081186655
 31
0.0
  0
LINE
  5
F8
330
1F
100
AcDbEntity
  8
D-4
  6
Continuous
 62
     7
370
     5
100
AcDbLine
 10
-435.7131687370506
 20
-360.7275967984586
 30
0.0
 11
-711.0514602145633
 21
-360.7275967984586
 31
0.0
  0
LINE
  5
F9
330
1F
100
AcDbEntity
  8
D-4
  6
Continuous
 62
     7
370
     5
100
AcDbLine
 10
-435.7131687370506
 20
-235.7273081186655
 30
0.0
 11
-711.0514602145633
 21
-235.7273081186655
 31
0.0
  0
LINE
  5
FA
330
1F
100
AcDbEntity
  8
D-4
  6
Continuous
 62
     7
370
     5
100
AcDbLine
 10
-1135.236743978552
 20
104.6400245460305
 30
0.0
 11
-407.5691158707076
 21
104.6400245460305
 31
0.0
  0
LINE
  5
FB
330
1F
100
AcDbEntity
  8
D-4
  6
Continuous
 62
     7
370
     5
100
AcDbLine
 10
-562.5685137671392
 20
-795.8108108108108
 30
0.0
 11
-162.5675652478191
 21
-795.8108108108108
 31
0.0
  0
LINE
  5
FC
330
1F
100
AcDbEntity
  8
D-4
  6
Continuous
 62
     7
370
     5
100
AcDbLine
 10
-1135.236743978552
 20
-6.055644267314051
 30
0.0
 11
-361.0313763489594
 21
-6.055644267314051
 31
0.0
  0
LINE
  5
FD
330
1F
100
AcDbEntity
  8
D-4
  6
Continuous
 62
     7
370
     5
100
AcDbLine
 10
-174.5184138014508
 20
-370.7277535103462
 30
0.0
 11
-174.5184138014508
 21
-320.7272173907305
 31
0.0
  0
LINE
  5
FE
330
1F
100
AcDbEntity
  8
D-4
  6
Continuous
 62
     7
370
     5
100
AcDbLine
 10
-562.5685137671392
 20
-760.7275555584881
 30
0.0
 11
-562.5685137671392
 21
-798.8104000607052
 31
0.0
  0
LINE
  5
FF
330
1F
100
AcDbEntity
  8
D-5
  6
Continuous
 62
     2
370
     5
100
AcDbLine
 10
-904.5633818652177
 20
-931.6696249472127
 30
0.0
 11
-904.5633818652177
 21
-866.6700290989231
 31
0.0
  0
LINE
  5
100
330
1F
100
AcDbEntity
  8
D-5
  6
Continuous
 62
     2
370
     5
100
AcDbLine
 10
-904.5633818652177
 20
-866.6700290989231
 30
0.0
 11
-329.5629694655133
 21
-866.6700290989231
 31
0.0
  0
LINE
  5
101
330
1F
100
AcDbEntity
  8
D-5
  6
Continuous
 62
     2
370
     5
100
AcDbLine
 10
-329.5629694655133
 20
-866.6700290989231
 30
0.0
 11
-329.5629694655133
 21
-931.6696249472127
 31
0.0
  0
LINE
  5
102
330
1F
100
AcDbEntity
  8
D-5
  6
Continuous
 62
     2
370
     5
100
AcDbLine
 10
-329.5629694655133
 20
-931.6696249472127
 30
0.0
 11
-904.5633818652177
 21
-931.6696249472127
 31
0.0
  0
LINE
  5
103
330
1F
100
AcDbEntity
  8
D-A
  6
Continuous
 62
     3
370
     5
100
AcDbLine
 10
-424.0685269639297
 20
-240.7276957743876
 30
0.0
 11
-412.5682663273165
 21
-240.7276957743876
 31
0.0
  0
LINE
  5
104
330
1F
100
AcDbEntity
  8
D-A
  6
Continuous
 62
     3
370
     5
100
AcDbLine
 10
-412.5682663273165
 20
-353.227819494299
 30
0.0
 11
-424.0685269639297
 21
-353.227819494299
 31
0.0
  0
LINE
  5
105
330
1F
100
AcDbEntity
  8
D-A
  6
Continuous
 62
     3
370
     5
100
AcDbLine
 10
-412.5682663273165
 20
-353.227819494299
 30
0.0
 11
-412.5682663273165
 21
-320.7272173907305
 31
0.0
  0
LINE
  5
106
330
1F
100
AcDbEntity
  8
D-5
  6
Continuous
 62
     7
370
     5
100
AcDbLine
 10
-313.0453715453277
 20
-72.81614561338671
 30
0.0
 11
-476.3469940907245
 21
-260.4412264437287
 31
0.0
  0
LINE
  5
107
330
1F
100
AcDbEntity
  8
D-5
  6
Continuous
 62
     7
370
     5
100
AcDbLine
 10
-476.3469940907245
 20
-260.4412264437287
 30
0.0
 11
-462.5357692306105
 21
-239.6015971415751
 31
0.0
  0
LINE
  5
108
330
1F
100
AcDbEntity
  8
D-5
  6
Continuous
 62
     7
370
     5
100
AcDbLine
 10
-476.3469940907245
 20
-260.4412264437287
 30
0.0
 11
-457.6129539592844
 21
-243.8863888302365
 31
0.0
  0
LINE
  5
109
330
1F
100
AcDbEntity
  8
D-5
  6
Continuous
 62
     7
370
     5
100
AcDbLine
 10
-313.0453715453277
 20
-127.6782556482263
 30
0.0
 11
-409.5207974717422
 21
-238.5233781144424
 31
0.0
  0
LINE
  5
10A
330
1F
100
AcDbEntity
  8
D-5
  6
Continuous
 62
     7
370
     5
100
AcDbLine
 10
-409.5207974717422
 20
-238.5233781144424
 30
0.0
 11
-395.709448891717
 21
-217.6848622914906
 31
0.0
  0
LINE
  5
10B
330
1F
100
AcDbEntity
  8
D-5
  6
Continuous
 62
     7
370
     5
100
AcDbLine
 10
-409.5207974717422
 20
-238.5233781144424
 30
0.0
 11
-390.7865099004795
 21
-221.9694065403293
 31
0.0
  0
LINE
  5
10C
330
1F
100
AcDbEntity
  8
D-5
  6
Continuous
 62
     7
370
     5
100
AcDbLine
 10
-377.5474896302094
 20
-323.9039735536317
 30
0.0
 11
-256.4604617453909
 21
-184.7817993164062
 31
0.0
  0
LINE
  5
10D
330
1F
100
AcDbEntity
  8
D-5
  6
Continuous
 62
     7
370
     5
100
AcDbLine
 10
-377.5474896302094
 20
-323.9039735536317
 30
0.0
 11
-363.7363884900066
 21
-303.0652102908572
 31
0.0
  0
LINE
  5
10E
330
1F
100
AcDbEntity
  8
D-5
  6
Continuous
 62
     7
370
     5
100
AcDbLine
 10
-377.5474896302094
 20
-323.9039735536317
 30
0.0
 11
-358.8132020589467
 21
-307.3496308197845
 31
0.0
  0
LINE
  5
10F
330
1F
100
AcDbEntity
  8
D-5
  6
Continuous
 62
     7
370
     5
100
AcDbLine
 10
-256.4604617453909
 20
-184.7817993164062
 30
0.0
 11
130.2418335064039
 21
-184.7817993164062
 31
0.0
  0
LINE
  5
110
330
1F
100
AcDbEntity
  8
D-6
  6
Continuous
 62
     6
370
     5
100
AcDbLine
 10
-412.5682663273165
 20
-235.7280504381333
 30
0.0
 11
2.432360520234056
 21
-235.7280504381333
 31
0.0
  0
LINE
  5
111
330
1F
100
AcDbEntity
  8
D-4
  6
Continuous
 62
     7
370
     5
100
AcDbLine
 10
20.93170397990463
 20
-235.7280504381333
 30
0.0
 11
112.1168664983801
 21
-235.7280504381333
 31
0.0
  0
LINE
  5
112
330
1F
100
AcDbEntity
  8
D-5
  6
Continuous
 62
     7
370
     5
100
AcDbLine
 10
-313.0453715453277
 20
-127.6782556482263
 30
0.0
 11
137.9218707213533
 21
-127.6782556482263
 31
0.0
  0
LINE
  5
113
330
1F
100
AcDbEntity
  8
D-9
  6
Continuous
 62
     4
370
     5
100
AcDbLine
 10
-529.6123749500996
 20
-253.2272421347128
 30
0.0
 11
-547.1124326860581
 21
-270.7272998706713
 31
0.0
  0
LINE
  5
114
330
1F
100
AcDbEntity
  8
D-9
  6
Continuous
 62
     4
370
     5
100
AcDbLine
 10
-501.3280237043224
 20
-253.2272421347128
 30
0.0
 11
-518.8279577203698
 21
-270.7272998706713
 31
0.0
  0
LINE
  5
115
330
1F
100
AcDbEntity
  8
D-9
  6
Continuous
 62
     4
370
     5
100
AcDbLine
 10
-494.2566884530555
 20
-253.2272421347128
 30
0.0
 11
-511.7567461890141
 21
-270.7272998706713
 31
0.0
  0
LINE
  5
116
330
1F
100
AcDbEntity
  8
D-9
  6
Continuous
 62
     4
370
     5
100
AcDbLine
 10
-487.1859718013454
 20
-253.2272421347128
 30
0.0
 11
-504.6854109377472
 21
-270.7272998706713
 31
0.0
  0
LINE
  5
117
330
1F
100
AcDbEntity
  8
D-9
  6
Continuous
 62
     4
370
     5
100
AcDbLine
 10
-480.114512830167
 20
-253.2272421347128
 30
0.0
 11
-499.7377279642464
 21
-272.8500861090582
 31
0.0
  0
LINE
  5
118
330
1F
100
AcDbEntity
  8
D-9
  6
Continuous
 62
     4
370
     5
100
AcDbLine
 10
-473.0437961784568
 20
-253.2272421347128
 30
0.0
 11
-495.6971593805261
 21
-275.880605336782
 31
0.0
  0
LINE
  5
119
330
1F
100
AcDbEntity
  8
D-9
  6
Continuous
 62
     4
370
     5
100
AcDbLine
 10
-465.9723372072784
 20
-253.2272421347128
 30
0.0
 11
-491.6565907968055
 21
-278.9108771246832
 31
0.0
  0
LINE
  5
11A
330
1F
100
AcDbEntity
  8
D-9
  6
Continuous
 62
     4
370
     5
100
AcDbLine
 10
-458.9016205555683
 20
-253.2272421347128
 30
0.0
 11
-487.6160222130852
 21
-281.941396352407
 31
0.0
  0
LINE
  5
11B
330
1F
100
AcDbEntity
  8
D-9
  6
Continuous
 62
     4
370
     5
100
AcDbLine
 10
-451.8302853043014
 20
-253.2272421347128
 30
0.0
 11
-483.5748350298081
 21
-284.9720393000422
 31
0.0
  0
LINE
  5
11C
330
1F
100
AcDbEntity
  8
D-9
  6
Continuous
 62
     4
370
     5
100
AcDbLine
 10
-444.7593212127686
 20
-253.2272421347128
 30
0.0
 11
-477.2593047167803
 21
-285.7272256387246
 31
0.0
  0
LINE
  5
11D
330
1F
100
AcDbEntity
  8
D-9
  6
Continuous
 62
     4
370
     5
100
AcDbLine
 10
-437.6881096814128
 20
-253.2272421347128
 30
0.0
 11
-470.1878457456021
 21
-285.7272256387246
 31
0.0
  0
LINE
  5
11E
330
1F
100
AcDbEntity
  8
D-9
  6
Continuous
 62
     4
370
     5
100
AcDbLine
 10
-432.5684560311805
 20
-255.1783051361907
 30
0.0
 11
-463.1171290938917
 21
-285.7272256387246
 31
0.0
  0
LINE
  5
11F
330
1F
100
AcDbEntity
  8
D-9
  6
Continuous
 62
     4
370
     5
100
AcDbLine
 10
-432.5684560311805
 20
-276.3915685705235
 30
0.0
 11
-441.9036182197362
 21
-285.7272256387246
 31
0.0
  0
LINE
  5
120
330
1F
100
AcDbEntity
  8
D-9
  6
Continuous
 62
     4
370
     5
100
AcDbLine
 10
-432.5684560311805
 20
-269.3204807590793
 30
0.0
 11
-448.974829751092
 21
-285.7272256387246
 31
0.0
  0
LINE
  5
121
330
1F
100
AcDbEntity
  8
D-9
  6
Continuous
 62
     4
370
     5
100
AcDbLine
 10
-432.5684560311805
 20
-262.249392947635
 30
0.0
 11
-456.0456701227136
 21
-285.7272256387246
 31
0.0
  0
LINE
  5
122
330
1F
100
AcDbEntity
  8
D-9
  6
Continuous
 62
     4
370
     5
100
AcDbLine
 10
-543.7546742928993
 20
-253.2272421347128
 30
0.0
 11
-552.5684807751628
 21
-262.0408011771536
 31
0.0
  0
LINE
  5
123
330
1F
100
AcDbEntity
  8
D-9
  6
Continuous
 62
     4
370
     5
100
AcDbLine
 10
-536.6837102013665
 20
-253.2272421347128
 30
0.0
 11
-552.5684807751628
 21
-269.1118889885979
 31
0.0
  0
LINE
  5
124
330
1F
100
AcDbEntity
  8
D-9
  6
Continuous
 62
     4
370
     5
100
AcDbLine
 10
-547.5682168393521
 20
-253.2272421347128
 30
0.0
 11
-432.5684560311805
 21
-253.2272421347128
 31
0.0
  0
LINE
  5
125
330
1F
100
AcDbEntity
  8
D-9
  6
Continuous
 62
     4
370
     5
100
AcDbLine
 10
-552.5684807751628
 20
-258.2273823506122
 30
0.0
 11
-552.5684807751628
 21
-270.7272998706713
 31
0.0
  0
LINE
  5
126
330
1F
100
AcDbEntity
  8
D-6
  6
Continuous
 62
     6
370
     5
100
AcDbLine
 10
-562.5685137671392
 20
-290.7272421347128
 30
0.0
 11
-562.5685137671392
 21
-735.7272256387246
 31
0.0
  0
LINE
  5
127
330
1F
100
AcDbEntity
  8
D-1
  6
Continuous
 62
     2
370
     5
100
AcDbLine
 10
-412.5680188874941
 20
-355.7270854228251
 30
0.0
 11
-427.5680683754584
 21
-355.7270854228251
 31
0.0
  0
LINE
  5
128
330
1F
100
AcDbEntity
  8
D-1
  6
Continuous
 62
     2
370
     5
100
AcDbLine
 10
-412.5680188874941
 20
-240.7272008947423
 30
0.0
 11
-427.5680683754584
 21
-240.7272008947423
 31
0.0
  0
LINE
  5
129
330
1F
100
AcDbEntity
  8
D-1
  6
Continuous
 62
     2
370
     5
100
AcDbLine
 10
-407.5680023915058
 20
-333.2271349107896
 30
0.0
 11
-412.5680188874941
 21
-333.2271349107896
 31
0.0
  0
LINE
  5
12A
330
1F
100
AcDbEntity
  8
D-1
  6
Continuous
 62
     2
370
     5
100
AcDbLine
 10
-412.5680188874941
 20
-355.7270854228251
 30
0.0
 11
-412.5680188874941
 21
-333.2271349107896
 31
0.0
  0
LINE
  5
12B
330
1F
100
AcDbEntity
  8
D-1
  6
Continuous
 62
     2
370
     5
100
AcDbLine
 10
-407.5680023915058
 20
-263.2271514067779
 30
0.0
 11
-412.5680188874941
 21
-263.2271514067779
 31
0.0
  0
LINE
  5
12C
330
1F
100
AcDbEntity
  8
D-1
  6
Continuous
 62
     2
370
     5
100
AcDbLine
 10
-412.5680188874941
 20
-263.2271514067779
 30
0.0
 11
-412.5680188874941
 21
-240.7272008947423
 31
0.0
  0
LINE
  5
12D
330
1F
100
AcDbEntity
  8
D-1
  6
Continuous
 62
     2
370
     5
100
AcDbLine
 10
-485.5679628011342
 20
-289.7272140915329
 30
0.0
 11
-504.234575580906
 21
-275.7273163666595
 31
0.0
  0
LINE
  5
12E
330
1F
100
AcDbEntity
  8
D-1
  6
Continuous
 62
     2
370
     5
100
AcDbLine
 10
-432.5680848714467
 20
-285.7271019188133
 30
0.0
 11
-482.5680023915058
 21
-285.7271019188133
 31
0.0
  0
LINE
  5
12F
330
1F
100
AcDbEntity
  8
D-1
  6
Continuous
 62
     2
370
     5
100
AcDbLine
 10
-427.5680683754584
 20
-295.7271349107896
 30
0.0
 11
-427.5680683754584
 21
-355.7270854228251
 31
0.0
  0
LINE
  5
130
330
1F
100
AcDbEntity
  8
D-1
  6
Continuous
 62
     2
370
     5
100
AcDbLine
 10
-427.5680683754584
 20
-285.7271019188133
 30
0.0
 11
-427.5680683754584
 21
-240.7272008947423
 31
0.0
  0
LINE
  5
131
330
1F
100
AcDbEntity
  8
D-1
  6
Continuous
 62
     2
370
     5
100
AcDbLine
 10
-407.5680023915058
 20
-238.7271448083825
 30
0.0
 11
-407.5680023915058
 21
-263.2271514067779
 31
0.0
  0
LINE
  5
132
330
1F
100
AcDbEntity
  8
D-1
  6
Continuous
 62
     2
370
     5
100
AcDbLine
 10
-429.5680007419068
 20
-235.7271843987542
 30
0.0
 11
-410.5679628011342
 21
-235.7271843987542
 31
0.0
  0
LINE
  5
133
330
1F
100
AcDbEntity
  8
D-1
  6
Continuous
 62
     2
370
     5
100
AcDbLine
 10
-432.5680848714467
 20
-238.7271448083825
 30
0.0
 11
-432.5680848714467
 21
-285.7271019188133
 31
0.0
  0
LINE
  5
134
330
1F
100
AcDbEntity
  8
D-1
  6
Continuous
 62
     2
370
     5
100
AcDbLine
 10
-407.5680023915058
 20
-357.7271415091849
 30
0.0
 11
-407.5680023915058
 21
-333.2271349107896
 31
0.0
  0
LINE
  5
135
330
1F
100
AcDbEntity
  8
D-1
  6
Continuous
 62
     2
370
     5
100
AcDbLine
 10
-429.5680007419068
 20
-360.7271019188133
 30
0.0
 11
-410.5679628011342
 21
-360.7271019188133
 31
0.0
  0
LINE
  5
136
330
1F
100
AcDbEntity
  8
D-1
  6
Continuous
 62
     2
370
     5
100
AcDbLine
 10
-432.5680848714467
 20
-357.7271415091849
 30
0.0
 11
-432.5680848714467
 21
-295.7271349107896
 31
0.0
  0
LINE
  5
137
330
1F
100
AcDbEntity
  8
D-1
  6
Continuous
 62
     2
370
     5
100
AcDbLine
 10
-501.2479769217001
 20
-271.7173066010345
 30
0.0
 11
-482.5680023915058
 21
-285.7271019188133
 31
0.0
  0
LINE
  5
138
330
1F
100
AcDbEntity
  8
D-1
  6
Continuous
 62
     2
370
     5
100
AcDbLine
 10
-557.5680023915058
 20
-290.7271184148015
 30
0.0
 11
-432.5680848714467
 21
-290.7271184148015
 31
0.0
  0
LINE
  5
139
330
1F
100
AcDbEntity
  8
D-1
  6
Continuous
 62
     2
370
     5
100
AcDbLine
 10
-557.5680023915058
 20
-290.7271184148015
 30
0.0
 11
-557.5680023915058
 21
-275.7273163666595
 31
0.0
  0
LINE
  5
13A
330
1F
100
AcDbEntity
  8
D-1
  6
Continuous
 62
     2
370
     5
100
AcDbLine
 10
-562.5680188874941
 20
-290.7271184148015
 30
0.0
 11
-562.5680188874941
 21
-275.7273163666595
 31
0.0
  0
LINE
  5
13B
330
1F
100
AcDbEntity
  8
D-1
  6
Continuous
 62
     2
370
     5
100
AcDbLine
 10
-557.5680023915058
 20
-295.7271349107896
 30
0.0
 11
-432.5680848714467
 21
-295.7271349107896
 31
0.0
  0
LINE
  5
13C
330
1F
100
AcDbEntity
  8
D-1
  6
Continuous
 62
     2
370
     5
100
AcDbLine
 10
-544.3982652715732
 20
-271.3971194705447
 30
0.0
 11
-532.568043631476
 21
-278.2272008947423
 31
0.0
  0
LINE
  5
13D
330
1F
100
AcDbEntity
  8
D-1
  6
Continuous
 62
     2
370
     5
100
AcDbLine
 10
-520.737821991379
 20
-271.3971194705447
 30
0.0
 11
-532.568043631476
 21
-278.2272008947423
 31
0.0
  0
LINE
  5
13E
330
1F
100
AcDbEntity
  8
D-1
  6
Continuous
 62
     2
370
     5
100
AcDbLine
 10
-530.0680353834821
 20
-282.5573977908572
 30
0.0
 11
-518.2379374632965
 21
-275.7273163666595
 31
0.0
  0
LINE
  5
13F
330
1F
100
AcDbEntity
  8
D-1
  6
Continuous
 62
     2
370
     5
100
AcDbLine
 10
-535.0680518794704
 20
-282.5573977908572
 30
0.0
 11
-546.8982735195675
 21
-275.7273163666595
 31
0.0
  0
LINE
  5
140
330
1F
100
AcDbEntity
  8
D-1
  6
Continuous
 62
     2
370
     5
100
AcDbLine
 10
-504.2179971127896
 20
-270.7272998706713
 30
0.0
 11
-518.237813743385
 21
-270.7272998706713
 31
0.0
  0
LINE
  5
141
330
1F
100
AcDbEntity
  8
D-1
  6
Continuous
 62
     2
370
     5
100
AcDbLine
 10
-546.8982735195675
 20
-270.7272998706713
 30
0.0
 11
-557.5680023915058
 21
-270.7272998706713
 31
0.0
  0
LINE
  5
142
330
1F
100
AcDbEntity
  8
D-1
  6
Continuous
 62
     2
370
     5
100
AcDbLine
 10
-504.234575580906
 20
-275.7273163666595
 30
0.0
 11
-518.2379374632965
 21
-275.7273163666595
 31
0.0
  0
LINE
  5
143
330
1F
100
AcDbEntity
  8
D-1
  6
Continuous
 62
     2
370
     5
100
AcDbLine
 10
-546.8982735195675
 20
-275.7273163666595
 30
0.0
 11
-557.5680023915058
 21
-275.7273163666595
 31
0.0
  0
LINE
  5
144
330
1F
100
AcDbEntity
  8
D-9
  6
Continuous
 62
     4
370
     5
100
AcDbLine
 10
-508.3989877958555
 20
-253.2272421347128
 30
0.0
 11
-533.0952141736003
 21
-277.9228499129011
 31
0.0
  0
LINE
  5
145
330
1F
100
AcDbEntity
  8
D-9
  6
Continuous
 62
     4
370
     5
100
AcDbLine
 10
-515.470199327211
 20
-253.2272421347128
 30
0.0
 11
-537.5778340004583
 21
-275.3348768079603
 31
0.0
  0
LINE
  5
146
330
1F
100
AcDbEntity
  8
D-9
  6
Continuous
 62
     4
370
     5
100
AcDbLine
 10
-522.5411634187441
 20
-253.2272421347128
 30
0.0
 11
-542.0608249870506
 21
-272.7466562631968
 31
0.0
  0
LINE
  5
147
330
1F
100
AcDbEntity
  8
D-2
  6
Continuous
 62
     3
370
     5
100
AcDbLine
 10
-437.56859624708
 20
-253.2272421347128
 30
0.0
 11
-437.56859624708
 21
-238.2271926467483
 31
0.0
  0
LINE
  5
148
330
1F
100
AcDbEntity
  8
D-4
  6
Continuous
 62
     7
370
     5
100
AcDbLine
 10
-919.2950828655346
 20
-200.2071978594805
 30
0.0
 11
-919.2950828655346
 21
-284.4101034628378
 31
0.0
  0
LINE
  5
149
330
1F
100
AcDbEntity
  8
D-2
  6
Continuous
 62
     3
370
     5
100
AcDbLine
 10
-1110.238084277591
 20
-393.4706899282094
 30
0.0
 11
-1110.238084277591
 21
-169.5282477301521
 31
0.0
  0
LINE
  5
14A
330
1F
100
AcDbEntity
  8
D-2
  6
Continuous
 62
     3
370
     5
100
AcDbLine
 10
-437.56859624708
 20
-253.2272421347128
 30
0.0
 11
-1110.238084277591
 21
-253.2272421347128
 31
0.0
  0
LINE
  5
14B
330
1F
100
AcDbEntity
  8
D-2
  6
Continuous
 62
     3
370
     5
100
AcDbLine
 10
-437.56859624708
 20
-248.2272256387246
 30
0.0
 11
-1110.238084277591
 21
-248.2272256387246
 31
0.0
  0
LINE
  5
14C
330
1F
100
AcDbEntity
  8
D-2
  6
Continuous
 62
     3
370
     5
100
AcDbLine
 10
-437.56859624708
 20
-243.2272091427365
 30
0.0
 11
-1110.238084277591
 21
-243.2272091427365
 31
0.0
  0
LINE
  5
14D
330
1F
100
AcDbEntity
  8
D-2
  6
Continuous
 62
     3
370
     5
100
AcDbLine
 10
-437.56859624708
 20
-238.2271926467483
 30
0.0
 11
-1110.238084277591
 21
-238.2271926467483
 31
0.0
  0
LINE
  5
14E
330
1F
100
AcDbEntity
  8
D-5
  6
Continuous
 62
     7
370
     5
100
AcDbLine
 10
-313.046361304618
 20
-9.481448611697658
 30
0.0
 11
147.3518023619783
 21
-9.481448611697658
 31
0.0
  0
LINE
  5
14F
330
1F
100
AcDbEntity
  8
D-5
  6
Continuous
 62
     7
370
     5
100
AcDbLine
 10
-313.046361304618
 20
-9.481448611697658
 30
0.0
 11
-510.5592611673714
 21
-238.2274400865708
 31
0.0
  0
LINE
  5
150
330
1F
100
AcDbEntity
  8
D-5
  6
Continuous
 62
     7
370
     5
100
AcDbLine
 10
-510.5592611673714
 20
-238.2274400865708
 30
0.0
 11
-496.8306812080175
 21
-217.3344875026393
 31
0.0
  0
LINE
  5
151
330
1F
100
AcDbEntity
  8
D-5
  6
Continuous
 62
     7
370
     5
100
AcDbLine
 10
-510.5592611673714
 20
-238.2274400865708
 30
0.0
 11
-491.8910400287524
 21
-221.5994840054898
 31
0.0
  0
LINE
  5
152
330
1F
100
AcDbEntity
  8
D-5
  6
Continuous
 62
     2
370
     5
100
AcDbLine
 10
562.103504747958
 20
-285.7275967984586
 30
0.0
 11
337.103504747958
 21
-285.7275967984586
 31
0.0
  0
LINE
  5
153
330
1F
100
AcDbEntity
  8
D-5
  6
Continuous
 62
     2
370
     5
100
AcDbLine
 10
562.103504747958
 20
-235.7273081186655
 30
0.0
 11
562.103504747958
 21
-285.7275967984586
 31
0.0
  0
LINE
  5
154
330
1F
100
AcDbEntity
  8
D-5
  6
Continuous
 62
     2
370
     5
100
AcDbLine
 10
337.103504747958
 20
-235.7273081186655
 30
0.0
 11
562.103504747958
 21
-235.7273081186655
 31
0.0
  0
LINE
  5
155
330
1F
100
AcDbEntity
  8
D-5
  6
Continuous
 62
     2
370
     5
100
AcDbLine
 10
337.103504747958
 20
-285.7275967984586
 30
0.0
 11
337.103504747958
 21
-235.7273081186655
 31
0.0
  0
CIRCLE
  5
156
330
1F
100
AcDbEntity
  8
C-A
  6
Continuous
 62
     3
370
     5
100
AcDbCircle
 10
-584.689510190809
 20
728.648863096495
 30
0.0
 40
6.999999606931532
  0
CIRCLE
  5
157
330
1F
100
AcDbEntity
  8
C-A
  6
Continuous
 62
     3
370
     5
100
AcDbCircle
 10
-584.689510190809
 20
698.6490115603885
 30
0.0
 40
6.999999606931532
  0
CIRCLE
  5
158
330
1F
100
AcDbEntity
  8
C-A
  6
Continuous
 62
     3
370
     5
100
AcDbCircle
 10
-584.689510190809
 20
668.6489125844596
 30
0.0
 40
6.999999606931532
  0
CIRCLE
  5
159
330
1F
100
AcDbEntity
  8
C-A
  6
Continuous
 62
     3
370
     5
100
AcDbCircle
 10
-584.689510190809
 20
638.6490610483531
 30
0.0
 40
6.999999606931532
  0
CIRCLE
  5
15A
330
1F
100
AcDbEntity
  8
C-A
  6
Continuous
 62
     3
370
     5
100
AcDbCircle
 10
-504.6894936948209
 20
728.648863096495
 30
0.0
 40
6.999999606931532
  0
CIRCLE
  5
15B
330
1F
100
AcDbEntity
  8
C-A
  6
Continuous
 62
     3
370
     5
100
AcDbCircle
 10
-504.6894936948209
 20
698.6490115603885
 30
0.0
 40
6.999999606931532
  0
CIRCLE
  5
15C
330
1F
100
AcDbEntity
  8
C-A
  6
Continuous
 62
     3
370
     5
100
AcDbCircle
 10
-504.6894936948209
 20
668.6489125844596
 30
0.0
 40
6.999999606931532
  0
CIRCLE
  5
15D
330
1F
100
AcDbEntity
  8
C-A
  6
Continuous
 62
     3
370
     5
100
AcDbCircle
 10
-504.6894936948209
 20
638.6490610483531
 30
0.0
 40
6.999999606931532
  0
CIRCLE
  5
15E
330
1F
100
AcDbEntity
  8
C-A
  6
Continuous
 62
     3
370
     5
100
AcDbCircle
 10
-424.6894771988326
 20
728.648863096495
 30
0.0
 40
6.999999606931532
  0
CIRCLE
  5
15F
330
1F
100
AcDbEntity
  8
C-A
  6
Continuous
 62
     3
370
     5
100
AcDbCircle
 10
-424.6894771988326
 20
698.6490115603885
 30
0.0
 40
6.999999606931532
  0
CIRCLE
  5
160
330
1F
100
AcDbEntity
  8
C-A
  6
Continuous
 62
     3
370
     5
100
AcDbCircle
 10
-424.6894771988326
 20
668.6489125844596
 30
0.0
 40
6.999999606931532
  0
CIRCLE
  5
161
330
1F
100
AcDbEntity
  8
C-A
  6
Continuous
 62
     3
370
     5
100
AcDbCircle
 10
-424.6894771988326
 20
638.6490610483531
 30
0.0
 40
6.999999606931532
  0
CIRCLE
  5
162
330
1F
100
AcDbEntity
  8
C-A
  6
Continuous
 62
     3
370
     5
100
AcDbCircle
 10
-344.6895844227558
 20
728.648863096495
 30
0.0
 40
6.999999606931532
  0
CIRCLE
  5
163
330
1F
100
AcDbEntity
  8
C-A
  6
Continuous
 62
     3
370
     5
100
AcDbCircle
 10
-344.6895844227558
 20
698.6490115603885
 30
0.0
 40
6.999999606931532
  0
CIRCLE
  5
164
330
1F
100
AcDbEntity
  8
C-A
  6
Continuous
 62
     3
370
     5
100
AcDbCircle
 10
-344.6895844227558
 20
668.6489125844596
 30
0.0
 40
6.999999606931532
  0
CIRCLE
  5
165
330
1F
100
AcDbEntity
  8
C-A
  6
Continuous
 62
     3
370
     5
100
AcDbCircle
 10
-344.6895844227558
 20
638.6490610483531
 30
0.0
 40
6.999999606931532
  0
CIRCLE
  5
166
330
1F
100
AcDbEntity
  8
C-A
  6
Continuous
 62
     3
370
     5
100
AcDbCircle
 10
-264.6894442068563
 20
728.648863096495
 30
0.0
 40
6.999999606931532
  0
CIRCLE
  5
167
330
1F
100
AcDbEntity
  8
C-A
  6
Continuous
 62
     3
370
     5
100
AcDbCircle
 10
-264.6894442068563
 20
698.6490115603885
 30
0.0
 40
6.999999606931532
  0
CIRCLE
  5
168
330
1F
100
AcDbEntity
  8
C-A
  6
Continuous
 62
     3
370
     5
100
AcDbCircle
 10
-264.6894442068563
 20
668.6489125844596
 30
0.0
 40
6.999999606931532
  0
CIRCLE
  5
169
330
1F
100
AcDbEntity
  8
C-A
  6
Continuous
 62
     3
370
     5
100
AcDbCircle
 10
-264.6894442068563
 20
638.6490610483531
 30
0.0
 40
6.999999606931532
  0
CIRCLE
  5
16A
330
1F
100
AcDbEntity
  8
C-A
  6
Continuous
 62
     3
370
     5
100
AcDbCircle
 10
-184.6896751506907
 20
728.648863096495
 30
0.0
 40
6.999999606931532
  0
CIRCLE
  5
16B
330
1F
100
AcDbEntity
  8
C-A
  6
Continuous
 62
     3
370
     5
100
AcDbCircle
 10
-184.6896751506907
 20
698.6490115603885
 30
0.0
 40
6.999999606931532
  0
CIRCLE
  5
16C
330
1F
100
AcDbEntity
  8
C-A
  6
Continuous
 62
     3
370
     5
100
AcDbCircle
 10
-184.6896751506907
 20
668.6489125844596
 30
0.0
 40
6.999999606931532
  0
CIRCLE
  5
16D
330
1F
100
AcDbEntity
  8
C-A
  6
Continuous
 62
     3
370
     5
100
AcDbCircle
 10
-184.6896751506907
 20
638.6490610483531
 30
0.0
 40
6.999999606931532
  0
CIRCLE
  5
16E
330
1F
100
AcDbEntity
  8
C-A
  6
Continuous
 62
     3
370
     5
100
AcDbCircle
 10
-84.6894689508386
 20
728.648863096495
 30
0.0
 40
6.999999606931532
  0
CIRCLE
  5
16F
330
1F
100
AcDbEntity
  8
C-A
  6
Continuous
 62
     3
370
     5
100
AcDbCircle
 10
-84.6894689508386
 20
698.6490115603885
 30
0.0
 40
6.999999606931532
  0
CIRCLE
  5
170
330
1F
100
AcDbEntity
  8
C-A
  6
Continuous
 62
     3
370
     5
100
AcDbCircle
 10
-84.6894689508386
 20
668.6489125844596
 30
0.0
 40
6.999999606931532
  0
CIRCLE
  5
171
330
1F
100
AcDbEntity
  8
C-A
  6
Continuous
 62
     3
370
     5
100
AcDbCircle
 10
-84.6894689508386
 20
638.6490610483531
 30
0.0
 40
6.999999606931532
  0
CIRCLE
  5
172
330
1F
100
AcDbEntity
  8
C-A
  6
Continuous
 62
     3
370
     5
100
AcDbCircle
 10
-4.689576174761783
 20
728.648863096495
 30
0.0
 40
6.999999606931532
  0
CIRCLE
  5
173
330
1F
100
AcDbEntity
  8
C-A
  6
Continuous
 62
     3
370
     5
100
AcDbCircle
 10
-4.689576174761783
 20
698.6490115603885
 30
0.0
 40
6.999999606931532
  0
CIRCLE
  5
174
330
1F
100
AcDbEntity
  8
C-A
  6
Continuous
 62
     3
370
     5
100
AcDbCircle
 10
-4.689576174761783
 20
668.6489125844596
 30
0.0
 40
6.999999606931532
  0
CIRCLE
  5
175
330
1F
100
AcDbEntity
  8
C-A
  6
Continuous
 62
     3
370
     5
100
AcDbCircle
 10
-4.689576174761783
 20
638.6490610483531
 30
0.0
 40
6.999999606931532
  0
CIRCLE
  5
176
330
1F
100
AcDbEntity
  8
C-A
  6
Continuous
 62
     3
370
     5
100
AcDbCircle
 10
75.31044032122651
 20
728.648863096495
 30
0.0
 40
6.999999606931532
  0
CIRCLE
  5
177
330
1F
100
AcDbEntity
  8
C-A
  6
Continuous
 62
     3
370
     5
100
AcDbCircle
 10
75.31044032122651
 20
698.6490115603885
 30
0.0
 40
6.999999606931532
  0
CIRCLE
  5
178
330
1F
100
AcDbEntity
  8
C-A
  6
Continuous
 62
     3
370
     5
100
AcDbCircle
 10
75.31044032122651
 20
668.6489125844596
 30
0.0
 40
6.999999606931532
  0
CIRCLE
  5
179
330
1F
100
AcDbEntity
  8
C-A
  6
Continuous
 62
     3
370
     5
100
AcDbCircle
 10
75.31044032122651
 20
638.6490610483531
 30
0.0
 40
6.999999606931532
  0
CIRCLE
  5
17A
330
1F
100
AcDbEntity
  8
C-A
  6
Continuous
 62
     3
370
     5
100
AcDbCircle
 10
155.3104568172148
 20
728.648863096495
 30
0.0
 40
6.999999606931532
  0
CIRCLE
  5
17B
330
1F
100
AcDbEntity
  8
C-A
  6
Continuous
 62
     3
370
     5
100
AcDbCircle
 10
155.3104568172148
 20
698.6490115603885
 30
0.0
 40
6.999999606931532
  0
CIRCLE
  5
17C
330
1F
100
AcDbEntity
  8
C-A
  6
Continuous
 62
     3
370
     5
100
AcDbCircle
 10
155.3104568172148
 20
668.6489125844596
 30
0.0
 40
6.999999606931532
  0
CIRCLE
  5
17D
330
1F
100
AcDbEntity
  8
C-A
  6
Continuous
 62
     3
370
     5
100
AcDbCircle
 10
155.3104568172148
 20
638.6490610483531
 30
0.0
 40
6.999999606931532
  0
CIRCLE
  5
17E
330
1F
100
AcDbEntity
  8
C-A
  6
Continuous
 62
     3
370
     5
100
AcDbCircle
 10
235.3104733132028
 20
728.648863096495
 30
0.0
 40
6.999999606931532
  0
CIRCLE
  5
17F
330
1F
100
AcDbEntity
  8
C-A
  6
Continuous
 62
     3
370
     5
100
AcDbCircle
 10
235.3104733132028
 20
698.6490115603885
 30
0.0
 40
6.999999606931532
  0
CIRCLE
  5
180
330
1F
100
AcDbEntity
  8
C-A
  6
Continuous
 62
     3
370
     5
100
AcDbCircle
 10
235.3104733132028
 20
668.6489125844596
 30
0.0
 40
6.999999606931532
  0
CIRCLE
  5
181
330
1F
100
AcDbEntity
  8
C-A
  6
Continuous
 62
     3
370
     5
100
AcDbCircle
 10
235.3104733132028
 20
638.6490610483531
 30
0.0
 40
6.999999606931532
  0
CIRCLE
  5
182
330
1F
100
AcDbEntity
  8
C-A
  6
Continuous
 62
     3
370
     5
100
AcDbCircle
 10
315.3102423693684
 20
728.648863096495
 30
0.0
 40
6.999999606931532
  0
CIRCLE
  5
183
330
1F
100
AcDbEntity
  8
C-A
  6
Continuous
 62
     3
370
     5
100
AcDbCircle
 10
315.3102423693684
 20
698.6490115603885
 30
0.0
 40
6.999999606931532
  0
CIRCLE
  5
184
330
1F
100
AcDbEntity
  8
C-A
  6
Continuous
 62
     3
370
     5
100
AcDbCircle
 10
315.3102423693684
 20
668.6489125844596
 30
0.0
 40
6.999999606931532
  0
CIRCLE
  5
185
330
1F
100
AcDbEntity
  8
C-A
  6
Continuous
 62
     3
370
     5
100
AcDbCircle
 10
315.3102423693684
 20
638.6490610483531
 30
0.0
 40
6.999999606931532
  0
CIRCLE
  5
186
330
1F
100
AcDbEntity
  8
C-A
  6
Continuous
 62
     3
370
     5
100
AcDbCircle
 10
415.3103248493093
 20
728.648863096495
 30
0.0
 40
6.999999606931532
  0
CIRCLE
  5
187
330
1F
100
AcDbEntity
  8
C-A
  6
Continuous
 62
     3
370
     5
100
AcDbCircle
 10
415.3103248493093
 20
698.6490115603885
 30
0.0
 40
6.999999606931532
  0
CIRCLE
  5
188
330
1F
100
AcDbEntity
  8
C-A
  6
Continuous
 62
     3
370
     5
100
AcDbCircle
 10
415.3103248493093
 20
668.6489125844596
 30
0.0
 40
6.999999606931532
  0
CIRCLE
  5
189
330
1F
100
AcDbEntity
  8
C-A
  6
Continuous
 62
     3
370
     5
100
AcDbCircle
 10
415.3103248493093
 20
638.6490610483531
 30
0.0
 40
6.999999606931532
  0
CIRCLE
  5
18A
330
1F
100
AcDbEntity
  8
C-A
  6
Continuous
 62
     3
370
     5
100
AcDbCircle
 10
495.3103413452976
 20
728.648863096495
 30
0.0
 40
6.999999606931532
  0
CIRCLE
  5
18B
330
1F
100
AcDbEntity
  8
C-A
  6
Continuous
 62
     3
370
     5
100
AcDbCircle
 10
495.3103413452976
 20
698.6490115603885
 30
0.0
 40
6.999999606931532
  0
CIRCLE
  5
18C
330
1F
100
AcDbEntity
  8
C-A
  6
Continuous
 62
     3
370
     5
100
AcDbCircle
 10
495.3103413452976
 20
668.6489125844596
 30
0.0
 40
6.999999606931532
  0
CIRCLE
  5
18D
330
1F
100
AcDbEntity
  8
C-A
  6
Continuous
 62
     3
370
     5
100
AcDbCircle
 10
495.3103413452976
 20
638.6490610483531
 30
0.0
 40
6.999999606931532
  0
CIRCLE
  5
18E
330
1F
100
AcDbEntity
  8
C-A
  6
Continuous
 62
     3
370
     5
100
AcDbCircle
 10
575.3103578412858
 20
728.648863096495
 30
0.0
 40
6.999999606931532
  0
CIRCLE
  5
18F
330
1F
100
AcDbEntity
  8
C-A
  6
Continuous
 62
     3
370
     5
100
AcDbCircle
 10
575.3103578412858
 20
698.6490115603885
 30
0.0
 40
6.999999606931532
  0
CIRCLE
  5
190
330
1F
100
AcDbEntity
  8
C-A
  6
Continuous
 62
     3
370
     5
100
AcDbCircle
 10
575.3103578412858
 20
668.6489125844596
 30
0.0
 40
6.999999606931532
  0
CIRCLE
  5
191
330
1F
100
AcDbEntity
  8
C-A
  6
Continuous
 62
     3
370
     5
100
AcDbCircle
 10
575.3103578412858
 20
638.6490610483531
 30
0.0
 40
6.999999606931532
  0
CIRCLE
  5
192
330
1F
100
AcDbEntity
  8
C-A
  6
Continuous
 62
     3
370
     5
100
AcDbCircle
 10
-844.6896256627263
 20
728.648863096495
 30
0.0
 40
6.999999606931532
  0
CIRCLE
  5
193
330
1F
100
AcDbEntity
  8
C-A
  6
Continuous
 62
     3
370
     5
100
AcDbCircle
 10
-844.6896256627263
 20
698.6490115603885
 30
0.0
 40
6.999999606931532
  0
CIRCLE
  5
194
330
1F
100
AcDbEntity
  8
C-A
  6
Continuous
 62
     3
370
     5
100
AcDbCircle
 10
-844.6896256627263
 20
668.6489125844596
 30
0.0
 40
6.999999606931532
  0
CIRCLE
  5
195
330
1F
100
AcDbEntity
  8
C-A
  6
Continuous
 62
     3
370
     5
100
AcDbCircle
 10
-844.6896256627263
 20
638.6490610483531
 30
0.0
 40
6.999999606931532
  0
CIRCLE
  5
196
330
1F
100
AcDbEntity
  8
C-A
  6
Continuous
 62
     3
370
     5
100
AcDbCircle
 10
-764.6894854468268
 20
728.648863096495
 30
0.0
 40
6.999999606931532
  0
CIRCLE
  5
197
330
1F
100
AcDbEntity
  8
C-A
  6
Continuous
 62
     3
370
     5
100
AcDbCircle
 10
-764.6894854468268
 20
698.6490115603885
 30
0.0
 40
6.999999606931532
  0
CIRCLE
  5
198
330
1F
100
AcDbEntity
  8
C-A
  6
Continuous
 62
     3
370
     5
100
AcDbCircle
 10
-764.6894854468268
 20
668.6489125844596
 30
0.0
 40
6.999999606931532
  0
CIRCLE
  5
199
330
1F
100
AcDbEntity
  8
C-A
  6
Continuous
 62
     3
370
     5
100
AcDbCircle
 10
-764.6894854468268
 20
638.6490610483531
 30
0.0
 40
6.999999606931532
  0
CIRCLE
  5
19A
330
1F
100
AcDbEntity
  8
C-A
  6
Continuous
 62
     3
370
     5
100
AcDbCircle
 10
-684.6895926707498
 20
728.648863096495
 30
0.0
 40
6.999999606931532
  0
CIRCLE
  5
19B
330
1F
100
AcDbEntity
  8
C-A
  6
Continuous
 62
     3
370
     5
100
AcDbCircle
 10
-684.6895926707498
 20
698.6490115603885
 30
0.0
 40
6.999999606931532
  0
CIRCLE
  5
19C
330
1F
100
AcDbEntity
  8
C-A
  6
Continuous
 62
     3
370
     5
100
AcDbCircle
 10
-684.6895926707498
 20
668.6489125844596
 30
0.0
 40
6.999999606931532
  0
CIRCLE
  5
19D
330
1F
100
AcDbEntity
  8
C-A
  6
Continuous
 62
     3
370
     5
100
AcDbCircle
 10
-684.6895926707498
 20
638.6490610483531
 30
0.0
 40
6.999999606931532
  0
CIRCLE
  5
19E
330
1F
100
AcDbEntity
  8
C-0
  6
Continuous
 62
     3
370
     5
100
AcDbCircle
 10
855.8041817433129
 20
566.9405055690459
 30
0.0
 40
34.99999948450037
  0
ARC
  5
19F
330
1F
100
AcDbEntity
  8
D-A
  6
Continuous
 62
     3
370
     5
100
AcDbCircle
 10
-397.568587999086
 20
-349.8693187816723
 30
0.0
 40
10.00000012887491
100
AcDbArc
 50
7.016464233398438
 51
45.0
  0
ARC
  5
1A0
330
1F
100
AcDbEntity
  8
D-A
  6
Continuous
 62
     3
370
     5
100
AcDbCircle
 10
-272.5686704790269
 20
-330.7273741026182
 30
0.0
 40
10.00000012887491
100
AcDbArc
 50
7.016464233398438
 51
90.0
  0
ARC
  5
1A1
330
1F
100
AcDbEntity
  8
D-A
  6
Continuous
 62
     3
370
     5
100
AcDbCircle
 10
-352.2132396697998
 20
-295.7273823506122
 30
0.0
 40
25.00000128874908
100
AcDbArc
 50
225.0
 51
270.0
  0
ARC
  5
1A2
330
1F
100
AcDbEntity
  8
D-A
  6
JWW_DASHED3
 62
     3
370
     5
100
AcDbCircle
 10
-381.0683108664847
 20
-309.7275275153082
 30
0.0
 40
6.50000008376869
100
AcDbArc
 50
270.0
 51
0.0
  0
ARC
  5
1A3
330
1F
100
AcDbEntity
  8
D-A
  6
Continuous
 62
     3
370
     5
100
AcDbCircle
 10
-381.0683108664847
 20
-286.7273774018157
 30
0.0
 40
6.50000008376869
100
AcDbArc
 50
0.0
 51
90.0
  0
ARC
  5
1A4
330
1F
100
AcDbEntity
  8
D-9
  6
Continuous
 62
     4
370
     5
100
AcDbCircle
 10
-547.5682168393521
 20
-258.2273823506122
 30
0.0
 40
5.000000064437454
100
AcDbArc
 50
90.0
 51
180.0
  0
ARC
  5
1A5
330
1F
100
AcDbEntity
  8
D-1
  6
Continuous
 62
     2
370
     5
100
AcDbCircle
 10
-482.5680023915058
 20
-285.7271019188133
 30
0.0
 40
5.000000064437454
100
AcDbArc
 50
233.1302490234375
 51
270.0
  0
ARC
  5
1A6
330
1F
100
AcDbEntity
  8
D-1
  6
Continuous
 62
     2
370
     5
100
AcDbCircle
 10
-557.5680023915058
 20
-275.7273163666595
 30
0.0
 40
5.000000064437454
100
AcDbArc
 50
90.0
 51
180.0
  0
ARC
  5
1A7
330
1F
100
AcDbEntity
  8
D-1
  6
Continuous
 62
     2
370
     5
100
AcDbCircle
 10
-432.5680848714467
 20
-295.7271349107896
 30
0.0
 40
5.000000064437454
100
AcDbArc
 50
0.0
 51
90.0
  0
ARC
  5
1A8
330
1F
100
AcDbEntity
  8
D-1
  6
Continuous
 62
     2
370
     5
100
AcDbCircle
 10
-432.5680848714467
 20
-285.7271019188133
 30
0.0
 40
5.000000064437454
100
AcDbArc
 50
270.0
 51
0.0
  0
ARC
  5
1A9
330
1F
100
AcDbEntity
  8
D-1
  6
Continuous
 62
     2
370
     5
100
AcDbCircle
 10
-410.5679628011342
 20
-238.7271448083825
 30
0.0
 40
3.000000038662472
100
AcDbArc
 50
0.0
 51
90.0
  0
ARC
  5
1AA
330
1F
100
AcDbEntity
  8
D-1
  6
Continuous
 62
     2
370
     5
100
AcDbCircle
 10
-429.5680007419068
 20
-238.7271448083825
 30
0.0
 40
3.000000038662472
100
AcDbArc
 50
90.0
 51
180.0
  0
ARC
  5
1AB
330
1F
100
AcDbEntity
  8
D-1
  6
Continuous
 62
     2
370
     5
100
AcDbCircle
 10
-410.5679628011342
 20
-357.7271415091849
 30
0.0
 40
3.000000038662472
100
AcDbArc
 50
270.0
 51
0.0
  0
ARC
  5
1AC
330
1F
100
AcDbEntity
  8
D-1
  6
Continuous
 62
     2
370
     5
100
AcDbCircle
 10
-429.5680007419068
 20
-357.7271415091849
 30
0.0
 40
3.000000038662472
100
AcDbArc
 50
180.0
 51
270.0
  0
ARC
  5
1AD
330
1F
100
AcDbEntity
  8
D-1
  6
Continuous
 62
     2
370
     5
100
AcDbCircle
 10
-504.2183682725235
 20
-275.6772098025759
 30
0.0
 40
4.950000305433531
100
AcDbArc
 50
53.12966918945312
 51
90.0
  0
ARC
  5
1AE
330
1F
100
AcDbEntity
  8
D-1
  6
Continuous
 62
     2
370
     5
100
AcDbCircle
 10
-557.5680023915058
 20
-290.7271184148015
 30
0.0
 40
5.000000064437454
100
AcDbArc
 50
180.0
 51
270.0
  0
ARC
  5
1AF
330
1F
100
AcDbEntity
  8
D-1
  6
Continuous
 62
     2
370
     5
100
AcDbCircle
 10
-546.8982735195675
 20
-275.7273163666595
 30
0.0
 40
5.000000064437454
100
AcDbArc
 50
59.99996948242189
 51
90.00000000000001
  0
ARC
  5
1B0
330
1F
100
AcDbEntity
  8
D-1
  6
Continuous
 62
     2
370
     5
100
AcDbCircle
 10
-518.237813743385
 20
-275.7273163666595
 30
0.0
 40
5.000000064437454
100
AcDbArc
 50
90.0
 51
120.0000305175781
  0
ARC
  5
1B1
330
1F
100
AcDbEntity
  8
D-1
  6
Continuous
 62
     2
370
     5
100
AcDbCircle
 10
-532.568043631476
 20
-278.2272008947423
 30
0.0
 40
5.000000064437454
100
AcDbArc
 50
239.9999694824219
 51
300.0000305175781
  0
TEXT
  5
1B2
330
1F
100
AcDbEntity
  8
C-4
  6
Continuous
 62
     2
370
     5
100
AcDbText
 10
-665.889638694557
 20
894.2886486486487
 30
0.0
 40
30.48
  1
1
 41
0.9999999999999998
  7
ＭＳ ゴシック
100
AcDbText
  0
TEXT
  5
1B3
330
1F
100
AcDbEntity
  8
C-4
  6
Continuous
 62
     2
370
     5
100
AcDbText
 10
-417.1895926707499
 20
894.2886486486487
 30
0.0
 40
30.48
  1
499
 41
1.083333333333333
  7
ＭＳ ゴシック
100
AcDbText
  0
TEXT
  5
1B4
330
1F
100
AcDbEntity
  8
C-4
  6
Continuous
 62
     2
370
     5
100
AcDbText
 10
-165.889844894409
 20
894.2886486486487
 30
0.0
 40
30.48
  1
1
 41
0.9999999999999998
  7
ＭＳ ゴシック
100
AcDbText
  0
TEXT
  5
1B5
330
1F
100
AcDbEntity
  8
C-4
  6
Continuous
 62
     2
370
     5
100
AcDbText
 10
82.81057228913184
 20
894.2886486486487
 30
0.0
 40
30.48
  1
499
 41
1.083333333333333
  7
ＭＳ ゴシック
100
AcDbText
  0
TEXT
  5
1B6
330
1F
100
AcDbEntity
  8
C-4
  6
Continuous
 62
     2
370
     5
100
AcDbText
 10
334.1105056453398
 20
894.2886486486487
 30
0.0
 40
30.48
  1
1
 41
0.9999999999999998
  7
ＭＳ ゴシック
100
AcDbText
  0
TEXT
  5
1B7
330
1F
100
AcDbEntity
  8
C-4
  6
Continuous
 62
     2
370
     5
100
AcDbText
 10
-416.6891456294702
 20
974.2884177048144
 30
0.0
 40
30.48
  1
500
 41
1.083333333333333
  7
ＭＳ ゴシック
100
AcDbText
  0
TEXT
  5
1B8
330
1F
100
AcDbEntity
  8
C-4
  6
Continuous
 62
     2
370
     5
100
AcDbText
 10
83.31064817067755
 20
974.2884177048144
 30
0.0
 40
30.48
  1
500
 41
1.083333333333333
  7
ＭＳ ゴシック
100
AcDbText
  0
TEXT
  5
1B9
330
1F
100
AcDbEntity
  8
C-5
  6
Continuous
 62
     2
370
     5
100
AcDbText
 10
-402.1892627509864
 20
428.7890181587838
 30
0.0
 40
30.48
  1
平面詳細図　Ｓ＝１：１０
 41
1.114583333333333
  7
ＭＳ ゴシック
100
AcDbText
  0
TEXT
  5
1BA
330
1F
100
AcDbEntity
  8
C-4
  6
Continuous
 62
     2
370
     5
100
AcDbText
 10
-825.9394936948208
 20
531.9106777211783
 30
0.0
 40
30.48
  1
80
 41
1.0625
  7
ＭＳ ゴシック
100
AcDbText
  0
TEXT
  5
1BB
330
1F
100
AcDbEntity
  8
C-4
  6
Continuous
 62
     2
370
     5
100
AcDbText
 10
-947.9942464478584
 20
632.3989865698741
 30
0.0
 40
30.48
  1
30
 50
90.00000250447816
 41
1.062500000000001
  7
ＭＳ ゴシック
100
AcDbText
  0
TEXT
  5
1BC
330
1F
100
AcDbEntity
  8
C-0
  6
Continuous
 62
     2
370
     5
100
AcDbText
 10
938.0561068251327
 20
651.3084339368667
 30
0.0
 40
30.48
  1
φ14
 41
1.09375
  7
ＭＳ ゴシック
100
AcDbText
  0
TEXT
  5
1BD
330
1F
100
AcDbEntity
  8
C-5
  6
Continuous
 62
     2
370
     5
100
AcDbText
 10
618.3941508628229
 20
428.7890181587838
 30
0.0
 40
30.48
  1
排水穴詳細　Ｓ＝１：２
 41
1.113636363636364
  7
ＭＳ ゴシック
100
AcDbText
  0
TEXT
  5
1BE
330
1F
100
AcDbEntity
  8
D-4
  6
Continuous
 62
     2
370
     5
100
AcDbText
 10
-470.5140002998145
 20
4.583629909206266
 30
0.0
 40
30.48
  1
1
 41
0.9999999999999998
  7
ＭＳ ゴシック
100
AcDbText
  0
TEXT
  5
1BF
330
1F
100
AcDbEntity
  8
D-4
  6
Continuous
 62
     2
370
     5
100
AcDbText
 10
-521.3183075672871
 20
-104.1676567778716
 30
0.0
 40
30.48
  1
25
 41
1.0625
  7
ＭＳ ゴシック
100
AcDbText
  0
TEXT
  5
1C0
330
1F
100
AcDbEntity
  8
D-5
  6
Continuous
 62
     7
370
     5
100
AcDbText
 10
-312.2124643583554
 20
-65.06433461782082
 30
0.0
 40
22.86
  1
塩ビクッション
 41
1.142857142857143
  7
ＭＳ ゴシック
100
AcDbText
  0
TEXT
  5
1C1
330
1F
100
AcDbEntity
  8
D-4
  6
Continuous
 62
     2
370
     5
100
AcDbText
 10
-552.9647226591367
 20
-630.7063613149281
 30
0.0
 40
30.48
  1
25～30
 41
1.104166666666667
  7
ＭＳ ゴシック
100
AcDbText
  0
TEXT
  5
1C2
330
1F
100
AcDbEntity
  8
D-4
  6
Continuous
 62
     2
370
     5
100
AcDbText
 10
-430.4369764070252
 20
-785.170546875
 30
0.0
 40
30.48
  1
75～80
 41
1.104166666666667
  7
ＭＳ ゴシック
100
AcDbText
  0
TEXT
  5
1C3
330
1F
100
AcDbEntity
  8
D-4
  6
Continuous
 62
     2
370
     5
100
AcDbText
 10
98.47664504882069
 20
-431.2404903093488
 30
0.0
 40
30.48
  1
40～50
 50
90.00000250447816
 41
1.104166666666666
  7
ＭＳ ゴシック
100
AcDbText
  0
TEXT
  5
1C4
330
1F
100
AcDbEntity
  8
D-4
  6
Continuous
 62
     2
370
     5
100
AcDbText
 10
-378.9301498980645
 20
-415.6189243303011
 30
0.0
 40
30.48
  1
29
 50
0.0010007471525833
 41
1.0625
  7
ＭＳ ゴシック
100
AcDbText
  0
TEXT
  5
1C5
330
1F
100
AcDbEntity
  8
D-4
  6
Continuous
 62
     2
370
     5
100
AcDbText
 10
-185.1585530884832
 20
-366.9773001172036
 30
0.0
 40
30.48
  1
10
 50
90.00000250447816
 41
1.062499999999999
  7
ＭＳ ゴシック
100
AcDbText
  0
TEXT
  5
1C6
330
1F
100
AcDbEntity
  8
D-4
  6
Continuous
 62
     2
370
     5
100
AcDbText
 10
-185.1585530884832
 20
-299.4770774213633
 30
0.0
 40
30.48
  1
17
 50
90.00000250447816
 41
1.0625
  7
ＭＳ ゴシック
100
AcDbText
  0
TEXT
  5
1C7
330
1F
100
AcDbEntity
  8
D-4
  6
Continuous
 62
     2
370
     5
100
AcDbText
 10
-718.6912679322332
 20
-319.4771434053159
 30
0.0
 40
30.48
  1
25
 50
90.00000250447816
 41
1.0625
  7
ＭＳ ゴシック
100
AcDbText
  0
TEXT
  5
1C8
330
1F
100
AcDbEntity
  8
D-4
  6
Continuous
 62
     2
370
     5
100
AcDbText
 10
-396.4567460240544
 20
4.583629909206266
 30
0.0
 40
30.48
  1
5
 41
0.9999999999999998
  7
ＭＳ ゴシック
100
AcDbText
  0
TEXT
  5
1C9
330
1F
100
AcDbEntity
  8
D-5
  6
Continuous
 62
     2
370
     5
100
AcDbText
 10
-862.0631123813608
 20
-913.5297074271577
 30
0.0
 40
30.48
  1
断面詳細図　Ｓ＝１：２
 50
359.9999855334116
 41
1.113636363636364
  7
ＭＳ ゴシック
100
AcDbText
  0
TEXT
  5
1CA
330
1F
100
AcDbEntity
  8
D-5
  6
Continuous
 62
     7
370
     5
100
AcDbText
 10
-255.6281896539635
 20
-177.7431098896747
 30
0.0
 40
22.86
  1
溶接用アンカ－＠５００
 41
1.151515151515152
  7
ＭＳ ゴシック
100
AcDbText
  0
TEXT
  5
1CB
330
1F
100
AcDbEntity
  8
D-5
  6
Continuous
 62
     7
370
     5
100
AcDbText
 10
-256.0184022542591
 20
-214.3116226773649
 30
0.0
 40
22.86
  1
ｔ＝２．３（ＳＰＨＣ）
 41
1.151515151515152
  7
ＭＳ ゴシック
100
AcDbText
  0
TEXT
  5
1CC
330
1F
100
AcDbEntity
  8
D-5
  6
Continuous
 62
     2
370
     5
100
AcDbText
 10
498.9053862803695
 20
-742.7704960673564
 30
0.0
 40
30.48
  1
材質：冷間圧延ステンレス鋼板（ＳＵＳ３０４－２Ｂ）
 41
1.12
  7
ＭＳ ゴシック
100
AcDbText
  0
TEXT
  5
1CD
330
1F
100
AcDbEntity
  8
D-5
  6
Continuous
 62
     2
370
     5
100
AcDbText
 10
498.9054110243515
 20
-807.7709579550252
 30
0.0
 40
30.48
  1
定尺：３０００
 41
1.107142857142857
  7
ＭＳ ゴシック
100
AcDbText
  0
TEXT
  5
1CE
330
1F
100
AcDbEntity
  8
D-5
  6
Continuous
 62
     7
370
     5
100
AcDbText
 10
-313.4058295069512
 20
-118.6897404191299
 30
0.0
 40
22.86
  1
ステンレス製受枠ＳＦ０３Ｂ
 41
1.153846153846154
  7
ＭＳ ゴシック
100
AcDbText
  0
TEXT
  5
1CF
330
1F
100
AcDbEntity
  8
D-5
  6
Continuous
 62
     2
370
     5
100
AcDbText
 10
439.1937526496682
 20
-677.7707764991553
 30
0.0
 40
30.48
  1
ステンレス製受枠　ＳＦ０３Ｂ
 41
1.116071428571428
  7
ＭＳ ゴシック
100
AcDbText
  0
TEXT
  5
1D0
330
1F
100
AcDbEntity
  8
D-4
  6
Continuous
 62
     2
370
     5
100
AcDbText
 10
-929.9350989244087
 20
-219.6052718694735
 30
0.0
 40
30.48
  1
3
 50
90.00000250447816
 41
0.9999999999999989
  7
ＭＳ ゴシック
100
AcDbText
  0
TEXT
  5
1D1
330
1F
100
AcDbEntity
  8
D-5
  6
Continuous
 62
     7
370
     5
100
AcDbText
 10
-309.1043809942296
 20
-0.2576181112752529
 30
0.0
 40
22.86
  1
ＳＰ－３（ｔ＝３）
 41
1.148148148148148
  7
ＭＳ ゴシック
100
AcDbText
  0
TEXT
  5
1D2
330
1F
100
AcDbEntity
  8
D-5
  6
Continuous
 62
     7
370
     5
100
AcDbText
 10
-309.1043974902178
 20
32.28826547983543
 30
0.0
 40
22.86
  1
ステンレス縞鋼板製排水用蓋
 41
1.153846153846154
  7
ＭＳ ゴシック
100
AcDbText
  0
TEXT
  5
1D3
330
1F
100
AcDbEntity
  8
D-5
  6
Continuous
 62
     2
370
     5
100
AcDbText
 10
384.6032573081354
 20
-275.0872091427365
 30
0.0
 40
30.48
  1
仕　様
 41
1.083333333333333
  7
ＭＳ ゴシック
100
AcDbText
  0
TEXT
  5
1D4
330
1F
100
AcDbEntity
  8
D-5
  6
Continuous
 62
     2
370
     5
100
AcDbText
 10
498.9056089762096
 20
-403.0079063291807
 30
0.0
 40
30.48
  1
材質：縞鋼板　ｔ＝３（ＳＵＳ３０４）
 41
1.118055555555555
  7
ＭＳ ゴシック
100
AcDbText
  0
TEXT
  5
1D5
330
1F
100
AcDbEntity
  8
D-5
  6
Continuous
 62
     2
370
     5
100
AcDbText
 10
498.9057092687083
 20
-533.0079640651545
 30
0.0
 40
30.48
  1
定尺：５００
 50
359.9999866252353
 41
1.104166666666667
  7
ＭＳ ゴシック
100
AcDbText
  0
TEXT
  5
1D6
330
1F
100
AcDbEntity
  8
D-5
  6
Continuous
 62
     2
370
     5
100
AcDbText
 10
498.9056337201919
 20
-468.00793519716
 30
0.0
 40
30.48
  1
処理：酸洗
 41
1.1
  7
ＭＳ ゴシック
100
AcDbText
  0
TEXT
  5
1D7
330
1F
100
AcDbEntity
  8
D-5
  6
Continuous
 62
     2
370
     5
100
AcDbText
 10
439.1937773936505
 20
-338.0078156012457
 30
0.0
 40
30.48
  1
ステンレス縞鋼板製排水用蓋　ＳＰ－３　２００×５００
 41
1.120192307692307
  7
ＭＳ ゴシック
100
AcDbText
  0
TEXT
  5
1D8
330
1F
100
AcDbEntity
  8
D-4
  6
Continuous
 62
     2
370
     5
100
AcDbText
 10
-1135.274402257558
 20
116.4110884712839
 30
0.0
 40
30.48
  1
212
 41
1.083333333333333
  7
ＭＳ ゴシック
100
AcDbText
  0
TEXT
  5
1D9
330
1F
100
AcDbEntity
  8
D-4
  6
Continuous
 62
     2
370
     5
100
AcDbText
 10
-1133.004760484438
 20
5.198517868454431
 30
0.0
 40
30.48
  1
200
 41
1.083333333333333
  7
ＭＳ ゴシック
100
AcDbText
  0
TEXT
  5
1DA
330
1F
100
AcDbEntity
  8
D-4
  6
Continuous
 62
     2
370
     5
100
AcDbText
 10
-1135.274402257558
 20
-103.7442872413427
 30
0.0
 40
30.48
  1
150
 41
1.083333333333333
  7
ＭＳ ゴシック
100
AcDbText
  0
LWPOLYLINE
  5
1DB
330
1F
100
AcDbEntity
  8
C-4
  6
Continuous
 62
     7
370
     5
100
AcDbPolyline
 90
        4
 70
     1
 43
1.0
 10
-634.6893798725024
 20
883.6488795924834
 42
0.4142135623731
 10
-635.1893798725024
 20
884.1488795924834
 42
0.4142135623731
 10
-635.6893798725024
 20
883.6488795924834
 42
0.4142135623731
 10
-635.1893798725024
 20
883.1488795924834
 42
0.4142135623731
  0
LWPOLYLINE
  5
1DC
330
1F
100
AcDbEntity
  8
C-4
  6
Continuous
 62
     7
370
     5
100
AcDbPolyline
 90
        4
 70
     1
 43
1.0
 10
-633.6895992691451
 20
883.6488795924834
 42
0.4142135623731
 10
-634.1895992691451
 20
884.1488795924834
 42
0.4142135623731
 10
-634.6895992691451
 20
883.6488795924834
 42
0.4142135623731
 10
-634.1895992691451
 20
883.1488795924834
 42
0.4142135623731
  0
LWPOLYLINE
  5
1DD
330
1F
100
AcDbEntity
  8
C-4
  6
Continuous
 62
     7
370
     5
100
AcDbPolyline
 90
        4
 70
     1
 43
1.0
 10
-134.6895860723545
 20
883.6488795924834
 42
0.4142135623731
 10
-135.1895860723545
 20
884.1488795924834
 42
0.4142135623731
 10
-135.6895860723545
 20
883.6488795924834
 42
0.4142135623731
 10
-135.1895860723545
 20
883.1488795924834
 42
0.4142135623731
  0
LWPOLYLINE
  5
1DE
330
1F
100
AcDbEntity
  8
C-4
  6
Continuous
 62
     7
370
     5
100
AcDbPolyline
 90
        4
 70
     1
 43
1.0
 10
-133.6891868694407
 20
883.6488795924834
 42
0.4142135623731
 10
-134.1891868694407
 20
884.1488795924834
 42
0.4142135623731
 10
-134.6891868694407
 20
883.6488795924834
 42
0.4142135623731
 10
-134.1891868694407
 20
883.1488795924834
 42
0.4142135623731
  0
LWPOLYLINE
  5
1DF
330
1F
100
AcDbEntity
  8
C-4
  6
Continuous
 62
     7
370
     5
100
AcDbPolyline
 90
        4
 70
     1
 43
1.0
 10
365.3108263273499
 20
883.6488795924834
 42
0.4142135623731
 10
364.81082632735
 20
884.1488795924834
 42
0.4142135623731
 10
364.31082632735
 20
883.6488795924834
 42
0.4142135623731
 10
364.81082632735
 20
883.1488795924834
 42
0.4142135623731
  0
LWPOLYLINE
  5
1E0
330
1F
100
AcDbEntity
  8
C-4
  6
Continuous
 62
     7
370
     5
100
AcDbPolyline
 90
        4
 70
     1
 43
1.0
 10
366.3104832107957
 20
883.6488795924834
 42
0.4142135623731
 10
365.8104832107958
 20
884.1488795924834
 42
0.4142135623731
 10
365.3104832107958
 20
883.6488795924834
 42
0.4142135623731
 10
365.8104832107958
 20
883.1488795924834
 42
0.4142135623731
  0
LWPOLYLINE
  5
1E1
330
1F
100
AcDbEntity
  8
C-4
  6
Continuous
 62
     7
370
     5
100
AcDbPolyline
 90
        4
 70
     1
 43
1.0
 10
-633.6895992691451
 20
963.6486486486488
 42
0.4142135623731
 10
-634.1895992691451
 20
964.1486486486486
 42
0.4142135623731
 10
-634.6895992691451
 20
963.6486486486488
 42
0.4142135623731
 10
-634.1895992691451
 20
963.1486486486488
 42
0.4142135623731
  0
LWPOLYLINE
  5
1E2
330
1F
100
AcDbEntity
  8
C-4
  6
Continuous
 62
     7
370
     5
100
AcDbPolyline
 90
        4
 70
     1
 43
1.0
 10
-133.6891868694407
 20
963.6486486486488
 42
0.4142135623731
 10
-134.1891868694407
 20
964.1486486486486
 42
0.4142135623731
 10
-134.6891868694407
 20
963.6486486486488
 42
0.4142135623731
 10
-134.1891868694407
 20
963.1486486486488
 42
0.4142135623731
  0
LWPOLYLINE
  5
1E3
330
1F
100
AcDbEntity
  8
C-4
  6
Continuous
 62
     7
370
     5
100
AcDbPolyline
 90
        4
 70
     1
 43
1.0
 10
366.3104832107957
 20
963.6486486486488
 42
0.4142135623731
 10
365.8104832107958
 20
964.1486486486486
 42
0.4142135623731
 10
365.3104832107958
 20
963.6486486486488
 42
0.4142135623731
 10
365.8104832107958
 20
963.1486486486488
 42
0.4142135623731
  0
LWPOLYLINE
  5
1E4
330
1F
100
AcDbEntity
  8
C-4
  6
Continuous
 62
     7
370
     5
100
AcDbPolyline
 90
        4
 70
     1
 43
1.0
 10
-844.1896256627263
 20
521.2709086650127
 42
0.4142135623731
 10
-844.6896256627263
 20
521.7709086650127
 42
0.4142135623731
 10
-845.1896256627263
 20
521.2709086650127
 42
0.4142135623731
 10
-844.6896256627263
 20
520.7709086650128
 42
0.4142135623731
  0
LWPOLYLINE
  5
1E5
330
1F
100
AcDbEntity
  8
C-4
  6
Continuous
 62
     7
370
     5
100
AcDbPolyline
 90
        4
 70
     1
 43
1.0
 10
-764.1894854468268
 20
521.2709086650127
 42
0.4142135623731
 10
-764.6894854468268
 20
521.7709086650127
 42
0.4142135623731
 10
-765.1894854468267
 20
521.2709086650127
 42
0.4142135623731
 10
-764.6894854468268
 20
520.7709086650128
 42
0.4142135623731
  0
LWPOLYLINE
  5
1E6
330
1F
100
AcDbEntity
  8
C-4
  6
Continuous
 62
     7
370
     5
100
AcDbPolyline
 90
        4
 70
     1
 43
1.0
 10
-936.8542308807372
 20
638.6490610483531
 42
0.4142135623731
 10
-937.3542308807372
 20
639.1490610483531
 42
0.4142135623731
 10
-937.8542308807371
 20
638.6490610483531
 42
0.4142135623731
 10
-937.3542308807372
 20
638.1490610483531
 42
0.4142135623731
  0
LWPOLYLINE
  5
1E7
330
1F
100
AcDbEntity
  8
C-4
  6
Continuous
 62
     7
370
     5
100
AcDbPolyline
 90
        4
 70
     1
 43
1.0
 10
-936.8542308807372
 20
668.6489125844596
 42
0.4142135623731
 10
-937.3542308807372
 20
669.1489125844596
 42
0.4142135623731
 10
-937.8542308807371
 20
668.6489125844596
 42
0.4142135623731
 10
-937.3542308807372
 20
668.1489125844597
 42
0.4142135623731
  0
LWPOLYLINE
  5
1E8
330
1F
100
AcDbEntity
  8
D-4
  6
Continuous
 62
     7
370
     5
100
AcDbPolyline
 90
        4
 70
     1
 43
1.0
 10
-407.0691158707076
 20
104.6400245460305
 42
0.4142135623731
 10
-407.5691158707076
 20
105.1400245460305
 42
0.4142135623731
 10
-408.0691158707076
 20
104.6400245460305
 42
0.4142135623731
 10
-407.5691158707076
 20
104.1400245460305
 42
0.4142135623731
  0
LWPOLYLINE
  5
1E9
330
1F
100
AcDbEntity
  8
D-4
  6
Continuous
 62
     7
370
     5
100
AcDbPolyline
 90
        4
 70
     1
 43
1.0
 10
-437.0682250873461
 20
-6.055644267314051
 42
0.4142135623731
 10
-437.5682250873461
 20
-5.555644267314051
 42
0.4142135623731
 10
-438.0682250873461
 20
-6.055644267314051
 42
0.4142135623731
 10
-437.5682250873461
 20
-6.555644267314051
 42
0.4142135623731
  0
LWPOLYLINE
  5
1EA
330
1F
100
AcDbEntity
  8
D-4
  6
Continuous
 62
     7
370
     5
100
AcDbPolyline
 90
        4
 70
     1
 43
1.0
 10
-432.0679611515352
 20
-6.055644267314051
 42
0.4142135623731
 10
-432.5679611515352
 20
-5.555644267314051
 42
0.4142135623731
 10
-433.0679611515352
 20
-6.055644267314051
 42
0.4142135623731
 10
-432.5679611515352
 20
-6.555644267314051
 42
0.4142135623731
  0
LWPOLYLINE
  5
1EB
330
1F
100
AcDbEntity
  8
D-4
  6
Continuous
 62
     7
370
     5
100
AcDbPolyline
 90
        4
 70
     1
 43
1.0
 10
-407.0691158707076
 20
-6.055644267314051
 42
0.4142135623731
 10
-407.5691158707076
 20
-5.555644267314051
 42
0.4142135623731
 10
-408.0691158707076
 20
-6.055644267314051
 42
0.4142135623731
 10
-407.5691158707076
 20
-6.555644267314051
 42
0.4142135623731
  0
LWPOLYLINE
  5
1EC
330
1F
100
AcDbEntity
  8
D-4
  6
Continuous
 62
     7
370
     5
100
AcDbPolyline
 90
        4
 70
     1
 43
1.0
 10
-562.0690086467845
 20
-114.8079207136823
 42
0.4142135623731
 10
-562.5690086467844
 20
-114.3079207136823
 42
0.4142135623731
 10
-563.0690086467844
 20
-114.8079207136823
 42
0.4142135623731
 10
-562.5690086467844
 20
-115.3079207136823
 42
0.4142135623731
  0
LWPOLYLINE
  5
1ED
330
1F
100
AcDbEntity
  8
D-4
  6
Continuous
 62
     7
370
     5
100
AcDbPolyline
 90
        4
 70
     1
 43
1.0
 10
-437.0682250873461
 20
-114.8079207136823
 42
0.4142135623731
 10
-437.5682250873461
 20
-114.3079207136823
 42
0.4142135623731
 10
-438.0682250873461
 20
-114.8079207136823
 42
0.4142135623731
 10
-437.5682250873461
 20
-115.3079207136823
 42
0.4142135623731
  0
LWPOLYLINE
  5
1EE
330
1F
100
AcDbEntity
  8
D-4
  6
Continuous
 62
     7
370
     5
100
AcDbPolyline
 90
        4
 70
     1
 43
1.0
 10
-707.551499804935
 20
-235.7273081186655
 42
0.4142135623731
 10
-708.051499804935
 20
-235.2273081186655
 42
0.4142135623731
 10
-708.5514998049349
 20
-235.7273081186655
 42
0.4142135623731
 10
-708.051499804935
 20
-236.2273081186655
 42
0.4142135623731
  0
LWPOLYLINE
  5
1EF
330
1F
100
AcDbEntity
  8
D-4
  6
Continuous
 62
     7
370
     5
100
AcDbPolyline
 90
        4
 70
     1
 43
1.0
 10
-707.551499804935
 20
-360.7275967984586
 42
0.4142135623731
 10
-708.051499804935
 20
-360.2275967984586
 42
0.4142135623731
 10
-708.5514998049349
 20
-360.7275967984586
 42
0.4142135623731
 10
-708.051499804935
 20
-361.2275967984585
 42
0.4142135623731
  0
LWPOLYLINE
  5
1F0
330
1F
100
AcDbEntity
  8
D-4
  6
Continuous
 62
     7
370
     5
100
AcDbPolyline
 90
        4
 70
     1
 43
1.0
 10
109.6164112091067
 20
-235.7273081186655
 42
0.4142135623731
 10
109.1164112091067
 20
-235.2273081186655
 42
0.4142135623731
 10
108.6164112091067
 20
-235.7273081186655
 42
0.4142135623731
 10
109.1164112091067
 20
-236.2273081186655
 42
0.4142135623731
  0
LWPOLYLINE
  5
1F1
330
1F
100
AcDbEntity
  8
D-4
  6
Continuous
 62
     7
370
     5
100
AcDbPolyline
 90
        4
 70
     1
 43
1.0
 10
109.6164112091067
 20
-485.7275143185177
 42
0.4142135623731
 10
109.1164112091067
 20
-485.2275143185177
 42
0.4142135623731
 10
108.6164112091067
 20
-485.7275143185177
 42
0.4142135623731
 10
109.1164112091067
 20
-486.2275143185177
 42
0.4142135623731
  0
LWPOLYLINE
  5
1F2
330
1F
100
AcDbEntity
  8
D-4
  6
Continuous
 62
     7
370
     5
100
AcDbPolyline
 90
        4
 70
     1
 43
1.0
 10
-174.0184138014508
 20
-235.7273081186655
 42
0.4142135623731
 10
-174.5184138014508
 20
-235.2273081186655
 42
0.4142135623731
 10
-175.0184138014508
 20
-235.7273081186655
 42
0.4142135623731
 10
-174.5184138014508
 20
-236.2273081186655
 42
0.4142135623731
  0
LWPOLYLINE
  5
1F3
330
1F
100
AcDbEntity
  8
D-4
  6
Continuous
 62
     7
370
     5
100
AcDbPolyline
 90
        4
 70
     1
 43
1.0
 10
-174.0184138014508
 20
-320.7272173907305
 42
0.4142135623731
 10
-174.5184138014508
 20
-320.2272173907305
 42
0.4142135623731
 10
-175.0184138014508
 20
-320.7272173907305
 42
0.4142135623731
 10
-174.5184138014508
 20
-321.2272173907304
 42
0.4142135623731
  0
LWPOLYLINE
  5
1F4
330
1F
100
AcDbEntity
  8
D-4
  6
Continuous
 62
     7
370
     5
100
AcDbPolyline
 90
        4
 70
     1
 43
1.0
 10
-174.0184138014508
 20
-370.7277535103462
 42
0.4142135623731
 10
-174.5184138014508
 20
-370.2277535103462
 42
0.4142135623731
 10
-175.0184138014508
 20
-370.7277535103462
 42
0.4142135623731
 10
-174.5184138014508
 20
-371.2277535103462
 42
0.4142135623731
  0
LWPOLYLINE
  5
1F5
330
1F
100
AcDbEntity
  8
D-4
  6
Continuous
 62
     7
370
     5
100
AcDbPolyline
 90
        4
 70
     1
 43
1.0
 10
-407.0684972711512
 20
-426.2581985061233
 42
0.4142135623731
 10
-407.5684972711511
 20
-425.7581985061233
 42
0.4142135623731
 10
-408.068497271151
 20
-426.2581985061233
 42
0.4142135623731
 10
-407.5684972711511
 20
-426.7581985061233
 42
0.4142135623731
  0
LWPOLYLINE
  5
1F6
330
1F
100
AcDbEntity
  8
D-4
  6
Continuous
 62
     7
370
     5
100
AcDbPolyline
 90
        4
 70
     1
 43
1.0
 10
-262.0683900472279
 20
-426.2581985061233
 42
0.4142135623731
 10
-262.5683900472279
 20
-425.7581985061233
 42
0.4142135623731
 10
-263.0683900472279
 20
-426.2581985061233
 42
0.4142135623731
 10
-262.5683900472279
 20
-426.7581985061233
 42
0.4142135623731
  0
LWPOLYLINE
  5
1F7
330
1F
100
AcDbEntity
  8
D-4
  6
Continuous
 62
     7
370
     5
100
AcDbPolyline
 90
        4
 70
     1
 43
1.0
 10
-562.0685137671392
 20
-641.3461303710938
 42
0.4142135623731
 10
-562.5685137671392
 20
-640.8461303710938
 42
0.4142135623731
 10
-563.068513767139
 20
-641.3461303710938
 42
0.4142135623731
 10
-562.5685137671392
 20
-641.8461303710938
 42
0.4142135623731
  0
LWPOLYLINE
  5
1F8
330
1F
100
AcDbEntity
  8
D-4
  6
Continuous
 62
     7
370
     5
100
AcDbPolyline
 90
        4
 70
     1
 43
1.0
 10
-412.0682663273165
 20
-641.3461303710938
 42
0.4142135623731
 10
-412.5682663273165
 20
-640.8461303710938
 42
0.4142135623731
 10
-413.0682663273165
 20
-641.3461303710938
 42
0.4142135623731
 10
-412.5682663273165
 20
-641.8461303710938
 42
0.4142135623731
  0
LWPOLYLINE
  5
1F9
330
1F
100
AcDbEntity
  8
D-4
  6
Continuous
 62
     7
370
     5
100
AcDbPolyline
 90
        4
 70
     1
 43
1.0
 10
-562.0685137671392
 20
-795.8108108108108
 42
0.4142135623731
 10
-562.5685137671392
 20
-795.3108108108108
 42
0.4142135623731
 10
-563.068513767139
 20
-795.8108108108108
 42
0.4142135623731
 10
-562.5685137671392
 20
-796.3108108108108
 42
0.4142135623731
  0
LWPOLYLINE
  5
1FA
330
1F
100
AcDbEntity
  8
D-4
  6
Continuous
 62
     7
370
     5
100
AcDbPolyline
 90
        4
 70
     1
 43
1.0
 10
-162.0675652478191
 20
-795.8108108108108
 42
0.4142135623731
 10
-162.5675652478191
 20
-795.3108108108108
 42
0.4142135623731
 10
-163.0675652478191
 20
-795.8108108108108
 42
0.4142135623731
 10
-162.5675652478191
 20
-796.3108108108108
 42
0.4142135623731
  0
LWPOLYLINE
  5
1FB
330
1F
100
AcDbEntity
  8
D-4
  6
Continuous
 62
     7
370
     5
100
AcDbPolyline
 90
        4
 70
     1
 43
1.0
 10
-918.7950828655346
 20
-238.2271926467483
 42
0.4142135623731
 10
-919.2950828655346
 20
-237.7271926467483
 42
0.4142135623731
 10
-919.7950828655346
 20
-238.2271926467483
 42
0.4142135623731
 10
-919.2950828655346
 20
-238.7271926467483
 42
0.4142135623731
  0
LWPOLYLINE
  5
1FC
330
1F
100
AcDbEntity
  8
D-4
  6
Continuous
 62
     7
370
     5
100
AcDbPolyline
 90
        4
 70
     1
 43
1.0
 10
-918.7950828655346
 20
-253.2272421347128
 42
0.4142135623731
 10
-919.2950828655346
 20
-252.7272421347128
 42
0.4142135623731
 10
-919.7950828655346
 20
-253.2272421347128
 42
0.4142135623731
 10
-919.2950828655346
 20
-253.7272421347128
 42
0.4142135623731
  0
LINE
  5
1FD
330
1F
100
AcDbEntity
  8
D-0
  6
Continuous
 62
     7
370
     5
100
AcDbLine
 10
-135.7233452152559
 20
-256.6772499599972
 30
0.0
 11
-135.7233452152559
 21
-255.1769688644924
 31
0.0
  0
LINE
  5
1FE
330
1F
100
AcDbEntity
  8
D-0
  6
Continuous
 62
     7
370
     5
100
AcDbLine
 10
-135.7233452152559
 20
-255.1769688644924
 30
0.0
 11
-134.2233299564668
 21
-255.1769688644924
 31
0.0
  0
LINE
  5
1FF
330
1F
100
AcDbEntity
  8
D-0
  6
Continuous
 62
     7
370
     5
100
AcDbLine
 10
-134.2233299564668
 20
-255.1769688644924
 30
0.0
 11
-134.2233299564668
 21
-256.6772499599972
 31
0.0
  0
LINE
  5
200
330
1F
100
AcDbEntity
  8
D-0
  6
Continuous
 62
     7
370
     5
100
AcDbLine
 10
-134.2233299564668
 20
-256.6772499599972
 30
0.0
 11
-135.7233452152559
 21
-256.6772499599972
 31
0.0
  0
LINE
  5
201
330
1F
100
AcDbEntity
  8
D-0
  6
Continuous
 62
     7
370
     5
100
AcDbLine
 10
-84.96742480509965
 20
-259.3844905415096
 30
0.0
 11
-84.96742480509965
 21
-257.8842106380978
 31
0.0
  0
LINE
  5
202
330
1F
100
AcDbEntity
  8
D-0
  6
Continuous
 62
     7
370
     5
100
AcDbLine
 10
-84.96742480509965
 20
-257.8842106380978
 30
0.0
 11
-83.46737139933794
 21
-257.8842106380978
 31
0.0
  0
LINE
  5
203
330
1F
100
AcDbEntity
  8
D-0
  6
Continuous
 62
     7
370
     5
100
AcDbLine
 10
-83.46737139933794
 20
-257.8842106380978
 30
0.0
 11
-83.46737139933794
 21
-259.3844905415096
 31
0.0
  0
LINE
  5
204
330
1F
100
AcDbEntity
  8
D-0
  6
Continuous
 62
     7
370
     5
100
AcDbLine
 10
-83.46737139933794
 20
-259.3844905415096
 30
0.0
 11
-84.96742480509965
 21
-259.3844905415096
 31
0.0
  0
LINE
  5
205
330
1F
100
AcDbEntity
  8
D-0
  6
Continuous
 62
     7
370
     5
100
AcDbLine
 10
-19.99969714396684
 20
-257.354058317236
 30
0.0
 11
-19.99969714396684
 21
-255.8537807980099
 31
0.0
  0
LINE
  5
206
330
1F
100
AcDbEntity
  8
D-0
  6
Continuous
 62
     7
370
     5
100
AcDbLine
 10
-19.99969714396684
 20
-255.8537807980099
 30
0.0
 11
-18.49964373820512
 21
-255.8537807980099
 31
0.0
  0
LINE
  5
207
330
1F
100
AcDbEntity
  8
D-0
  6
Continuous
 62
     7
370
     5
100
AcDbLine
 10
-18.49964373820512
 20
-255.8537807980099
 30
0.0
 11
-18.49964373820512
 21
-257.354058317236
 31
0.0
  0
LINE
  5
208
330
1F
100
AcDbEntity
  8
D-0
  6
Continuous
 62
     7
370
     5
100
AcDbLine
 10
-18.49964373820512
 20
-257.354058317236
 30
0.0
 11
-19.99969714396684
 21
-257.354058317236
 31
0.0
  0
LINE
  5
209
330
1F
100
AcDbEntity
  8
D-0
  6
Continuous
 62
     7
370
     5
100
AcDbLine
 10
-44.36264270060747
 20
-289.8379841366329
 30
0.0
 11
-44.36264270060747
 21
-288.3377018490353
 31
0.0
  0
LINE
  5
20A
330
1F
100
AcDbEntity
  8
D-0
  6
Continuous
 62
     7
370
     5
100
AcDbLine
 10
-44.36264270060747
 20
-288.3377018490353
 30
0.0
 11
-42.86258929484575
 21
-288.3377018490353
 31
0.0
  0
LINE
  5
20B
330
1F
100
AcDbEntity
  8
D-0
  6
Continuous
 62
     7
370
     5
100
AcDbLine
 10
-42.86258929484575
 20
-288.3377018490353
 30
0.0
 11
-42.86258929484575
 21
-289.8379841366329
 31
0.0
  0
LINE
  5
20C
330
1F
100
AcDbEntity
  8
D-0
  6
Continuous
 62
     7
370
     5
100
AcDbLine
 10
-42.86258929484575
 20
-289.8379841366329
 30
0.0
 11
-44.36264270060747
 21
-289.8379841366329
 31
0.0
  0
LINE
  5
20D
330
1F
100
AcDbEntity
  8
D-0
  6
Continuous
 62
     7
370
     5
100
AcDbLine
 10
-94.92782824748247
 20
-293.7690344372311
 30
0.0
 11
-94.92782824748247
 21
-292.2687521496334
 31
0.0
  0
LINE
  5
20E
330
1F
100
AcDbEntity
  8
D-0
  6
Continuous
 62
     7
370
     5
100
AcDbLine
 10
-94.92782824748247
 20
-292.2687521496334
 30
0.0
 11
-93.42777484172075
 21
-292.2687521496334
 31
0.0
  0
LINE
  5
20F
330
1F
100
AcDbEntity
  8
D-0
  6
Continuous
 62
     7
370
     5
100
AcDbLine
 10
-93.42777484172075
 20
-292.2687521496334
 30
0.0
 11
-93.42777484172075
 21
-293.7690344372311
 31
0.0
  0
LINE
  5
210
330
1F
100
AcDbEntity
  8
D-0
  6
Continuous
 62
     7
370
     5
100
AcDbLine
 10
-93.42777484172075
 20
-293.7690344372311
 30
0.0
 11
-94.92782824748247
 21
-293.7690344372311
 31
0.0
  0
LINE
  5
211
330
1F
100
AcDbEntity
  8
D-0
  6
Continuous
 62
     7
370
     5
100
AcDbLine
 10
-112.0372032474825
 20
-327.7358952084103
 30
0.0
 11
-112.0372032474825
 21
-326.2356129208126
 31
0.0
  0
LINE
  5
212
330
1F
100
AcDbEntity
  8
D-0
  6
Continuous
 62
     7
370
     5
100
AcDbLine
 10
-112.0372032474825
 20
-326.2356129208126
 30
0.0
 11
-110.5371879886934
 21
-326.2356129208126
 31
0.0
  0
LINE
  5
213
330
1F
100
AcDbEntity
  8
D-0
  6
Continuous
 62
     7
370
     5
100
AcDbLine
 10
-110.5371879886934
 20
-326.2356129208126
 30
0.0
 11
-110.5371879886934
 21
-327.7358952084103
 31
0.0
  0
LINE
  5
214
330
1F
100
AcDbEntity
  8
D-0
  6
Continuous
 62
     7
370
     5
100
AcDbLine
 10
-110.5371879886934
 20
-327.7358952084103
 30
0.0
 11
-112.0372032474825
 21
-327.7358952084103
 31
0.0
  0
LINE
  5
215
330
1F
100
AcDbEntity
  8
D-0
  6
Continuous
 62
     7
370
     5
100
AcDbLine
 10
-143.3937095951387
 20
-313.1641569653073
 30
0.0
 11
-143.3937095951387
 21
-311.6638794460812
 31
0.0
  0
LINE
  5
216
330
1F
100
AcDbEntity
  8
D-0
  6
Continuous
 62
     7
370
     5
100
AcDbLine
 10
-143.3937095951387
 20
-311.6638794460812
 30
0.0
 11
-141.8936752628633
 21
-311.6638794460812
 31
0.0
  0
LINE
  5
217
330
1F
100
AcDbEntity
  8
D-0
  6
Continuous
 62
     7
370
     5
100
AcDbLine
 10
-141.8936752628633
 20
-311.6638794460812
 30
0.0
 11
-141.8936752628633
 21
-313.1641569653073
 31
0.0
  0
LINE
  5
218
330
1F
100
AcDbEntity
  8
D-0
  6
Continuous
 62
     7
370
     5
100
AcDbLine
 10
-141.8936752628633
 20
-313.1641569653073
 30
0.0
 11
-143.3937095951387
 21
-313.1641569653073
 31
0.0
  0
LINE
  5
219
330
1F
100
AcDbEntity
  8
D-0
  6
Continuous
 62
     7
370
     5
100
AcDbLine
 10
-154.1178726505586
 20
-354.3841877499142
 30
0.0
 11
-154.1178726505586
 21
-352.8839054623165
 31
0.0
  0
LINE
  5
21A
330
1F
100
AcDbEntity
  8
D-0
  6
Continuous
 62
     7
370
     5
100
AcDbLine
 10
-154.1178726505586
 20
-352.8839054623165
 30
0.0
 11
-152.6178383182832
 21
-352.8839054623165
 31
0.0
  0
LINE
  5
21B
330
1F
100
AcDbEntity
  8
D-0
  6
Continuous
 62
     7
370
     5
100
AcDbLine
 10
-152.6178383182832
 20
-352.8839054623165
 30
0.0
 11
-152.6178383182832
 21
-354.3841877499142
 31
0.0
  0
LINE
  5
21C
330
1F
100
AcDbEntity
  8
D-0
  6
Continuous
 62
     7
370
     5
100
AcDbLine
 10
-152.6178383182832
 20
-354.3841877499142
 30
0.0
 11
-154.1178726505586
 21
-354.3841877499142
 31
0.0
  0
LINE
  5
21D
330
1F
100
AcDbEntity
  8
D-0
  6
Continuous
 62
     7
370
     5
100
AcDbLine
 10
-116.7745231937715
 20
-362.9265633144894
 30
0.0
 11
-116.7745231937715
 21
-361.4262810268917
 31
0.0
  0
LINE
  5
21E
330
1F
100
AcDbEntity
  8
D-0
  6
Continuous
 62
     7
370
     5
100
AcDbLine
 10
-116.7745231937715
 20
-361.4262810268917
 30
0.0
 11
-115.2745079349825
 21
-361.4262810268917
 31
0.0
  0
LINE
  5
21F
330
1F
100
AcDbEntity
  8
D-0
  6
Continuous
 62
     7
370
     5
100
AcDbLine
 10
-115.2745079349825
 20
-361.4262810268917
 30
0.0
 11
-115.2745079349825
 21
-362.9265633144894
 31
0.0
  0
LINE
  5
220
330
1F
100
AcDbEntity
  8
D-0
  6
Continuous
 62
     7
370
     5
100
AcDbLine
 10
-115.2745079349825
 20
-362.9265633144894
 30
0.0
 11
-116.7745231937715
 21
-362.9265633144894
 31
0.0
  0
LINE
  5
221
330
1F
100
AcDbEntity
  8
D-0
  6
Continuous
 62
     7
370
     5
100
AcDbLine
 10
-64.56959002726762
 20
-367.6513519802609
 30
0.0
 11
-64.56959002726762
 21
-366.1510792294064
 31
0.0
  0
LINE
  5
222
330
1F
100
AcDbEntity
  8
D-0
  6
Continuous
 62
     7
370
     5
100
AcDbLine
 10
-64.56959002726762
 20
-366.1510792294064
 30
0.0
 11
-63.0695366215059
 21
-366.1510792294064
 31
0.0
  0
LINE
  5
223
330
1F
100
AcDbEntity
  8
D-0
  6
Continuous
 62
     7
370
     5
100
AcDbLine
 10
-63.0695366215059
 20
-366.1510792294064
 30
0.0
 11
-63.0695366215059
 21
-367.6513519802609
 31
0.0
  0
LINE
  5
224
330
1F
100
AcDbEntity
  8
D-0
  6
Continuous
 62
     7
370
     5
100
AcDbLine
 10
-63.0695366215059
 20
-367.6513519802609
 30
0.0
 11
-64.56959002726762
 21
-367.6513519802609
 31
0.0
  0
LINE
  5
225
330
1F
100
AcDbEntity
  8
D-0
  6
Continuous
 62
     7
370
     5
100
AcDbLine
 10
-9.848520691330123
 20
-360.8961334744015
 30
0.0
 11
-9.848520691330123
 21
-359.3958511868038
 31
0.0
  0
LINE
  5
226
330
1F
100
AcDbEntity
  8
D-0
  6
Continuous
 62
     7
370
     5
100
AcDbLine
 10
-9.848520691330123
 20
-359.3958511868038
 30
0.0
 11
-8.34850543254106
 21
-359.3958511868038
 31
0.0
  0
LINE
  5
227
330
1F
100
AcDbEntity
  8
D-0
  6
Continuous
 62
     7
370
     5
100
AcDbLine
 10
-8.34850543254106
 20
-359.3958511868038
 30
0.0
 11
-8.34850543254106
 21
-360.8961334744015
 31
0.0
  0
LINE
  5
228
330
1F
100
AcDbEntity
  8
D-0
  6
Continuous
 62
     7
370
     5
100
AcDbLine
 10
-8.34850543254106
 20
-360.8961334744015
 30
0.0
 11
-9.848520691330123
 21
-360.8961334744015
 31
0.0
  0
LINE
  5
229
330
1F
100
AcDbEntity
  8
D-0
  6
Continuous
 62
     7
370
     5
100
AcDbLine
 10
-22.02999346965044
 20
-320.9682884731808
 30
0.0
 11
-22.02999346965044
 21
-319.4680061855831
 31
0.0
  0
LINE
  5
22A
330
1F
100
AcDbEntity
  8
D-0
  6
Continuous
 62
     7
370
     5
100
AcDbLine
 10
-22.02999346965044
 20
-319.4680061855831
 30
0.0
 11
-20.52994006388872
 21
-319.4680061855831
 31
0.0
  0
LINE
  5
22B
330
1F
100
AcDbEntity
  8
D-0
  6
Continuous
 62
     7
370
     5
100
AcDbLine
 10
-20.52994006388872
 20
-319.4680061855831
 30
0.0
 11
-20.52994006388872
 21
-320.9682884731808
 31
0.0
  0
LINE
  5
22C
330
1F
100
AcDbEntity
  8
D-0
  6
Continuous
 62
     7
370
     5
100
AcDbLine
 10
-20.52994006388872
 20
-320.9682884731808
 30
0.0
 11
-22.02999346965044
 21
-320.9682884731808
 31
0.0
  0
LINE
  5
22D
330
1F
100
AcDbEntity
  8
D-0
  6
Continuous
 62
     7
370
     5
100
AcDbLine
 10
-382.4411606144258
 20
-250.2589467087307
 30
0.0
 11
-382.4411606144258
 21
-248.7586668053189
 31
0.0
  0
LINE
  5
22E
330
1F
100
AcDbEntity
  8
D-0
  6
Continuous
 62
     7
370
     5
100
AcDbLine
 10
-382.4411606144258
 20
-248.7586668053189
 30
0.0
 11
-380.941131050522
 21
-248.7586668053189
 31
0.0
  0
LINE
  5
22F
330
1F
100
AcDbEntity
  8
D-0
  6
Continuous
 62
     7
370
     5
100
AcDbLine
 10
-380.941131050522
 20
-248.7586668053189
 30
0.0
 11
-380.941131050522
 21
-250.2589467087307
 31
0.0
  0
LINE
  5
230
330
1F
100
AcDbEntity
  8
D-0
  6
Continuous
 62
     7
370
     5
100
AcDbLine
 10
-380.941131050522
 20
-250.2589467087307
 30
0.0
 11
-382.4411606144258
 21
-250.2589467087307
 31
0.0
  0
LINE
  5
231
330
1F
100
AcDbEntity
  8
D-0
  6
Continuous
 62
     7
370
     5
100
AcDbLine
 10
-355.6361793827364
 20
-267.9110112705746
 30
0.0
 11
-355.6361793827364
 21
-266.4107337513485
 31
0.0
  0
LINE
  5
232
330
1F
100
AcDbEntity
  8
D-0
  6
Continuous
 62
     7
370
     5
100
AcDbLine
 10
-355.6361793827364
 20
-266.4107337513485
 30
0.0
 11
-354.136145050461
 21
-266.4107337513485
 31
0.0
  0
LINE
  5
233
330
1F
100
AcDbEntity
  8
D-0
  6
Continuous
 62
     7
370
     5
100
AcDbLine
 10
-354.136145050461
 20
-266.4107337513485
 30
0.0
 11
-354.136145050461
 21
-267.9110112705746
 31
0.0
  0
LINE
  5
234
330
1F
100
AcDbEntity
  8
D-0
  6
Continuous
 62
     7
370
     5
100
AcDbLine
 10
-354.136145050461
 20
-267.9110112705746
 30
0.0
 11
-355.6361793827364
 21
-267.9110112705746
 31
0.0
  0
LINE
  5
235
330
1F
100
AcDbEntity
  8
D-0
  6
Continuous
 62
     7
370
     5
100
AcDbLine
 10
-337.3304676365206
 20
-307.1377697506466
 30
0.0
 11
-337.3304676365206
 21
-305.6374922314205
 31
0.0
  0
LINE
  5
236
330
1F
100
AcDbEntity
  8
D-0
  6
Continuous
 62
     7
370
     5
100
AcDbLine
 10
-337.3304676365206
 20
-305.6374922314205
 30
0.0
 11
-335.8304333042452
 21
-305.6374922314205
 31
0.0
  0
LINE
  5
237
330
1F
100
AcDbEntity
  8
D-0
  6
Continuous
 62
     7
370
     5
100
AcDbLine
 10
-335.8304333042452
 20
-305.6374922314205
 30
0.0
 11
-335.8304333042452
 21
-307.1377697506466
 31
0.0
  0
LINE
  5
238
330
1F
100
AcDbEntity
  8
D-0
  6
Continuous
 62
     7
370
     5
100
AcDbLine
 10
-335.8304333042452
 20
-307.1377697506466
 30
0.0
 11
-337.3304676365206
 21
-307.1377697506466
 31
0.0
  0
LINE
  5
239
330
1F
100
AcDbEntity
  8
D-0
  6
Continuous
 62
     7
370
     5
100
AcDbLine
 10
-291.565868790085
 20
-254.1815724888363
 30
0.0
 11
-291.565868790085
 21
-252.6812937775173
 31
0.0
  0
LINE
  5
23A
330
1F
100
AcDbEntity
  8
D-0
  6
Continuous
 62
     7
370
     5
100
AcDbLine
 10
-291.565868790085
 20
-252.6812937775173
 30
0.0
 11
-290.0658439945528
 21
-252.6812937775173
 31
0.0
  0
LINE
  5
23B
330
1F
100
AcDbEntity
  8
D-0
  6
Continuous
 62
     7
370
     5
100
AcDbLine
 10
-290.0658439945528
 20
-252.6812937775173
 30
0.0
 11
-290.0658439945528
 21
-254.1815724888363
 31
0.0
  0
LINE
  5
23C
330
1F
100
AcDbEntity
  8
D-0
  6
Continuous
 62
     7
370
     5
100
AcDbLine
 10
-290.0658439945528
 20
-254.1815724888363
 30
0.0
 11
-291.565868790085
 21
-254.1815724888363
 31
0.0
  0
LINE
  5
23D
330
1F
100
AcDbEntity
  8
D-0
  6
Continuous
 62
     7
370
     5
100
AcDbLine
 10
-232.7257370304415
 20
-260.0657597103634
 30
0.0
 11
-232.7257370304415
 21
-258.5654798069515
 31
0.0
  0
LINE
  5
23E
330
1F
100
AcDbEntity
  8
D-0
  6
Continuous
 62
     7
370
     5
100
AcDbLine
 10
-232.7257370304415
 20
-258.5654798069515
 30
0.0
 11
-231.2257026981661
 21
-258.5654798069515
 31
0.0
  0
LINE
  5
23F
330
1F
100
AcDbEntity
  8
D-0
  6
Continuous
 62
     7
370
     5
100
AcDbLine
 10
-231.2257026981661
 20
-258.5654798069515
 30
0.0
 11
-231.2257026981661
 21
-260.0657597103634
 31
0.0
  0
LINE
  5
240
330
1F
100
AcDbEntity
  8
D-0
  6
Continuous
 62
     7
370
     5
100
AcDbLine
 10
-231.2257026981661
 20
-260.0657597103634
 30
0.0
 11
-232.7257370304415
 21
-260.0657597103634
 31
0.0
  0
LINE
  5
241
330
1F
100
AcDbEntity
  8
D-0
  6
Continuous
 62
     7
370
     5
100
AcDbLine
 10
-252.3391174625704
 20
-281.6404524364987
 30
0.0
 11
-252.3391174625704
 21
-280.1401749172726
 31
0.0
  0
LINE
  5
242
330
1F
100
AcDbEntity
  8
D-0
  6
Continuous
 62
     7
370
     5
100
AcDbLine
 10
-252.3391174625704
 20
-280.1401749172726
 30
0.0
 11
-250.839083130295
 21
-280.1401749172726
 31
0.0
  0
LINE
  5
243
330
1F
100
AcDbEntity
  8
D-0
  6
Continuous
 62
     7
370
     5
100
AcDbLine
 10
-250.839083130295
 20
-280.1401749172726
 30
0.0
 11
-250.839083130295
 21
-281.6404524364987
 31
0.0
  0
LINE
  5
244
330
1F
100
AcDbEntity
  8
D-0
  6
Continuous
 62
     7
370
     5
100
AcDbLine
 10
-250.839083130295
 20
-281.6404524364987
 30
0.0
 11
-252.3391174625704
 21
-281.6404524364987
 31
0.0
  0
LINE
  5
245
330
1F
100
AcDbEntity
  8
D-0
  6
Continuous
 62
     7
370
     5
100
AcDbLine
 10
-239.2635750126192
 20
-306.4842453518429
 30
0.0
 11
-239.2635750126192
 21
-304.9839678326168
 31
0.0
  0
LINE
  5
246
330
1F
100
AcDbEntity
  8
D-0
  6
Continuous
 62
     7
370
     5
100
AcDbLine
 10
-239.2635750126192
 20
-304.9839678326168
 30
0.0
 11
-237.7635406803438
 21
-304.9839678326168
 31
0.0
  0
LINE
  5
247
330
1F
100
AcDbEntity
  8
D-0
  6
Continuous
 62
     7
370
     5
100
AcDbLine
 10
-237.7635406803438
 20
-304.9839678326168
 30
0.0
 11
-237.7635406803438
 21
-306.4842453518429
 31
0.0
  0
LINE
  5
248
330
1F
100
AcDbEntity
  8
D-0
  6
Continuous
 62
     7
370
     5
100
AcDbLine
 10
-237.7635406803438
 20
-306.4842453518429
 30
0.0
 11
-239.2635750126192
 21
-306.4842453518429
 31
0.0
  0
LINE
  5
249
330
1F
100
AcDbEntity
  8
D-0
  6
Continuous
 62
     7
370
     5
100
AcDbLine
 10
-235.3408264469454
 20
-345.0569859066525
 30
0.0
 11
-235.3408264469454
 21
-343.5567036190548
 31
0.0
  0
LINE
  5
24A
330
1F
100
AcDbEntity
  8
D-0
  6
Continuous
 62
     7
370
     5
100
AcDbLine
 10
-235.3408264469454
 20
-343.5567036190548
 30
0.0
 11
-233.84079211467
 21
-343.5567036190548
 31
0.0
  0
LINE
  5
24B
330
1F
100
AcDbEntity
  8
D-0
  6
Continuous
 62
     7
370
     5
100
AcDbLine
 10
-233.84079211467
 20
-343.5567036190548
 30
0.0
 11
-233.84079211467
 21
-345.0569859066525
 31
0.0
  0
LINE
  5
24C
330
1F
100
AcDbEntity
  8
D-0
  6
Continuous
 62
     7
370
     5
100
AcDbLine
 10
-233.84079211467
 20
-345.0569859066525
 30
0.0
 11
-235.3408264469454
 21
-345.0569859066525
 31
0.0
  0
LINE
  5
24D
330
1F
100
AcDbEntity
  8
D-0
  6
Continuous
 62
     7
370
     5
100
AcDbLine
 10
-63.05900805705278
 20
-330.0859013119259
 30
0.0
 11
-63.05900805705278
 21
-328.5856190243283
 31
0.0
  0
LINE
  5
24E
330
1F
100
AcDbEntity
  8
D-0
  6
Continuous
 62
     7
370
     5
100
AcDbLine
 10
-63.05900805705278
 20
-328.5856190243283
 30
0.0
 11
-61.55899279826372
 21
-328.5856190243283
 31
0.0
  0
LINE
  5
24F
330
1F
100
AcDbEntity
  8
D-0
  6
Continuous
 62
     7
370
     5
100
AcDbLine
 10
-61.55899279826372
 20
-328.5856190243283
 30
0.0
 11
-61.55899279826372
 21
-330.0859013119259
 31
0.0
  0
LINE
  5
250
330
1F
100
AcDbEntity
  8
D-0
  6
Continuous
 62
     7
370
     5
100
AcDbLine
 10
-61.55899279826372
 20
-330.0859013119259
 30
0.0
 11
-63.05900805705278
 21
-330.0859013119259
 31
0.0
  0
LINE
  5
251
330
1F
100
AcDbEntity
  8
D-0
  6
Continuous
 62
     7
370
     5
100
AcDbLine
 10
-2.573816711837935
 20
-290.5975380459347
 30
0.0
 11
-2.573816711837935
 21
-289.097255758337
 31
0.0
  0
LINE
  5
252
330
1F
100
AcDbEntity
  8
D-0
  6
Continuous
 62
     7
370
     5
100
AcDbLine
 10
-2.573816711837935
 20
-289.097255758337
 30
0.0
 11
-1.073763306076216
 21
-289.097255758337
 31
0.0
  0
LINE
  5
253
330
1F
100
AcDbEntity
  8
D-0
  6
Continuous
 62
     7
370
     5
100
AcDbLine
 10
-1.073763306076216
 20
-289.097255758337
 30
0.0
 11
-1.073763306076216
 21
-290.5975380459347
 31
0.0
  0
LINE
  5
254
330
1F
100
AcDbEntity
  8
D-0
  6
Continuous
 62
     7
370
     5
100
AcDbLine
 10
-1.073763306076216
 20
-290.5975380459347
 30
0.0
 11
-2.573816711837935
 21
-290.5975380459347
 31
0.0
  0
LINE
  5
255
330
1F
100
AcDbEntity
  8
D-0
  6
Continuous
 62
     7
370
     5
100
AcDbLine
 10
-156.5742897342989
 20
-279.7046556988278
 30
0.0
 11
-156.5742897342989
 21
-278.2043781796017
 31
0.0
  0
LINE
  5
256
330
1F
100
AcDbEntity
  8
D-0
  6
Continuous
 62
     7
370
     5
100
AcDbLine
 10
-156.5742897342989
 20
-278.2043781796017
 30
0.0
 11
-155.0742554020235
 21
-278.2043781796017
 31
0.0
  0
LINE
  5
257
330
1F
100
AcDbEntity
  8
D-0
  6
Continuous
 62
     7
370
     5
100
AcDbLine
 10
-155.0742554020235
 20
-278.2043781796017
 30
0.0
 11
-155.0742554020235
 21
-279.7046556988278
 31
0.0
  0
LINE
  5
258
330
1F
100
AcDbEntity
  8
D-0
  6
Continuous
 62
     7
370
     5
100
AcDbLine
 10
-155.0742554020235
 20
-279.7046556988278
 30
0.0
 11
-156.5742897342989
 21
-279.7046556988278
 31
0.0
  0
LINE
  5
259
330
1F
100
AcDbEntity
  8
D-0
  6
Continuous
 62
     7
370
     5
100
AcDbLine
 10
-239.9242805790254
 20
-402.9549923458615
 30
0.0
 11
-239.9242805790254
 21
-401.4547100582638
 31
0.0
  0
LINE
  5
25A
330
1F
100
AcDbEntity
  8
D-0
  6
Continuous
 62
     7
370
     5
100
AcDbLine
 10
-239.9242805790254
 20
-401.4547100582638
 30
0.0
 11
-238.42424624675
 21
-401.4547100582638
 31
0.0
  0
LINE
  5
25B
330
1F
100
AcDbEntity
  8
D-0
  6
Continuous
 62
     7
370
     5
100
AcDbLine
 10
-238.42424624675
 20
-401.4547100582638
 30
0.0
 11
-238.42424624675
 21
-402.9549923458615
 31
0.0
  0
LINE
  5
25C
330
1F
100
AcDbEntity
  8
D-0
  6
Continuous
 62
     7
370
     5
100
AcDbLine
 10
-238.42424624675
 20
-402.9549923458615
 30
0.0
 11
-239.9242805790254
 21
-402.9549923458615
 31
0.0
  0
LINE
  5
25D
330
1F
100
AcDbEntity
  8
D-0
  6
Continuous
 62
     7
370
     5
100
AcDbLine
 10
-190.559599335129
 20
-410.853265813879
 30
0.0
 11
-190.559599335129
 21
-409.3529835262814
 31
0.0
  0
LINE
  5
25E
330
1F
100
AcDbEntity
  8
D-0
  6
Continuous
 62
     7
370
     5
100
AcDbLine
 10
-190.559599335129
 20
-409.3529835262814
 30
0.0
 11
-189.0595840763399
 21
-409.3529835262814
 31
0.0
  0
LINE
  5
25F
330
1F
100
AcDbEntity
  8
D-0
  6
Continuous
 62
     7
370
     5
100
AcDbLine
 10
-189.0595840763399
 20
-409.3529835262814
 30
0.0
 11
-189.0595840763399
 21
-410.853265813879
 31
0.0
  0
LINE
  5
260
330
1F
100
AcDbEntity
  8
D-0
  6
Continuous
 62
     7
370
     5
100
AcDbLine
 10
-189.0595840763399
 20
-410.853265813879
 30
0.0
 11
-190.559599335129
 21
-410.853265813879
 31
0.0
  0
LINE
  5
261
330
1F
100
AcDbEntity
  8
D-0
  6
Continuous
 62
     7
370
     5
100
AcDbLine
 10
-207.4408554386446
 20
-431.4340343990841
 30
0.0
 11
-207.4408554386446
 21
-429.9337521114865
 31
0.0
  0
LINE
  5
262
330
1F
100
AcDbEntity
  8
D-0
  6
Continuous
 62
     7
370
     5
100
AcDbLine
 10
-207.4408554386446
 20
-429.9337521114865
 30
0.0
 11
-205.9408211063692
 21
-429.9337521114865
 31
0.0
  0
LINE
  5
263
330
1F
100
AcDbEntity
  8
D-0
  6
Continuous
 62
     7
370
     5
100
AcDbLine
 10
-205.9408211063692
 20
-429.9337521114865
 30
0.0
 11
-205.9408211063692
 21
-431.4340343990841
 31
0.0
  0
LINE
  5
264
330
1F
100
AcDbEntity
  8
D-0
  6
Continuous
 62
     7
370
     5
100
AcDbLine
 10
-205.9408211063692
 20
-431.4340343990841
 30
0.0
 11
-207.4408554386446
 21
-431.4340343990841
 31
0.0
  0
LINE
  5
265
330
1F
100
AcDbEntity
  8
D-0
  6
Continuous
 62
     7
370
     5
100
AcDbLine
 10
-255.7210563968965
 20
-466.1421146908322
 30
0.0
 11
-255.7210563968965
 21
-464.6418514767208
 31
0.0
  0
LINE
  5
266
330
1F
100
AcDbEntity
  8
D-0
  6
Continuous
 62
     7
370
     5
100
AcDbLine
 10
-255.7210563968965
 20
-464.6418514767208
 30
0.0
 11
-254.2210220646211
 21
-464.6418514767208
 31
0.0
  0
LINE
  5
267
330
1F
100
AcDbEntity
  8
D-0
  6
Continuous
 62
     7
370
     5
100
AcDbLine
 10
-254.2210220646211
 20
-464.6418514767208
 30
0.0
 11
-254.2210220646211
 21
-466.1421146908322
 31
0.0
  0
LINE
  5
268
330
1F
100
AcDbEntity
  8
D-0
  6
Continuous
 62
     7
370
     5
100
AcDbLine
 10
-254.2210220646211
 20
-466.1421146908322
 30
0.0
 11
-255.7210563968965
 21
-466.1421146908322
 31
0.0
  0
LINE
  5
269
330
1F
100
AcDbEntity
  8
D-0
  6
Continuous
 62
     7
370
     5
100
AcDbLine
 10
-184.6357750248262
 20
-464.1671886959591
 30
0.0
 11
-184.6357750248262
 21
-462.6669064083615
 31
0.0
  0
LINE
  5
26A
330
1F
100
AcDbEntity
  8
D-0
  6
Continuous
 62
     7
370
     5
100
AcDbLine
 10
-184.6357750248262
 20
-462.6669064083615
 30
0.0
 11
-183.1357597660372
 21
-462.6669064083615
 31
0.0
  0
LINE
  5
26B
330
1F
100
AcDbEntity
  8
D-0
  6
Continuous
 62
     7
370
     5
100
AcDbLine
 10
-183.1357597660372
 20
-462.6669064083615
 30
0.0
 11
-183.1357597660372
 21
-464.1671886959591
 31
0.0
  0
LINE
  5
26C
330
1F
100
AcDbEntity
  8
D-0
  6
Continuous
 62
     7
370
     5
100
AcDbLine
 10
-183.1357597660372
 20
-464.1671886959591
 30
0.0
 11
-184.6357750248262
 21
-464.1671886959591
 31
0.0
  0
LINE
  5
26D
330
1F
100
AcDbEntity
  8
D-0
  6
Continuous
 62
     7
370
     5
100
AcDbLine
 10
-551.9095730137178
 20
-312.1236744442501
 30
0.0
 11
-551.9095730137178
 21
-310.6233921566525
 31
0.0
  0
LINE
  5
26E
330
1F
100
AcDbEntity
  8
D-0
  6
Continuous
 62
     7
370
     5
100
AcDbLine
 10
-551.9095730137178
 20
-310.6233921566525
 30
0.0
 11
-550.4095386814424
 21
-310.6233921566525
 31
0.0
  0
LINE
  5
26F
330
1F
100
AcDbEntity
  8
D-0
  6
Continuous
 62
     7
370
     5
100
AcDbLine
 10
-550.4095386814424
 20
-310.6233921566525
 30
0.0
 11
-550.4095386814424
 21
-312.1236744442501
 31
0.0
  0
LINE
  5
270
330
1F
100
AcDbEntity
  8
D-0
  6
Continuous
 62
     7
370
     5
100
AcDbLine
 10
-550.4095386814424
 20
-312.1236744442501
 30
0.0
 11
-551.9095730137178
 21
-312.1236744442501
 31
0.0
  0
LINE
  5
271
330
1F
100
AcDbEntity
  8
D-0
  6
Continuous
 62
     7
370
     5
100
AcDbLine
 10
-447.2562819074938
 20
-318.0474987545529
 30
0.0
 11
-447.2562819074938
 21
-316.5472164669552
 31
0.0
  0
LINE
  5
272
330
1F
100
AcDbEntity
  8
D-0
  6
Continuous
 62
     7
370
     5
100
AcDbLine
 10
-447.2562819074938
 20
-316.5472164669552
 30
0.0
 11
-445.7562499594042
 21
-316.5472164669552
 31
0.0
  0
LINE
  5
273
330
1F
100
AcDbEntity
  8
D-0
  6
Continuous
 62
     7
370
     5
100
AcDbLine
 10
-445.7562499594042
 20
-316.5472164669552
 30
0.0
 11
-445.7562499594042
 21
-318.0474987545529
 31
0.0
  0
LINE
  5
274
330
1F
100
AcDbEntity
  8
D-0
  6
Continuous
 62
     7
370
     5
100
AcDbLine
 10
-445.7562499594042
 20
-318.0474987545529
 30
0.0
 11
-447.2562819074938
 21
-318.0474987545529
 31
0.0
  0
LINE
  5
275
330
1F
100
AcDbEntity
  8
D-0
  6
Continuous
 62
     7
370
     5
100
AcDbLine
 10
-486.7481159519502
 20
-316.0730591335812
 30
0.0
 11
-486.7481159519502
 21
-314.5727768459835
 31
0.0
  0
LINE
  5
276
330
1F
100
AcDbEntity
  8
D-0
  6
Continuous
 62
     7
370
     5
100
AcDbLine
 10
-486.7481159519502
 20
-314.5727768459835
 30
0.0
 11
-485.2480863880464
 21
-314.5727768459835
 31
0.0
  0
LINE
  5
277
330
1F
100
AcDbEntity
  8
D-0
  6
Continuous
 62
     7
370
     5
100
AcDbLine
 10
-485.2480863880464
 20
-314.5727768459835
 30
0.0
 11
-485.2480863880464
 21
-316.0730591335812
 31
0.0
  0
LINE
  5
278
330
1F
100
AcDbEntity
  8
D-0
  6
Continuous
 62
     7
370
     5
100
AcDbLine
 10
-485.2480863880464
 20
-316.0730591335812
 30
0.0
 11
-486.7481159519502
 21
-316.0730591335812
 31
0.0
  0
LINE
  5
279
330
1F
100
AcDbEntity
  8
D-0
  6
Continuous
 62
     7
370
     5
100
AcDbLine
 10
-542.0366119694063
 20
-341.7427959957638
 30
0.0
 11
-542.0366119694063
 21
-340.2425137081661
 31
0.0
  0
LINE
  5
27A
330
1F
100
AcDbEntity
  8
D-0
  6
Continuous
 62
     7
370
     5
100
AcDbLine
 10
-542.0366119694063
 20
-340.2425137081661
 30
0.0
 11
-540.5365776371309
 21
-340.2425137081661
 31
0.0
  0
LINE
  5
27B
330
1F
100
AcDbEntity
  8
D-0
  6
Continuous
 62
     7
370
     5
100
AcDbLine
 10
-540.5365776371309
 20
-340.2425137081661
 30
0.0
 11
-540.5365776371309
 21
-341.7427959957638
 31
0.0
  0
LINE
  5
27C
330
1F
100
AcDbEntity
  8
D-0
  6
Continuous
 62
     7
370
     5
100
AcDbLine
 10
-540.5365776371309
 20
-341.7427959957638
 30
0.0
 11
-542.0366119694063
 21
-341.7427959957638
 31
0.0
  0
LINE
  5
27D
330
1F
100
AcDbEntity
  8
D-0
  6
Continuous
 62
     7
370
     5
100
AcDbLine
 10
-517.0943378757784
 20
-315.241660169653
 30
0.0
 11
-517.0943378757784
 21
-313.7413778820553
 31
0.0
  0
LINE
  5
27E
330
1F
100
AcDbEntity
  8
D-0
  6
Continuous
 62
     7
370
     5
100
AcDbLine
 10
-517.0943378757784
 20
-313.7413778820553
 30
0.0
 11
-515.5943083118746
 21
-313.7413778820553
 31
0.0
  0
LINE
  5
27F
330
1F
100
AcDbEntity
  8
D-0
  6
Continuous
 62
     7
370
     5
100
AcDbLine
 10
-515.5943083118746
 20
-313.7413778820553
 30
0.0
 11
-515.5943083118746
 21
-315.241660169653
 31
0.0
  0
LINE
  5
280
330
1F
100
AcDbEntity
  8
D-0
  6
Continuous
 62
     7
370
     5
100
AcDbLine
 10
-515.5943083118746
 20
-315.241660169653
 30
0.0
 11
-517.0943378757784
 21
-315.241660169653
 31
0.0
  0
LINE
  5
281
330
1F
100
AcDbEntity
  8
D-0
  6
Continuous
 62
     7
370
     5
100
AcDbLine
 10
-468.9767669987032
 20
-347.6666203060665
 30
0.0
 11
-468.9767669987032
 21
-346.1663380184689
 31
0.0
  0
LINE
  5
282
330
1F
100
AcDbEntity
  8
D-0
  6
Continuous
 62
     7
370
     5
100
AcDbLine
 10
-468.9767669987032
 20
-346.1663380184689
 30
0.0
 11
-467.4767350506136
 21
-346.1663380184689
 31
0.0
  0
LINE
  5
283
330
1F
100
AcDbEntity
  8
D-0
  6
Continuous
 62
     7
370
     5
100
AcDbLine
 10
-467.4767350506136
 20
-346.1663380184689
 30
0.0
 11
-467.4767350506136
 21
-347.6666203060665
 31
0.0
  0
LINE
  5
284
330
1F
100
AcDbEntity
  8
D-0
  6
Continuous
 62
     7
370
     5
100
AcDbLine
 10
-467.4767350506136
 20
-347.6666203060665
 30
0.0
 11
-468.9767669987032
 21
-347.6666203060665
 31
0.0
  0
LINE
  5
285
330
1F
100
AcDbEntity
  8
D-0
  6
Continuous
 62
     7
370
     5
100
AcDbLine
 10
-540.0620388340303
 20
-385.1835194149533
 30
0.0
 11
-540.0620388340303
 21
-383.6832371273556
 31
0.0
  0
LINE
  5
286
330
1F
100
AcDbEntity
  8
D-0
  6
Continuous
 62
     7
370
     5
100
AcDbLine
 10
-540.0620388340303
 20
-383.6832371273556
 30
0.0
 11
-538.5620140384981
 21
-383.6832371273556
 31
0.0
  0
LINE
  5
287
330
1F
100
AcDbEntity
  8
D-0
  6
Continuous
 62
     7
370
     5
100
AcDbLine
 10
-538.5620140384981
 20
-383.6832371273556
 30
0.0
 11
-538.5620140384981
 21
-385.1835194149533
 31
0.0
  0
LINE
  5
288
330
1F
100
AcDbEntity
  8
D-0
  6
Continuous
 62
     7
370
     5
100
AcDbLine
 10
-538.5620140384981
 20
-385.1835194149533
 30
0.0
 11
-540.0620388340303
 21
-385.1835194149533
 31
0.0
  0
LINE
  5
289
330
1F
100
AcDbEntity
  8
D-0
  6
Continuous
 62
     7
370
     5
100
AcDbLine
 10
-480.8242916416475
 20
-489.8369350948849
 30
0.0
 11
-480.8242916416475
 21
-488.3366528072872
 31
0.0
  0
LINE
  5
28A
330
1F
100
AcDbEntity
  8
D-0
  6
Continuous
 62
     7
370
     5
100
AcDbLine
 10
-480.8242916416475
 20
-488.3366528072872
 30
0.0
 11
-479.3242620777437
 21
-488.3366528072872
 31
0.0
  0
LINE
  5
28B
330
1F
100
AcDbEntity
  8
D-0
  6
Continuous
 62
     7
370
     5
100
AcDbLine
 10
-479.3242620777437
 20
-488.3366528072872
 30
0.0
 11
-479.3242620777437
 21
-489.8369350948849
 31
0.0
  0
LINE
  5
28C
330
1F
100
AcDbEntity
  8
D-0
  6
Continuous
 62
     7
370
     5
100
AcDbLine
 10
-479.3242620777437
 20
-489.8369350948849
 30
0.0
 11
-480.8242916416475
 21
-489.8369350948849
 31
0.0
  0
LINE
  5
28D
330
1F
100
AcDbEntity
  8
D-0
  6
Continuous
 62
     7
370
     5
100
AcDbLine
 10
-494.6465086292574
 20
-549.0746822872677
 30
0.0
 11
-494.6465086292574
 21
-547.57439999967
 31
0.0
  0
LINE
  5
28E
330
1F
100
AcDbEntity
  8
D-0
  6
Continuous
 62
     7
370
     5
100
AcDbLine
 10
-494.6465086292574
 20
-547.57439999967
 30
0.0
 11
-493.146474296982
 21
-547.57439999967
 31
0.0
  0
LINE
  5
28F
330
1F
100
AcDbEntity
  8
D-0
  6
Continuous
 62
     7
370
     5
100
AcDbLine
 10
-493.146474296982
 20
-547.57439999967
 30
0.0
 11
-493.146474296982
 21
-549.0746822872677
 31
0.0
  0
LINE
  5
290
330
1F
100
AcDbEntity
  8
D-0
  6
Continuous
 62
     7
370
     5
100
AcDbLine
 10
-493.146474296982
 20
-549.0746822872677
 30
0.0
 11
-494.6465086292574
 21
-549.0746822872677
 31
0.0
  0
LINE
  5
291
330
1F
100
AcDbEntity
  8
D-0
  6
Continuous
 62
     7
370
     5
100
AcDbLine
 10
-525.2527260135957
 20
-559.9348774471798
 30
0.0
 11
-525.2527260135957
 21
-558.4345951595822
 31
0.0
  0
LINE
  5
292
330
1F
100
AcDbEntity
  8
D-0
  6
Continuous
 62
     7
370
     5
100
AcDbLine
 10
-525.2527260135957
 20
-558.4345951595822
 30
0.0
 11
-523.7527012180635
 21
-558.4345951595822
 31
0.0
  0
LINE
  5
293
330
1F
100
AcDbEntity
  8
D-0
  6
Continuous
 62
     7
370
     5
100
AcDbLine
 10
-523.7527012180635
 20
-558.4345951595822
 30
0.0
 11
-523.7527012180635
 21
-559.9348774471798
 31
0.0
  0
LINE
  5
294
330
1F
100
AcDbEntity
  8
D-0
  6
Continuous
 62
     7
370
     5
100
AcDbLine
 10
-523.7527012180635
 20
-559.9348774471798
 30
0.0
 11
-525.2527260135957
 21
-559.9348774471798
 31
0.0
  0
LINE
  5
295
330
1F
100
AcDbEntity
  8
D-0
  6
Continuous
 62
     7
370
     5
100
AcDbLine
 10
-548.106224472458
 20
-493.7863102474728
 30
0.0
 11
-548.106224472458
 21
-492.2860279598751
 31
0.0
  0
LINE
  5
296
330
1F
100
AcDbEntity
  8
D-0
  6
Continuous
 62
     7
370
     5
100
AcDbLine
 10
-548.106224472458
 20
-492.2860279598751
 30
0.0
 11
-546.6061901401827
 21
-492.2860279598751
 31
0.0
  0
LINE
  5
297
330
1F
100
AcDbEntity
  8
D-0
  6
Continuous
 62
     7
370
     5
100
AcDbLine
 10
-546.6061901401827
 20
-492.2860279598751
 30
0.0
 11
-546.6061901401827
 21
-493.7863102474728
 31
0.0
  0
LINE
  5
298
330
1F
100
AcDbEntity
  8
D-0
  6
Continuous
 62
     7
370
     5
100
AcDbLine
 10
-546.6061901401827
 20
-493.7863102474728
 30
0.0
 11
-548.106224472458
 21
-493.7863102474728
 31
0.0
  0
LINE
  5
299
330
1F
100
AcDbEntity
  8
D-0
  6
Continuous
 62
     7
370
     5
100
AcDbLine
 10
-522.2906898807832
 20
-472.0659580746212
 30
0.0
 11
-522.2906898807832
 21
-470.5656757870236
 31
0.0
  0
LINE
  5
29A
330
1F
100
AcDbEntity
  8
D-0
  6
Continuous
 62
     7
370
     5
100
AcDbLine
 10
-522.2906898807832
 20
-470.5656757870236
 30
0.0
 11
-520.790665085251
 21
-470.5656757870236
 31
0.0
  0
LINE
  5
29B
330
1F
100
AcDbEntity
  8
D-0
  6
Continuous
 62
     7
370
     5
100
AcDbLine
 10
-520.790665085251
 20
-470.5656757870236
 30
0.0
 11
-520.790665085251
 21
-472.0659580746212
 31
0.0
  0
LINE
  5
29C
330
1F
100
AcDbEntity
  8
D-0
  6
Continuous
 62
     7
370
     5
100
AcDbLine
 10
-520.790665085251
 20
-472.0659580746212
 30
0.0
 11
-522.2906898807832
 21
-472.0659580746212
 31
0.0
  0
LINE
  5
29D
330
1F
100
AcDbEntity
  8
D-0
  6
Continuous
 62
     7
370
     5
100
AcDbLine
 10
-459.1038083385774
 20
-524.5588818111935
 30
0.0
 11
-459.1038083385774
 21
-523.0585995235958
 31
0.0
  0
LINE
  5
29E
330
1F
100
AcDbEntity
  8
D-0
  6
Continuous
 62
     7
370
     5
100
AcDbLine
 10
-459.1038083385774
 20
-523.0585995235958
 30
0.0
 11
-457.6037763904878
 21
-523.0585995235958
 31
0.0
  0
LINE
  5
29F
330
1F
100
AcDbEntity
  8
D-0
  6
Continuous
 62
     7
370
     5
100
AcDbLine
 10
-457.6037763904878
 20
-523.0585995235958
 30
0.0
 11
-457.6037763904878
 21
-524.5588818111935
 31
0.0
  0
LINE
  5
2A0
330
1F
100
AcDbEntity
  8
D-0
  6
Continuous
 62
     7
370
     5
100
AcDbLine
 10
-457.6037763904878
 20
-524.5588818111935
 30
0.0
 11
-459.1038083385774
 21
-524.5588818111935
 31
0.0
  0
LINE
  5
2A1
330
1F
100
AcDbEntity
  8
D-0
  6
Continuous
 62
     7
370
     5
100
AcDbLine
 10
-536.1129116367647
 20
-662.4379292049923
 30
0.0
 11
-536.1129116367647
 21
-660.9376469173947
 31
0.0
  0
LINE
  5
2A2
330
1F
100
AcDbEntity
  8
D-0
  6
Continuous
 62
     7
370
     5
100
AcDbLine
 10
-536.1129116367647
 20
-660.9376469173947
 30
0.0
 11
-534.6128773044893
 21
-660.9376469173947
 31
0.0
  0
LINE
  5
2A3
330
1F
100
AcDbEntity
  8
D-0
  6
Continuous
 62
     7
370
     5
100
AcDbLine
 10
-534.6128773044893
 20
-660.9376469173947
 30
0.0
 11
-534.6128773044893
 21
-662.4379292049923
 31
0.0
  0
LINE
  5
2A4
330
1F
100
AcDbEntity
  8
D-0
  6
Continuous
 62
     7
370
     5
100
AcDbLine
 10
-534.6128773044893
 20
-662.4379292049923
 30
0.0
 11
-536.1129116367647
 21
-662.4379292049923
 31
0.0
  0
LINE
  5
2A5
330
1F
100
AcDbEntity
  8
D-0
  6
Continuous
 62
     7
370
     5
100
AcDbLine
 10
-465.7226514171907
 20
-666.1499729671993
 30
0.0
 11
-465.7226514171907
 21
-664.6496906796017
 31
0.0
  0
LINE
  5
2A6
330
1F
100
AcDbEntity
  8
D-0
  6
Continuous
 62
     7
370
     5
100
AcDbLine
 10
-465.7226514171907
 20
-664.6496906796017
 30
0.0
 11
-464.2226194691011
 21
-664.6496906796017
 31
0.0
  0
LINE
  5
2A7
330
1F
100
AcDbEntity
  8
D-0
  6
Continuous
 62
     7
370
     5
100
AcDbLine
 10
-464.2226194691011
 20
-664.6496906796017
 30
0.0
 11
-464.2226194691011
 21
-666.1499729671993
 31
0.0
  0
LINE
  5
2A8
330
1F
100
AcDbEntity
  8
D-0
  6
Continuous
 62
     7
370
     5
100
AcDbLine
 10
-464.2226194691011
 20
-666.1499729671993
 30
0.0
 11
-465.7226514171907
 21
-666.1499729671993
 31
0.0
  0
LINE
  5
2A9
330
1F
100
AcDbEntity
  8
D-0
  6
Continuous
 62
     7
370
     5
100
AcDbLine
 10
-441.3324572991678
 20
-692.0565739193478
 30
0.0
 11
-441.3324572991678
 21
-690.5562916317501
 31
0.0
  0
LINE
  5
2AA
330
1F
100
AcDbEntity
  8
D-0
  6
Continuous
 62
     7
370
     5
100
AcDbLine
 10
-441.3324572991678
 20
-690.5562916317501
 30
0.0
 11
-439.8324255000898
 21
-690.5562916317501
 31
0.0
  0
LINE
  5
2AB
330
1F
100
AcDbEntity
  8
D-0
  6
Continuous
 62
     7
370
     5
100
AcDbLine
 10
-439.8324255000898
 20
-690.5562916317501
 30
0.0
 11
-439.8324255000898
 21
-692.0565739193478
 31
0.0
  0
LINE
  5
2AC
330
1F
100
AcDbEntity
  8
D-0
  6
Continuous
 62
     7
370
     5
100
AcDbLine
 10
-439.8324255000898
 20
-692.0565739193478
 30
0.0
 11
-441.3324572991678
 21
-692.0565739193478
 31
0.0
  0
LINE
  5
2AD
330
1F
100
AcDbEntity
  8
D-0
  6
Continuous
 62
     7
370
     5
100
AcDbLine
 10
-435.053629214699
 20
-730.2685871639767
 30
0.0
 11
-435.053629214699
 21
-728.768304876379
 31
0.0
  0
LINE
  5
2AE
330
1F
100
AcDbEntity
  8
D-0
  6
Continuous
 62
     7
370
     5
100
AcDbLine
 10
-435.053629214699
 20
-728.768304876379
 30
0.0
 11
-433.5535975646326
 21
-728.768304876379
 31
0.0
  0
LINE
  5
2AF
330
1F
100
AcDbEntity
  8
D-0
  6
Continuous
 62
     7
370
     5
100
AcDbLine
 10
-433.5535975646326
 20
-728.768304876379
 30
0.0
 11
-433.5535975646326
 21
-730.2685871639767
 31
0.0
  0
LINE
  5
2B0
330
1F
100
AcDbEntity
  8
D-0
  6
Continuous
 62
     7
370
     5
100
AcDbLine
 10
-433.5535975646326
 20
-730.2685871639767
 30
0.0
 11
-435.053629214699
 21
-730.2685871639767
 31
0.0
  0
LINE
  5
2B1
330
1F
100
AcDbEntity
  8
D-0
  6
Continuous
 62
     7
370
     5
100
AcDbLine
 10
-509.2821621250459
 20
-735.7271900692501
 30
0.0
 11
-509.2821621250459
 21
-734.2269077816525
 31
0.0
  0
LINE
  5
2B2
330
1F
100
AcDbEntity
  8
D-0
  6
Continuous
 62
     7
370
     5
100
AcDbLine
 10
-509.2821621250459
 20
-734.2269077816525
 30
0.0
 11
-507.7821277927706
 21
-734.2269077816525
 31
0.0
  0
LINE
  5
2B3
330
1F
100
AcDbEntity
  8
D-0
  6
Continuous
 62
     7
370
     5
100
AcDbLine
 10
-507.7821277927706
 20
-734.2269077816525
 30
0.0
 11
-507.7821277927706
 21
-735.7271900692501
 31
0.0
  0
LINE
  5
2B4
330
1F
100
AcDbEntity
  8
D-0
  6
Continuous
 62
     7
370
     5
100
AcDbLine
 10
-507.7821277927706
 20
-735.7271900692501
 30
0.0
 11
-509.2821621250459
 21
-735.7271900692501
 31
0.0
  0
LINE
  5
2B5
330
1F
100
AcDbEntity
  8
D-0
  6
Continuous
 62
     7
370
     5
100
AcDbLine
 10
-544.0111755680391
 20
-726.4306965389767
 30
0.0
 11
-544.0111755680391
 21
-724.930414251379
 31
0.0
  0
LINE
  5
2B6
330
1F
100
AcDbEntity
  8
D-0
  6
Continuous
 62
     7
370
     5
100
AcDbLine
 10
-544.0111755680391
 20
-724.930414251379
 30
0.0
 11
-542.5111412357637
 21
-724.930414251379
 31
0.0
  0
LINE
  5
2B7
330
1F
100
AcDbEntity
  8
D-0
  6
Continuous
 62
     7
370
     5
100
AcDbLine
 10
-542.5111412357637
 20
-724.930414251379
 30
0.0
 11
-542.5111412357637
 21
-726.4306965389767
 31
0.0
  0
LINE
  5
2B8
330
1F
100
AcDbEntity
  8
D-0
  6
Continuous
 62
     7
370
     5
100
AcDbLine
 10
-542.5111412357637
 20
-726.4306965389767
 30
0.0
 11
-544.0111755680391
 21
-726.4306965389767
 31
0.0
  0
LINE
  5
2B9
330
1F
100
AcDbEntity
  8
D-0
  6
Continuous
 62
     7
370
     5
100
AcDbLine
 10
-546.2225746464082
 20
-686.1327305355587
 30
0.0
 11
-546.2225746464082
 21
-684.6324482479611
 31
0.0
  0
LINE
  5
2BA
330
1F
100
AcDbEntity
  8
D-0
  6
Continuous
 62
     7
370
     5
100
AcDbLine
 10
-546.2225746464082
 20
-684.6324482479611
 30
0.0
 11
-544.722549850876
 21
-684.6324482479611
 31
0.0
  0
LINE
  5
2BB
330
1F
100
AcDbEntity
  8
D-0
  6
Continuous
 62
     7
370
     5
100
AcDbLine
 10
-544.722549850876
 20
-684.6324482479611
 30
0.0
 11
-544.722549850876
 21
-686.1327305355587
 31
0.0
  0
LINE
  5
2BC
330
1F
100
AcDbEntity
  8
D-0
  6
Continuous
 62
     7
370
     5
100
AcDbLine
 10
-544.722549850876
 20
-686.1327305355587
 30
0.0
 11
-546.2225746464082
 21
-686.1327305355587
 31
0.0
  0
LINE
  5
2BD
330
1F
100
AcDbEntity
  8
D-0
  6
Continuous
 62
     7
370
     5
100
AcDbLine
 10
-488.7226843189546
 20
-705.8786716976681
 30
0.0
 11
-488.7226843189546
 21
-704.3783894100704
 31
0.0
  0
LINE
  5
2BE
330
1F
100
AcDbEntity
  8
D-0
  6
Continuous
 62
     7
370
     5
100
AcDbLine
 10
-488.7226843189546
 20
-704.3783894100704
 30
0.0
 11
-487.2226499866792
 21
-704.3783894100704
 31
0.0
  0
LINE
  5
2BF
330
1F
100
AcDbEntity
  8
D-0
  6
Continuous
 62
     7
370
     5
100
AcDbLine
 10
-487.2226499866792
 20
-704.3783894100704
 30
0.0
 11
-487.2226499866792
 21
-705.8786716976681
 31
0.0
  0
LINE
  5
2C0
330
1F
100
AcDbEntity
  8
D-0
  6
Continuous
 62
     7
370
     5
100
AcDbLine
 10
-487.2226499866792
 20
-705.8786716976681
 30
0.0
 11
-488.7226843189546
 21
-705.8786716976681
 31
0.0
  0
LINE
  5
2C1
330
1F
100
AcDbEntity
  8
D-0
  6
Continuous
 62
     7
370
     5
100
AcDbLine
 10
-500.570208961899
 20
-672.3106327572384
 30
0.0
 11
-500.570208961899
 21
-670.8103504696408
 31
0.0
  0
LINE
  5
2C2
330
1F
100
AcDbEntity
  8
D-0
  6
Continuous
 62
     7
370
     5
100
AcDbLine
 10
-500.570208961899
 20
-670.8103504696408
 30
0.0
 11
-499.0701746296236
 21
-670.8103504696408
 31
0.0
  0
LINE
  5
2C3
330
1F
100
AcDbEntity
  8
D-0
  6
Continuous
 62
     7
370
     5
100
AcDbLine
 10
-499.0701746296236
 20
-670.8103504696408
 30
0.0
 11
-499.0701746296236
 21
-672.3106327572384
 31
0.0
  0
LINE
  5
2C4
330
1F
100
AcDbEntity
  8
D-0
  6
Continuous
 62
     7
370
     5
100
AcDbLine
 10
-499.0701746296236
 20
-672.3106327572384
 30
0.0
 11
-500.570208961899
 21
-672.3106327572384
 31
0.0
  0
LINE
  5
2C5
330
1F
100
AcDbEntity
  8
D-0
  6
Continuous
 62
     7
370
     5
100
AcDbLine
 10
-445.2817147325823
 20
-558.1269016781368
 30
0.0
 11
-445.2817147325823
 21
-556.6266193905392
 31
0.0
  0
LINE
  5
2C6
330
1F
100
AcDbEntity
  8
D-0
  6
Continuous
 62
     7
370
     5
100
AcDbLine
 10
-445.2817147325823
 20
-556.6266193905392
 30
0.0
 11
-443.7816833805391
 21
-556.6266193905392
 31
0.0
  0
LINE
  5
2C7
330
1F
100
AcDbEntity
  8
D-0
  6
Continuous
 62
     7
370
     5
100
AcDbLine
 10
-443.7816833805391
 20
-556.6266193905392
 30
0.0
 11
-443.7816833805391
 21
-558.1269016781368
 31
0.0
  0
LINE
  5
2C8
330
1F
100
AcDbEntity
  8
D-0
  6
Continuous
 62
     7
370
     5
100
AcDbLine
 10
-443.7816833805391
 20
-558.1269016781368
 30
0.0
 11
-445.2817147325823
 21
-558.1269016781368
 31
0.0
  0
LINE
  5
2C9
330
1F
100
AcDbEntity
  8
D-0
  6
Continuous
 62
     7
370
     5
100
AcDbLine
 10
-433.4341894935915
 20
-458.2433643856564
 30
0.0
 11
-433.4341894935915
 21
-456.7430820980587
 31
0.0
  0
LINE
  5
2CA
330
1F
100
AcDbEntity
  8
D-0
  6
Continuous
 62
     7
370
     5
100
AcDbLine
 10
-433.4341894935915
 20
-456.7430820980587
 30
0.0
 11
-431.9341575455019
 21
-456.7430820980587
 31
0.0
  0
LINE
  5
2CB
330
1F
100
AcDbEntity
  8
D-0
  6
Continuous
 62
     7
370
     5
100
AcDbLine
 10
-431.9341575455019
 20
-456.7430820980587
 30
0.0
 11
-431.9341575455019
 21
-458.2433643856564
 31
0.0
  0
LINE
  5
2CC
330
1F
100
AcDbEntity
  8
D-0
  6
Continuous
 62
     7
370
     5
100
AcDbLine
 10
-431.9341575455019
 20
-458.2433643856564
 30
0.0
 11
-433.4341894935915
 21
-458.2433643856564
 31
0.0
  0
LINE
  5
2CD
330
1F
100
AcDbEntity
  8
D-0
  6
Continuous
 62
     7
370
     5
100
AcDbLine
 10
-338.6538624119112
 20
-466.1421146908322
 30
0.0
 11
-338.6538624119112
 21
-464.6418514767208
 31
0.0
  0
LINE
  5
2CE
330
1F
100
AcDbEntity
  8
D-0
  6
Continuous
 62
     7
370
     5
100
AcDbLine
 10
-338.6538624119112
 20
-464.6418514767208
 30
0.0
 11
-337.1538280796358
 21
-464.6418514767208
 31
0.0
  0
LINE
  5
2CF
330
1F
100
AcDbEntity
  8
D-0
  6
Continuous
 62
     7
370
     5
100
AcDbLine
 10
-337.1538280796358
 20
-464.6418514767208
 30
0.0
 11
-337.1538280796358
 21
-466.1421146908322
 31
0.0
  0
LINE
  5
2D0
330
1F
100
AcDbEntity
  8
D-0
  6
Continuous
 62
     7
370
     5
100
AcDbLine
 10
-337.1538280796358
 20
-466.1421146908322
 30
0.0
 11
-338.6538624119112
 21
-466.1421146908322
 31
0.0
  0
LINE
  5
2D1
330
1F
100
AcDbEntity
  8
D-0
  6
Continuous
 62
     7
370
     5
100
AcDbLine
 10
-391.9677900623628
 20
-462.1927395382443
 30
0.0
 11
-391.9677900623628
 21
-460.6924572506466
 31
0.0
  0
LINE
  5
2D2
330
1F
100
AcDbEntity
  8
D-0
  6
Continuous
 62
     7
370
     5
100
AcDbLine
 10
-391.9677900623628
 20
-460.6924572506466
 30
0.0
 11
-390.4677557300874
 21
-460.6924572506466
 31
0.0
  0
LINE
  5
2D3
330
1F
100
AcDbEntity
  8
D-0
  6
Continuous
 62
     7
370
     5
100
AcDbLine
 10
-390.4677557300874
 20
-460.6924572506466
 30
0.0
 11
-390.4677557300874
 21
-462.1927395382443
 31
0.0
  0
LINE
  5
2D4
330
1F
100
AcDbEntity
  8
D-0
  6
Continuous
 62
     7
370
     5
100
AcDbLine
 10
-390.4677557300874
 20
-462.1927395382443
 30
0.0
 11
-391.9677900623628
 21
-462.1927395382443
 31
0.0
  0
LINE
  5
2D5
330
1F
100
AcDbEntity
  8
D-0
  6
Continuous
 62
     7
370
     5
100
AcDbLine
 10
-241.8988441776582
 20
-432.5741138973751
 30
0.0
 11
-241.8988441776582
 21
-431.0738316097775
 31
0.0
  0
LINE
  5
2D6
330
1F
100
AcDbEntity
  8
D-0
  6
Continuous
 62
     7
370
     5
100
AcDbLine
 10
-241.8988441776582
 20
-431.0738316097775
 30
0.0
 11
-240.3988098453829
 21
-431.0738316097775
 31
0.0
  0
LINE
  5
2D7
330
1F
100
AcDbEntity
  8
D-0
  6
Continuous
 62
     7
370
     5
100
AcDbLine
 10
-240.3988098453829
 20
-431.0738316097775
 30
0.0
 11
-240.3988098453829
 21
-432.5741138973751
 31
0.0
  0
LINE
  5
2D8
330
1F
100
AcDbEntity
  8
D-0
  6
Continuous
 62
     7
370
     5
100
AcDbLine
 10
-240.3988098453829
 20
-432.5741138973751
 30
0.0
 11
-241.8988441776582
 21
-432.5741138973751
 31
0.0
  0
LINE
  5
2D9
330
1F
100
AcDbEntity
  8
D-0
  6
Continuous
 62
     7
370
     5
100
AcDbLine
 10
-311.0095524143526
 20
-268.6829534092465
 30
0.0
 11
-311.0095524143526
 21
-267.1826735058346
 31
0.0
  0
LINE
  5
2DA
330
1F
100
AcDbEntity
  8
D-0
  6
Continuous
 62
     7
370
     5
100
AcDbLine
 10
-311.0095524143526
 20
-267.1826735058346
 30
0.0
 11
-309.5095180820772
 21
-267.1826735058346
 31
0.0
  0
LINE
  5
2DB
330
1F
100
AcDbEntity
  8
D-0
  6
Continuous
 62
     7
370
     5
100
AcDbLine
 10
-309.5095180820772
 20
-267.1826735058346
 30
0.0
 11
-309.5095180820772
 21
-268.6829534092465
 31
0.0
  0
LINE
  5
2DC
330
1F
100
AcDbEntity
  8
D-0
  6
Continuous
 62
     7
370
     5
100
AcDbLine
 10
-309.5095180820772
 20
-268.6829534092465
 30
0.0
 11
-311.0095524143526
 21
-268.6829534092465
 31
0.0
  0
LINE
  5
2DD
330
1F
100
AcDbEntity
  8
D-0
  6
Continuous
 62
     7
370
     5
100
AcDbLine
 10
-526.2399505924532
 20
-521.4304867306271
 30
0.0
 11
-526.2399505924532
 21
-519.9302235165158
 31
0.0
  0
LINE
  5
2DE
330
1F
100
AcDbEntity
  8
D-0
  6
Continuous
 62
     7
370
     5
100
AcDbLine
 10
-526.2399505924532
 20
-519.9302235165158
 30
0.0
 11
-524.7399162601778
 21
-519.9302235165158
 31
0.0
  0
LINE
  5
2DF
330
1F
100
AcDbEntity
  8
D-0
  6
Continuous
 62
     7
370
     5
100
AcDbLine
 10
-524.7399162601778
 20
-519.9302235165158
 30
0.0
 11
-524.7399162601778
 21
-521.4304867306271
 31
0.0
  0
LINE
  5
2E0
330
1F
100
AcDbEntity
  8
D-0
  6
Continuous
 62
     7
370
     5
100
AcDbLine
 10
-524.7399162601778
 20
-521.4304867306271
 30
0.0
 11
-526.2399505924532
 21
-521.4304867306271
 31
0.0
  0
LINE
  5
2E1
330
1F
100
AcDbEntity
  8
D-0
  6
Continuous
 62
     7
370
     5
100
AcDbLine
 10
-506.4940332722017
 20
-347.6666203060665
 30
0.0
 11
-506.4940332722017
 21
-346.1663380184689
 31
0.0
  0
LINE
  5
2E2
330
1F
100
AcDbEntity
  8
D-0
  6
Continuous
 62
     7
370
     5
100
AcDbLine
 10
-506.4940332722017
 20
-346.1663380184689
 30
0.0
 11
-504.9940037082979
 21
-346.1663380184689
 31
0.0
  0
LINE
  5
2E3
330
1F
100
AcDbEntity
  8
D-0
  6
Continuous
 62
     7
370
     5
100
AcDbLine
 10
-504.9940037082979
 20
-346.1663380184689
 30
0.0
 11
-504.9940037082979
 21
-347.6666203060665
 31
0.0
  0
LINE
  5
2E4
330
1F
100
AcDbEntity
  8
D-0
  6
Continuous
 62
     7
370
     5
100
AcDbLine
 10
-504.9940037082979
 20
-347.6666203060665
 30
0.0
 11
-506.4940332722017
 21
-347.6666203060665
 31
0.0
  0
LINE
  5
2E5
330
1F
100
AcDbEntity
  8
D-0
  6
Continuous
 62
     7
370
     5
100
AcDbLine
 10
-495.1190590214082
 20
-379.659532598547
 30
0.0
 11
-495.1190590214082
 21
-378.1592598476925
 31
0.0
  0
LINE
  5
2E6
330
1F
100
AcDbEntity
  8
D-0
  6
Continuous
 62
     7
370
     5
100
AcDbLine
 10
-495.1190590214082
 20
-378.1592598476925
 30
0.0
 11
-493.6190294575044
 21
-378.1592598476925
 31
0.0
  0
LINE
  5
2E7
330
1F
100
AcDbEntity
  8
D-0
  6
Continuous
 62
     7
370
     5
100
AcDbLine
 10
-493.6190294575044
 20
-378.1592598476925
 30
0.0
 11
-493.6190294575044
 21
-379.659532598547
 31
0.0
  0
LINE
  5
2E8
330
1F
100
AcDbEntity
  8
D-0
  6
Continuous
 62
     7
370
     5
100
AcDbLine
 10
-493.6190294575044
 20
-379.659532598547
 30
0.0
 11
-495.1190590214082
 21
-379.659532598547
 31
0.0
  0
LINE
  5
2E9
330
1F
100
AcDbEntity
  8
D-0
  6
Continuous
 62
     7
370
     5
100
AcDbLine
 10
-439.358014250929
 20
-490.9908810177365
 30
0.0
 11
-439.358014250929
 21
-489.4905987301388
 31
0.0
  0
LINE
  5
2EA
330
1F
100
AcDbEntity
  8
D-0
  6
Continuous
 62
     7
370
     5
100
AcDbLine
 10
-439.358014250929
 20
-489.4905987301388
 30
0.0
 11
-437.857982489104
 21
-489.4905987301388
 31
0.0
  0
LINE
  5
2EB
330
1F
100
AcDbEntity
  8
D-0
  6
Continuous
 62
     7
370
     5
100
AcDbLine
 10
-437.857982489104
 20
-489.4905987301388
 30
0.0
 11
-437.857982489104
 21
-490.9908810177365
 31
0.0
  0
LINE
  5
2EC
330
1F
100
AcDbEntity
  8
D-0
  6
Continuous
 62
     7
370
     5
100
AcDbLine
 10
-437.857982489104
 20
-490.9908810177365
 30
0.0
 11
-439.358014250929
 21
-490.9908810177365
 31
0.0
  0
LINE
  5
2ED
330
1F
100
AcDbEntity
  8
D-0
  6
Continuous
 62
     7
370
     5
100
AcDbLine
 10
-498.5956405948946
 20
-513.5322323360958
 30
0.0
 11
-498.5956405948946
 21
-512.0319500484982
 31
0.0
  0
LINE
  5
2EE
330
1F
100
AcDbEntity
  8
D-0
  6
Continuous
 62
     7
370
     5
100
AcDbLine
 10
-498.5956405948946
 20
-512.0319500484982
 30
0.0
 11
-497.0956110309908
 21
-512.0319500484982
 31
0.0
  0
LINE
  5
2EF
330
1F
100
AcDbEntity
  8
D-0
  6
Continuous
 62
     7
370
     5
100
AcDbLine
 10
-497.0956110309908
 20
-512.0319500484982
 30
0.0
 11
-497.0956110309908
 21
-513.5322323360958
 31
0.0
  0
LINE
  5
2F0
330
1F
100
AcDbEntity
  8
D-0
  6
Continuous
 62
     7
370
     5
100
AcDbLine
 10
-497.0956110309908
 20
-513.5322323360958
 30
0.0
 11
-498.5956405948946
 21
-513.5322323360958
 31
0.0
  0
LINE
  5
2F1
330
1F
100
AcDbEntity
  8
D-0
  6
Continuous
 62
     7
370
     5
100
AcDbLine
 10
-486.7481159519502
 20
-586.5920582333126
 30
0.0
 11
-486.7481159519502
 21
-585.091775945715
 31
0.0
  0
LINE
  5
2F2
330
1F
100
AcDbEntity
  8
D-0
  6
Continuous
 62
     7
370
     5
100
AcDbLine
 10
-486.7481159519502
 20
-585.091775945715
 30
0.0
 11
-485.2480863880464
 21
-585.091775945715
 31
0.0
  0
LINE
  5
2F3
330
1F
100
AcDbEntity
  8
D-0
  6
Continuous
 62
     7
370
     5
100
AcDbLine
 10
-485.2480863880464
 20
-585.091775945715
 30
0.0
 11
-485.2480863880464
 21
-586.5920582333126
 31
0.0
  0
LINE
  5
2F4
330
1F
100
AcDbEntity
  8
D-0
  6
Continuous
 62
     7
370
     5
100
AcDbLine
 10
-485.2480863880464
 20
-586.5920582333126
 30
0.0
 11
-486.7481159519502
 21
-586.5920582333126
 31
0.0
  0
LINE
  5
2F5
330
1F
100
AcDbEntity
  8
D-0
  6
Continuous
 62
     7
370
     5
100
AcDbLine
 10
-535.1253151249239
 20
-585.6045856991329
 30
0.0
 11
-535.1253151249239
 21
-584.1043034115353
 31
0.0
  0
LINE
  5
2F6
330
1F
100
AcDbEntity
  8
D-0
  6
Continuous
 62
     7
370
     5
100
AcDbLine
 10
-535.1253151249239
 20
-584.1043034115353
 30
0.0
 11
-533.6252807926485
 21
-584.1043034115353
 31
0.0
  0
LINE
  5
2F7
330
1F
100
AcDbEntity
  8
D-0
  6
Continuous
 62
     7
370
     5
100
AcDbLine
 10
-533.6252807926485
 20
-584.1043034115353
 30
0.0
 11
-533.6252807926485
 21
-585.6045856991329
 31
0.0
  0
LINE
  5
2F8
330
1F
100
AcDbEntity
  8
D-0
  6
Continuous
 62
     7
370
     5
100
AcDbLine
 10
-533.6252807926485
 20
-585.6045856991329
 30
0.0
 11
-535.1253151249239
 21
-585.6045856991329
 31
0.0
  0
LINE
  5
2F9
330
1F
100
AcDbEntity
  8
D-0
  6
Continuous
 62
     7
370
     5
100
AcDbLine
 10
-522.1723961185762
 20
-704.7103443661251
 30
0.0
 11
-522.1723961185762
 21
-703.2100620785275
 31
0.0
  0
LINE
  5
2FA
330
1F
100
AcDbEntity
  8
D-0
  6
Continuous
 62
     7
370
     5
100
AcDbLine
 10
-522.1723961185762
 20
-703.2100620785275
 30
0.0
 11
-520.672371323044
 21
-703.2100620785275
 31
0.0
  0
LINE
  5
2FB
330
1F
100
AcDbEntity
  8
D-0
  6
Continuous
 62
     7
370
     5
100
AcDbLine
 10
-520.672371323044
 20
-703.2100620785275
 30
0.0
 11
-520.672371323044
 21
-704.7103443661251
 31
0.0
  0
LINE
  5
2FC
330
1F
100
AcDbEntity
  8
D-0
  6
Continuous
 62
     7
370
     5
100
AcDbLine
 10
-520.672371323044
 20
-704.7103443661251
 30
0.0
 11
-522.1723961185762
 21
-704.7103443661251
 31
0.0
  0
LINE
  5
2FD
330
1F
100
AcDbEntity
  8
D-0
  6
Continuous
 62
     7
370
     5
100
AcDbLine
 10
-471.6465997051546
 20
-734.2179813900509
 30
0.0
 11
-471.6465997051546
 21
-732.7176991024533
 31
0.0
  0
LINE
  5
2FE
330
1F
100
AcDbEntity
  8
D-0
  6
Continuous
 62
     7
370
     5
100
AcDbLine
 10
-471.6465997051546
 20
-732.7176991024533
 30
0.0
 11
-470.146567757065
 21
-732.7176991024533
 31
0.0
  0
LINE
  5
2FF
330
1F
100
AcDbEntity
  8
D-0
  6
Continuous
 62
     7
370
     5
100
AcDbLine
 10
-470.146567757065
 20
-732.7176991024533
 30
0.0
 11
-470.146567757065
 21
-734.2179813900509
 31
0.0
  0
LINE
  5
300
330
1F
100
AcDbEntity
  8
D-0
  6
Continuous
 62
     7
370
     5
100
AcDbLine
 10
-470.146567757065
 20
-734.2179813900509
 30
0.0
 11
-471.6465997051546
 21
-734.2179813900509
 31
0.0
  0
LINE
  5
301
330
1F
100
AcDbEntity
  8
D-0
  6
Continuous
 62
     7
370
     5
100
AcDbLine
 10
-435.4087565194914
 20
-658.4885349789181
 30
0.0
 11
-435.4087565194914
 21
-656.9882908382931
 31
0.0
  0
LINE
  5
302
330
1F
100
AcDbEntity
  8
D-0
  6
Continuous
 62
     7
370
     5
100
AcDbLine
 10
-435.4087565194914
 20
-656.9882908382931
 30
0.0
 11
-433.9087247204134
 21
-656.9882908382931
 31
0.0
  0
LINE
  5
303
330
1F
100
AcDbEntity
  8
D-0
  6
Continuous
 62
     7
370
     5
100
AcDbLine
 10
-433.9087247204134
 20
-656.9882908382931
 30
0.0
 11
-433.9087247204134
 21
-658.4885349789181
 31
0.0
  0
LINE
  5
304
330
1F
100
AcDbEntity
  8
D-0
  6
Continuous
 62
     7
370
     5
100
AcDbLine
 10
-433.9087247204134
 20
-658.4885349789181
 30
0.0
 11
-435.4087565194914
 21
-658.4885349789181
 31
0.0
  0
LINE
  5
305
330
1F
100
AcDbEntity
  8
D-0
  6
Continuous
 62
     7
370
     5
100
AcDbLine
 10
-552.4414562534639
 20
-540.4252758541622
 30
0.0
 11
-552.4414562534639
 21
-538.9249935665646
 31
0.0
  0
LINE
  5
306
330
1F
100
AcDbEntity
  8
D-0
  6
Continuous
 62
     7
370
     5
100
AcDbLine
 10
-552.4414562534639
 20
-538.9249935665646
 30
0.0
 11
-550.9414219211885
 21
-538.9249935665646
 31
0.0
  0
LINE
  5
307
330
1F
100
AcDbEntity
  8
D-0
  6
Continuous
 62
     7
370
     5
100
AcDbLine
 10
-550.9414219211885
 20
-538.9249935665646
 30
0.0
 11
-550.9414219211885
 21
-540.4252758541622
 31
0.0
  0
LINE
  5
308
330
1F
100
AcDbEntity
  8
D-0
  6
Continuous
 62
     7
370
     5
100
AcDbLine
 10
-550.9414219211885
 20
-540.4252758541622
 30
0.0
 11
-552.4414562534639
 21
-540.4252758541622
 31
0.0
  0
LINE
  5
309
330
1F
100
AcDbEntity
  8
D-0
  6
Continuous
 62
     7
370
     5
100
AcDbLine
 10
-210.0316452335665
 20
-388.6953964748898
 30
0.0
 11
-210.0316452335665
 21
-387.1951237240353
 31
0.0
  0
LINE
  5
30A
330
1F
100
AcDbEntity
  8
D-0
  6
Continuous
 62
     7
370
     5
100
AcDbLine
 10
-210.0316452335665
 20
-387.1951237240353
 30
0.0
 11
-208.5316299747774
 21
-387.1951237240353
 31
0.0
  0
LINE
  5
30B
330
1F
100
AcDbEntity
  8
D-0
  6
Continuous
 62
     7
370
     5
100
AcDbLine
 10
-208.5316299747774
 20
-387.1951237240353
 30
0.0
 11
-208.5316299747774
 21
-388.6953964748898
 31
0.0
  0
LINE
  5
30C
330
1F
100
AcDbEntity
  8
D-0
  6
Continuous
 62
     7
370
     5
100
AcDbLine
 10
-208.5316299747774
 20
-388.6953964748898
 30
0.0
 11
-210.0316452335665
 21
-388.6953964748898
 31
0.0
  0
LINE
  5
30D
330
1F
100
AcDbEntity
  8
D-0
  6
Continuous
 62
     7
370
     5
100
AcDbLine
 10
-435.5197414111444
 20
-584.1593113461056
 30
0.0
 11
-435.5197414111444
 21
-582.6590290585079
 31
0.0
  0
LINE
  5
30E
330
1F
100
AcDbEntity
  8
D-0
  6
Continuous
 62
     7
370
     5
100
AcDbLine
 10
-435.5197414111444
 20
-582.6590290585079
 30
0.0
 11
-434.019709761078
 21
-582.6590290585079
 31
0.0
  0
LINE
  5
30F
330
1F
100
AcDbEntity
  8
D-0
  6
Continuous
 62
     7
370
     5
100
AcDbLine
 10
-434.019709761078
 20
-582.6590290585079
 30
0.0
 11
-434.019709761078
 21
-584.1593113461056
 31
0.0
  0
LINE
  5
310
330
1F
100
AcDbEntity
  8
D-0
  6
Continuous
 62
     7
370
     5
100
AcDbLine
 10
-434.019709761078
 20
-584.1593113461056
 30
0.0
 11
-435.5197414111444
 21
-584.1593113461056
 31
0.0
  0
LINE
  5
311
330
1F
100
AcDbEntity
  8
D-0
  6
Continuous
 62
     7
370
     5
100
AcDbLine
 10
-460.249950821335
 20
-707.5052967587033
 30
0.0
 11
-460.249950821335
 21
-706.0050144711056
 31
0.0
  0
LINE
  5
312
330
1F
100
AcDbEntity
  8
D-0
  6
Continuous
 62
     7
370
     5
100
AcDbLine
 10
-460.249950821335
 20
-706.0050144711056
 30
0.0
 11
-458.7499188732454
 21
-706.0050144711056
 31
0.0
  0
LINE
  5
313
330
1F
100
AcDbEntity
  8
D-0
  6
Continuous
 62
     7
370
     5
100
AcDbLine
 10
-458.7499188732454
 20
-706.0050144711056
 30
0.0
 11
-458.7499188732454
 21
-707.5052967587033
 31
0.0
  0
LINE
  5
314
330
1F
100
AcDbEntity
  8
D-0
  6
Continuous
 62
     7
370
     5
100
AcDbLine
 10
-458.7499188732454
 20
-707.5052967587033
 30
0.0
 11
-460.249950821335
 21
-707.5052967587033
 31
0.0
  0
LINE
  5
315
330
1F
100
AcDbEntity
  8
D-0
  6
Continuous
 62
     7
370
     5
100
AcDbLine
 10
-219.3151306461641
 20
-460.1350536861935
 30
0.0
 11
-219.3151306461641
 21
-458.6347904720822
 31
0.0
  0
LINE
  5
316
330
1F
100
AcDbEntity
  8
D-0
  6
Continuous
 62
     7
370
     5
100
AcDbLine
 10
-219.3151306461641
 20
-458.6347904720822
 30
0.0
 11
-217.8150963138887
 21
-458.6347904720822
 31
0.0
  0
LINE
  5
317
330
1F
100
AcDbEntity
  8
D-0
  6
Continuous
 62
     7
370
     5
100
AcDbLine
 10
-217.8150963138887
 20
-458.6347904720822
 30
0.0
 11
-217.8150963138887
 21
-460.1350536861935
 31
0.0
  0
LINE
  5
318
330
1F
100
AcDbEntity
  8
D-0
  6
Continuous
 62
     7
370
     5
100
AcDbLine
 10
-217.8150963138887
 20
-460.1350536861935
 30
0.0
 11
-219.3151306461641
 21
-460.1350536861935
 31
0.0
  0
LINE
  5
319
330
1F
100
AcDbEntity
  8
D-0
  6
Continuous
 62
     7
370
     5
100
AcDbLine
 10
-431.9350247930834
 20
-381.6339817562618
 30
0.0
 11
-431.9350247930834
 21
-380.1336994686642
 31
0.0
  0
LINE
  5
31A
330
1F
100
AcDbEntity
  8
D-0
  6
Continuous
 62
     7
370
     5
100
AcDbLine
 10
-431.9350247930834
 20
-380.1336994686642
 30
0.0
 11
-430.4349934410402
 21
-380.1336994686642
 31
0.0
  0
LINE
  5
31B
330
1F
100
AcDbEntity
  8
D-0
  6
Continuous
 62
     7
370
     5
100
AcDbLine
 10
-430.4349934410402
 20
-380.1336994686642
 30
0.0
 11
-430.4349934410402
 21
-381.6339817562618
 31
0.0
  0
LINE
  5
31C
330
1F
100
AcDbEntity
  8
D-0
  6
Continuous
 62
     7
370
     5
100
AcDbLine
 10
-430.4349934410402
 20
-381.6339817562618
 30
0.0
 11
-431.9350247930834
 21
-381.6339817562618
 31
0.0
  0
LINE
  5
31D
330
1F
100
AcDbEntity
  8
D-0
  6
Continuous
 62
     7
370
     5
100
AcDbLine
 10
-519.060276523428
 20
-425.919832645816
 30
0.0
 11
-519.060276523428
 21
-424.4195598949615
 31
0.0
  0
LINE
  5
31E
330
1F
100
AcDbEntity
  8
D-0
  6
Continuous
 62
     7
370
     5
100
AcDbLine
 10
-519.060276523428
 20
-424.4195598949615
 30
0.0
 11
-517.5602469595242
 21
-424.4195598949615
 31
0.0
  0
LINE
  5
31F
330
1F
100
AcDbEntity
  8
D-0
  6
Continuous
 62
     7
370
     5
100
AcDbLine
 10
-517.5602469595242
 20
-424.4195598949615
 30
0.0
 11
-517.5602469595242
 21
-425.919832645816
 31
0.0
  0
LINE
  5
320
330
1F
100
AcDbEntity
  8
D-0
  6
Continuous
 62
     7
370
     5
100
AcDbLine
 10
-517.5602469595242
 20
-425.919832645816
 30
0.0
 11
-519.060276523428
 21
-425.919832645816
 31
0.0
  0
LINE
  5
321
330
1F
100
AcDbEntity
  8
D-0
  6
Continuous
 62
     7
370
     5
100
AcDbLine
 10
-466.2818724955456
 20
-430.9198919747733
 30
0.0
 11
-466.2818724955456
 21
-429.4196192239189
 31
0.0
  0
LINE
  5
322
330
1F
100
AcDbEntity
  8
D-0
  6
Continuous
 62
     7
370
     5
100
AcDbLine
 10
-466.2818724955456
 20
-429.4196192239189
 30
0.0
 11
-464.7818429316418
 21
-429.4196192239189
 31
0.0
  0
LINE
  5
323
330
1F
100
AcDbEntity
  8
D-0
  6
Continuous
 62
     7
370
     5
100
AcDbLine
 10
-464.7818429316418
 20
-429.4196192239189
 30
0.0
 11
-464.7818429316418
 21
-430.9198919747733
 31
0.0
  0
LINE
  5
324
330
1F
100
AcDbEntity
  8
D-0
  6
Continuous
 62
     7
370
     5
100
AcDbLine
 10
-464.7818429316418
 20
-430.9198919747733
 30
0.0
 11
-466.2818724955456
 21
-430.9198919747733
 31
0.0
  0
LINE
  5
325
330
1F
100
AcDbEntity
  8
D-0
  6
Continuous
 62
     7
370
     5
100
AcDbLine
 10
-450.7261323610118
 20
-407.5862817729727
 30
0.0
 11
-450.7261323610118
 21
-406.0860090221182
 31
0.0
  0
LINE
  5
326
330
1F
100
AcDbEntity
  8
D-0
  6
Continuous
 62
     7
370
     5
100
AcDbLine
 10
-450.7261323610118
 20
-406.0860090221182
 30
0.0
 11
-449.226102797108
 21
-406.0860090221182
 31
0.0
  0
LINE
  5
327
330
1F
100
AcDbEntity
  8
D-0
  6
Continuous
 62
     7
370
     5
100
AcDbLine
 10
-449.226102797108
 20
-406.0860090221182
 30
0.0
 11
-449.226102797108
 21
-407.5862817729727
 31
0.0
  0
LINE
  5
328
330
1F
100
AcDbEntity
  8
D-0
  6
Continuous
 62
     7
370
     5
100
AcDbLine
 10
-449.226102797108
 20
-407.5862817729727
 30
0.0
 11
-450.7261323610118
 21
-407.5862817729727
 31
0.0
  0
LINE
  5
329
330
1F
100
AcDbEntity
  8
C-1
  6
Continuous
 62
     2
370
     5
100
AcDbLine
 10
-885.1895860723546
 20
789.648701435811
 30
0.0
 11
615.8108131305595
 21
789.648701435811
 31
0.0
  0
ENDSEC
  0
SECTION
  2
OBJECTS
  0
DICTIONARY
  5
C
330
0
100
AcDbDictionary
281
     1
  3
ACAD_GROUP
350
D
  3
ACAD_LAYOUT
350
1A
  3
ACAD_MLEADERSTYLE
350
32B
  3
ACAD_MLINESTYLE
350
17
  3
ACAD_PLOTSETTINGS
350
19
  3
ACAD_PLOTSTYLENAME
350
E
  3
ACAD_TABLESTYLE
350
32A
  3
ACAD_VISUALSTYLE
350
2A
  3
AcDbVariableDictionary
350
32C
  0
DICTIONARY
  5
D
102
{ACAD_REACTORS
330
C
102
}
330
C
100
AcDbDictionary
281
     1
  0
DICTIONARY
  5
1A
102
{ACAD_REACTORS
330
C
102
}
330
C
100
AcDbDictionary
281
     1
  3
Layout1
350
1E
  3
Layout2
350
26
  3
Model
350
22
  0
DICTIONARY
  5
32B
102
{ACAD_REACTORS
330
C
102
}
330
C
100
AcDbDictionary
281
     1
  0
DICTIONARY
  5
17
102
{ACAD_REACTORS
330
C
102
}
330
C
100
AcDbDictionary
281
     1
  3
Standard
350
18
  0
DICTIONARY
  5
19
102
{ACAD_REACTORS
330
C
102
}
330
C
100
AcDbDictionary
281
     1
  0
ACDBDICTIONARYWDFLT
  5
E
102
{ACAD_REACTORS
330
C
102
}
330
C
100
AcDbDictionary
281
     1
  3
Normal
350
F
100
AcDbDictionaryWithDefault
340
F
  0
DICTIONARY
  5
32A
102
{ACAD_REACTORS
330
C
102
}
330
C
100
AcDbDictionary
281
     1
  0
DICTIONARY
  5
2A
102
{ACAD_REACTORS
330
C
102
}
330
C
100
AcDbDictionary
281
     1
  3
2dWireframe
350
2F
  3
3D Hidden
350
31
  3
3dWireframe
350
30
  3
Basic
350
32
  3
Brighten
350
36
  3
ColorChange
350
3A
  3
Conceptual
350
34
  3
Dim
350
35
  3
Facepattern
350
39
  3
Flat
350
2B
  3
FlatWithEdges
350
2C
  3
Gouraud
350
2D
  3
GouraudWithEdges
350
2E
  3
Linepattern
350
38
  3
Realistic
350
33
  3
Thicken
350
37
  0
DICTIONARY
  5
32C
102
{ACAD_REACTORS
330
C
102
}
330
C
100
AcDbDictionary
281
     1
  3
PSOLHEIGHT
350
32E
  3
PSOLWIDTH
350
32D
  0
LAYOUT
  5
1E
102
{ACAD_REACTORS
330
1A
102
}
102
{ACAD_XDICTIONARY
360
32F
102
}
330
1A
100
AcDbPlotSettings
  1

  2
none_device
  4

  6

 40
0.0
 41
0.0
 42
0.0
 43
0.0
 44
0.0
 45
0.0
 46
0.0
 47
0.0
 48
0.0
 49
0.0
140
0.0
141
0.0
142
1.0
143
1.0
 70
   688
 72
     0
 73
     0
 74
     5
  7

 75
    16
147
1.0
148
0.0
149
0.0
100
AcDbLayout
  1
Layout1
 70
     1
 71
     1
 10
0.0
 20
0.0
 11
420.0
 21
297.0
 12
0.0
 22
0.0
 32
0.0
 14
1.000000000000000E+20
 24
1.000000000000000E+20
 34
1.000000000000000E+20
 15
-1.000000000000000E+20
 25
-1.000000000000000E+20
 35
-1.000000000000000E+20
146
0.0
 13
0.0
 23
0.0
 33
0.0
 16
1.0
 26
0.0
 36
0.0
 17
0.0
 27
1.0
 37
0.0
 76
     0
330
1B
  0
LAYOUT
  5
26
102
{ACAD_REACTORS
330
1A
102
}
102
{ACAD_XDICTIONARY
360
333
102
}
330
1A
100
AcDbPlotSettings
  1

  2
none_device
  4

  6

 40
0.0
 41
0.0
 42
0.0
 43
0.0
 44
0.0
 45
0.0
 46
0.0
 47
0.0
 48
0.0
 49
0.0
140
0.0
141
0.0
142
1.0
143
1.0
 70
   688
 72
     0
 73
     0
 74
     5
  7

 75
    16
147
1.0
148
0.0
149
0.0
100
AcDbLayout
  1
Layout2
 70
     1
 71
     2
 10
0.0
 20
0.0
 11
0.0
 21
0.0
 12
0.0
 22
0.0
 32
0.0
 14
0.0
 24
0.0
 34
0.0
 15
0.0
 25
0.0
 35
0.0
146
0.0
 13
0.0
 23
0.0
 33
0.0
 16
1.0
 26
0.0
 36
0.0
 17
0.0
 27
1.0
 37
0.0
 76
     0
330
23
  0
LAYOUT
  5
22
102
{ACAD_REACTORS
330
1A
102
}
102
{ACAD_XDICTIONARY
360
331
102
}
330
1A
100
AcDbPlotSettings
  1

  2
none_device
  4

  6

 40
0.0
 41
0.0
 42
0.0
 43
0.0
 44
0.0
 45
0.0
 46
0.0
 47
0.0
 48
0.0
 49
0.0
140
0.0
141
0.0
142
1.0
143
1.0
 70
  1712
 72
     0
 73
     0
 74
     0
  7

 75
     0
147
1.0
148
0.0
149
0.0
100
AcDbLayout
  1
Model
 70
     1
 71
     0
 10
-2100.0
 20
-1485.0
 11
2100.0
 21
1485.0
 12
0.0
 22
0.0
 32
0.0
 14
-2100.0
 24
-1485.0
 34
0.0
 15
2100.0
 25
1485.0
 35
0.0
146
0.0
 13
0.0
 23
0.0
 33
0.0
 16
1.0
 26
0.0
 36
0.0
 17
0.0
 27
1.0
 37
0.0
 76
     0
330
1F
331
29
  0
MLINESTYLE
  5
18
102
{ACAD_REACTORS
330
17
102
}
330
17
100
AcDbMlineStyle
  2
Standard
 70
     0
  3

 62
   256
 51
90.0
 52
90.0
 71
     2
 49
0.5
 62
   256
  6
BYLAYER
 49
-0.5
 62
   256
  6
BYLAYER
  0
ACDBPLACEHOLDER
  5
F
102
{ACAD_REACTORS
330
E
102
}
330
E
  0
VISUALSTYLE
  5
2F
102
{ACAD_REACTORS
330
2A
102
}
330
2A
100
AcDbVisualStyle
  2
2dWireframe
 70
     4
 71
     0
 72
     2
 73
     0
 90
        0
 40
-0.6
 41
-30.0
 62
     5
 63
     7
 74
     1
 91
        4
 64
     7
 65
   257
 75
     1
175
     1
 42
1.0
 92
        0
 66
   257
 43
1.0
 76
     1
 77
     6
 78
     2
 67
     7
 79
     5
170
     0
171
     0
290
     0
174
     0
 93
        1
 44
0.0
173
     0
291
     0
 45
0.0
1001
ACAD
1000
AcDbSavedByObjectVersion
1070
     0
  0
VISUALSTYLE
  5
31
102
{ACAD_REACTORS
330
2A
102
}
330
2A
100
AcDbVisualStyle
  2
3D Hidden
 70
     6
 71
     1
 72
     2
 73
     2
 90
        0
 40
-0.6
 41
-30.0
 62
     5
 63
     7
 74
     2
 91
        2
 64
     7
 65
   257
 75
     2
175
     1
 42
40.0
 92
        0
 66
   257
 43
1.0
 76
     1
 77
     6
 78
     2
 67
     7
 79
     3
170
     0
171
     0
290
     0
174
     0
 93
        1
 44
0.0
173
     0
291
     0
 45
0.0
1001
ACAD
1000
AcDbSavedByObjectVersion
1070
     0
  0
VISUALSTYLE
  5
30
102
{ACAD_REACTORS
330
2A
102
}
330
2A
100
AcDbVisualStyle
  2
3dWireframe
 70
     5
 71
     0
 72
     2
 73
     0
 90
        0
 40
-0.6
 41
-30.0
 62
     5
 63
     7
 74
     1
 91
        4
 64
     7
 65
   257
 75
     1
175
     1
 42
1.0
 92
        0
 66
   257
 43
1.0
 76
     1
 77
     6
 78
     2
 67
     7
 79
     5
170
     0
171
     0
290
     0
174
     0
 93
        1
 44
0.0
173
     0
291
     0
 45
0.0
1001
ACAD
1000
AcDbSavedByObjectVersion
1070
     0
  0
VISUALSTYLE
  5
32
102
{ACAD_REACTORS
330
2A
102
}
330
2A
100
AcDbVisualStyle
  2
Basic
 70
     7
 71
     1
 72
     0
 73
     1
 90
        0
 40
-0.6
 41
-30.0
 62
     5
 63
     7
 74
     0
 91
        4
 64
     7
 65
   257
 75
     1
175
     1
 42
1.0
 92
        8
 66
     7
 43
1.0
 76
     1
 77
     6
 78
     2
 67
     7
 79
     5
170
     0
171
     0
290
     0
174
     0
 93
        1
 44
0.0
173
     0
291
     1
 45
0.0
1001
ACAD
1000
AcDbSavedByObjectVersion
1070
     0
  0
VISUALSTYLE
  5
36
102
{ACAD_REACTORS
330
2A
102
}
330
2A
100
AcDbVisualStyle
  2
Brighten
 70
    12
 71
     2
 72
     2
 73
     0
 90
        0
 40
-0.6
 41
-30.0
 62
     5
 63
     7
 74
     1
 91
        4
 64
     7
 65
   257
 75
     1
175
     1
 42
1.0
 92
        8
 66
     7
 43
1.0
 76
     1
 77
     6
 78
     2
 67
     7
 79
     5
170
     0
171
     0
290
     0
174
     0
 93
        1
 44
50.0
173
     0
291
     1
 45
0.0
1001
ACAD
1000
AcDbSavedByObjectVersion
1070
     0
  0
VISUALSTYLE
  5
3A
102
{ACAD_REACTORS
330
2A
102
}
330
2A
100
AcDbVisualStyle
  2
ColorChange
 70
    16
 71
     2
 72
     2
 73
     3
 90
        0
 40
-0.6
 41
-30.0
 62
     5
 63
     8
 74
     1
 91
        4
 64
     7
 65
   257
 75
     1
175
     1
 42
1.0
 92
        8
 66
     8
 43
1.0
 76
     1
 77
     6
 78
     2
 67
     7
 79
     5
170
     0
171
     0
290
     0
174
     0
 93
        1
 44
0.0
173
     0
291
     1
 45
0.0
1001
ACAD
1000
AcDbSavedByObjectVersion
1070
     0
  0
VISUALSTYLE
  5
34
102
{ACAD_REACTORS
330
2A
102
}
330
2A
100
AcDbVisualStyle
  2
Conceptual
 70
     9
 71
     3
 72
     2
 73
     0
 90
        0
 40
-0.6
 41
-30.0
 62
     5
 63
     7
 74
     2
 91
        2
 64
     7
 65
   257
 75
     1
175
     1
 42
40.0
 92
        8
 66
     7
 43
1.0
 76
     1
 77
     6
 78
     2
 67
     7
 79
     3
170
     0
171
     0
290
     0
174
     0
 93
        1
 44
0.0
173
     0
291
     0
 45
0.0
1001
ACAD
1000
AcDbSavedByObjectVersion
1070
     0
  0
VISUALSTYLE
  5
35
102
{ACAD_REACTORS
330
2A
102
}
330
2A
100
AcDbVisualStyle
  2
Dim
 70
    11
 71
     2
 72
     2
 73
     0
 90
        0
 40
-0.6
 41
-30.0
 62
     5
 63
     7
 74
     1
 91
        4
 64
     7
 65
   257
 75
     1
175
     1
 42
1.0
 92
        8
 66
     7
 43
1.0
 76
     1
 77
     6
 78
     2
 67
     7
 79
     5
170
     0
171
     0
290
     0
174
     0
 93
        1
 44
-50.0
173
     0
291
     1
 45
0.0
1001
ACAD
1000
AcDbSavedByObjectVersion
1070
     0
  0
VISUALSTYLE
  5
39
102
{ACAD_REACTORS
330
2A
102
}
330
2A
100
AcDbVisualStyle
  2
Facepattern
 70
    15
 71
     2
 72
     2
 73
     0
 90
        0
 40
-0.6
 41
-30.0
 62
     5
 63
     7
 74
     1
 91
        4
 64
     7
 65
   257
 75
     1
175
     1
 42
1.0
 92
        8
 66
     7
 43
1.0
 76
     1
 77
     6
 78
     2
 67
     7
 79
     5
170
     0
171
     0
290
     0
174
     0
 93
        1
 44
0.0
173
     0
291
     1
 45
0.0
1001
ACAD
1000
AcDbSavedByObjectVersion
1070
     0
  0
VISUALSTYLE
  5
2B
102
{ACAD_REACTORS
330
2A
102
}
330
2A
100
AcDbVisualStyle
  2
Flat
 70
     0
 71
     2
 72
     1
 73
     1
 90
        2
 40
-0.6
 41
30.0
 62
     5
 63
     7
 74
     0
 91
        4
 64
     7
 65
   257
 75
     1
175
     1
 42
1.0
 92
        8
 66
     7
 43
1.0
 76
     1
 77
     6
 78
     2
 67
     7
 79
     5
170
     0
171
     0
290
     0
174
     0
 93
       13
 44
0.0
173
     0
291
     1
 45
0.0
1001
ACAD
1000
AcDbSavedByObjectVersion
1070
     0
  0
VISUALSTYLE
  5
2C
102
{ACAD_REACTORS
330
2A
102
}
330
2A
100
AcDbVisualStyle
  2
FlatWithEdges
 70
     1
 71
     2
 72
     1
 73
     1
 90
        2
 40
-0.6
 41
30.0
 62
     5
 63
     7
 74
     1
 91
        4
 64
     7
 65
   257
 75
     1
175
     1
 42
1.0
 92
        0
 66
   257
 43
1.0
 76
     1
 77
     6
 78
     2
 67
     7
 79
     5
170
     0
171
     0
290
     0
174
     0
 93
       13
 44
0.0
173
     0
291
     1
 45
0.0
1001
ACAD
1000
AcDbSavedByObjectVersion
1070
     0
  0
VISUALSTYLE
  5
2D
102
{ACAD_REACTORS
330
2A
102
}
330
2A
100
AcDbVisualStyle
  2
Gouraud
 70
     2
 71
     2
 72
     2
 73
     1
 90
        2
 40
-0.6
 41
30.0
 62
     5
 63
     7
 74
     0
 91
        4
 64
     7
 65
   257
 75
     1
175
     1
 42
1.0
 92
        0
 66
     7
 43
1.0
 76
     1
 77
     6
 78
     2
 67
     7
 79
     5
170
     0
171
     0
290
     0
174
     0
 93
       13
 44
0.0
173
     0
291
     1
 45
0.0
1001
ACAD
1000
AcDbSavedByObjectVersion
1070
     0
  0
VISUALSTYLE
  5
2E
102
{ACAD_REACTORS
330
2A
102
}
330
2A
100
AcDbVisualStyle
  2
GouraudWithEdges
 70
     3
 71
     2
 72
     2
 73
     1
 90
        2
 40
-0.6
 41
30.0
 62
     5
 63
     7
 74
     1
 91
        4
 64
     7
 65
   257
 75
     1
175
     1
 42
1.0
 92
        0
 66
   257
 43
1.0
 76
     1
 77
     6
 78
     2
 67
     7
 79
     5
170
     0
171
     0
290
     0
174
     0
 93
       13
 44
0.0
173
     0
291
     1
 45
0.0
1001
ACAD
1000
AcDbSavedByObjectVersion
1070
     0
  0
VISUALSTYLE
  5
38
102
{ACAD_REACTORS
330
2A
102
}
330
2A
100
AcDbVisualStyle
  2
Linepattern
 70
    14
 71
     2
 72
     2
 73
     0
 90
        0
 40
-0.6
 41
-30.0
 62
     5
 63
     7
 74
     1
 91
        4
 64
     7
 65
   257
 75
     7
175
     7
 42
1.0
 92
        8
 66
     7
 43
1.0
 76
     1
 77
     6
 78
     2
 67
     7
 79
     5
170
     0
171
     0
290
     0
174
     0
 93
        1
 44
0.0
173
     0
291
     1
 45
0.0
1001
ACAD
1000
AcDbSavedByObjectVersion
1070
     0
  0
VISUALSTYLE
  5
33
102
{ACAD_REACTORS
330
2A
102
}
330
2A
100
AcDbVisualStyle
  2
Realistic
 70
     8
 71
     2
 72
     2
 73
     0
 90
        0
 40
-0.6
 41
-30.0
 62
     5
 63
     7
 74
     1
 91
        0
 64
     7
 65
   257
 75
     1
175
     1
 42
1.0
 92
        8
 66
     8
 43
1.0
 76
     1
 77
     6
 78
     2
 67
     7
 79
     5
170
     0
171
     0
290
     0
174
     0
 93
       13
 44
0.0
173
     0
291
     0
 45
0.0
1001
ACAD
1000
AcDbSavedByObjectVersion
1070
     0
  0
VISUALSTYLE
  5
37
102
{ACAD_REACTORS
330
2A
102
}
330
2A
100
AcDbVisualStyle
  2
Thicken
 70
    13
 71
     2
 72
     2
 73
     0
 90
        0
 40
-0.6
 41
-30.0
 62
     5
 63
     7
 74
     1
 91
        4
 64
     7
 65
   257
 75
     1
175
     1
 42
1.0
 92
       12
 66
     7
 43
1.0
 76
     1
 77
     6
 78
     2
 67
     7
 79
     5
170
     0
171
     0
290
     0
174
     0
 93
        1
 44
0.0
173
     0
291
     1
 45
0.0
1001
ACAD
1000
AcDbSavedByObjectVersion
1070
     0
  0
DICTIONARYVAR
  5
32E
102
{ACAD_REACTORS
330
32C
102
}
330
32C
100
DictionaryVariables
280
     0
  1
80.000000
  0
DICTIONARYVAR
  5
32D
102
{ACAD_REACTORS
330
32C
102
}
330
32C
100
DictionaryVariables
280
     0
  1
5.000000
  0
DICTIONARY
  5
32F
330
1E
100
AcDbDictionary
280
     1
281
     1
  3
ACAD_XREC_ROUNDTRIP
360
330
  0
DICTIONARY
  5
333
330
26
100
AcDbDictionary
280
     1
281
     1
  3
ACAD_XREC_ROUNDTRIP
360
334
  0
DICTIONARY
  5
331
330
22
100
AcDbDictionary
280
     1
281
     1
  3
ACAD_XREC_ROUNDTRIP
360
332
  0
XRECORD
  5
330
102
{ACAD_REACTORS
330
32F
102
}
330
32F
100
AcDbXrecord
280
     1
102
SHADEPLOT
 70
     0
102
SHADEPLOTRESLEVEL
 70
     5
102
SHADEPLOTCUSTOMDPI
 70
   300
  0
XRECORD
  5
334
102
{ACAD_REACTORS
330
333
102
}
330
333
100
AcDbXrecord
280
     1
102
SHADEPLOT
 70
     0
102
SHADEPLOTRESLEVEL
 70
     5
102
SHADEPLOTCUSTOMDPI
 70
   300
  0
XRECORD
  5
332
102
{ACAD_REACTORS
330
331
102
}
330
331
100
AcDbXrecord
280
     1
102
SHADEPLOT
 70
     0
102
SHADEPLOTRESLEVEL
 70
     5
102
SHADEPLOTCUSTOMDPI
 70
   300
  0
ENDSEC
  0
EOF
