  0
SECTION
  2
HEADER
  9
$ACADVER
  1
AC1015
  9
$ACADMAINTVER
 70
     6
  9
$DWGCODEPAGE
  3
ANSI_932
  9
$INSBASE
 10
0.0
 20
0.0
 30
0.0
  9
$EXTMIN
 10
-2100.0
 20
-1485.0
 30
0.0
  9
$EXTMAX
 10
2100.0
 20
1485.0
 30
0.0
  9
$LIMMIN
 10
-2100.0
 20
-1485.0
  9
$LIMMAX
 10
2100.0
 20
1485.0
  9
$ORTHOMODE
 70
     0
  9
$REGENMODE
 70
     1
  9
$FILLMODE
 70
     1
  9
$QTEXTMODE
 70
     0
  9
$MIRRTEXT
 70
     1
  9
$LTSCALE
 40
10.0
  9
$ATTMODE
 70
     1
  9
$TEXTSIZE
 40
2.5
  9
$TRACEWID
 40
1.0
  9
$TEXTSTYLE
  7
Standard
  9
$CLAYER
  8
0
  9
$CELTYPE
  6
ByLayer
  9
$CECOLOR
 62
   256
  9
$CELTSCALE
 40
1.0
  9
$DISPSILH
 70
     0
  9
$DIMSCALE
 40
1.0
  9
$DIMASZ
 40
2.5
  9
$DIMEXO
 40
0.625
  9
$DIMDLI
 40
3.75
  9
$DIMRND
 40
0.0
  9
$DIMDLE
 40
0.0
  9
$DIMEXE
 40
1.25
  9
$DIMTP
 40
0.0
  9
$DIMTM
 40
0.0
  9
$DIMTXT
 40
2.5
  9
$DIMCEN
 40
2.5
  9
$DIMTSZ
 40
0.0
  9
$DIMTOL
 70
     0
  9
$DIMLIM
 70
     0
  9
$DIMTIH
 70
     0
  9
$DIMTOH
 70
     0
  9
$DIMSE1
 70
     0
  9
$DIMSE2
 70
     0
  9
$DIMTAD
 70
     1
  9
$DIMZIN
 70
     8
  9
$DIMBLK
  1

  9
$DIMASO
 70
     1
  9
$DIMSHO
 70
     1
  9
$DIMPOST
  1

  9
$DIMAPOST
  1

  9
$DIMALT
 70
     0
  9
$DIMALTD
 70
     3
  9
$DIMALTF
 40
0.03937007874016
  9
$DIMLFAC
 40
1.0
  9
$DIMTOFL
 70
     1
  9
$DIMTVP
 40
0.0
  9
$DIMTIX
 70
     0
  9
$DIMSOXD
 70
     0
  9
$DIMSAH
 70
     0
  9
$DIMBLK1
  1

  9
$DIMBLK2
  1

  9
$DIMSTYLE
  2
ISO-25
  9
$DIMCLRD
 70
     0
  9
$DIMCLRE
 70
     0
  9
$DIMCLRT
 70
     0
  9
$DIMTFAC
 40
1.0
  9
$DIMGAP
 40
0.625
  9
$DIMJUST
 70
     0
  9
$DIMSD1
 70
     0
  9
$DIMSD2
 70
     0
  9
$DIMTOLJ
 70
     0
  9
$DIMTZIN
 70
     8
  9
$DIMALTZ
 70
     0
  9
$DIMALTTZ
 70
     0
  9
$DIMUPT
 70
     0
  9
$DIMDEC
 70
     2
  9
$DIMTDEC
 70
     2
  9
$DIMALTU
 70
     2
  9
$DIMALTTD
 70
     3
  9
$DIMTXSTY
  7
Standard
  9
$DIMAUNIT
 70
     0
  9
$DIMADEC
 70
     0
  9
$DIMALTRND
 40
0.0
  9
$DIMAZIN
 70
     0
  9
$DIMDSEP
 70
    44
  9
$DIMATFIT
 70
     3
  9
$DIMFRAC
 70
     0
  9
$DIMLDRBLK
  1

  9
$DIMLUNIT
 70
     2
  9
$DIMLWD
 70
    -2
  9
$DIMLWE
 70
    -2
  9
$DIMTMOVE
 70
     0
  9
$LUNITS
 70
     2
  9
$LUPREC
 70
     4
  9
$SKETCHINC
 40
1.0
  9
$FILLETRAD
 40
10.0
  9
$AUNITS
 70
     0
  9
$AUPREC
 70
     0
  9
$MENU
  1
.
  9
$ELEVATION
 40
0.0
  9
$PELEVATION
 40
0.0
  9
$THICKNESS
 40
0.0
  9
$LIMCHECK
 70
     0
  9
$CHAMFERA
 40
10.0
  9
$CHAMFERB
 40
10.0
  9
$CHAMFERC
 40
20.0
  9
$CHAMFERD
 40
0.0
  9
$SKPOLY
 70
     0
  9
$TDCREATE
 40
2456541.782010335
  9
$TDUCREATE
 40
2456541.407010335
  9
$TDUPDATE
 40
2456541.782010347
  9
$TDUUPDATE
 40
2456541.407010347
  9
$TDINDWG
 40
0.0000000116
  9
$TDUSRTIMER
 40
0.0000000116
  9
$USRTIMER
 70
     1
  9
$ANGBASE
 50
0.0
  9
$ANGDIR
 70
     0
  9
$PDMODE
 70
     0
  9
$PDSIZE
 40
0.0
  9
$PLINEWID
 40
0.0
  9
$SPLFRAME
 70
     0
  9
$SPLINETYPE
 70
     6
  9
$SPLINESEGS
 70
     8
  9
$HANDSEED
  5
368
  9
$SURFTAB1
 70
     6
  9
$SURFTAB2
 70
     6
  9
$SURFTYPE
 70
     6
  9
$SURFU
 70
     6
  9
$SURFV
 70
     6
  9
$UCSBASE
  2

  9
$UCSNAME
  2

  9
$UCSORG
 10
0.0
 20
0.0
 30
0.0
  9
$UCSXDIR
 10
1.0
 20
0.0
 30
0.0
  9
$UCSYDIR
 10
0.0
 20
1.0
 30
0.0
  9
$UCSORTHOREF
  2

  9
$UCSORTHOVIEW
 70
     0
  9
$UCSORGTOP
 10
0.0
 20
0.0
 30
0.0
  9
$UCSORGBOTTOM
 10
0.0
 20
0.0
 30
0.0
  9
$UCSORGLEFT
 10
0.0
 20
0.0
 30
0.0
  9
$UCSORGRIGHT
 10
0.0
 20
0.0
 30
0.0
  9
$UCSORGFRONT
 10
0.0
 20
0.0
 30
0.0
  9
$UCSORGBACK
 10
0.0
 20
0.0
 30
0.0
  9
$PUCSBASE
  2

  9
$PUCSNAME
  2

  9
$PUCSORG
 10
0.0
 20
0.0
 30
0.0
  9
$PUCSXDIR
 10
1.0
 20
0.0
 30
0.0
  9
$PUCSYDIR
 10
0.0
 20
1.0
 30
0.0
  9
$PUCSORTHOREF
  2

  9
$PUCSORTHOVIEW
 70
     0
  9
$PUCSORGTOP
 10
0.0
 20
0.0
 30
0.0
  9
$PUCSORGBOTTOM
 10
0.0
 20
0.0
 30
0.0
  9
$PUCSORGLEFT
 10
0.0
 20
0.0
 30
0.0
  9
$PUCSORGRIGHT
 10
0.0
 20
0.0
 30
0.0
  9
$PUCSORGFRONT
 10
0.0
 20
0.0
 30
0.0
  9
$PUCSORGBACK
 10
0.0
 20
0.0
 30
0.0
  9
$USERI1
 70
     0
  9
$USERI2
 70
     0
  9
$USERI3
 70
     0
  9
$USERI4
 70
     0
  9
$USERI5
 70
     0
  9
$USERR1
 40
0.0
  9
$USERR2
 40
0.0
  9
$USERR3
 40
0.0
  9
$USERR4
 40
0.0
  9
$USERR5
 40
0.0
  9
$WORLDVIEW
 70
     1
  9
$SHADEDGE
 70
     3
  9
$SHADEDIF
 70
    70
  9
$TILEMODE
 70
     1
  9
$MAXACTVP
 70
    64
  9
$PINSBASE
 10
0.0
 20
0.0
 30
0.0
  9
$PLIMCHECK
 70
     0
  9
$PEXTMIN
 10
1.000000000000000E+20
 20
1.000000000000000E+20
 30
1.000000000000000E+20
  9
$PEXTMAX
 10
-1.000000000000000E+20
 20
-1.000000000000000E+20
 30
-1.000000000000000E+20
  9
$PLIMMIN
 10
0.0
 20
0.0
  9
$PLIMMAX
 10
420.0
 20
297.0
  9
$UNITMODE
 70
     0
  9
$VISRETAIN
 70
     1
  9
$PLINEGEN
 70
     0
  9
$PSLTSCALE
 70
     1
  9
$TREEDEPTH
 70
  3020
  9
$CMLSTYLE
  2
Standard
  9
$CMLJUST
 70
     0
  9
$CMLSCALE
 40
20.0
  9
$PROXYGRAPHICS
 70
     1
  9
$MEASUREMENT
 70
     1
  9
$CELWEIGHT
370
    -1
  9
$ENDCAPS
280
     0
  9
$JOINSTYLE
280
     0
  9
$LWDISPLAY
290
     0
  9
$INSUNITS
 70
     4
  9
$HYPERLINKBASE
  1

  9
$STYLESHEET
  1

  9
$XEDIT
290
     1
  9
$CEPSNTYPE
380
     0
  9
$PSTYLEMODE
290
     1
  9
$FINGERPRINTGUID
  2
{E905377D-5970-40E2-9F54-748DDD88AC86}
  9
$VERSIONGUID
  2
{FAEB1C32-E019-11D5-929B-00C0DF256EC4}
  9
$EXTNAMES
290
     1
  9
$PSVPSCALE
 40
0.0
  9
$OLESTARTUP
290
     0
  0
ENDSEC
  0
SECTION
  2
CLASSES
  0
CLASS
  1
ACDBDICTIONARYWDFLT
  2
AcDbDictionaryWithDefault
  3
ObjectDBX Classes
 90
        0
280
     0
281
     0
  0
CLASS
  1
VISUALSTYLE
  2
AcDbVisualStyle
  3
ObjectDBX Classes
 90
     4095
280
     0
281
     0
  0
CLASS
  1
DICTIONARYVAR
  2
AcDbDictionaryVar
  3
ObjectDBX Classes
 90
        0
280
     0
281
     0
  0
CLASS
  1
ACDBPLACEHOLDER
  2
AcDbPlaceHolder
  3
ObjectDBX Classes
 90
        0
280
     0
281
     0
  0
CLASS
  1
LAYOUT
  2
AcDbLayout
  3
ObjectDBX Classes
 90
        0
280
     0
281
     0
  0
ENDSEC
  0
SECTION
  2
TABLES
  0
TABLE
  2
VPORT
  5
8
330
0
100
AcDbSymbolTable
 70
     1
  0
VPORT
  5
29
330
8
100
AcDbSymbolTableRecord
100
AcDbViewportTableRecord
  2
*Active
 70
     0
 10
0.0
 20
0.0
 11
1.0
 21
1.0
 12
0.0
 22
0.0
 13
0.0
 23
0.0
 14
10.0
 24
10.0
 15
10.0
 25
10.0
 16
0.0
 26
0.0
 36
1.0
 17
0.0
 27
0.0
 37
0.0
 40
3267.0
 41
1.414141414141414
 42
50.0
 43
0.0
 44
0.0
 50
0.0
 51
0.0
 71
     0
 72
 10000
 73
     1
 74
     3
 75
     0
 76
     0
 77
     0
 78
     0
281
     0
 65
     1
110
0.0
120
0.0
130
0.0
111
1.0
121
0.0
131
0.0
112
0.0
122
1.0
132
0.0
 79
     0
146
0.0
  0
ENDTAB
  0
TABLE
  2
LTYPE
  5
5
330
0
100
AcDbSymbolTable
 70
     4
  0
LTYPE
  5
14
330
5
100
AcDbSymbolTableRecord
100
AcDbLinetypeTableRecord
  2
ByBlock
 70
     0
  3

 72
    65
 73
     0
 40
0.0
  0
LTYPE
  5
15
330
5
100
AcDbSymbolTableRecord
100
AcDbLinetypeTableRecord
  2
ByLayer
 70
     0
  3

 72
    65
 73
     0
 40
0.0
  0
LTYPE
  5
16
330
5
100
AcDbSymbolTableRecord
100
AcDbLinetypeTableRecord
  2
Continuous
 70
     0
  3
Solid line
 72
    65
 73
     0
 40
0.0
  0
LTYPE
  5
3C
330
5
100
AcDbSymbolTableRecord
100
AcDbLinetypeTableRecord
  2
JWW_DASHED3
 70
     0
  3
---  ------  ------  ------  ---
 72
    65
 73
     2
 40
3.386666666666667
 49
2.54
 74
     0
 49
-0.8466666666666667
 74
     0
  0
LTYPE
  5
3D
330
5
100
AcDbSymbolTableRecord
100
AcDbLinetypeTableRecord
  2
JWW_CENTER2
 70
     0
  3
-------------  --  -------------
 72
    65
 73
     4
 40
13.54666666666667
 49
11.00666666666667
 74
     0
 49
-0.8466666666666667
 74
     0
 49
0.8466666666666667
 74
     0
 49
-0.8466666666666667
 74
     0
  0
LTYPE
  5
3E
330
5
100
AcDbSymbolTableRecord
100
AcDbLinetypeTableRecord
  2
JWW_CENTER1
 70
     0
  3
-----  --  ----------  --  -----
 72
    65
 73
     4
 40
6.773333333333333
 49
4.233333333333333
 74
     0
 49
-0.8466666666666667
 74
     0
 49
0.8466666666666667
 74
     0
 49
-0.8466666666666667
 74
     0
  0
ENDTAB
  0
TABLE
  2
LAYER
  5
2
330
0
100
AcDbSymbolTable
 70
    17
  0
LAYER
  5
10
330
2
100
AcDbSymbolTableRecord
100
AcDbLayerTableRecord
  2
0
 70
     0
 62
     7
  6
Continuous
370
    -3
390
F
  0
LAYER
  5
3F
330
2
100
AcDbSymbolTableRecord
100
AcDbLayerTableRecord
  2
F-4
 70
     0
 62
     7
  6
Continuous
370
    -1
390
F
  0
LAYER
  5
40
330
2
100
AcDbSymbolTableRecord
100
AcDbLayerTableRecord
  2
D-A
 70
     0
 62
     7
  6
Continuous
370
    -1
390
F
  0
LAYER
  5
41
330
2
100
AcDbSymbolTableRecord
100
AcDbLayerTableRecord
  2
D-4
 70
     0
 62
     7
  6
Continuous
370
    -1
390
F
  0
LAYER
  5
42
330
2
100
AcDbSymbolTableRecord
100
AcDbLayerTableRecord
  2
D-5
 70
     0
 62
     7
  6
Continuous
370
    -1
390
F
  0
LAYER
  5
43
330
2
100
AcDbSymbolTableRecord
100
AcDbLayerTableRecord
  2
D-6
 70
     0
 62
     7
  6
Continuous
370
    -1
390
F
  0
LAYER
  5
44
330
2
100
AcDbSymbolTableRecord
100
AcDbLayerTableRecord
  2
D-9
 70
     0
 62
     7
  6
Continuous
370
    -1
390
F
  0
LAYER
  5
45
330
2
100
AcDbSymbolTableRecord
100
AcDbLayerTableRecord
  2
D-1
 70
     0
 62
     7
  6
Continuous
370
    -1
390
F
  0
LAYER
  5
46
330
2
100
AcDbSymbolTableRecord
100
AcDbLayerTableRecord
  2
D-2
 70
     0
 62
     7
  6
Continuous
370
    -1
390
F
  0
LAYER
  5
47
330
2
100
AcDbSymbolTableRecord
100
AcDbLayerTableRecord
  2
C-2
 70
     0
 62
     7
  6
Continuous
370
    -1
390
F
  0
LAYER
  5
48
330
2
100
AcDbSymbolTableRecord
100
AcDbLayerTableRecord
  2
C-1
 70
     0
 62
     7
  6
Continuous
370
    -1
390
F
  0
LAYER
  5
49
330
2
100
AcDbSymbolTableRecord
100
AcDbLayerTableRecord
  2
C-4
 70
     0
 62
     7
  6
Continuous
370
    -1
390
F
  0
LAYER
  5
4A
330
2
100
AcDbSymbolTableRecord
100
AcDbLayerTableRecord
  2
C-5
 70
     0
 62
     7
  6
Continuous
370
    -1
390
F
  0
LAYER
  5
4B
330
2
100
AcDbSymbolTableRecord
100
AcDbLayerTableRecord
  2
C-A
 70
     0
 62
     7
  6
Continuous
370
    -1
390
F
  0
LAYER
  5
4C
330
2
100
AcDbSymbolTableRecord
100
AcDbLayerTableRecord
  2
C-0
 70
     0
 62
     7
  6
Continuous
370
    -1
390
F
  0
LAYER
  5
4D
330
2
100
AcDbSymbolTableRecord
100
AcDbLayerTableRecord
  2
C-B
 70
     0
 62
     7
  6
Continuous
370
    -1
390
F
  0
LAYER
  5
4E
330
2
100
AcDbSymbolTableRecord
100
AcDbLayerTableRecord
  2
D-0
 70
     0
 62
     7
  6
Continuous
370
    -1
390
F
  0
ENDTAB
  0
TABLE
  2
STYLE
  5
3
330
0
100
AcDbSymbolTable
 70
     2
  0
STYLE
  5
11
330
3
100
AcDbSymbolTableRecord
100
AcDbTextStyleTableRecord
  2
Standard
 70
     0
 40
0.0
 41
1.0
 50
0.0
 71
     0
 42
2.5
  3
txt
  4

1001
ACAD
1000

1071
        0
  0
STYLE
  5
3B
330
3
100
AcDbSymbolTableRecord
100
AcDbTextStyleTableRecord
  2
ＭＳ ゴシック
 70
     0
 40
1.0
 41
1.0
 50
0.0
 71
     0
 42
10.0
  3

  4

1001
ACAD
1000
MS Gothic
1071
    32817
  0
ENDTAB
  0
TABLE
  2
VIEW
  5
6
330
0
100
AcDbSymbolTable
 70
     0
  0
ENDTAB
  0
TABLE
  2
UCS
  5
7
330
0
100
AcDbSymbolTable
 70
     0
  0
ENDTAB
  0
TABLE
  2
APPID
  5
9
330
0
100
AcDbSymbolTable
 70
     1
  0
APPID
  5
12
330
9
100
AcDbSymbolTableRecord
100
AcDbRegAppTableRecord
  2
ACAD
 70
     0
  0
ENDTAB
  0
TABLE
  2
DIMSTYLE
  5
A
330
0
100
AcDbSymbolTable
 70
     1
100
AcDbDimStyleTable
  0
DIMSTYLE
105
27
330
A
100
AcDbSymbolTableRecord
100
AcDbDimStyleTableRecord
  2
ISO-25
 70
     0
 41
2.5
 42
0.625
 43
3.75
 44
1.25
 73
     0
 74
     0
 77
     1
 78
     8
140
2.5
141
2.5
143
0.03937007874016
147
0.625
171
     3
172
     1
271
     2
272
     2
274
     3
278
    44
283
     0
284
     8
340
11
  0
ENDTAB
  0
TABLE
  2
BLOCK_RECORD
  5
1
330
0
100
AcDbSymbolTable
 70
     1
  0
BLOCK_RECORD
  5
1F
330
1
100
AcDbSymbolTableRecord
100
AcDbBlockTableRecord
  2
*Model_Space
340
22
  0
BLOCK_RECORD
  5
1B
330
1
100
AcDbSymbolTableRecord
100
AcDbBlockTableRecord
  2
*Paper_Space
340
1E
  0
BLOCK_RECORD
  5
23
330
1
100
AcDbSymbolTableRecord
100
AcDbBlockTableRecord
  2
*Paper_Space0
340
26
  0
ENDTAB
  0
ENDSEC
  0
SECTION
  2
BLOCKS
  0
BLOCK
  5
20
330
1F
100
AcDbEntity
  8
0
100
AcDbBlockBegin
  2
*Model_Space
 70
     0
 10
0.0
 20
0.0
 30
0.0
  3
*Model_Space
  1

  0
ENDBLK
  5
21
330
1F
100
AcDbEntity
  8
0
100
AcDbBlockEnd
  0
BLOCK
  5
1C
330
1B
100
AcDbEntity
 67
     1
  8
0
100
AcDbBlockBegin
  2
*Paper_Space
 70
     0
 10
0.0
 20
0.0
 30
0.0
  3
*Paper_Space
  1

  0
ENDBLK
  5
1D
330
1B
100
AcDbEntity
 67
     1
  8
0
100
AcDbBlockEnd
  0
BLOCK
  5
24
330
23
100
AcDbEntity
  8
0
100
AcDbBlockBegin
  2
*Paper_Space0
 70
     0
 10
0.0
 20
0.0
 30
0.0
  3
*Paper_Space0
  1

  0
ENDBLK
  5
25
330
23
100
AcDbEntity
  8
0
100
AcDbBlockEnd
  0
ENDSEC
  0
SECTION
  2
ENTITIES
  0
TEXT
  5
4F
330
1F
100
AcDbEntity
  8
F-4
  6
Continuous
 62
     2
370
     5
100
AcDbText
 10
-869.66620255969
 20
-1365.511899375921
 30
0.0
 40
30.48
  1
ステンレス縞鋼板製　排水ピット蓋　　ＳＰ－３　３００×５００Ｓ＋ＳＦ０３Ｂ
 41
0.8993243243243243
  7
ＭＳ ゴシック
100
AcDbText
  0
LINE
  5
50
330
1F
100
AcDbEntity
  8
D-A
  6
JWW_DASHED3
 62
     3
370
     5
100
AcDbLine
 10
-548.6477967855092
 20
-336.9434336069468
 30
0.0
 11
-548.6477967855092
 21
-286.9435160868876
 31
0.0
  0
LINE
  5
51
330
1F
100
AcDbEntity
  8
D-A
  6
Continuous
 62
     3
370
     5
100
AcDbLine
 10
-523.6480854653021
 20
-311.9435985668285
 30
0.0
 11
-523.6480854653021
 21
-296.4435969172297
 31
0.0
  0
LINE
  5
52
330
1F
100
AcDbEntity
  8
D-A
  6
Continuous
 62
     3
370
     5
100
AcDbLine
 10
-548.6477967855092
 20
-286.9435160868876
 30
0.0
 11
-548.6477967855092
 21
-256.9440357105151
 31
0.0
  0
LINE
  5
53
330
1F
100
AcDbEntity
  8
D-A
  6
Continuous
 62
     3
370
     5
100
AcDbLine
 10
-398.6479205054204
 20
-375.4442039695945
 30
0.0
 11
-523.6480854653021
 21
-375.4442039695945
 31
0.0
  0
LINE
  5
54
330
1F
100
AcDbEntity
  8
D-A
  6
Continuous
 62
     3
370
     5
100
AcDbLine
 10
-526.5771543657456
 20
-359.0141997466216
 30
0.0
 11
-548.6477967855092
 21
-336.9434336069468
 31
0.0
  0
LINE
  5
55
330
1F
100
AcDbEntity
  8
D-A
  6
Continuous
 62
     3
370
     5
100
AcDbLine
 10
-523.6480854653021
 20
-386.9439697265625
 30
0.0
 11
-523.6480854653021
 21
-366.0855349978884
 31
0.0
  0
LINE
  5
56
330
1F
100
AcDbEntity
  8
D-A
  6
Continuous
 62
     3
370
     5
100
AcDbLine
 10
-398.6479205054204
 20
-386.9439697265625
 30
0.0
 11
-523.6480854653021
 21
-386.9439697265625
 31
0.0
  0
LINE
  5
57
330
1F
100
AcDbEntity
  8
D-A
  6
Continuous
 62
     3
370
     5
100
AcDbLine
 10
-398.6479205054204
 20
-346.9435903188344
 30
0.0
 11
-398.6479205054204
 21
-386.9439697265625
 31
0.0
  0
LINE
  5
58
330
1F
100
AcDbEntity
  8
D-A
  6
Continuous
 62
     3
370
     5
100
AcDbLine
 10
-488.2927701279922
 20
-336.9434336069468
 30
0.0
 11
-408.6482009372193
 21
-336.9434336069468
 31
0.0
  0
LINE
  5
59
330
1F
100
AcDbEntity
  8
D-A
  6
Continuous
 62
     3
370
     5
100
AcDbLine
 10
-548.6477967855092
 20
-286.9435160868876
 30
0.0
 11
-505.9706133765141
 21
-329.621689255173
 31
0.0
  0
LINE
  5
5A
330
1F
100
AcDbEntity
  8
D-A
  6
Continuous
 62
     3
370
     5
100
AcDbLine
 10
-560.1480574221225
 20
-256.9440357105151
 30
0.0
 11
-560.1480574221225
 21
-369.4440357105151
 31
0.0
  0
LINE
  5
5B
330
1F
100
AcDbEntity
  8
D-A
  6
JWW_CENTER2
 62
     3
370
     5
100
AcDbLine
 10
-505.653024364162
 20
-314.4436068148225
 30
0.0
 11
-566.071519336185
 21
-314.4436068148225
 31
0.0
  0
LINE
  5
5C
330
1F
100
AcDbEntity
  8
D-A
  6
JWW_DASHED3
 62
     3
370
     5
100
AcDbLine
 10
-523.6480854653021
 20
-332.4433692725928
 30
0.0
 11
-523.6480854653021
 21
-311.9435985668285
 31
0.0
  0
LINE
  5
5D
330
1F
100
AcDbEntity
  8
D-A
  6
Continuous
 62
     3
370
     5
100
AcDbLine
 10
-562.3980277293435
 20
-304.4433263830235
 30
0.0
 11
-563.6477225535623
 21
-305.6938872466216
 31
0.0
  0
LINE
  5
5E
330
1F
100
AcDbEntity
  8
D-A
  6
Continuous
 62
     3
370
     5
100
AcDbLine
 10
-562.3980277293435
 20
-324.4431449271536
 30
0.0
 11
-563.6477225535623
 21
-323.1938212626688
 31
0.0
  0
LINE
  5
5F
330
1F
100
AcDbEntity
  8
D-A
  6
JWW_DASHED3
 62
     3
370
     5
100
AcDbLine
 10
-562.3980277293435
 20
-304.4433263830235
 30
0.0
 11
-562.3980277293435
 21
-324.4431449271536
 31
0.0
  0
LINE
  5
60
330
1F
100
AcDbEntity
  8
D-A
  6
Continuous
 62
     3
370
     5
100
AcDbLine
 10
-560.1480574221225
 20
-305.6938872466216
 30
0.0
 11
-563.6477225535623
 21
-305.6938872466216
 31
0.0
  0
LINE
  5
61
330
1F
100
AcDbEntity
  8
D-A
  6
Continuous
 62
     3
370
     5
100
AcDbLine
 10
-560.1480574221225
 20
-304.4433263830235
 30
0.0
 11
-562.3980277293435
 21
-304.4433263830235
 31
0.0
  0
LINE
  5
62
330
1F
100
AcDbEntity
  8
D-A
  6
Continuous
 62
     3
370
     5
100
AcDbLine
 10
-560.1480574221225
 20
-323.1938212626688
 30
0.0
 11
-563.6477225535623
 21
-323.1938212626688
 31
0.0
  0
LINE
  5
63
330
1F
100
AcDbEntity
  8
D-A
  6
Continuous
 62
     3
370
     5
100
AcDbLine
 10
-560.1480574221225
 20
-324.4431449271536
 30
0.0
 11
-562.3980277293435
 21
-324.4431449271536
 31
0.0
  0
LINE
  5
64
330
1F
100
AcDbEntity
  8
D-A
  6
JWW_DASHED3
 62
     3
370
     5
100
AcDbLine
 10
-523.6480854653021
 20
-324.4431449271536
 30
0.0
 11
-560.1480574221225
 21
-324.4431449271536
 31
0.0
  0
LINE
  5
65
330
1F
100
AcDbEntity
  8
D-A
  6
JWW_DASHED3
 62
     3
370
     5
100
AcDbLine
 10
-523.6480854653021
 20
-323.1938212626688
 30
0.0
 11
-560.1480574221225
 21
-323.1938212626688
 31
0.0
  0
LINE
  5
66
330
1F
100
AcDbEntity
  8
D-A
  6
JWW_DASHED3
 62
     3
370
     5
100
AcDbLine
 10
-517.1478413246771
 20
-332.4433692725928
 30
0.0
 11
-523.6480854653021
 21
-332.4433692725928
 31
0.0
  0
LINE
  5
67
330
1F
100
AcDbEntity
  8
D-A
  6
Continuous
 62
     3
370
     5
100
AcDbLine
 10
-517.1478413246771
 20
-296.4435969172297
 30
0.0
 11
-523.6480854653021
 21
-296.4435969172297
 31
0.0
  0
LINE
  5
68
330
1F
100
AcDbEntity
  8
D-A
  6
Continuous
 62
     3
370
     5
100
AcDbLine
 10
-510.6479683437863
 20
-302.943593618032
 30
0.0
 11
-510.6479683437863
 21
-324.9442105679898
 31
0.0
  0
LINE
  5
69
330
1F
100
AcDbEntity
  8
D-A
  6
JWW_DASHED3
 62
     3
370
     5
100
AcDbLine
 10
-510.6479683437863
 20
-325.9437437315245
 30
0.0
 11
-510.6479683437863
 21
-324.9442105679898
 31
0.0
  0
LINE
  5
6A
330
1F
100
AcDbEntity
  8
D-A
  6
Continuous
 62
     3
370
     5
100
AcDbLine
 10
-523.6480854653021
 20
-304.4433263830235
 30
0.0
 11
-531.1483576491071
 21
-304.4433263830235
 31
0.0
  0
LINE
  5
6B
330
1F
100
AcDbEntity
  8
D-A
  6
Continuous
 62
     3
370
     5
100
AcDbLine
 10
-523.6480854653021
 20
-305.6938872466216
 30
0.0
 11
-529.8982916651545
 21
-305.6938872466216
 31
0.0
  0
LINE
  5
6C
330
1F
100
AcDbEntity
  8
D-A
  6
JWW_DASHED3
 62
     3
370
     5
100
AcDbLine
 10
-531.1483576491071
 20
-304.4433263830235
 30
0.0
 11
-560.1480574221225
 21
-304.4433263830235
 31
0.0
  0
LINE
  5
6D
330
1F
100
AcDbEntity
  8
D-A
  6
JWW_DASHED3
 62
     3
370
     5
100
AcDbLine
 10
-560.1480574221225
 20
-305.6938872466216
 30
0.0
 11
-529.8982916651545
 21
-305.6938872466216
 31
0.0
  0
LINE
  5
6E
330
1F
100
AcDbEntity
  8
D-4
  6
Continuous
 62
     7
370
     5
100
AcDbLine
 10
-1271.316212576789
 20
-131.0241369298987
 30
0.0
 11
-698.6485391049771
 21
-131.0241369298987
 31
0.0
  0
LINE
  5
6F
330
1F
100
AcDbEntity
  8
D-4
  6
Continuous
 62
     7
370
     5
100
AcDbLine
 10
-698.6485391049771
 20
-236.4879381334458
 30
0.0
 11
-698.6485391049771
 21
-128.023681640625
 31
0.0
  0
LINE
  5
70
330
1F
100
AcDbEntity
  8
D-4
  6
Continuous
 62
     7
370
     5
100
AcDbLine
 10
-698.6485391049771
 20
-131.0241369298987
 30
0.0
 11
-573.6477555455385
 21
-131.0241369298987
 31
0.0
  0
LINE
  5
71
330
1F
100
AcDbEntity
  8
D-4
  6
Continuous
 62
     7
370
     5
100
AcDbLine
 10
-573.6477555455385
 20
-236.4879381334458
 30
0.0
 11
-573.6477555455385
 21
-19.27214751372446
 31
0.0
  0
LINE
  5
72
330
1F
100
AcDbEntity
  8
D-4
  6
Continuous
 62
     7
370
     5
100
AcDbLine
 10
-568.6474916097279
 20
-236.4879381334458
 30
0.0
 11
-568.6474916097279
 21
-19.27214751372446
 31
0.0
  0
LINE
  5
73
330
1F
100
AcDbEntity
  8
D-4
  6
Continuous
 62
     7
370
     5
100
AcDbLine
 10
-543.6486463289003
 20
-236.4879381334458
 30
0.0
 11
-543.6486463289003
 21
91.42426361908804
 31
0.0
  0
LINE
  5
74
330
1F
100
AcDbEntity
  8
D-5
  6
Continuous
 62
     7
370
     5
100
AcDbLine
 10
-449.1249020035201
 20
-89.03236182960285
 30
0.0
 11
-189.7417777293435
 21
-89.03236182960285
 31
0.0
  0
LINE
  5
75
330
1F
100
AcDbEntity
  8
D-4
  6
Continuous
 62
     7
370
     5
100
AcDbLine
 10
-298.6470957060118
 20
-571.8169011296452
 30
0.0
 11
-298.6470957060118
 21
-815.0266162769213
 31
0.0
  0
LINE
  5
76
330
1F
100
AcDbEntity
  8
D-4
  6
Continuous
 62
     7
370
     5
100
AcDbLine
 10
-698.648167945243
 20
-657.5623465873099
 30
0.0
 11
-548.6477967855092
 21
-657.5623465873099
 31
0.0
  0
LINE
  5
77
330
1F
100
AcDbEntity
  8
D-4
  6
Continuous
 62
     7
370
     5
100
AcDbLine
 10
-26.96299552917452
 20
-501.9437305347338
 30
0.0
 11
-26.96299552917452
 21
-251.9435243348816
 31
0.0
  0
LINE
  5
78
330
1F
100
AcDbEntity
  8
D-6
  6
Continuous
 62
     6
370
     5
100
AcDbLine
 10
-548.6477967855092
 20
-501.9437305347338
 30
0.0
 11
-548.6477967855092
 21
-751.9434418549408
 31
0.0
  0
LINE
  5
79
330
1F
100
AcDbEntity
  8
D-6
  6
JWW_DASHED3
 62
     6
370
     5
100
AcDbLine
 10
-455.1468449669915
 20
-629.4436563027871
 30
0.0
 11
-455.1468449669915
 21
-501.9437305347338
 31
0.0
  0
LINE
  5
7A
330
1F
100
AcDbEntity
  8
D-6
  6
JWW_DASHED3
 62
     6
370
     5
100
AcDbLine
 10
-410.1466965030977
 20
-501.9437305347338
 30
0.0
 11
-410.1466965030977
 21
-629.4436563027871
 31
0.0
  0
LINE
  5
7B
330
1F
100
AcDbEntity
  8
D-6
  6
Continuous
 62
     6
370
     5
100
AcDbLine
 10
-298.6482091852136
 20
-401.9438954946156
 30
0.0
 11
-133.6471699379584
 21
-401.9438954946156
 31
0.0
  0
LINE
  5
7C
330
1F
100
AcDbEntity
  8
D-6
  6
Continuous
 62
     6
370
     5
100
AcDbLine
 10
-533.6481184572784
 20
-747.0928790118244
 30
0.0
 11
-188.4970317015777
 21
-401.9438954946156
 31
0.0
  0
LINE
  5
7D
330
1F
100
AcDbEntity
  8
D-6
  6
Continuous
 62
     6
370
     5
100
AcDbLine
 10
-533.6481184572784
 20
-740.0205540012668
 30
0.0
 11
-195.5713362307159
 21
-401.9438954946156
 31
0.0
  0
LINE
  5
7E
330
1F
100
AcDbEntity
  8
D-6
  6
Continuous
 62
     6
370
     5
100
AcDbLine
 10
-533.6481184572784
 20
-732.9521880278717
 30
0.0
 11
-302.6383000451165
 21
-501.9437305347338
 31
0.0
  0
LINE
  5
7F
330
1F
100
AcDbEntity
  8
D-6
  6
Continuous
 62
     6
370
     5
100
AcDbLine
 10
-298.6482091852136
 20
-401.9438954946156
 30
0.0
 11
-298.6482091852136
 21
-501.9437305347338
 31
0.0
  0
LINE
  5
80
330
1F
100
AcDbEntity
  8
D-6
  6
Continuous
 62
     6
370
     5
100
AcDbLine
 10
-298.6482091852136
 20
-497.9535778148754
 30
0.0
 11
-202.6378464054415
 21
-401.9438954946156
 31
0.0
  0
LINE
  5
81
330
1F
100
AcDbEntity
  8
D-4
  6
Continuous
 62
     7
370
     5
100
AcDbLine
 10
-242.8692108875995
 20
-501.9437305347338
 30
0.0
 11
-23.96278767972376
 21
-501.9437305347338
 31
0.0
  0
LINE
  5
82
330
1F
100
AcDbEntity
  8
D-6
  6
Continuous
 62
     6
370
     5
100
AcDbLine
 10
-548.6477967855092
 20
-501.9437305347338
 30
0.0
 11
-298.6482091852136
 21
-501.9437305347338
 31
0.0
  0
LINE
  5
83
330
1F
100
AcDbEntity
  8
D-6
  6
Continuous
 62
     6
370
     5
100
AcDbLine
 10
-455.1468449669915
 20
-304.4438212626688
 30
0.0
 11
-410.1466965030977
 21
-304.4438212626688
 31
0.0
  0
LINE
  5
84
330
1F
100
AcDbEntity
  8
D-6
  6
JWW_CENTER2
 62
     6
370
     5
100
AcDbLine
 10
-432.6467707350446
 20
-300.3640334670608
 30
0.0
 11
-432.6467707350446
 21
-629.4436563027871
 31
0.0
  0
LINE
  5
85
330
1F
100
AcDbEntity
  8
D-4
  6
Continuous
 62
     7
370
     5
100
AcDbLine
 10
-543.6480277293435
 20
-442.4744147223395
 30
0.0
 11
-393.6475328496982
 21
-442.4744147223395
 31
0.0
  0
LINE
  5
86
330
1F
100
AcDbEntity
  8
D-4
  6
Continuous
 62
     7
370
     5
100
AcDbLine
 10
-543.6480277293435
 20
-389.911268079603
 30
0.0
 11
-543.6480277293435
 21
-445.4746225717905
 31
0.0
  0
LINE
  5
87
330
1F
100
AcDbEntity
  8
D-4
  6
Continuous
 62
     7
370
     5
100
AcDbLine
 10
-398.6479205054204
 20
-389.911268079603
 30
0.0
 11
-398.6479205054204
 21
-445.4746225717905
 31
0.0
  0
LINE
  5
88
330
1F
100
AcDbEntity
  8
D-4
  6
Continuous
 62
     7
370
     5
100
AcDbLine
 10
-386.8217816223969
 20
-386.9439697265625
 30
0.0
 11
-307.5978601301037
 21
-386.9439697265625
 31
0.0
  0
LINE
  5
89
330
1F
100
AcDbEntity
  8
D-4
  6
Continuous
 62
     7
370
     5
100
AcDbLine
 10
-386.8217816223969
 20
-336.9434336069468
 30
0.0
 11
-307.5978601301037
 21
-336.9434336069468
 31
0.0
  0
LINE
  5
8A
330
1F
100
AcDbEntity
  8
D-4
  6
Continuous
 62
     7
370
     5
100
AcDbLine
 10
-310.5979442596436
 20
-336.9434336069468
 30
0.0
 11
-310.5979442596436
 21
-251.9435243348816
 31
0.0
  0
LINE
  5
8B
330
1F
100
AcDbEntity
  8
D-6
  6
Continuous
 62
     6
370
     5
100
AcDbLine
 10
-455.1468449669915
 20
-501.9437305347338
 30
0.0
 11
-455.1468449669915
 21
-386.9439697265625
 31
0.0
  0
LINE
  5
8C
330
1F
100
AcDbEntity
  8
D-6
  6
Continuous
 62
     6
370
     5
100
AcDbLine
 10
-410.1466965030977
 20
-501.9437305347338
 30
0.0
 11
-410.1466965030977
 21
-386.9439697265625
 31
0.0
  0
LINE
  5
8D
330
1F
100
AcDbEntity
  8
D-6
  6
Continuous
 62
     6
370
     5
100
AcDbLine
 10
-455.1468449669915
 20
-336.9434336069468
 30
0.0
 11
-455.1468449669915
 21
-304.4438212626688
 31
0.0
  0
LINE
  5
8E
330
1F
100
AcDbEntity
  8
D-6
  6
Continuous
 62
     6
370
     5
100
AcDbLine
 10
-410.1466965030977
 20
-336.9434336069468
 30
0.0
 11
-410.1466965030977
 21
-304.4438212626688
 31
0.0
  0
LINE
  5
8F
330
1F
100
AcDbEntity
  8
D-4
  6
Continuous
 62
     7
370
     5
100
AcDbLine
 10
-844.1310302631274
 20
-376.9438130146747
 30
0.0
 11
-844.1310302631274
 21
-251.9435243348816
 31
0.0
  0
LINE
  5
90
330
1F
100
AcDbEntity
  8
D-4
  6
Continuous
 62
     7
370
     5
100
AcDbLine
 10
-571.792699195243
 20
-376.9438130146747
 30
0.0
 11
-847.1309906727558
 21
-376.9438130146747
 31
0.0
  0
LINE
  5
91
330
1F
100
AcDbEntity
  8
D-4
  6
Continuous
 62
     7
370
     5
100
AcDbLine
 10
-571.792699195243
 20
-251.9435243348816
 30
0.0
 11
-847.1309906727558
 21
-251.9435243348816
 31
0.0
  0
LINE
  5
92
330
1F
100
AcDbEntity
  8
D-4
  6
Continuous
 62
     7
370
     5
100
AcDbLine
 10
-1271.316212576789
 20
88.42380832981434
 30
0.0
 11
-543.6486463289003
 21
88.42380832981434
 31
0.0
  0
LINE
  5
93
330
1F
100
AcDbEntity
  8
D-4
  6
Continuous
 62
     7
370
     5
100
AcDbLine
 10
-698.648167945243
 20
-812.027027027027
 30
0.0
 11
-298.6470957060118
 21
-812.027027027027
 31
0.0
  0
LINE
  5
94
330
1F
100
AcDbEntity
  8
D-4
  6
Continuous
 62
     7
370
     5
100
AcDbLine
 10
-1271.316212576789
 20
-22.27186048353019
 30
0.0
 11
-497.1109068071519
 21
-22.27186048353019
 31
0.0
  0
LINE
  5
95
330
1F
100
AcDbEntity
  8
D-4
  6
Continuous
 62
     7
370
     5
100
AcDbLine
 10
-310.5979442596436
 20
-386.9439697265625
 30
0.0
 11
-310.5979442596436
 21
-336.9434336069468
 31
0.0
  0
LINE
  5
96
330
1F
100
AcDbEntity
  8
D-4
  6
Continuous
 62
     7
370
     5
100
AcDbLine
 10
-698.648167945243
 20
-776.9437717747043
 30
0.0
 11
-698.648167945243
 21
-815.0266162769213
 31
0.0
  0
LINE
  5
97
330
1F
100
AcDbEntity
  8
D-5
  6
Continuous
 62
     2
370
     5
100
AcDbLine
 10
-1040.64291232341
 20
-947.8858411634291
 30
0.0
 11
-1040.64291232341
 21
-882.8862453151394
 31
0.0
  0
LINE
  5
98
330
1F
100
AcDbEntity
  8
D-5
  6
Continuous
 62
     2
370
     5
100
AcDbLine
 10
-1040.64291232341
 20
-882.8862453151394
 30
0.0
 11
-465.6424999237061
 21
-882.8862453151394
 31
0.0
  0
LINE
  5
99
330
1F
100
AcDbEntity
  8
D-5
  6
Continuous
 62
     2
370
     5
100
AcDbLine
 10
-465.6424999237061
 20
-882.8862453151394
 30
0.0
 11
-465.6424999237061
 21
-947.8858411634291
 31
0.0
  0
LINE
  5
9A
330
1F
100
AcDbEntity
  8
D-5
  6
Continuous
 62
     2
370
     5
100
AcDbLine
 10
-465.6424999237061
 20
-947.8858411634291
 30
0.0
 11
-1040.64291232341
 21
-947.8858411634291
 31
0.0
  0
LINE
  5
9B
330
1F
100
AcDbEntity
  8
D-A
  6
Continuous
 62
     3
370
     5
100
AcDbLine
 10
-560.1480574221225
 20
-256.9440357105151
 30
0.0
 11
-548.6477967855092
 21
-256.9440357105151
 31
0.0
  0
LINE
  5
9C
330
1F
100
AcDbEntity
  8
D-A
  6
Continuous
 62
     3
370
     5
100
AcDbLine
 10
-548.6477967855092
 20
-369.4440357105151
 30
0.0
 11
-560.1480574221225
 21
-369.4440357105151
 31
0.0
  0
LINE
  5
9D
330
1F
100
AcDbEntity
  8
D-A
  6
Continuous
 62
     3
370
     5
100
AcDbLine
 10
-548.6477967855092
 20
-369.4440357105151
 30
0.0
 11
-548.6477967855092
 21
-336.9434336069468
 31
0.0
  0
LINE
  5
9E
330
1F
100
AcDbEntity
  8
D-5
  6
Continuous
 62
     7
370
     5
100
AcDbLine
 10
-449.1249020035201
 20
-89.03236182960285
 30
0.0
 11
-612.426524548917
 21
-276.657442659945
 31
0.0
  0
LINE
  5
9F
330
1F
100
AcDbEntity
  8
D-5
  6
Continuous
 62
     7
370
     5
100
AcDbLine
 10
-612.426524548917
 20
-276.657442659945
 30
0.0
 11
-598.6152996888031
 21
-255.8179370777026
 31
0.0
  0
LINE
  5
A0
330
1F
100
AcDbEntity
  8
D-5
  6
Continuous
 62
     7
370
     5
100
AcDbLine
 10
-612.426524548917
 20
-276.657442659945
 30
0.0
 11
-593.6924844174771
 21
-260.1026050464526
 31
0.0
  0
LINE
  5
A1
330
1F
100
AcDbEntity
  8
D-5
  6
Continuous
 62
     7
370
     5
100
AcDbLine
 10
-449.1249020035201
 20
-143.8944718644424
 30
0.0
 11
-545.600327929935
 21
-254.7395943306587
 31
0.0
  0
LINE
  5
A2
330
1F
100
AcDbEntity
  8
D-5
  6
Continuous
 62
     7
370
     5
100
AcDbLine
 10
-545.600327929935
 20
-254.7395943306587
 30
0.0
 11
-531.7889793499094
 21
-233.9010785077069
 31
0.0
  0
LINE
  5
A3
330
1F
100
AcDbEntity
  8
D-5
  6
Continuous
 62
     7
370
     5
100
AcDbLine
 10
-545.600327929935
 20
-254.7395943306587
 30
0.0
 11
-526.8660403586722
 21
-238.1856227565456
 31
0.0
  0
LINE
  5
A4
330
1F
100
AcDbEntity
  8
D-5
  6
Continuous
 62
     7
370
     5
100
AcDbLine
 10
-513.6270200884019
 20
-340.1201897698479
 30
0.0
 11
-392.5399922035834
 21
-200.9980155326224
 31
0.0
  0
LINE
  5
A5
330
1F
100
AcDbEntity
  8
D-5
  6
Continuous
 62
     7
370
     5
100
AcDbLine
 10
-513.6270200884019
 20
-340.1201897698479
 30
0.0
 11
-499.8159189481993
 21
-319.2814265070734
 31
0.0
  0
LINE
  5
A6
330
1F
100
AcDbEntity
  8
D-5
  6
Continuous
 62
     7
370
     5
100
AcDbLine
 10
-513.6270200884019
 20
-340.1201897698479
 30
0.0
 11
-494.8927325171391
 21
-323.5659707559121
 31
0.0
  0
LINE
  5
A7
330
1F
100
AcDbEntity
  8
D-5
  6
Continuous
 62
     7
370
     5
100
AcDbLine
 10
-392.5399922035834
 20
-200.9980155326224
 30
0.0
 11
-5.837696951788587
 21
-200.9980155326224
 31
0.0
  0
LINE
  5
A8
330
1F
100
AcDbEntity
  8
D-6
  6
Continuous
 62
     6
370
     5
100
AcDbLine
 10
-548.6477967855092
 20
-251.9442666543496
 30
0.0
 11
-133.6471699379584
 21
-251.9442666543496
 31
0.0
  0
LINE
  5
A9
330
1F
100
AcDbEntity
  8
D-4
  6
Continuous
 62
     7
370
     5
100
AcDbLine
 10
-115.1478264782878
 20
-251.9442666543496
 30
0.0
 11
-23.96278767972376
 21
-251.9442666543496
 31
0.0
  0
LINE
  5
AA
330
1F
100
AcDbEntity
  8
D-5
  6
Continuous
 62
     7
370
     5
100
AcDbLine
 10
-449.1249020035201
 20
-143.8944718644424
 30
0.0
 11
1.842340263160622
 21
-143.8944718644424
 31
0.0
  0
LINE
  5
AB
330
1F
100
AcDbEntity
  8
D-9
  6
Continuous
 62
     4
370
     5
100
AcDbLine
 10
-665.691905408292
 20
-269.4434583509291
 30
0.0
 11
-683.1920868641621
 21
-286.9435160868876
 31
0.0
  0
LINE
  5
AC
330
1F
100
AcDbEntity
  8
D-9
  6
Continuous
 62
     4
370
     5
100
AcDbLine
 10
-637.4075541625152
 20
-269.4434583509291
 30
0.0
 11
-654.9074881785623
 21
-286.9435160868876
 31
0.0
  0
LINE
  5
AD
330
1F
100
AcDbEntity
  8
D-9
  6
Continuous
 62
     4
370
     5
100
AcDbLine
 10
-630.3362189112482
 20
-269.4434583509291
 30
0.0
 11
-647.836400367118
 21
-286.9435160868876
 31
0.0
  0
LINE
  5
AE
330
1F
100
AcDbEntity
  8
D-9
  6
Continuous
 62
     4
370
     5
100
AcDbLine
 10
-623.2655022595378
 20
-269.4434583509291
 30
0.0
 11
-640.7649413959399
 21
-286.9435160868876
 31
0.0
  0
LINE
  5
AF
330
1F
100
AcDbEntity
  8
D-9
  6
Continuous
 62
     4
370
     5
100
AcDbLine
 10
-616.1940432883597
 20
-269.4434583509291
 30
0.0
 11
-635.8172584224392
 21
-289.0663023252745
 31
0.0
  0
LINE
  5
B0
330
1F
100
AcDbEntity
  8
D-9
  6
Continuous
 62
     4
370
     5
100
AcDbLine
 10
-609.1233266366493
 20
-269.4434583509291
 30
0.0
 11
-631.7766898387185
 21
-292.0968215529983
 31
0.0
  0
LINE
  5
B1
330
1F
100
AcDbEntity
  8
D-9
  6
Continuous
 62
     4
370
     5
100
AcDbLine
 10
-602.0518676654711
 20
-269.4434583509291
 30
0.0
 11
-627.7361212549982
 21
-295.1270933408995
 31
0.0
  0
LINE
  5
B2
330
1F
100
AcDbEntity
  8
D-9
  6
Continuous
 62
     4
370
     5
100
AcDbLine
 10
-594.9811510137607
 20
-269.4434583509291
 30
0.0
 11
-623.6955526712777
 21
-298.1576125686233
 31
0.0
  0
LINE
  5
B3
330
1F
100
AcDbEntity
  8
D-9
  6
Continuous
 62
     4
370
     5
100
AcDbLine
 10
-587.9098157624941
 20
-269.4434583509291
 30
0.0
 11
-619.6543654880006
 21
-301.1882555162583
 31
0.0
  0
LINE
  5
B4
330
1F
100
AcDbEntity
  8
D-9
  6
Continuous
 62
     4
370
     5
100
AcDbLine
 10
-580.838851670961
 20
-269.4434583509291
 30
0.0
 11
-613.3388351749727
 21
-301.9434418549407
 31
0.0
  0
LINE
  5
B5
330
1F
100
AcDbEntity
  8
D-9
  6
Continuous
 62
     4
370
     5
100
AcDbLine
 10
-573.7676401396055
 20
-269.4434583509291
 30
0.0
 11
-606.2673762037946
 21
-301.9434418549407
 31
0.0
  0
LINE
  5
B6
330
1F
100
AcDbEntity
  8
D-9
  6
Continuous
 62
     4
370
     5
100
AcDbLine
 10
-568.6479864893732
 20
-271.394521352407
 30
0.0
 11
-599.1966595520844
 21
-301.9434418549407
 31
0.0
  0
LINE
  5
B7
330
1F
100
AcDbEntity
  8
D-9
  6
Continuous
 62
     4
370
     5
100
AcDbLine
 10
-568.6479864893732
 20
-292.6077847867398
 30
0.0
 11
-577.983148677929
 21
-301.9434418549407
 31
0.0
  0
LINE
  5
B8
330
1F
100
AcDbEntity
  8
D-9
  6
Continuous
 62
     4
370
     5
100
AcDbLine
 10
-568.6479864893732
 20
-285.5366969752956
 30
0.0
 11
-585.0543602092844
 21
-301.9434418549407
 31
0.0
  0
LINE
  5
B9
330
1F
100
AcDbEntity
  8
D-9
  6
Continuous
 62
     4
370
     5
100
AcDbLine
 10
-568.6479864893732
 20
-278.4656091638513
 30
0.0
 11
-592.125200580906
 21
-301.9434418549407
 31
0.0
  0
LINE
  5
BA
330
1F
100
AcDbEntity
  8
D-9
  6
Continuous
 62
     4
370
     5
100
AcDbLine
 10
-679.834204751092
 20
-269.4434583509291
 30
0.0
 11
-688.6480112333555
 21
-278.2570173933699
 31
0.0
  0
LINE
  5
BB
330
1F
100
AcDbEntity
  8
D-9
  6
Continuous
 62
     4
370
     5
100
AcDbLine
 10
-672.763240659559
 20
-269.4434583509291
 30
0.0
 11
-688.6480112333555
 21
-285.3281052048142
 31
0.0
  0
LINE
  5
BC
330
1F
100
AcDbEntity
  8
D-9
  6
Continuous
 62
     4
370
     5
100
AcDbLine
 10
-683.6477472975446
 20
-269.4434583509291
 30
0.0
 11
-568.6479864893732
 21
-269.4434583509291
 31
0.0
  0
LINE
  5
BD
330
1F
100
AcDbEntity
  8
D-9
  6
Continuous
 62
     4
370
     5
100
AcDbLine
 10
-688.6480112333555
 20
-274.4435985668285
 30
0.0
 11
-688.6480112333555
 21
-286.9435160868876
 31
0.0
  0
LINE
  5
BE
330
1F
100
AcDbEntity
  8
D-6
  6
Continuous
 62
     6
370
     5
100
AcDbLine
 10
-698.648167945243
 20
-306.9434583509291
 30
0.0
 11
-698.648167945243
 21
-751.9434418549408
 31
0.0
  0
LINE
  5
BF
330
1F
100
AcDbEntity
  8
D-1
  6
Continuous
 62
     2
370
     5
100
AcDbLine
 10
-548.6475493456865
 20
-371.9434253589526
 30
0.0
 11
-563.647598833651
 21
-371.9434253589526
 31
0.0
  0
LINE
  5
C0
330
1F
100
AcDbEntity
  8
D-1
  6
Continuous
 62
     2
370
     5
100
AcDbLine
 10
-548.6475493456865
 20
-256.9434171109586
 30
0.0
 11
-563.647598833651
 21
-256.9434171109586
 31
0.0
  0
LINE
  5
C1
330
1F
100
AcDbEntity
  8
D-1
  6
Continuous
 62
     2
370
     5
100
AcDbLine
 10
-543.6475328496982
 20
-349.4433511270058
 30
0.0
 11
-548.6475493456865
 21
-349.4433511270058
 31
0.0
  0
LINE
  5
C2
330
1F
100
AcDbEntity
  8
D-1
  6
Continuous
 62
     2
370
     5
100
AcDbLine
 10
-548.6475493456865
 20
-371.9434253589526
 30
0.0
 11
-548.6475493456865
 21
-349.4433511270058
 31
0.0
  0
LINE
  5
C3
330
1F
100
AcDbEntity
  8
D-1
  6
Continuous
 62
     2
370
     5
100
AcDbLine
 10
-543.6475328496982
 20
-279.443367622994
 30
0.0
 11
-548.6475493456865
 21
-279.443367622994
 31
0.0
  0
LINE
  5
C4
330
1F
100
AcDbEntity
  8
D-1
  6
Continuous
 62
     2
370
     5
100
AcDbLine
 10
-548.6475493456865
 20
-279.443367622994
 30
0.0
 11
-548.6475493456865
 21
-256.9434171109586
 31
0.0
  0
LINE
  5
C5
330
1F
100
AcDbEntity
  8
D-1
  6
Continuous
 62
     2
370
     5
100
AcDbLine
 10
-621.6474932593267
 20
-305.9434303077491
 30
0.0
 11
-640.3141060390988
 21
-291.9436563027871
 31
0.0
  0
LINE
  5
C6
330
1F
100
AcDbEntity
  8
D-1
  6
Continuous
 62
     2
370
     5
100
AcDbLine
 10
-568.6476153296392
 20
-301.9433181350296
 30
0.0
 11
-618.6475328496982
 21
-301.9433181350296
 31
0.0
  0
LINE
  5
C7
330
1F
100
AcDbEntity
  8
D-1
  6
Continuous
 62
     2
370
     5
100
AcDbLine
 10
-563.647598833651
 20
-311.9433511270058
 30
0.0
 11
-563.647598833651
 21
-371.9434253589526
 31
0.0
  0
LINE
  5
C8
330
1F
100
AcDbEntity
  8
D-1
  6
Continuous
 62
     2
370
     5
100
AcDbLine
 10
-563.647598833651
 20
-301.9433181350296
 30
0.0
 11
-563.647598833651
 21
-256.9434171109586
 31
0.0
  0
LINE
  5
C9
330
1F
100
AcDbEntity
  8
D-1
  6
Continuous
 62
     2
370
     5
100
AcDbLine
 10
-543.6475328496982
 20
-254.9433610245987
 30
0.0
 11
-543.6475328496982
 21
-279.443367622994
 31
0.0
  0
LINE
  5
CA
330
1F
100
AcDbEntity
  8
D-1
  6
Continuous
 62
     2
370
     5
100
AcDbLine
 10
-565.6475312000996
 20
-251.9434006149703
 30
0.0
 11
-546.6474932593267
 21
-251.9434006149703
 31
0.0
  0
LINE
  5
CB
330
1F
100
AcDbEntity
  8
D-1
  6
Continuous
 62
     2
370
     5
100
AcDbLine
 10
-568.6476153296392
 20
-254.9433610245987
 30
0.0
 11
-568.6476153296392
 21
-301.9433181350296
 31
0.0
  0
LINE
  5
CC
330
1F
100
AcDbEntity
  8
D-1
  6
Continuous
 62
     2
370
     5
100
AcDbLine
 10
-543.6475328496982
 20
-373.9433577254011
 30
0.0
 11
-543.6475328496982
 21
-349.4433511270058
 31
0.0
  0
LINE
  5
CD
330
1F
100
AcDbEntity
  8
D-1
  6
Continuous
 62
     2
370
     5
100
AcDbLine
 10
-565.6475312000996
 20
-376.9433181350296
 30
0.0
 11
-546.6474932593267
 21
-376.9433181350296
 31
0.0
  0
LINE
  5
CE
330
1F
100
AcDbEntity
  8
D-1
  6
Continuous
 62
     2
370
     5
100
AcDbLine
 10
-568.6476153296392
 20
-373.9433577254011
 30
0.0
 11
-568.6476153296392
 21
-311.9433511270058
 31
0.0
  0
LINE
  5
CF
330
1F
100
AcDbEntity
  8
D-1
  6
Continuous
 62
     2
370
     5
100
AcDbLine
 10
-637.3275073798925
 20
-287.9336465371621
 30
0.0
 11
-618.6475328496982
 21
-301.9433181350296
 31
0.0
  0
LINE
  5
D0
330
1F
100
AcDbEntity
  8
D-1
  6
Continuous
 62
     2
370
     5
100
AcDbLine
 10
-693.6475328496982
 20
-306.9433346310177
 30
0.0
 11
-568.6476153296392
 21
-306.9433346310177
 31
0.0
  0
LINE
  5
D1
330
1F
100
AcDbEntity
  8
D-1
  6
Continuous
 62
     2
370
     5
100
AcDbLine
 10
-693.6475328496982
 20
-306.9433346310177
 30
0.0
 11
-693.6475328496982
 21
-291.9436563027871
 31
0.0
  0
LINE
  5
D2
330
1F
100
AcDbEntity
  8
D-1
  6
Continuous
 62
     2
370
     5
100
AcDbLine
 10
-698.6475493456865
 20
-306.9433346310177
 30
0.0
 11
-698.6475493456865
 21
-291.9436563027871
 31
0.0
  0
LINE
  5
D3
330
1F
100
AcDbEntity
  8
D-1
  6
Continuous
 62
     2
370
     5
100
AcDbLine
 10
-693.6475328496982
 20
-311.9433511270058
 30
0.0
 11
-568.6476153296392
 21
-311.9433511270058
 31
0.0
  0
LINE
  5
D4
330
1F
100
AcDbEntity
  8
D-1
  6
Continuous
 62
     2
370
     5
100
AcDbLine
 10
-680.4776720098545
 20
-287.6133356867609
 30
0.0
 11
-668.6475740896688
 21
-294.4434171109586
 31
0.0
  0
LINE
  5
D5
330
1F
100
AcDbEntity
  8
D-1
  6
Continuous
 62
     2
370
     5
100
AcDbLine
 10
-656.8173524495717
 20
-287.6133356867609
 30
0.0
 11
-668.6475740896688
 21
-294.4434171109586
 31
0.0
  0
LINE
  5
D6
330
1F
100
AcDbEntity
  8
D-1
  6
Continuous
 62
     2
370
     5
100
AcDbLine
 10
-666.1475658416748
 20
-298.7736140070734
 30
0.0
 11
-654.3174679214889
 21
-291.9436563027871
 31
0.0
  0
LINE
  5
D7
330
1F
100
AcDbEntity
  8
D-1
  6
Continuous
 62
     2
370
     5
100
AcDbLine
 10
-671.1474586177517
 20
-298.7736140070734
 30
0.0
 11
-682.97780397776
 21
-291.9436563027871
 31
0.0
  0
LINE
  5
D8
330
1F
100
AcDbEntity
  8
D-1
  6
Continuous
 62
     2
370
     5
100
AcDbLine
 10
-640.2975275709821
 20
-286.9435160868876
 30
0.0
 11
-654.3173442015777
 21
-286.9435160868876
 31
0.0
  0
LINE
  5
D9
330
1F
100
AcDbEntity
  8
D-1
  6
Continuous
 62
     2
370
     5
100
AcDbLine
 10
-682.97780397776
 20
-286.9435160868876
 30
0.0
 11
-693.6475328496982
 21
-286.9435160868876
 31
0.0
  0
LINE
  5
DA
330
1F
100
AcDbEntity
  8
D-1
  6
Continuous
 62
     2
370
     5
100
AcDbLine
 10
-640.3141060390988
 20
-291.9436563027871
 30
0.0
 11
-654.3174679214889
 21
-291.9436563027871
 31
0.0
  0
LINE
  5
DB
330
1F
100
AcDbEntity
  8
D-1
  6
Continuous
 62
     2
370
     5
100
AcDbLine
 10
-682.97780397776
 20
-291.9436563027871
 30
0.0
 11
-693.6475328496982
 21
-291.9436563027871
 31
0.0
  0
LINE
  5
DC
330
1F
100
AcDbEntity
  8
D-9
  6
Continuous
 62
     4
370
     5
100
AcDbLine
 10
-644.4785182540479
 20
-269.4434583509291
 30
0.0
 11
-669.174744631793
 21
-294.1390661291173
 31
0.0
  0
LINE
  5
DD
330
1F
100
AcDbEntity
  8
D-9
  6
Continuous
 62
     4
370
     5
100
AcDbLine
 10
-651.5497297854038
 20
-269.4434583509291
 30
0.0
 11
-673.657364458651
 21
-291.5510930241765
 31
0.0
  0
LINE
  5
DE
330
1F
100
AcDbEntity
  8
D-9
  6
Continuous
 62
     4
370
     5
100
AcDbLine
 10
-658.6206938769365
 20
-269.4434583509291
 30
0.0
 11
-678.140355445243
 21
-288.9628724794129
 31
0.0
  0
LINE
  5
DF
330
1F
100
AcDbEntity
  8
D-2
  6
Continuous
 62
     3
370
     5
100
AcDbLine
 10
-573.6481267052727
 20
-269.4434583509291
 30
0.0
 11
-573.6481267052727
 21
-254.4434088629644
 31
0.0
  0
LINE
  5
E0
330
1F
100
AcDbEntity
  8
D-4
  6
Continuous
 62
     7
370
     5
100
AcDbLine
 10
-1055.374613323727
 20
-216.4234140756967
 30
0.0
 11
-1055.374613323727
 21
-300.6263196790541
 31
0.0
  0
LINE
  5
E1
330
1F
100
AcDbEntity
  8
D-2
  6
Continuous
 62
     3
370
     5
100
AcDbLine
 10
-573.6481267052727
 20
-269.4434583509291
 30
0.0
 11
-1246.317614735784
 21
-269.4434583509291
 31
0.0
  0
LINE
  5
E2
330
1F
100
AcDbEntity
  8
D-2
  6
Continuous
 62
     3
370
     5
100
AcDbLine
 10
-573.6481267052727
 20
-264.4434418549407
 30
0.0
 11
-1246.317614735784
 21
-264.4434418549407
 31
0.0
  0
LINE
  5
E3
330
1F
100
AcDbEntity
  8
D-2
  6
Continuous
 62
     3
370
     5
100
AcDbLine
 10
-573.6481267052727
 20
-259.4434253589526
 30
0.0
 11
-1246.317614735784
 21
-259.4434253589526
 31
0.0
  0
LINE
  5
E4
330
1F
100
AcDbEntity
  8
D-2
  6
Continuous
 62
     3
370
     5
100
AcDbLine
 10
-573.6481267052727
 20
-254.4434088629644
 30
0.0
 11
-1246.317614735784
 21
-254.4434088629644
 31
0.0
  0
LINE
  5
E5
330
1F
100
AcDbEntity
  8
D-5
  6
Continuous
 62
     7
370
     5
100
AcDbLine
 10
-449.1258917628107
 20
-25.6976648279138
 30
0.0
 11
11.27227190378562
 21
-25.6976648279138
 31
0.0
  0
LINE
  5
E6
330
1F
100
AcDbEntity
  8
D-5
  6
Continuous
 62
     7
370
     5
100
AcDbLine
 10
-449.1258917628107
 20
-25.6976648279138
 30
0.0
 11
-646.6387916255642
 21
-254.4436563027871
 31
0.0
  0
LINE
  5
E7
330
1F
100
AcDbEntity
  8
D-5
  6
Continuous
 62
     7
370
     5
100
AcDbLine
 10
-646.6387916255642
 20
-254.4436563027871
 30
0.0
 11
-632.9102116662102
 21
-233.5507037188555
 31
0.0
  0
LINE
  5
E8
330
1F
100
AcDbEntity
  8
D-5
  6
Continuous
 62
     7
370
     5
100
AcDbLine
 10
-646.6387916255642
 20
-254.4436563027871
 30
0.0
 11
-627.9705704869448
 21
-237.815700221706
 31
0.0
  0
LINE
  5
E9
330
1F
100
AcDbEntity
  8
D-5
  6
Continuous
 62
     2
370
     5
100
AcDbLine
 10
426.0239742897653
 20
-301.9438130146747
 30
0.0
 11
201.0239742897653
 21
-301.9438130146747
 31
0.0
  0
LINE
  5
EA
330
1F
100
AcDbEntity
  8
D-5
  6
Continuous
 62
     2
370
     5
100
AcDbLine
 10
426.0239742897653
 20
-251.9435243348816
 30
0.0
 11
426.0239742897653
 21
-301.9438130146747
 31
0.0
  0
LINE
  5
EB
330
1F
100
AcDbEntity
  8
D-5
  6
Continuous
 62
     2
370
     5
100
AcDbLine
 10
201.0239742897653
 20
-251.9435243348816
 30
0.0
 11
426.0239742897653
 21
-251.9435243348816
 31
0.0
  0
LINE
  5
EC
330
1F
100
AcDbEntity
  8
D-5
  6
Continuous
 62
     2
370
     5
100
AcDbLine
 10
201.0239742897653
 20
-301.9438130146747
 30
0.0
 11
201.0239742897653
 21
-251.9435243348816
 31
0.0
  0
LINE
  5
ED
330
1F
100
AcDbEntity
  8
D-2
  6
Continuous
 62
     3
370
     5
100
AcDbLine
 10
-748.6489515046815
 20
-394.4434995908995
 30
0.0
 11
-1246.317614735784
 21
-394.4434995908995
 31
0.0
  0
LINE
  5
EE
330
1F
100
AcDbEntity
  8
D-2
  6
Continuous
 62
     3
370
     5
100
AcDbLine
 10
-748.6489515046815
 20
-269.4434583509291
 30
0.0
 11
-748.6489515046815
 21
-394.4434995908995
 31
0.0
  0
LINE
  5
EF
330
1F
100
AcDbEntity
  8
D-5
  6
Continuous
 62
     7
370
     5
100
AcDbLine
 10
-988.0787140614277
 20
-564.556893013619
 30
0.0
 11
-926.0939868720801
 21
-368.2717895507812
 31
0.0
  0
LINE
  5
F0
330
1F
100
AcDbEntity
  8
D-5
  6
Continuous
 62
     7
370
     5
100
AcDbLine
 10
-926.0939868720801
 20
-368.2717895507812
 30
0.0
 11
-930.4462059124096
 21
-392.8900723843961
 31
0.0
  0
LINE
  5
F1
330
1F
100
AcDbEntity
  8
D-5
  6
Continuous
 62
     7
370
     5
100
AcDbLine
 10
-926.0939868720801
 20
-368.2717895507812
 30
0.0
 11
-936.6695648915058
 21
-390.9247815931166
 31
0.0
  0
LINE
  5
F2
330
1F
100
AcDbEntity
  8
D-2
  6
Continuous
 62
     3
370
     5
100
AcDbLine
 10
-1246.317614735784
 20
-465.0219355402766
 30
0.0
 11
-1246.317614735784
 21
-185.7444639463682
 31
0.0
  0
LINE
  5
F3
330
1F
100
AcDbEntity
  8
C-2
  6
Continuous
 62
     3
370
     5
100
AcDbLine
 10
-536.7299814481993
 20
682.5941261085304
 30
0.0
 11
-536.7299814481993
 21
982.5943735483531
 31
0.0
  0
LINE
  5
F4
330
1F
100
AcDbEntity
  8
C-2
  6
Continuous
 62
     3
370
     5
100
AcDbLine
 10
-536.7299814481993
 20
982.5943735483531
 30
0.0
 11
-37.72996825140865
 21
982.5943735483531
 31
0.0
  0
LINE
  5
F5
330
1F
100
AcDbEntity
  8
C-2
  6
Continuous
 62
     3
370
     5
100
AcDbLine
 10
-37.72996825140865
 20
982.5943735483531
 30
0.0
 11
-37.72996825140865
 21
682.5941261085304
 31
0.0
  0
LINE
  5
F6
330
1F
100
AcDbEntity
  8
C-2
  6
Continuous
 62
     3
370
     5
100
AcDbLine
 10
-37.72996825140865
 20
682.5941261085304
 30
0.0
 11
-536.7299814481993
 21
682.5941261085304
 31
0.0
  0
LINE
  5
F7
330
1F
100
AcDbEntity
  8
C-2
  6
Continuous
 62
     3
370
     5
100
AcDbLine
 10
-537.7297620515566
 20
682.5941261085304
 30
0.0
 11
-537.7297620515566
 21
982.5943735483531
 31
0.0
  0
LINE
  5
F8
330
1F
100
AcDbEntity
  8
C-2
  6
Continuous
 62
     3
370
     5
100
AcDbLine
 10
-36.72956904849485
 20
682.5941261085304
 30
0.0
 11
-36.72956904849485
 21
982.5943735483531
 31
0.0
  0
LINE
  5
F9
330
1F
100
AcDbEntity
  8
C-2
  6
Continuous
 62
     3
370
     5
100
AcDbLine
 10
-36.72956904849485
 20
982.5943735483531
 30
0.0
 11
462.2704441482958
 21
982.5943735483531
 31
0.0
  0
LINE
  5
FA
330
1F
100
AcDbEntity
  8
C-2
  6
Continuous
 62
     3
370
     5
100
AcDbLine
 10
462.2704441482958
 20
982.5943735483531
 30
0.0
 11
462.2704441482958
 21
682.5941261085304
 31
0.0
  0
LINE
  5
FB
330
1F
100
AcDbEntity
  8
C-2
  6
Continuous
 62
     3
370
     5
100
AcDbLine
 10
462.2704441482958
 20
682.5941261085304
 30
0.0
 11
-36.72956904849485
 21
682.5941261085304
 31
0.0
  0
LINE
  5
FC
330
1F
100
AcDbEntity
  8
C-2
  6
Continuous
 62
     3
370
     5
100
AcDbLine
 10
463.2701010317419
 20
982.5943735483531
 30
0.0
 11
463.2701010317419
 21
682.5941261085304
 31
0.0
  0
LINE
  5
FD
330
1F
100
AcDbEntity
  8
C-2
  6
Continuous
 62
     3
370
     5
100
AcDbLine
 10
-537.7297620515566
 20
982.5943735483531
 30
0.0
 11
-787.7299682514086
 21
982.5943735483531
 31
0.0
  0
LINE
  5
FE
330
1F
100
AcDbEntity
  8
C-2
  6
Continuous
 62
     3
370
     5
100
AcDbLine
 10
-537.7297620515566
 20
682.5941261085304
 30
0.0
 11
-787.7299682514086
 21
682.5941261085304
 31
0.0
  0
LINE
  5
FF
330
1F
100
AcDbEntity
  8
C-2
  6
Continuous
 62
     3
370
     5
100
AcDbLine
 10
463.2701010317419
 20
982.5943735483531
 30
0.0
 11
713.2704309515052
 21
982.5943735483531
 31
0.0
  0
LINE
  5
100
330
1F
100
AcDbEntity
  8
C-2
  6
Continuous
 62
     3
370
     5
100
AcDbLine
 10
463.2701010317419
 20
682.5941261085304
 30
0.0
 11
713.2704309515052
 21
682.5941261085304
 31
0.0
  0
LINE
  5
101
330
1F
100
AcDbEntity
  8
C-1
  6
Continuous
 62
     2
370
     5
100
AcDbLine
 10
-787.7299682514086
 20
983.5942778716219
 30
0.0
 11
713.2704309515052
 21
983.5942778716219
 31
0.0
  0
LINE
  5
102
330
1F
100
AcDbEntity
  8
C-1
  6
JWW_DASHED3
 62
     2
370
     5
100
AcDbLine
 10
-787.7299682514086
 20
957.5940436285896
 30
0.0
 11
713.2704309515052
 21
957.5940436285896
 31
0.0
  0
LINE
  5
103
330
1F
100
AcDbEntity
  8
C-1
  6
JWW_DASHED3
 62
     2
370
     5
100
AcDbLine
 10
713.2704309515052
 20
707.594456028294
 30
0.0
 11
-787.7299682514086
 21
707.594456028294
 31
0.0
  0
LINE
  5
104
330
1F
100
AcDbEntity
  8
C-1
  6
Continuous
 62
     2
370
     5
100
AcDbLine
 10
713.2704309515052
 20
681.5939743454394
 30
0.0
 11
-787.7299682514086
 21
681.5939743454394
 31
0.0
  0
LINE
  5
105
330
1F
100
AcDbEntity
  8
C-1
  6
Continuous
 62
     2
370
     5
100
AcDbLine
 10
-787.7299682514086
 20
990.5941030141471
 30
0.0
 11
713.2704309515052
 21
990.5941030141471
 31
0.0
  0
LINE
  5
106
330
1F
100
AcDbEntity
  8
C-1
  6
Continuous
 62
     2
370
     5
100
AcDbLine
 10
713.2704309515052
 20
674.5941492029141
 30
0.0
 11
-787.7299682514086
 21
674.5941492029141
 31
0.0
  0
LINE
  5
107
330
1F
100
AcDbEntity
  8
C-4
  6
Continuous
 62
     7
370
     5
100
AcDbLine
 10
-537.7297620515566
 20
1002.594439532306
 30
0.0
 11
-537.7297620515566
 21
1085.594416437923
 31
0.0
  0
LINE
  5
108
330
1F
100
AcDbEntity
  8
C-4
  6
Continuous
 62
     7
370
     5
100
AcDbLine
 10
-536.7299814481993
 20
1002.594439532306
 30
0.0
 11
-536.7299814481993
 21
1085.594416437923
 31
0.0
  0
LINE
  5
109
330
1F
100
AcDbEntity
  8
C-4
  6
Continuous
 62
     7
370
     5
100
AcDbLine
 10
-536.7299814481993
 20
1082.594456028294
 30
0.0
 11
-37.72996825140865
 21
1082.594456028294
 31
0.0
  0
LINE
  5
10A
330
1F
100
AcDbEntity
  8
C-4
  6
Continuous
 62
     7
370
     5
100
AcDbLine
 10
-37.72996825140865
 20
1002.594439532306
 30
0.0
 11
-37.72996825140865
 21
1085.594416437923
 31
0.0
  0
LINE
  5
10B
330
1F
100
AcDbEntity
  8
C-4
  6
Continuous
 62
     7
370
     5
100
AcDbLine
 10
-37.72996825140865
 20
1082.594456028294
 30
0.0
 11
-36.72956904849485
 21
1082.594456028294
 31
0.0
  0
LINE
  5
10C
330
1F
100
AcDbEntity
  8
C-4
  6
Continuous
 62
     7
370
     5
100
AcDbLine
 10
-36.72956904849485
 20
1002.594439532306
 30
0.0
 11
-36.72956904849485
 21
1085.594416437923
 31
0.0
  0
LINE
  5
10D
330
1F
100
AcDbEntity
  8
C-4
  6
Continuous
 62
     7
370
     5
100
AcDbLine
 10
-36.72956904849485
 20
1082.594456028294
 30
0.0
 11
462.2704441482958
 21
1082.594456028294
 31
0.0
  0
LINE
  5
10E
330
1F
100
AcDbEntity
  8
C-4
  6
Continuous
 62
     7
370
     5
100
AcDbLine
 10
462.2704441482958
 20
1002.594439532306
 30
0.0
 11
462.2704441482958
 21
1085.594416437923
 31
0.0
  0
LINE
  5
10F
330
1F
100
AcDbEntity
  8
C-4
  6
Continuous
 62
     7
370
     5
100
AcDbLine
 10
463.2701010317419
 20
1002.594439532306
 30
0.0
 11
463.2701010317419
 21
1085.594416437923
 31
0.0
  0
LINE
  5
110
330
1F
100
AcDbEntity
  8
C-4
  6
Continuous
 62
     7
370
     5
100
AcDbLine
 10
-536.7299814481993
 20
1082.594456028294
 30
0.0
 11
-536.7299814481993
 21
1165.594185494088
 31
0.0
  0
LINE
  5
111
330
1F
100
AcDbEntity
  8
C-4
  6
Continuous
 62
     7
370
     5
100
AcDbLine
 10
-36.72956904849485
 20
1082.594456028294
 30
0.0
 11
-36.72956904849485
 21
1165.594185494088
 31
0.0
  0
LINE
  5
112
330
1F
100
AcDbEntity
  8
C-4
  6
Continuous
 62
     7
370
     5
100
AcDbLine
 10
463.2701010317419
 20
1082.594456028294
 30
0.0
 11
463.2701010317419
 21
1165.594185494088
 31
0.0
  0
LINE
  5
113
330
1F
100
AcDbEntity
  8
C-4
  6
Continuous
 62
     7
370
     5
100
AcDbLine
 10
-787.7299682514086
 20
1162.594225084459
 30
0.0
 11
-36.72956904849485
 21
1162.594225084459
 31
0.0
  0
LINE
  5
114
330
1F
100
AcDbEntity
  8
C-4
  6
Continuous
 62
     7
370
     5
100
AcDbLine
 10
-36.72956904849485
 20
1162.594225084459
 30
0.0
 11
713.2704309515052
 21
1162.594225084459
 31
0.0
  0
LINE
  5
115
330
1F
100
AcDbEntity
  8
C-4
  6
Continuous
 62
     7
370
     5
100
AcDbLine
 10
-787.7299682514086
 20
1082.594456028294
 30
0.0
 11
-536.7299814481993
 21
1082.594456028294
 31
0.0
  0
LINE
  5
116
330
1F
100
AcDbEntity
  8
C-4
  6
Continuous
 62
     7
370
     5
100
AcDbLine
 10
462.2704441482958
 20
1082.594456028294
 30
0.0
 11
713.2704309515052
 21
1082.594456028294
 31
0.0
  0
LINE
  5
117
330
1F
100
AcDbEntity
  8
C-2
  6
Continuous
 62
     3
370
     5
100
AcDbLine
 10
-807.729539355716
 20
817.5940766205658
 30
0.0
 11
-767.7294073878107
 21
847.5946704761404
 31
0.0
  0
LINE
  5
118
330
1F
100
AcDbEntity
  8
C-2
  6
Continuous
 62
     3
370
     5
100
AcDbLine
 10
-807.729539355716
 20
817.5940766205658
 30
0.0
 11
-787.7299682514086
 21
817.5940766205658
 31
0.0
  0
LINE
  5
119
330
1F
100
AcDbEntity
  8
C-2
  6
Continuous
 62
     3
370
     5
100
AcDbLine
 10
-787.7299682514086
 20
847.5946704761404
 30
0.0
 11
-767.7294073878107
 21
847.5946704761404
 31
0.0
  0
LINE
  5
11A
330
1F
100
AcDbEntity
  8
C-2
  6
Continuous
 62
     3
370
     5
100
AcDbLine
 10
693.2703649675525
 20
817.5940766205658
 30
0.0
 11
733.2704969354577
 21
847.5946704761404
 31
0.0
  0
LINE
  5
11B
330
1F
100
AcDbEntity
  8
C-2
  6
Continuous
 62
     3
370
     5
100
AcDbLine
 10
693.2703649675525
 20
817.5940766205658
 30
0.0
 11
713.2704309515052
 21
817.5940766205658
 31
0.0
  0
LINE
  5
11C
330
1F
100
AcDbEntity
  8
C-2
  6
Continuous
 62
     3
370
     5
100
AcDbLine
 10
713.2704309515052
 20
847.5946704761404
 30
0.0
 11
733.2704969354577
 21
847.5946704761404
 31
0.0
  0
LINE
  5
11D
330
1F
100
AcDbEntity
  8
C-2
  6
Continuous
 62
     3
370
     5
100
AcDbLine
 10
-787.7299682514086
 20
659.5945945945948
 30
0.0
 11
-787.7299682514086
 21
817.5940766205658
 31
0.0
  0
LINE
  5
11E
330
1F
100
AcDbEntity
  8
C-2
  6
Continuous
 62
     3
370
     5
100
AcDbLine
 10
-787.7299682514086
 20
847.5946704761404
 30
0.0
 11
-787.7299682514086
 21
1005.594152502112
 31
0.0
  0
LINE
  5
11F
330
1F
100
AcDbEntity
  8
C-2
  6
Continuous
 62
     3
370
     5
100
AcDbLine
 10
713.2704309515052
 20
1005.594152502112
 30
0.0
 11
713.2704309515052
 21
847.5946704761404
 31
0.0
  0
LINE
  5
120
330
1F
100
AcDbEntity
  8
C-2
  6
Continuous
 62
     3
370
     5
100
AcDbLine
 10
713.2704309515052
 20
817.5940766205658
 30
0.0
 11
713.2704309515052
 21
659.5945945945948
 31
0.0
  0
LINE
  5
121
330
1F
100
AcDbEntity
  8
C-5
  6
Continuous
 62
     7
370
     5
100
AcDbLine
 10
250.2706849897231
 20
574.5944378827071
 30
0.0
 11
250.2706849897231
 21
509.5945945945948
 31
0.0
  0
LINE
  5
122
330
1F
100
AcDbEntity
  8
C-5
  6
Continuous
 62
     7
370
     5
100
AcDbLine
 10
250.2706849897231
 20
509.5945945945948
 30
0.0
 11
-324.7297274099813
 21
509.5945945945948
 31
0.0
  0
LINE
  5
123
330
1F
100
AcDbEntity
  8
C-5
  6
Continuous
 62
     7
370
     5
100
AcDbLine
 10
-324.7297274099813
 20
574.5944378827071
 30
0.0
 11
250.2706849897231
 21
574.5944378827071
 31
0.0
  0
LINE
  5
124
330
1F
100
AcDbEntity
  8
C-5
  6
Continuous
 62
     7
370
     5
100
AcDbLine
 10
-324.7297274099813
 20
509.5945945945948
 30
0.0
 11
-324.7297274099813
 21
574.5944378827071
 31
0.0
  0
LINE
  5
125
330
1F
100
AcDbEntity
  8
C-A
  6
Continuous
 62
     3
370
     5
100
AcDbLine
 10
-37.72996825140865
 20
693.3750791807432
 30
0.0
 11
-48.51129248335553
 21
682.5941261085304
 31
0.0
  0
LINE
  5
126
330
1F
100
AcDbEntity
  8
C-A
  6
Continuous
 62
     3
370
     5
100
AcDbLine
 10
-37.72996825140865
 20
713.1744714685391
 30
0.0
 11
-68.31031361141697
 21
682.5941261085304
 31
0.0
  0
LINE
  5
127
330
1F
100
AcDbEntity
  8
C-A
  6
Continuous
 62
     3
370
     5
100
AcDbLine
 10
-37.72996825140865
 20
732.9733688766894
 30
0.0
 11
-88.10921101956751
 21
682.5941261085304
 31
0.0
  0
LINE
  5
128
330
1F
100
AcDbEntity
  8
C-A
  6
Continuous
 62
     3
370
     5
100
AcDbLine
 10
-37.72996825140865
 20
752.7725137246623
 30
0.0
 11
-107.9081084277178
 21
682.5941261085304
 31
0.0
  0
LINE
  5
129
330
1F
100
AcDbEntity
  8
C-A
  6
Continuous
 62
     3
370
     5
100
AcDbLine
 10
-37.72996825140865
 20
772.5714111328125
 30
0.0
 11
-127.707005835868
 21
682.5941261085304
 31
0.0
  0
LINE
  5
12A
330
1F
100
AcDbEntity
  8
C-A
  6
Continuous
 62
     3
370
     5
100
AcDbLine
 10
-125.9437496597701
 20
682.5941261085304
 30
0.0
 11
-141.8965661847912
 21
698.5473137932856
 31
0.0
  0
LINE
  5
12B
330
1F
100
AcDbEntity
  8
C-A
  6
Continuous
 62
     3
370
     5
100
AcDbLine
 10
-106.1447285317084
 20
682.5941261085304
 30
0.0
 11
-131.9971174807159
 21
708.4461438978042
 31
0.0
  0
LINE
  5
12C
330
1F
100
AcDbEntity
  8
C-A
  6
Continuous
 62
     3
370
     5
100
AcDbLine
 10
-86.34595484346931
 20
682.5941261085304
 30
0.0
 11
-122.0975450567295
 21
718.346211201436
 31
0.0
  0
LINE
  5
12D
330
1F
100
AcDbEntity
  8
C-A
  6
Continuous
 62
     3
370
     5
100
AcDbLine
 10
-66.54693371540787
 20
682.5941261085304
 30
0.0
 11
-112.1982200725657
 21
728.2457836254224
 31
0.0
  0
LINE
  5
12E
330
1F
100
AcDbEntity
  8
C-A
  6
Continuous
 62
     3
370
     5
100
AcDbLine
 10
-46.74791258734615
 20
682.5941261085304
 30
0.0
 11
-102.2986476485792
 21
738.1451086095863
 31
0.0
  0
LINE
  5
12F
330
1F
100
AcDbEntity
  8
C-A
  6
Continuous
 62
     3
370
     5
100
AcDbLine
 10
-37.72996825140865
 20
713.1739765888938
 30
0.0
 11
-82.49975024042897
 21
757.9435111380915
 31
0.0
  0
LINE
  5
130
330
1F
100
AcDbEntity
  8
C-A
  6
Continuous
 62
     3
370
     5
100
AcDbLine
 10
-37.72996825140865
 20
732.972873997044
 30
0.0
 11
-72.60005409653104
 21
767.8435784417231
 31
0.0
  0
LINE
  5
131
330
1F
100
AcDbEntity
  8
C-A
  6
Continuous
 62
     3
370
     5
100
AcDbLine
 10
-37.72996825140865
 20
752.7720188450169
 30
0.0
 11
-62.70060539245577
 21
777.7431508657096
 31
0.0
  0
LINE
  5
132
330
1F
100
AcDbEntity
  8
C-A
  6
Continuous
 62
     3
370
     5
100
AcDbLine
 10
-37.72996825140865
 20
772.5709162531675
 30
0.0
 11
-52.80128040829197
 21
787.6424758498734
 31
0.0
  0
LINE
  5
133
330
1F
100
AcDbEntity
  8
C-A
  6
Continuous
 62
     3
370
     5
100
AcDbLine
 10
-37.72996825140865
 20
792.3698136613177
 30
0.0
 11
-42.90195542412818
 21
797.5420482738599
 31
0.0
  0
LINE
  5
134
330
1F
100
AcDbEntity
  8
C-A
  6
Continuous
 62
     3
370
     5
100
AcDbLine
 10
-145.7426470679204
 20
682.5941261085304
 30
0.0
 11
-151.7962623286891
 21
688.6474939294766
 31
0.0
  0
LINE
  5
135
330
1F
100
AcDbEntity
  8
C-A
  6
Continuous
 62
     3
370
     5
100
AcDbLine
 10
-36.72956904849485
 20
971.8134204761404
 30
0.0
 11
-25.94812109663678
 21
982.5943735483531
 31
0.0
  0
LINE
  5
136
330
1F
100
AcDbEntity
  8
C-A
  6
Continuous
 62
     3
370
     5
100
AcDbLine
 10
-36.72956904849485
 20
952.0140281883448
 30
0.0
 11
-6.149223688486245
 21
982.5943735483531
 31
0.0
  0
LINE
  5
137
330
1F
100
AcDbEntity
  8
C-A
  6
Continuous
 62
     3
370
     5
100
AcDbLine
 10
-36.72956904849485
 20
932.2151307801943
 30
0.0
 11
13.64967371966401
 21
982.5943735483531
 31
0.0
  0
LINE
  5
138
330
1F
100
AcDbEntity
  8
C-A
  6
Continuous
 62
     3
370
     5
100
AcDbLine
 10
-36.72956904849485
 20
912.416233372044
 30
0.0
 11
33.44857112781426
 21
982.5943735483531
 31
0.0
  0
LINE
  5
139
330
1F
100
AcDbEntity
  8
C-A
  6
Continuous
 62
     3
370
     5
100
AcDbLine
 10
-36.72956904849485
 20
892.617088524071
 30
0.0
 11
53.24759225587599
 21
982.5943735483531
 31
0.0
  0
LINE
  5
13A
330
1F
100
AcDbEntity
  8
C-A
  6
Continuous
 62
     3
370
     5
100
AcDbLine
 10
51.4842123598666
 20
982.5943735483531
 30
0.0
 11
67.43727632471035
 21
966.6411858635981
 31
0.0
  0
LINE
  5
13B
330
1F
100
AcDbEntity
  8
C-A
  6
Continuous
 62
     3
370
     5
100
AcDbLine
 10
31.68519123180516
 20
982.5943735483531
 30
0.0
 11
57.53782762063537
 21
956.7423557590794
 31
0.0
  0
LINE
  5
13C
330
1F
100
AcDbEntity
  8
C-A
  6
Continuous
 62
     3
370
     5
100
AcDbLine
 10
11.88629382365463
 20
982.5943735483531
 30
0.0
 11
47.63825519664891
 21
946.8422884554477
 31
0.0
  0
LINE
  5
13D
330
1F
100
AcDbEntity
  8
C-A
  6
Continuous
 62
     3
370
     5
100
AcDbLine
 10
-7.912603584495628
 20
982.5943735483531
 30
0.0
 11
37.73893021248512
 21
936.9429634712839
 31
0.0
  0
LINE
  5
13E
330
1F
100
AcDbEntity
  8
C-A
  6
Continuous
 62
     3
370
     5
100
AcDbLine
 10
-27.71162471255735
 20
982.5943735483531
 30
0.0
 11
27.83935778849838
 21
927.0433910472974
 31
0.0
  0
LINE
  5
13F
330
1F
100
AcDbEntity
  8
C-A
  6
Continuous
 62
     3
370
     5
100
AcDbLine
 10
-36.72956904849485
 20
952.0145230679901
 30
0.0
 11
8.040460380348122
 21
907.2449885187925
 31
0.0
  0
LINE
  5
140
330
1F
100
AcDbEntity
  8
C-A
  6
Continuous
 62
     3
370
     5
100
AcDbLine
 10
-36.72956904849485
 20
932.2156256598396
 30
0.0
 11
-1.859483203372179
 21
897.3449212151606
 31
0.0
  0
LINE
  5
141
330
1F
100
AcDbEntity
  8
C-A
  6
Continuous
 62
     3
370
     5
100
AcDbLine
 10
-36.72956904849485
 20
912.4167282516894
 30
0.0
 11
-11.75893190744745
 21
887.4455962309967
 31
0.0
  0
LINE
  5
142
330
1F
100
AcDbEntity
  8
C-A
  6
Continuous
 62
     3
370
     5
100
AcDbLine
 10
-36.72956904849485
 20
892.6175834037165
 30
0.0
 11
-21.65838061152272
 21
877.5460238070102
 31
0.0
  0
LINE
  5
143
330
1F
100
AcDbEntity
  8
C-A
  6
Continuous
 62
     3
370
     5
100
AcDbLine
 10
-36.72956904849485
 20
872.8186859955658
 30
0.0
 11
-31.55733443595267
 21
867.6464513830238
 31
0.0
  0
LINE
  5
144
330
1F
100
AcDbEntity
  8
C-A
  6
Continuous
 62
     3
370
     5
100
AcDbLine
 10
71.28310976801714
 20
982.5943735483531
 30
0.0
 11
77.33672502878562
 21
976.54125316723
 31
0.0
  0
LINE
  5
145
330
1F
100
AcDbEntity
  8
C-4
  6
Continuous
 62
     7
370
     5
100
AcDbLine
 10
-747.2300078417802
 20
623.2164867504224
 30
0.0
 11
-667.2298676258808
 21
623.2164867504224
 31
0.0
  0
LINE
  5
146
330
1F
100
AcDbEntity
  8
C-4
  6
Continuous
 62
     7
370
     5
100
AcDbLine
 10
-747.2300078417802
 20
740.5945154138516
 30
0.0
 11
-747.2300078417802
 21
620.2162789009714
 31
0.0
  0
LINE
  5
147
330
1F
100
AcDbEntity
  8
C-4
  6
Continuous
 62
     7
370
     5
100
AcDbLine
 10
-667.2298676258808
 20
740.5945154138516
 30
0.0
 11
-667.2298676258808
 21
620.2162789009714
 31
0.0
  0
LINE
  5
148
330
1F
100
AcDbEntity
  8
C-4
  6
Continuous
 62
     7
370
     5
100
AcDbLine
 10
-842.0401637618604
 20
740.5945154138516
 30
0.0
 11
-842.0401637618604
 21
786.5943207611908
 31
0.0
  0
LINE
  5
149
330
1F
100
AcDbEntity
  8
C-4
  6
Continuous
 62
     7
370
     5
100
AcDbLine
 10
-747.2300078417802
 20
740.5945154138516
 30
0.0
 11
-845.0402478914002
 21
740.5945154138516
 31
0.0
  0
LINE
  5
14A
330
1F
100
AcDbEntity
  8
C-4
  6
Continuous
 62
     7
370
     5
100
AcDbLine
 10
-747.2300078417802
 20
786.5943207611908
 30
0.0
 11
-845.0402478914002
 21
786.5943207611908
 31
0.0
  0
LINE
  5
14B
330
1F
100
AcDbEntity
  8
C-0
  6
JWW_CENTER1
 62
     3
370
     5
100
AcDbLine
 10
953.2637995642588
 20
606.2708179370779
 30
0.0
 11
953.2637995642588
 21
722.2394293707771
 31
0.0
  0
LINE
  5
14C
330
1F
100
AcDbEntity
  8
C-0
  6
JWW_CENTER1
 62
     3
370
     5
100
AcDbLine
 10
898.2148724633296
 20
665.8857520850929
 30
0.0
 11
1011.465110005559
 21
665.8857520850929
 31
0.0
  0
LINE
  5
14D
330
1F
100
AcDbEntity
  8
C-5
  6
Continuous
 62
     7
370
     5
100
AcDbLine
 10
673.3534387640052
 20
509.5945945945948
 30
0.0
 11
673.3534387640052
 21
574.5941904428844
 31
0.0
  0
LINE
  5
14E
330
1F
100
AcDbEntity
  8
C-5
  6
Continuous
 62
     7
370
     5
100
AcDbLine
 10
673.3534387640052
 20
574.5941904428844
 30
0.0
 11
1248.354098603532
 21
574.5941904428844
 31
0.0
  0
LINE
  5
14F
330
1F
100
AcDbEntity
  8
C-5
  6
Continuous
 62
     7
370
     5
100
AcDbLine
 10
1248.354098603532
 20
574.5941904428844
 30
0.0
 11
1248.354098603532
 21
509.5945945945948
 31
0.0
  0
LINE
  5
150
330
1F
100
AcDbEntity
  8
C-5
  6
Continuous
 62
     7
370
     5
100
AcDbLine
 10
1248.354098603532
 20
509.5945945945948
 30
0.0
 11
673.3534387640052
 21
509.5945945945948
 31
0.0
  0
LINE
  5
151
330
1F
100
AcDbEntity
  8
C-5
  6
Continuous
 62
     7
370
     5
100
AcDbLine
 10
1027.950045869157
 20
740.5722458298144
 30
0.0
 11
1125.943886267172
 21
740.5722458298144
 31
0.0
  0
LINE
  5
152
330
1F
100
AcDbEntity
  8
C-5
  6
Continuous
 62
     7
370
     5
100
AcDbLine
 10
978.0122357445796
 20
690.6344357052367
 30
0.0
 11
1027.950045869157
 21
740.5722458298144
 31
0.0
  0
LINE
  5
153
330
1F
100
AcDbEntity
  8
C-5
  6
Continuous
 62
     7
370
     5
100
AcDbLine
 10
978.0122357445796
 20
690.6344357052367
 30
0.0
 11
993.2310220357535
 21
710.468469568201
 31
0.0
  0
LINE
  5
154
330
1F
100
AcDbEntity
  8
C-5
  6
Continuous
 62
     7
370
     5
100
AcDbLine
 10
978.0122357445796
 20
690.6344357052367
 30
0.0
 11
997.8460221677212
 21
705.8537168760557
 31
0.0
  0
LINE
  5
155
330
1F
100
AcDbEntity
  8
C-A
  6
Continuous
 62
     3
370
     5
100
AcDbLine
 10
-36.72956904849485
 20
971.8134204761404
 30
0.0
 11
6.813158860077806
 21
928.2709400073904
 31
0.0
  0
LINE
  5
156
330
1F
100
AcDbEntity
  8
C-A
  6
Continuous
 62
     3
370
     5
100
AcDbLine
 10
16.44673347473173
 20
918.6376128325592
 30
0.0
 11
17.93990908442339
 21
917.1443135029563
 31
0.0
  0
LINE
  5
157
330
1F
100
AcDbEntity
  8
C-A
  6
Continuous
 62
     3
370
     5
100
AcDbLine
 10
-36.72956904849485
 20
872.8184385557436
 30
0.0
 11
9.09121358716817
 21
918.639097471495
 31
0.0
  0
LINE
  5
158
330
1F
100
AcDbEntity
  8
C-A
  6
Continuous
 62
     3
370
     5
100
AcDbLine
 10
18.7254068013786
 20
928.273166965794
 30
0.0
 11
73.04648966402624
 21
982.5943735483531
 31
0.0
  0
LINE
  5
159
330
1F
100
AcDbEntity
  8
C-A
  6
Continuous
 62
     3
370
     5
100
AcDbLine
 10
-37.72996825140865
 20
693.3750791807432
 30
0.0
 11
-81.27306731971515
 21
736.9180545291385
 31
0.0
  0
LINE
  5
15A
330
1F
100
AcDbEntity
  8
C-A
  6
Continuous
 62
     3
370
     5
100
AcDbLine
 10
-90.90639449454642
 20
746.5513817039698
 30
0.0
 11
-92.39919894450395
 21
748.0441861539276
 31
0.0
  0
LINE
  5
15B
330
1F
100
AcDbEntity
  8
C-A
  6
Continuous
 62
     3
370
     5
100
AcDbLine
 10
-37.72996825140865
 20
792.370308540963
 30
0.0
 11
-83.55075088707167
 21
746.5494021853885
 31
0.0
  0
LINE
  5
15C
330
1F
100
AcDbEntity
  8
C-A
  6
Continuous
 62
     3
370
     5
100
AcDbLine
 10
-93.18506782119329
 20
736.9150852512669
 30
0.0
 11
-147.5060269639297
 21
682.5941261085304
 31
0.0
  0
ARC
  5
15D
330
1F
100
AcDbEntity
  8
D-A
  6
Continuous
 62
     3
370
     5
100
AcDbCircle
 10
-533.6481184572784
 20
-366.0855349978884
 30
0.0
 40
10.00000012887491
100
AcDbArc
 50
7.016464233398438
 51
45.0
  0
ARC
  5
15E
330
1F
100
AcDbEntity
  8
D-A
  6
Continuous
 62
     3
370
     5
100
AcDbCircle
 10
-408.6482009372193
 20
-346.9435903188344
 30
0.0
 40
10.00000012887491
100
AcDbArc
 50
7.016464233398438
 51
90.0
  0
ARC
  5
15F
330
1F
100
AcDbEntity
  8
D-A
  6
Continuous
 62
     3
370
     5
100
AcDbCircle
 10
-488.2927701279922
 20
-311.9435985668285
 30
0.0
 40
25.00000128874908
100
AcDbArc
 50
225.0
 51
270.0
  0
ARC
  5
160
330
1F
100
AcDbEntity
  8
D-A
  6
JWW_DASHED3
 62
     3
370
     5
100
AcDbCircle
 10
-517.1478413246771
 20
-325.9437437315245
 30
0.0
 40
6.50000008376869
100
AcDbArc
 50
270.0
 51
0.0
  0
ARC
  5
161
330
1F
100
AcDbEntity
  8
D-A
  6
Continuous
 62
     3
370
     5
100
AcDbCircle
 10
-517.1478413246771
 20
-302.943593618032
 30
0.0
 40
6.50000008376869
100
AcDbArc
 50
0.0
 51
90.0
  0
ARC
  5
162
330
1F
100
AcDbEntity
  8
D-9
  6
Continuous
 62
     4
370
     5
100
AcDbCircle
 10
-683.6477472975446
 20
-274.4435985668285
 30
0.0
 40
5.000000064437454
100
AcDbArc
 50
90.0
 51
180.0
  0
ARC
  5
163
330
1F
100
AcDbEntity
  8
D-1
  6
Continuous
 62
     2
370
     5
100
AcDbCircle
 10
-618.6475328496982
 20
-301.9433181350296
 30
0.0
 40
5.000000064437454
100
AcDbArc
 50
233.1302490234375
 51
270.0
  0
ARC
  5
164
330
1F
100
AcDbEntity
  8
D-1
  6
Continuous
 62
     2
370
     5
100
AcDbCircle
 10
-693.6475328496982
 20
-291.9436563027871
 30
0.0
 40
5.000000064437454
100
AcDbArc
 50
90.0
 51
180.0
  0
ARC
  5
165
330
1F
100
AcDbEntity
  8
D-1
  6
Continuous
 62
     2
370
     5
100
AcDbCircle
 10
-568.6476153296392
 20
-311.9433511270058
 30
0.0
 40
5.000000064437454
100
AcDbArc
 50
0.0
 51
90.0
  0
ARC
  5
166
330
1F
100
AcDbEntity
  8
D-1
  6
Continuous
 62
     2
370
     5
100
AcDbCircle
 10
-568.6476153296392
 20
-301.9433181350296
 30
0.0
 40
5.000000064437454
100
AcDbArc
 50
270.0
 51
0.0
  0
ARC
  5
167
330
1F
100
AcDbEntity
  8
D-1
  6
Continuous
 62
     2
370
     5
100
AcDbCircle
 10
-546.6474932593267
 20
-254.9433610245987
 30
0.0
 40
3.000000038662472
100
AcDbArc
 50
0.0
 51
90.0
  0
ARC
  5
168
330
1F
100
AcDbEntity
  8
D-1
  6
Continuous
 62
     2
370
     5
100
AcDbCircle
 10
-565.6475312000996
 20
-254.9433610245987
 30
0.0
 40
3.000000038662472
100
AcDbArc
 50
90.0
 51
180.0
  0
ARC
  5
169
330
1F
100
AcDbEntity
  8
D-1
  6
Continuous
 62
     2
370
     5
100
AcDbCircle
 10
-546.6474932593267
 20
-373.9433577254011
 30
0.0
 40
3.000000038662472
100
AcDbArc
 50
270.0
 51
0.0
  0
ARC
  5
16A
330
1F
100
AcDbEntity
  8
D-1
  6
Continuous
 62
     2
370
     5
100
AcDbCircle
 10
-565.6475312000996
 20
-373.9433577254011
 30
0.0
 40
3.000000038662472
100
AcDbArc
 50
180.0
 51
270.0
  0
ARC
  5
16B
330
1F
100
AcDbEntity
  8
D-1
  6
Continuous
 62
     2
370
     5
100
AcDbCircle
 10
-640.2978987307163
 20
-291.8934260187922
 30
0.0
 40
4.950000305433531
100
AcDbArc
 50
53.12966918945312
 51
90.0
  0
ARC
  5
16C
330
1F
100
AcDbEntity
  8
D-1
  6
Continuous
 62
     2
370
     5
100
AcDbCircle
 10
-693.6475328496982
 20
-306.9433346310177
 30
0.0
 40
5.000000064437454
100
AcDbArc
 50
180.0
 51
270.0
  0
ARC
  5
16D
330
1F
100
AcDbEntity
  8
D-1
  6
Continuous
 62
     2
370
     5
100
AcDbCircle
 10
-682.97780397776
 20
-291.9436563027871
 30
0.0
 40
5.000000064437454
100
AcDbArc
 50
59.99996948242189
 51
90.00000000000001
  0
ARC
  5
16E
330
1F
100
AcDbEntity
  8
D-1
  6
Continuous
 62
     2
370
     5
100
AcDbCircle
 10
-654.3173442015777
 20
-291.9436563027871
 30
0.0
 40
5.000000064437454
100
AcDbArc
 50
90.0
 51
120.0000305175781
  0
ARC
  5
16F
330
1F
100
AcDbEntity
  8
D-1
  6
Continuous
 62
     2
370
     5
100
AcDbCircle
 10
-668.6475740896688
 20
-294.4434171109586
 30
0.0
 40
5.000000064437454
100
AcDbArc
 50
239.9999694824219
 51
300.0000305175781
  0
CIRCLE
  5
170
330
1F
100
AcDbEntity
  8
C-A
  6
Continuous
 62
     3
370
     5
100
AcDbCircle
 10
-487.2298923698631
 20
924.5944791226776
 30
0.0
 40
6.999999606931532
  0
CIRCLE
  5
171
330
1F
100
AcDbEntity
  8
C-A
  6
Continuous
 62
     3
370
     5
100
AcDbCircle
 10
-487.2298923698631
 20
878.5944263355154
 30
0.0
 40
6.999999606931532
  0
CIRCLE
  5
172
330
1F
100
AcDbEntity
  8
C-A
  6
Continuous
 62
     3
370
     5
100
AcDbCircle
 10
-487.2298923698631
 20
832.5943735483531
 30
0.0
 40
6.999999606931532
  0
CIRCLE
  5
173
330
1F
100
AcDbEntity
  8
C-A
  6
Continuous
 62
     3
370
     5
100
AcDbCircle
 10
-487.2298923698631
 20
786.5943207611908
 30
0.0
 40
6.999999606931532
  0
CIRCLE
  5
174
330
1F
100
AcDbEntity
  8
C-A
  6
Continuous
 62
     3
370
     5
100
AcDbCircle
 10
-487.2298923698631
 20
740.5945154138516
 30
0.0
 40
6.999999606931532
  0
CIRCLE
  5
175
330
1F
100
AcDbEntity
  8
C-A
  6
Continuous
 62
     3
370
     5
100
AcDbCircle
 10
-407.2298758738748
 20
924.5944791226776
 30
0.0
 40
6.999999606931532
  0
CIRCLE
  5
176
330
1F
100
AcDbEntity
  8
C-A
  6
Continuous
 62
     3
370
     5
100
AcDbCircle
 10
-407.2298758738748
 20
878.5944263355154
 30
0.0
 40
6.999999606931532
  0
CIRCLE
  5
177
330
1F
100
AcDbEntity
  8
C-A
  6
Continuous
 62
     3
370
     5
100
AcDbCircle
 10
-407.2298758738748
 20
832.5943735483531
 30
0.0
 40
6.999999606931532
  0
CIRCLE
  5
178
330
1F
100
AcDbEntity
  8
C-A
  6
Continuous
 62
     3
370
     5
100
AcDbCircle
 10
-407.2298758738748
 20
786.5943207611908
 30
0.0
 40
6.999999606931532
  0
CIRCLE
  5
179
330
1F
100
AcDbEntity
  8
C-A
  6
Continuous
 62
     3
370
     5
100
AcDbCircle
 10
-407.2298758738748
 20
740.5945154138516
 30
0.0
 40
6.999999606931532
  0
CIRCLE
  5
17A
330
1F
100
AcDbEntity
  8
C-A
  6
Continuous
 62
     3
370
     5
100
AcDbCircle
 10
-327.2298593778868
 20
924.5944791226776
 30
0.0
 40
6.999999606931532
  0
CIRCLE
  5
17B
330
1F
100
AcDbEntity
  8
C-A
  6
Continuous
 62
     3
370
     5
100
AcDbCircle
 10
-327.2298593778868
 20
878.5944263355154
 30
0.0
 40
6.999999606931532
  0
CIRCLE
  5
17C
330
1F
100
AcDbEntity
  8
C-A
  6
Continuous
 62
     3
370
     5
100
AcDbCircle
 10
-327.2298593778868
 20
832.5943735483531
 30
0.0
 40
6.999999606931532
  0
CIRCLE
  5
17D
330
1F
100
AcDbEntity
  8
C-A
  6
Continuous
 62
     3
370
     5
100
AcDbCircle
 10
-327.2298593778868
 20
786.5943207611908
 30
0.0
 40
6.999999606931532
  0
CIRCLE
  5
17E
330
1F
100
AcDbEntity
  8
C-A
  6
Continuous
 62
     3
370
     5
100
AcDbCircle
 10
-327.2298593778868
 20
740.5945154138516
 30
0.0
 40
6.999999606931532
  0
CIRCLE
  5
17F
330
1F
100
AcDbEntity
  8
C-A
  6
Continuous
 62
     3
370
     5
100
AcDbCircle
 10
-247.2299666018097
 20
924.5944791226776
 30
0.0
 40
6.999999606931532
  0
CIRCLE
  5
180
330
1F
100
AcDbEntity
  8
C-A
  6
Continuous
 62
     3
370
     5
100
AcDbCircle
 10
-247.2299666018097
 20
878.5944263355154
 30
0.0
 40
6.999999606931532
  0
CIRCLE
  5
181
330
1F
100
AcDbEntity
  8
C-A
  6
Continuous
 62
     3
370
     5
100
AcDbCircle
 10
-247.2299666018097
 20
832.5943735483531
 30
0.0
 40
6.999999606931532
  0
CIRCLE
  5
182
330
1F
100
AcDbEntity
  8
C-A
  6
Continuous
 62
     3
370
     5
100
AcDbCircle
 10
-247.2299666018097
 20
786.5943207611908
 30
0.0
 40
6.999999606931532
  0
CIRCLE
  5
183
330
1F
100
AcDbEntity
  8
C-A
  6
Continuous
 62
     3
370
     5
100
AcDbCircle
 10
-247.2299666018097
 20
740.5945154138516
 30
0.0
 40
6.999999606931532
  0
CIRCLE
  5
184
330
1F
100
AcDbEntity
  8
C-A
  6
Continuous
 62
     3
370
     5
100
AcDbCircle
 10
-167.2298263859102
 20
924.5944791226776
 30
0.0
 40
6.999999606931532
  0
CIRCLE
  5
185
330
1F
100
AcDbEntity
  8
C-A
  6
Continuous
 62
     3
370
     5
100
AcDbCircle
 10
-167.2298263859102
 20
878.5944263355154
 30
0.0
 40
6.999999606931532
  0
CIRCLE
  5
186
330
1F
100
AcDbEntity
  8
C-A
  6
Continuous
 62
     3
370
     5
100
AcDbCircle
 10
-167.2298263859102
 20
832.5943735483531
 30
0.0
 40
6.999999606931532
  0
CIRCLE
  5
187
330
1F
100
AcDbEntity
  8
C-A
  6
Continuous
 62
     3
370
     5
100
AcDbCircle
 10
-167.2298263859102
 20
786.5943207611908
 30
0.0
 40
6.999999606931532
  0
CIRCLE
  5
188
330
1F
100
AcDbEntity
  8
C-A
  6
Continuous
 62
     3
370
     5
100
AcDbCircle
 10
-167.2298263859102
 20
740.5945154138516
 30
0.0
 40
6.999999606931532
  0
CIRCLE
  5
189
330
1F
100
AcDbEntity
  8
C-A
  6
Continuous
 62
     3
370
     5
100
AcDbCircle
 10
-87.23005732974485
 20
924.5944791226776
 30
0.0
 40
6.999999606931532
  0
CIRCLE
  5
18A
330
1F
100
AcDbEntity
  8
C-A
  6
Continuous
 62
     3
370
     5
100
AcDbCircle
 10
-87.23005732974485
 20
878.5944263355154
 30
0.0
 40
6.999999606931532
  0
CIRCLE
  5
18B
330
1F
100
AcDbEntity
  8
C-A
  6
Continuous
 62
     3
370
     5
100
AcDbCircle
 10
-87.23005732974485
 20
832.5943735483531
 30
0.0
 40
6.999999606931532
  0
CIRCLE
  5
18C
330
1F
100
AcDbEntity
  8
C-A
  6
Continuous
 62
     3
370
     5
100
AcDbCircle
 10
-87.23005732974485
 20
786.5943207611908
 30
0.0
 40
6.999999606931532
  0
CIRCLE
  5
18D
330
1F
100
AcDbEntity
  8
C-A
  6
Continuous
 62
     3
370
     5
100
AcDbCircle
 10
-87.23005732974485
 20
740.5945154138516
 30
0.0
 40
6.999999606931532
  0
CIRCLE
  5
18E
330
1F
100
AcDbEntity
  8
C-A
  6
Continuous
 62
     3
370
     5
100
AcDbCircle
 10
12.7701488701075
 20
924.5944791226776
 30
0.0
 40
6.999999606931532
  0
CIRCLE
  5
18F
330
1F
100
AcDbEntity
  8
C-A
  6
Continuous
 62
     3
370
     5
100
AcDbCircle
 10
12.7701488701075
 20
878.5944263355154
 30
0.0
 40
6.999999606931532
  0
CIRCLE
  5
190
330
1F
100
AcDbEntity
  8
C-A
  6
Continuous
 62
     3
370
     5
100
AcDbCircle
 10
12.7701488701075
 20
832.5943735483531
 30
0.0
 40
6.999999606931532
  0
CIRCLE
  5
191
330
1F
100
AcDbEntity
  8
C-A
  6
Continuous
 62
     3
370
     5
100
AcDbCircle
 10
12.7701488701075
 20
786.5943207611908
 30
0.0
 40
6.999999606931532
  0
CIRCLE
  5
192
330
1F
100
AcDbEntity
  8
C-A
  6
Continuous
 62
     3
370
     5
100
AcDbCircle
 10
12.7701488701075
 20
740.5945154138516
 30
0.0
 40
6.999999606931532
  0
CIRCLE
  5
193
330
1F
100
AcDbEntity
  8
C-A
  6
Continuous
 62
     3
370
     5
100
AcDbCircle
 10
92.77004164618432
 20
924.5944791226776
 30
0.0
 40
6.999999606931532
  0
CIRCLE
  5
194
330
1F
100
AcDbEntity
  8
C-A
  6
Continuous
 62
     3
370
     5
100
AcDbCircle
 10
92.77004164618432
 20
878.5944263355154
 30
0.0
 40
6.999999606931532
  0
CIRCLE
  5
195
330
1F
100
AcDbEntity
  8
C-A
  6
Continuous
 62
     3
370
     5
100
AcDbCircle
 10
92.77004164618432
 20
832.5943735483531
 30
0.0
 40
6.999999606931532
  0
CIRCLE
  5
196
330
1F
100
AcDbEntity
  8
C-A
  6
Continuous
 62
     3
370
     5
100
AcDbCircle
 10
92.77004164618432
 20
786.5943207611908
 30
0.0
 40
6.999999606931532
  0
CIRCLE
  5
197
330
1F
100
AcDbEntity
  8
C-A
  6
Continuous
 62
     3
370
     5
100
AcDbCircle
 10
92.77004164618432
 20
740.5945154138516
 30
0.0
 40
6.999999606931532
  0
CIRCLE
  5
198
330
1F
100
AcDbEntity
  8
C-A
  6
Continuous
 62
     3
370
     5
100
AcDbCircle
 10
172.7700581421726
 20
924.5944791226776
 30
0.0
 40
6.999999606931532
  0
CIRCLE
  5
199
330
1F
100
AcDbEntity
  8
C-A
  6
Continuous
 62
     3
370
     5
100
AcDbCircle
 10
172.7700581421726
 20
878.5944263355154
 30
0.0
 40
6.999999606931532
  0
CIRCLE
  5
19A
330
1F
100
AcDbEntity
  8
C-A
  6
Continuous
 62
     3
370
     5
100
AcDbCircle
 10
172.7700581421726
 20
832.5943735483531
 30
0.0
 40
6.999999606931532
  0
CIRCLE
  5
19B
330
1F
100
AcDbEntity
  8
C-A
  6
Continuous
 62
     3
370
     5
100
AcDbCircle
 10
172.7700581421726
 20
786.5943207611908
 30
0.0
 40
6.999999606931532
  0
CIRCLE
  5
19C
330
1F
100
AcDbEntity
  8
C-A
  6
Continuous
 62
     3
370
     5
100
AcDbCircle
 10
172.7700581421726
 20
740.5945154138516
 30
0.0
 40
6.999999606931532
  0
CIRCLE
  5
19D
330
1F
100
AcDbEntity
  8
C-A
  6
Continuous
 62
     3
370
     5
100
AcDbCircle
 10
252.7700746381606
 20
924.5944791226776
 30
0.0
 40
6.999999606931532
  0
CIRCLE
  5
19E
330
1F
100
AcDbEntity
  8
C-A
  6
Continuous
 62
     3
370
     5
100
AcDbCircle
 10
252.7700746381606
 20
878.5944263355154
 30
0.0
 40
6.999999606931532
  0
CIRCLE
  5
19F
330
1F
100
AcDbEntity
  8
C-A
  6
Continuous
 62
     3
370
     5
100
AcDbCircle
 10
252.7700746381606
 20
832.5943735483531
 30
0.0
 40
6.999999606931532
  0
CIRCLE
  5
1A0
330
1F
100
AcDbEntity
  8
C-A
  6
Continuous
 62
     3
370
     5
100
AcDbCircle
 10
252.7700746381606
 20
786.5943207611908
 30
0.0
 40
6.999999606931532
  0
CIRCLE
  5
1A1
330
1F
100
AcDbEntity
  8
C-A
  6
Continuous
 62
     3
370
     5
100
AcDbCircle
 10
252.7700746381606
 20
740.5945154138516
 30
0.0
 40
6.999999606931532
  0
CIRCLE
  5
1A2
330
1F
100
AcDbEntity
  8
C-A
  6
Continuous
 62
     3
370
     5
100
AcDbCircle
 10
332.7700911341489
 20
924.5944791226776
 30
0.0
 40
6.999999606931532
  0
CIRCLE
  5
1A3
330
1F
100
AcDbEntity
  8
C-A
  6
Continuous
 62
     3
370
     5
100
AcDbCircle
 10
332.7700911341489
 20
878.5944263355154
 30
0.0
 40
6.999999606931532
  0
CIRCLE
  5
1A4
330
1F
100
AcDbEntity
  8
C-A
  6
Continuous
 62
     3
370
     5
100
AcDbCircle
 10
332.7700911341489
 20
832.5943735483531
 30
0.0
 40
6.999999606931532
  0
CIRCLE
  5
1A5
330
1F
100
AcDbEntity
  8
C-A
  6
Continuous
 62
     3
370
     5
100
AcDbCircle
 10
332.7700911341489
 20
786.5943207611908
 30
0.0
 40
6.999999606931532
  0
CIRCLE
  5
1A6
330
1F
100
AcDbEntity
  8
C-A
  6
Continuous
 62
     3
370
     5
100
AcDbCircle
 10
332.7700911341489
 20
740.5945154138516
 30
0.0
 40
6.999999606931532
  0
CIRCLE
  5
1A7
330
1F
100
AcDbEntity
  8
C-A
  6
Continuous
 62
     3
370
     5
100
AcDbCircle
 10
412.7698601903143
 20
924.5944791226776
 30
0.0
 40
6.999999606931532
  0
CIRCLE
  5
1A8
330
1F
100
AcDbEntity
  8
C-A
  6
Continuous
 62
     3
370
     5
100
AcDbCircle
 10
412.7698601903143
 20
878.5944263355154
 30
0.0
 40
6.999999606931532
  0
CIRCLE
  5
1A9
330
1F
100
AcDbEntity
  8
C-A
  6
Continuous
 62
     3
370
     5
100
AcDbCircle
 10
412.7698601903143
 20
832.5943735483531
 30
0.0
 40
6.999999606931532
  0
CIRCLE
  5
1AA
330
1F
100
AcDbEntity
  8
C-A
  6
Continuous
 62
     3
370
     5
100
AcDbCircle
 10
412.7698601903143
 20
786.5943207611908
 30
0.0
 40
6.999999606931532
  0
CIRCLE
  5
1AB
330
1F
100
AcDbEntity
  8
C-A
  6
Continuous
 62
     3
370
     5
100
AcDbCircle
 10
412.7698601903143
 20
740.5945154138516
 30
0.0
 40
6.999999606931532
  0
CIRCLE
  5
1AC
330
1F
100
AcDbEntity
  8
C-A
  6
Continuous
 62
     3
370
     5
100
AcDbCircle
 10
512.7699426702552
 20
924.5944791226776
 30
0.0
 40
6.999999606931532
  0
CIRCLE
  5
1AD
330
1F
100
AcDbEntity
  8
C-A
  6
Continuous
 62
     3
370
     5
100
AcDbCircle
 10
512.7699426702552
 20
878.5944263355154
 30
0.0
 40
6.999999606931532
  0
CIRCLE
  5
1AE
330
1F
100
AcDbEntity
  8
C-A
  6
Continuous
 62
     3
370
     5
100
AcDbCircle
 10
512.7699426702552
 20
832.5943735483531
 30
0.0
 40
6.999999606931532
  0
CIRCLE
  5
1AF
330
1F
100
AcDbEntity
  8
C-A
  6
Continuous
 62
     3
370
     5
100
AcDbCircle
 10
512.7699426702552
 20
786.5943207611908
 30
0.0
 40
6.999999606931532
  0
CIRCLE
  5
1B0
330
1F
100
AcDbEntity
  8
C-A
  6
Continuous
 62
     3
370
     5
100
AcDbCircle
 10
512.7699426702552
 20
740.5945154138516
 30
0.0
 40
6.999999606931532
  0
CIRCLE
  5
1B1
330
1F
100
AcDbEntity
  8
C-A
  6
Continuous
 62
     3
370
     5
100
AcDbCircle
 10
592.7699591662438
 20
924.5944791226776
 30
0.0
 40
6.999999606931532
  0
CIRCLE
  5
1B2
330
1F
100
AcDbEntity
  8
C-A
  6
Continuous
 62
     3
370
     5
100
AcDbCircle
 10
592.7699591662438
 20
878.5944263355154
 30
0.0
 40
6.999999606931532
  0
CIRCLE
  5
1B3
330
1F
100
AcDbEntity
  8
C-A
  6
Continuous
 62
     3
370
     5
100
AcDbCircle
 10
592.7699591662438
 20
832.5943735483531
 30
0.0
 40
6.999999606931532
  0
CIRCLE
  5
1B4
330
1F
100
AcDbEntity
  8
C-A
  6
Continuous
 62
     3
370
     5
100
AcDbCircle
 10
592.7699591662438
 20
786.5943207611908
 30
0.0
 40
6.999999606931532
  0
CIRCLE
  5
1B5
330
1F
100
AcDbEntity
  8
C-A
  6
Continuous
 62
     3
370
     5
100
AcDbCircle
 10
592.7699591662438
 20
740.5945154138516
 30
0.0
 40
6.999999606931532
  0
CIRCLE
  5
1B6
330
1F
100
AcDbEntity
  8
C-A
  6
Continuous
 62
     3
370
     5
100
AcDbCircle
 10
672.7699756622317
 20
924.5944791226776
 30
0.0
 40
6.999999606931532
  0
CIRCLE
  5
1B7
330
1F
100
AcDbEntity
  8
C-A
  6
Continuous
 62
     3
370
     5
100
AcDbCircle
 10
672.7699756622317
 20
878.5944263355154
 30
0.0
 40
6.999999606931532
  0
CIRCLE
  5
1B8
330
1F
100
AcDbEntity
  8
C-A
  6
Continuous
 62
     3
370
     5
100
AcDbCircle
 10
672.7699756622317
 20
832.5943735483531
 30
0.0
 40
6.999999606931532
  0
CIRCLE
  5
1B9
330
1F
100
AcDbEntity
  8
C-A
  6
Continuous
 62
     3
370
     5
100
AcDbCircle
 10
672.7699756622317
 20
786.5943207611908
 30
0.0
 40
6.999999606931532
  0
CIRCLE
  5
1BA
330
1F
100
AcDbEntity
  8
C-A
  6
Continuous
 62
     3
370
     5
100
AcDbCircle
 10
672.7699756622317
 20
740.5945154138516
 30
0.0
 40
6.999999606931532
  0
CIRCLE
  5
1BB
330
1F
100
AcDbEntity
  8
C-A
  6
Continuous
 62
     3
370
     5
100
AcDbCircle
 10
-747.2300078417802
 20
924.5944791226776
 30
0.0
 40
6.999999606931532
  0
CIRCLE
  5
1BC
330
1F
100
AcDbEntity
  8
C-A
  6
Continuous
 62
     3
370
     5
100
AcDbCircle
 10
-747.2300078417802
 20
878.5944263355154
 30
0.0
 40
6.999999606931532
  0
CIRCLE
  5
1BD
330
1F
100
AcDbEntity
  8
C-A
  6
Continuous
 62
     3
370
     5
100
AcDbCircle
 10
-747.2300078417802
 20
832.5943735483531
 30
0.0
 40
6.999999606931532
  0
CIRCLE
  5
1BE
330
1F
100
AcDbEntity
  8
C-A
  6
Continuous
 62
     3
370
     5
100
AcDbCircle
 10
-747.2300078417802
 20
786.5943207611908
 30
0.0
 40
6.999999606931532
  0
CIRCLE
  5
1BF
330
1F
100
AcDbEntity
  8
C-A
  6
Continuous
 62
     3
370
     5
100
AcDbCircle
 10
-747.2300078417802
 20
740.5945154138516
 30
0.0
 40
6.999999606931532
  0
CIRCLE
  5
1C0
330
1F
100
AcDbEntity
  8
C-A
  6
Continuous
 62
     3
370
     5
100
AcDbCircle
 10
-667.2298676258808
 20
924.5944791226776
 30
0.0
 40
6.999999606931532
  0
CIRCLE
  5
1C1
330
1F
100
AcDbEntity
  8
C-A
  6
Continuous
 62
     3
370
     5
100
AcDbCircle
 10
-667.2298676258808
 20
878.5944263355154
 30
0.0
 40
6.999999606931532
  0
CIRCLE
  5
1C2
330
1F
100
AcDbEntity
  8
C-A
  6
Continuous
 62
     3
370
     5
100
AcDbCircle
 10
-667.2298676258808
 20
832.5943735483531
 30
0.0
 40
6.999999606931532
  0
CIRCLE
  5
1C3
330
1F
100
AcDbEntity
  8
C-A
  6
Continuous
 62
     3
370
     5
100
AcDbCircle
 10
-667.2298676258808
 20
786.5943207611908
 30
0.0
 40
6.999999606931532
  0
CIRCLE
  5
1C4
330
1F
100
AcDbEntity
  8
C-A
  6
Continuous
 62
     3
370
     5
100
AcDbCircle
 10
-667.2298676258808
 20
740.5945154138516
 30
0.0
 40
6.999999606931532
  0
CIRCLE
  5
1C5
330
1F
100
AcDbEntity
  8
C-A
  6
Continuous
 62
     3
370
     5
100
AcDbCircle
 10
-587.229974849804
 20
924.5944791226776
 30
0.0
 40
6.999999606931532
  0
CIRCLE
  5
1C6
330
1F
100
AcDbEntity
  8
C-A
  6
Continuous
 62
     3
370
     5
100
AcDbCircle
 10
-587.229974849804
 20
878.5944263355154
 30
0.0
 40
6.999999606931532
  0
CIRCLE
  5
1C7
330
1F
100
AcDbEntity
  8
C-A
  6
Continuous
 62
     3
370
     5
100
AcDbCircle
 10
-587.229974849804
 20
832.5943735483531
 30
0.0
 40
6.999999606931532
  0
CIRCLE
  5
1C8
330
1F
100
AcDbEntity
  8
C-A
  6
Continuous
 62
     3
370
     5
100
AcDbCircle
 10
-587.229974849804
 20
786.5943207611908
 30
0.0
 40
6.999999606931532
  0
CIRCLE
  5
1C9
330
1F
100
AcDbEntity
  8
C-A
  6
Continuous
 62
     3
370
     5
100
AcDbCircle
 10
-587.229974849804
 20
740.5945154138516
 30
0.0
 40
6.999999606931532
  0
CIRCLE
  5
1CA
330
1F
100
AcDbEntity
  8
C-0
  6
Continuous
 62
     3
370
     5
100
AcDbCircle
 10
953.2637995642588
 20
665.8857520850929
 30
0.0
 40
34.99999948450037
  0
TEXT
  5
1CB
330
1F
100
AcDbEntity
  8
D-4
  6
Continuous
 62
     2
370
     5
100
AcDbText
 10
-606.593530758007
 20
-11.63258630701016
 30
0.0
 40
30.48
  1
1
 41
0.9999999999999998
  7
ＭＳ ゴシック
100
AcDbText
  0
TEXT
  5
1CC
330
1F
100
AcDbEntity
  8
D-4
  6
Continuous
 62
     2
370
     5
100
AcDbText
 10
-657.3978380254796
 20
-120.3838729940878
 30
0.0
 40
30.48
  1
25
 41
1.0625
  7
ＭＳ ゴシック
100
AcDbText
  0
TEXT
  5
1CD
330
1F
100
AcDbEntity
  8
D-5
  6
Continuous
 62
     7
370
     5
100
AcDbText
 10
-448.291994816548
 20
-81.28055083403696
 30
0.0
 40
22.86
  1
塩ビクッション
 41
1.142857142857143
  7
ＭＳ ゴシック
100
AcDbText
  0
TEXT
  5
1CE
330
1F
100
AcDbEntity
  8
D-4
  6
Continuous
 62
     2
370
     5
100
AcDbText
 10
-689.0442531173292
 20
-646.9225775311444
 30
0.0
 40
30.48
  1
25～30
 41
1.104166666666667
  7
ＭＳ ゴシック
100
AcDbText
  0
TEXT
  5
1CF
330
1F
100
AcDbEntity
  8
D-4
  6
Continuous
 62
     2
370
     5
100
AcDbText
 10
-566.5165068652177
 20
-801.3867630912162
 30
0.0
 40
30.48
  1
75～80
 41
1.104166666666667
  7
ＭＳ ゴシック
100
AcDbText
  0
TEXT
  5
1D0
330
1F
100
AcDbEntity
  8
D-4
  6
Continuous
 62
     2
370
     5
100
AcDbText
 10
-37.60300912928322
 20
-447.456706525565
 30
0.0
 40
30.48
  1
40～50
 50
90.00000250447816
 41
1.104166666666666
  7
ＭＳ ゴシック
100
AcDbText
  0
TEXT
  5
1D1
330
1F
100
AcDbEntity
  8
D-4
  6
Continuous
 62
     2
370
     5
100
AcDbText
 10
-515.009680356257
 20
-431.8351405465173
 30
0.0
 40
30.48
  1
29
 50
0.0010007471525833
 41
1.0625
  7
ＭＳ ゴシック
100
AcDbText
  0
TEXT
  5
1D2
330
1F
100
AcDbEntity
  8
D-4
  6
Continuous
 62
     2
370
     5
100
AcDbText
 10
-321.238083546676
 20
-383.1935163334198
 30
0.0
 40
30.48
  1
10
 50
90.00000250447816
 41
1.062499999999999
  7
ＭＳ ゴシック
100
AcDbText
  0
TEXT
  5
1D3
330
1F
100
AcDbEntity
  8
D-4
  6
Continuous
 62
     2
370
     5
100
AcDbText
 10
-321.238083546676
 20
-315.6934173574907
 30
0.0
 40
30.48
  1
17
 50
90.00000250447816
 41
1.0625
  7
ＭＳ ゴシック
100
AcDbText
  0
TEXT
  5
1D4
330
1F
100
AcDbEntity
  8
D-4
  6
Continuous
 62
     2
370
     5
100
AcDbText
 10
-854.7707983904257
 20
-344.6952203689984
 30
0.0
 40
30.48
  1
25
 50
90.00000250447816
 41
1.0625
  7
ＭＳ ゴシック
100
AcDbText
  0
TEXT
  5
1D5
330
1F
100
AcDbEntity
  8
D-4
  6
Continuous
 62
     2
370
     5
100
AcDbText
 10
-532.5362764822468
 20
-11.63258630701016
 30
0.0
 40
30.48
  1
5
 41
0.9999999999999998
  7
ＭＳ ゴシック
100
AcDbText
  0
TEXT
  5
1D6
330
1F
100
AcDbEntity
  8
D-5
  6
Continuous
 62
     2
370
     5
100
AcDbText
 10
-998.1426414154886
 20
-929.7459236433784
 30
0.0
 40
30.48
  1
断面詳細図　Ｓ＝１：２
 50
359.9999710668232
 41
1.113636363636364
  7
ＭＳ ゴシック
100
AcDbText
  0
TEXT
  5
1D7
330
1F
100
AcDbEntity
  8
D-5
  6
Continuous
 62
     7
370
     5
100
AcDbText
 10
-391.707720112156
 20
-193.9593261058909
 30
0.0
 40
22.86
  1
溶接用アンカ－＠５００
 41
1.151515151515152
  7
ＭＳ ゴシック
100
AcDbText
  0
TEXT
  5
1D8
330
1F
100
AcDbEntity
  8
D-5
  6
Continuous
 62
     7
370
     5
100
AcDbText
 10
-392.0979327124518
 20
-230.527838893581
 30
0.0
 40
22.86
  1
ｔ＝２．３（ＳＰＨＣ）
 41
1.151515151515152
  7
ＭＳ ゴシック
100
AcDbText
  0
TEXT
  5
1D9
330
1F
100
AcDbEntity
  8
D-5
  6
Continuous
 62
     2
370
     5
100
AcDbText
 10
362.8258558221768
 20
-758.9867122835727
 30
0.0
 40
30.48
  1
材質：冷間圧延ステンレス鋼板（ＳＵＳ３０４－２Ｂ）
 41
1.12
  7
ＭＳ ゴシック
100
AcDbText
  0
TEXT
  5
1DA
330
1F
100
AcDbEntity
  8
D-5
  6
Continuous
 62
     2
370
     5
100
AcDbText
 10
362.8258805661591
 20
-823.9871741712416
 30
0.0
 40
30.48
  1
定尺：３０００
 41
1.107142857142857
  7
ＭＳ ゴシック
100
AcDbText
  0
TEXT
  5
1DB
330
1F
100
AcDbEntity
  8
D-5
  6
Continuous
 62
     7
370
     5
100
AcDbText
 10
-449.4852981051881
 20
-134.9059566353461
 30
0.0
 40
22.86
  1
ステンレス製受枠ＳＦ０３Ｂ
 41
1.153846153846154
  7
ＭＳ ゴシック
100
AcDbText
  0
TEXT
  5
1DC
330
1F
100
AcDbEntity
  8
D-5
  6
Continuous
 62
     2
370
     5
100
AcDbText
 10
303.1142221914757
 20
-693.9869927153717
 30
0.0
 40
30.48
  1
ステンレス製受枠　ＳＦ０３Ｂ
 41
1.116071428571428
  7
ＭＳ ゴシック
100
AcDbText
  0
TEXT
  5
1DD
330
1F
100
AcDbEntity
  8
D-4
  6
Continuous
 62
     2
370
     5
100
AcDbText
 10
-1066.014629382601
 20
-235.8214880856897
 30
0.0
 40
30.48
  1
3
 50
90.00000250447816
 41
0.9999999999999989
  7
ＭＳ ゴシック
100
AcDbText
  0
TEXT
  5
1DE
330
1F
100
AcDbEntity
  8
D-5
  6
Continuous
 62
     7
370
     5
100
AcDbText
 10
-445.1839114524221
 20
-16.47383432749139
 30
0.0
 40
22.86
  1
ＳＰ－３（ｔ＝３）
 41
1.148148148148148
  7
ＭＳ ゴシック
100
AcDbText
  0
TEXT
  5
1DF
330
1F
100
AcDbEntity
  8
D-5
  6
Continuous
 62
     7
370
     5
100
AcDbText
 10
-445.1839279484102
 20
16.07204926361929
 30
0.0
 40
22.86
  1
ステンレス縞鋼板製排水用蓋
 41
1.153846153846154
  7
ＭＳ ゴシック
100
AcDbText
  0
TEXT
  5
1E0
330
1F
100
AcDbEntity
  8
D-5
  6
Continuous
 62
     2
370
     5
100
AcDbText
 10
248.5237268499428
 20
-291.3034253589526
 30
0.0
 40
30.48
  1
仕　様
 41
1.083333333333333
  7
ＭＳ ゴシック
100
AcDbText
  0
TEXT
  5
1E1
330
1F
100
AcDbEntity
  8
D-5
  6
Continuous
 62
     2
370
     5
100
AcDbText
 10
362.826078518017
 20
-419.2241225453969
 30
0.0
 40
30.48
  1
材質：縞鋼板　ｔ＝３（ＳＵＳ３０４）
 41
1.118055555555555
  7
ＭＳ ゴシック
100
AcDbText
  0
TEXT
  5
1E2
330
1F
100
AcDbEntity
  8
D-5
  6
Continuous
 62
     2
370
     5
100
AcDbText
 10
362.8261788105157
 20
-549.2241802813708
 30
0.0
 40
30.48
  1
定尺：５００
 50
359.9999866252353
 41
1.104166666666667
  7
ＭＳ ゴシック
100
AcDbText
  0
TEXT
  5
1E3
330
1F
100
AcDbEntity
  8
D-5
  6
Continuous
 62
     2
370
     5
100
AcDbText
 10
362.8261032619993
 20
-484.2241514133761
 30
0.0
 40
30.48
  1
処理：酸洗
 41
1.1
  7
ＭＳ ゴシック
100
AcDbText
  0
TEXT
  5
1E4
330
1F
100
AcDbEntity
  8
D-5
  6
Continuous
 62
     2
370
     5
100
AcDbText
 10
303.1141479595289
 20
-354.224031817462
 30
0.0
 40
30.48
  1
ステンレス縞鋼板製排水用蓋　ＳＰ－３　３００×５００Ｓ（補強材付）
 41
1.121212121212121
  7
ＭＳ ゴシック
100
AcDbText
  0
TEXT
  5
1E5
330
1F
100
AcDbEntity
  8
D-4
  6
Continuous
 62
     2
370
     5
100
AcDbText
 10
-1272.59051322937
 20
97.08009976773646
 30
0.0
 40
30.48
  1
312
 41
1.083333333333333
  7
ＭＳ ゴシック
100
AcDbText
  0
TEXT
  5
1E6
330
1F
100
AcDbEntity
  8
D-4
  6
Continuous
 62
     2
370
     5
100
AcDbText
 10
-1274.046201705932
 20
-13.55333793021536
 30
0.0
 40
30.48
  1
300
 41
1.083333333333333
  7
ＭＳ ゴシック
100
AcDbText
  0
TEXT
  5
1E7
330
1F
100
AcDbEntity
  8
D-4
  6
Continuous
 62
     2
370
     5
100
AcDbText
 10
-1272.59051322937
 20
-121.2753986750422
 30
0.0
 40
30.48
  1
250
 41
1.083333333333333
  7
ＭＳ ゴシック
100
AcDbText
  0
TEXT
  5
1E8
330
1F
100
AcDbEntity
  8
C-4
  6
Continuous
 62
     2
370
     5
100
AcDbText
 10
-568.4299510946161
 20
1093.234225084381
 30
0.0
 40
30.48
  1
1
 50
359.9992911350973
 41
1.000000000000001
  7
ＭＳ ゴシック
100
AcDbText
  0
TEXT
  5
1E9
330
1F
100
AcDbEntity
  8
C-4
  6
Continuous
 62
     2
370
     5
100
AcDbText
 10
-319.7299748498039
 20
1093.234225084459
 30
0.0
 40
30.48
  1
499
 41
1.083333333333333
  7
ＭＳ ゴシック
100
AcDbText
  0
TEXT
  5
1EA
330
1F
100
AcDbEntity
  8
C-4
  6
Continuous
 62
     2
370
     5
100
AcDbText
 10
-68.43015729446842
 20
1093.234225084381
 30
0.0
 40
30.48
  1
1
 50
359.9992911350973
 41
0.9999999999999998
  7
ＭＳ ゴシック
100
AcDbText
  0
TEXT
  5
1EB
330
1F
100
AcDbEntity
  8
C-4
  6
Continuous
 62
     2
370
     5
100
AcDbText
 10
180.2701901100779
 20
1093.234225084459
 30
0.0
 40
30.48
  1
499
 41
1.083333333333333
  7
ＭＳ ゴシック
100
AcDbText
  0
TEXT
  5
1EC
330
1F
100
AcDbEntity
  8
C-4
  6
Continuous
 62
     2
370
     5
100
AcDbText
 10
431.5701234662856
 20
1093.234225084459
 30
0.0
 40
30.48
  1
1
 41
0.9999999999999998
  7
ＭＳ ゴシック
100
AcDbText
  0
TEXT
  5
1ED
330
1F
100
AcDbEntity
  8
C-4
  6
Continuous
 62
     2
370
     5
100
AcDbText
 10
-319.2295278085244
 20
1173.233994140625
 30
0.0
 40
30.48
  1
500
 41
1.083333333333333
  7
ＭＳ ゴシック
100
AcDbText
  0
TEXT
  5
1EE
330
1F
100
AcDbEntity
  8
C-4
  6
Continuous
 62
     2
370
     5
100
AcDbText
 10
180.7702659916235
 20
1173.233994140625
 30
0.0
 40
30.48
  1
500
 41
1.083333333333333
  7
ＭＳ ゴシック
100
AcDbText
  0
TEXT
  5
1EF
330
1F
100
AcDbEntity
  8
C-5
  6
Continuous
 62
     2
370
     5
100
AcDbText
 10
-304.7296449300403
 20
527.734512114654
 30
0.0
 40
30.48
  1
平面詳細図　Ｓ＝１：１０
 41
1.114583333333333
  7
ＭＳ ゴシック
100
AcDbText
  0
TEXT
  5
1F0
330
1F
100
AcDbEntity
  8
C-4
  6
Continuous
 62
     2
370
     5
100
AcDbText
 10
-728.4798758738748
 20
633.856255806588
 30
0.0
 40
30.48
  1
80
 41
1.0625
  7
ＭＳ ゴシック
100
AcDbText
  0
TEXT
  5
1F1
330
1F
100
AcDbEntity
  8
C-4
  6
Continuous
 62
     2
370
     5
100
AcDbText
 10
-852.6801793289816
 20
742.344417840989
 30
0.0
 40
30.48
  1
46
 50
90.00000250447816
 41
1.062500000000001
  7
ＭＳ ゴシック
100
AcDbText
  0
TEXT
  5
1F2
330
1F
100
AcDbEntity
  8
C-0
  6
Continuous
 62
     2
370
     5
100
AcDbText
 10
1035.515724646079
 20
750.2536804529141
 30
0.0
 40
30.48
  1
φ14
 41
1.09375
  7
ＭＳ ゴシック
100
AcDbText
  0
TEXT
  5
1F3
330
1F
100
AcDbEntity
  8
C-5
  6
Continuous
 62
     2
370
     5
100
AcDbText
 10
715.8537686837687
 20
527.7342646748313
 30
0.0
 40
30.48
  1
排水穴詳細　Ｓ＝１：２
 41
1.113636363636364
  7
ＭＳ ゴシック
100
AcDbText
  0
LWPOLYLINE
  5
1F4
330
1F
100
AcDbEntity
  8
D-4
  6
Continuous
 62
     7
370
     5
100
AcDbPolyline
 90
        4
 70
     1
 43
1.0
 10
-543.1486463289003
 20
88.42380832981434
 42
0.4142135623731
 10
-543.6486463289003
 20
88.92380832981434
 42
0.4142135623731
 10
-544.1486463289003
 20
88.42380832981434
 42
0.4142135623731
 10
-543.6486463289003
 20
87.92380832981434
 42
0.4142135623731
  0
LWPOLYLINE
  5
1F5
330
1F
100
AcDbEntity
  8
D-4
  6
Continuous
 62
     7
370
     5
100
AcDbPolyline
 90
        4
 70
     1
 43
1.0
 10
-573.1477555455386
 20
-22.27186048353019
 42
0.4142135623731
 10
-573.6477555455385
 20
-21.77186048353019
 42
0.4142135623731
 10
-574.1477555455385
 20
-22.27186048353019
 42
0.4142135623731
 10
-573.6477555455385
 20
-22.77186048353019
 42
0.4142135623731
  0
LWPOLYLINE
  5
1F6
330
1F
100
AcDbEntity
  8
D-4
  6
Continuous
 62
     7
370
     5
100
AcDbPolyline
 90
        4
 70
     1
 43
1.0
 10
-568.1474916097279
 20
-22.27186048353019
 42
0.4142135623731
 10
-568.6474916097279
 20
-21.77186048353019
 42
0.4142135623731
 10
-569.1474916097279
 20
-22.27186048353019
 42
0.4142135623731
 10
-568.6474916097279
 20
-22.77186048353019
 42
0.4142135623731
  0
LWPOLYLINE
  5
1F7
330
1F
100
AcDbEntity
  8
D-4
  6
Continuous
 62
     7
370
     5
100
AcDbPolyline
 90
        4
 70
     1
 43
1.0
 10
-543.1486463289003
 20
-22.27186048353019
 42
0.4142135623731
 10
-543.6486463289003
 20
-21.77186048353019
 42
0.4142135623731
 10
-544.1486463289003
 20
-22.27186048353019
 42
0.4142135623731
 10
-543.6486463289003
 20
-22.77186048353019
 42
0.4142135623731
  0
LWPOLYLINE
  5
1F8
330
1F
100
AcDbEntity
  8
D-4
  6
Continuous
 62
     7
370
     5
100
AcDbPolyline
 90
        4
 70
     1
 43
1.0
 10
-698.1485391049772
 20
-131.0241369298987
 42
0.4142135623731
 10
-698.6485391049771
 20
-130.5241369298987
 42
0.4142135623731
 10
-699.1485391049771
 20
-131.0241369298987
 42
0.4142135623731
 10
-698.6485391049771
 20
-131.5241369298987
 42
0.4142135623731
  0
LWPOLYLINE
  5
1F9
330
1F
100
AcDbEntity
  8
D-4
  6
Continuous
 62
     7
370
     5
100
AcDbPolyline
 90
        4
 70
     1
 43
1.0
 10
-573.1477555455386
 20
-131.0241369298987
 42
0.4142135623731
 10
-573.6477555455385
 20
-130.5241369298987
 42
0.4142135623731
 10
-574.1477555455385
 20
-131.0241369298987
 42
0.4142135623731
 10
-573.6477555455385
 20
-131.5241369298987
 42
0.4142135623731
  0
LWPOLYLINE
  5
1FA
330
1F
100
AcDbEntity
  8
D-4
  6
Continuous
 62
     7
370
     5
100
AcDbPolyline
 90
        4
 70
     1
 43
1.0
 10
-843.6310302631274
 20
-251.9435243348816
 42
0.4142135623731
 10
-844.1310302631274
 20
-251.4435243348816
 42
0.4142135623731
 10
-844.6310302631274
 20
-251.9435243348816
 42
0.4142135623731
 10
-844.1310302631274
 20
-252.4435243348816
 42
0.4142135623731
  0
LWPOLYLINE
  5
1FB
330
1F
100
AcDbEntity
  8
D-4
  6
Continuous
 62
     7
370
     5
100
AcDbPolyline
 90
        4
 70
     1
 43
1.0
 10
-843.6310302631274
 20
-376.9438130146747
 42
0.4142135623731
 10
-844.1310302631274
 20
-376.4438130146748
 42
0.4142135623731
 10
-844.6310302631274
 20
-376.9438130146747
 42
0.4142135623731
 10
-844.1310302631274
 20
-377.4438130146747
 42
0.4142135623731
  0
LWPOLYLINE
  5
1FC
330
1F
100
AcDbEntity
  8
D-4
  6
Continuous
 62
     7
370
     5
100
AcDbPolyline
 90
        4
 70
     1
 43
1.0
 10
-26.46299552917452
 20
-251.9435243348816
 42
0.4142135623731
 10
-26.96299552917452
 20
-251.4435243348816
 42
0.4142135623731
 10
-27.46299552917452
 20
-251.9435243348816
 42
0.4142135623731
 10
-26.96299552917452
 20
-252.4435243348816
 42
0.4142135623731
  0
LWPOLYLINE
  5
1FD
330
1F
100
AcDbEntity
  8
D-4
  6
Continuous
 62
     7
370
     5
100
AcDbPolyline
 90
        4
 70
     1
 43
1.0
 10
-26.46299552917452
 20
-501.9437305347338
 42
0.4142135623731
 10
-26.96299552917452
 20
-501.4437305347338
 42
0.4142135623731
 10
-27.46299552917452
 20
-501.9437305347338
 42
0.4142135623731
 10
-26.96299552917452
 20
-502.4437305347338
 42
0.4142135623731
  0
LWPOLYLINE
  5
1FE
330
1F
100
AcDbEntity
  8
D-4
  6
Continuous
 62
     7
370
     5
100
AcDbPolyline
 90
        4
 70
     1
 43
1.0
 10
-310.0979442596436
 20
-251.9435243348816
 42
0.4142135623731
 10
-310.5979442596436
 20
-251.4435243348816
 42
0.4142135623731
 10
-311.0979442596436
 20
-251.9435243348816
 42
0.4142135623731
 10
-310.5979442596436
 20
-252.4435243348816
 42
0.4142135623731
  0
LWPOLYLINE
  5
1FF
330
1F
100
AcDbEntity
  8
D-4
  6
Continuous
 62
     7
370
     5
100
AcDbPolyline
 90
        4
 70
     1
 43
1.0
 10
-310.0979442596436
 20
-336.9434336069468
 42
0.4142135623731
 10
-310.5979442596436
 20
-336.4434336069468
 42
0.4142135623731
 10
-311.0979442596436
 20
-336.9434336069468
 42
0.4142135623731
 10
-310.5979442596436
 20
-337.4434336069467
 42
0.4142135623731
  0
LWPOLYLINE
  5
200
330
1F
100
AcDbEntity
  8
D-4
  6
Continuous
 62
     7
370
     5
100
AcDbPolyline
 90
        4
 70
     1
 43
1.0
 10
-310.0979442596436
 20
-386.9439697265625
 42
0.4142135623731
 10
-310.5979442596436
 20
-386.4439697265625
 42
0.4142135623731
 10
-311.0979442596436
 20
-386.9439697265625
 42
0.4142135623731
 10
-310.5979442596436
 20
-387.4439697265625
 42
0.4142135623731
  0
LWPOLYLINE
  5
201
330
1F
100
AcDbEntity
  8
D-4
  6
Continuous
 62
     7
370
     5
100
AcDbPolyline
 90
        4
 70
     1
 43
1.0
 10
-543.1480277293435
 20
-442.4744147223395
 42
0.4142135623731
 10
-543.6480277293435
 20
-441.9744147223395
 42
0.4142135623731
 10
-544.1480277293435
 20
-442.4744147223395
 42
0.4142135623731
 10
-543.6480277293435
 20
-442.9744147223394
 42
0.4142135623731
  0
LWPOLYLINE
  5
202
330
1F
100
AcDbEntity
  8
D-4
  6
Continuous
 62
     7
370
     5
100
AcDbPolyline
 90
        4
 70
     1
 43
1.0
 10
-398.1479205054204
 20
-442.4744147223395
 42
0.4142135623731
 10
-398.6479205054204
 20
-441.9744147223395
 42
0.4142135623731
 10
-399.1479205054203
 20
-442.4744147223395
 42
0.4142135623731
 10
-398.6479205054204
 20
-442.9744147223394
 42
0.4142135623731
  0
LWPOLYLINE
  5
203
330
1F
100
AcDbEntity
  8
D-4
  6
Continuous
 62
     7
370
     5
100
AcDbPolyline
 90
        4
 70
     1
 43
1.0
 10
-698.148167945243
 20
-657.5623465873099
 42
0.4142135623731
 10
-698.648167945243
 20
-657.0623465873099
 42
0.4142135623731
 10
-699.148167945243
 20
-657.5623465873099
 42
0.4142135623731
 10
-698.648167945243
 20
-658.0623465873099
 42
0.4142135623731
  0
LWPOLYLINE
  5
204
330
1F
100
AcDbEntity
  8
D-4
  6
Continuous
 62
     7
370
     5
100
AcDbPolyline
 90
        4
 70
     1
 43
1.0
 10
-548.1477967855092
 20
-657.5623465873099
 42
0.4142135623731
 10
-548.6477967855092
 20
-657.0623465873099
 42
0.4142135623731
 10
-549.1477967855092
 20
-657.5623465873099
 42
0.4142135623731
 10
-548.6477967855092
 20
-658.0623465873099
 42
0.4142135623731
  0
LWPOLYLINE
  5
205
330
1F
100
AcDbEntity
  8
D-4
  6
Continuous
 62
     7
370
     5
100
AcDbPolyline
 90
        4
 70
     1
 43
1.0
 10
-698.148167945243
 20
-812.027027027027
 42
0.4142135623731
 10
-698.648167945243
 20
-811.527027027027
 42
0.4142135623731
 10
-699.148167945243
 20
-812.027027027027
 42
0.4142135623731
 10
-698.648167945243
 20
-812.5270270270269
 42
0.4142135623731
  0
LWPOLYLINE
  5
206
330
1F
100
AcDbEntity
  8
D-4
  6
Continuous
 62
     7
370
     5
100
AcDbPolyline
 90
        4
 70
     1
 43
1.0
 10
-298.1470957060118
 20
-812.027027027027
 42
0.4142135623731
 10
-298.6470957060118
 20
-811.527027027027
 42
0.4142135623731
 10
-299.1470957060118
 20
-812.027027027027
 42
0.4142135623731
 10
-298.6470957060118
 20
-812.5270270270269
 42
0.4142135623731
  0
LWPOLYLINE
  5
207
330
1F
100
AcDbEntity
  8
D-4
  6
Continuous
 62
     7
370
     5
100
AcDbPolyline
 90
        4
 70
     1
 43
1.0
 10
-1054.874613323727
 20
-254.4434088629644
 42
0.4142135623731
 10
-1055.374613323727
 20
-253.9434088629644
 42
0.4142135623731
 10
-1055.874613323727
 20
-254.4434088629644
 42
0.4142135623731
 10
-1055.374613323727
 20
-254.9434088629644
 42
0.4142135623731
  0
LWPOLYLINE
  5
208
330
1F
100
AcDbEntity
  8
D-4
  6
Continuous
 62
     7
370
     5
100
AcDbPolyline
 90
        4
 70
     1
 43
1.0
 10
-1054.874613323727
 20
-269.4434583509291
 42
0.4142135623731
 10
-1055.374613323727
 20
-268.943458350929
 42
0.4142135623731
 10
-1055.874613323727
 20
-269.4434583509291
 42
0.4142135623731
 10
-1055.374613323727
 20
-269.9434583509291
 42
0.4142135623731
  0
LWPOLYLINE
  5
209
330
1F
100
AcDbEntity
  8
C-4
  6
Continuous
 62
     7
370
     5
100
AcDbPolyline
 90
        4
 70
     1
 43
1.0
 10
-537.2297620515566
 20
1082.594456028294
 42
0.4142135623731
 10
-537.7297620515566
 20
1083.094456028294
 42
0.4142135623731
 10
-538.2297620515566
 20
1082.594456028294
 42
0.4142135623731
 10
-537.7297620515566
 20
1082.094456028294
 42
0.4142135623731
  0
LWPOLYLINE
  5
20A
330
1F
100
AcDbEntity
  8
C-4
  6
Continuous
 62
     7
370
     5
100
AcDbPolyline
 90
        4
 70
     1
 43
1.0
 10
-536.2299814481993
 20
1082.594456028294
 42
0.4142135623731
 10
-536.7299814481993
 20
1083.094456028294
 42
0.4142135623731
 10
-537.2299814481993
 20
1082.594456028294
 42
0.4142135623731
 10
-536.7299814481993
 20
1082.094456028294
 42
0.4142135623731
  0
LWPOLYLINE
  5
20B
330
1F
100
AcDbEntity
  8
C-4
  6
Continuous
 62
     7
370
     5
100
AcDbPolyline
 90
        4
 70
     1
 43
1.0
 10
-37.22996825140865
 20
1082.594456028294
 42
0.4142135623731
 10
-37.72996825140865
 20
1083.094456028294
 42
0.4142135623731
 10
-38.22996825140865
 20
1082.594456028294
 42
0.4142135623731
 10
-37.72996825140865
 20
1082.094456028294
 42
0.4142135623731
  0
LWPOLYLINE
  5
20C
330
1F
100
AcDbEntity
  8
C-4
  6
Continuous
 62
     7
370
     5
100
AcDbPolyline
 90
        4
 70
     1
 43
1.0
 10
-36.22956904849485
 20
1082.594456028294
 42
0.4142135623731
 10
-36.72956904849485
 20
1083.094456028294
 42
0.4142135623731
 10
-37.22956904849485
 20
1082.594456028294
 42
0.4142135623731
 10
-36.72956904849485
 20
1082.094456028294
 42
0.4142135623731
  0
LWPOLYLINE
  5
20D
330
1F
100
AcDbEntity
  8
C-4
  6
Continuous
 62
     7
370
     5
100
AcDbPolyline
 90
        4
 70
     1
 43
1.0
 10
462.7704441482957
 20
1082.594456028294
 42
0.4142135623731
 10
462.2704441482958
 20
1083.094456028294
 42
0.4142135623731
 10
461.7704441482958
 20
1082.594456028294
 42
0.4142135623731
 10
462.2704441482958
 20
1082.094456028294
 42
0.4142135623731
  0
LWPOLYLINE
  5
20E
330
1F
100
AcDbEntity
  8
C-4
  6
Continuous
 62
     7
370
     5
100
AcDbPolyline
 90
        4
 70
     1
 43
1.0
 10
463.7701010317419
 20
1082.594456028294
 42
0.4142135623731
 10
463.2701010317419
 20
1083.094456028294
 42
0.4142135623731
 10
462.7701010317419
 20
1082.594456028294
 42
0.4142135623731
 10
463.2701010317419
 20
1082.094456028294
 42
0.4142135623731
  0
LWPOLYLINE
  5
20F
330
1F
100
AcDbEntity
  8
C-4
  6
Continuous
 62
     7
370
     5
100
AcDbPolyline
 90
        4
 70
     1
 43
1.0
 10
-536.2299814481993
 20
1162.594225084459
 42
0.4142135623731
 10
-536.7299814481993
 20
1163.094225084459
 42
0.4142135623731
 10
-537.2299814481993
 20
1162.594225084459
 42
0.4142135623731
 10
-536.7299814481993
 20
1162.094225084459
 42
0.4142135623731
  0
LWPOLYLINE
  5
210
330
1F
100
AcDbEntity
  8
C-4
  6
Continuous
 62
     7
370
     5
100
AcDbPolyline
 90
        4
 70
     1
 43
1.0
 10
-36.22956904849485
 20
1162.594225084459
 42
0.4142135623731
 10
-36.72956904849485
 20
1163.094225084459
 42
0.4142135623731
 10
-37.22956904849485
 20
1162.594225084459
 42
0.4142135623731
 10
-36.72956904849485
 20
1162.094225084459
 42
0.4142135623731
  0
LWPOLYLINE
  5
211
330
1F
100
AcDbEntity
  8
C-4
  6
Continuous
 62
     7
370
     5
100
AcDbPolyline
 90
        4
 70
     1
 43
1.0
 10
463.7701010317419
 20
1162.594225084459
 42
0.4142135623731
 10
463.2701010317419
 20
1163.094225084459
 42
0.4142135623731
 10
462.7701010317419
 20
1162.594225084459
 42
0.4142135623731
 10
463.2701010317419
 20
1162.094225084459
 42
0.4142135623731
  0
LWPOLYLINE
  5
212
330
1F
100
AcDbEntity
  8
C-4
  6
Continuous
 62
     7
370
     5
100
AcDbPolyline
 90
        4
 70
     1
 43
1.0
 10
-746.7300078417803
 20
623.2164867504224
 42
0.4142135623731
 10
-747.2300078417802
 20
623.7164867504224
 42
0.4142135623731
 10
-747.7300078417802
 20
623.2164867504224
 42
0.4142135623731
 10
-747.2300078417802
 20
622.7164867504224
 42
0.4142135623731
  0
LWPOLYLINE
  5
213
330
1F
100
AcDbEntity
  8
C-4
  6
Continuous
 62
     7
370
     5
100
AcDbPolyline
 90
        4
 70
     1
 43
1.0
 10
-666.7298676258808
 20
623.2164867504224
 42
0.4142135623731
 10
-667.2298676258808
 20
623.7164867504224
 42
0.4142135623731
 10
-667.7298676258807
 20
623.2164867504224
 42
0.4142135623731
 10
-667.2298676258808
 20
622.7164867504224
 42
0.4142135623731
  0
LWPOLYLINE
  5
214
330
1F
100
AcDbEntity
  8
C-4
  6
Continuous
 62
     7
370
     5
100
AcDbPolyline
 90
        4
 70
     1
 43
1.0
 10
-841.5401637618605
 20
740.5945154138516
 42
0.4142135623731
 10
-842.0401637618604
 20
741.0945154138516
 42
0.4142135623731
 10
-842.5401637618604
 20
740.5945154138516
 42
0.4142135623731
 10
-842.0401637618604
 20
740.0945154138516
 42
0.4142135623731
  0
LWPOLYLINE
  5
215
330
1F
100
AcDbEntity
  8
C-4
  6
Continuous
 62
     7
370
     5
100
AcDbPolyline
 90
        4
 70
     1
 43
1.0
 10
-841.5401637618605
 20
786.5943207611908
 42
0.4142135623731
 10
-842.0401637618604
 20
787.0943207611908
 42
0.4142135623731
 10
-842.5401637618604
 20
786.5943207611908
 42
0.4142135623731
 10
-842.0401637618604
 20
786.0943207611909
 42
0.4142135623731
  0
LINE
  5
216
330
1F
100
AcDbEntity
  8
C-B
  6
JWW_DASHED3
 62
     6
370
     5
100
AcDbLine
 10
554.7699509182496
 20
717.593994140625
 30
0.0
 11
550.7699509182496
 21
717.593994140625
 31
0.0
  0
LINE
  5
217
330
1F
100
AcDbEntity
  8
C-B
  6
JWW_DASHED3
 62
     6
370
     5
100
AcDbLine
 10
554.7699509182496
 20
717.593994140625
 30
0.0
 11
554.7699509182496
 21
947.5940106366133
 31
0.0
  0
LINE
  5
218
330
1F
100
AcDbEntity
  8
C-B
  6
JWW_DASHED3
 62
     6
370
     5
100
AcDbLine
 10
550.7699509182496
 20
717.593994140625
 30
0.0
 11
550.7699509182496
 21
947.5940106366133
 31
0.0
  0
LINE
  5
219
330
1F
100
AcDbEntity
  8
C-B
  6
JWW_DASHED3
 62
     6
370
     5
100
AcDbLine
 10
554.7699509182496
 20
947.5940106366133
 30
0.0
 11
550.7699509182496
 21
947.5940106366133
 31
0.0
  0
LINE
  5
21A
330
1F
100
AcDbEntity
  8
C-B
  6
JWW_DASHED3
 62
     6
370
     5
100
AcDbLine
 10
374.7699756622319
 20
717.593994140625
 30
0.0
 11
370.7699756622317
 21
717.593994140625
 31
0.0
  0
LINE
  5
21B
330
1F
100
AcDbEntity
  8
C-B
  6
JWW_DASHED3
 62
     6
370
     5
100
AcDbLine
 10
374.7699756622319
 20
717.593994140625
 30
0.0
 11
374.7699756622319
 21
947.5940106366133
 31
0.0
  0
LINE
  5
21C
330
1F
100
AcDbEntity
  8
C-B
  6
JWW_DASHED3
 62
     6
370
     5
100
AcDbLine
 10
370.7699756622317
 20
717.593994140625
 30
0.0
 11
370.7699756622317
 21
947.5940106366133
 31
0.0
  0
LINE
  5
21D
330
1F
100
AcDbEntity
  8
C-B
  6
JWW_DASHED3
 62
     6
370
     5
100
AcDbLine
 10
374.7699756622319
 20
947.5940106366133
 30
0.0
 11
370.7699756622317
 21
947.5940106366133
 31
0.0
  0
LINE
  5
21E
330
1F
100
AcDbEntity
  8
C-B
  6
JWW_DASHED3
 62
     6
370
     5
100
AcDbLine
 10
54.77028083801258
 20
717.593994140625
 30
0.0
 11
50.7702808380126
 21
717.593994140625
 31
0.0
  0
LINE
  5
21F
330
1F
100
AcDbEntity
  8
C-B
  6
JWW_DASHED3
 62
     6
370
     5
100
AcDbLine
 10
54.77028083801258
 20
717.593994140625
 30
0.0
 11
54.77028083801258
 21
947.5940106366133
 31
0.0
  0
LINE
  5
220
330
1F
100
AcDbEntity
  8
C-B
  6
JWW_DASHED3
 62
     6
370
     5
100
AcDbLine
 10
50.7702808380126
 20
717.593994140625
 30
0.0
 11
50.7702808380126
 21
947.5940106366133
 31
0.0
  0
LINE
  5
221
330
1F
100
AcDbEntity
  8
C-B
  6
JWW_DASHED3
 62
     6
370
     5
100
AcDbLine
 10
54.77028083801258
 20
947.5940106366133
 30
0.0
 11
50.7702808380126
 21
947.5940106366133
 31
0.0
  0
LINE
  5
222
330
1F
100
AcDbEntity
  8
C-B
  6
JWW_DASHED3
 62
     6
370
     5
100
AcDbLine
 10
-125.2296944180051
 20
717.593994140625
 30
0.0
 11
-129.2296944180052
 21
717.593994140625
 31
0.0
  0
LINE
  5
223
330
1F
100
AcDbEntity
  8
C-B
  6
JWW_DASHED3
 62
     6
370
     5
100
AcDbLine
 10
-125.2296944180051
 20
717.593994140625
 30
0.0
 11
-125.2296944180051
 21
947.5940106366133
 31
0.0
  0
LINE
  5
224
330
1F
100
AcDbEntity
  8
C-B
  6
JWW_DASHED3
 62
     6
370
     5
100
AcDbLine
 10
-129.2296944180052
 20
717.593994140625
 30
0.0
 11
-129.2296944180052
 21
947.5940106366133
 31
0.0
  0
LINE
  5
225
330
1F
100
AcDbEntity
  8
C-B
  6
JWW_DASHED3
 62
     6
370
     5
100
AcDbLine
 10
-125.2296944180051
 20
947.5940106366133
 30
0.0
 11
-129.2296944180052
 21
947.5940106366133
 31
0.0
  0
LINE
  5
226
330
1F
100
AcDbEntity
  8
C-B
  6
JWW_DASHED3
 62
     6
370
     5
100
AcDbLine
 10
-445.2301315616918
 20
717.593994140625
 30
0.0
 11
-449.2301315616919
 21
717.593994140625
 31
0.0
  0
LINE
  5
227
330
1F
100
AcDbEntity
  8
C-B
  6
JWW_DASHED3
 62
     6
370
     5
100
AcDbLine
 10
-445.2301315616918
 20
717.593994140625
 30
0.0
 11
-445.2301315616918
 21
947.5940106366133
 31
0.0
  0
LINE
  5
228
330
1F
100
AcDbEntity
  8
C-B
  6
JWW_DASHED3
 62
     6
370
     5
100
AcDbLine
 10
-449.2301315616919
 20
717.593994140625
 30
0.0
 11
-449.2301315616919
 21
947.5940106366133
 31
0.0
  0
LINE
  5
229
330
1F
100
AcDbEntity
  8
C-B
  6
JWW_DASHED3
 62
     6
370
     5
100
AcDbLine
 10
-445.2301315616918
 20
947.5940106366133
 30
0.0
 11
-449.2301315616919
 21
947.5940106366133
 31
0.0
  0
LINE
  5
22A
330
1F
100
AcDbEntity
  8
C-B
  6
JWW_DASHED3
 62
     6
370
     5
100
AcDbLine
 10
-625.2301068177096
 20
717.593994140625
 30
0.0
 11
-629.2301068177096
 21
717.593994140625
 31
0.0
  0
LINE
  5
22B
330
1F
100
AcDbEntity
  8
C-B
  6
JWW_DASHED3
 62
     6
370
     5
100
AcDbLine
 10
-625.2301068177096
 20
717.593994140625
 30
0.0
 11
-625.2301068177096
 21
947.5940106366133
 31
0.0
  0
LINE
  5
22C
330
1F
100
AcDbEntity
  8
C-B
  6
JWW_DASHED3
 62
     6
370
     5
100
AcDbLine
 10
-629.2301068177096
 20
717.593994140625
 30
0.0
 11
-629.2301068177096
 21
947.5940106366133
 31
0.0
  0
LINE
  5
22D
330
1F
100
AcDbEntity
  8
C-B
  6
JWW_DASHED3
 62
     6
370
     5
100
AcDbLine
 10
-625.2301068177096
 20
947.5940106366133
 30
0.0
 11
-629.2301068177096
 21
947.5940106366133
 31
0.0
  0
TEXT
  5
22E
330
1F
100
AcDbEntity
  8
D-5
  6
Continuous
 62
     7
370
     5
100
AcDbText
 10
-1405.002175150691
 20
-600.9613369668496
 30
0.0
 40
22.86
  1
（ＳＵＳ３０４）
 41
1.145833333333335
  7
ＭＳ ゴシック
100
AcDbText
  0
TEXT
  5
22F
330
1F
100
AcDbEntity
  8
D-5
  6
Continuous
 62
     7
370
     5
100
AcDbText
 10
-1520.15959775479
 20
-550.8408818011294
 30
0.0
 40
22.86
  1
補強材：ＦＢ４×２５～２本／枚
 41
1.155555555555555
  7
ＭＳ ゴシック
100
AcDbText
  0
LINE
  5
230
330
1F
100
AcDbEntity
  8
D-5
  6
Continuous
 62
     7
370
     5
100
AcDbLine
 10
-1524.151723087768
 20
-564.556893013619
 30
0.0
 11
-988.0787140614277
 21
-564.556893013619
 31
0.0
  0
LINE
  5
231
330
1F
100
AcDbEntity
  8
D-0
  6
Continuous
 62
     7
370
     5
100
AcDbLine
 10
-271.8028756734486
 20
-272.8934661762133
 30
0.0
 11
-271.8028756734486
 21
-271.3931850807086
 31
0.0
  0
LINE
  5
232
330
1F
100
AcDbEntity
  8
D-0
  6
Continuous
 62
     7
370
     5
100
AcDbLine
 10
-271.8028756734486
 20
-271.3931850807086
 30
0.0
 11
-270.3028604146596
 21
-271.3931850807086
 31
0.0
  0
LINE
  5
233
330
1F
100
AcDbEntity
  8
D-0
  6
Continuous
 62
     7
370
     5
100
AcDbLine
 10
-270.3028604146596
 20
-271.3931850807086
 30
0.0
 11
-270.3028604146596
 21
-272.8934661762133
 31
0.0
  0
LINE
  5
234
330
1F
100
AcDbEntity
  8
D-0
  6
Continuous
 62
     7
370
     5
100
AcDbLine
 10
-270.3028604146596
 20
-272.8934661762133
 30
0.0
 11
-271.8028756734486
 21
-272.8934661762133
 31
0.0
  0
LINE
  5
235
330
1F
100
AcDbEntity
  8
D-0
  6
Continuous
 62
     7
370
     5
100
AcDbLine
 10
-221.0469552632924
 20
-275.6007067577258
 30
0.0
 11
-221.0469552632924
 21
-274.1004268543139
 31
0.0
  0
LINE
  5
236
330
1F
100
AcDbEntity
  8
D-0
  6
Continuous
 62
     7
370
     5
100
AcDbLine
 10
-221.0469552632924
 20
-274.1004268543139
 30
0.0
 11
-219.5469018575307
 21
-274.1004268543139
 31
0.0
  0
LINE
  5
237
330
1F
100
AcDbEntity
  8
D-0
  6
Continuous
 62
     7
370
     5
100
AcDbLine
 10
-219.5469018575307
 20
-274.1004268543139
 30
0.0
 11
-219.5469018575307
 21
-275.6007067577258
 31
0.0
  0
LINE
  5
238
330
1F
100
AcDbEntity
  8
D-0
  6
Continuous
 62
     7
370
     5
100
AcDbLine
 10
-219.5469018575307
 20
-275.6007067577258
 30
0.0
 11
-221.0469552632924
 21
-275.6007067577258
 31
0.0
  0
LINE
  5
239
330
1F
100
AcDbEntity
  8
D-0
  6
Continuous
 62
     7
370
     5
100
AcDbLine
 10
-156.0792276021596
 20
-273.5702745334521
 30
0.0
 11
-156.0792276021596
 21
-272.069997014226
 31
0.0
  0
LINE
  5
23A
330
1F
100
AcDbEntity
  8
D-0
  6
Continuous
 62
     7
370
     5
100
AcDbLine
 10
-156.0792276021596
 20
-272.069997014226
 30
0.0
 11
-154.5791741963978
 21
-272.069997014226
 31
0.0
  0
LINE
  5
23B
330
1F
100
AcDbEntity
  8
D-0
  6
Continuous
 62
     7
370
     5
100
AcDbLine
 10
-154.5791741963978
 20
-272.069997014226
 30
0.0
 11
-154.5791741963978
 21
-273.5702745334521
 31
0.0
  0
LINE
  5
23C
330
1F
100
AcDbEntity
  8
D-0
  6
Continuous
 62
     7
370
     5
100
AcDbLine
 10
-154.5791741963978
 20
-273.5702745334521
 30
0.0
 11
-156.0792276021596
 21
-273.5702745334521
 31
0.0
  0
LINE
  5
23D
330
1F
100
AcDbEntity
  8
D-0
  6
Continuous
 62
     7
370
     5
100
AcDbLine
 10
-180.4421731588002
 20
-306.0542003528491
 30
0.0
 11
-180.4421731588002
 21
-304.5539180652514
 31
0.0
  0
LINE
  5
23E
330
1F
100
AcDbEntity
  8
D-0
  6
Continuous
 62
     7
370
     5
100
AcDbLine
 10
-180.4421731588002
 20
-304.5539180652514
 30
0.0
 11
-178.9421197530385
 21
-304.5539180652514
 31
0.0
  0
LINE
  5
23F
330
1F
100
AcDbEntity
  8
D-0
  6
Continuous
 62
     7
370
     5
100
AcDbLine
 10
-178.9421197530385
 20
-304.5539180652514
 30
0.0
 11
-178.9421197530385
 21
-306.0542003528491
 31
0.0
  0
LINE
  5
240
330
1F
100
AcDbEntity
  8
D-0
  6
Continuous
 62
     7
370
     5
100
AcDbLine
 10
-178.9421197530385
 20
-306.0542003528491
 30
0.0
 11
-180.4421731588002
 21
-306.0542003528491
 31
0.0
  0
LINE
  5
241
330
1F
100
AcDbEntity
  8
D-0
  6
Continuous
 62
     7
370
     5
100
AcDbLine
 10
-231.0073587056752
 20
-309.9852506534472
 30
0.0
 11
-231.0073587056752
 21
-308.4849683658496
 31
0.0
  0
LINE
  5
242
330
1F
100
AcDbEntity
  8
D-0
  6
Continuous
 62
     7
370
     5
100
AcDbLine
 10
-231.0073587056752
 20
-308.4849683658496
 30
0.0
 11
-229.5073052999135
 21
-308.4849683658496
 31
0.0
  0
LINE
  5
243
330
1F
100
AcDbEntity
  8
D-0
  6
Continuous
 62
     7
370
     5
100
AcDbLine
 10
-229.5073052999135
 20
-308.4849683658496
 30
0.0
 11
-229.5073052999135
 21
-309.9852506534472
 31
0.0
  0
LINE
  5
244
330
1F
100
AcDbEntity
  8
D-0
  6
Continuous
 62
     7
370
     5
100
AcDbLine
 10
-229.5073052999135
 20
-309.9852506534472
 30
0.0
 11
-231.0073587056752
 21
-309.9852506534472
 31
0.0
  0
LINE
  5
245
330
1F
100
AcDbEntity
  8
D-0
  6
Continuous
 62
     7
370
     5
100
AcDbLine
 10
-248.1167337056752
 20
-343.9521114246264
 30
0.0
 11
-248.1167337056752
 21
-342.4518291370288
 31
0.0
  0
LINE
  5
246
330
1F
100
AcDbEntity
  8
D-0
  6
Continuous
 62
     7
370
     5
100
AcDbLine
 10
-248.1167337056752
 20
-342.4518291370288
 30
0.0
 11
-246.6167184468861
 21
-342.4518291370288
 31
0.0
  0
LINE
  5
247
330
1F
100
AcDbEntity
  8
D-0
  6
Continuous
 62
     7
370
     5
100
AcDbLine
 10
-246.6167184468861
 20
-342.4518291370288
 30
0.0
 11
-246.6167184468861
 21
-343.9521114246264
 31
0.0
  0
LINE
  5
248
330
1F
100
AcDbEntity
  8
D-0
  6
Continuous
 62
     7
370
     5
100
AcDbLine
 10
-246.6167184468861
 20
-343.9521114246264
 30
0.0
 11
-248.1167337056752
 21
-343.9521114246264
 31
0.0
  0
LINE
  5
249
330
1F
100
AcDbEntity
  8
D-0
  6
Continuous
 62
     7
370
     5
100
AcDbLine
 10
-279.4732400533314
 20
-329.3803731815234
 30
0.0
 11
-279.4732400533314
 21
-327.8800956622973
 31
0.0
  0
LINE
  5
24A
330
1F
100
AcDbEntity
  8
D-0
  6
Continuous
 62
     7
370
     5
100
AcDbLine
 10
-279.4732400533314
 20
-327.8800956622973
 30
0.0
 11
-277.973205721056
 21
-327.8800956622973
 31
0.0
  0
LINE
  5
24B
330
1F
100
AcDbEntity
  8
D-0
  6
Continuous
 62
     7
370
     5
100
AcDbLine
 10
-277.973205721056
 20
-327.8800956622973
 30
0.0
 11
-277.973205721056
 21
-329.3803731815234
 31
0.0
  0
LINE
  5
24C
330
1F
100
AcDbEntity
  8
D-0
  6
Continuous
 62
     7
370
     5
100
AcDbLine
 10
-277.973205721056
 20
-329.3803731815234
 30
0.0
 11
-279.4732400533314
 21
-329.3803731815234
 31
0.0
  0
LINE
  5
24D
330
1F
100
AcDbEntity
  8
D-0
  6
Continuous
 62
     7
370
     5
100
AcDbLine
 10
-290.1974031087514
 20
-370.6004039661303
 30
0.0
 11
-290.1974031087514
 21
-369.1001216785327
 31
0.0
  0
LINE
  5
24E
330
1F
100
AcDbEntity
  8
D-0
  6
Continuous
 62
     7
370
     5
100
AcDbLine
 10
-290.1974031087514
 20
-369.1001216785327
 30
0.0
 11
-288.697368776476
 21
-369.1001216785327
 31
0.0
  0
LINE
  5
24F
330
1F
100
AcDbEntity
  8
D-0
  6
Continuous
 62
     7
370
     5
100
AcDbLine
 10
-288.697368776476
 20
-369.1001216785327
 30
0.0
 11
-288.697368776476
 21
-370.6004039661303
 31
0.0
  0
LINE
  5
250
330
1F
100
AcDbEntity
  8
D-0
  6
Continuous
 62
     7
370
     5
100
AcDbLine
 10
-288.697368776476
 20
-370.6004039661303
 30
0.0
 11
-290.1974031087514
 21
-370.6004039661303
 31
0.0
  0
LINE
  5
251
330
1F
100
AcDbEntity
  8
D-0
  6
Continuous
 62
     7
370
     5
100
AcDbLine
 10
-252.8540536519643
 20
-379.1427795307055
 30
0.0
 11
-252.8540536519643
 21
-377.6424972431079
 31
0.0
  0
LINE
  5
252
330
1F
100
AcDbEntity
  8
D-0
  6
Continuous
 62
     7
370
     5
100
AcDbLine
 10
-252.8540536519643
 20
-377.6424972431079
 30
0.0
 11
-251.3540383931752
 21
-377.6424972431079
 31
0.0
  0
LINE
  5
253
330
1F
100
AcDbEntity
  8
D-0
  6
Continuous
 62
     7
370
     5
100
AcDbLine
 10
-251.3540383931752
 20
-377.6424972431079
 30
0.0
 11
-251.3540383931752
 21
-379.1427795307055
 31
0.0
  0
LINE
  5
254
330
1F
100
AcDbEntity
  8
D-0
  6
Continuous
 62
     7
370
     5
100
AcDbLine
 10
-251.3540383931752
 20
-379.1427795307055
 30
0.0
 11
-252.8540536519643
 21
-379.1427795307055
 31
0.0
  0
LINE
  5
255
330
1F
100
AcDbEntity
  8
D-0
  6
Continuous
 62
     7
370
     5
100
AcDbLine
 10
-200.6491204854603
 20
-383.867568196477
 30
0.0
 11
-200.6491204854603
 21
-382.3672954456225
 31
0.0
  0
LINE
  5
256
330
1F
100
AcDbEntity
  8
D-0
  6
Continuous
 62
     7
370
     5
100
AcDbLine
 10
-200.6491204854603
 20
-382.3672954456225
 30
0.0
 11
-199.1490670796986
 21
-382.3672954456225
 31
0.0
  0
LINE
  5
257
330
1F
100
AcDbEntity
  8
D-0
  6
Continuous
 62
     7
370
     5
100
AcDbLine
 10
-199.1490670796986
 20
-382.3672954456225
 30
0.0
 11
-199.1490670796986
 21
-383.867568196477
 31
0.0
  0
LINE
  5
258
330
1F
100
AcDbEntity
  8
D-0
  6
Continuous
 62
     7
370
     5
100
AcDbLine
 10
-199.1490670796986
 20
-383.867568196477
 30
0.0
 11
-200.6491204854603
 21
-383.867568196477
 31
0.0
  0
LINE
  5
259
330
1F
100
AcDbEntity
  8
D-0
  6
Continuous
 62
     7
370
     5
100
AcDbLine
 10
-145.9280511495228
 20
-377.1123496906176
 30
0.0
 11
-145.9280511495228
 21
-375.61206740302
 31
0.0
  0
LINE
  5
25A
330
1F
100
AcDbEntity
  8
D-0
  6
Continuous
 62
     7
370
     5
100
AcDbLine
 10
-145.9280511495228
 20
-375.61206740302
 30
0.0
 11
-144.4280358907338
 21
-375.61206740302
 31
0.0
  0
LINE
  5
25B
330
1F
100
AcDbEntity
  8
D-0
  6
Continuous
 62
     7
370
     5
100
AcDbLine
 10
-144.4280358907338
 20
-375.61206740302
 30
0.0
 11
-144.4280358907338
 21
-377.1123496906176
 31
0.0
  0
LINE
  5
25C
330
1F
100
AcDbEntity
  8
D-0
  6
Continuous
 62
     7
370
     5
100
AcDbLine
 10
-144.4280358907338
 20
-377.1123496906176
 30
0.0
 11
-145.9280511495228
 21
-377.1123496906176
 31
0.0
  0
LINE
  5
25D
330
1F
100
AcDbEntity
  8
D-0
  6
Continuous
 62
     7
370
     5
100
AcDbLine
 10
-158.1095239278432
 20
-337.1845046893969
 30
0.0
 11
-158.1095239278432
 21
-335.6842224017993
 31
0.0
  0
LINE
  5
25E
330
1F
100
AcDbEntity
  8
D-0
  6
Continuous
 62
     7
370
     5
100
AcDbLine
 10
-158.1095239278432
 20
-335.6842224017993
 30
0.0
 11
-156.6094705220814
 21
-335.6842224017993
 31
0.0
  0
LINE
  5
25F
330
1F
100
AcDbEntity
  8
D-0
  6
Continuous
 62
     7
370
     5
100
AcDbLine
 10
-156.6094705220814
 20
-335.6842224017993
 30
0.0
 11
-156.6094705220814
 21
-337.1845046893969
 31
0.0
  0
LINE
  5
260
330
1F
100
AcDbEntity
  8
D-0
  6
Continuous
 62
     7
370
     5
100
AcDbLine
 10
-156.6094705220814
 20
-337.1845046893969
 30
0.0
 11
-158.1095239278432
 21
-337.1845046893969
 31
0.0
  0
LINE
  5
261
330
1F
100
AcDbEntity
  8
D-0
  6
Continuous
 62
     7
370
     5
100
AcDbLine
 10
-518.5206910726185
 20
-266.4751629249469
 30
0.0
 11
-518.5206910726185
 21
-264.974883021535
 31
0.0
  0
LINE
  5
262
330
1F
100
AcDbEntity
  8
D-0
  6
Continuous
 62
     7
370
     5
100
AcDbLine
 10
-518.5206910726185
 20
-264.974883021535
 30
0.0
 11
-517.0206615087147
 21
-264.974883021535
 31
0.0
  0
LINE
  5
263
330
1F
100
AcDbEntity
  8
D-0
  6
Continuous
 62
     7
370
     5
100
AcDbLine
 10
-517.0206615087147
 20
-264.974883021535
 30
0.0
 11
-517.0206615087147
 21
-266.4751629249469
 31
0.0
  0
LINE
  5
264
330
1F
100
AcDbEntity
  8
D-0
  6
Continuous
 62
     7
370
     5
100
AcDbLine
 10
-517.0206615087147
 20
-266.4751629249469
 30
0.0
 11
-518.5206910726185
 21
-266.4751629249469
 31
0.0
  0
LINE
  5
265
330
1F
100
AcDbEntity
  8
D-0
  6
Continuous
 62
     7
370
     5
100
AcDbLine
 10
-491.7157098409291
 20
-284.1272274867907
 30
0.0
 11
-491.7157098409291
 21
-282.6269499675647
 31
0.0
  0
LINE
  5
266
330
1F
100
AcDbEntity
  8
D-0
  6
Continuous
 62
     7
370
     5
100
AcDbLine
 10
-491.7157098409291
 20
-282.6269499675647
 30
0.0
 11
-490.2156755086537
 21
-282.6269499675647
 31
0.0
  0
LINE
  5
267
330
1F
100
AcDbEntity
  8
D-0
  6
Continuous
 62
     7
370
     5
100
AcDbLine
 10
-490.2156755086537
 20
-282.6269499675647
 30
0.0
 11
-490.2156755086537
 21
-284.1272274867907
 31
0.0
  0
LINE
  5
268
330
1F
100
AcDbEntity
  8
D-0
  6
Continuous
 62
     7
370
     5
100
AcDbLine
 10
-490.2156755086537
 20
-284.1272274867907
 30
0.0
 11
-491.7157098409291
 21
-284.1272274867907
 31
0.0
  0
LINE
  5
269
330
1F
100
AcDbEntity
  8
D-0
  6
Continuous
 62
     7
370
     5
100
AcDbLine
 10
-473.4099980947133
 20
-323.3539859668628
 30
0.0
 11
-473.4099980947133
 21
-321.8537084476367
 31
0.0
  0
LINE
  5
26A
330
1F
100
AcDbEntity
  8
D-0
  6
Continuous
 62
     7
370
     5
100
AcDbLine
 10
-473.4099980947133
 20
-321.8537084476367
 30
0.0
 11
-471.9099637624379
 21
-321.8537084476367
 31
0.0
  0
LINE
  5
26B
330
1F
100
AcDbEntity
  8
D-0
  6
Continuous
 62
     7
370
     5
100
AcDbLine
 10
-471.9099637624379
 20
-321.8537084476367
 30
0.0
 11
-471.9099637624379
 21
-323.3539859668628
 31
0.0
  0
LINE
  5
26C
330
1F
100
AcDbEntity
  8
D-0
  6
Continuous
 62
     7
370
     5
100
AcDbLine
 10
-471.9099637624379
 20
-323.3539859668628
 30
0.0
 11
-473.4099980947133
 21
-323.3539859668628
 31
0.0
  0
LINE
  5
26D
330
1F
100
AcDbEntity
  8
D-0
  6
Continuous
 62
     7
370
     5
100
AcDbLine
 10
-427.6453992482777
 20
-270.3977887050524
 30
0.0
 11
-427.6453992482777
 21
-268.8975099937335
 31
0.0
  0
LINE
  5
26E
330
1F
100
AcDbEntity
  8
D-0
  6
Continuous
 62
     7
370
     5
100
AcDbLine
 10
-427.6453992482777
 20
-268.8975099937335
 30
0.0
 11
-426.1453744527455
 21
-268.8975099937335
 31
0.0
  0
LINE
  5
26F
330
1F
100
AcDbEntity
  8
D-0
  6
Continuous
 62
     7
370
     5
100
AcDbLine
 10
-426.1453744527455
 20
-268.8975099937335
 30
0.0
 11
-426.1453744527455
 21
-270.3977887050524
 31
0.0
  0
LINE
  5
270
330
1F
100
AcDbEntity
  8
D-0
  6
Continuous
 62
     7
370
     5
100
AcDbLine
 10
-426.1453744527455
 20
-270.3977887050524
 30
0.0
 11
-427.6453992482777
 21
-270.3977887050524
 31
0.0
  0
LINE
  5
271
330
1F
100
AcDbEntity
  8
D-0
  6
Continuous
 62
     7
370
     5
100
AcDbLine
 10
-368.8052674886342
 20
-276.2819759265795
 30
0.0
 11
-368.8052674886342
 21
-274.7816960231677
 31
0.0
  0
LINE
  5
272
330
1F
100
AcDbEntity
  8
D-0
  6
Continuous
 62
     7
370
     5
100
AcDbLine
 10
-368.8052674886342
 20
-274.7816960231677
 30
0.0
 11
-367.3052331563588
 21
-274.7816960231677
 31
0.0
  0
LINE
  5
273
330
1F
100
AcDbEntity
  8
D-0
  6
Continuous
 62
     7
370
     5
100
AcDbLine
 10
-367.3052331563588
 20
-274.7816960231677
 30
0.0
 11
-367.3052331563588
 21
-276.2819759265795
 31
0.0
  0
LINE
  5
274
330
1F
100
AcDbEntity
  8
D-0
  6
Continuous
 62
     7
370
     5
100
AcDbLine
 10
-367.3052331563588
 20
-276.2819759265795
 30
0.0
 11
-368.8052674886342
 21
-276.2819759265795
 31
0.0
  0
LINE
  5
275
330
1F
100
AcDbEntity
  8
D-0
  6
Continuous
 62
     7
370
     5
100
AcDbLine
 10
-388.4186479207631
 20
-297.8566686527148
 30
0.0
 11
-388.4186479207631
 21
-296.3563911334887
 31
0.0
  0
LINE
  5
276
330
1F
100
AcDbEntity
  8
D-0
  6
Continuous
 62
     7
370
     5
100
AcDbLine
 10
-388.4186479207631
 20
-296.3563911334887
 30
0.0
 11
-386.9186135884877
 21
-296.3563911334887
 31
0.0
  0
LINE
  5
277
330
1F
100
AcDbEntity
  8
D-0
  6
Continuous
 62
     7
370
     5
100
AcDbLine
 10
-386.9186135884877
 20
-296.3563911334887
 30
0.0
 11
-386.9186135884877
 21
-297.8566686527148
 31
0.0
  0
LINE
  5
278
330
1F
100
AcDbEntity
  8
D-0
  6
Continuous
 62
     7
370
     5
100
AcDbLine
 10
-386.9186135884877
 20
-297.8566686527148
 30
0.0
 11
-388.4186479207631
 21
-297.8566686527148
 31
0.0
  0
LINE
  5
279
330
1F
100
AcDbEntity
  8
D-0
  6
Continuous
 62
     7
370
     5
100
AcDbLine
 10
-375.3431054708119
 20
-322.700461568059
 30
0.0
 11
-375.3431054708119
 21
-321.200184048833
 31
0.0
  0
LINE
  5
27A
330
1F
100
AcDbEntity
  8
D-0
  6
Continuous
 62
     7
370
     5
100
AcDbLine
 10
-375.3431054708119
 20
-321.200184048833
 30
0.0
 11
-373.8430711385365
 21
-321.200184048833
 31
0.0
  0
LINE
  5
27B
330
1F
100
AcDbEntity
  8
D-0
  6
Continuous
 62
     7
370
     5
100
AcDbLine
 10
-373.8430711385365
 20
-321.200184048833
 30
0.0
 11
-373.8430711385365
 21
-322.700461568059
 31
0.0
  0
LINE
  5
27C
330
1F
100
AcDbEntity
  8
D-0
  6
Continuous
 62
     7
370
     5
100
AcDbLine
 10
-373.8430711385365
 20
-322.700461568059
 30
0.0
 11
-375.3431054708119
 21
-322.700461568059
 31
0.0
  0
LINE
  5
27D
330
1F
100
AcDbEntity
  8
D-0
  6
Continuous
 62
     7
370
     5
100
AcDbLine
 10
-371.4203569051381
 20
-361.2732021228686
 30
0.0
 11
-371.4203569051381
 21
-359.772919835271
 31
0.0
  0
LINE
  5
27E
330
1F
100
AcDbEntity
  8
D-0
  6
Continuous
 62
     7
370
     5
100
AcDbLine
 10
-371.4203569051381
 20
-359.772919835271
 30
0.0
 11
-369.9203225728627
 21
-359.772919835271
 31
0.0
  0
LINE
  5
27F
330
1F
100
AcDbEntity
  8
D-0
  6
Continuous
 62
     7
370
     5
100
AcDbLine
 10
-369.9203225728627
 20
-359.772919835271
 30
0.0
 11
-369.9203225728627
 21
-361.2732021228686
 31
0.0
  0
LINE
  5
280
330
1F
100
AcDbEntity
  8
D-0
  6
Continuous
 62
     7
370
     5
100
AcDbLine
 10
-369.9203225728627
 20
-361.2732021228686
 30
0.0
 11
-371.4203569051381
 21
-361.2732021228686
 31
0.0
  0
LINE
  5
281
330
1F
100
AcDbEntity
  8
D-0
  6
Continuous
 62
     7
370
     5
100
AcDbLine
 10
-199.1385385152455
 20
-346.302117528142
 30
0.0
 11
-199.1385385152455
 21
-344.8018352405444
 31
0.0
  0
LINE
  5
282
330
1F
100
AcDbEntity
  8
D-0
  6
Continuous
 62
     7
370
     5
100
AcDbLine
 10
-199.1385385152455
 20
-344.8018352405444
 30
0.0
 11
-197.6385232564564
 21
-344.8018352405444
 31
0.0
  0
LINE
  5
283
330
1F
100
AcDbEntity
  8
D-0
  6
Continuous
 62
     7
370
     5
100
AcDbLine
 10
-197.6385232564564
 20
-344.8018352405444
 30
0.0
 11
-197.6385232564564
 21
-346.302117528142
 31
0.0
  0
LINE
  5
284
330
1F
100
AcDbEntity
  8
D-0
  6
Continuous
 62
     7
370
     5
100
AcDbLine
 10
-197.6385232564564
 20
-346.302117528142
 30
0.0
 11
-199.1385385152455
 21
-346.302117528142
 31
0.0
  0
LINE
  5
285
330
1F
100
AcDbEntity
  8
D-0
  6
Continuous
 62
     7
370
     5
100
AcDbLine
 10
-138.6533471700307
 20
-306.8137542621508
 30
0.0
 11
-138.6533471700307
 21
-305.3134719745532
 31
0.0
  0
LINE
  5
286
330
1F
100
AcDbEntity
  8
D-0
  6
Continuous
 62
     7
370
     5
100
AcDbLine
 10
-138.6533471700307
 20
-305.3134719745532
 30
0.0
 11
-137.1532937642689
 21
-305.3134719745532
 31
0.0
  0
LINE
  5
287
330
1F
100
AcDbEntity
  8
D-0
  6
Continuous
 62
     7
370
     5
100
AcDbLine
 10
-137.1532937642689
 20
-305.3134719745532
 30
0.0
 11
-137.1532937642689
 21
-306.8137542621508
 31
0.0
  0
LINE
  5
288
330
1F
100
AcDbEntity
  8
D-0
  6
Continuous
 62
     7
370
     5
100
AcDbLine
 10
-137.1532937642689
 20
-306.8137542621508
 30
0.0
 11
-138.6533471700307
 21
-306.8137542621508
 31
0.0
  0
LINE
  5
289
330
1F
100
AcDbEntity
  8
D-0
  6
Continuous
 62
     7
370
     5
100
AcDbLine
 10
-292.6538201924916
 20
-295.9208719150439
 30
0.0
 11
-292.6538201924916
 21
-294.4205943958178
 31
0.0
  0
LINE
  5
28A
330
1F
100
AcDbEntity
  8
D-0
  6
Continuous
 62
     7
370
     5
100
AcDbLine
 10
-292.6538201924916
 20
-294.4205943958178
 30
0.0
 11
-291.1537858602162
 21
-294.4205943958178
 31
0.0
  0
LINE
  5
28B
330
1F
100
AcDbEntity
  8
D-0
  6
Continuous
 62
     7
370
     5
100
AcDbLine
 10
-291.1537858602162
 20
-294.4205943958178
 30
0.0
 11
-291.1537858602162
 21
-295.9208719150439
 31
0.0
  0
LINE
  5
28C
330
1F
100
AcDbEntity
  8
D-0
  6
Continuous
 62
     7
370
     5
100
AcDbLine
 10
-291.1537858602162
 20
-295.9208719150439
 30
0.0
 11
-292.6538201924916
 21
-295.9208719150439
 31
0.0
  0
LINE
  5
28D
330
1F
100
AcDbEntity
  8
D-0
  6
Continuous
 62
     7
370
     5
100
AcDbLine
 10
-376.0038110372182
 20
-419.1712085620776
 30
0.0
 11
-376.0038110372182
 21
-417.6709262744799
 31
0.0
  0
LINE
  5
28E
330
1F
100
AcDbEntity
  8
D-0
  6
Continuous
 62
     7
370
     5
100
AcDbLine
 10
-376.0038110372182
 20
-417.6709262744799
 30
0.0
 11
-374.5037767049428
 21
-417.6709262744799
 31
0.0
  0
LINE
  5
28F
330
1F
100
AcDbEntity
  8
D-0
  6
Continuous
 62
     7
370
     5
100
AcDbLine
 10
-374.5037767049428
 20
-417.6709262744799
 30
0.0
 11
-374.5037767049428
 21
-419.1712085620776
 31
0.0
  0
LINE
  5
290
330
1F
100
AcDbEntity
  8
D-0
  6
Continuous
 62
     7
370
     5
100
AcDbLine
 10
-374.5037767049428
 20
-419.1712085620776
 30
0.0
 11
-376.0038110372182
 21
-419.1712085620776
 31
0.0
  0
LINE
  5
291
330
1F
100
AcDbEntity
  8
D-0
  6
Continuous
 62
     7
370
     5
100
AcDbLine
 10
-326.6391297933217
 20
-427.0694820300952
 30
0.0
 11
-326.6391297933217
 21
-425.5691997424975
 31
0.0
  0
LINE
  5
292
330
1F
100
AcDbEntity
  8
D-0
  6
Continuous
 62
     7
370
     5
100
AcDbLine
 10
-326.6391297933217
 20
-425.5691997424975
 30
0.0
 11
-325.1391145345326
 21
-425.5691997424975
 31
0.0
  0
LINE
  5
293
330
1F
100
AcDbEntity
  8
D-0
  6
Continuous
 62
     7
370
     5
100
AcDbLine
 10
-325.1391145345326
 20
-425.5691997424975
 30
0.0
 11
-325.1391145345326
 21
-427.0694820300952
 31
0.0
  0
LINE
  5
294
330
1F
100
AcDbEntity
  8
D-0
  6
Continuous
 62
     7
370
     5
100
AcDbLine
 10
-325.1391145345326
 20
-427.0694820300952
 30
0.0
 11
-326.6391297933217
 21
-427.0694820300952
 31
0.0
  0
LINE
  5
295
330
1F
100
AcDbEntity
  8
D-0
  6
Continuous
 62
     7
370
     5
100
AcDbLine
 10
-343.5203858968373
 20
-447.6502506153003
 30
0.0
 11
-343.5203858968373
 21
-446.1499683277026
 31
0.0
  0
LINE
  5
296
330
1F
100
AcDbEntity
  8
D-0
  6
Continuous
 62
     7
370
     5
100
AcDbLine
 10
-343.5203858968373
 20
-446.1499683277026
 30
0.0
 11
-342.0203515645619
 21
-446.1499683277026
 31
0.0
  0
LINE
  5
297
330
1F
100
AcDbEntity
  8
D-0
  6
Continuous
 62
     7
370
     5
100
AcDbLine
 10
-342.0203515645619
 20
-446.1499683277026
 30
0.0
 11
-342.0203515645619
 21
-447.6502506153003
 31
0.0
  0
LINE
  5
298
330
1F
100
AcDbEntity
  8
D-0
  6
Continuous
 62
     7
370
     5
100
AcDbLine
 10
-342.0203515645619
 20
-447.6502506153003
 30
0.0
 11
-343.5203858968373
 21
-447.6502506153003
 31
0.0
  0
LINE
  5
299
330
1F
100
AcDbEntity
  8
D-0
  6
Continuous
 62
     7
370
     5
100
AcDbLine
 10
-391.8005868550893
 20
-482.3583309070483
 30
0.0
 11
-391.8005868550893
 21
-480.858067692937
 31
0.0
  0
LINE
  5
29A
330
1F
100
AcDbEntity
  8
D-0
  6
Continuous
 62
     7
370
     5
100
AcDbLine
 10
-391.8005868550893
 20
-480.858067692937
 30
0.0
 11
-390.3005525228139
 21
-480.858067692937
 31
0.0
  0
LINE
  5
29B
330
1F
100
AcDbEntity
  8
D-0
  6
Continuous
 62
     7
370
     5
100
AcDbLine
 10
-390.3005525228139
 20
-480.858067692937
 30
0.0
 11
-390.3005525228139
 21
-482.3583309070483
 31
0.0
  0
LINE
  5
29C
330
1F
100
AcDbEntity
  8
D-0
  6
Continuous
 62
     7
370
     5
100
AcDbLine
 10
-390.3005525228139
 20
-482.3583309070483
 30
0.0
 11
-391.8005868550893
 21
-482.3583309070483
 31
0.0
  0
LINE
  5
29D
330
1F
100
AcDbEntity
  8
D-0
  6
Continuous
 62
     7
370
     5
100
AcDbLine
 10
-320.7153054830189
 20
-480.3834049121753
 30
0.0
 11
-320.7153054830189
 21
-478.8831226245776
 31
0.0
  0
LINE
  5
29E
330
1F
100
AcDbEntity
  8
D-0
  6
Continuous
 62
     7
370
     5
100
AcDbLine
 10
-320.7153054830189
 20
-478.8831226245776
 30
0.0
 11
-319.2152902242299
 21
-478.8831226245776
 31
0.0
  0
LINE
  5
29F
330
1F
100
AcDbEntity
  8
D-0
  6
Continuous
 62
     7
370
     5
100
AcDbLine
 10
-319.2152902242299
 20
-478.8831226245776
 30
0.0
 11
-319.2152902242299
 21
-480.3834049121753
 31
0.0
  0
LINE
  5
2A0
330
1F
100
AcDbEntity
  8
D-0
  6
Continuous
 62
     7
370
     5
100
AcDbLine
 10
-319.2152902242299
 20
-480.3834049121753
 30
0.0
 11
-320.7153054830189
 21
-480.3834049121753
 31
0.0
  0
LINE
  5
2A1
330
1F
100
AcDbEntity
  8
D-0
  6
Continuous
 62
     7
370
     5
100
AcDbLine
 10
-687.9891034719105
 20
-328.3398906604663
 30
0.0
 11
-687.9891034719105
 21
-326.8396083728686
 31
0.0
  0
LINE
  5
2A2
330
1F
100
AcDbEntity
  8
D-0
  6
Continuous
 62
     7
370
     5
100
AcDbLine
 10
-687.9891034719105
 20
-326.8396083728686
 30
0.0
 11
-686.4890691396351
 21
-326.8396083728686
 31
0.0
  0
LINE
  5
2A3
330
1F
100
AcDbEntity
  8
D-0
  6
Continuous
 62
     7
370
     5
100
AcDbLine
 10
-686.4890691396351
 20
-326.8396083728686
 30
0.0
 11
-686.4890691396351
 21
-328.3398906604663
 31
0.0
  0
LINE
  5
2A4
330
1F
100
AcDbEntity
  8
D-0
  6
Continuous
 62
     7
370
     5
100
AcDbLine
 10
-686.4890691396351
 20
-328.3398906604663
 30
0.0
 11
-687.9891034719105
 21
-328.3398906604663
 31
0.0
  0
LINE
  5
2A5
330
1F
100
AcDbEntity
  8
D-0
  6
Continuous
 62
     7
370
     5
100
AcDbLine
 10
-583.3358123656865
 20
-334.263714970769
 30
0.0
 11
-583.3358123656865
 21
-332.7634326831713
 31
0.0
  0
LINE
  5
2A6
330
1F
100
AcDbEntity
  8
D-0
  6
Continuous
 62
     7
370
     5
100
AcDbLine
 10
-583.3358123656865
 20
-332.7634326831713
 30
0.0
 11
-581.8357804175969
 21
-332.7634326831713
 31
0.0
  0
LINE
  5
2A7
330
1F
100
AcDbEntity
  8
D-0
  6
Continuous
 62
     7
370
     5
100
AcDbLine
 10
-581.8357804175969
 20
-332.7634326831713
 30
0.0
 11
-581.8357804175969
 21
-334.263714970769
 31
0.0
  0
LINE
  5
2A8
330
1F
100
AcDbEntity
  8
D-0
  6
Continuous
 62
     7
370
     5
100
AcDbLine
 10
-581.8357804175969
 20
-334.263714970769
 30
0.0
 11
-583.3358123656865
 21
-334.263714970769
 31
0.0
  0
LINE
  5
2A9
330
1F
100
AcDbEntity
  8
D-0
  6
Continuous
 62
     7
370
     5
100
AcDbLine
 10
-622.827646410143
 20
-332.2892753497973
 30
0.0
 11
-622.827646410143
 21
-330.7889930621997
 31
0.0
  0
LINE
  5
2AA
330
1F
100
AcDbEntity
  8
D-0
  6
Continuous
 62
     7
370
     5
100
AcDbLine
 10
-622.827646410143
 20
-330.7889930621997
 30
0.0
 11
-621.3276168462392
 21
-330.7889930621997
 31
0.0
  0
LINE
  5
2AB
330
1F
100
AcDbEntity
  8
D-0
  6
Continuous
 62
     7
370
     5
100
AcDbLine
 10
-621.3276168462392
 20
-330.7889930621997
 30
0.0
 11
-621.3276168462392
 21
-332.2892753497973
 31
0.0
  0
LINE
  5
2AC
330
1F
100
AcDbEntity
  8
D-0
  6
Continuous
 62
     7
370
     5
100
AcDbLine
 10
-621.3276168462392
 20
-332.2892753497973
 30
0.0
 11
-622.827646410143
 21
-332.2892753497973
 31
0.0
  0
LINE
  5
2AD
330
1F
100
AcDbEntity
  8
D-0
  6
Continuous
 62
     7
370
     5
100
AcDbLine
 10
-678.116142427599
 20
-357.9590122119799
 30
0.0
 11
-678.116142427599
 21
-356.4587299243823
 31
0.0
  0
LINE
  5
2AE
330
1F
100
AcDbEntity
  8
D-0
  6
Continuous
 62
     7
370
     5
100
AcDbLine
 10
-678.116142427599
 20
-356.4587299243823
 30
0.0
 11
-676.6161080953236
 21
-356.4587299243823
 31
0.0
  0
LINE
  5
2AF
330
1F
100
AcDbEntity
  8
D-0
  6
Continuous
 62
     7
370
     5
100
AcDbLine
 10
-676.6161080953236
 20
-356.4587299243823
 30
0.0
 11
-676.6161080953236
 21
-357.9590122119799
 31
0.0
  0
LINE
  5
2B0
330
1F
100
AcDbEntity
  8
D-0
  6
Continuous
 62
     7
370
     5
100
AcDbLine
 10
-676.6161080953236
 20
-357.9590122119799
 30
0.0
 11
-678.116142427599
 21
-357.9590122119799
 31
0.0
  0
LINE
  5
2B1
330
1F
100
AcDbEntity
  8
D-0
  6
Continuous
 62
     7
370
     5
100
AcDbLine
 10
-653.1738683339711
 20
-331.4578763858691
 30
0.0
 11
-653.1738683339711
 21
-329.9575940982714
 31
0.0
  0
LINE
  5
2B2
330
1F
100
AcDbEntity
  8
D-0
  6
Continuous
 62
     7
370
     5
100
AcDbLine
 10
-653.1738683339711
 20
-329.9575940982714
 30
0.0
 11
-651.6738387700673
 21
-329.9575940982714
 31
0.0
  0
LINE
  5
2B3
330
1F
100
AcDbEntity
  8
D-0
  6
Continuous
 62
     7
370
     5
100
AcDbLine
 10
-651.6738387700673
 20
-329.9575940982714
 30
0.0
 11
-651.6738387700673
 21
-331.4578763858691
 31
0.0
  0
LINE
  5
2B4
330
1F
100
AcDbEntity
  8
D-0
  6
Continuous
 62
     7
370
     5
100
AcDbLine
 10
-651.6738387700673
 20
-331.4578763858691
 30
0.0
 11
-653.1738683339711
 21
-331.4578763858691
 31
0.0
  0
LINE
  5
2B5
330
1F
100
AcDbEntity
  8
D-0
  6
Continuous
 62
     7
370
     5
100
AcDbLine
 10
-605.0562974568959
 20
-363.8828365222827
 30
0.0
 11
-605.0562974568959
 21
-362.382554234685
 31
0.0
  0
LINE
  5
2B6
330
1F
100
AcDbEntity
  8
D-0
  6
Continuous
 62
     7
370
     5
100
AcDbLine
 10
-605.0562974568959
 20
-362.382554234685
 30
0.0
 11
-603.5562655088063
 21
-362.382554234685
 31
0.0
  0
LINE
  5
2B7
330
1F
100
AcDbEntity
  8
D-0
  6
Continuous
 62
     7
370
     5
100
AcDbLine
 10
-603.5562655088063
 20
-362.382554234685
 30
0.0
 11
-603.5562655088063
 21
-363.8828365222827
 31
0.0
  0
LINE
  5
2B8
330
1F
100
AcDbEntity
  8
D-0
  6
Continuous
 62
     7
370
     5
100
AcDbLine
 10
-603.5562655088063
 20
-363.8828365222827
 30
0.0
 11
-605.0562974568959
 21
-363.8828365222827
 31
0.0
  0
LINE
  5
2B9
330
1F
100
AcDbEntity
  8
D-0
  6
Continuous
 62
     7
370
     5
100
AcDbLine
 10
-676.141569292223
 20
-401.3997356311694
 30
0.0
 11
-676.141569292223
 21
-399.8994533435717
 31
0.0
  0
LINE
  5
2BA
330
1F
100
AcDbEntity
  8
D-0
  6
Continuous
 62
     7
370
     5
100
AcDbLine
 10
-676.141569292223
 20
-399.8994533435717
 30
0.0
 11
-674.6415444966908
 21
-399.8994533435717
 31
0.0
  0
LINE
  5
2BB
330
1F
100
AcDbEntity
  8
D-0
  6
Continuous
 62
     7
370
     5
100
AcDbLine
 10
-674.6415444966908
 20
-399.8994533435717
 30
0.0
 11
-674.6415444966908
 21
-401.3997356311694
 31
0.0
  0
LINE
  5
2BC
330
1F
100
AcDbEntity
  8
D-0
  6
Continuous
 62
     7
370
     5
100
AcDbLine
 10
-674.6415444966908
 20
-401.3997356311694
 30
0.0
 11
-676.141569292223
 21
-401.3997356311694
 31
0.0
  0
LINE
  5
2BD
330
1F
100
AcDbEntity
  8
D-0
  6
Continuous
 62
     7
370
     5
100
AcDbLine
 10
-616.9038220998402
 20
-506.053151311101
 30
0.0
 11
-616.9038220998402
 21
-504.5528690235034
 31
0.0
  0
LINE
  5
2BE
330
1F
100
AcDbEntity
  8
D-0
  6
Continuous
 62
     7
370
     5
100
AcDbLine
 10
-616.9038220998402
 20
-504.5528690235034
 30
0.0
 11
-615.4037925359364
 21
-504.5528690235034
 31
0.0
  0
LINE
  5
2BF
330
1F
100
AcDbEntity
  8
D-0
  6
Continuous
 62
     7
370
     5
100
AcDbLine
 10
-615.4037925359364
 20
-504.5528690235034
 30
0.0
 11
-615.4037925359364
 21
-506.053151311101
 31
0.0
  0
LINE
  5
2C0
330
1F
100
AcDbEntity
  8
D-0
  6
Continuous
 62
     7
370
     5
100
AcDbLine
 10
-615.4037925359364
 20
-506.053151311101
 30
0.0
 11
-616.9038220998402
 21
-506.053151311101
 31
0.0
  0
LINE
  5
2C1
330
1F
100
AcDbEntity
  8
D-0
  6
Continuous
 62
     7
370
     5
100
AcDbLine
 10
-630.7260390874501
 20
-565.2908985034838
 30
0.0
 11
-630.7260390874501
 21
-563.7906162158862
 31
0.0
  0
LINE
  5
2C2
330
1F
100
AcDbEntity
  8
D-0
  6
Continuous
 62
     7
370
     5
100
AcDbLine
 10
-630.7260390874501
 20
-563.7906162158862
 30
0.0
 11
-629.2260047551747
 21
-563.7906162158862
 31
0.0
  0
LINE
  5
2C3
330
1F
100
AcDbEntity
  8
D-0
  6
Continuous
 62
     7
370
     5
100
AcDbLine
 10
-629.2260047551747
 20
-563.7906162158862
 30
0.0
 11
-629.2260047551747
 21
-565.2908985034838
 31
0.0
  0
LINE
  5
2C4
330
1F
100
AcDbEntity
  8
D-0
  6
Continuous
 62
     7
370
     5
100
AcDbLine
 10
-629.2260047551747
 20
-565.2908985034838
 30
0.0
 11
-630.7260390874501
 21
-565.2908985034838
 31
0.0
  0
LINE
  5
2C5
330
1F
100
AcDbEntity
  8
D-0
  6
Continuous
 62
     7
370
     5
100
AcDbLine
 10
-661.3322564717885
 20
-576.151093663396
 30
0.0
 11
-661.3322564717885
 21
-574.6508113757983
 31
0.0
  0
LINE
  5
2C6
330
1F
100
AcDbEntity
  8
D-0
  6
Continuous
 62
     7
370
     5
100
AcDbLine
 10
-661.3322564717885
 20
-574.6508113757983
 30
0.0
 11
-659.8322316762562
 21
-574.6508113757983
 31
0.0
  0
LINE
  5
2C7
330
1F
100
AcDbEntity
  8
D-0
  6
Continuous
 62
     7
370
     5
100
AcDbLine
 10
-659.8322316762562
 20
-574.6508113757983
 30
0.0
 11
-659.8322316762562
 21
-576.151093663396
 31
0.0
  0
LINE
  5
2C8
330
1F
100
AcDbEntity
  8
D-0
  6
Continuous
 62
     7
370
     5
100
AcDbLine
 10
-659.8322316762562
 20
-576.151093663396
 30
0.0
 11
-661.3322564717885
 21
-576.151093663396
 31
0.0
  0
LINE
  5
2C9
330
1F
100
AcDbEntity
  8
D-0
  6
Continuous
 62
     7
370
     5
100
AcDbLine
 10
-684.1857549306508
 20
-510.0025264636889
 30
0.0
 11
-684.1857549306508
 21
-508.5022441760913
 31
0.0
  0
LINE
  5
2CA
330
1F
100
AcDbEntity
  8
D-0
  6
Continuous
 62
     7
370
     5
100
AcDbLine
 10
-684.1857549306508
 20
-508.5022441760913
 30
0.0
 11
-682.6857205983754
 21
-508.5022441760913
 31
0.0
  0
LINE
  5
2CB
330
1F
100
AcDbEntity
  8
D-0
  6
Continuous
 62
     7
370
     5
100
AcDbLine
 10
-682.6857205983754
 20
-508.5022441760913
 30
0.0
 11
-682.6857205983754
 21
-510.0025264636889
 31
0.0
  0
LINE
  5
2CC
330
1F
100
AcDbEntity
  8
D-0
  6
Continuous
 62
     7
370
     5
100
AcDbLine
 10
-682.6857205983754
 20
-510.0025264636889
 30
0.0
 11
-684.1857549306508
 21
-510.0025264636889
 31
0.0
  0
LINE
  5
2CD
330
1F
100
AcDbEntity
  8
D-0
  6
Continuous
 62
     7
370
     5
100
AcDbLine
 10
-658.370220338976
 20
-488.2821742908374
 30
0.0
 11
-658.370220338976
 21
-486.7818920032397
 31
0.0
  0
LINE
  5
2CE
330
1F
100
AcDbEntity
  8
D-0
  6
Continuous
 62
     7
370
     5
100
AcDbLine
 10
-658.370220338976
 20
-486.7818920032397
 30
0.0
 11
-656.8701955434437
 21
-486.7818920032397
 31
0.0
  0
LINE
  5
2CF
330
1F
100
AcDbEntity
  8
D-0
  6
Continuous
 62
     7
370
     5
100
AcDbLine
 10
-656.8701955434437
 20
-486.7818920032397
 30
0.0
 11
-656.8701955434437
 21
-488.2821742908374
 31
0.0
  0
LINE
  5
2D0
330
1F
100
AcDbEntity
  8
D-0
  6
Continuous
 62
     7
370
     5
100
AcDbLine
 10
-656.8701955434437
 20
-488.2821742908374
 30
0.0
 11
-658.370220338976
 21
-488.2821742908374
 31
0.0
  0
LINE
  5
2D1
330
1F
100
AcDbEntity
  8
D-0
  6
Continuous
 62
     7
370
     5
100
AcDbLine
 10
-595.1833387967702
 20
-540.7750980274096
 30
0.0
 11
-595.1833387967702
 21
-539.274815739812
 31
0.0
  0
LINE
  5
2D2
330
1F
100
AcDbEntity
  8
D-0
  6
Continuous
 62
     7
370
     5
100
AcDbLine
 10
-595.1833387967702
 20
-539.274815739812
 30
0.0
 11
-593.6833068486806
 21
-539.274815739812
 31
0.0
  0
LINE
  5
2D3
330
1F
100
AcDbEntity
  8
D-0
  6
Continuous
 62
     7
370
     5
100
AcDbLine
 10
-593.6833068486806
 20
-539.274815739812
 30
0.0
 11
-593.6833068486806
 21
-540.7750980274096
 31
0.0
  0
LINE
  5
2D4
330
1F
100
AcDbEntity
  8
D-0
  6
Continuous
 62
     7
370
     5
100
AcDbLine
 10
-593.6833068486806
 20
-540.7750980274096
 30
0.0
 11
-595.1833387967702
 21
-540.7750980274096
 31
0.0
  0
LINE
  5
2D5
330
1F
100
AcDbEntity
  8
D-0
  6
Continuous
 62
     7
370
     5
100
AcDbLine
 10
-672.1924420949574
 20
-678.6541454212085
 30
0.0
 11
-672.1924420949574
 21
-677.1538631336108
 31
0.0
  0
LINE
  5
2D6
330
1F
100
AcDbEntity
  8
D-0
  6
Continuous
 62
     7
370
     5
100
AcDbLine
 10
-672.1924420949574
 20
-677.1538631336108
 30
0.0
 11
-670.692407762682
 21
-677.1538631336108
 31
0.0
  0
LINE
  5
2D7
330
1F
100
AcDbEntity
  8
D-0
  6
Continuous
 62
     7
370
     5
100
AcDbLine
 10
-670.692407762682
 20
-677.1538631336108
 30
0.0
 11
-670.692407762682
 21
-678.6541454212085
 31
0.0
  0
LINE
  5
2D8
330
1F
100
AcDbEntity
  8
D-0
  6
Continuous
 62
     7
370
     5
100
AcDbLine
 10
-670.692407762682
 20
-678.6541454212085
 30
0.0
 11
-672.1924420949574
 21
-678.6541454212085
 31
0.0
  0
LINE
  5
2D9
330
1F
100
AcDbEntity
  8
D-0
  6
Continuous
 62
     7
370
     5
100
AcDbLine
 10
-601.8021818753834
 20
-682.3661891834155
 30
0.0
 11
-601.8021818753834
 21
-680.8659068958178
 31
0.0
  0
LINE
  5
2DA
330
1F
100
AcDbEntity
  8
D-0
  6
Continuous
 62
     7
370
     5
100
AcDbLine
 10
-601.8021818753834
 20
-680.8659068958178
 30
0.0
 11
-600.3021499272938
 21
-680.8659068958178
 31
0.0
  0
LINE
  5
2DB
330
1F
100
AcDbEntity
  8
D-0
  6
Continuous
 62
     7
370
     5
100
AcDbLine
 10
-600.3021499272938
 20
-680.8659068958178
 30
0.0
 11
-600.3021499272938
 21
-682.3661891834155
 31
0.0
  0
LINE
  5
2DC
330
1F
100
AcDbEntity
  8
D-0
  6
Continuous
 62
     7
370
     5
100
AcDbLine
 10
-600.3021499272938
 20
-682.3661891834155
 30
0.0
 11
-601.8021818753834
 21
-682.3661891834155
 31
0.0
  0
LINE
  5
2DD
330
1F
100
AcDbEntity
  8
D-0
  6
Continuous
 62
     7
370
     5
100
AcDbLine
 10
-577.4119877573605
 20
-708.2727901355639
 30
0.0
 11
-577.4119877573605
 21
-706.7725078479663
 31
0.0
  0
LINE
  5
2DE
330
1F
100
AcDbEntity
  8
D-0
  6
Continuous
 62
     7
370
     5
100
AcDbLine
 10
-577.4119877573605
 20
-706.7725078479663
 30
0.0
 11
-575.9119559582825
 21
-706.7725078479663
 31
0.0
  0
LINE
  5
2DF
330
1F
100
AcDbEntity
  8
D-0
  6
Continuous
 62
     7
370
     5
100
AcDbLine
 10
-575.9119559582825
 20
-706.7725078479663
 30
0.0
 11
-575.9119559582825
 21
-708.2727901355639
 31
0.0
  0
LINE
  5
2E0
330
1F
100
AcDbEntity
  8
D-0
  6
Continuous
 62
     7
370
     5
100
AcDbLine
 10
-575.9119559582825
 20
-708.2727901355639
 30
0.0
 11
-577.4119877573605
 21
-708.2727901355639
 31
0.0
  0
LINE
  5
2E1
330
1F
100
AcDbEntity
  8
D-0
  6
Continuous
 62
     7
370
     5
100
AcDbLine
 10
-571.1331596728917
 20
-746.4848033801928
 30
0.0
 11
-571.1331596728917
 21
-744.9845210925952
 31
0.0
  0
LINE
  5
2E2
330
1F
100
AcDbEntity
  8
D-0
  6
Continuous
 62
     7
370
     5
100
AcDbLine
 10
-571.1331596728917
 20
-744.9845210925952
 30
0.0
 11
-569.6331280228253
 21
-744.9845210925952
 31
0.0
  0
LINE
  5
2E3
330
1F
100
AcDbEntity
  8
D-0
  6
Continuous
 62
     7
370
     5
100
AcDbLine
 10
-569.6331280228253
 20
-744.9845210925952
 30
0.0
 11
-569.6331280228253
 21
-746.4848033801928
 31
0.0
  0
LINE
  5
2E4
330
1F
100
AcDbEntity
  8
D-0
  6
Continuous
 62
     7
370
     5
100
AcDbLine
 10
-569.6331280228253
 20
-746.4848033801928
 30
0.0
 11
-571.1331596728917
 21
-746.4848033801928
 31
0.0
  0
LINE
  5
2E5
330
1F
100
AcDbEntity
  8
D-0
  6
Continuous
 62
     7
370
     5
100
AcDbLine
 10
-645.3616925832387
 20
-751.9434062854663
 30
0.0
 11
-645.3616925832387
 21
-750.4431239978686
 31
0.0
  0
LINE
  5
2E6
330
1F
100
AcDbEntity
  8
D-0
  6
Continuous
 62
     7
370
     5
100
AcDbLine
 10
-645.3616925832387
 20
-750.4431239978686
 30
0.0
 11
-643.8616582509633
 21
-750.4431239978686
 31
0.0
  0
LINE
  5
2E7
330
1F
100
AcDbEntity
  8
D-0
  6
Continuous
 62
     7
370
     5
100
AcDbLine
 10
-643.8616582509633
 20
-750.4431239978686
 30
0.0
 11
-643.8616582509633
 21
-751.9434062854663
 31
0.0
  0
LINE
  5
2E8
330
1F
100
AcDbEntity
  8
D-0
  6
Continuous
 62
     7
370
     5
100
AcDbLine
 10
-643.8616582509633
 20
-751.9434062854663
 30
0.0
 11
-645.3616925832387
 21
-751.9434062854663
 31
0.0
  0
LINE
  5
2E9
330
1F
100
AcDbEntity
  8
D-0
  6
Continuous
 62
     7
370
     5
100
AcDbLine
 10
-680.0907060262318
 20
-742.6469127551928
 30
0.0
 11
-680.0907060262318
 21
-741.1466304675952
 31
0.0
  0
LINE
  5
2EA
330
1F
100
AcDbEntity
  8
D-0
  6
Continuous
 62
     7
370
     5
100
AcDbLine
 10
-680.0907060262318
 20
-741.1466304675952
 30
0.0
 11
-678.5906716939564
 21
-741.1466304675952
 31
0.0
  0
LINE
  5
2EB
330
1F
100
AcDbEntity
  8
D-0
  6
Continuous
 62
     7
370
     5
100
AcDbLine
 10
-678.5906716939564
 20
-741.1466304675952
 30
0.0
 11
-678.5906716939564
 21
-742.6469127551928
 31
0.0
  0
LINE
  5
2EC
330
1F
100
AcDbEntity
  8
D-0
  6
Continuous
 62
     7
370
     5
100
AcDbLine
 10
-678.5906716939564
 20
-742.6469127551928
 30
0.0
 11
-680.0907060262318
 21
-742.6469127551928
 31
0.0
  0
LINE
  5
2ED
330
1F
100
AcDbEntity
  8
D-0
  6
Continuous
 62
     7
370
     5
100
AcDbLine
 10
-682.302105104601
 20
-702.3489467517749
 30
0.0
 11
-682.302105104601
 21
-700.8486644641772
 31
0.0
  0
LINE
  5
2EE
330
1F
100
AcDbEntity
  8
D-0
  6
Continuous
 62
     7
370
     5
100
AcDbLine
 10
-682.302105104601
 20
-700.8486644641772
 30
0.0
 11
-680.8020803090687
 21
-700.8486644641772
 31
0.0
  0
LINE
  5
2EF
330
1F
100
AcDbEntity
  8
D-0
  6
Continuous
 62
     7
370
     5
100
AcDbLine
 10
-680.8020803090687
 20
-700.8486644641772
 30
0.0
 11
-680.8020803090687
 21
-702.3489467517749
 31
0.0
  0
LINE
  5
2F0
330
1F
100
AcDbEntity
  8
D-0
  6
Continuous
 62
     7
370
     5
100
AcDbLine
 10
-680.8020803090687
 20
-702.3489467517749
 30
0.0
 11
-682.302105104601
 21
-702.3489467517749
 31
0.0
  0
LINE
  5
2F1
330
1F
100
AcDbEntity
  8
D-0
  6
Continuous
 62
     7
370
     5
100
AcDbLine
 10
-624.8022147771474
 20
-722.0948879138842
 30
0.0
 11
-624.8022147771474
 21
-720.5946056262866
 31
0.0
  0
LINE
  5
2F2
330
1F
100
AcDbEntity
  8
D-0
  6
Continuous
 62
     7
370
     5
100
AcDbLine
 10
-624.8022147771474
 20
-720.5946056262866
 30
0.0
 11
-623.302180444872
 21
-720.5946056262866
 31
0.0
  0
LINE
  5
2F3
330
1F
100
AcDbEntity
  8
D-0
  6
Continuous
 62
     7
370
     5
100
AcDbLine
 10
-623.302180444872
 20
-720.5946056262866
 30
0.0
 11
-623.302180444872
 21
-722.0948879138842
 31
0.0
  0
LINE
  5
2F4
330
1F
100
AcDbEntity
  8
D-0
  6
Continuous
 62
     7
370
     5
100
AcDbLine
 10
-623.302180444872
 20
-722.0948879138842
 30
0.0
 11
-624.8022147771474
 21
-722.0948879138842
 31
0.0
  0
LINE
  5
2F5
330
1F
100
AcDbEntity
  8
D-0
  6
Continuous
 62
     7
370
     5
100
AcDbLine
 10
-636.6497394200917
 20
-688.5268489734545
 30
0.0
 11
-636.6497394200917
 21
-687.0265666858569
 31
0.0
  0
LINE
  5
2F6
330
1F
100
AcDbEntity
  8
D-0
  6
Continuous
 62
     7
370
     5
100
AcDbLine
 10
-636.6497394200917
 20
-687.0265666858569
 30
0.0
 11
-635.1497050878163
 21
-687.0265666858569
 31
0.0
  0
LINE
  5
2F7
330
1F
100
AcDbEntity
  8
D-0
  6
Continuous
 62
     7
370
     5
100
AcDbLine
 10
-635.1497050878163
 20
-687.0265666858569
 30
0.0
 11
-635.1497050878163
 21
-688.5268489734545
 31
0.0
  0
LINE
  5
2F8
330
1F
100
AcDbEntity
  8
D-0
  6
Continuous
 62
     7
370
     5
100
AcDbLine
 10
-635.1497050878163
 20
-688.5268489734545
 30
0.0
 11
-636.6497394200917
 21
-688.5268489734545
 31
0.0
  0
LINE
  5
2F9
330
1F
100
AcDbEntity
  8
D-0
  6
Continuous
 62
     7
370
     5
100
AcDbLine
 10
-581.361245190775
 20
-574.343117894353
 30
0.0
 11
-581.361245190775
 21
-572.8428356067553
 31
0.0
  0
LINE
  5
2FA
330
1F
100
AcDbEntity
  8
D-0
  6
Continuous
 62
     7
370
     5
100
AcDbLine
 10
-581.361245190775
 20
-572.8428356067553
 30
0.0
 11
-579.8612138387318
 21
-572.8428356067553
 31
0.0
  0
LINE
  5
2FB
330
1F
100
AcDbEntity
  8
D-0
  6
Continuous
 62
     7
370
     5
100
AcDbLine
 10
-579.8612138387318
 20
-572.8428356067553
 30
0.0
 11
-579.8612138387318
 21
-574.343117894353
 31
0.0
  0
LINE
  5
2FC
330
1F
100
AcDbEntity
  8
D-0
  6
Continuous
 62
     7
370
     5
100
AcDbLine
 10
-579.8612138387318
 20
-574.343117894353
 30
0.0
 11
-581.361245190775
 21
-574.343117894353
 31
0.0
  0
LINE
  5
2FD
330
1F
100
AcDbEntity
  8
D-0
  6
Continuous
 62
     7
370
     5
100
AcDbLine
 10
-569.5137199517842
 20
-474.4595806018725
 30
0.0
 11
-569.5137199517842
 21
-472.9592983142749
 31
0.0
  0
LINE
  5
2FE
330
1F
100
AcDbEntity
  8
D-0
  6
Continuous
 62
     7
370
     5
100
AcDbLine
 10
-569.5137199517842
 20
-472.9592983142749
 30
0.0
 11
-568.0136880036946
 21
-472.9592983142749
 31
0.0
  0
LINE
  5
2FF
330
1F
100
AcDbEntity
  8
D-0
  6
Continuous
 62
     7
370
     5
100
AcDbLine
 10
-568.0136880036946
 20
-472.9592983142749
 30
0.0
 11
-568.0136880036946
 21
-474.4595806018725
 31
0.0
  0
LINE
  5
300
330
1F
100
AcDbEntity
  8
D-0
  6
Continuous
 62
     7
370
     5
100
AcDbLine
 10
-568.0136880036946
 20
-474.4595806018725
 30
0.0
 11
-569.5137199517842
 21
-474.4595806018725
 31
0.0
  0
LINE
  5
301
330
1F
100
AcDbEntity
  8
D-0
  6
Continuous
 62
     7
370
     5
100
AcDbLine
 10
-474.7333928701039
 20
-482.3583309070483
 30
0.0
 11
-474.7333928701039
 21
-480.858067692937
 31
0.0
  0
LINE
  5
302
330
1F
100
AcDbEntity
  8
D-0
  6
Continuous
 62
     7
370
     5
100
AcDbLine
 10
-474.7333928701039
 20
-480.858067692937
 30
0.0
 11
-473.2333585378285
 21
-480.858067692937
 31
0.0
  0
LINE
  5
303
330
1F
100
AcDbEntity
  8
D-0
  6
Continuous
 62
     7
370
     5
100
AcDbLine
 10
-473.2333585378285
 20
-480.858067692937
 30
0.0
 11
-473.2333585378285
 21
-482.3583309070483
 31
0.0
  0
LINE
  5
304
330
1F
100
AcDbEntity
  8
D-0
  6
Continuous
 62
     7
370
     5
100
AcDbLine
 10
-473.2333585378285
 20
-482.3583309070483
 30
0.0
 11
-474.7333928701039
 21
-482.3583309070483
 31
0.0
  0
LINE
  5
305
330
1F
100
AcDbEntity
  8
D-0
  6
Continuous
 62
     7
370
     5
100
AcDbLine
 10
-528.0473205205556
 20
-478.4089557544604
 30
0.0
 11
-528.0473205205556
 21
-476.9086734668628
 31
0.0
  0
LINE
  5
306
330
1F
100
AcDbEntity
  8
D-0
  6
Continuous
 62
     7
370
     5
100
AcDbLine
 10
-528.0473205205556
 20
-476.9086734668628
 30
0.0
 11
-526.5472861882802
 21
-476.9086734668628
 31
0.0
  0
LINE
  5
307
330
1F
100
AcDbEntity
  8
D-0
  6
Continuous
 62
     7
370
     5
100
AcDbLine
 10
-526.5472861882802
 20
-476.9086734668628
 30
0.0
 11
-526.5472861882802
 21
-478.4089557544604
 31
0.0
  0
LINE
  5
308
330
1F
100
AcDbEntity
  8
D-0
  6
Continuous
 62
     7
370
     5
100
AcDbLine
 10
-526.5472861882802
 20
-478.4089557544604
 30
0.0
 11
-528.0473205205556
 21
-478.4089557544604
 31
0.0
  0
LINE
  5
309
330
1F
100
AcDbEntity
  8
D-0
  6
Continuous
 62
     7
370
     5
100
AcDbLine
 10
-377.978374635851
 20
-448.7903301135913
 30
0.0
 11
-377.978374635851
 21
-447.2900478259936
 31
0.0
  0
LINE
  5
30A
330
1F
100
AcDbEntity
  8
D-0
  6
Continuous
 62
     7
370
     5
100
AcDbLine
 10
-377.978374635851
 20
-447.2900478259936
 30
0.0
 11
-376.4783403035756
 21
-447.2900478259936
 31
0.0
  0
LINE
  5
30B
330
1F
100
AcDbEntity
  8
D-0
  6
Continuous
 62
     7
370
     5
100
AcDbLine
 10
-376.4783403035756
 20
-447.2900478259936
 30
0.0
 11
-376.4783403035756
 21
-448.7903301135913
 31
0.0
  0
LINE
  5
30C
330
1F
100
AcDbEntity
  8
D-0
  6
Continuous
 62
     7
370
     5
100
AcDbLine
 10
-376.4783403035756
 20
-448.7903301135913
 30
0.0
 11
-377.978374635851
 21
-448.7903301135913
 31
0.0
  0
LINE
  5
30D
330
1F
100
AcDbEntity
  8
D-0
  6
Continuous
 62
     7
370
     5
100
AcDbLine
 10
-447.0890828725453
 20
-284.8991696254626
 30
0.0
 11
-447.0890828725453
 21
-283.3988897220507
 31
0.0
  0
LINE
  5
30E
330
1F
100
AcDbEntity
  8
D-0
  6
Continuous
 62
     7
370
     5
100
AcDbLine
 10
-447.0890828725453
 20
-283.3988897220507
 30
0.0
 11
-445.5890485402699
 21
-283.3988897220507
 31
0.0
  0
LINE
  5
30F
330
1F
100
AcDbEntity
  8
D-0
  6
Continuous
 62
     7
370
     5
100
AcDbLine
 10
-445.5890485402699
 20
-283.3988897220507
 30
0.0
 11
-445.5890485402699
 21
-284.8991696254626
 31
0.0
  0
LINE
  5
310
330
1F
100
AcDbEntity
  8
D-0
  6
Continuous
 62
     7
370
     5
100
AcDbLine
 10
-445.5890485402699
 20
-284.8991696254626
 30
0.0
 11
-447.0890828725453
 21
-284.8991696254626
 31
0.0
  0
LINE
  5
311
330
1F
100
AcDbEntity
  8
D-0
  6
Continuous
 62
     7
370
     5
100
AcDbLine
 10
-662.3194810506459
 20
-537.6467029468432
 30
0.0
 11
-662.3194810506459
 21
-536.1464397327319
 31
0.0
  0
LINE
  5
312
330
1F
100
AcDbEntity
  8
D-0
  6
Continuous
 62
     7
370
     5
100
AcDbLine
 10
-662.3194810506459
 20
-536.1464397327319
 30
0.0
 11
-660.8194467183705
 21
-536.1464397327319
 31
0.0
  0
LINE
  5
313
330
1F
100
AcDbEntity
  8
D-0
  6
Continuous
 62
     7
370
     5
100
AcDbLine
 10
-660.8194467183705
 20
-536.1464397327319
 30
0.0
 11
-660.8194467183705
 21
-537.6467029468432
 31
0.0
  0
LINE
  5
314
330
1F
100
AcDbEntity
  8
D-0
  6
Continuous
 62
     7
370
     5
100
AcDbLine
 10
-660.8194467183705
 20
-537.6467029468432
 30
0.0
 11
-662.3194810506459
 21
-537.6467029468432
 31
0.0
  0
LINE
  5
315
330
1F
100
AcDbEntity
  8
D-0
  6
Continuous
 62
     7
370
     5
100
AcDbLine
 10
-642.5735637303944
 20
-363.8828365222827
 30
0.0
 11
-642.5735637303944
 21
-362.382554234685
 31
0.0
  0
LINE
  5
316
330
1F
100
AcDbEntity
  8
D-0
  6
Continuous
 62
     7
370
     5
100
AcDbLine
 10
-642.5735637303944
 20
-362.382554234685
 30
0.0
 11
-641.0735341664906
 21
-362.382554234685
 31
0.0
  0
LINE
  5
317
330
1F
100
AcDbEntity
  8
D-0
  6
Continuous
 62
     7
370
     5
100
AcDbLine
 10
-641.0735341664906
 20
-362.382554234685
 30
0.0
 11
-641.0735341664906
 21
-363.8828365222827
 31
0.0
  0
LINE
  5
318
330
1F
100
AcDbEntity
  8
D-0
  6
Continuous
 62
     7
370
     5
100
AcDbLine
 10
-641.0735341664906
 20
-363.8828365222827
 30
0.0
 11
-642.5735637303944
 21
-363.8828365222827
 31
0.0
  0
LINE
  5
319
330
1F
100
AcDbEntity
  8
D-0
  6
Continuous
 62
     7
370
     5
100
AcDbLine
 10
-631.198589479601
 20
-395.8757488147631
 30
0.0
 11
-631.198589479601
 21
-394.3754760639086
 31
0.0
  0
LINE
  5
31A
330
1F
100
AcDbEntity
  8
D-0
  6
Continuous
 62
     7
370
     5
100
AcDbLine
 10
-631.198589479601
 20
-394.3754760639086
 30
0.0
 11
-629.6985599156972
 21
-394.3754760639086
 31
0.0
  0
LINE
  5
31B
330
1F
100
AcDbEntity
  8
D-0
  6
Continuous
 62
     7
370
     5
100
AcDbLine
 10
-629.6985599156972
 20
-394.3754760639086
 30
0.0
 11
-629.6985599156972
 21
-395.8757488147631
 31
0.0
  0
LINE
  5
31C
330
1F
100
AcDbEntity
  8
D-0
  6
Continuous
 62
     7
370
     5
100
AcDbLine
 10
-629.6985599156972
 20
-395.8757488147631
 30
0.0
 11
-631.198589479601
 21
-395.8757488147631
 31
0.0
  0
LINE
  5
31D
330
1F
100
AcDbEntity
  8
D-0
  6
Continuous
 62
     7
370
     5
100
AcDbLine
 10
-575.4375447091218
 20
-507.2070972339526
 30
0.0
 11
-575.4375447091218
 21
-505.7068149463549
 31
0.0
  0
LINE
  5
31E
330
1F
100
AcDbEntity
  8
D-0
  6
Continuous
 62
     7
370
     5
100
AcDbLine
 10
-575.4375447091218
 20
-505.7068149463549
 30
0.0
 11
-573.9375129472967
 21
-505.7068149463549
 31
0.0
  0
LINE
  5
31F
330
1F
100
AcDbEntity
  8
D-0
  6
Continuous
 62
     7
370
     5
100
AcDbLine
 10
-573.9375129472967
 20
-505.7068149463549
 30
0.0
 11
-573.9375129472967
 21
-507.2070972339526
 31
0.0
  0
LINE
  5
320
330
1F
100
AcDbEntity
  8
D-0
  6
Continuous
 62
     7
370
     5
100
AcDbLine
 10
-573.9375129472967
 20
-507.2070972339526
 30
0.0
 11
-575.4375447091218
 21
-507.2070972339526
 31
0.0
  0
LINE
  5
321
330
1F
100
AcDbEntity
  8
D-0
  6
Continuous
 62
     7
370
     5
100
AcDbLine
 10
-634.6751710530873
 20
-529.748448552312
 30
0.0
 11
-634.6751710530873
 21
-528.2481662647143
 31
0.0
  0
LINE
  5
322
330
1F
100
AcDbEntity
  8
D-0
  6
Continuous
 62
     7
370
     5
100
AcDbLine
 10
-634.6751710530873
 20
-528.2481662647143
 30
0.0
 11
-633.1751414891835
 21
-528.2481662647143
 31
0.0
  0
LINE
  5
323
330
1F
100
AcDbEntity
  8
D-0
  6
Continuous
 62
     7
370
     5
100
AcDbLine
 10
-633.1751414891835
 20
-528.2481662647143
 30
0.0
 11
-633.1751414891835
 21
-529.748448552312
 31
0.0
  0
LINE
  5
324
330
1F
100
AcDbEntity
  8
D-0
  6
Continuous
 62
     7
370
     5
100
AcDbLine
 10
-633.1751414891835
 20
-529.748448552312
 30
0.0
 11
-634.6751710530873
 21
-529.748448552312
 31
0.0
  0
LINE
  5
325
330
1F
100
AcDbEntity
  8
D-0
  6
Continuous
 62
     7
370
     5
100
AcDbLine
 10
-622.827646410143
 20
-602.8082744495288
 30
0.0
 11
-622.827646410143
 21
-601.3079921619311
 31
0.0
  0
LINE
  5
326
330
1F
100
AcDbEntity
  8
D-0
  6
Continuous
 62
     7
370
     5
100
AcDbLine
 10
-622.827646410143
 20
-601.3079921619311
 30
0.0
 11
-621.3276168462392
 21
-601.3079921619311
 31
0.0
  0
LINE
  5
327
330
1F
100
AcDbEntity
  8
D-0
  6
Continuous
 62
     7
370
     5
100
AcDbLine
 10
-621.3276168462392
 20
-601.3079921619311
 30
0.0
 11
-621.3276168462392
 21
-602.8082744495288
 31
0.0
  0
LINE
  5
328
330
1F
100
AcDbEntity
  8
D-0
  6
Continuous
 62
     7
370
     5
100
AcDbLine
 10
-621.3276168462392
 20
-602.8082744495288
 30
0.0
 11
-622.827646410143
 21
-602.8082744495288
 31
0.0
  0
LINE
  5
329
330
1F
100
AcDbEntity
  8
D-0
  6
Continuous
 62
     7
370
     5
100
AcDbLine
 10
-671.2048455831166
 20
-601.8208019153491
 30
0.0
 11
-671.2048455831166
 21
-600.3205196277514
 31
0.0
  0
LINE
  5
32A
330
1F
100
AcDbEntity
  8
D-0
  6
Continuous
 62
     7
370
     5
100
AcDbLine
 10
-671.2048455831166
 20
-600.3205196277514
 30
0.0
 11
-669.7048112508412
 21
-600.3205196277514
 31
0.0
  0
LINE
  5
32B
330
1F
100
AcDbEntity
  8
D-0
  6
Continuous
 62
     7
370
     5
100
AcDbLine
 10
-669.7048112508412
 20
-600.3205196277514
 30
0.0
 11
-669.7048112508412
 21
-601.8208019153491
 31
0.0
  0
LINE
  5
32C
330
1F
100
AcDbEntity
  8
D-0
  6
Continuous
 62
     7
370
     5
100
AcDbLine
 10
-669.7048112508412
 20
-601.8208019153491
 30
0.0
 11
-671.2048455831166
 21
-601.8208019153491
 31
0.0
  0
LINE
  5
32D
330
1F
100
AcDbEntity
  8
D-0
  6
Continuous
 62
     7
370
     5
100
AcDbLine
 10
-658.2519265767689
 20
-720.9265605823413
 30
0.0
 11
-658.2519265767689
 21
-719.4262782947436
 31
0.0
  0
LINE
  5
32E
330
1F
100
AcDbEntity
  8
D-0
  6
Continuous
 62
     7
370
     5
100
AcDbLine
 10
-658.2519265767689
 20
-719.4262782947436
 30
0.0
 11
-656.7519017812367
 21
-719.4262782947436
 31
0.0
  0
LINE
  5
32F
330
1F
100
AcDbEntity
  8
D-0
  6
Continuous
 62
     7
370
     5
100
AcDbLine
 10
-656.7519017812367
 20
-719.4262782947436
 30
0.0
 11
-656.7519017812367
 21
-720.9265605823413
 31
0.0
  0
LINE
  5
330
330
1F
100
AcDbEntity
  8
D-0
  6
Continuous
 62
     7
370
     5
100
AcDbLine
 10
-656.7519017812367
 20
-720.9265605823413
 30
0.0
 11
-658.2519265767689
 21
-720.9265605823413
 31
0.0
  0
LINE
  5
331
330
1F
100
AcDbEntity
  8
D-0
  6
Continuous
 62
     7
370
     5
100
AcDbLine
 10
-607.7261301633473
 20
-750.434197606267
 30
0.0
 11
-607.7261301633473
 21
-748.9339153186694
 31
0.0
  0
LINE
  5
332
330
1F
100
AcDbEntity
  8
D-0
  6
Continuous
 62
     7
370
     5
100
AcDbLine
 10
-607.7261301633473
 20
-748.9339153186694
 30
0.0
 11
-606.2260982152577
 21
-748.9339153186694
 31
0.0
  0
LINE
  5
333
330
1F
100
AcDbEntity
  8
D-0
  6
Continuous
 62
     7
370
     5
100
AcDbLine
 10
-606.2260982152577
 20
-748.9339153186694
 30
0.0
 11
-606.2260982152577
 21
-750.434197606267
 31
0.0
  0
LINE
  5
334
330
1F
100
AcDbEntity
  8
D-0
  6
Continuous
 62
     7
370
     5
100
AcDbLine
 10
-606.2260982152577
 20
-750.434197606267
 30
0.0
 11
-607.7261301633473
 21
-750.434197606267
 31
0.0
  0
LINE
  5
335
330
1F
100
AcDbEntity
  8
D-0
  6
Continuous
 62
     7
370
     5
100
AcDbLine
 10
-571.4882869776841
 20
-674.7047511951342
 30
0.0
 11
-571.4882869776841
 21
-673.2045070545092
 31
0.0
  0
LINE
  5
336
330
1F
100
AcDbEntity
  8
D-0
  6
Continuous
 62
     7
370
     5
100
AcDbLine
 10
-571.4882869776841
 20
-673.2045070545092
 30
0.0
 11
-569.9882551786061
 21
-673.2045070545092
 31
0.0
  0
LINE
  5
337
330
1F
100
AcDbEntity
  8
D-0
  6
Continuous
 62
     7
370
     5
100
AcDbLine
 10
-569.9882551786061
 20
-673.2045070545092
 30
0.0
 11
-569.9882551786061
 21
-674.7047511951342
 31
0.0
  0
LINE
  5
338
330
1F
100
AcDbEntity
  8
D-0
  6
Continuous
 62
     7
370
     5
100
AcDbLine
 10
-569.9882551786061
 20
-674.7047511951342
 30
0.0
 11
-571.4882869776841
 21
-674.7047511951342
 31
0.0
  0
LINE
  5
339
330
1F
100
AcDbEntity
  8
D-0
  6
Continuous
 62
     7
370
     5
100
AcDbLine
 10
-688.5209867116566
 20
-556.6414920703784
 30
0.0
 11
-688.5209867116566
 21
-555.1412097827807
 31
0.0
  0
LINE
  5
33A
330
1F
100
AcDbEntity
  8
D-0
  6
Continuous
 62
     7
370
     5
100
AcDbLine
 10
-688.5209867116566
 20
-555.1412097827807
 30
0.0
 11
-687.0209523793812
 21
-555.1412097827807
 31
0.0
  0
LINE
  5
33B
330
1F
100
AcDbEntity
  8
D-0
  6
Continuous
 62
     7
370
     5
100
AcDbLine
 10
-687.0209523793812
 20
-555.1412097827807
 30
0.0
 11
-687.0209523793812
 21
-556.6414920703784
 31
0.0
  0
LINE
  5
33C
330
1F
100
AcDbEntity
  8
D-0
  6
Continuous
 62
     7
370
     5
100
AcDbLine
 10
-687.0209523793812
 20
-556.6414920703784
 30
0.0
 11
-688.5209867116566
 21
-556.6414920703784
 31
0.0
  0
LINE
  5
33D
330
1F
100
AcDbEntity
  8
D-0
  6
Continuous
 62
     7
370
     5
100
AcDbLine
 10
-346.1111756917592
 20
-404.9116126911059
 30
0.0
 11
-346.1111756917592
 21
-403.4113399402514
 31
0.0
  0
LINE
  5
33E
330
1F
100
AcDbEntity
  8
D-0
  6
Continuous
 62
     7
370
     5
100
AcDbLine
 10
-346.1111756917592
 20
-403.4113399402514
 30
0.0
 11
-344.6111604329701
 21
-403.4113399402514
 31
0.0
  0
LINE
  5
33F
330
1F
100
AcDbEntity
  8
D-0
  6
Continuous
 62
     7
370
     5
100
AcDbLine
 10
-344.6111604329701
 20
-403.4113399402514
 30
0.0
 11
-344.6111604329701
 21
-404.9116126911059
 31
0.0
  0
LINE
  5
340
330
1F
100
AcDbEntity
  8
D-0
  6
Continuous
 62
     7
370
     5
100
AcDbLine
 10
-344.6111604329701
 20
-404.9116126911059
 30
0.0
 11
-346.1111756917592
 21
-404.9116126911059
 31
0.0
  0
LINE
  5
341
330
1F
100
AcDbEntity
  8
D-0
  6
Continuous
 62
     7
370
     5
100
AcDbLine
 10
-571.5992718693371
 20
-600.3755275623217
 30
0.0
 11
-571.5992718693371
 21
-598.8752452747241
 31
0.0
  0
LINE
  5
342
330
1F
100
AcDbEntity
  8
D-0
  6
Continuous
 62
     7
370
     5
100
AcDbLine
 10
-571.5992718693371
 20
-598.8752452747241
 30
0.0
 11
-570.0992402192708
 21
-598.8752452747241
 31
0.0
  0
LINE
  5
343
330
1F
100
AcDbEntity
  8
D-0
  6
Continuous
 62
     7
370
     5
100
AcDbLine
 10
-570.0992402192708
 20
-598.8752452747241
 30
0.0
 11
-570.0992402192708
 21
-600.3755275623217
 31
0.0
  0
LINE
  5
344
330
1F
100
AcDbEntity
  8
D-0
  6
Continuous
 62
     7
370
     5
100
AcDbLine
 10
-570.0992402192708
 20
-600.3755275623217
 30
0.0
 11
-571.5992718693371
 21
-600.3755275623217
 31
0.0
  0
LINE
  5
345
330
1F
100
AcDbEntity
  8
D-0
  6
Continuous
 62
     7
370
     5
100
AcDbLine
 10
-596.3294812795277
 20
-723.7215129749194
 30
0.0
 11
-596.3294812795277
 21
-722.2212306873217
 31
0.0
  0
LINE
  5
346
330
1F
100
AcDbEntity
  8
D-0
  6
Continuous
 62
     7
370
     5
100
AcDbLine
 10
-596.3294812795277
 20
-722.2212306873217
 30
0.0
 11
-594.8294493314381
 21
-722.2212306873217
 31
0.0
  0
LINE
  5
347
330
1F
100
AcDbEntity
  8
D-0
  6
Continuous
 62
     7
370
     5
100
AcDbLine
 10
-594.8294493314381
 20
-722.2212306873217
 30
0.0
 11
-594.8294493314381
 21
-723.7215129749194
 31
0.0
  0
LINE
  5
348
330
1F
100
AcDbEntity
  8
D-0
  6
Continuous
 62
     7
370
     5
100
AcDbLine
 10
-594.8294493314381
 20
-723.7215129749194
 30
0.0
 11
-596.3294812795277
 21
-723.7215129749194
 31
0.0
  0
LINE
  5
349
330
1F
100
AcDbEntity
  8
D-0
  6
Continuous
 62
     7
370
     5
100
AcDbLine
 10
-355.3946611043568
 20
-476.3512699024096
 30
0.0
 11
-355.3946611043568
 21
-474.8510066882983
 31
0.0
  0
LINE
  5
34A
330
1F
100
AcDbEntity
  8
D-0
  6
Continuous
 62
     7
370
     5
100
AcDbLine
 10
-355.3946611043568
 20
-474.8510066882983
 30
0.0
 11
-353.8946267720814
 21
-474.8510066882983
 31
0.0
  0
LINE
  5
34B
330
1F
100
AcDbEntity
  8
D-0
  6
Continuous
 62
     7
370
     5
100
AcDbLine
 10
-353.8946267720814
 20
-474.8510066882983
 30
0.0
 11
-353.8946267720814
 21
-476.3512699024096
 31
0.0
  0
LINE
  5
34C
330
1F
100
AcDbEntity
  8
D-0
  6
Continuous
 62
     7
370
     5
100
AcDbLine
 10
-353.8946267720814
 20
-476.3512699024096
 30
0.0
 11
-355.3946611043568
 21
-476.3512699024096
 31
0.0
  0
LINE
  5
34D
330
1F
100
AcDbEntity
  8
D-0
  6
Continuous
 62
     7
370
     5
100
AcDbLine
 10
-568.0145552512761
 20
-397.850197972478
 30
0.0
 11
-568.0145552512761
 21
-396.3499156848803
 31
0.0
  0
LINE
  5
34E
330
1F
100
AcDbEntity
  8
D-0
  6
Continuous
 62
     7
370
     5
100
AcDbLine
 10
-568.0145552512761
 20
-396.3499156848803
 30
0.0
 11
-566.5145238992329
 21
-396.3499156848803
 31
0.0
  0
LINE
  5
34F
330
1F
100
AcDbEntity
  8
D-0
  6
Continuous
 62
     7
370
     5
100
AcDbLine
 10
-566.5145238992329
 20
-396.3499156848803
 30
0.0
 11
-566.5145238992329
 21
-397.850197972478
 31
0.0
  0
LINE
  5
350
330
1F
100
AcDbEntity
  8
D-0
  6
Continuous
 62
     7
370
     5
100
AcDbLine
 10
-566.5145238992329
 20
-397.850197972478
 30
0.0
 11
-568.0145552512761
 21
-397.850197972478
 31
0.0
  0
LINE
  5
351
330
1F
100
AcDbEntity
  8
D-0
  6
Continuous
 62
     7
370
     5
100
AcDbLine
 10
-655.1398069816207
 20
-442.1360488620321
 30
0.0
 11
-655.1398069816207
 21
-440.6357761111776
 31
0.0
  0
LINE
  5
352
330
1F
100
AcDbEntity
  8
D-0
  6
Continuous
 62
     7
370
     5
100
AcDbLine
 10
-655.1398069816207
 20
-440.6357761111776
 30
0.0
 11
-653.6397774177169
 21
-440.6357761111776
 31
0.0
  0
LINE
  5
353
330
1F
100
AcDbEntity
  8
D-0
  6
Continuous
 62
     7
370
     5
100
AcDbLine
 10
-653.6397774177169
 20
-440.6357761111776
 30
0.0
 11
-653.6397774177169
 21
-442.1360488620321
 31
0.0
  0
LINE
  5
354
330
1F
100
AcDbEntity
  8
D-0
  6
Continuous
 62
     7
370
     5
100
AcDbLine
 10
-653.6397774177169
 20
-442.1360488620321
 30
0.0
 11
-655.1398069816207
 21
-442.1360488620321
 31
0.0
  0
LINE
  5
355
330
1F
100
AcDbEntity
  8
D-0
  6
Continuous
 62
     7
370
     5
100
AcDbLine
 10
-602.3614029537383
 20
-447.1361081909895
 30
0.0
 11
-602.3614029537383
 21
-445.635835440135
 31
0.0
  0
LINE
  5
356
330
1F
100
AcDbEntity
  8
D-0
  6
Continuous
 62
     7
370
     5
100
AcDbLine
 10
-602.3614029537383
 20
-445.635835440135
 30
0.0
 11
-600.8613733898345
 21
-445.635835440135
 31
0.0
  0
LINE
  5
357
330
1F
100
AcDbEntity
  8
D-0
  6
Continuous
 62
     7
370
     5
100
AcDbLine
 10
-600.8613733898345
 20
-445.635835440135
 30
0.0
 11
-600.8613733898345
 21
-447.1361081909895
 31
0.0
  0
LINE
  5
358
330
1F
100
AcDbEntity
  8
D-0
  6
Continuous
 62
     7
370
     5
100
AcDbLine
 10
-600.8613733898345
 20
-447.1361081909895
 30
0.0
 11
-602.3614029537383
 21
-447.1361081909895
 31
0.0
  0
LINE
  5
359
330
1F
100
AcDbEntity
  8
D-0
  6
Continuous
 62
     7
370
     5
100
AcDbLine
 10
-586.8056628192046
 20
-423.8024979891889
 30
0.0
 11
-586.8056628192046
 21
-422.3022252383344
 31
0.0
  0
LINE
  5
35A
330
1F
100
AcDbEntity
  8
D-0
  6
Continuous
 62
     7
370
     5
100
AcDbLine
 10
-586.8056628192046
 20
-422.3022252383344
 30
0.0
 11
-585.3056332553008
 21
-422.3022252383344
 31
0.0
  0
LINE
  5
35B
330
1F
100
AcDbEntity
  8
D-0
  6
Continuous
 62
     7
370
     5
100
AcDbLine
 10
-585.3056332553008
 20
-422.3022252383344
 30
0.0
 11
-585.3056332553008
 21
-423.8024979891889
 31
0.0
  0
LINE
  5
35C
330
1F
100
AcDbEntity
  8
D-0
  6
Continuous
 62
     7
370
     5
100
AcDbLine
 10
-585.3056332553008
 20
-423.8024979891889
 30
0.0
 11
-586.8056628192046
 21
-423.8024979891889
 31
0.0
  0
ENDSEC
  0
SECTION
  2
OBJECTS
  0
DICTIONARY
  5
C
330
0
100
AcDbDictionary
281
     1
  3
ACAD_GROUP
350
D
  3
ACAD_LAYOUT
350
1A
  3
ACAD_MLEADERSTYLE
350
35E
  3
ACAD_MLINESTYLE
350
17
  3
ACAD_PLOTSETTINGS
350
19
  3
ACAD_PLOTSTYLENAME
350
E
  3
ACAD_TABLESTYLE
350
35D
  3
ACAD_VISUALSTYLE
350
2A
  3
AcDbVariableDictionary
350
35F
  0
DICTIONARY
  5
D
102
{ACAD_REACTORS
330
C
102
}
330
C
100
AcDbDictionary
281
     1
  0
DICTIONARY
  5
1A
102
{ACAD_REACTORS
330
C
102
}
330
C
100
AcDbDictionary
281
     1
  3
Layout1
350
1E
  3
Layout2
350
26
  3
Model
350
22
  0
DICTIONARY
  5
35E
102
{ACAD_REACTORS
330
C
102
}
330
C
100
AcDbDictionary
281
     1
  0
DICTIONARY
  5
17
102
{ACAD_REACTORS
330
C
102
}
330
C
100
AcDbDictionary
281
     1
  3
Standard
350
18
  0
DICTIONARY
  5
19
102
{ACAD_REACTORS
330
C
102
}
330
C
100
AcDbDictionary
281
     1
  0
ACDBDICTIONARYWDFLT
  5
E
102
{ACAD_REACTORS
330
C
102
}
330
C
100
AcDbDictionary
281
     1
  3
Normal
350
F
100
AcDbDictionaryWithDefault
340
F
  0
DICTIONARY
  5
35D
102
{ACAD_REACTORS
330
C
102
}
330
C
100
AcDbDictionary
281
     1
  0
DICTIONARY
  5
2A
102
{ACAD_REACTORS
330
C
102
}
330
C
100
AcDbDictionary
281
     1
  3
2dWireframe
350
2F
  3
3D Hidden
350
31
  3
3dWireframe
350
30
  3
Basic
350
32
  3
Brighten
350
36
  3
ColorChange
350
3A
  3
Conceptual
350
34
  3
Dim
350
35
  3
Facepattern
350
39
  3
Flat
350
2B
  3
FlatWithEdges
350
2C
  3
Gouraud
350
2D
  3
GouraudWithEdges
350
2E
  3
Linepattern
350
38
  3
Realistic
350
33
  3
Thicken
350
37
  0
DICTIONARY
  5
35F
102
{ACAD_REACTORS
330
C
102
}
330
C
100
AcDbDictionary
281
     1
  3
PSOLHEIGHT
350
361
  3
PSOLWIDTH
350
360
  0
LAYOUT
  5
1E
102
{ACAD_REACTORS
330
1A
102
}
102
{ACAD_XDICTIONARY
360
362
102
}
330
1A
100
AcDbPlotSettings
  1

  2
none_device
  4

  6

 40
0.0
 41
0.0
 42
0.0
 43
0.0
 44
0.0
 45
0.0
 46
0.0
 47
0.0
 48
0.0
 49
0.0
140
0.0
141
0.0
142
1.0
143
1.0
 70
   688
 72
     0
 73
     0
 74
     5
  7

 75
    16
147
1.0
148
0.0
149
0.0
100
AcDbLayout
  1
Layout1
 70
     1
 71
     1
 10
0.0
 20
0.0
 11
420.0
 21
297.0
 12
0.0
 22
0.0
 32
0.0
 14
1.000000000000000E+20
 24
1.000000000000000E+20
 34
1.000000000000000E+20
 15
-1.000000000000000E+20
 25
-1.000000000000000E+20
 35
-1.000000000000000E+20
146
0.0
 13
0.0
 23
0.0
 33
0.0
 16
1.0
 26
0.0
 36
0.0
 17
0.0
 27
1.0
 37
0.0
 76
     0
330
1B
  0
LAYOUT
  5
26
102
{ACAD_REACTORS
330
1A
102
}
102
{ACAD_XDICTIONARY
360
366
102
}
330
1A
100
AcDbPlotSettings
  1

  2
none_device
  4

  6

 40
0.0
 41
0.0
 42
0.0
 43
0.0
 44
0.0
 45
0.0
 46
0.0
 47
0.0
 48
0.0
 49
0.0
140
0.0
141
0.0
142
1.0
143
1.0
 70
   688
 72
     0
 73
     0
 74
     5
  7

 75
    16
147
1.0
148
0.0
149
0.0
100
AcDbLayout
  1
Layout2
 70
     1
 71
     2
 10
0.0
 20
0.0
 11
0.0
 21
0.0
 12
0.0
 22
0.0
 32
0.0
 14
0.0
 24
0.0
 34
0.0
 15
0.0
 25
0.0
 35
0.0
146
0.0
 13
0.0
 23
0.0
 33
0.0
 16
1.0
 26
0.0
 36
0.0
 17
0.0
 27
1.0
 37
0.0
 76
     0
330
23
  0
LAYOUT
  5
22
102
{ACAD_REACTORS
330
1A
102
}
102
{ACAD_XDICTIONARY
360
364
102
}
330
1A
100
AcDbPlotSettings
  1

  2
none_device
  4

  6

 40
0.0
 41
0.0
 42
0.0
 43
0.0
 44
0.0
 45
0.0
 46
0.0
 47
0.0
 48
0.0
 49
0.0
140
0.0
141
0.0
142
1.0
143
1.0
 70
  1712
 72
     0
 73
     0
 74
     0
  7

 75
     0
147
1.0
148
0.0
149
0.0
100
AcDbLayout
  1
Model
 70
     1
 71
     0
 10
-2100.0
 20
-1485.0
 11
2100.0
 21
1485.0
 12
0.0
 22
0.0
 32
0.0
 14
-2100.0
 24
-1485.0
 34
0.0
 15
2100.0
 25
1485.0
 35
0.0
146
0.0
 13
0.0
 23
0.0
 33
0.0
 16
1.0
 26
0.0
 36
0.0
 17
0.0
 27
1.0
 37
0.0
 76
     0
330
1F
331
29
  0
MLINESTYLE
  5
18
102
{ACAD_REACTORS
330
17
102
}
330
17
100
AcDbMlineStyle
  2
Standard
 70
     0
  3

 62
   256
 51
90.0
 52
90.0
 71
     2
 49
0.5
 62
   256
  6
BYLAYER
 49
-0.5
 62
   256
  6
BYLAYER
  0
ACDBPLACEHOLDER
  5
F
102
{ACAD_REACTORS
330
E
102
}
330
E
  0
VISUALSTYLE
  5
2F
102
{ACAD_REACTORS
330
2A
102
}
330
2A
100
AcDbVisualStyle
  2
2dWireframe
 70
     4
 71
     0
 72
     2
 73
     0
 90
        0
 40
-0.6
 41
-30.0
 62
     5
 63
     7
 74
     1
 91
        4
 64
     7
 65
   257
 75
     1
175
     1
 42
1.0
 92
        0
 66
   257
 43
1.0
 76
     1
 77
     6
 78
     2
 67
     7
 79
     5
170
     0
171
     0
290
     0
174
     0
 93
        1
 44
0.0
173
     0
291
     0
 45
0.0
1001
ACAD
1000
AcDbSavedByObjectVersion
1070
     0
  0
VISUALSTYLE
  5
31
102
{ACAD_REACTORS
330
2A
102
}
330
2A
100
AcDbVisualStyle
  2
3D Hidden
 70
     6
 71
     1
 72
     2
 73
     2
 90
        0
 40
-0.6
 41
-30.0
 62
     5
 63
     7
 74
     2
 91
        2
 64
     7
 65
   257
 75
     2
175
     1
 42
40.0
 92
        0
 66
   257
 43
1.0
 76
     1
 77
     6
 78
     2
 67
     7
 79
     3
170
     0
171
     0
290
     0
174
     0
 93
        1
 44
0.0
173
     0
291
     0
 45
0.0
1001
ACAD
1000
AcDbSavedByObjectVersion
1070
     0
  0
VISUALSTYLE
  5
30
102
{ACAD_REACTORS
330
2A
102
}
330
2A
100
AcDbVisualStyle
  2
3dWireframe
 70
     5
 71
     0
 72
     2
 73
     0
 90
        0
 40
-0.6
 41
-30.0
 62
     5
 63
     7
 74
     1
 91
        4
 64
     7
 65
   257
 75
     1
175
     1
 42
1.0
 92
        0
 66
   257
 43
1.0
 76
     1
 77
     6
 78
     2
 67
     7
 79
     5
170
     0
171
     0
290
     0
174
     0
 93
        1
 44
0.0
173
     0
291
     0
 45
0.0
1001
ACAD
1000
AcDbSavedByObjectVersion
1070
     0
  0
VISUALSTYLE
  5
32
102
{ACAD_REACTORS
330
2A
102
}
330
2A
100
AcDbVisualStyle
  2
Basic
 70
     7
 71
     1
 72
     0
 73
     1
 90
        0
 40
-0.6
 41
-30.0
 62
     5
 63
     7
 74
     0
 91
        4
 64
     7
 65
   257
 75
     1
175
     1
 42
1.0
 92
        8
 66
     7
 43
1.0
 76
     1
 77
     6
 78
     2
 67
     7
 79
     5
170
     0
171
     0
290
     0
174
     0
 93
        1
 44
0.0
173
     0
291
     1
 45
0.0
1001
ACAD
1000
AcDbSavedByObjectVersion
1070
     0
  0
VISUALSTYLE
  5
36
102
{ACAD_REACTORS
330
2A
102
}
330
2A
100
AcDbVisualStyle
  2
Brighten
 70
    12
 71
     2
 72
     2
 73
     0
 90
        0
 40
-0.6
 41
-30.0
 62
     5
 63
     7
 74
     1
 91
        4
 64
     7
 65
   257
 75
     1
175
     1
 42
1.0
 92
        8
 66
     7
 43
1.0
 76
     1
 77
     6
 78
     2
 67
     7
 79
     5
170
     0
171
     0
290
     0
174
     0
 93
        1
 44
50.0
173
     0
291
     1
 45
0.0
1001
ACAD
1000
AcDbSavedByObjectVersion
1070
     0
  0
VISUALSTYLE
  5
3A
102
{ACAD_REACTORS
330
2A
102
}
330
2A
100
AcDbVisualStyle
  2
ColorChange
 70
    16
 71
     2
 72
     2
 73
     3
 90
        0
 40
-0.6
 41
-30.0
 62
     5
 63
     8
 74
     1
 91
        4
 64
     7
 65
   257
 75
     1
175
     1
 42
1.0
 92
        8
 66
     8
 43
1.0
 76
     1
 77
     6
 78
     2
 67
     7
 79
     5
170
     0
171
     0
290
     0
174
     0
 93
        1
 44
0.0
173
     0
291
     1
 45
0.0
1001
ACAD
1000
AcDbSavedByObjectVersion
1070
     0
  0
VISUALSTYLE
  5
34
102
{ACAD_REACTORS
330
2A
102
}
330
2A
100
AcDbVisualStyle
  2
Conceptual
 70
     9
 71
     3
 72
     2
 73
     0
 90
        0
 40
-0.6
 41
-30.0
 62
     5
 63
     7
 74
     2
 91
        2
 64
     7
 65
   257
 75
     1
175
     1
 42
40.0
 92
        8
 66
     7
 43
1.0
 76
     1
 77
     6
 78
     2
 67
     7
 79
     3
170
     0
171
     0
290
     0
174
     0
 93
        1
 44
0.0
173
     0
291
     0
 45
0.0
1001
ACAD
1000
AcDbSavedByObjectVersion
1070
     0
  0
VISUALSTYLE
  5
35
102
{ACAD_REACTORS
330
2A
102
}
330
2A
100
AcDbVisualStyle
  2
Dim
 70
    11
 71
     2
 72
     2
 73
     0
 90
        0
 40
-0.6
 41
-30.0
 62
     5
 63
     7
 74
     1
 91
        4
 64
     7
 65
   257
 75
     1
175
     1
 42
1.0
 92
        8
 66
     7
 43
1.0
 76
     1
 77
     6
 78
     2
 67
     7
 79
     5
170
     0
171
     0
290
     0
174
     0
 93
        1
 44
-50.0
173
     0
291
     1
 45
0.0
1001
ACAD
1000
AcDbSavedByObjectVersion
1070
     0
  0
VISUALSTYLE
  5
39
102
{ACAD_REACTORS
330
2A
102
}
330
2A
100
AcDbVisualStyle
  2
Facepattern
 70
    15
 71
     2
 72
     2
 73
     0
 90
        0
 40
-0.6
 41
-30.0
 62
     5
 63
     7
 74
     1
 91
        4
 64
     7
 65
   257
 75
     1
175
     1
 42
1.0
 92
        8
 66
     7
 43
1.0
 76
     1
 77
     6
 78
     2
 67
     7
 79
     5
170
     0
171
     0
290
     0
174
     0
 93
        1
 44
0.0
173
     0
291
     1
 45
0.0
1001
ACAD
1000
AcDbSavedByObjectVersion
1070
     0
  0
VISUALSTYLE
  5
2B
102
{ACAD_REACTORS
330
2A
102
}
330
2A
100
AcDbVisualStyle
  2
Flat
 70
     0
 71
     2
 72
     1
 73
     1
 90
        2
 40
-0.6
 41
30.0
 62
     5
 63
     7
 74
     0
 91
        4
 64
     7
 65
   257
 75
     1
175
     1
 42
1.0
 92
        8
 66
     7
 43
1.0
 76
     1
 77
     6
 78
     2
 67
     7
 79
     5
170
     0
171
     0
290
     0
174
     0
 93
       13
 44
0.0
173
     0
291
     1
 45
0.0
1001
ACAD
1000
AcDbSavedByObjectVersion
1070
     0
  0
VISUALSTYLE
  5
2C
102
{ACAD_REACTORS
330
2A
102
}
330
2A
100
AcDbVisualStyle
  2
FlatWithEdges
 70
     1
 71
     2
 72
     1
 73
     1
 90
        2
 40
-0.6
 41
30.0
 62
     5
 63
     7
 74
     1
 91
        4
 64
     7
 65
   257
 75
     1
175
     1
 42
1.0
 92
        0
 66
   257
 43
1.0
 76
     1
 77
     6
 78
     2
 67
     7
 79
     5
170
     0
171
     0
290
     0
174
     0
 93
       13
 44
0.0
173
     0
291
     1
 45
0.0
1001
ACAD
1000
AcDbSavedByObjectVersion
1070
     0
  0
VISUALSTYLE
  5
2D
102
{ACAD_REACTORS
330
2A
102
}
330
2A
100
AcDbVisualStyle
  2
Gouraud
 70
     2
 71
     2
 72
     2
 73
     1
 90
        2
 40
-0.6
 41
30.0
 62
     5
 63
     7
 74
     0
 91
        4
 64
     7
 65
   257
 75
     1
175
     1
 42
1.0
 92
        0
 66
     7
 43
1.0
 76
     1
 77
     6
 78
     2
 67
     7
 79
     5
170
     0
171
     0
290
     0
174
     0
 93
       13
 44
0.0
173
     0
291
     1
 45
0.0
1001
ACAD
1000
AcDbSavedByObjectVersion
1070
     0
  0
VISUALSTYLE
  5
2E
102
{ACAD_REACTORS
330
2A
102
}
330
2A
100
AcDbVisualStyle
  2
GouraudWithEdges
 70
     3
 71
     2
 72
     2
 73
     1
 90
        2
 40
-0.6
 41
30.0
 62
     5
 63
     7
 74
     1
 91
        4
 64
     7
 65
   257
 75
     1
175
     1
 42
1.0
 92
        0
 66
   257
 43
1.0
 76
     1
 77
     6
 78
     2
 67
     7
 79
     5
170
     0
171
     0
290
     0
174
     0
 93
       13
 44
0.0
173
     0
291
     1
 45
0.0
1001
ACAD
1000
AcDbSavedByObjectVersion
1070
     0
  0
VISUALSTYLE
  5
38
102
{ACAD_REACTORS
330
2A
102
}
330
2A
100
AcDbVisualStyle
  2
Linepattern
 70
    14
 71
     2
 72
     2
 73
     0
 90
        0
 40
-0.6
 41
-30.0
 62
     5
 63
     7
 74
     1
 91
        4
 64
     7
 65
   257
 75
     7
175
     7
 42
1.0
 92
        8
 66
     7
 43
1.0
 76
     1
 77
     6
 78
     2
 67
     7
 79
     5
170
     0
171
     0
290
     0
174
     0
 93
        1
 44
0.0
173
     0
291
     1
 45
0.0
1001
ACAD
1000
AcDbSavedByObjectVersion
1070
     0
  0
VISUALSTYLE
  5
33
102
{ACAD_REACTORS
330
2A
102
}
330
2A
100
AcDbVisualStyle
  2
Realistic
 70
     8
 71
     2
 72
     2
 73
     0
 90
        0
 40
-0.6
 41
-30.0
 62
     5
 63
     7
 74
     1
 91
        0
 64
     7
 65
   257
 75
     1
175
     1
 42
1.0
 92
        8
 66
     8
 43
1.0
 76
     1
 77
     6
 78
     2
 67
     7
 79
     5
170
     0
171
     0
290
     0
174
     0
 93
       13
 44
0.0
173
     0
291
     0
 45
0.0
1001
ACAD
1000
AcDbSavedByObjectVersion
1070
     0
  0
VISUALSTYLE
  5
37
102
{ACAD_REACTORS
330
2A
102
}
330
2A
100
AcDbVisualStyle
  2
Thicken
 70
    13
 71
     2
 72
     2
 73
     0
 90
        0
 40
-0.6
 41
-30.0
 62
     5
 63
     7
 74
     1
 91
        4
 64
     7
 65
   257
 75
     1
175
     1
 42
1.0
 92
       12
 66
     7
 43
1.0
 76
     1
 77
     6
 78
     2
 67
     7
 79
     5
170
     0
171
     0
290
     0
174
     0
 93
        1
 44
0.0
173
     0
291
     1
 45
0.0
1001
ACAD
1000
AcDbSavedByObjectVersion
1070
     0
  0
DICTIONARYVAR
  5
361
102
{ACAD_REACTORS
330
35F
102
}
330
35F
100
DictionaryVariables
280
     0
  1
80.000000
  0
DICTIONARYVAR
  5
360
102
{ACAD_REACTORS
330
35F
102
}
330
35F
100
DictionaryVariables
280
     0
  1
5.000000
  0
DICTIONARY
  5
362
330
1E
100
AcDbDictionary
280
     1
281
     1
  3
ACAD_XREC_ROUNDTRIP
360
363
  0
DICTIONARY
  5
366
330
26
100
AcDbDictionary
280
     1
281
     1
  3
ACAD_XREC_ROUNDTRIP
360
367
  0
DICTIONARY
  5
364
330
22
100
AcDbDictionary
280
     1
281
     1
  3
ACAD_XREC_ROUNDTRIP
360
365
  0
XRECORD
  5
363
102
{ACAD_REACTORS
330
362
102
}
330
362
100
AcDbXrecord
280
     1
102
SHADEPLOT
 70
     0
102
SHADEPLOTRESLEVEL
 70
     5
102
SHADEPLOTCUSTOMDPI
 70
   300
  0
XRECORD
  5
367
102
{ACAD_REACTORS
330
366
102
}
330
366
100
AcDbXrecord
280
     1
102
SHADEPLOT
 70
     0
102
SHADEPLOTRESLEVEL
 70
     5
102
SHADEPLOTCUSTOMDPI
 70
   300
  0
XRECORD
  5
365
102
{ACAD_REACTORS
330
364
102
}
330
364
100
AcDbXrecord
280
     1
102
SHADEPLOT
 70
     0
102
SHADEPLOTRESLEVEL
 70
     5
102
SHADEPLOTCUSTOMDPI
 70
   300
  0
ENDSEC
  0
EOF
