  0
SECTION
  2
HEADER
  9
$ACADVER
  1
AC1015
  9
$ACADMAINTVER
 70
     6
  9
$DWGCODEPAGE
  3
ANSI_932
  9
$INSBASE
 10
0.0
 20
0.0
 30
0.0
  9
$EXTMIN
 10
-2100.0
 20
-1485.0
 30
0.0
  9
$EXTMAX
 10
2100.0
 20
1485.0
 30
0.0
  9
$LIMMIN
 10
-2100.0
 20
-1485.0
  9
$LIMMAX
 10
2100.0
 20
1485.0
  9
$ORTHOMODE
 70
     0
  9
$REGENMODE
 70
     1
  9
$FILLMODE
 70
     1
  9
$QTEXTMODE
 70
     0
  9
$MIRRTEXT
 70
     1
  9
$LTSCALE
 40
10.0
  9
$ATTMODE
 70
     1
  9
$TEXTSIZE
 40
2.5
  9
$TRACEWID
 40
1.0
  9
$TEXTSTYLE
  7
Standard
  9
$CLAYER
  8
0
  9
$CELTYPE
  6
ByLayer
  9
$CECOLOR
 62
   256
  9
$CELTSCALE
 40
1.0
  9
$DISPSILH
 70
     0
  9
$DIMSCALE
 40
1.0
  9
$DIMASZ
 40
2.5
  9
$DIMEXO
 40
0.625
  9
$DIMDLI
 40
3.75
  9
$DIMRND
 40
0.0
  9
$DIMDLE
 40
0.0
  9
$DIMEXE
 40
1.25
  9
$DIMTP
 40
0.0
  9
$DIMTM
 40
0.0
  9
$DIMTXT
 40
2.5
  9
$DIMCEN
 40
2.5
  9
$DIMTSZ
 40
0.0
  9
$DIMTOL
 70
     0
  9
$DIMLIM
 70
     0
  9
$DIMTIH
 70
     0
  9
$DIMTOH
 70
     0
  9
$DIMSE1
 70
     0
  9
$DIMSE2
 70
     0
  9
$DIMTAD
 70
     1
  9
$DIMZIN
 70
     8
  9
$DIMBLK
  1

  9
$DIMASO
 70
     1
  9
$DIMSHO
 70
     1
  9
$DIMPOST
  1

  9
$DIMAPOST
  1

  9
$DIMALT
 70
     0
  9
$DIMALTD
 70
     3
  9
$DIMALTF
 40
0.03937007874016
  9
$DIMLFAC
 40
1.0
  9
$DIMTOFL
 70
     1
  9
$DIMTVP
 40
0.0
  9
$DIMTIX
 70
     0
  9
$DIMSOXD
 70
     0
  9
$DIMSAH
 70
     0
  9
$DIMBLK1
  1

  9
$DIMBLK2
  1

  9
$DIMSTYLE
  2
ISO-25
  9
$DIMCLRD
 70
     0
  9
$DIMCLRE
 70
     0
  9
$DIMCLRT
 70
     0
  9
$DIMTFAC
 40
1.0
  9
$DIMGAP
 40
0.625
  9
$DIMJUST
 70
     0
  9
$DIMSD1
 70
     0
  9
$DIMSD2
 70
     0
  9
$DIMTOLJ
 70
     0
  9
$DIMTZIN
 70
     8
  9
$DIMALTZ
 70
     0
  9
$DIMALTTZ
 70
     0
  9
$DIMUPT
 70
     0
  9
$DIMDEC
 70
     2
  9
$DIMTDEC
 70
     2
  9
$DIMALTU
 70
     2
  9
$DIMALTTD
 70
     3
  9
$DIMTXSTY
  7
Standard
  9
$DIMAUNIT
 70
     0
  9
$DIMADEC
 70
     0
  9
$DIMALTRND
 40
0.0
  9
$DIMAZIN
 70
     0
  9
$DIMDSEP
 70
    44
  9
$DIMATFIT
 70
     3
  9
$DIMFRAC
 70
     0
  9
$DIMLDRBLK
  1

  9
$DIMLUNIT
 70
     2
  9
$DIMLWD
 70
    -2
  9
$DIMLWE
 70
    -2
  9
$DIMTMOVE
 70
     0
  9
$LUNITS
 70
     2
  9
$LUPREC
 70
     4
  9
$SKETCHINC
 40
1.0
  9
$FILLETRAD
 40
10.0
  9
$AUNITS
 70
     0
  9
$AUPREC
 70
     0
  9
$MENU
  1
.
  9
$ELEVATION
 40
0.0
  9
$PELEVATION
 40
0.0
  9
$THICKNESS
 40
0.0
  9
$LIMCHECK
 70
     0
  9
$CHAMFERA
 40
10.0
  9
$CHAMFERB
 40
10.0
  9
$CHAMFERC
 40
20.0
  9
$CHAMFERD
 40
0.0
  9
$SKPOLY
 70
     0
  9
$TDCREATE
 40
2456541.782018831
  9
$TDUCREATE
 40
2456541.407018831
  9
$TDUPDATE
 40
2456541.782018843
  9
$TDUUPDATE
 40
2456541.407018843
  9
$TDINDWG
 40
0.0000000116
  9
$TDUSRTIMER
 40
0.0000000116
  9
$USRTIMER
 70
     1
  9
$ANGBASE
 50
0.0
  9
$ANGDIR
 70
     0
  9
$PDMODE
 70
     0
  9
$PDSIZE
 40
0.0
  9
$PLINEWID
 40
0.0
  9
$SPLFRAME
 70
     0
  9
$SPLINETYPE
 70
     6
  9
$SPLINESEGS
 70
     8
  9
$HANDSEED
  5
32F
  9
$SURFTAB1
 70
     6
  9
$SURFTAB2
 70
     6
  9
$SURFTYPE
 70
     6
  9
$SURFU
 70
     6
  9
$SURFV
 70
     6
  9
$UCSBASE
  2

  9
$UCSNAME
  2

  9
$UCSORG
 10
0.0
 20
0.0
 30
0.0
  9
$UCSXDIR
 10
1.0
 20
0.0
 30
0.0
  9
$UCSYDIR
 10
0.0
 20
1.0
 30
0.0
  9
$UCSORTHOREF
  2

  9
$UCSORTHOVIEW
 70
     0
  9
$UCSORGTOP
 10
0.0
 20
0.0
 30
0.0
  9
$UCSORGBOTTOM
 10
0.0
 20
0.0
 30
0.0
  9
$UCSORGLEFT
 10
0.0
 20
0.0
 30
0.0
  9
$UCSORGRIGHT
 10
0.0
 20
0.0
 30
0.0
  9
$UCSORGFRONT
 10
0.0
 20
0.0
 30
0.0
  9
$UCSORGBACK
 10
0.0
 20
0.0
 30
0.0
  9
$PUCSBASE
  2

  9
$PUCSNAME
  2

  9
$PUCSORG
 10
0.0
 20
0.0
 30
0.0
  9
$PUCSXDIR
 10
1.0
 20
0.0
 30
0.0
  9
$PUCSYDIR
 10
0.0
 20
1.0
 30
0.0
  9
$PUCSORTHOREF
  2

  9
$PUCSORTHOVIEW
 70
     0
  9
$PUCSORGTOP
 10
0.0
 20
0.0
 30
0.0
  9
$PUCSORGBOTTOM
 10
0.0
 20
0.0
 30
0.0
  9
$PUCSORGLEFT
 10
0.0
 20
0.0
 30
0.0
  9
$PUCSORGRIGHT
 10
0.0
 20
0.0
 30
0.0
  9
$PUCSORGFRONT
 10
0.0
 20
0.0
 30
0.0
  9
$PUCSORGBACK
 10
0.0
 20
0.0
 30
0.0
  9
$USERI1
 70
     0
  9
$USERI2
 70
     0
  9
$USERI3
 70
     0
  9
$USERI4
 70
     0
  9
$USERI5
 70
     0
  9
$USERR1
 40
0.0
  9
$USERR2
 40
0.0
  9
$USERR3
 40
0.0
  9
$USERR4
 40
0.0
  9
$USERR5
 40
0.0
  9
$WORLDVIEW
 70
     1
  9
$SHADEDGE
 70
     3
  9
$SHADEDIF
 70
    70
  9
$TILEMODE
 70
     1
  9
$MAXACTVP
 70
    64
  9
$PINSBASE
 10
0.0
 20
0.0
 30
0.0
  9
$PLIMCHECK
 70
     0
  9
$PEXTMIN
 10
1.000000000000000E+20
 20
1.000000000000000E+20
 30
1.000000000000000E+20
  9
$PEXTMAX
 10
-1.000000000000000E+20
 20
-1.000000000000000E+20
 30
-1.000000000000000E+20
  9
$PLIMMIN
 10
0.0
 20
0.0
  9
$PLIMMAX
 10
420.0
 20
297.0
  9
$UNITMODE
 70
     0
  9
$VISRETAIN
 70
     1
  9
$PLINEGEN
 70
     0
  9
$PSLTSCALE
 70
     1
  9
$TREEDEPTH
 70
  3020
  9
$CMLSTYLE
  2
Standard
  9
$CMLJUST
 70
     0
  9
$CMLSCALE
 40
20.0
  9
$PROXYGRAPHICS
 70
     1
  9
$MEASUREMENT
 70
     1
  9
$CELWEIGHT
370
    -1
  9
$ENDCAPS
280
     0
  9
$JOINSTYLE
280
     0
  9
$LWDISPLAY
290
     0
  9
$INSUNITS
 70
     4
  9
$HYPERLINKBASE
  1

  9
$STYLESHEET
  1

  9
$XEDIT
290
     1
  9
$CEPSNTYPE
380
     0
  9
$PSTYLEMODE
290
     1
  9
$FINGERPRINTGUID
  2
{DB97BAA6-DD12-4040-A2F9-A2EBF55837A7}
  9
$VERSIONGUID
  2
{FAEB1C32-E019-11D5-929B-00C0DF256EC4}
  9
$EXTNAMES
290
     1
  9
$PSVPSCALE
 40
0.0
  9
$OLESTARTUP
290
     0
  0
ENDSEC
  0
SECTION
  2
CLASSES
  0
CLASS
  1
ACDBDICTIONARYWDFLT
  2
AcDbDictionaryWithDefault
  3
ObjectDBX Classes
 90
        0
280
     0
281
     0
  0
CLASS
  1
VISUALSTYLE
  2
AcDbVisualStyle
  3
ObjectDBX Classes
 90
     4095
280
     0
281
     0
  0
CLASS
  1
DICTIONARYVAR
  2
AcDbDictionaryVar
  3
ObjectDBX Classes
 90
        0
280
     0
281
     0
  0
CLASS
  1
ACDBPLACEHOLDER
  2
AcDbPlaceHolder
  3
ObjectDBX Classes
 90
        0
280
     0
281
     0
  0
CLASS
  1
LAYOUT
  2
AcDbLayout
  3
ObjectDBX Classes
 90
        0
280
     0
281
     0
  0
ENDSEC
  0
SECTION
  2
TABLES
  0
TABLE
  2
VPORT
  5
8
330
0
100
AcDbSymbolTable
 70
     1
  0
VPORT
  5
29
330
8
100
AcDbSymbolTableRecord
100
AcDbViewportTableRecord
  2
*Active
 70
     0
 10
0.0
 20
0.0
 11
1.0
 21
1.0
 12
0.0
 22
0.0
 13
0.0
 23
0.0
 14
10.0
 24
10.0
 15
10.0
 25
10.0
 16
0.0
 26
0.0
 36
1.0
 17
0.0
 27
0.0
 37
0.0
 40
3267.0
 41
1.414141414141414
 42
50.0
 43
0.0
 44
0.0
 50
0.0
 51
0.0
 71
     0
 72
 10000
 73
     1
 74
     3
 75
     0
 76
     0
 77
     0
 78
     0
281
     0
 65
     1
110
0.0
120
0.0
130
0.0
111
1.0
121
0.0
131
0.0
112
0.0
122
1.0
132
0.0
 79
     0
146
0.0
  0
ENDTAB
  0
TABLE
  2
LTYPE
  5
5
330
0
100
AcDbSymbolTable
 70
     4
  0
LTYPE
  5
14
330
5
100
AcDbSymbolTableRecord
100
AcDbLinetypeTableRecord
  2
ByBlock
 70
     0
  3

 72
    65
 73
     0
 40
0.0
  0
LTYPE
  5
15
330
5
100
AcDbSymbolTableRecord
100
AcDbLinetypeTableRecord
  2
ByLayer
 70
     0
  3

 72
    65
 73
     0
 40
0.0
  0
LTYPE
  5
16
330
5
100
AcDbSymbolTableRecord
100
AcDbLinetypeTableRecord
  2
Continuous
 70
     0
  3
Solid line
 72
    65
 73
     0
 40
0.0
  0
LTYPE
  5
3C
330
5
100
AcDbSymbolTableRecord
100
AcDbLinetypeTableRecord
  2
JWW_DASHED3
 70
     0
  3
---  ------  ------  ------  ---
 72
    65
 73
     2
 40
3.386666666666667
 49
2.54
 74
     0
 49
-0.8466666666666667
 74
     0
  0
LTYPE
  5
3D
330
5
100
AcDbSymbolTableRecord
100
AcDbLinetypeTableRecord
  2
JWW_CENTER1
 70
     0
  3
-----  --  ----------  --  -----
 72
    65
 73
     4
 40
6.773333333333333
 49
4.233333333333333
 74
     0
 49
-0.8466666666666667
 74
     0
 49
0.8466666666666667
 74
     0
 49
-0.8466666666666667
 74
     0
  0
LTYPE
  5
3E
330
5
100
AcDbSymbolTableRecord
100
AcDbLinetypeTableRecord
  2
JWW_CENTER2
 70
     0
  3
-------------  --  -------------
 72
    65
 73
     4
 40
13.54666666666667
 49
11.00666666666667
 74
     0
 49
-0.8466666666666667
 74
     0
 49
0.8466666666666667
 74
     0
 49
-0.8466666666666667
 74
     0
  0
ENDTAB
  0
TABLE
  2
LAYER
  5
2
330
0
100
AcDbSymbolTable
 70
    17
  0
LAYER
  5
10
330
2
100
AcDbSymbolTableRecord
100
AcDbLayerTableRecord
  2
0
 70
     0
 62
     7
  6
Continuous
370
    -3
390
F
  0
LAYER
  5
3F
330
2
100
AcDbSymbolTableRecord
100
AcDbLayerTableRecord
  2
C-2
 70
     0
 62
     7
  6
Continuous
370
    -1
390
F
  0
LAYER
  5
40
330
2
100
AcDbSymbolTableRecord
100
AcDbLayerTableRecord
  2
C-1
 70
     0
 62
     7
  6
Continuous
370
    -1
390
F
  0
LAYER
  5
41
330
2
100
AcDbSymbolTableRecord
100
AcDbLayerTableRecord
  2
C-4
 70
     0
 62
     7
  6
Continuous
370
    -1
390
F
  0
LAYER
  5
42
330
2
100
AcDbSymbolTableRecord
100
AcDbLayerTableRecord
  2
C-5
 70
     0
 62
     7
  6
Continuous
370
    -1
390
F
  0
LAYER
  5
43
330
2
100
AcDbSymbolTableRecord
100
AcDbLayerTableRecord
  2
C-A
 70
     0
 62
     7
  6
Continuous
370
    -1
390
F
  0
LAYER
  5
44
330
2
100
AcDbSymbolTableRecord
100
AcDbLayerTableRecord
  2
C-0
 70
     0
 62
     7
  6
Continuous
370
    -1
390
F
  0
LAYER
  5
45
330
2
100
AcDbSymbolTableRecord
100
AcDbLayerTableRecord
  2
D-A
 70
     0
 62
     7
  6
Continuous
370
    -1
390
F
  0
LAYER
  5
46
330
2
100
AcDbSymbolTableRecord
100
AcDbLayerTableRecord
  2
D-4
 70
     0
 62
     7
  6
Continuous
370
    -1
390
F
  0
LAYER
  5
47
330
2
100
AcDbSymbolTableRecord
100
AcDbLayerTableRecord
  2
D-5
 70
     0
 62
     7
  6
Continuous
370
    -1
390
F
  0
LAYER
  5
48
330
2
100
AcDbSymbolTableRecord
100
AcDbLayerTableRecord
  2
D-6
 70
     0
 62
     7
  6
Continuous
370
    -1
390
F
  0
LAYER
  5
49
330
2
100
AcDbSymbolTableRecord
100
AcDbLayerTableRecord
  2
D-9
 70
     0
 62
     7
  6
Continuous
370
    -1
390
F
  0
LAYER
  5
4A
330
2
100
AcDbSymbolTableRecord
100
AcDbLayerTableRecord
  2
D-1
 70
     0
 62
     7
  6
Continuous
370
    -1
390
F
  0
LAYER
  5
4B
330
2
100
AcDbSymbolTableRecord
100
AcDbLayerTableRecord
  2
D-2
 70
     0
 62
     7
  6
Continuous
370
    -1
390
F
  0
LAYER
  5
4C
330
2
100
AcDbSymbolTableRecord
100
AcDbLayerTableRecord
  2
C-B
 70
     0
 62
     7
  6
Continuous
370
    -1
390
F
  0
LAYER
  5
4D
330
2
100
AcDbSymbolTableRecord
100
AcDbLayerTableRecord
  2
D-0
 70
     0
 62
     7
  6
Continuous
370
    -1
390
F
  0
LAYER
  5
4E
330
2
100
AcDbSymbolTableRecord
100
AcDbLayerTableRecord
  2
F-4
 70
     0
 62
     7
  6
Continuous
370
    -1
390
F
  0
ENDTAB
  0
TABLE
  2
STYLE
  5
3
330
0
100
AcDbSymbolTable
 70
     2
  0
STYLE
  5
11
330
3
100
AcDbSymbolTableRecord
100
AcDbTextStyleTableRecord
  2
Standard
 70
     0
 40
0.0
 41
1.0
 50
0.0
 71
     0
 42
2.5
  3
txt
  4

1001
ACAD
1000

1071
        0
  0
STYLE
  5
3B
330
3
100
AcDbSymbolTableRecord
100
AcDbTextStyleTableRecord
  2
ＭＳ ゴシック
 70
     0
 40
1.0
 41
1.0
 50
0.0
 71
     0
 42
10.0
  3

  4

1001
ACAD
1000
MS Gothic
1071
    32817
  0
ENDTAB
  0
TABLE
  2
VIEW
  5
6
330
0
100
AcDbSymbolTable
 70
     0
  0
ENDTAB
  0
TABLE
  2
UCS
  5
7
330
0
100
AcDbSymbolTable
 70
     0
  0
ENDTAB
  0
TABLE
  2
APPID
  5
9
330
0
100
AcDbSymbolTable
 70
     1
  0
APPID
  5
12
330
9
100
AcDbSymbolTableRecord
100
AcDbRegAppTableRecord
  2
ACAD
 70
     0
  0
ENDTAB
  0
TABLE
  2
DIMSTYLE
  5
A
330
0
100
AcDbSymbolTable
 70
     1
100
AcDbDimStyleTable
  0
DIMSTYLE
105
27
330
A
100
AcDbSymbolTableRecord
100
AcDbDimStyleTableRecord
  2
ISO-25
 70
     0
 41
2.5
 42
0.625
 43
3.75
 44
1.25
 73
     0
 74
     0
 77
     1
 78
     8
140
2.5
141
2.5
143
0.03937007874016
147
0.625
171
     3
172
     1
271
     2
272
     2
274
     3
278
    44
283
     0
284
     8
340
11
  0
ENDTAB
  0
TABLE
  2
BLOCK_RECORD
  5
1
330
0
100
AcDbSymbolTable
 70
     1
  0
BLOCK_RECORD
  5
1F
330
1
100
AcDbSymbolTableRecord
100
AcDbBlockTableRecord
  2
*Model_Space
340
22
  0
BLOCK_RECORD
  5
1B
330
1
100
AcDbSymbolTableRecord
100
AcDbBlockTableRecord
  2
*Paper_Space
340
1E
  0
BLOCK_RECORD
  5
23
330
1
100
AcDbSymbolTableRecord
100
AcDbBlockTableRecord
  2
*Paper_Space0
340
26
  0
ENDTAB
  0
ENDSEC
  0
SECTION
  2
BLOCKS
  0
BLOCK
  5
20
330
1F
100
AcDbEntity
  8
0
100
AcDbBlockBegin
  2
*Model_Space
 70
     0
 10
0.0
 20
0.0
 30
0.0
  3
*Model_Space
  1

  0
ENDBLK
  5
21
330
1F
100
AcDbEntity
  8
0
100
AcDbBlockEnd
  0
BLOCK
  5
1C
330
1B
100
AcDbEntity
 67
     1
  8
0
100
AcDbBlockBegin
  2
*Paper_Space
 70
     0
 10
0.0
 20
0.0
 30
0.0
  3
*Paper_Space
  1

  0
ENDBLK
  5
1D
330
1B
100
AcDbEntity
 67
     1
  8
0
100
AcDbBlockEnd
  0
BLOCK
  5
24
330
23
100
AcDbEntity
  8
0
100
AcDbBlockBegin
  2
*Paper_Space0
 70
     0
 10
0.0
 20
0.0
 30
0.0
  3
*Paper_Space0
  1

  0
ENDBLK
  5
25
330
23
100
AcDbEntity
  8
0
100
AcDbBlockEnd
  0
ENDSEC
  0
SECTION
  2
ENTITIES
  0
LINE
  5
4F
330
1F
100
AcDbEntity
  8
C-2
  6
Continuous
 62
     3
370
     5
100
AcDbLine
 10
186.1889671634984
 20
968.2438535948061
 30
0.0
 11
186.1889671634984
 21
468.243688634924
 31
0.0
  0
LINE
  5
50
330
1F
100
AcDbEntity
  8
C-2
  6
Continuous
 62
     3
370
     5
100
AcDbLine
 10
186.1889671634984
 20
468.243688634924
 30
0.0
 11
-313.8109503565607
 21
468.243688634924
 31
0.0
  0
LINE
  5
51
330
1F
100
AcDbEntity
  8
C-1
  6
JWW_DASHED3
 62
     2
370
     5
100
AcDbLine
 10
161.1896270030255
 20
943.2440185546875
 30
0.0
 11
161.1896270030255
 21
493.2437711148648
 31
0.0
  0
LINE
  5
52
330
1F
100
AcDbEntity
  8
C-1
  6
JWW_DASHED3
 62
     2
370
     5
100
AcDbLine
 10
161.1896270030255
 20
493.2437711148648
 30
0.0
 11
-288.810991596531
 21
493.2437711148648
 31
0.0
  0
LINE
  5
53
330
1F
100
AcDbEntity
  8
C-1
  6
JWW_DASHED3
 62
     2
370
     5
100
AcDbLine
 10
-288.810991596531
 20
493.2437711148648
 30
0.0
 11
-288.810991596531
 21
943.2440185546875
 31
0.0
  0
LINE
  5
54
330
1F
100
AcDbEntity
  8
C-1
  6
JWW_DASHED3
 62
     2
370
     5
100
AcDbLine
 10
-288.810991596531
 20
943.2440185546875
 30
0.0
 11
161.1896270030255
 21
943.2440185546875
 31
0.0
  0
LINE
  5
55
330
1F
100
AcDbEntity
  8
C-1
  6
Continuous
 62
     2
370
     5
100
AcDbLine
 10
187.1888714867671
 20
969.2440053578971
 30
0.0
 11
187.1888714867671
 21
467.2437843116555
 31
0.0
  0
LINE
  5
56
330
1F
100
AcDbEntity
  8
C-1
  6
Continuous
 62
     2
370
     5
100
AcDbLine
 10
187.1888714867671
 20
467.2437843116555
 30
0.0
 11
-314.8112258395631
 21
467.2437843116555
 31
0.0
  0
LINE
  5
57
330
1F
100
AcDbEntity
  8
C-1
  6
Continuous
 62
     2
370
     5
100
AcDbLine
 10
194.1886966292924
 20
976.244077940245
 30
0.0
 11
194.1886966292924
 21
460.2439591691302
 31
0.0
  0
LINE
  5
58
330
1F
100
AcDbEntity
  8
C-1
  6
Continuous
 62
     2
370
     5
100
AcDbLine
 10
194.1886966292924
 20
460.2439591691302
 30
0.0
 11
-321.8111747019998
 21
460.2439591691302
 31
0.0
  0
LINE
  5
59
330
1F
100
AcDbEntity
  8
C-2
  6
Continuous
 62
     3
370
     5
100
AcDbLine
 10
-313.8109503565607
 20
468.243688634924
 30
0.0
 11
-313.8109503565607
 21
968.2438535948061
 31
0.0
  0
LINE
  5
5A
330
1F
100
AcDbEntity
  8
C-2
  6
Continuous
 62
     3
370
     5
100
AcDbLine
 10
186.1889671634984
 20
968.2438535948061
 30
0.0
 11
-313.8109503565607
 21
968.2438535948061
 31
0.0
  0
LINE
  5
5B
330
1F
100
AcDbEntity
  8
C-1
  6
Continuous
 62
     2
370
     5
100
AcDbLine
 10
187.1888714867671
 20
969.2440053578971
 30
0.0
 11
-314.8112258395631
 21
969.2440053578971
 31
0.0
  0
LINE
  5
5C
330
1F
100
AcDbEntity
  8
C-1
  6
Continuous
 62
     2
370
     5
100
AcDbLine
 10
-314.8112258395631
 20
467.2437843116555
 30
0.0
 11
-314.8112258395631
 21
969.2440053578971
 31
0.0
  0
LINE
  5
5D
330
1F
100
AcDbEntity
  8
C-1
  6
Continuous
 62
     2
370
     5
100
AcDbLine
 10
194.1886966292924
 20
976.244077940245
 30
0.0
 11
-321.8111747019998
 21
976.244077940245
 31
0.0
  0
LINE
  5
5E
330
1F
100
AcDbEntity
  8
C-1
  6
Continuous
 62
     2
370
     5
100
AcDbLine
 10
-321.8111747019998
 20
460.2439591691302
 30
0.0
 11
-321.8111747019998
 21
976.244077940245
 31
0.0
  0
LINE
  5
5F
330
1F
100
AcDbEntity
  8
C-4
  6
Continuous
 62
     7
370
     5
100
AcDbLine
 10
-313.8109503565607
 20
988.2441670185813
 30
0.0
 11
-313.8109503565607
 21
1106.24376451647
 31
0.0
  0
LINE
  5
60
330
1F
100
AcDbEntity
  8
C-4
  6
Continuous
 62
     7
370
     5
100
AcDbLine
 10
186.1894620431437
 20
988.2441670185813
 30
0.0
 11
186.1894620431437
 21
1106.24376451647
 31
0.0
  0
LINE
  5
61
330
1F
100
AcDbEntity
  8
C-4
  6
Continuous
 62
     7
370
     5
100
AcDbLine
 10
-321.8111747019998
 20
1158.243243243243
 30
0.0
 11
194.1891915089377
 21
1158.243243243243
 31
0.0
  0
LINE
  5
62
330
1F
100
AcDbEntity
  8
C-4
  6
Continuous
 62
     7
370
     5
100
AcDbLine
 10
194.1891915089377
 20
988.2441670185813
 30
0.0
 11
194.1891915089377
 21
1161.24394597234
 31
0.0
  0
LINE
  5
63
330
1F
100
AcDbEntity
  8
C-4
  6
Continuous
 62
     7
370
     5
100
AcDbLine
 10
-288.8104967168857
 20
1048.244117530617
 30
0.0
 11
161.1901218826708
 21
1048.244117530617
 31
0.0
  0
LINE
  5
64
330
1F
100
AcDbEntity
  8
C-4
  6
Continuous
 62
     7
370
     5
100
AcDbLine
 10
-288.8104967168857
 20
988.2441670185813
 30
0.0
 11
-288.8104967168857
 21
1051.244077940245
 31
0.0
  0
LINE
  5
65
330
1F
100
AcDbEntity
  8
C-4
  6
Continuous
 62
     7
370
     5
100
AcDbLine
 10
161.1901218826708
 20
988.2441670185813
 30
0.0
 11
161.1901218826708
 21
1051.244077940245
 31
0.0
  0
LINE
  5
66
330
1F
100
AcDbEntity
  8
C-4
  6
Continuous
 62
     7
370
     5
100
AcDbLine
 10
-313.8109503565607
 20
1048.244117530617
 30
0.0
 11
-288.8104967168857
 21
1048.244117530617
 31
0.0
  0
LINE
  5
67
330
1F
100
AcDbEntity
  8
C-4
  6
Continuous
 62
     7
370
     5
100
AcDbLine
 10
-313.8109503565607
 20
1048.244117530617
 30
0.0
 11
-313.8109503565607
 21
1045.243909681166
 31
0.0
  0
LINE
  5
68
330
1F
100
AcDbEntity
  8
C-4
  6
Continuous
 62
     7
370
     5
100
AcDbLine
 10
161.1901218826708
 20
1048.244117530617
 30
0.0
 11
186.1894620431437
 21
1048.244117530617
 31
0.0
  0
LINE
  5
69
330
1F
100
AcDbEntity
  8
C-4
  6
Continuous
 62
     7
370
     5
100
AcDbLine
 10
186.1894620431437
 20
1048.244117530617
 30
0.0
 11
186.1894620431437
 21
1045.243909681166
 31
0.0
  0
LINE
  5
6A
330
1F
100
AcDbEntity
  8
C-4
  6
Continuous
 62
     7
370
     5
100
AcDbLine
 10
-313.8109503565607
 20
1103.243309227196
 30
0.0
 11
-314.8112258395631
 21
1103.243309227196
 31
0.0
  0
LINE
  5
6B
330
1F
100
AcDbEntity
  8
C-4
  6
Continuous
 62
     7
370
     5
100
AcDbLine
 10
-314.8112258395631
 20
988.2441670185813
 30
0.0
 11
-314.8112258395631
 21
1106.24376451647
 31
0.0
  0
LINE
  5
6C
330
1F
100
AcDbEntity
  8
C-4
  6
Continuous
 62
     7
370
     5
100
AcDbLine
 10
-321.8111747019998
 20
988.2441670185813
 30
0.0
 11
-321.8111747019998
 21
1106.24376451647
 31
0.0
  0
LINE
  5
6D
330
1F
100
AcDbEntity
  8
C-4
  6
Continuous
 62
     7
370
     5
100
AcDbLine
 10
186.1894620431437
 20
1103.243309227196
 30
0.0
 11
187.1893663664125
 21
1103.243309227196
 31
0.0
  0
LINE
  5
6E
330
1F
100
AcDbEntity
  8
C-4
  6
Continuous
 62
     7
370
     5
100
AcDbLine
 10
187.1893663664125
 20
988.2441670185813
 30
0.0
 11
187.1893663664125
 21
1106.24376451647
 31
0.0
  0
LINE
  5
6F
330
1F
100
AcDbEntity
  8
C-4
  6
Continuous
 62
     7
370
     5
100
AcDbLine
 10
194.1891915089377
 20
988.2441670185813
 30
0.0
 11
194.1891915089377
 21
1106.24376451647
 31
0.0
  0
LINE
  5
70
330
1F
100
AcDbEntity
  8
C-4
  6
Continuous
 62
     7
370
     5
100
AcDbLine
 10
-314.8112258395631
 20
1103.243309227196
 30
0.0
 11
-363.128428845792
 21
1103.243309227196
 31
0.0
  0
LINE
  5
71
330
1F
100
AcDbEntity
  8
C-4
  6
Continuous
 62
     7
370
     5
100
AcDbLine
 10
-321.8111747019998
 20
988.2441670185813
 30
0.0
 11
-321.8111747019998
 21
1161.24394597234
 31
0.0
  0
LINE
  5
72
330
1F
100
AcDbEntity
  8
C-5
  6
Continuous
 62
     7
370
     5
100
AcDbLine
 10
223.6894620431437
 20
330.2440251530828
 30
0.0
 11
223.6894620431437
 21
265.2445530247044
 31
0.0
  0
LINE
  5
73
330
1F
100
AcDbEntity
  8
C-5
  6
Continuous
 62
     7
370
     5
100
AcDbLine
 10
223.6894620431437
 20
265.2445530247044
 30
0.0
 11
-351.3114452362061
 21
265.2445530247044
 31
0.0
  0
LINE
  5
74
330
1F
100
AcDbEntity
  8
C-5
  6
Continuous
 62
     7
370
     5
100
AcDbLine
 10
-351.3114452362061
 20
330.2440251530828
 30
0.0
 11
223.6894620431437
 21
330.2440251530828
 31
0.0
  0
LINE
  5
75
330
1F
100
AcDbEntity
  8
C-5
  6
Continuous
 62
     7
370
     5
100
AcDbLine
 10
-351.3114452362061
 20
265.2445530247044
 30
0.0
 11
-351.3114452362061
 21
330.2440251530828
 31
0.0
  0
LINE
  5
76
330
1F
100
AcDbEntity
  8
C-A
  6
Continuous
 62
     3
370
     5
100
AcDbLine
 10
-313.8109503565607
 20
957.4629005225929
 30
0.0
 11
-303.0295024047027
 21
968.2438535948061
 31
0.0
  0
LINE
  5
77
330
1F
100
AcDbEntity
  8
C-A
  6
Continuous
 62
     3
370
     5
100
AcDbLine
 10
-313.8109503565607
 20
937.6635082347974
 30
0.0
 11
-283.2306049965521
 21
968.2438535948061
 31
0.0
  0
LINE
  5
78
330
1F
100
AcDbEntity
  8
C-A
  6
Continuous
 62
     3
370
     5
100
AcDbLine
 10
-313.8109503565607
 20
917.8646108266471
 30
0.0
 11
-263.4315838684904
 21
968.2438535948061
 31
0.0
  0
LINE
  5
79
330
1F
100
AcDbEntity
  8
C-A
  6
Continuous
 62
     3
370
     5
100
AcDbLine
 10
-313.8109503565607
 20
898.0657134184967
 30
0.0
 11
-243.6326864603402
 21
968.2438535948061
 31
0.0
  0
LINE
  5
7A
330
1F
100
AcDbEntity
  8
C-A
  6
Continuous
 62
     3
370
     5
100
AcDbLine
 10
-313.8109503565607
 20
878.2668160103464
 30
0.0
 11
-223.8337890521899
 21
968.2438535948061
 31
0.0
  0
LINE
  5
7B
330
1F
100
AcDbEntity
  8
C-A
  6
Continuous
 62
     3
370
     5
100
AcDbLine
 10
-313.8109503565607
 20
858.4676711623734
 30
0.0
 11
-204.0348916440396
 21
968.2438535948061
 31
0.0
  0
LINE
  5
7C
330
1F
100
AcDbEntity
  8
C-A
  6
Continuous
 62
     3
370
     5
100
AcDbLine
 10
-225.5971689481993
 20
968.2438535948061
 30
0.0
 11
-209.6439812634441
 21
952.2909133498734
 31
0.0
  0
LINE
  5
7D
330
1F
100
AcDbEntity
  8
C-A
  6
Continuous
 62
     3
370
     5
100
AcDbLine
 10
-245.3960663563495
 20
968.2438535948061
 30
0.0
 11
-219.5435536874305
 21
942.3918358055323
 31
0.0
  0
LINE
  5
7E
330
1F
100
AcDbEntity
  8
C-A
  6
Continuous
 62
     3
370
     5
100
AcDbLine
 10
-265.1949637644998
 20
968.2438535948061
 30
0.0
 11
-229.4430023915058
 21
932.4917685019005
 31
0.0
  0
LINE
  5
7F
330
1F
100
AcDbEntity
  8
C-A
  6
Continuous
 62
     3
370
     5
100
AcDbLine
 10
-284.9939848925615
 20
968.2438535948061
 30
0.0
 11
-239.3424510955811
 21
922.5924435177367
 31
0.0
  0
LINE
  5
80
330
1F
100
AcDbEntity
  8
C-A
  6
Continuous
 62
     3
370
     5
100
AcDbLine
 10
-313.8109503565607
 20
957.4629005225929
 30
0.0
 11
-259.1413485037313
 21
902.7940409892315
 31
0.0
  0
LINE
  5
81
330
1F
100
AcDbEntity
  8
C-A
  6
Continuous
 62
     3
370
     5
100
AcDbLine
 10
-313.8109503565607
 20
937.6640031144427
 30
0.0
 11
-269.0407972078063
 21
892.894468565245
 31
0.0
  0
LINE
  5
82
330
1F
100
AcDbEntity
  8
C-A
  6
Continuous
 62
     3
370
     5
100
AcDbLine
 10
-313.8109503565607
 20
917.8651057062925
 30
0.0
 11
-278.9407407915269
 21
882.9944012616133
 31
0.0
  0
LINE
  5
83
330
1F
100
AcDbEntity
  8
C-A
  6
Continuous
 62
     3
370
     5
100
AcDbLine
 10
-313.8109503565607
 20
898.0662082981419
 30
0.0
 11
-288.8403132155133
 21
873.0950762774495
 31
0.0
  0
LINE
  5
84
330
1F
100
AcDbEntity
  8
C-A
  6
Continuous
 62
     3
370
     5
100
AcDbLine
 10
-313.8109503565607
 20
878.2673108899917
 30
0.0
 11
-298.7397619195886
 21
863.195503853463
 31
0.0
  0
LINE
  5
85
330
1F
100
AcDbEntity
  8
C-A
  6
Continuous
 62
     3
370
     5
100
AcDbLine
 10
-313.8109503565607
 20
858.4684134818415
 30
0.0
 11
-308.6387157440186
 21
853.2961788692992
 31
0.0
  0
LINE
  5
86
330
1F
100
AcDbEntity
  8
C-A
  6
Continuous
 62
     3
370
     5
100
AcDbLine
 10
-205.7982715400487
 20
968.2438535948061
 30
0.0
 11
-199.7445325593688
 21
962.1907332136825
 31
0.0
  0
LINE
  5
87
330
1F
100
AcDbEntity
  8
C-A
  6
Continuous
 62
     3
370
     5
100
AcDbLine
 10
186.1889671634984
 20
479.024641707137
 30
0.0
 11
175.4075192116403
 21
468.243688634924
 31
0.0
  0
LINE
  5
88
330
1F
100
AcDbEntity
  8
C-A
  6
Continuous
 62
     3
370
     5
100
AcDbLine
 10
186.1889671634984
 20
498.8242814347552
 30
0.0
 11
155.6086218034901
 21
468.243688634924
 31
0.0
  0
LINE
  5
89
330
1F
100
AcDbEntity
  8
C-A
  6
Continuous
 62
     3
370
     5
100
AcDbLine
 10
186.1889671634984
 20
518.6229314030828
 30
0.0
 11
135.8097243953398
 21
468.243688634924
 31
0.0
  0
LINE
  5
8A
330
1F
100
AcDbEntity
  8
C-A
  6
Continuous
 62
     3
370
     5
100
AcDbLine
 10
186.1889671634984
 20
538.4220762510557
 30
0.0
 11
116.0108269871893
 21
468.243688634924
 31
0.0
  0
LINE
  5
8B
330
1F
100
AcDbEntity
  8
C-A
  6
Continuous
 62
     3
370
     5
100
AcDbLine
 10
186.1889671634984
 20
558.2209736592063
 30
0.0
 11
96.21168213921635
 21
468.243688634924
 31
0.0
  0
LINE
  5
8C
330
1F
100
AcDbEntity
  8
C-A
  6
Continuous
 62
     3
370
     5
100
AcDbLine
 10
186.1889671634984
 20
578.0198710673565
 30
0.0
 11
76.4127847310661
 21
468.243688634924
 31
0.0
  0
LINE
  5
8D
330
1F
100
AcDbEntity
  8
C-A
  6
Continuous
 62
     3
370
     5
100
AcDbLine
 10
97.97518575513692
 20
468.243688634924
 30
0.0
 11
82.0224929500273
 21
484.1968763196792
 31
0.0
  0
LINE
  5
8E
330
1F
100
AcDbEntity
  8
C-A
  6
Continuous
 62
     3
370
     5
100
AcDbLine
 10
117.7740831632875
 20
468.243688634924
 30
0.0
 11
91.92206537401375
 21
494.0957064241977
 31
0.0
  0
LINE
  5
8F
330
1F
100
AcDbEntity
  8
C-A
  6
Continuous
 62
     3
370
     5
100
AcDbLine
 10
137.5729805714377
 20
468.243688634924
 30
0.0
 11
101.8213903581776
 21
503.9957737278294
 31
0.0
  0
LINE
  5
90
330
1F
100
AcDbEntity
  8
C-A
  6
Continuous
 62
     3
370
     5
100
AcDbLine
 10
157.371877979588
 20
468.243688634924
 30
0.0
 11
111.720962782164
 21
513.8953461518158
 31
0.0
  0
LINE
  5
91
330
1F
100
AcDbEntity
  8
C-A
  6
Continuous
 62
     3
370
     5
100
AcDbLine
 10
186.1889671634984
 20
479.024641707137
 30
0.0
 11
131.5198601903143
 21
533.693748680321
 31
0.0
  0
LINE
  5
92
330
1F
100
AcDbEntity
  8
C-A
  6
Continuous
 62
     3
370
     5
100
AcDbLine
 10
186.1889671634984
 20
498.8237865551099
 30
0.0
 11
141.4194326143007
 21
543.5930736644849
 31
0.0
  0
LINE
  5
93
330
1F
100
AcDbEntity
  8
C-A
  6
Continuous
 62
     3
370
     5
100
AcDbLine
 10
186.1889671634984
 20
518.6224365234375
 30
0.0
 11
151.3187575984648
 21
553.4931409681167
 31
0.0
  0
LINE
  5
94
330
1F
100
AcDbEntity
  8
C-A
  6
Continuous
 62
     3
370
     5
100
AcDbLine
 10
186.1889671634984
 20
538.4215813714106
 30
0.0
 11
161.2183300224513
 21
563.3927133921031
 31
0.0
  0
LINE
  5
95
330
1F
100
AcDbEntity
  8
C-A
  6
Continuous
 62
     3
370
     5
100
AcDbLine
 10
186.1889671634984
 20
558.220478779561
 30
0.0
 11
171.1176550066151
 21
573.2920383762669
 31
0.0
  0
LINE
  5
96
330
1F
100
AcDbEntity
  8
C-A
  6
Continuous
 62
     3
370
     5
100
AcDbLine
 10
186.1889671634984
 20
578.0193761877113
 30
0.0
 11
181.0172274306015
 21
583.1916108002533
 31
0.0
  0
LINE
  5
97
330
1F
100
AcDbEntity
  8
C-A
  6
Continuous
 62
     3
370
     5
100
AcDbLine
 10
78.17628834698667
 20
468.243688634924
 30
0.0
 11
72.12267308621819
 21
474.2970564558701
 31
0.0
  0
LINE
  5
98
330
1F
100
AcDbEntity
  8
C-0
  6
JWW_CENTER1
 62
     3
370
     5
100
AcDbLine
 10
503.5995754035744
 20
491.9197206239443
 30
0.0
 11
503.5995754035744
 21
607.8883320576438
 31
0.0
  0
LINE
  5
99
330
1F
100
AcDbEntity
  8
C-0
  6
JWW_CENTER1
 62
     3
370
     5
100
AcDbLine
 10
448.5511431822908
 20
551.5346547719596
 30
0.0
 11
561.8013807245205
 21
551.5346547719596
 31
0.0
  0
LINE
  5
9A
330
1F
100
AcDbEntity
  8
C-5
  6
Continuous
 62
     7
370
     5
100
AcDbLine
 10
223.6894620431437
 20
395.2434972814612
 30
0.0
 11
223.6894620431437
 21
460.2429694098396
 31
0.0
  0
LINE
  5
9B
330
1F
100
AcDbEntity
  8
C-5
  6
Continuous
 62
     7
370
     5
100
AcDbLine
 10
223.6894620431437
 20
460.2429694098396
 30
0.0
 11
798.6898744428483
 21
460.2429694098396
 31
0.0
  0
LINE
  5
9C
330
1F
100
AcDbEntity
  8
C-5
  6
Continuous
 62
     7
370
     5
100
AcDbLine
 10
798.6898744428483
 20
460.2429694098396
 30
0.0
 11
798.6898744428483
 21
395.2434972814612
 31
0.0
  0
LINE
  5
9D
330
1F
100
AcDbEntity
  8
C-5
  6
Continuous
 62
     7
370
     5
100
AcDbLine
 10
798.6898744428483
 20
395.2434972814612
 30
0.0
 11
223.6894620431437
 21
395.2434972814612
 31
0.0
  0
LINE
  5
9E
330
1F
100
AcDbEntity
  8
C-5
  6
Continuous
 62
     7
370
     5
100
AcDbLine
 10
578.2860691482958
 20
626.2211485166807
 30
0.0
 11
676.2799095463108
 21
626.2211485166807
 31
0.0
  0
LINE
  5
9F
330
1F
100
AcDbEntity
  8
C-5
  6
Continuous
 62
     7
370
     5
100
AcDbLine
 10
528.3482590237181
 20
576.2833383921031
 30
0.0
 11
578.2860691482958
 21
626.2211485166807
 31
0.0
  0
LINE
  5
A0
330
1F
100
AcDbEntity
  8
C-5
  6
Continuous
 62
     7
370
     5
100
AcDbLine
 10
528.3482590237181
 20
576.2833383921031
 30
0.0
 11
543.5670453148921
 21
596.1173722550677
 31
0.0
  0
LINE
  5
A1
330
1F
100
AcDbEntity
  8
C-5
  6
Continuous
 62
     7
370
     5
100
AcDbLine
 10
528.3482590237181
 20
576.2833383921031
 30
0.0
 11
548.1817980070375
 21
591.5026195629224
 31
0.0
  0
LINE
  5
A2
330
1F
100
AcDbEntity
  8
C-4
  6
Continuous
 62
     7
370
     5
100
AcDbLine
 10
-263.8106616767675
 20
400.8658249313768
 30
0.0
 11
-183.8107689006907
 21
400.8658249313768
 31
0.0
  0
LINE
  5
A3
330
1F
100
AcDbEntity
  8
C-4
  6
Continuous
 62
     7
370
     5
100
AcDbLine
 10
-263.8106616767675
 20
518.2441010346283
 30
0.0
 11
-263.8106616767675
 21
397.8658645217484
 31
0.0
  0
LINE
  5
A4
330
1F
100
AcDbEntity
  8
C-4
  6
Continuous
 62
     7
370
     5
100
AcDbLine
 10
-183.8107689006907
 20
518.2441010346283
 30
0.0
 11
-183.8107689006907
 21
397.8658645217484
 31
0.0
  0
LINE
  5
A5
330
1F
100
AcDbEntity
  8
C-4
  6
Continuous
 62
     7
370
     5
100
AcDbLine
 10
-344.8287693229881
 20
518.2441010346283
 30
0.0
 11
-344.8287693229881
 21
568.2440185546875
 31
0.0
  0
LINE
  5
A6
330
1F
100
AcDbEntity
  8
C-4
  6
Continuous
 62
     7
370
     5
100
AcDbLine
 10
-263.8106616767675
 20
518.2441010346283
 30
0.0
 11
-347.8283585728823
 21
518.2441010346283
 31
0.0
  0
LINE
  5
A7
330
1F
100
AcDbEntity
  8
C-4
  6
Continuous
 62
     7
370
     5
100
AcDbLine
 10
-263.8106616767675
 20
568.2440185546875
 30
0.0
 11
-347.8283585728823
 21
568.2440185546875
 31
0.0
  0
LINE
  5
A8
330
1F
100
AcDbEntity
  8
C-A
  6
Continuous
 62
     3
370
     5
100
AcDbLine
 10
-304.7928823007118
 20
968.2438535948061
 30
0.0
 11
-261.3436866450954
 21
924.794905379012
 31
0.0
  0
LINE
  5
A9
330
1F
100
AcDbEntity
  8
C-A
  6
Continuous
 62
     3
370
     5
100
AcDbLine
 10
-257.2595686525909
 20
920.7106636665964
 30
0.0
 11
-249.241899799656
 21
912.69287109375
 31
0.0
  0
LINE
  5
AA
330
1F
100
AcDbEntity
  8
C-A
  6
Continuous
 62
     3
370
     5
100
AcDbLine
 10
177.1710228275609
 20
468.243688634924
 30
0.0
 11
133.7218271719445
 21
511.6931317303633
 31
0.0
  0
LINE
  5
AB
330
1F
100
AcDbEntity
  8
C-A
  6
Continuous
 62
     3
370
     5
100
AcDbLine
 10
129.6385752188195
 20
515.776631123311
 30
0.0
 11
121.6202877663278
 21
523.7949185758023
 31
0.0
  0
LINE
  5
AC
330
1F
100
AcDbEntity
  8
C-4
  6
Continuous
 62
     7
370
     5
100
AcDbLine
 10
-313.8109503565607
 20
1103.243309227196
 30
0.0
 11
235.9261035919192
 21
1103.243309227196
 31
0.0
  0
LINE
  5
AD
330
1F
100
AcDbEntity
  8
D-A
  6
JWW_DASHED3
 62
     3
370
     5
100
AcDbLine
 10
-467.5667157044282
 20
-410.3672419367609
 30
0.0
 11
-467.5667157044282
 21
-360.3673244167018
 31
0.0
  0
LINE
  5
AE
330
1F
100
AcDbEntity
  8
D-A
  6
Continuous
 62
     3
370
     5
100
AcDbLine
 10
-442.5670043842211
 20
-385.3674068966427
 30
0.0
 11
-442.5670043842211
 21
-369.8674052470438
 31
0.0
  0
LINE
  5
AF
330
1F
100
AcDbEntity
  8
D-A
  6
Continuous
 62
     3
370
     5
100
AcDbLine
 10
-467.5667157044282
 20
-360.3673244167018
 30
0.0
 11
-467.5667157044282
 21
-330.367720320418
 31
0.0
  0
LINE
  5
B0
330
1F
100
AcDbEntity
  8
D-A
  6
Continuous
 62
     3
370
     5
100
AcDbLine
 10
-317.5668394243394
 20
-448.8680122994087
 30
0.0
 11
-442.5670043842211
 21
-448.8680122994087
 31
0.0
  0
LINE
  5
B1
330
1F
100
AcDbEntity
  8
D-A
  6
Continuous
 62
     3
370
     5
100
AcDbLine
 10
-445.4960732846646
 20
-432.4378843565245
 30
0.0
 11
-467.5667157044282
 21
-410.3672419367609
 31
0.0
  0
LINE
  5
B2
330
1F
100
AcDbEntity
  8
D-A
  6
Continuous
 62
     3
370
     5
100
AcDbLine
 10
-442.5670043842211
 20
-460.3677780563767
 30
0.0
 11
-442.5670043842211
 21
-439.5093433277026
 31
0.0
  0
LINE
  5
B3
330
1F
100
AcDbEntity
  8
D-A
  6
Continuous
 62
     3
370
     5
100
AcDbLine
 10
-317.5668394243394
 20
-460.3677780563767
 30
0.0
 11
-442.5670043842211
 21
-460.3677780563767
 31
0.0
  0
LINE
  5
B4
330
1F
100
AcDbEntity
  8
D-A
  6
Continuous
 62
     3
370
     5
100
AcDbLine
 10
-317.5668394243394
 20
-420.3673986486485
 30
0.0
 11
-317.5668394243394
 21
-460.3677780563767
 31
0.0
  0
LINE
  5
B5
330
1F
100
AcDbEntity
  8
D-A
  6
Continuous
 62
     3
370
     5
100
AcDbLine
 10
-407.2116890469113
 20
-410.3672419367609
 30
0.0
 11
-327.5671198561383
 21
-410.3672419367609
 31
0.0
  0
LINE
  5
B6
330
1F
100
AcDbEntity
  8
D-A
  6
Continuous
 62
     3
370
     5
100
AcDbLine
 10
-467.5667157044282
 20
-360.3673244167018
 30
0.0
 11
-424.8895322954331
 21
-403.0454975849872
 31
0.0
  0
LINE
  5
B7
330
1F
100
AcDbEntity
  8
D-A
  6
Continuous
 62
     3
370
     5
100
AcDbLine
 10
-479.0669763410412
 20
-330.367720320418
 30
0.0
 11
-479.0669763410412
 21
-442.8678440403293
 31
0.0
  0
LINE
  5
B8
330
1F
100
AcDbEntity
  8
D-A
  6
JWW_CENTER2
 62
     3
370
     5
100
AcDbLine
 10
-424.5719432830811
 20
-387.8674151446367
 30
0.0
 11
-484.9904382551037
 21
-387.8674151446367
 31
0.0
  0
LINE
  5
B9
330
1F
100
AcDbEntity
  8
D-A
  6
JWW_DASHED3
 62
     3
370
     5
100
AcDbLine
 10
-442.5670043842211
 20
-405.867177602407
 30
0.0
 11
-442.5670043842211
 21
-385.3674068966427
 31
0.0
  0
LINE
  5
BA
330
1F
100
AcDbEntity
  8
D-A
  6
Continuous
 62
     3
370
     5
100
AcDbLine
 10
-481.3169466482626
 20
-377.8672584327491
 30
0.0
 11
-482.5666414724813
 21
-379.1176955764358
 31
0.0
  0
LINE
  5
BB
330
1F
100
AcDbEntity
  8
D-A
  6
Continuous
 62
     3
370
     5
100
AcDbLine
 10
-481.3169466482626
 20
-397.8669532569678
 30
0.0
 11
-482.5666414724813
 21
-396.6176295924831
 31
0.0
  0
LINE
  5
BC
330
1F
100
AcDbEntity
  8
D-A
  6
JWW_DASHED3
 62
     3
370
     5
100
AcDbLine
 10
-481.3169466482626
 20
-377.8672584327491
 30
0.0
 11
-481.3169466482626
 21
-397.8669532569678
 31
0.0
  0
LINE
  5
BD
330
1F
100
AcDbEntity
  8
D-A
  6
Continuous
 62
     3
370
     5
100
AcDbLine
 10
-479.0669763410412
 20
-379.1176955764358
 30
0.0
 11
-482.5666414724813
 21
-379.1176955764358
 31
0.0
  0
LINE
  5
BE
330
1F
100
AcDbEntity
  8
D-A
  6
Continuous
 62
     3
370
     5
100
AcDbLine
 10
-479.0669763410412
 20
-377.8672584327491
 30
0.0
 11
-481.3169466482626
 21
-377.8672584327491
 31
0.0
  0
LINE
  5
BF
330
1F
100
AcDbEntity
  8
D-A
  6
Continuous
 62
     3
370
     5
100
AcDbLine
 10
-479.0669763410412
 20
-396.6176295924831
 30
0.0
 11
-482.5666414724813
 21
-396.6176295924831
 31
0.0
  0
LINE
  5
C0
330
1F
100
AcDbEntity
  8
D-A
  6
Continuous
 62
     3
370
     5
100
AcDbLine
 10
-479.0669763410412
 20
-397.8669532569678
 30
0.0
 11
-481.3169466482626
 21
-397.8669532569678
 31
0.0
  0
LINE
  5
C1
330
1F
100
AcDbEntity
  8
D-A
  6
JWW_DASHED3
 62
     3
370
     5
100
AcDbLine
 10
-442.5670043842211
 20
-397.8669532569678
 30
0.0
 11
-479.0669763410412
 21
-397.8669532569678
 31
0.0
  0
LINE
  5
C2
330
1F
100
AcDbEntity
  8
D-A
  6
JWW_DASHED3
 62
     3
370
     5
100
AcDbLine
 10
-442.5670043842211
 20
-396.6176295924831
 30
0.0
 11
-479.0669763410412
 21
-396.6176295924831
 31
0.0
  0
LINE
  5
C3
330
1F
100
AcDbEntity
  8
D-A
  6
JWW_DASHED3
 62
     3
370
     5
100
AcDbLine
 10
-436.0667602435961
 20
-405.867177602407
 30
0.0
 11
-442.5670043842211
 21
-405.867177602407
 31
0.0
  0
LINE
  5
C4
330
1F
100
AcDbEntity
  8
D-A
  6
Continuous
 62
     3
370
     5
100
AcDbLine
 10
-436.0667602435961
 20
-369.8674052470438
 30
0.0
 11
-442.5670043842211
 21
-369.8674052470438
 31
0.0
  0
LINE
  5
C5
330
1F
100
AcDbEntity
  8
D-A
  6
Continuous
 62
     3
370
     5
100
AcDbLine
 10
-429.566887262705
 20
-376.3674019478462
 30
0.0
 11
-429.566887262705
 21
-398.3680188978041
 31
0.0
  0
LINE
  5
C6
330
1F
100
AcDbEntity
  8
D-A
  6
JWW_DASHED3
 62
     3
370
     5
100
AcDbLine
 10
-429.566887262705
 20
-399.3675520613386
 30
0.0
 11
-429.566887262705
 21
-398.3680188978041
 31
0.0
  0
LINE
  5
C7
330
1F
100
AcDbEntity
  8
D-A
  6
Continuous
 62
     3
370
     5
100
AcDbLine
 10
-442.5670043842211
 20
-377.8672584327491
 30
0.0
 11
-450.0672765680261
 21
-377.8672584327491
 31
0.0
  0
LINE
  5
C8
330
1F
100
AcDbEntity
  8
D-A
  6
Continuous
 62
     3
370
     5
100
AcDbLine
 10
-442.5670043842211
 20
-379.1176955764358
 30
0.0
 11
-448.8172105840732
 21
-379.1176955764358
 31
0.0
  0
LINE
  5
C9
330
1F
100
AcDbEntity
  8
D-A
  6
JWW_DASHED3
 62
     3
370
     5
100
AcDbLine
 10
-450.0672765680261
 20
-377.8672584327491
 30
0.0
 11
-479.0669763410412
 21
-377.8672584327491
 31
0.0
  0
LINE
  5
CA
330
1F
100
AcDbEntity
  8
D-A
  6
JWW_DASHED3
 62
     3
370
     5
100
AcDbLine
 10
-479.0669763410412
 20
-379.1176955764358
 30
0.0
 11
-448.8172105840732
 21
-379.1176955764358
 31
0.0
  0
LINE
  5
CB
330
1F
100
AcDbEntity
  8
D-4
  6
Continuous
 62
     7
370
     5
100
AcDbLine
 10
-1190.235193355663
 20
-204.4479452597128
 30
0.0
 11
-617.5674580238958
 21
-204.4479452597128
 31
0.0
  0
LINE
  5
CC
330
1F
100
AcDbEntity
  8
D-4
  6
Continuous
 62
     7
370
     5
100
AcDbLine
 10
-617.5674580238958
 20
-309.91174646326
 30
0.0
 11
-617.5674580238958
 21
-201.4474899704391
 31
0.0
  0
LINE
  5
CD
330
1F
100
AcDbEntity
  8
D-4
  6
Continuous
 62
     7
370
     5
100
AcDbLine
 10
-617.5674580238958
 20
-204.4479452597128
 30
0.0
 11
-492.5666744644576
 21
-204.4479452597128
 31
0.0
  0
LINE
  5
CE
330
1F
100
AcDbEntity
  8
D-4
  6
Continuous
 62
     7
370
     5
100
AcDbLine
 10
-492.5666744644576
 20
-309.91174646326
 30
0.0
 11
-492.5666744644576
 21
-92.6959558435388
 31
0.0
  0
LINE
  5
CF
330
1F
100
AcDbEntity
  8
D-4
  6
Continuous
 62
     7
370
     5
100
AcDbLine
 10
-487.5664105286469
 20
-309.91174646326
 30
0.0
 11
-487.5664105286469
 21
-92.6959558435388
 31
0.0
  0
LINE
  5
D0
330
1F
100
AcDbEntity
  8
D-4
  6
Continuous
 62
     7
370
     5
100
AcDbLine
 10
-462.5675652478191
 20
-309.91174646326
 30
0.0
 11
-462.5675652478191
 21
18.0004552892737
 31
0.0
  0
LINE
  5
D1
330
1F
100
AcDbEntity
  8
D-5
  6
Continuous
 62
     7
370
     5
100
AcDbLine
 10
-368.0438209224391
 20
-162.4561701594172
 30
0.0
 11
-108.6606966482626
 21
-162.4561701594172
 31
0.0
  0
LINE
  5
D2
330
1F
100
AcDbEntity
  8
D-4
  6
Continuous
 62
     7
370
     5
100
AcDbLine
 10
-217.5660146249305
 20
-645.2407094594594
 30
0.0
 11
-217.5660146249305
 21
-888.4504246067356
 31
0.0
  0
LINE
  5
D3
330
1F
100
AcDbEntity
  8
D-4
  6
Continuous
 62
     7
370
     5
100
AcDbLine
 10
-617.5669631442506
 20
-730.986154917124
 30
0.0
 11
-467.5667157044282
 21
-730.986154917124
 31
0.0
  0
LINE
  5
D4
330
1F
100
AcDbEntity
  8
D-4
  6
Continuous
 62
     7
370
     5
100
AcDbLine
 10
54.11796183199499
 20
-575.367538864548
 30
0.0
 11
54.11796183199499
 21
-325.3673326646958
 31
0.0
  0
LINE
  5
D5
330
1F
100
AcDbEntity
  8
D-6
  6
Continuous
 62
     6
370
     5
100
AcDbLine
 10
-467.5667157044282
 20
-575.367538864548
 30
0.0
 11
-467.5667157044282
 21
-825.3673120447106
 31
0.0
  0
LINE
  5
D6
330
1F
100
AcDbEntity
  8
D-6
  6
JWW_DASHED3
 62
     6
370
     5
100
AcDbLine
 10
-374.0657638859102
 20
-702.8674646326012
 30
0.0
 11
-374.0657638859102
 21
-575.367538864548
 31
0.0
  0
LINE
  5
D7
330
1F
100
AcDbEntity
  8
D-6
  6
JWW_DASHED3
 62
     6
370
     5
100
AcDbLine
 10
-329.0656154220167
 20
-575.367538864548
 30
0.0
 11
-329.0656154220167
 21
-702.8674646326012
 31
0.0
  0
LINE
  5
D8
330
1F
100
AcDbEntity
  8
D-6
  6
Continuous
 62
     6
370
     5
100
AcDbLine
 10
-217.5671281041323
 20
-475.3677038244298
 30
0.0
 11
-52.5660888568774
 21
-475.3677038244298
 31
0.0
  0
LINE
  5
D9
330
1F
100
AcDbEntity
  8
D-6
  6
Continuous
 62
     6
370
     5
100
AcDbLine
 10
-452.5670373761974
 20
-820.5166873416385
 30
0.0
 11
-107.4159506204964
 21
-475.3677038244298
 31
0.0
  0
LINE
  5
DA
330
1F
100
AcDbEntity
  8
D-6
  6
Continuous
 62
     6
370
     5
100
AcDbLine
 10
-452.5670373761974
 20
-813.444362331081
 30
0.0
 11
-114.4902551496349
 21
-475.3677038244298
 31
0.0
  0
LINE
  5
DB
330
1F
100
AcDbEntity
  8
D-6
  6
Continuous
 62
     6
370
     5
100
AcDbLine
 10
-452.5670373761974
 20
-806.3759963576858
 30
0.0
 11
-221.5572189640352
 21
-575.367538864548
 31
0.0
  0
LINE
  5
DC
330
1F
100
AcDbEntity
  8
D-6
  6
Continuous
 62
     6
370
     5
100
AcDbLine
 10
-217.5671281041323
 20
-475.3677038244298
 30
0.0
 11
-217.5671281041323
 21
-575.367538864548
 31
0.0
  0
LINE
  5
DD
330
1F
100
AcDbEntity
  8
D-6
  6
Continuous
 62
     6
370
     5
100
AcDbLine
 10
-217.5671281041323
 20
-571.3773242847338
 30
0.0
 11
-121.5567653243605
 21
-475.3677038244298
 31
0.0
  0
LINE
  5
DE
330
1F
100
AcDbEntity
  8
D-4
  6
Continuous
 62
     7
370
     5
100
AcDbLine
 10
-161.7881298065186
 20
-575.367538864548
 30
0.0
 11
57.11841712126869
 21
-575.367538864548
 31
0.0
  0
LINE
  5
DF
330
1F
100
AcDbEntity
  8
D-6
  6
Continuous
 62
     6
370
     5
100
AcDbLine
 10
-467.5667157044282
 20
-575.367538864548
 30
0.0
 11
-217.5671281041323
 21
-575.367538864548
 31
0.0
  0
LINE
  5
E0
330
1F
100
AcDbEntity
  8
D-6
  6
Continuous
 62
     6
370
     5
100
AcDbLine
 10
-374.0657638859102
 20
-377.8676295924831
 30
0.0
 11
-329.0656154220167
 21
-377.8676295924831
 31
0.0
  0
LINE
  5
E1
330
1F
100
AcDbEntity
  8
D-6
  6
JWW_CENTER2
 62
     6
370
     5
100
AcDbLine
 10
-351.5656896539636
 20
-373.787841796875
 30
0.0
 11
-351.5656896539636
 21
-702.8674646326012
 31
0.0
  0
LINE
  5
E2
330
1F
100
AcDbEntity
  8
D-4
  6
Continuous
 62
     7
370
     5
100
AcDbLine
 10
-462.5669466482626
 20
-515.8982230521536
 30
0.0
 11
-312.5664517686172
 21
-515.8982230521536
 31
0.0
  0
LINE
  5
E3
330
1F
100
AcDbEntity
  8
D-4
  6
Continuous
 62
     7
370
     5
100
AcDbLine
 10
-462.5669466482626
 20
-463.3349526895058
 30
0.0
 11
-462.5669466482626
 21
-518.8984309016047
 31
0.0
  0
LINE
  5
E4
330
1F
100
AcDbEntity
  8
D-4
  6
Continuous
 62
     7
370
     5
100
AcDbLine
 10
-317.5668394243394
 20
-463.3349526895058
 30
0.0
 11
-317.5668394243394
 21
-518.8984309016047
 31
0.0
  0
LINE
  5
E5
330
1F
100
AcDbEntity
  8
D-4
  6
Continuous
 62
     7
370
     5
100
AcDbLine
 10
-305.7407005413157
 20
-460.3677780563767
 30
0.0
 11
-226.5167790490227
 21
-460.3677780563767
 31
0.0
  0
LINE
  5
E6
330
1F
100
AcDbEntity
  8
D-4
  6
Continuous
 62
     7
370
     5
100
AcDbLine
 10
-305.7407005413157
 20
-410.3672419367609
 30
0.0
 11
-226.5167790490227
 21
-410.3672419367609
 31
0.0
  0
LINE
  5
E7
330
1F
100
AcDbEntity
  8
D-4
  6
Continuous
 62
     7
370
     5
100
AcDbLine
 10
-229.5168631785623
 20
-410.3672419367609
 30
0.0
 11
-229.5168631785623
 21
-325.3673326646958
 31
0.0
  0
LINE
  5
E8
330
1F
100
AcDbEntity
  8
D-6
  6
Continuous
 62
     6
370
     5
100
AcDbLine
 10
-374.0657638859102
 20
-575.367538864548
 30
0.0
 11
-374.0657638859102
 21
-460.3677780563767
 31
0.0
  0
LINE
  5
E9
330
1F
100
AcDbEntity
  8
D-6
  6
Continuous
 62
     6
370
     5
100
AcDbLine
 10
-329.0656154220167
 20
-575.367538864548
 30
0.0
 11
-329.0656154220167
 21
-460.3677780563767
 31
0.0
  0
LINE
  5
EA
330
1F
100
AcDbEntity
  8
D-6
  6
Continuous
 62
     6
370
     5
100
AcDbLine
 10
-374.0657638859102
 20
-410.3672419367609
 30
0.0
 11
-374.0657638859102
 21
-377.8676295924831
 31
0.0
  0
LINE
  5
EB
330
1F
100
AcDbEntity
  8
D-6
  6
Continuous
 62
     6
370
     5
100
AcDbLine
 10
-329.0656154220167
 20
-410.3672419367609
 30
0.0
 11
-329.0656154220167
 21
-377.8676295924831
 31
0.0
  0
LINE
  5
EC
330
1F
100
AcDbEntity
  8
D-4
  6
Continuous
 62
     7
370
     5
100
AcDbLine
 10
-763.0499491820462
 20
-450.367621344489
 30
0.0
 11
-763.0499491820462
 21
-325.3673326646958
 31
0.0
  0
LINE
  5
ED
330
1F
100
AcDbEntity
  8
D-4
  6
Continuous
 62
     7
370
     5
100
AcDbLine
 10
-490.711618114162
 20
-450.367621344489
 30
0.0
 11
-766.0499095916747
 21
-450.367621344489
 31
0.0
  0
LINE
  5
EE
330
1F
100
AcDbEntity
  8
D-4
  6
Continuous
 62
     7
370
     5
100
AcDbLine
 10
-490.711618114162
 20
-325.3673326646958
 30
0.0
 11
-766.0499095916747
 21
-325.3673326646958
 31
0.0
  0
LINE
  5
EF
330
1F
100
AcDbEntity
  8
D-4
  6
Continuous
 62
     7
370
     5
100
AcDbLine
 10
-1190.235193355663
 20
15.0
 30
0.0
 11
-462.5675652478191
 21
15.0
 31
0.0
  0
LINE
  5
F0
330
1F
100
AcDbEntity
  8
D-4
  6
Continuous
 62
     7
370
     5
100
AcDbLine
 10
-617.5669631442506
 20
-885.4508353568411
 30
0.0
 11
-217.5660146249305
 21
-885.4508353568411
 31
0.0
  0
LINE
  5
F1
330
1F
100
AcDbEntity
  8
D-4
  6
Continuous
 62
     7
370
     5
100
AcDbLine
 10
-1190.235193355663
 20
-95.69566881334453
 30
0.0
 11
-416.0298257260709
 21
-95.69566881334453
 31
0.0
  0
LINE
  5
F2
330
1F
100
AcDbEntity
  8
D-4
  6
Continuous
 62
     7
370
     5
100
AcDbLine
 10
-229.5168631785623
 20
-460.3677780563767
 30
0.0
 11
-229.5168631785623
 21
-410.3672419367609
 31
0.0
  0
LINE
  5
F3
330
1F
100
AcDbEntity
  8
D-4
  6
Continuous
 62
     7
370
     5
100
AcDbLine
 10
-617.5669631442506
 20
-850.3675801045185
 30
0.0
 11
-617.5669631442506
 21
-888.4504246067356
 31
0.0
  0
LINE
  5
F4
330
1F
100
AcDbEntity
  8
D-5
  6
Continuous
 62
     2
370
     5
100
AcDbLine
 10
-959.5618312423292
 20
-1021.309649493243
 30
0.0
 11
-959.5618312423292
 21
-956.3100536449535
 31
0.0
  0
LINE
  5
F5
330
1F
100
AcDbEntity
  8
D-5
  6
Continuous
 62
     2
370
     5
100
AcDbLine
 10
-959.5618312423292
 20
-956.3100536449535
 30
0.0
 11
-384.5614188426248
 21
-956.3100536449535
 31
0.0
  0
LINE
  5
F6
330
1F
100
AcDbEntity
  8
D-5
  6
Continuous
 62
     2
370
     5
100
AcDbLine
 10
-384.5614188426248
 20
-956.3100536449535
 30
0.0
 11
-384.5614188426248
 21
-1021.309649493243
 31
0.0
  0
LINE
  5
F7
330
1F
100
AcDbEntity
  8
D-5
  6
Continuous
 62
     2
370
     5
100
AcDbLine
 10
-384.5614188426248
 20
-1021.309649493243
 30
0.0
 11
-959.5618312423292
 21
-1021.309649493243
 31
0.0
  0
LINE
  5
F8
330
1F
100
AcDbEntity
  8
D-A
  6
Continuous
 62
     3
370
     5
100
AcDbLine
 10
-479.0669763410412
 20
-330.367720320418
 30
0.0
 11
-467.5667157044282
 21
-330.367720320418
 31
0.0
  0
LINE
  5
F9
330
1F
100
AcDbEntity
  8
D-A
  6
Continuous
 62
     3
370
     5
100
AcDbLine
 10
-467.5667157044282
 20
-442.8678440403293
 30
0.0
 11
-479.0669763410412
 21
-442.8678440403293
 31
0.0
  0
LINE
  5
FA
330
1F
100
AcDbEntity
  8
D-A
  6
Continuous
 62
     3
370
     5
100
AcDbLine
 10
-467.5667157044282
 20
-442.8678440403293
 30
0.0
 11
-467.5667157044282
 21
-410.3672419367609
 31
0.0
  0
LINE
  5
FB
330
1F
100
AcDbEntity
  8
D-5
  6
Continuous
 62
     7
370
     5
100
AcDbLine
 10
-368.0438209224391
 20
-162.4561701594172
 30
0.0
 11
-531.345443467836
 21
-350.0812509897593
 31
0.0
  0
LINE
  5
FC
330
1F
100
AcDbEntity
  8
D-5
  6
Continuous
 62
     7
370
     5
100
AcDbLine
 10
-531.345443467836
 20
-350.0812509897593
 30
0.0
 11
-517.5342186077219
 21
-329.2416216876055
 31
0.0
  0
LINE
  5
FD
330
1F
100
AcDbEntity
  8
D-5
  6
Continuous
 62
     7
370
     5
100
AcDbLine
 10
-531.345443467836
 20
-350.0812509897593
 30
0.0
 11
-512.6114033363958
 21
-333.5264133762668
 31
0.0
  0
LINE
  5
FE
330
1F
100
AcDbEntity
  8
D-5
  6
Continuous
 62
     7
370
     5
100
AcDbLine
 10
-368.0438209224391
 20
-217.3182801942566
 30
0.0
 11
-464.5192468488537
 21
-328.1634026604729
 31
0.0
  0
LINE
  5
FF
330
1F
100
AcDbEntity
  8
D-5
  6
Continuous
 62
     7
370
     5
100
AcDbLine
 10
-464.5192468488537
 20
-328.1634026604729
 30
0.0
 11
-450.7078982688284
 21
-307.3248868375211
 31
0.0
  0
LINE
  5
100
330
1F
100
AcDbEntity
  8
D-5
  6
Continuous
 62
     7
370
     5
100
AcDbLine
 10
-464.5192468488537
 20
-328.1634026604729
 30
0.0
 11
-445.7849592775909
 21
-311.6094310863598
 31
0.0
  0
LINE
  5
101
330
1F
100
AcDbEntity
  8
D-5
  6
Continuous
 62
     7
370
     5
100
AcDbLine
 10
-432.5459390073209
 20
-413.5439980996621
 30
0.0
 11
-311.4589111225024
 21
-274.4218238624366
 31
0.0
  0
LINE
  5
102
330
1F
100
AcDbEntity
  8
D-5
  6
Continuous
 62
     7
370
     5
100
AcDbLine
 10
-432.5459390073209
 20
-413.5439980996621
 30
0.0
 11
-418.734837867118
 21
-392.7052348368876
 31
0.0
  0
LINE
  5
103
330
1F
100
AcDbEntity
  8
D-5
  6
Continuous
 62
     7
370
     5
100
AcDbLine
 10
-432.5459390073209
 20
-413.5439980996621
 30
0.0
 11
-413.8116514360581
 21
-396.989655365815
 31
0.0
  0
LINE
  5
104
330
1F
100
AcDbEntity
  8
D-5
  6
Continuous
 62
     7
370
     5
100
AcDbLine
 10
-311.4589111225024
 20
-274.4218238624366
 30
0.0
 11
75.2433841292924
 21
-274.4218238624366
 31
0.0
  0
LINE
  5
105
330
1F
100
AcDbEntity
  8
D-6
  6
Continuous
 62
     6
370
     5
100
AcDbLine
 10
-467.5667157044282
 20
-325.3680749841638
 30
0.0
 11
-52.5660888568774
 21
-325.3680749841638
 31
0.0
  0
LINE
  5
106
330
1F
100
AcDbEntity
  8
D-4
  6
Continuous
 62
     7
370
     5
100
AcDbLine
 10
-34.06674539720683
 20
-325.3680749841638
 30
0.0
 11
57.11841712126869
 21
-325.3680749841638
 31
0.0
  0
LINE
  5
107
330
1F
100
AcDbEntity
  8
D-5
  6
Continuous
 62
     7
370
     5
100
AcDbLine
 10
-368.0438209224391
 20
-217.3182801942566
 30
0.0
 11
82.9234213442416
 21
-217.3182801942566
 31
0.0
  0
LINE
  5
108
330
1F
100
AcDbEntity
  8
D-9
  6
Continuous
 62
     4
370
     5
100
AcDbLine
 10
-584.610824327211
 20
-342.8672666807432
 30
0.0
 11
-602.1108820631696
 21
-360.3673244167018
 31
0.0
  0
LINE
  5
109
330
1F
100
AcDbEntity
  8
D-9
  6
Continuous
 62
     4
370
     5
100
AcDbLine
 10
-556.326473081434
 20
-342.8672666807432
 30
0.0
 11
-573.8264070974813
 21
-360.3673244167018
 31
0.0
  0
LINE
  5
10A
330
1F
100
AcDbEntity
  8
D-9
  6
Continuous
 62
     4
370
     5
100
AcDbLine
 10
-549.255137830167
 20
-342.8672666807432
 30
0.0
 11
-566.7551955661256
 21
-360.3673244167018
 31
0.0
  0
LINE
  5
10B
330
1F
100
AcDbEntity
  8
D-9
  6
Continuous
 62
     4
370
     5
100
AcDbLine
 10
-542.1844211784569
 20
-342.8672666807432
 30
0.0
 11
-559.683860314859
 21
-360.3673244167018
 31
0.0
  0
LINE
  5
10C
330
1F
100
AcDbEntity
  8
D-9
  6
Continuous
 62
     4
370
     5
100
AcDbLine
 10
-535.1129622072784
 20
-342.8672666807432
 30
0.0
 11
-554.7361773413579
 21
-362.4901106550886
 31
0.0
  0
LINE
  5
10D
330
1F
100
AcDbEntity
  8
D-9
  6
Continuous
 62
     4
370
     5
100
AcDbLine
 10
-528.0422455555683
 20
-342.8672666807432
 30
0.0
 11
-550.6956087576375
 21
-365.5206298828125
 31
0.0
  0
LINE
  5
10E
330
1F
100
AcDbEntity
  8
D-9
  6
Continuous
 62
     4
370
     5
100
AcDbLine
 10
-520.9707865843902
 20
-342.8672666807432
 30
0.0
 11
-546.655040173917
 21
-368.5509016707136
 31
0.0
  0
LINE
  5
10F
330
1F
100
AcDbEntity
  8
D-9
  6
Continuous
 62
     4
370
     5
100
AcDbLine
 10
-513.9000699326798
 20
-342.8672666807432
 30
0.0
 11
-542.6144715901967
 21
-371.5814208984375
 31
0.0
  0
LINE
  5
110
330
1F
100
AcDbEntity
  8
D-9
  6
Continuous
 62
     4
370
     5
100
AcDbLine
 10
-506.8287346814128
 20
-342.8672666807432
 30
0.0
 11
-538.5732844069196
 21
-374.6120638460725
 31
0.0
  0
LINE
  5
111
330
1F
100
AcDbEntity
  8
D-9
  6
Continuous
 62
     4
370
     5
100
AcDbLine
 10
-499.75777058988
 20
-342.8672666807432
 30
0.0
 11
-532.2577540938917
 21
-375.3672501847549
 31
0.0
  0
LINE
  5
112
330
1F
100
AcDbEntity
  8
D-9
  6
Continuous
 62
     4
370
     5
100
AcDbLine
 10
-492.6865590585243
 20
-342.8672666807432
 30
0.0
 11
-525.1862951227135
 21
-375.3672501847549
 31
0.0
  0
LINE
  5
113
330
1F
100
AcDbEntity
  8
D-9
  6
Continuous
 62
     4
370
     5
100
AcDbLine
 10
-487.566905408292
 20
-344.8183296822212
 30
0.0
 11
-518.1155784710031
 21
-375.3672501847549
 31
0.0
  0
LINE
  5
114
330
1F
100
AcDbEntity
  8
D-9
  6
Continuous
 62
     4
370
     5
100
AcDbLine
 10
-487.566905408292
 20
-366.0315931165541
 30
0.0
 11
-496.9020675968477
 21
-375.3672501847549
 31
0.0
  0
LINE
  5
115
330
1F
100
AcDbEntity
  8
D-9
  6
Continuous
 62
     4
370
     5
100
AcDbLine
 10
-487.566905408292
 20
-358.9605053051098
 30
0.0
 11
-503.9732791282034
 21
-375.3672501847549
 31
0.0
  0
LINE
  5
116
330
1F
100
AcDbEntity
  8
D-9
  6
Continuous
 62
     4
370
     5
100
AcDbLine
 10
-487.566905408292
 20
-351.8894174936655
 30
0.0
 11
-511.0441194998251
 21
-375.3672501847549
 31
0.0
  0
LINE
  5
117
330
1F
100
AcDbEntity
  8
D-9
  6
Continuous
 62
     4
370
     5
100
AcDbLine
 10
-598.7531236700107
 20
-342.8672666807432
 30
0.0
 11
-607.5669301522743
 21
-351.6808257231841
 31
0.0
  0
LINE
  5
118
330
1F
100
AcDbEntity
  8
D-9
  6
Continuous
 62
     4
370
     5
100
AcDbLine
 10
-591.6821595784779
 20
-342.8672666807432
 30
0.0
 11
-607.5669301522743
 21
-358.7519135346284
 31
0.0
  0
LINE
  5
119
330
1F
100
AcDbEntity
  8
D-9
  6
Continuous
 62
     4
370
     5
100
AcDbLine
 10
-602.5666662164635
 20
-342.8672666807432
 30
0.0
 11
-487.566905408292
 21
-342.8672666807432
 31
0.0
  0
LINE
  5
11A
330
1F
100
AcDbEntity
  8
D-9
  6
Continuous
 62
     4
370
     5
100
AcDbLine
 10
-607.5669301522743
 20
-347.8674068966427
 30
0.0
 11
-607.5669301522743
 21
-360.3673244167018
 31
0.0
  0
LINE
  5
11B
330
1F
100
AcDbEntity
  8
D-6
  6
Continuous
 62
     6
370
     5
100
AcDbLine
 10
-617.5669631442506
 20
-380.3672666807432
 30
0.0
 11
-617.5669631442506
 21
-825.3673120447106
 31
0.0
  0
LINE
  5
11C
330
1F
100
AcDbEntity
  8
D-1
  6
Continuous
 62
     2
370
     5
100
AcDbLine
 10
-467.5664682646055
 20
-445.3671099688555
 30
0.0
 11
-482.5665177525698
 21
-445.3671099688555
 31
0.0
  0
LINE
  5
11D
330
1F
100
AcDbEntity
  8
D-1
  6
Continuous
 62
     2
370
     5
100
AcDbLine
 10
-467.5664682646055
 20
-330.3672254407728
 30
0.0
 11
-482.5665177525698
 21
-330.3672254407728
 31
0.0
  0
LINE
  5
11E
330
1F
100
AcDbEntity
  8
D-1
  6
Continuous
 62
     2
370
     5
100
AcDbLine
 10
-462.5664517686172
 20
-422.86715945682
 30
0.0
 11
-467.5664682646055
 21
-422.86715945682
 31
0.0
  0
LINE
  5
11F
330
1F
100
AcDbEntity
  8
D-1
  6
Continuous
 62
     2
370
     5
100
AcDbLine
 10
-467.5664682646055
 20
-445.3671099688555
 30
0.0
 11
-467.5664682646055
 21
-422.86715945682
 31
0.0
  0
LINE
  5
120
330
1F
100
AcDbEntity
  8
D-1
  6
Continuous
 62
     2
370
     5
100
AcDbLine
 10
-462.5664517686172
 20
-352.8671759528082
 30
0.0
 11
-467.5664682646055
 21
-352.8671759528082
 31
0.0
  0
LINE
  5
121
330
1F
100
AcDbEntity
  8
D-1
  6
Continuous
 62
     2
370
     5
100
AcDbLine
 10
-467.5664682646055
 20
-352.8671759528082
 30
0.0
 11
-467.5664682646055
 21
-330.3672254407728
 31
0.0
  0
LINE
  5
122
330
1F
100
AcDbEntity
  8
D-1
  6
Continuous
 62
     2
370
     5
100
AcDbLine
 10
-540.5664121782456
 20
-379.3672386375633
 30
0.0
 11
-559.2330249580175
 21
-365.36734091269
 31
0.0
  0
LINE
  5
123
330
1F
100
AcDbEntity
  8
D-1
  6
Continuous
 62
     2
370
     5
100
AcDbLine
 10
-487.5665342485581
 20
-375.3671264648438
 30
0.0
 11
-537.5664517686173
 21
-375.3671264648438
 31
0.0
  0
LINE
  5
124
330
1F
100
AcDbEntity
  8
D-1
  6
Continuous
 62
     2
370
     5
100
AcDbLine
 10
-482.5665177525698
 20
-385.36715945682
 30
0.0
 11
-482.5665177525698
 21
-445.3671099688555
 31
0.0
  0
LINE
  5
125
330
1F
100
AcDbEntity
  8
D-1
  6
Continuous
 62
     2
370
     5
100
AcDbLine
 10
-482.5665177525698
 20
-375.3671264648438
 30
0.0
 11
-482.5665177525698
 21
-330.3672254407728
 31
0.0
  0
LINE
  5
126
330
1F
100
AcDbEntity
  8
D-1
  6
Continuous
 62
     2
370
     5
100
AcDbLine
 10
-462.5664517686172
 20
-328.3671693544129
 30
0.0
 11
-462.5664517686172
 21
-352.8671759528082
 31
0.0
  0
LINE
  5
127
330
1F
100
AcDbEntity
  8
D-1
  6
Continuous
 62
     2
370
     5
100
AcDbLine
 10
-484.5664501190186
 20
-325.3672089447845
 30
0.0
 11
-465.5664121782456
 21
-325.3672089447845
 31
0.0
  0
LINE
  5
128
330
1F
100
AcDbEntity
  8
D-1
  6
Continuous
 62
     2
370
     5
100
AcDbLine
 10
-487.5665342485581
 20
-328.3671693544129
 30
0.0
 11
-487.5665342485581
 21
-375.3671264648438
 31
0.0
  0
LINE
  5
129
330
1F
100
AcDbEntity
  8
D-1
  6
Continuous
 62
     2
370
     5
100
AcDbLine
 10
-462.5664517686172
 20
-447.3671660552154
 30
0.0
 11
-462.5664517686172
 21
-422.86715945682
 31
0.0
  0
LINE
  5
12A
330
1F
100
AcDbEntity
  8
D-1
  6
Continuous
 62
     2
370
     5
100
AcDbLine
 10
-484.5664501190186
 20
-450.3671264648438
 30
0.0
 11
-465.5664121782456
 21
-450.3671264648438
 31
0.0
  0
LINE
  5
12B
330
1F
100
AcDbEntity
  8
D-1
  6
Continuous
 62
     2
370
     5
100
AcDbLine
 10
-487.5665342485581
 20
-447.3671660552154
 30
0.0
 11
-487.5665342485581
 21
-385.36715945682
 31
0.0
  0
LINE
  5
12C
330
1F
100
AcDbEntity
  8
D-1
  6
Continuous
 62
     2
370
     5
100
AcDbLine
 10
-556.2464262988115
 20
-361.357331147065
 30
0.0
 11
-537.5664517686173
 21
-375.3671264648438
 31
0.0
  0
LINE
  5
12D
330
1F
100
AcDbEntity
  8
D-1
  6
Continuous
 62
     2
370
     5
100
AcDbLine
 10
-612.5664517686173
 20
-380.3671429608319
 30
0.0
 11
-487.5665342485581
 21
-380.3671429608319
 31
0.0
  0
LINE
  5
12E
330
1F
100
AcDbEntity
  8
D-1
  6
Continuous
 62
     2
370
     5
100
AcDbLine
 10
-612.5664517686173
 20
-380.3671429608319
 30
0.0
 11
-612.5664517686173
 21
-365.36734091269
 31
0.0
  0
LINE
  5
12F
330
1F
100
AcDbEntity
  8
D-1
  6
Continuous
 62
     2
370
     5
100
AcDbLine
 10
-617.5664682646055
 20
-380.3671429608319
 30
0.0
 11
-617.5664682646055
 21
-365.36734091269
 31
0.0
  0
LINE
  5
130
330
1F
100
AcDbEntity
  8
D-1
  6
Continuous
 62
     2
370
     5
100
AcDbLine
 10
-612.5664517686173
 20
-385.36715945682
 30
0.0
 11
-487.5665342485581
 21
-385.36715945682
 31
0.0
  0
LINE
  5
131
330
1F
100
AcDbEntity
  8
D-1
  6
Continuous
 62
     2
370
     5
100
AcDbLine
 10
-599.396714648685
 20
-361.0371440165751
 30
0.0
 11
-587.5664930085878
 21
-367.8672254407728
 31
0.0
  0
LINE
  5
132
330
1F
100
AcDbEntity
  8
D-1
  6
Continuous
 62
     2
370
     5
100
AcDbLine
 10
-575.7362713684906
 20
-361.0371440165751
 30
0.0
 11
-587.5664930085878
 21
-367.8672254407728
 31
0.0
  0
LINE
  5
133
330
1F
100
AcDbEntity
  8
D-1
  6
Continuous
 62
     2
370
     5
100
AcDbLine
 10
-585.0664847605935
 20
-372.1974223368876
 30
0.0
 11
-573.2363868404079
 21
-365.36734091269
 31
0.0
  0
LINE
  5
134
330
1F
100
AcDbEntity
  8
D-1
  6
Continuous
 62
     2
370
     5
100
AcDbLine
 10
-590.0665012565819
 20
-372.1974223368876
 30
0.0
 11
-601.896722896679
 21
-365.36734091269
 31
0.0
  0
LINE
  5
135
330
1F
100
AcDbEntity
  8
D-1
  6
Continuous
 62
     2
370
     5
100
AcDbLine
 10
-559.216446489901
 20
-360.3673244167018
 30
0.0
 11
-573.2362631204965
 21
-360.3673244167018
 31
0.0
  0
LINE
  5
136
330
1F
100
AcDbEntity
  8
D-1
  6
Continuous
 62
     2
370
     5
100
AcDbLine
 10
-601.896722896679
 20
-360.3673244167018
 30
0.0
 11
-612.5664517686173
 21
-360.3673244167018
 31
0.0
  0
LINE
  5
137
330
1F
100
AcDbEntity
  8
D-1
  6
Continuous
 62
     2
370
     5
100
AcDbLine
 10
-559.2330249580175
 20
-365.36734091269
 30
0.0
 11
-573.2363868404079
 21
-365.36734091269
 31
0.0
  0
LINE
  5
138
330
1F
100
AcDbEntity
  8
D-1
  6
Continuous
 62
     2
370
     5
100
AcDbLine
 10
-601.896722896679
 20
-365.36734091269
 30
0.0
 11
-612.5664517686173
 21
-365.36734091269
 31
0.0
  0
LINE
  5
139
330
1F
100
AcDbEntity
  8
D-9
  6
Continuous
 62
     4
370
     5
100
AcDbLine
 10
-563.397437172967
 20
-342.8672666807432
 30
0.0
 11
-588.0936635507118
 21
-367.5628744589315
 31
0.0
  0
LINE
  5
13A
330
1F
100
AcDbEntity
  8
D-9
  6
Continuous
 62
     4
370
     5
100
AcDbLine
 10
-570.4686487043225
 20
-342.8672666807432
 30
0.0
 11
-592.5762833775698
 21
-364.9749013539906
 31
0.0
  0
LINE
  5
13B
330
1F
100
AcDbEntity
  8
D-9
  6
Continuous
 62
     4
370
     5
100
AcDbLine
 10
-577.5396127958555
 20
-342.8672666807432
 30
0.0
 11
-597.0592743641621
 21
-362.3866808092271
 31
0.0
  0
LINE
  5
13C
330
1F
100
AcDbEntity
  8
D-2
  6
Continuous
 62
     3
370
     5
100
AcDbLine
 10
-492.5670456241915
 20
-342.8672666807432
 30
0.0
 11
-492.5670456241915
 21
-327.8672171927786
 31
0.0
  0
LINE
  5
13D
330
1F
100
AcDbEntity
  8
D-4
  6
Continuous
 62
     7
370
     5
100
AcDbLine
 10
-974.293532242646
 20
-289.8472224055109
 30
0.0
 11
-974.293532242646
 21
-374.0501280088682
 31
0.0
  0
LINE
  5
13E
330
1F
100
AcDbEntity
  8
D-2
  6
Continuous
 62
     3
370
     5
100
AcDbLine
 10
-492.5670456241915
 20
-342.8672666807432
 30
0.0
 11
-1165.236595514658
 21
-342.8672666807432
 31
0.0
  0
LINE
  5
13F
330
1F
100
AcDbEntity
  8
D-2
  6
Continuous
 62
     3
370
     5
100
AcDbLine
 10
-492.5670456241915
 20
-337.8672501847549
 30
0.0
 11
-1165.236595514658
 21
-337.8672501847549
 31
0.0
  0
LINE
  5
140
330
1F
100
AcDbEntity
  8
D-2
  6
Continuous
 62
     3
370
     5
100
AcDbLine
 10
-492.5670456241915
 20
-332.8672336887668
 30
0.0
 11
-1165.236595514658
 21
-332.8672336887668
 31
0.0
  0
LINE
  5
141
330
1F
100
AcDbEntity
  8
D-2
  6
Continuous
 62
     3
370
     5
100
AcDbLine
 10
-492.5670456241915
 20
-327.8672171927786
 30
0.0
 11
-1165.236595514658
 21
-327.8672171927786
 31
0.0
  0
LINE
  5
142
330
1F
100
AcDbEntity
  8
D-5
  6
Continuous
 62
     7
370
     5
100
AcDbLine
 10
-368.0448106817295
 20
-99.12147315772785
 30
0.0
 11
92.3533529848666
 21
-99.12147315772785
 31
0.0
  0
LINE
  5
143
330
1F
100
AcDbEntity
  8
D-5
  6
Continuous
 62
     7
370
     5
100
AcDbLine
 10
-368.0448106817295
 20
-99.12147315772785
 30
0.0
 11
-565.5577105444829
 21
-327.8674646326013
 31
0.0
  0
LINE
  5
144
330
1F
100
AcDbEntity
  8
D-5
  6
Continuous
 62
     7
370
     5
100
AcDbLine
 10
-565.5577105444829
 20
-327.8674646326013
 30
0.0
 11
-551.829130585129
 21
-306.9745120486697
 31
0.0
  0
LINE
  5
145
330
1F
100
AcDbEntity
  8
D-5
  6
Continuous
 62
     7
370
     5
100
AcDbLine
 10
-565.5577105444829
 20
-327.8674646326013
 30
0.0
 11
-546.8894894058639
 21
-311.2395085515202
 31
0.0
  0
LINE
  5
146
330
1F
100
AcDbEntity
  8
D-5
  6
Continuous
 62
     2
370
     5
100
AcDbLine
 10
507.1050553708466
 20
-375.367621344489
 30
0.0
 11
282.1050553708466
 21
-375.367621344489
 31
0.0
  0
LINE
  5
147
330
1F
100
AcDbEntity
  8
D-5
  6
Continuous
 62
     2
370
     5
100
AcDbLine
 10
507.1050553708466
 20
-325.3673326646958
 30
0.0
 11
507.1050553708466
 21
-375.367621344489
 31
0.0
  0
LINE
  5
148
330
1F
100
AcDbEntity
  8
D-5
  6
Continuous
 62
     2
370
     5
100
AcDbLine
 10
282.1050553708466
 20
-325.3673326646958
 30
0.0
 11
507.1050553708466
 21
-325.3673326646958
 31
0.0
  0
LINE
  5
149
330
1F
100
AcDbEntity
  8
D-5
  6
Continuous
 62
     2
370
     5
100
AcDbLine
 10
282.1050553708466
 20
-375.367621344489
 30
0.0
 11
282.1050553708466
 21
-325.3673326646958
 31
0.0
  0
LINE
  5
14A
330
1F
100
AcDbEntity
  8
D-2
  6
Continuous
 62
     3
370
     5
100
AcDbLine
 10
-1165.236595514658
 20
-538.4613944388724
 30
0.0
 11
-1165.236595514658
 21
-259.1682722761824
 31
0.0
  0
LINE
  5
14B
330
1F
100
AcDbEntity
  8
D-5
  6
Continuous
 62
     7
370
     5
100
AcDbLine
 10
-1136.787573066918
 20
-613.6256944811022
 30
0.0
 11
-1068.979968251409
 21
-433.4003015466638
 31
0.0
  0
LINE
  5
14C
330
1F
100
AcDbEntity
  8
D-5
  6
Continuous
 62
     7
370
     5
100
AcDbLine
 10
-1068.979968251409
 20
-433.4003015466638
 30
0.0
 11
-1074.653948964299
 21
-457.7478852143159
 31
0.0
  0
LINE
  5
14D
330
1F
100
AcDbEntity
  8
D-5
  6
Continuous
 62
     7
370
     5
100
AcDbLine
 10
-1068.979968251409
 20
-433.4003015466638
 30
0.0
 11
-1080.76224842587
 21
-455.4497878615921
 31
0.0
  0
CIRCLE
  5
14E
330
1F
100
AcDbEntity
  8
C-A
  6
Continuous
 62
     3
370
     5
100
AcDbCircle
 10
-263.8106616767675
 20
918.2439360747467
 30
0.0
 40
6.999999606931532
  0
CIRCLE
  5
14F
330
1F
100
AcDbEntity
  8
C-A
  6
Continuous
 62
     3
370
     5
100
AcDbCircle
 10
-263.8106616767675
 20
868.2440185546875
 30
0.0
 40
6.999999606931532
  0
CIRCLE
  5
150
330
1F
100
AcDbEntity
  8
C-A
  6
Continuous
 62
     3
370
     5
100
AcDbCircle
 10
-263.8106616767675
 20
818.2438535948061
 30
0.0
 40
6.999999606931532
  0
CIRCLE
  5
151
330
1F
100
AcDbEntity
  8
C-A
  6
Continuous
 62
     3
370
     5
100
AcDbCircle
 10
-263.8106616767675
 20
768.2439360747467
 30
0.0
 40
6.999999606931532
  0
CIRCLE
  5
152
330
1F
100
AcDbEntity
  8
C-A
  6
Continuous
 62
     3
370
     5
100
AcDbCircle
 10
-263.8106616767675
 20
718.2440185546875
 30
0.0
 40
6.999999606931532
  0
CIRCLE
  5
153
330
1F
100
AcDbEntity
  8
C-A
  6
Continuous
 62
     3
370
     5
100
AcDbCircle
 10
-263.8106616767675
 20
668.2438535948057
 30
0.0
 40
6.999999606931532
  0
CIRCLE
  5
154
330
1F
100
AcDbEntity
  8
C-A
  6
Continuous
 62
     3
370
     5
100
AcDbCircle
 10
-263.8106616767675
 20
618.2439360747467
 30
0.0
 40
6.999999606931532
  0
CIRCLE
  5
155
330
1F
100
AcDbEntity
  8
C-A
  6
Continuous
 62
     3
370
     5
100
AcDbCircle
 10
-263.8106616767675
 20
568.2440185546875
 30
0.0
 40
6.999999606931532
  0
CIRCLE
  5
156
330
1F
100
AcDbEntity
  8
C-A
  6
Continuous
 62
     3
370
     5
100
AcDbCircle
 10
-263.8106616767675
 20
518.2438535948057
 30
0.0
 40
6.999999606931532
  0
CIRCLE
  5
157
330
1F
100
AcDbEntity
  8
C-A
  6
Continuous
 62
     3
370
     5
100
AcDbCircle
 10
-183.8107689006907
 20
918.2439360747467
 30
0.0
 40
6.999999606931532
  0
CIRCLE
  5
158
330
1F
100
AcDbEntity
  8
C-A
  6
Continuous
 62
     3
370
     5
100
AcDbCircle
 10
-183.8107689006907
 20
868.2440185546875
 30
0.0
 40
6.999999606931532
  0
CIRCLE
  5
159
330
1F
100
AcDbEntity
  8
C-A
  6
Continuous
 62
     3
370
     5
100
AcDbCircle
 10
-183.8107689006907
 20
818.2438535948061
 30
0.0
 40
6.999999606931532
  0
CIRCLE
  5
15A
330
1F
100
AcDbEntity
  8
C-A
  6
Continuous
 62
     3
370
     5
100
AcDbCircle
 10
-183.8107689006907
 20
768.2439360747467
 30
0.0
 40
6.999999606931532
  0
CIRCLE
  5
15B
330
1F
100
AcDbEntity
  8
C-A
  6
Continuous
 62
     3
370
     5
100
AcDbCircle
 10
-183.8107689006907
 20
718.2440185546875
 30
0.0
 40
6.999999606931532
  0
CIRCLE
  5
15C
330
1F
100
AcDbEntity
  8
C-A
  6
Continuous
 62
     3
370
     5
100
AcDbCircle
 10
-183.8107689006907
 20
668.2438535948057
 30
0.0
 40
6.999999606931532
  0
CIRCLE
  5
15D
330
1F
100
AcDbEntity
  8
C-A
  6
Continuous
 62
     3
370
     5
100
AcDbCircle
 10
-183.8107689006907
 20
618.2439360747467
 30
0.0
 40
6.999999606931532
  0
CIRCLE
  5
15E
330
1F
100
AcDbEntity
  8
C-A
  6
Continuous
 62
     3
370
     5
100
AcDbCircle
 10
-183.8107689006907
 20
568.2440185546875
 30
0.0
 40
6.999999606931532
  0
CIRCLE
  5
15F
330
1F
100
AcDbEntity
  8
C-A
  6
Continuous
 62
     3
370
     5
100
AcDbCircle
 10
-183.8107689006907
 20
518.2438535948057
 30
0.0
 40
6.999999606931532
  0
CIRCLE
  5
160
330
1F
100
AcDbEntity
  8
C-A
  6
Continuous
 62
     3
370
     5
100
AcDbCircle
 10
-103.8108761246139
 20
918.2439360747467
 30
0.0
 40
6.999999606931532
  0
CIRCLE
  5
161
330
1F
100
AcDbEntity
  8
C-A
  6
Continuous
 62
     3
370
     5
100
AcDbCircle
 10
-103.8108761246139
 20
868.2440185546875
 30
0.0
 40
6.999999606931532
  0
CIRCLE
  5
162
330
1F
100
AcDbEntity
  8
C-A
  6
Continuous
 62
     3
370
     5
100
AcDbCircle
 10
-103.8108761246139
 20
818.2438535948061
 30
0.0
 40
6.999999606931532
  0
CIRCLE
  5
163
330
1F
100
AcDbEntity
  8
C-A
  6
Continuous
 62
     3
370
     5
100
AcDbCircle
 10
-103.8108761246139
 20
768.2439360747467
 30
0.0
 40
6.999999606931532
  0
CIRCLE
  5
164
330
1F
100
AcDbEntity
  8
C-A
  6
Continuous
 62
     3
370
     5
100
AcDbCircle
 10
-103.8108761246139
 20
718.2440185546875
 30
0.0
 40
6.999999606931532
  0
CIRCLE
  5
165
330
1F
100
AcDbEntity
  8
C-A
  6
Continuous
 62
     3
370
     5
100
AcDbCircle
 10
-103.8108761246139
 20
668.2438535948057
 30
0.0
 40
6.999999606931532
  0
CIRCLE
  5
166
330
1F
100
AcDbEntity
  8
C-A
  6
Continuous
 62
     3
370
     5
100
AcDbCircle
 10
-103.8108761246139
 20
618.2439360747467
 30
0.0
 40
6.999999606931532
  0
CIRCLE
  5
167
330
1F
100
AcDbEntity
  8
C-A
  6
Continuous
 62
     3
370
     5
100
AcDbCircle
 10
-103.8108761246139
 20
568.2440185546875
 30
0.0
 40
6.999999606931532
  0
CIRCLE
  5
168
330
1F
100
AcDbEntity
  8
C-A
  6
Continuous
 62
     3
370
     5
100
AcDbCircle
 10
-103.8108761246139
 20
518.2438535948057
 30
0.0
 40
6.999999606931532
  0
CIRCLE
  5
169
330
1F
100
AcDbEntity
  8
C-A
  6
Continuous
 62
     3
370
     5
100
AcDbCircle
 10
-23.81048846889172
 20
918.2439360747467
 30
0.0
 40
6.999999606931532
  0
CIRCLE
  5
16A
330
1F
100
AcDbEntity
  8
C-A
  6
Continuous
 62
     3
370
     5
100
AcDbCircle
 10
-23.81048846889172
 20
868.2440185546875
 30
0.0
 40
6.999999606931532
  0
CIRCLE
  5
16B
330
1F
100
AcDbEntity
  8
C-A
  6
Continuous
 62
     3
370
     5
100
AcDbCircle
 10
-23.81048846889172
 20
818.2438535948061
 30
0.0
 40
6.999999606931532
  0
CIRCLE
  5
16C
330
1F
100
AcDbEntity
  8
C-A
  6
Continuous
 62
     3
370
     5
100
AcDbCircle
 10
-23.81048846889172
 20
768.2439360747467
 30
0.0
 40
6.999999606931532
  0
CIRCLE
  5
16D
330
1F
100
AcDbEntity
  8
C-A
  6
Continuous
 62
     3
370
     5
100
AcDbCircle
 10
-23.81048846889172
 20
718.2440185546875
 30
0.0
 40
6.999999606931532
  0
CIRCLE
  5
16E
330
1F
100
AcDbEntity
  8
C-A
  6
Continuous
 62
     3
370
     5
100
AcDbCircle
 10
-23.81048846889172
 20
668.2438535948057
 30
0.0
 40
6.999999606931532
  0
CIRCLE
  5
16F
330
1F
100
AcDbEntity
  8
C-A
  6
Continuous
 62
     3
370
     5
100
AcDbCircle
 10
-23.81048846889172
 20
618.2439360747467
 30
0.0
 40
6.999999606931532
  0
CIRCLE
  5
170
330
1F
100
AcDbEntity
  8
C-A
  6
Continuous
 62
     3
370
     5
100
AcDbCircle
 10
-23.81048846889172
 20
568.2440185546875
 30
0.0
 40
6.999999606931532
  0
CIRCLE
  5
171
330
1F
100
AcDbEntity
  8
C-A
  6
Continuous
 62
     3
370
     5
100
AcDbCircle
 10
-23.81048846889172
 20
518.2438535948057
 30
0.0
 40
6.999999606931532
  0
CIRCLE
  5
172
330
1F
100
AcDbEntity
  8
C-A
  6
Continuous
 62
     3
370
     5
100
AcDbCircle
 10
56.18928058727391
 20
918.2439360747467
 30
0.0
 40
6.999999606931532
  0
CIRCLE
  5
173
330
1F
100
AcDbEntity
  8
C-A
  6
Continuous
 62
     3
370
     5
100
AcDbCircle
 10
56.18928058727391
 20
868.2440185546875
 30
0.0
 40
6.999999606931532
  0
CIRCLE
  5
174
330
1F
100
AcDbEntity
  8
C-A
  6
Continuous
 62
     3
370
     5
100
AcDbCircle
 10
56.18928058727391
 20
818.2438535948061
 30
0.0
 40
6.999999606931532
  0
CIRCLE
  5
175
330
1F
100
AcDbEntity
  8
C-A
  6
Continuous
 62
     3
370
     5
100
AcDbCircle
 10
56.18928058727391
 20
768.2439360747467
 30
0.0
 40
6.999999606931532
  0
CIRCLE
  5
176
330
1F
100
AcDbEntity
  8
C-A
  6
Continuous
 62
     3
370
     5
100
AcDbCircle
 10
56.18928058727391
 20
718.2440185546875
 30
0.0
 40
6.999999606931532
  0
CIRCLE
  5
177
330
1F
100
AcDbEntity
  8
C-A
  6
Continuous
 62
     3
370
     5
100
AcDbCircle
 10
56.18928058727391
 20
668.2438535948057
 30
0.0
 40
6.999999606931532
  0
CIRCLE
  5
178
330
1F
100
AcDbEntity
  8
C-A
  6
Continuous
 62
     3
370
     5
100
AcDbCircle
 10
56.18928058727391
 20
618.2439360747467
 30
0.0
 40
6.999999606931532
  0
CIRCLE
  5
179
330
1F
100
AcDbEntity
  8
C-A
  6
Continuous
 62
     3
370
     5
100
AcDbCircle
 10
56.18928058727391
 20
568.2440185546875
 30
0.0
 40
6.999999606931532
  0
CIRCLE
  5
17A
330
1F
100
AcDbEntity
  8
C-A
  6
Continuous
 62
     3
370
     5
100
AcDbCircle
 10
56.18928058727391
 20
518.2438535948057
 30
0.0
 40
6.999999606931532
  0
CIRCLE
  5
17B
330
1F
100
AcDbEntity
  8
C-A
  6
Continuous
 62
     3
370
     5
100
AcDbCircle
 10
136.1892970832619
 20
918.2439360747467
 30
0.0
 40
6.999999606931532
  0
CIRCLE
  5
17C
330
1F
100
AcDbEntity
  8
C-A
  6
Continuous
 62
     3
370
     5
100
AcDbCircle
 10
136.1892970832619
 20
868.2440185546875
 30
0.0
 40
6.999999606931532
  0
CIRCLE
  5
17D
330
1F
100
AcDbEntity
  8
C-A
  6
Continuous
 62
     3
370
     5
100
AcDbCircle
 10
136.1892970832619
 20
818.2438535948061
 30
0.0
 40
6.999999606931532
  0
CIRCLE
  5
17E
330
1F
100
AcDbEntity
  8
C-A
  6
Continuous
 62
     3
370
     5
100
AcDbCircle
 10
136.1892970832619
 20
768.2439360747467
 30
0.0
 40
6.999999606931532
  0
CIRCLE
  5
17F
330
1F
100
AcDbEntity
  8
C-A
  6
Continuous
 62
     3
370
     5
100
AcDbCircle
 10
136.1892970832619
 20
718.2440185546875
 30
0.0
 40
6.999999606931532
  0
CIRCLE
  5
180
330
1F
100
AcDbEntity
  8
C-A
  6
Continuous
 62
     3
370
     5
100
AcDbCircle
 10
136.1892970832619
 20
668.2438535948057
 30
0.0
 40
6.999999606931532
  0
CIRCLE
  5
181
330
1F
100
AcDbEntity
  8
C-A
  6
Continuous
 62
     3
370
     5
100
AcDbCircle
 10
136.1892970832619
 20
618.2439360747467
 30
0.0
 40
6.999999606931532
  0
CIRCLE
  5
182
330
1F
100
AcDbEntity
  8
C-A
  6
Continuous
 62
     3
370
     5
100
AcDbCircle
 10
136.1892970832619
 20
568.2440185546875
 30
0.0
 40
6.999999606931532
  0
CIRCLE
  5
183
330
1F
100
AcDbEntity
  8
C-A
  6
Continuous
 62
     3
370
     5
100
AcDbCircle
 10
136.1892970832619
 20
518.2438535948057
 30
0.0
 40
6.999999606931532
  0
CIRCLE
  5
184
330
1F
100
AcDbEntity
  8
C-0
  6
Continuous
 62
     3
370
     5
100
AcDbCircle
 10
503.5995754035744
 20
551.5346547719596
 30
0.0
 40
34.99999948450037
  0
ARC
  5
185
330
1F
100
AcDbEntity
  8
D-A
  6
Continuous
 62
     3
370
     5
100
AcDbCircle
 10
-452.5670373761974
 20
-439.5093433277026
 30
0.0
 40
10.00000012887491
100
AcDbArc
 50
7.016464233398438
 51
45.0
  0
ARC
  5
186
330
1F
100
AcDbEntity
  8
D-A
  6
Continuous
 62
     3
370
     5
100
AcDbCircle
 10
-327.5671198561383
 20
-420.3673986486485
 30
0.0
 40
10.00000012887491
100
AcDbArc
 50
7.016464233398438
 51
90.0
  0
ARC
  5
187
330
1F
100
AcDbEntity
  8
D-A
  6
Continuous
 62
     3
370
     5
100
AcDbCircle
 10
-407.2116890469113
 20
-385.3674068966427
 30
0.0
 40
25.00000128874908
100
AcDbArc
 50
225.0
 51
270.0
  0
ARC
  5
188
330
1F
100
AcDbEntity
  8
D-A
  6
JWW_DASHED3
 62
     3
370
     5
100
AcDbCircle
 10
-436.0667602435961
 20
-399.3675520613386
 30
0.0
 40
6.50000008376869
100
AcDbArc
 50
270.0
 51
0.0
  0
ARC
  5
189
330
1F
100
AcDbEntity
  8
D-A
  6
Continuous
 62
     3
370
     5
100
AcDbCircle
 10
-436.0667602435961
 20
-376.3674019478462
 30
0.0
 40
6.50000008376869
100
AcDbArc
 50
0.0
 51
90.0
  0
ARC
  5
18A
330
1F
100
AcDbEntity
  8
D-9
  6
Continuous
 62
     4
370
     5
100
AcDbCircle
 10
-602.5666662164635
 20
-347.8674068966427
 30
0.0
 40
5.000000064437454
100
AcDbArc
 50
90.0
 51
180.0
  0
ARC
  5
18B
330
1F
100
AcDbEntity
  8
D-1
  6
Continuous
 62
     2
370
     5
100
AcDbCircle
 10
-537.5664517686173
 20
-375.3671264648438
 30
0.0
 40
5.000000064437454
100
AcDbArc
 50
233.1302490234375
 51
270.0
  0
ARC
  5
18C
330
1F
100
AcDbEntity
  8
D-1
  6
Continuous
 62
     2
370
     5
100
AcDbCircle
 10
-612.5664517686173
 20
-365.36734091269
 30
0.0
 40
5.000000064437454
100
AcDbArc
 50
90.0
 51
180.0
  0
ARC
  5
18D
330
1F
100
AcDbEntity
  8
D-1
  6
Continuous
 62
     2
370
     5
100
AcDbCircle
 10
-487.5665342485581
 20
-385.36715945682
 30
0.0
 40
5.000000064437454
100
AcDbArc
 50
0.0
 51
90.0
  0
ARC
  5
18E
330
1F
100
AcDbEntity
  8
D-1
  6
Continuous
 62
     2
370
     5
100
AcDbCircle
 10
-487.5665342485581
 20
-375.3671264648438
 30
0.0
 40
5.000000064437454
100
AcDbArc
 50
270.0
 51
0.0
  0
ARC
  5
18F
330
1F
100
AcDbEntity
  8
D-1
  6
Continuous
 62
     2
370
     5
100
AcDbCircle
 10
-465.5664121782456
 20
-328.3671693544129
 30
0.0
 40
3.000000038662472
100
AcDbArc
 50
0.0
 51
90.0
  0
ARC
  5
190
330
1F
100
AcDbEntity
  8
D-1
  6
Continuous
 62
     2
370
     5
100
AcDbCircle
 10
-484.5664501190186
 20
-328.3671693544129
 30
0.0
 40
3.000000038662472
100
AcDbArc
 50
90.0
 51
180.0
  0
ARC
  5
191
330
1F
100
AcDbEntity
  8
D-1
  6
Continuous
 62
     2
370
     5
100
AcDbCircle
 10
-465.5664121782456
 20
-447.3671660552154
 30
0.0
 40
3.000000038662472
100
AcDbArc
 50
270.0
 51
0.0
  0
ARC
  5
192
330
1F
100
AcDbEntity
  8
D-1
  6
Continuous
 62
     2
370
     5
100
AcDbCircle
 10
-484.5664501190186
 20
-447.3671660552154
 30
0.0
 40
3.000000038662472
100
AcDbArc
 50
180.0
 51
270.0
  0
ARC
  5
193
330
1F
100
AcDbEntity
  8
D-1
  6
Continuous
 62
     2
370
     5
100
AcDbCircle
 10
-559.216817649635
 20
-365.3172343486063
 30
0.0
 40
4.950000305433531
100
AcDbArc
 50
53.12966918945312
 51
90.0
  0
ARC
  5
194
330
1F
100
AcDbEntity
  8
D-1
  6
Continuous
 62
     2
370
     5
100
AcDbCircle
 10
-612.5664517686173
 20
-380.3671429608319
 30
0.0
 40
5.000000064437454
100
AcDbArc
 50
180.0
 51
270.0
  0
ARC
  5
195
330
1F
100
AcDbEntity
  8
D-1
  6
Continuous
 62
     2
370
     5
100
AcDbCircle
 10
-601.896722896679
 20
-365.36734091269
 30
0.0
 40
5.000000064437454
100
AcDbArc
 50
59.99996948242189
 51
90.00000000000001
  0
ARC
  5
196
330
1F
100
AcDbEntity
  8
D-1
  6
Continuous
 62
     2
370
     5
100
AcDbCircle
 10
-573.2362631204965
 20
-365.36734091269
 30
0.0
 40
5.000000064437454
100
AcDbArc
 50
90.0
 51
120.0000305175781
  0
ARC
  5
197
330
1F
100
AcDbEntity
  8
D-1
  6
Continuous
 62
     2
370
     5
100
AcDbCircle
 10
-587.5664930085878
 20
-367.8672254407728
 30
0.0
 40
5.000000064437454
100
AcDbArc
 50
239.9999694824219
 51
300.0000305175781
  0
TEXT
  5
198
330
1F
100
AcDbEntity
  8
C-4
  6
Continuous
 62
     2
370
     5
100
AcDbText
 10
-287.9434593303782
 20
1058.88363914696
 30
0.0
 40
30.48
  1
25
 41
1.0625
  7
ＭＳ ゴシック
100
AcDbText
  0
TEXT
  5
199
330
1F
100
AcDbEntity
  8
C-4
  6
Continuous
 62
     2
370
     5
100
AcDbText
 10
113.8093631331986
 20
1058.88363914696
 30
0.0
 40
30.48
  1
25
 41
1.0625
  7
ＭＳ ゴシック
100
AcDbText
  0
TEXT
  5
19A
330
1F
100
AcDbEntity
  8
C-4
  6
Continuous
 62
     2
370
     5
100
AcDbText
 10
-304.44068058117
 20
1113.883325723184
 30
0.0
 40
30.48
  1
1
 41
0.9999999999999998
  7
ＭＳ ゴシック
100
AcDbText
  0
TEXT
  5
19B
330
1F
100
AcDbEntity
  8
C-4
  6
Continuous
 62
     2
370
     5
100
AcDbText
 10
152.2815789403144
 20
1113.883325723184
 30
0.0
 40
30.48
  1
1
 41
0.9999999999999998
  7
ＭＳ ゴシック
100
AcDbText
  0
TEXT
  5
19C
330
1F
100
AcDbEntity
  8
C-4
  6
Continuous
 62
     2
370
     5
100
AcDbText
 10
-96.31049671688586
 20
1058.883391707137
 30
0.0
 40
30.48
  1
450
 41
1.083333333333333
  7
ＭＳ ゴシック
100
AcDbText
  0
TEXT
  5
19D
330
1F
100
AcDbEntity
  8
C-4
  6
Continuous
 62
     2
370
     5
100
AcDbText
 10
-96.31049671688586
 20
1113.883325723184
 30
0.0
 40
30.48
  1
500
 41
1.083333333333333
  7
ＭＳ ゴシック
100
AcDbText
  0
TEXT
  5
19E
330
1F
100
AcDbEntity
  8
C-5
  6
Continuous
 62
     2
370
     5
100
AcDbText
 10
-331.311362756265
 20
283.3842231049409
 30
0.0
 40
30.48
  1
平面詳細図　Ｓ＝１：１０
 41
1.114583333333333
  7
ＭＳ ゴシック
100
AcDbText
  0
TEXT
  5
19F
330
1F
100
AcDbEntity
  8
C-0
  6
Continuous
 62
     2
370
     5
100
AcDbText
 10
585.8519953650398
 20
635.9025831397804
 30
0.0
 40
30.48
  1
φ14
 41
1.09375
  7
ＭＳ ゴシック
100
AcDbText
  0
TEXT
  5
1A0
330
1F
100
AcDbEntity
  8
C-5
  6
Continuous
 62
     2
370
     5
100
AcDbText
 10
266.1897919629072
 20
413.3831673616976
 30
0.0
 40
30.48
  1
排水穴詳細　Ｓ＝１：２
 41
1.113636363636364
  7
ＭＳ ゴシック
100
AcDbText
  0
TEXT
  5
1A1
330
1F
100
AcDbEntity
  8
C-4
  6
Continuous
 62
     2
370
     5
100
AcDbText
 10
-245.060620591706
 20
411.5058414272218
 30
0.0
 40
30.48
  1
80
 50
359.9996664175985
 41
1.0625
  7
ＭＳ ゴシック
100
AcDbText
  0
TEXT
  5
1A2
330
1F
100
AcDbEntity
  8
C-4
  6
Continuous
 62
     2
370
     5
100
AcDbText
 10
-355.4685374502864
 20
521.9940595481258
 30
0.0
 40
30.48
  1
50
 50
90.00000250447816
 41
1.062499999999999
  7
ＭＳ ゴシック
100
AcDbText
  0
TEXT
  5
1A3
330
1F
100
AcDbEntity
  8
C-4
  6
Continuous
 62
     2
370
     5
100
AcDbText
 10
-355.6054210662841
 20
1113.883325723184
 30
0.0
 40
30.48
  1
5
 41
0.9999999999999998
  7
ＭＳ ゴシック
100
AcDbText
  0
TEXT
  5
1A4
330
1F
100
AcDbEntity
  8
C-4
  6
Continuous
 62
     2
370
     5
100
AcDbText
 10
207.2834924749428
 20
1113.883325723184
 30
0.0
 40
30.48
  1
5
 41
0.9999999999999998
  7
ＭＳ ゴシック
100
AcDbText
  0
TEXT
  5
1A5
330
1F
100
AcDbEntity
  8
C-4
  6
Continuous
 62
     2
370
     5
100
AcDbText
 10
-96.31049671688586
 20
1170.377548828125
 30
0.0
 40
30.48
  1
512
 41
1.083333333333333
  7
ＭＳ ゴシック
100
AcDbText
  0
TEXT
  5
1A6
330
1F
100
AcDbEntity
  8
D-4
  6
Continuous
 62
     2
370
     5
100
AcDbText
 10
-525.5124496769259
 20
-85.05639463682421
 30
0.0
 40
30.48
  1
1
 41
0.9999999999999998
  7
ＭＳ ゴシック
100
AcDbText
  0
TEXT
  5
1A7
330
1F
100
AcDbEntity
  8
D-4
  6
Continuous
 62
     2
370
     5
100
AcDbText
 10
-576.3167569443985
 20
-193.8076813239021
 30
0.0
 40
30.48
  1
25
 41
1.0625
  7
ＭＳ ゴシック
100
AcDbText
  0
TEXT
  5
1A8
330
1F
100
AcDbEntity
  8
D-5
  6
Continuous
 62
     7
370
     5
100
AcDbText
 10
-367.210913735467
 20
-154.7043591638513
 30
0.0
 40
22.86
  1
塩ビクッション
 41
1.142857142857143
  7
ＭＳ ゴシック
100
AcDbText
  0
TEXT
  5
1A9
330
1F
100
AcDbEntity
  8
D-4
  6
Continuous
 62
     2
370
     5
100
AcDbText
 10
-607.9631720362482
 20
-720.3463858609585
 30
0.0
 40
30.48
  1
25～30
 41
1.104166666666667
  7
ＭＳ ゴシック
100
AcDbText
  0
TEXT
  5
1AA
330
1F
100
AcDbEntity
  8
D-4
  6
Continuous
 62
     2
370
     5
100
AcDbText
 10
-485.4354257841367
 20
-874.8106332809859
 30
0.0
 40
30.48
  1
75～80
 41
1.104166666666667
  7
ＭＳ ゴシック
100
AcDbText
  0
TEXT
  5
1AB
330
1F
100
AcDbEntity
  8
D-4
  6
Continuous
 62
     2
370
     5
100
AcDbText
 10
43.47819567170924
 20
-520.8805148553793
 30
0.0
 40
30.48
  1
40～50
 50
90.00000250447816
 41
1.104166666666666
  7
ＭＳ ゴシック
100
AcDbText
  0
TEXT
  5
1AC
330
1F
100
AcDbEntity
  8
D-4
  6
Continuous
 62
     2
370
     5
100
AcDbText
 10
-433.928599275176
 20
-505.2589488763315
 30
0.0
 40
30.48
  1
29
 50
0.0010007471525833
 41
1.0625
  7
ＭＳ ゴシック
100
AcDbText
  0
TEXT
  5
1AD
330
1F
100
AcDbEntity
  8
D-4
  6
Continuous
 62
     2
370
     5
100
AcDbText
 10
-240.1570024655948
 20
-456.617324663234
 30
0.0
 40
30.48
  1
10
 50
90.00000250447816
 41
1.062499999999999
  7
ＭＳ ゴシック
100
AcDbText
  0
TEXT
  5
1AE
330
1F
100
AcDbEntity
  8
D-4
  6
Continuous
 62
     2
370
     5
100
AcDbText
 10
-240.1570024655948
 20
-389.1171019673936
 30
0.0
 40
30.48
  1
17
 50
90.00000250447816
 41
1.062499999999999
  7
ＭＳ ゴシック
100
AcDbText
  0
TEXT
  5
1AF
330
1F
100
AcDbEntity
  8
D-4
  6
Continuous
 62
     2
370
     5
100
AcDbText
 10
-773.6897173093448
 20
-414.139577751283
 30
0.0
 40
30.48
  1
25
 50
90.00000250447816
 41
1.062499999999999
  7
ＭＳ ゴシック
100
AcDbText
  0
TEXT
  5
1B0
330
1F
100
AcDbEntity
  8
D-4
  6
Continuous
 62
     2
370
     5
100
AcDbText
 10
-451.4551954011658
 20
-85.05639463682421
 30
0.0
 40
30.48
  1
5
 41
0.9999999999999998
  7
ＭＳ ゴシック
100
AcDbText
  0
TEXT
  5
1B1
330
1F
100
AcDbEntity
  8
D-5
  6
Continuous
 62
     2
370
     5
100
AcDbText
 10
-917.0615617584723
 20
-1003.169731973188
 30
0.0
 40
30.48
  1
断面詳細図　Ｓ＝１：２
 50
359.9999855334116
 41
1.113636363636364
  7
ＭＳ ゴシック
100
AcDbText
  0
TEXT
  5
1B2
330
1F
100
AcDbEntity
  8
D-5
  6
Continuous
 62
     7
370
     5
100
AcDbText
 10
-311.0168516313706
 20
-303.9516472233952
 30
0.0
 40
22.86
  1
ｔ＝２．３（ＳＰＨＣ）
 41
1.151515151515152
  7
ＭＳ ゴシック
100
AcDbText
  0
TEXT
  5
1B3
330
1F
100
AcDbEntity
  8
D-5
  6
Continuous
 62
     2
370
     5
100
AcDbText
 10
443.9069369032579
 20
-832.4105206133869
 30
0.0
 40
30.48
  1
材質：冷間圧延ステンレス鋼板（ＳＵＳ３０４－２Ｂ）
 41
1.12
  7
ＭＳ ゴシック
100
AcDbText
  0
TEXT
  5
1B4
330
1F
100
AcDbEntity
  8
D-5
  6
Continuous
 62
     7
370
     5
100
AcDbText
 10
-368.4042788840627
 20
-208.3297649651604
 30
0.0
 40
22.86
  1
ステンレス製受枠ＳＦ０３Ｂ
 41
1.153846153846154
  7
ＭＳ ゴシック
100
AcDbText
  0
TEXT
  5
1B5
330
1F
100
AcDbEntity
  8
D-4
  6
Continuous
 62
     2
370
     5
100
AcDbText
 10
-984.9335483015202
 20
-309.2452964155038
 30
0.0
 40
30.48
  1
3
 50
90.00000250447816
 41
0.9999999999999989
  7
ＭＳ ゴシック
100
AcDbText
  0
TEXT
  5
1B6
330
1F
100
AcDbEntity
  8
D-5
  6
Continuous
 62
     7
370
     5
100
AcDbText
 10
-364.102830371341
 20
-89.89764265730572
 30
0.0
 40
22.86
  1
ＳＰ－３（ｔ＝３）
 41
1.148148148148148
  7
ＭＳ ゴシック
100
AcDbText
  0
TEXT
  5
1B7
330
1F
100
AcDbEntity
  8
D-5
  6
Continuous
 62
     7
370
     5
100
AcDbText
 10
-364.1028468673292
 20
-57.35175906619504
 30
0.0
 40
22.86
  1
ステンレス縞鋼板製排水用蓋
 41
1.153846153846154
  7
ＭＳ ゴシック
100
AcDbText
  0
TEXT
  5
1B8
330
1F
100
AcDbEntity
  8
D-5
  6
Continuous
 62
     2
370
     5
100
AcDbText
 10
329.6048079310239
 20
-364.7272336887668
 30
0.0
 40
30.48
  1
仕　様
 41
1.083333333333333
  7
ＭＳ ゴシック
100
AcDbText
  0
TEXT
  5
1B9
330
1F
100
AcDbEntity
  8
D-5
  6
Continuous
 62
     2
370
     5
100
AcDbText
 10
443.9071595990981
 20
-492.647930875211
 30
0.0
 40
30.48
  1
材質：縞鋼板　ｔ＝３（ＳＵＳ３０４）
 41
1.118055555555555
  7
ＭＳ ゴシック
100
AcDbText
  0
TEXT
  5
1BA
330
1F
100
AcDbEntity
  8
D-5
  6
Continuous
 62
     2
370
     5
100
AcDbText
 10
443.9071843430804
 20
-557.6479597431904
 30
0.0
 40
30.48
  1
処理：酸洗
 41
1.1
  7
ＭＳ ゴシック
100
AcDbText
  0
TEXT
  5
1BB
330
1F
100
AcDbEntity
  8
D-5
  6
Continuous
 62
     2
370
     5
100
AcDbText
 10
384.195328016539
 20
-427.6478401472762
 30
0.0
 40
30.48
  1
ステンレス縞鋼板製排水用蓋　ＳＰ－３　５００×５００
 41
1.120192307692307
  7
ＭＳ ゴシック
100
AcDbText
  0
TEXT
  5
1BC
330
1F
100
AcDbEntity
  8
D-5
  6
Continuous
 62
     2
370
     5
100
AcDbText
 10
384.1952290406101
 20
-767.4108010451858
 30
0.0
 40
30.48
  1
ステンレス製受枠　ＳＦ０３Ｂ　四方枠
 41
1.118055555555555
  7
ＭＳ ゴシック
100
AcDbText
  0
TEXT
  5
1BD
330
1F
100
AcDbEntity
  8
D-4
  6
Continuous
 62
     2
370
     5
100
AcDbText
 10
-1190.23519747966
 20
26.35635478251693
 30
0.0
 40
30.48
  1
□512
 41
1.1
  7
ＭＳ ゴシック
100
AcDbText
  0
TEXT
  5
1BE
330
1F
100
AcDbEntity
  8
D-4
  6
Continuous
 62
     2
370
     5
100
AcDbText
 10
-1191.822462081909
 20
-83.80744213207343
 30
0.0
 40
30.48
  1
□500
 41
1.1
  7
ＭＳ ゴシック
100
AcDbText
  0
TEXT
  5
1BF
330
1F
100
AcDbEntity
  8
D-4
  6
Continuous
 62
     2
370
     5
100
AcDbText
 10
-1193.419067537462
 20
-193.9712390466638
 30
0.0
 40
30.48
  1
□450
 41
1.1
  7
ＭＳ ゴシック
100
AcDbText
  0
TEXT
  5
1C0
330
1F
100
AcDbEntity
  8
D-5
  6
Continuous
 62
     7
370
     5
100
AcDbText
 10
-310.6266225350868
 20
-267.3831344357052
 30
0.0
 40
22.86
  1
溶接用アンカ－
 41
1.142857142857143
  7
ＭＳ ゴシック
100
AcDbText
  0
LWPOLYLINE
  5
1C1
330
1F
100
AcDbEntity
  8
C-4
  6
Continuous
 62
     7
370
     5
100
AcDbPolyline
 90
        4
 70
     1
 43
1.0
 10
-313.3109503565607
 20
1103.243309227196
 42
0.4142135623731
 10
-313.8109503565607
 20
1103.743309227196
 42
0.4142135623731
 10
-314.3109503565607
 20
1103.243309227196
 42
0.4142135623731
 10
-313.8109503565607
 20
1102.743309227196
 42
0.4142135623731
  0
LWPOLYLINE
  5
1C2
330
1F
100
AcDbEntity
  8
C-4
  6
Continuous
 62
     7
370
     5
100
AcDbPolyline
 90
        4
 70
     1
 43
1.0
 10
186.6894620431437
 20
1103.243309227196
 42
0.4142135623731
 10
186.1894620431437
 20
1103.743309227196
 42
0.4142135623731
 10
185.6894620431437
 20
1103.243309227196
 42
0.4142135623731
 10
186.1894620431437
 20
1102.743309227196
 42
0.4142135623731
  0
LWPOLYLINE
  5
1C3
330
1F
100
AcDbEntity
  8
C-4
  6
Continuous
 62
     7
370
     5
100
AcDbPolyline
 90
        4
 70
     1
 43
1.0
 10
-321.3111747019998
 20
1158.243243243243
 42
0.4142135623731
 10
-321.8111747019998
 20
1158.743243243243
 42
0.4142135623731
 10
-322.3111747019998
 20
1158.243243243243
 42
0.4142135623731
 10
-321.8111747019998
 20
1157.743243243243
 42
0.4142135623731
  0
LWPOLYLINE
  5
1C4
330
1F
100
AcDbEntity
  8
C-4
  6
Continuous
 62
     7
370
     5
100
AcDbPolyline
 90
        4
 70
     1
 43
1.0
 10
194.6891915089377
 20
1158.243243243243
 42
0.4142135623731
 10
194.1891915089377
 20
1158.743243243243
 42
0.4142135623731
 10
193.6891915089377
 20
1158.243243243243
 42
0.4142135623731
 10
194.1891915089377
 20
1157.743243243243
 42
0.4142135623731
  0
LWPOLYLINE
  5
1C5
330
1F
100
AcDbEntity
  8
C-4
  6
Continuous
 62
     7
370
     5
100
AcDbPolyline
 90
        4
 70
     1
 43
1.0
 10
-288.3104967168857
 20
1048.244117530617
 42
0.4142135623731
 10
-288.8104967168857
 20
1048.744117530617
 42
0.4142135623731
 10
-289.3104967168857
 20
1048.244117530617
 42
0.4142135623731
 10
-288.8104967168857
 20
1047.744117530617
 42
0.4142135623731
  0
LWPOLYLINE
  5
1C6
330
1F
100
AcDbEntity
  8
C-4
  6
Continuous
 62
     7
370
     5
100
AcDbPolyline
 90
        4
 70
     1
 43
1.0
 10
161.6901218826708
 20
1048.244117530617
 42
0.4142135623731
 10
161.1901218826708
 20
1048.744117530617
 42
0.4142135623731
 10
160.6901218826708
 20
1048.244117530617
 42
0.4142135623731
 10
161.1901218826708
 20
1047.744117530617
 42
0.4142135623731
  0
LWPOLYLINE
  5
1C7
330
1F
100
AcDbEntity
  8
C-4
  6
Continuous
 62
     7
370
     5
100
AcDbPolyline
 90
        4
 70
     1
 43
1.0
 10
-313.3109503565607
 20
1048.244117530617
 42
0.4142135623731
 10
-313.8109503565607
 20
1048.744117530617
 42
0.4142135623731
 10
-314.3109503565607
 20
1048.244117530617
 42
0.4142135623731
 10
-313.8109503565607
 20
1047.744117530617
 42
0.4142135623731
  0
LWPOLYLINE
  5
1C8
330
1F
100
AcDbEntity
  8
C-4
  6
Continuous
 62
     7
370
     5
100
AcDbPolyline
 90
        4
 70
     1
 43
1.0
 10
186.6894620431437
 20
1048.244117530617
 42
0.4142135623731
 10
186.1894620431437
 20
1048.744117530617
 42
0.4142135623731
 10
185.6894620431437
 20
1048.244117530617
 42
0.4142135623731
 10
186.1894620431437
 20
1047.744117530617
 42
0.4142135623731
  0
LWPOLYLINE
  5
1C9
330
1F
100
AcDbEntity
  8
C-4
  6
Continuous
 62
     7
370
     5
100
AcDbPolyline
 90
        4
 70
     1
 43
1.0
 10
-314.3112258395631
 20
1103.243309227196
 42
0.4142135623731
 10
-314.8112258395631
 20
1103.743309227196
 42
0.4142135623731
 10
-315.3112258395631
 20
1103.243309227196
 42
0.4142135623731
 10
-314.8112258395631
 20
1102.743309227196
 42
0.4142135623731
  0
LWPOLYLINE
  5
1CA
330
1F
100
AcDbEntity
  8
C-4
  6
Continuous
 62
     7
370
     5
100
AcDbPolyline
 90
        4
 70
     1
 43
1.0
 10
-321.3111747019998
 20
1103.243309227196
 42
0.4142135623731
 10
-321.8111747019998
 20
1103.743309227196
 42
0.4142135623731
 10
-322.3111747019998
 20
1103.243309227196
 42
0.4142135623731
 10
-321.8111747019998
 20
1102.743309227196
 42
0.4142135623731
  0
LWPOLYLINE
  5
1CB
330
1F
100
AcDbEntity
  8
C-4
  6
Continuous
 62
     7
370
     5
100
AcDbPolyline
 90
        4
 70
     1
 43
1.0
 10
187.6893663664125
 20
1103.243309227196
 42
0.4142135623731
 10
187.1893663664125
 20
1103.743309227196
 42
0.4142135623731
 10
186.6893663664125
 20
1103.243309227196
 42
0.4142135623731
 10
187.1893663664125
 20
1102.743309227196
 42
0.4142135623731
  0
LWPOLYLINE
  5
1CC
330
1F
100
AcDbEntity
  8
C-4
  6
Continuous
 62
     7
370
     5
100
AcDbPolyline
 90
        4
 70
     1
 43
1.0
 10
194.6891915089377
 20
1103.243309227196
 42
0.4142135623731
 10
194.1891915089377
 20
1103.743309227196
 42
0.4142135623731
 10
193.6891915089377
 20
1103.243309227196
 42
0.4142135623731
 10
194.1891915089377
 20
1102.743309227196
 42
0.4142135623731
  0
LWPOLYLINE
  5
1CD
330
1F
100
AcDbEntity
  8
C-4
  6
Continuous
 62
     7
370
     5
100
AcDbPolyline
 90
        4
 70
     1
 43
1.0
 10
-263.3106616767675
 20
400.8658249313768
 42
0.4142135623731
 10
-263.8106616767675
 20
401.3658249313768
 42
0.4142135623731
 10
-264.3106616767675
 20
400.8658249313768
 42
0.4142135623731
 10
-263.8106616767675
 20
400.3658249313769
 42
0.4142135623731
  0
LWPOLYLINE
  5
1CE
330
1F
100
AcDbEntity
  8
C-4
  6
Continuous
 62
     7
370
     5
100
AcDbPolyline
 90
        4
 70
     1
 43
1.0
 10
-183.3107689006907
 20
400.8658249313768
 42
0.4142135623731
 10
-183.8107689006907
 20
401.3658249313768
 42
0.4142135623731
 10
-184.3107689006907
 20
400.8658249313768
 42
0.4142135623731
 10
-183.8107689006907
 20
400.3658249313769
 42
0.4142135623731
  0
LWPOLYLINE
  5
1CF
330
1F
100
AcDbEntity
  8
C-4
  6
Continuous
 62
     7
370
     5
100
AcDbPolyline
 90
        4
 70
     1
 43
1.0
 10
-344.3287693229881
 20
518.2441010346283
 42
0.4142135623731
 10
-344.8287693229881
 20
518.7441010346283
 42
0.4142135623731
 10
-345.328769322988
 20
518.2441010346283
 42
0.4142135623731
 10
-344.8287693229881
 20
517.7441010346284
 42
0.4142135623731
  0
LWPOLYLINE
  5
1D0
330
1F
100
AcDbEntity
  8
C-4
  6
Continuous
 62
     7
370
     5
100
AcDbPolyline
 90
        4
 70
     1
 43
1.0
 10
-344.3287693229881
 20
568.2440185546875
 42
0.4142135623731
 10
-344.8287693229881
 20
568.7440185546875
 42
0.4142135623731
 10
-345.328769322988
 20
568.2440185546875
 42
0.4142135623731
 10
-344.8287693229881
 20
567.7440185546875
 42
0.4142135623731
  0
LWPOLYLINE
  5
1D1
330
1F
100
AcDbEntity
  8
D-4
  6
Continuous
 62
     7
370
     5
100
AcDbPolyline
 90
        4
 70
     1
 43
1.0
 10
-462.0675652478191
 20
15.0
 42
0.4142135623731
 10
-462.5675652478191
 20
15.5
 42
0.4142135623731
 10
-463.0675652478191
 20
15.0
 42
0.4142135623731
 10
-462.5675652478191
 20
14.5
 42
0.4142135623731
  0
LWPOLYLINE
  5
1D2
330
1F
100
AcDbEntity
  8
D-4
  6
Continuous
 62
     7
370
     5
100
AcDbPolyline
 90
        4
 70
     1
 43
1.0
 10
-492.0666744644576
 20
-95.69566881334453
 42
0.4142135623731
 10
-492.5666744644576
 20
-95.19566881334453
 42
0.4142135623731
 10
-493.0666744644576
 20
-95.69566881334453
 42
0.4142135623731
 10
-492.5666744644576
 20
-96.19566881334453
 42
0.4142135623731
  0
LWPOLYLINE
  5
1D3
330
1F
100
AcDbEntity
  8
D-4
  6
Continuous
 62
     7
370
     5
100
AcDbPolyline
 90
        4
 70
     1
 43
1.0
 10
-487.066410528647
 20
-95.69566881334453
 42
0.4142135623731
 10
-487.5664105286469
 20
-95.19566881334453
 42
0.4142135623731
 10
-488.0664105286469
 20
-95.69566881334453
 42
0.4142135623731
 10
-487.5664105286469
 20
-96.19566881334453
 42
0.4142135623731
  0
LWPOLYLINE
  5
1D4
330
1F
100
AcDbEntity
  8
D-4
  6
Continuous
 62
     7
370
     5
100
AcDbPolyline
 90
        4
 70
     1
 43
1.0
 10
-462.0675652478191
 20
-95.69566881334453
 42
0.4142135623731
 10
-462.5675652478191
 20
-95.19566881334453
 42
0.4142135623731
 10
-463.0675652478191
 20
-95.69566881334453
 42
0.4142135623731
 10
-462.5675652478191
 20
-96.19566881334453
 42
0.4142135623731
  0
LWPOLYLINE
  5
1D5
330
1F
100
AcDbEntity
  8
D-4
  6
Continuous
 62
     7
370
     5
100
AcDbPolyline
 90
        4
 70
     1
 43
1.0
 10
-617.0674580238959
 20
-204.4479452597128
 42
0.4142135623731
 10
-617.5674580238958
 20
-203.9479452597128
 42
0.4142135623731
 10
-618.0674580238958
 20
-204.4479452597128
 42
0.4142135623731
 10
-617.5674580238958
 20
-204.9479452597128
 42
0.4142135623731
  0
LWPOLYLINE
  5
1D6
330
1F
100
AcDbEntity
  8
D-4
  6
Continuous
 62
     7
370
     5
100
AcDbPolyline
 90
        4
 70
     1
 43
1.0
 10
-492.0666744644576
 20
-204.4479452597128
 42
0.4142135623731
 10
-492.5666744644576
 20
-203.9479452597128
 42
0.4142135623731
 10
-493.0666744644576
 20
-204.4479452597128
 42
0.4142135623731
 10
-492.5666744644576
 20
-204.9479452597128
 42
0.4142135623731
  0
LWPOLYLINE
  5
1D7
330
1F
100
AcDbEntity
  8
D-4
  6
Continuous
 62
     7
370
     5
100
AcDbPolyline
 90
        4
 70
     1
 43
1.0
 10
-762.5499491820462
 20
-325.3673326646958
 42
0.4142135623731
 10
-763.0499491820462
 20
-324.8673326646958
 42
0.4142135623731
 10
-763.5499491820462
 20
-325.3673326646958
 42
0.4142135623731
 10
-763.0499491820462
 20
-325.8673326646958
 42
0.4142135623731
  0
LWPOLYLINE
  5
1D8
330
1F
100
AcDbEntity
  8
D-4
  6
Continuous
 62
     7
370
     5
100
AcDbPolyline
 90
        4
 70
     1
 43
1.0
 10
-762.5499491820462
 20
-450.367621344489
 42
0.4142135623731
 10
-763.0499491820462
 20
-449.867621344489
 42
0.4142135623731
 10
-763.5499491820462
 20
-450.367621344489
 42
0.4142135623731
 10
-763.0499491820462
 20
-450.8676213444889
 42
0.4142135623731
  0
LWPOLYLINE
  5
1D9
330
1F
100
AcDbEntity
  8
D-4
  6
Continuous
 62
     7
370
     5
100
AcDbPolyline
 90
        4
 70
     1
 43
1.0
 10
54.61796183199499
 20
-325.3673326646958
 42
0.4142135623731
 10
54.11796183199499
 20
-324.8673326646958
 42
0.4142135623731
 10
53.61796183199499
 20
-325.3673326646958
 42
0.4142135623731
 10
54.11796183199499
 20
-325.8673326646958
 42
0.4142135623731
  0
LWPOLYLINE
  5
1DA
330
1F
100
AcDbEntity
  8
D-4
  6
Continuous
 62
     7
370
     5
100
AcDbPolyline
 90
        4
 70
     1
 43
1.0
 10
54.61796183199499
 20
-575.367538864548
 42
0.4142135623731
 10
54.11796183199499
 20
-574.8675388645481
 42
0.4142135623731
 10
53.61796183199499
 20
-575.367538864548
 42
0.4142135623731
 10
54.11796183199499
 20
-575.867538864548
 42
0.4142135623731
  0
LWPOLYLINE
  5
1DB
330
1F
100
AcDbEntity
  8
D-4
  6
Continuous
 62
     7
370
     5
100
AcDbPolyline
 90
        4
 70
     1
 43
1.0
 10
-229.0168631785623
 20
-325.3673326646958
 42
0.4142135623731
 10
-229.5168631785623
 20
-324.8673326646958
 42
0.4142135623731
 10
-230.0168631785623
 20
-325.3673326646958
 42
0.4142135623731
 10
-229.5168631785623
 20
-325.8673326646958
 42
0.4142135623731
  0
LWPOLYLINE
  5
1DC
330
1F
100
AcDbEntity
  8
D-4
  6
Continuous
 62
     7
370
     5
100
AcDbPolyline
 90
        4
 70
     1
 43
1.0
 10
-229.0168631785623
 20
-410.3672419367609
 42
0.4142135623731
 10
-229.5168631785623
 20
-409.8672419367609
 42
0.4142135623731
 10
-230.0168631785623
 20
-410.3672419367609
 42
0.4142135623731
 10
-229.5168631785623
 20
-410.8672419367609
 42
0.4142135623731
  0
LWPOLYLINE
  5
1DD
330
1F
100
AcDbEntity
  8
D-4
  6
Continuous
 62
     7
370
     5
100
AcDbPolyline
 90
        4
 70
     1
 43
1.0
 10
-229.0168631785623
 20
-460.3677780563767
 42
0.4142135623731
 10
-229.5168631785623
 20
-459.8677780563767
 42
0.4142135623731
 10
-230.0168631785623
 20
-460.3677780563767
 42
0.4142135623731
 10
-229.5168631785623
 20
-460.8677780563767
 42
0.4142135623731
  0
LWPOLYLINE
  5
1DE
330
1F
100
AcDbEntity
  8
D-4
  6
Continuous
 62
     7
370
     5
100
AcDbPolyline
 90
        4
 70
     1
 43
1.0
 10
-462.0669466482626
 20
-515.8982230521536
 42
0.4142135623731
 10
-462.5669466482626
 20
-515.3982230521536
 42
0.4142135623731
 10
-463.0669466482625
 20
-515.8982230521536
 42
0.4142135623731
 10
-462.5669466482626
 20
-516.3982230521536
 42
0.4142135623731
  0
LWPOLYLINE
  5
1DF
330
1F
100
AcDbEntity
  8
D-4
  6
Continuous
 62
     7
370
     5
100
AcDbPolyline
 90
        4
 70
     1
 43
1.0
 10
-317.0668394243394
 20
-515.8982230521536
 42
0.4142135623731
 10
-317.5668394243394
 20
-515.3982230521536
 42
0.4142135623731
 10
-318.0668394243394
 20
-515.8982230521536
 42
0.4142135623731
 10
-317.5668394243394
 20
-516.3982230521536
 42
0.4142135623731
  0
LWPOLYLINE
  5
1E0
330
1F
100
AcDbEntity
  8
D-4
  6
Continuous
 62
     7
370
     5
100
AcDbPolyline
 90
        4
 70
     1
 43
1.0
 10
-617.0669631442506
 20
-730.986154917124
 42
0.4142135623731
 10
-617.5669631442506
 20
-730.4861549171242
 42
0.4142135623731
 10
-618.0669631442505
 20
-730.986154917124
 42
0.4142135623731
 10
-617.5669631442506
 20
-731.486154917124
 42
0.4142135623731
  0
LWPOLYLINE
  5
1E1
330
1F
100
AcDbEntity
  8
D-4
  6
Continuous
 62
     7
370
     5
100
AcDbPolyline
 90
        4
 70
     1
 43
1.0
 10
-467.0667157044282
 20
-730.986154917124
 42
0.4142135623731
 10
-467.5667157044282
 20
-730.4861549171242
 42
0.4142135623731
 10
-468.0667157044281
 20
-730.986154917124
 42
0.4142135623731
 10
-467.5667157044282
 20
-731.486154917124
 42
0.4142135623731
  0
LWPOLYLINE
  5
1E2
330
1F
100
AcDbEntity
  8
D-4
  6
Continuous
 62
     7
370
     5
100
AcDbPolyline
 90
        4
 70
     1
 43
1.0
 10
-617.0669631442506
 20
-885.4508353568411
 42
0.4142135623731
 10
-617.5669631442506
 20
-884.9508353568411
 42
0.4142135623731
 10
-618.0669631442505
 20
-885.4508353568411
 42
0.4142135623731
 10
-617.5669631442506
 20
-885.9508353568411
 42
0.4142135623731
  0
LWPOLYLINE
  5
1E3
330
1F
100
AcDbEntity
  8
D-4
  6
Continuous
 62
     7
370
     5
100
AcDbPolyline
 90
        4
 70
     1
 43
1.0
 10
-217.0660146249305
 20
-885.4508353568411
 42
0.4142135623731
 10
-217.5660146249305
 20
-884.9508353568411
 42
0.4142135623731
 10
-218.0660146249305
 20
-885.4508353568411
 42
0.4142135623731
 10
-217.5660146249305
 20
-885.9508353568411
 42
0.4142135623731
  0
LWPOLYLINE
  5
1E4
330
1F
100
AcDbEntity
  8
D-4
  6
Continuous
 62
     7
370
     5
100
AcDbPolyline
 90
        4
 70
     1
 43
1.0
 10
-973.793532242646
 20
-327.8672171927786
 42
0.4142135623731
 10
-974.293532242646
 20
-327.3672171927786
 42
0.4142135623731
 10
-974.793532242646
 20
-327.8672171927786
 42
0.4142135623731
 10
-974.293532242646
 20
-328.3672171927786
 42
0.4142135623731
  0
LWPOLYLINE
  5
1E5
330
1F
100
AcDbEntity
  8
D-4
  6
Continuous
 62
     7
370
     5
100
AcDbPolyline
 90
        4
 70
     1
 43
1.0
 10
-973.793532242646
 20
-342.8672666807432
 42
0.4142135623731
 10
-974.293532242646
 20
-342.3672666807432
 42
0.4142135623731
 10
-974.793532242646
 20
-342.8672666807432
 42
0.4142135623731
 10
-974.293532242646
 20
-343.3672666807432
 42
0.4142135623731
  0
TEXT
  5
1E6
330
1F
100
AcDbEntity
  8
D-5
  6
Continuous
 62
     7
370
     5
100
AcDbText
 10
-1553.711034156181
 20
-650.0301384343328
 30
0.0
 40
22.86
  1
（ＳＵＳ３０４）
 41
1.145833333333333
  7
ＭＳ ゴシック
100
AcDbText
  0
LINE
  5
1E7
330
1F
100
AcDbEntity
  8
D-5
  6
Continuous
 62
     7
370
     5
100
AcDbLine
 10
-1672.860582093258
 20
-613.6256944811022
 30
0.0
 11
-1136.787573066918
 21
-613.6256944811022
 31
0.0
  0
LINE
  5
1E8
330
1F
100
AcDbEntity
  8
D-2
  6
Continuous
 62
     6
370
     5
100
AcDbLine
 10
-667.5670043842211
 20
-467.8673079207136
 30
0.0
 11
-1165.236595514658
 21
-467.8673079207136
 31
0.0
  0
LINE
  5
1E9
330
1F
100
AcDbEntity
  8
D-2
  6
Continuous
 62
     6
370
     5
100
AcDbLine
 10
-667.5670043842211
 20
-342.8672666807432
 30
0.0
 11
-667.5670043842211
 21
-467.8673079207136
 31
0.0
  0
LINE
  5
1EA
330
1F
100
AcDbEntity
  8
C-B
  6
JWW_DASHED3
 62
     6
370
     5
100
AcDbLine
 10
-232.3112059412775
 20
503.243762042072
 30
0.0
 11
-236.3112059412775
 21
503.243762042072
 31
0.0
  0
LINE
  5
1EB
330
1F
100
AcDbEntity
  8
C-B
  6
JWW_DASHED3
 62
     6
370
     5
100
AcDbLine
 10
-236.3112059412775
 20
933.24379255965
 30
0.0
 11
-236.3112059412775
 21
503.243762042072
 31
0.0
  0
LINE
  5
1EC
330
1F
100
AcDbEntity
  8
C-B
  6
JWW_DASHED3
 62
     6
370
     5
100
AcDbLine
 10
-232.3112059412775
 20
933.24379255965
 30
0.0
 11
-236.3112059412775
 21
933.24379255965
 31
0.0
  0
LINE
  5
1ED
330
1F
100
AcDbEntity
  8
C-B
  6
JWW_DASHED3
 62
     6
370
     5
100
AcDbLine
 10
-232.3112059412775
 20
933.24379255965
 30
0.0
 11
-232.3112059412775
 21
503.243762042072
 31
0.0
  0
LINE
  5
1EE
330
1F
100
AcDbEntity
  8
C-B
  6
JWW_DASHED3
 62
     6
370
     5
100
AcDbLine
 10
108.6896638096991
 20
503.243762042072
 30
0.0
 11
104.689663809699
 21
503.243762042072
 31
0.0
  0
LINE
  5
1EF
330
1F
100
AcDbEntity
  8
C-B
  6
JWW_DASHED3
 62
     6
370
     5
100
AcDbLine
 10
108.6896638096991
 20
933.24379255965
 30
0.0
 11
104.689663809699
 21
933.24379255965
 31
0.0
  0
LINE
  5
1F0
330
1F
100
AcDbEntity
  8
C-B
  6
JWW_DASHED3
 62
     6
370
     5
100
AcDbLine
 10
108.6896638096991
 20
933.24379255965
 30
0.0
 11
108.6896638096991
 21
503.243762042072
 31
0.0
  0
LINE
  5
1F1
330
1F
100
AcDbEntity
  8
C-B
  6
JWW_DASHED3
 62
     6
370
     5
100
AcDbLine
 10
104.689663809699
 20
933.24379255965
 30
0.0
 11
104.689663809699
 21
503.243762042072
 31
0.0
  0
LINE
  5
1F2
330
1F
100
AcDbEntity
  8
D-0
  6
Continuous
 62
     7
370
     5
100
AcDbLine
 10
-190.7217945923676
 20
-346.3172745060275
 30
0.0
 11
-190.7217945923676
 21
-344.8169934105227
 31
0.0
  0
LINE
  5
1F3
330
1F
100
AcDbEntity
  8
D-0
  6
Continuous
 62
     7
370
     5
100
AcDbLine
 10
-190.7217945923676
 20
-344.8169934105227
 30
0.0
 11
-189.2217793335786
 21
-344.8169934105227
 31
0.0
  0
LINE
  5
1F4
330
1F
100
AcDbEntity
  8
D-0
  6
Continuous
 62
     7
370
     5
100
AcDbLine
 10
-189.2217793335786
 20
-344.8169934105227
 30
0.0
 11
-189.2217793335786
 21
-346.3172745060275
 31
0.0
  0
LINE
  5
1F5
330
1F
100
AcDbEntity
  8
D-0
  6
Continuous
 62
     7
370
     5
100
AcDbLine
 10
-189.2217793335786
 20
-346.3172745060275
 30
0.0
 11
-190.7217945923676
 21
-346.3172745060275
 31
0.0
  0
LINE
  5
1F6
330
1F
100
AcDbEntity
  8
D-0
  6
Continuous
 62
     7
370
     5
100
AcDbLine
 10
-139.9658741822114
 20
-349.02451508754
 30
0.0
 11
-139.9658741822114
 21
-347.5242351841281
 31
0.0
  0
LINE
  5
1F7
330
1F
100
AcDbEntity
  8
D-0
  6
Continuous
 62
     7
370
     5
100
AcDbLine
 10
-139.9658741822114
 20
-347.5242351841281
 30
0.0
 11
-138.4658207764497
 21
-347.5242351841281
 31
0.0
  0
LINE
  5
1F8
330
1F
100
AcDbEntity
  8
D-0
  6
Continuous
 62
     7
370
     5
100
AcDbLine
 10
-138.4658207764497
 20
-347.5242351841281
 30
0.0
 11
-138.4658207764497
 21
-349.02451508754
 31
0.0
  0
LINE
  5
1F9
330
1F
100
AcDbEntity
  8
D-0
  6
Continuous
 62
     7
370
     5
100
AcDbLine
 10
-138.4658207764497
 20
-349.02451508754
 30
0.0
 11
-139.9658741822114
 21
-349.02451508754
 31
0.0
  0
LINE
  5
1FA
330
1F
100
AcDbEntity
  8
D-0
  6
Continuous
 62
     7
370
     5
100
AcDbLine
 10
-74.99814652107858
 20
-346.9940828632663
 30
0.0
 11
-74.99814652107858
 21
-345.4938053440402
 31
0.0
  0
LINE
  5
1FB
330
1F
100
AcDbEntity
  8
D-0
  6
Continuous
 62
     7
370
     5
100
AcDbLine
 10
-74.99814652107858
 20
-345.4938053440402
 30
0.0
 11
-73.49809311531686
 21
-345.4938053440402
 31
0.0
  0
LINE
  5
1FC
330
1F
100
AcDbEntity
  8
D-0
  6
Continuous
 62
     7
370
     5
100
AcDbLine
 10
-73.49809311531686
 20
-345.4938053440402
 30
0.0
 11
-73.49809311531686
 21
-346.9940828632663
 31
0.0
  0
LINE
  5
1FD
330
1F
100
AcDbEntity
  8
D-0
  6
Continuous
 62
     7
370
     5
100
AcDbLine
 10
-73.49809311531686
 20
-346.9940828632663
 30
0.0
 11
-74.99814652107858
 21
-346.9940828632663
 31
0.0
  0
LINE
  5
1FE
330
1F
100
AcDbEntity
  8
D-0
  6
Continuous
 62
     7
370
     5
100
AcDbLine
 10
-99.3610920777192
 20
-379.4780086826632
 30
0.0
 11
-99.3610920777192
 21
-377.9777263950656
 31
0.0
  0
LINE
  5
1FF
330
1F
100
AcDbEntity
  8
D-0
  6
Continuous
 62
     7
370
     5
100
AcDbLine
 10
-99.3610920777192
 20
-377.9777263950656
 30
0.0
 11
-97.86103867195749
 21
-377.9777263950656
 31
0.0
  0
LINE
  5
200
330
1F
100
AcDbEntity
  8
D-0
  6
Continuous
 62
     7
370
     5
100
AcDbLine
 10
-97.86103867195749
 20
-377.9777263950656
 30
0.0
 11
-97.86103867195749
 21
-379.4780086826632
 31
0.0
  0
LINE
  5
201
330
1F
100
AcDbEntity
  8
D-0
  6
Continuous
 62
     7
370
     5
100
AcDbLine
 10
-97.86103867195749
 20
-379.4780086826632
 30
0.0
 11
-99.3610920777192
 21
-379.4780086826632
 31
0.0
  0
LINE
  5
202
330
1F
100
AcDbEntity
  8
D-0
  6
Continuous
 62
     7
370
     5
100
AcDbLine
 10
-149.9262776245942
 20
-383.4090589832614
 30
0.0
 11
-149.9262776245942
 21
-381.9087766956637
 31
0.0
  0
LINE
  5
203
330
1F
100
AcDbEntity
  8
D-0
  6
Continuous
 62
     7
370
     5
100
AcDbLine
 10
-149.9262776245942
 20
-381.9087766956637
 30
0.0
 11
-148.4262242188325
 21
-381.9087766956637
 31
0.0
  0
LINE
  5
204
330
1F
100
AcDbEntity
  8
D-0
  6
Continuous
 62
     7
370
     5
100
AcDbLine
 10
-148.4262242188325
 20
-381.9087766956637
 30
0.0
 11
-148.4262242188325
 21
-383.4090589832614
 31
0.0
  0
LINE
  5
205
330
1F
100
AcDbEntity
  8
D-0
  6
Continuous
 62
     7
370
     5
100
AcDbLine
 10
-148.4262242188325
 20
-383.4090589832614
 30
0.0
 11
-149.9262776245942
 21
-383.4090589832614
 31
0.0
  0
LINE
  5
206
330
1F
100
AcDbEntity
  8
D-0
  6
Continuous
 62
     7
370
     5
100
AcDbLine
 10
-167.0356526245942
 20
-417.3759197544406
 30
0.0
 11
-167.0356526245942
 21
-415.8756374668429
 31
0.0
  0
LINE
  5
207
330
1F
100
AcDbEntity
  8
D-0
  6
Continuous
 62
     7
370
     5
100
AcDbLine
 10
-167.0356526245942
 20
-415.8756374668429
 30
0.0
 11
-165.5356373658051
 21
-415.8756374668429
 31
0.0
  0
LINE
  5
208
330
1F
100
AcDbEntity
  8
D-0
  6
Continuous
 62
     7
370
     5
100
AcDbLine
 10
-165.5356373658051
 20
-415.8756374668429
 30
0.0
 11
-165.5356373658051
 21
-417.3759197544406
 31
0.0
  0
LINE
  5
209
330
1F
100
AcDbEntity
  8
D-0
  6
Continuous
 62
     7
370
     5
100
AcDbLine
 10
-165.5356373658051
 20
-417.3759197544406
 30
0.0
 11
-167.0356526245942
 21
-417.3759197544406
 31
0.0
  0
LINE
  5
20A
330
1F
100
AcDbEntity
  8
D-0
  6
Continuous
 62
     7
370
     5
100
AcDbLine
 10
-198.3921589722505
 20
-402.8041815113376
 30
0.0
 11
-198.3921589722505
 21
-401.3039039921115
 31
0.0
  0
LINE
  5
20B
330
1F
100
AcDbEntity
  8
D-0
  6
Continuous
 62
     7
370
     5
100
AcDbLine
 10
-198.3921589722505
 20
-401.3039039921115
 30
0.0
 11
-196.8921246399751
 21
-401.3039039921115
 31
0.0
  0
LINE
  5
20C
330
1F
100
AcDbEntity
  8
D-0
  6
Continuous
 62
     7
370
     5
100
AcDbLine
 10
-196.8921246399751
 20
-401.3039039921115
 30
0.0
 11
-196.8921246399751
 21
-402.8041815113376
 31
0.0
  0
LINE
  5
20D
330
1F
100
AcDbEntity
  8
D-0
  6
Continuous
 62
     7
370
     5
100
AcDbLine
 10
-196.8921246399751
 20
-402.8041815113376
 30
0.0
 11
-198.3921589722505
 21
-402.8041815113376
 31
0.0
  0
LINE
  5
20E
330
1F
100
AcDbEntity
  8
D-0
  6
Continuous
 62
     7
370
     5
100
AcDbLine
 10
-209.1163220276704
 20
-444.0242122959445
 30
0.0
 11
-209.1163220276704
 21
-442.5239300083468
 31
0.0
  0
LINE
  5
20F
330
1F
100
AcDbEntity
  8
D-0
  6
Continuous
 62
     7
370
     5
100
AcDbLine
 10
-209.1163220276704
 20
-442.5239300083468
 30
0.0
 11
-207.616287695395
 21
-442.5239300083468
 31
0.0
  0
LINE
  5
210
330
1F
100
AcDbEntity
  8
D-0
  6
Continuous
 62
     7
370
     5
100
AcDbLine
 10
-207.616287695395
 20
-442.5239300083468
 30
0.0
 11
-207.616287695395
 21
-444.0242122959445
 31
0.0
  0
LINE
  5
211
330
1F
100
AcDbEntity
  8
D-0
  6
Continuous
 62
     7
370
     5
100
AcDbLine
 10
-207.616287695395
 20
-444.0242122959445
 30
0.0
 11
-209.1163220276704
 21
-444.0242122959445
 31
0.0
  0
LINE
  5
212
330
1F
100
AcDbEntity
  8
D-0
  6
Continuous
 62
     7
370
     5
100
AcDbLine
 10
-171.7729725708833
 20
-452.5665878605197
 30
0.0
 11
-171.7729725708833
 21
-451.066305572922
 31
0.0
  0
LINE
  5
213
330
1F
100
AcDbEntity
  8
D-0
  6
Continuous
 62
     7
370
     5
100
AcDbLine
 10
-171.7729725708833
 20
-451.066305572922
 30
0.0
 11
-170.2729573120942
 21
-451.066305572922
 31
0.0
  0
LINE
  5
214
330
1F
100
AcDbEntity
  8
D-0
  6
Continuous
 62
     7
370
     5
100
AcDbLine
 10
-170.2729573120942
 20
-451.066305572922
 30
0.0
 11
-170.2729573120942
 21
-452.5665878605197
 31
0.0
  0
LINE
  5
215
330
1F
100
AcDbEntity
  8
D-0
  6
Continuous
 62
     7
370
     5
100
AcDbLine
 10
-170.2729573120942
 20
-452.5665878605197
 30
0.0
 11
-171.7729725708833
 21
-452.5665878605197
 31
0.0
  0
LINE
  5
216
330
1F
100
AcDbEntity
  8
D-0
  6
Continuous
 62
     7
370
     5
100
AcDbLine
 10
-119.5680394043794
 20
-457.2913765262912
 30
0.0
 11
-119.5680394043794
 21
-455.7911037754367
 31
0.0
  0
LINE
  5
217
330
1F
100
AcDbEntity
  8
D-0
  6
Continuous
 62
     7
370
     5
100
AcDbLine
 10
-119.5680394043794
 20
-455.7911037754367
 30
0.0
 11
-118.0679859986176
 21
-455.7911037754367
 31
0.0
  0
LINE
  5
218
330
1F
100
AcDbEntity
  8
D-0
  6
Continuous
 62
     7
370
     5
100
AcDbLine
 10
-118.0679859986176
 20
-455.7911037754367
 30
0.0
 11
-118.0679859986176
 21
-457.2913765262912
 31
0.0
  0
LINE
  5
219
330
1F
100
AcDbEntity
  8
D-0
  6
Continuous
 62
     7
370
     5
100
AcDbLine
 10
-118.0679859986176
 20
-457.2913765262912
 30
0.0
 11
-119.5680394043794
 21
-457.2913765262912
 31
0.0
  0
LINE
  5
21A
330
1F
100
AcDbEntity
  8
D-0
  6
Continuous
 62
     7
370
     5
100
AcDbLine
 10
-64.84697006844186
 20
-450.5361580204318
 30
0.0
 11
-64.84697006844186
 21
-449.0358757328341
 31
0.0
  0
LINE
  5
21B
330
1F
100
AcDbEntity
  8
D-0
  6
Continuous
 62
     7
370
     5
100
AcDbLine
 10
-64.84697006844186
 20
-449.0358757328341
 30
0.0
 11
-63.3469548096528
 21
-449.0358757328341
 31
0.0
  0
LINE
  5
21C
330
1F
100
AcDbEntity
  8
D-0
  6
Continuous
 62
     7
370
     5
100
AcDbLine
 10
-63.3469548096528
 20
-449.0358757328341
 30
0.0
 11
-63.3469548096528
 21
-450.5361580204318
 31
0.0
  0
LINE
  5
21D
330
1F
100
AcDbEntity
  8
D-0
  6
Continuous
 62
     7
370
     5
100
AcDbLine
 10
-63.3469548096528
 20
-450.5361580204318
 30
0.0
 11
-64.84697006844186
 21
-450.5361580204318
 31
0.0
  0
LINE
  5
21E
330
1F
100
AcDbEntity
  8
D-0
  6
Continuous
 62
     7
370
     5
100
AcDbLine
 10
-77.02844284676218
 20
-410.6083130192111
 30
0.0
 11
-77.02844284676218
 21
-409.1080307316134
 31
0.0
  0
LINE
  5
21F
330
1F
100
AcDbEntity
  8
D-0
  6
Continuous
 62
     7
370
     5
100
AcDbLine
 10
-77.02844284676218
 20
-409.1080307316134
 30
0.0
 11
-75.52838944100046
 21
-409.1080307316134
 31
0.0
  0
LINE
  5
220
330
1F
100
AcDbEntity
  8
D-0
  6
Continuous
 62
     7
370
     5
100
AcDbLine
 10
-75.52838944100046
 20
-409.1080307316134
 30
0.0
 11
-75.52838944100046
 21
-410.6083130192111
 31
0.0
  0
LINE
  5
221
330
1F
100
AcDbEntity
  8
D-0
  6
Continuous
 62
     7
370
     5
100
AcDbLine
 10
-75.52838944100046
 20
-410.6083130192111
 30
0.0
 11
-77.02844284676218
 21
-410.6083130192111
 31
0.0
  0
LINE
  5
222
330
1F
100
AcDbEntity
  8
D-0
  6
Continuous
 62
     7
370
     5
100
AcDbLine
 10
-437.4396099915376
 20
-339.898971254761
 30
0.0
 11
-437.4396099915376
 21
-338.3986913513492
 31
0.0
  0
LINE
  5
223
330
1F
100
AcDbEntity
  8
D-0
  6
Continuous
 62
     7
370
     5
100
AcDbLine
 10
-437.4396099915376
 20
-338.3986913513492
 30
0.0
 11
-435.9395804276338
 21
-338.3986913513492
 31
0.0
  0
LINE
  5
224
330
1F
100
AcDbEntity
  8
D-0
  6
Continuous
 62
     7
370
     5
100
AcDbLine
 10
-435.9395804276338
 20
-338.3986913513492
 30
0.0
 11
-435.9395804276338
 21
-339.898971254761
 31
0.0
  0
LINE
  5
225
330
1F
100
AcDbEntity
  8
D-0
  6
Continuous
 62
     7
370
     5
100
AcDbLine
 10
-435.9395804276338
 20
-339.898971254761
 30
0.0
 11
-437.4396099915376
 21
-339.898971254761
 31
0.0
  0
LINE
  5
226
330
1F
100
AcDbEntity
  8
D-0
  6
Continuous
 62
     7
370
     5
100
AcDbLine
 10
-410.6346287598481
 20
-357.5510358166049
 30
0.0
 11
-410.6346287598481
 21
-356.0507582973788
 31
0.0
  0
LINE
  5
227
330
1F
100
AcDbEntity
  8
D-0
  6
Continuous
 62
     7
370
     5
100
AcDbLine
 10
-410.6346287598481
 20
-356.0507582973788
 30
0.0
 11
-409.1345944275727
 21
-356.0507582973788
 31
0.0
  0
LINE
  5
228
330
1F
100
AcDbEntity
  8
D-0
  6
Continuous
 62
     7
370
     5
100
AcDbLine
 10
-409.1345944275727
 20
-356.0507582973788
 30
0.0
 11
-409.1345944275727
 21
-357.5510358166049
 31
0.0
  0
LINE
  5
229
330
1F
100
AcDbEntity
  8
D-0
  6
Continuous
 62
     7
370
     5
100
AcDbLine
 10
-409.1345944275727
 20
-357.5510358166049
 30
0.0
 11
-410.6346287598481
 21
-357.5510358166049
 31
0.0
  0
LINE
  5
22A
330
1F
100
AcDbEntity
  8
D-0
  6
Continuous
 62
     7
370
     5
100
AcDbLine
 10
-392.3289170136323
 20
-396.7777942966769
 30
0.0
 11
-392.3289170136323
 21
-395.2775167774508
 31
0.0
  0
LINE
  5
22B
330
1F
100
AcDbEntity
  8
D-0
  6
Continuous
 62
     7
370
     5
100
AcDbLine
 10
-392.3289170136323
 20
-395.2775167774508
 30
0.0
 11
-390.8288826813569
 21
-395.2775167774508
 31
0.0
  0
LINE
  5
22C
330
1F
100
AcDbEntity
  8
D-0
  6
Continuous
 62
     7
370
     5
100
AcDbLine
 10
-390.8288826813569
 20
-395.2775167774508
 30
0.0
 11
-390.8288826813569
 21
-396.7777942966769
 31
0.0
  0
LINE
  5
22D
330
1F
100
AcDbEntity
  8
D-0
  6
Continuous
 62
     7
370
     5
100
AcDbLine
 10
-390.8288826813569
 20
-396.7777942966769
 30
0.0
 11
-392.3289170136323
 21
-396.7777942966769
 31
0.0
  0
LINE
  5
22E
330
1F
100
AcDbEntity
  8
D-0
  6
Continuous
 62
     7
370
     5
100
AcDbLine
 10
-346.5643181671967
 20
-343.8215970348666
 30
0.0
 11
-346.5643181671967
 21
-342.3213183235476
 31
0.0
  0
LINE
  5
22F
330
1F
100
AcDbEntity
  8
D-0
  6
Continuous
 62
     7
370
     5
100
AcDbLine
 10
-346.5643181671967
 20
-342.3213183235476
 30
0.0
 11
-345.0642933716645
 21
-342.3213183235476
 31
0.0
  0
LINE
  5
230
330
1F
100
AcDbEntity
  8
D-0
  6
Continuous
 62
     7
370
     5
100
AcDbLine
 10
-345.0642933716645
 20
-342.3213183235476
 30
0.0
 11
-345.0642933716645
 21
-343.8215970348666
 31
0.0
  0
LINE
  5
231
330
1F
100
AcDbEntity
  8
D-0
  6
Continuous
 62
     7
370
     5
100
AcDbLine
 10
-345.0642933716645
 20
-343.8215970348666
 30
0.0
 11
-346.5643181671967
 21
-343.8215970348666
 31
0.0
  0
LINE
  5
232
330
1F
100
AcDbEntity
  8
D-0
  6
Continuous
 62
     7
370
     5
100
AcDbLine
 10
-287.7241864075532
 20
-349.7057842563937
 30
0.0
 11
-287.7241864075532
 21
-348.2055043529818
 31
0.0
  0
LINE
  5
233
330
1F
100
AcDbEntity
  8
D-0
  6
Continuous
 62
     7
370
     5
100
AcDbLine
 10
-287.7241864075532
 20
-348.2055043529818
 30
0.0
 11
-286.2241520752778
 21
-348.2055043529818
 31
0.0
  0
LINE
  5
234
330
1F
100
AcDbEntity
  8
D-0
  6
Continuous
 62
     7
370
     5
100
AcDbLine
 10
-286.2241520752778
 20
-348.2055043529818
 30
0.0
 11
-286.2241520752778
 21
-349.7057842563937
 31
0.0
  0
LINE
  5
235
330
1F
100
AcDbEntity
  8
D-0
  6
Continuous
 62
     7
370
     5
100
AcDbLine
 10
-286.2241520752778
 20
-349.7057842563937
 30
0.0
 11
-287.7241864075532
 21
-349.7057842563937
 31
0.0
  0
LINE
  5
236
330
1F
100
AcDbEntity
  8
D-0
  6
Continuous
 62
     7
370
     5
100
AcDbLine
 10
-307.3375668396821
 20
-371.280476982529
 30
0.0
 11
-307.3375668396821
 21
-369.7801994633029
 31
0.0
  0
LINE
  5
237
330
1F
100
AcDbEntity
  8
D-0
  6
Continuous
 62
     7
370
     5
100
AcDbLine
 10
-307.3375668396821
 20
-369.7801994633029
 30
0.0
 11
-305.8375325074067
 21
-369.7801994633029
 31
0.0
  0
LINE
  5
238
330
1F
100
AcDbEntity
  8
D-0
  6
Continuous
 62
     7
370
     5
100
AcDbLine
 10
-305.8375325074067
 20
-369.7801994633029
 30
0.0
 11
-305.8375325074067
 21
-371.280476982529
 31
0.0
  0
LINE
  5
239
330
1F
100
AcDbEntity
  8
D-0
  6
Continuous
 62
     7
370
     5
100
AcDbLine
 10
-305.8375325074067
 20
-371.280476982529
 30
0.0
 11
-307.3375668396821
 21
-371.280476982529
 31
0.0
  0
LINE
  5
23A
330
1F
100
AcDbEntity
  8
D-0
  6
Continuous
 62
     7
370
     5
100
AcDbLine
 10
-294.2620243897309
 20
-396.1242698978732
 30
0.0
 11
-294.2620243897309
 21
-394.6239923786471
 31
0.0
  0
LINE
  5
23B
330
1F
100
AcDbEntity
  8
D-0
  6
Continuous
 62
     7
370
     5
100
AcDbLine
 10
-294.2620243897309
 20
-394.6239923786471
 30
0.0
 11
-292.7619900574555
 21
-394.6239923786471
 31
0.0
  0
LINE
  5
23C
330
1F
100
AcDbEntity
  8
D-0
  6
Continuous
 62
     7
370
     5
100
AcDbLine
 10
-292.7619900574555
 20
-394.6239923786471
 30
0.0
 11
-292.7619900574555
 21
-396.1242698978732
 31
0.0
  0
LINE
  5
23D
330
1F
100
AcDbEntity
  8
D-0
  6
Continuous
 62
     7
370
     5
100
AcDbLine
 10
-292.7619900574555
 20
-396.1242698978732
 30
0.0
 11
-294.2620243897309
 21
-396.1242698978732
 31
0.0
  0
LINE
  5
23E
330
1F
100
AcDbEntity
  8
D-0
  6
Continuous
 62
     7
370
     5
100
AcDbLine
 10
-290.3392758240571
 20
-434.6970104526828
 30
0.0
 11
-290.3392758240571
 21
-433.1967281650851
 31
0.0
  0
LINE
  5
23F
330
1F
100
AcDbEntity
  8
D-0
  6
Continuous
 62
     7
370
     5
100
AcDbLine
 10
-290.3392758240571
 20
-433.1967281650851
 30
0.0
 11
-288.8392414917817
 21
-433.1967281650851
 31
0.0
  0
LINE
  5
240
330
1F
100
AcDbEntity
  8
D-0
  6
Continuous
 62
     7
370
     5
100
AcDbLine
 10
-288.8392414917817
 20
-433.1967281650851
 30
0.0
 11
-288.8392414917817
 21
-434.6970104526828
 31
0.0
  0
LINE
  5
241
330
1F
100
AcDbEntity
  8
D-0
  6
Continuous
 62
     7
370
     5
100
AcDbLine
 10
-288.8392414917817
 20
-434.6970104526828
 30
0.0
 11
-290.3392758240571
 21
-434.6970104526828
 31
0.0
  0
LINE
  5
242
330
1F
100
AcDbEntity
  8
D-0
  6
Continuous
 62
     7
370
     5
100
AcDbLine
 10
-118.0574574341645
 20
-419.7259258579562
 30
0.0
 11
-118.0574574341645
 21
-418.2256435703586
 31
0.0
  0
LINE
  5
243
330
1F
100
AcDbEntity
  8
D-0
  6
Continuous
 62
     7
370
     5
100
AcDbLine
 10
-118.0574574341645
 20
-418.2256435703586
 30
0.0
 11
-116.5574421753755
 21
-418.2256435703586
 31
0.0
  0
LINE
  5
244
330
1F
100
AcDbEntity
  8
D-0
  6
Continuous
 62
     7
370
     5
100
AcDbLine
 10
-116.5574421753755
 20
-418.2256435703586
 30
0.0
 11
-116.5574421753755
 21
-419.7259258579562
 31
0.0
  0
LINE
  5
245
330
1F
100
AcDbEntity
  8
D-0
  6
Continuous
 62
     7
370
     5
100
AcDbLine
 10
-116.5574421753755
 20
-419.7259258579562
 30
0.0
 11
-118.0574574341645
 21
-419.7259258579562
 31
0.0
  0
LINE
  5
246
330
1F
100
AcDbEntity
  8
D-0
  6
Continuous
 62
     7
370
     5
100
AcDbLine
 10
-57.57226608894968
 20
-380.237562591965
 30
0.0
 11
-57.57226608894968
 21
-378.7372803043673
 31
0.0
  0
LINE
  5
247
330
1F
100
AcDbEntity
  8
D-0
  6
Continuous
 62
     7
370
     5
100
AcDbLine
 10
-57.57226608894968
 20
-378.7372803043673
 30
0.0
 11
-56.07221268318796
 21
-378.7372803043673
 31
0.0
  0
LINE
  5
248
330
1F
100
AcDbEntity
  8
D-0
  6
Continuous
 62
     7
370
     5
100
AcDbLine
 10
-56.07221268318796
 20
-378.7372803043673
 30
0.0
 11
-56.07221268318796
 21
-380.237562591965
 31
0.0
  0
LINE
  5
249
330
1F
100
AcDbEntity
  8
D-0
  6
Continuous
 62
     7
370
     5
100
AcDbLine
 10
-56.07221268318796
 20
-380.237562591965
 30
0.0
 11
-57.57226608894968
 21
-380.237562591965
 31
0.0
  0
LINE
  5
24A
330
1F
100
AcDbEntity
  8
D-0
  6
Continuous
 62
     7
370
     5
100
AcDbLine
 10
-211.5727391114106
 20
-369.3446802448581
 30
0.0
 11
-211.5727391114106
 21
-367.844402725632
 31
0.0
  0
LINE
  5
24B
330
1F
100
AcDbEntity
  8
D-0
  6
Continuous
 62
     7
370
     5
100
AcDbLine
 10
-211.5727391114106
 20
-367.844402725632
 30
0.0
 11
-210.0727047791352
 21
-367.844402725632
 31
0.0
  0
LINE
  5
24C
330
1F
100
AcDbEntity
  8
D-0
  6
Continuous
 62
     7
370
     5
100
AcDbLine
 10
-210.0727047791352
 20
-367.844402725632
 30
0.0
 11
-210.0727047791352
 21
-369.3446802448581
 31
0.0
  0
LINE
  5
24D
330
1F
100
AcDbEntity
  8
D-0
  6
Continuous
 62
     7
370
     5
100
AcDbLine
 10
-210.0727047791352
 20
-369.3446802448581
 30
0.0
 11
-211.5727391114106
 21
-369.3446802448581
 31
0.0
  0
LINE
  5
24E
330
1F
100
AcDbEntity
  8
D-0
  6
Continuous
 62
     7
370
     5
100
AcDbLine
 10
-294.9227299561372
 20
-492.5950168918918
 30
0.0
 11
-294.9227299561372
 21
-491.0947346042941
 31
0.0
  0
LINE
  5
24F
330
1F
100
AcDbEntity
  8
D-0
  6
Continuous
 62
     7
370
     5
100
AcDbLine
 10
-294.9227299561372
 20
-491.0947346042941
 30
0.0
 11
-293.4226956238618
 21
-491.0947346042941
 31
0.0
  0
LINE
  5
250
330
1F
100
AcDbEntity
  8
D-0
  6
Continuous
 62
     7
370
     5
100
AcDbLine
 10
-293.4226956238618
 20
-491.0947346042941
 30
0.0
 11
-293.4226956238618
 21
-492.5950168918918
 31
0.0
  0
LINE
  5
251
330
1F
100
AcDbEntity
  8
D-0
  6
Continuous
 62
     7
370
     5
100
AcDbLine
 10
-293.4226956238618
 20
-492.5950168918918
 30
0.0
 11
-294.9227299561372
 21
-492.5950168918918
 31
0.0
  0
LINE
  5
252
330
1F
100
AcDbEntity
  8
D-0
  6
Continuous
 62
     7
370
     5
100
AcDbLine
 10
-245.5580487122407
 20
-500.4932903599093
 30
0.0
 11
-245.5580487122407
 21
-498.9930080723117
 31
0.0
  0
LINE
  5
253
330
1F
100
AcDbEntity
  8
D-0
  6
Continuous
 62
     7
370
     5
100
AcDbLine
 10
-245.5580487122407
 20
-498.9930080723117
 30
0.0
 11
-244.0580334534516
 21
-498.9930080723117
 31
0.0
  0
LINE
  5
254
330
1F
100
AcDbEntity
  8
D-0
  6
Continuous
 62
     7
370
     5
100
AcDbLine
 10
-244.0580334534516
 20
-498.9930080723117
 30
0.0
 11
-244.0580334534516
 21
-500.4932903599093
 31
0.0
  0
LINE
  5
255
330
1F
100
AcDbEntity
  8
D-0
  6
Continuous
 62
     7
370
     5
100
AcDbLine
 10
-244.0580334534516
 20
-500.4932903599093
 30
0.0
 11
-245.5580487122407
 21
-500.4932903599093
 31
0.0
  0
LINE
  5
256
330
1F
100
AcDbEntity
  8
D-0
  6
Continuous
 62
     7
370
     5
100
AcDbLine
 10
-262.4393048157563
 20
-521.0740589451144
 30
0.0
 11
-262.4393048157563
 21
-519.5737766575168
 31
0.0
  0
LINE
  5
257
330
1F
100
AcDbEntity
  8
D-0
  6
Continuous
 62
     7
370
     5
100
AcDbLine
 10
-262.4393048157563
 20
-519.5737766575168
 30
0.0
 11
-260.9392704834809
 21
-519.5737766575168
 31
0.0
  0
LINE
  5
258
330
1F
100
AcDbEntity
  8
D-0
  6
Continuous
 62
     7
370
     5
100
AcDbLine
 10
-260.9392704834809
 20
-519.5737766575168
 30
0.0
 11
-260.9392704834809
 21
-521.0740589451144
 31
0.0
  0
LINE
  5
259
330
1F
100
AcDbEntity
  8
D-0
  6
Continuous
 62
     7
370
     5
100
AcDbLine
 10
-260.9392704834809
 20
-521.0740589451144
 30
0.0
 11
-262.4393048157563
 21
-521.0740589451144
 31
0.0
  0
LINE
  5
25A
330
1F
100
AcDbEntity
  8
D-0
  6
Continuous
 62
     7
370
     5
100
AcDbLine
 10
-310.7195057740083
 20
-555.7821392368625
 30
0.0
 11
-310.7195057740083
 21
-554.2818760227511
 31
0.0
  0
LINE
  5
25B
330
1F
100
AcDbEntity
  8
D-0
  6
Continuous
 62
     7
370
     5
100
AcDbLine
 10
-310.7195057740083
 20
-554.2818760227511
 30
0.0
 11
-309.2194714417329
 21
-554.2818760227511
 31
0.0
  0
LINE
  5
25C
330
1F
100
AcDbEntity
  8
D-0
  6
Continuous
 62
     7
370
     5
100
AcDbLine
 10
-309.2194714417329
 20
-554.2818760227511
 30
0.0
 11
-309.2194714417329
 21
-555.7821392368625
 31
0.0
  0
LINE
  5
25D
330
1F
100
AcDbEntity
  8
D-0
  6
Continuous
 62
     7
370
     5
100
AcDbLine
 10
-309.2194714417329
 20
-555.7821392368625
 30
0.0
 11
-310.7195057740083
 21
-555.7821392368625
 31
0.0
  0
LINE
  5
25E
330
1F
100
AcDbEntity
  8
D-0
  6
Continuous
 62
     7
370
     5
100
AcDbLine
 10
-239.634224401938
 20
-553.8072132419894
 30
0.0
 11
-239.634224401938
 21
-552.3069309543918
 31
0.0
  0
LINE
  5
25F
330
1F
100
AcDbEntity
  8
D-0
  6
Continuous
 62
     7
370
     5
100
AcDbLine
 10
-239.634224401938
 20
-552.3069309543918
 30
0.0
 11
-238.1342091431489
 21
-552.3069309543918
 31
0.0
  0
LINE
  5
260
330
1F
100
AcDbEntity
  8
D-0
  6
Continuous
 62
     7
370
     5
100
AcDbLine
 10
-238.1342091431489
 20
-552.3069309543918
 30
0.0
 11
-238.1342091431489
 21
-553.8072132419894
 31
0.0
  0
LINE
  5
261
330
1F
100
AcDbEntity
  8
D-0
  6
Continuous
 62
     7
370
     5
100
AcDbLine
 10
-238.1342091431489
 20
-553.8072132419894
 30
0.0
 11
-239.634224401938
 21
-553.8072132419894
 31
0.0
  0
LINE
  5
262
330
1F
100
AcDbEntity
  8
D-0
  6
Continuous
 62
     7
370
     5
100
AcDbLine
 10
-606.9080223908295
 20
-401.7636989902804
 30
0.0
 11
-606.9080223908295
 21
-400.2634167026828
 31
0.0
  0
LINE
  5
263
330
1F
100
AcDbEntity
  8
D-0
  6
Continuous
 62
     7
370
     5
100
AcDbLine
 10
-606.9080223908295
 20
-400.2634167026828
 30
0.0
 11
-605.4079880585541
 21
-400.2634167026828
 31
0.0
  0
LINE
  5
264
330
1F
100
AcDbEntity
  8
D-0
  6
Continuous
 62
     7
370
     5
100
AcDbLine
 10
-605.4079880585541
 20
-400.2634167026828
 30
0.0
 11
-605.4079880585541
 21
-401.7636989902804
 31
0.0
  0
LINE
  5
265
330
1F
100
AcDbEntity
  8
D-0
  6
Continuous
 62
     7
370
     5
100
AcDbLine
 10
-605.4079880585541
 20
-401.7636989902804
 30
0.0
 11
-606.9080223908295
 21
-401.7636989902804
 31
0.0
  0
LINE
  5
266
330
1F
100
AcDbEntity
  8
D-0
  6
Continuous
 62
     7
370
     5
100
AcDbLine
 10
-502.2547312846055
 20
-407.6875233005832
 30
0.0
 11
-502.2547312846055
 21
-406.1872410129855
 31
0.0
  0
LINE
  5
267
330
1F
100
AcDbEntity
  8
D-0
  6
Continuous
 62
     7
370
     5
100
AcDbLine
 10
-502.2547312846055
 20
-406.1872410129855
 30
0.0
 11
-500.7546993365159
 21
-406.1872410129855
 31
0.0
  0
LINE
  5
268
330
1F
100
AcDbEntity
  8
D-0
  6
Continuous
 62
     7
370
     5
100
AcDbLine
 10
-500.7546993365159
 20
-406.1872410129855
 30
0.0
 11
-500.7546993365159
 21
-407.6875233005832
 31
0.0
  0
LINE
  5
269
330
1F
100
AcDbEntity
  8
D-0
  6
Continuous
 62
     7
370
     5
100
AcDbLine
 10
-500.7546993365159
 20
-407.6875233005832
 30
0.0
 11
-502.2547312846055
 21
-407.6875233005832
 31
0.0
  0
LINE
  5
26A
330
1F
100
AcDbEntity
  8
D-0
  6
Continuous
 62
     7
370
     5
100
AcDbLine
 10
-541.7465653290619
 20
-405.7130836796115
 30
0.0
 11
-541.7465653290619
 21
-404.2128013920138
 31
0.0
  0
LINE
  5
26B
330
1F
100
AcDbEntity
  8
D-0
  6
Continuous
 62
     7
370
     5
100
AcDbLine
 10
-541.7465653290619
 20
-404.2128013920138
 30
0.0
 11
-540.2465357651581
 21
-404.2128013920138
 31
0.0
  0
LINE
  5
26C
330
1F
100
AcDbEntity
  8
D-0
  6
Continuous
 62
     7
370
     5
100
AcDbLine
 10
-540.2465357651581
 20
-404.2128013920138
 30
0.0
 11
-540.2465357651581
 21
-405.7130836796115
 31
0.0
  0
LINE
  5
26D
330
1F
100
AcDbEntity
  8
D-0
  6
Continuous
 62
     7
370
     5
100
AcDbLine
 10
-540.2465357651581
 20
-405.7130836796115
 30
0.0
 11
-541.7465653290619
 21
-405.7130836796115
 31
0.0
  0
LINE
  5
26E
330
1F
100
AcDbEntity
  8
D-0
  6
Continuous
 62
     7
370
     5
100
AcDbLine
 10
-597.035061346518
 20
-431.3828205417941
 30
0.0
 11
-597.035061346518
 21
-429.8825382541964
 31
0.0
  0
LINE
  5
26F
330
1F
100
AcDbEntity
  8
D-0
  6
Continuous
 62
     7
370
     5
100
AcDbLine
 10
-597.035061346518
 20
-429.8825382541964
 30
0.0
 11
-595.5350270142426
 21
-429.8825382541964
 31
0.0
  0
LINE
  5
270
330
1F
100
AcDbEntity
  8
D-0
  6
Continuous
 62
     7
370
     5
100
AcDbLine
 10
-595.5350270142426
 20
-429.8825382541964
 30
0.0
 11
-595.5350270142426
 21
-431.3828205417941
 31
0.0
  0
LINE
  5
271
330
1F
100
AcDbEntity
  8
D-0
  6
Continuous
 62
     7
370
     5
100
AcDbLine
 10
-595.5350270142426
 20
-431.3828205417941
 30
0.0
 11
-597.035061346518
 21
-431.3828205417941
 31
0.0
  0
LINE
  5
272
330
1F
100
AcDbEntity
  8
D-0
  6
Continuous
 62
     7
370
     5
100
AcDbLine
 10
-572.09278725289
 20
-404.8816847156833
 30
0.0
 11
-572.09278725289
 21
-403.3814024280856
 31
0.0
  0
LINE
  5
273
330
1F
100
AcDbEntity
  8
D-0
  6
Continuous
 62
     7
370
     5
100
AcDbLine
 10
-572.09278725289
 20
-403.3814024280856
 30
0.0
 11
-570.5927576889862
 21
-403.3814024280856
 31
0.0
  0
LINE
  5
274
330
1F
100
AcDbEntity
  8
D-0
  6
Continuous
 62
     7
370
     5
100
AcDbLine
 10
-570.5927576889862
 20
-403.3814024280856
 30
0.0
 11
-570.5927576889862
 21
-404.8816847156833
 31
0.0
  0
LINE
  5
275
330
1F
100
AcDbEntity
  8
D-0
  6
Continuous
 62
     7
370
     5
100
AcDbLine
 10
-570.5927576889862
 20
-404.8816847156833
 30
0.0
 11
-572.09278725289
 21
-404.8816847156833
 31
0.0
  0
LINE
  5
276
330
1F
100
AcDbEntity
  8
D-0
  6
Continuous
 62
     7
370
     5
100
AcDbLine
 10
-523.9752163758149
 20
-437.3066448520968
 30
0.0
 11
-523.9752163758149
 21
-435.8063625644992
 31
0.0
  0
LINE
  5
277
330
1F
100
AcDbEntity
  8
D-0
  6
Continuous
 62
     7
370
     5
100
AcDbLine
 10
-523.9752163758149
 20
-435.8063625644992
 30
0.0
 11
-522.4751844277253
 21
-435.8063625644992
 31
0.0
  0
LINE
  5
278
330
1F
100
AcDbEntity
  8
D-0
  6
Continuous
 62
     7
370
     5
100
AcDbLine
 10
-522.4751844277253
 20
-435.8063625644992
 30
0.0
 11
-522.4751844277253
 21
-437.3066448520968
 31
0.0
  0
LINE
  5
279
330
1F
100
AcDbEntity
  8
D-0
  6
Continuous
 62
     7
370
     5
100
AcDbLine
 10
-522.4751844277253
 20
-437.3066448520968
 30
0.0
 11
-523.9752163758149
 21
-437.3066448520968
 31
0.0
  0
LINE
  5
27A
330
1F
100
AcDbEntity
  8
D-0
  6
Continuous
 62
     7
370
     5
100
AcDbLine
 10
-595.060488211142
 20
-474.8235439609836
 30
0.0
 11
-595.060488211142
 21
-473.3232616733859
 31
0.0
  0
LINE
  5
27B
330
1F
100
AcDbEntity
  8
D-0
  6
Continuous
 62
     7
370
     5
100
AcDbLine
 10
-595.060488211142
 20
-473.3232616733859
 30
0.0
 11
-593.5604634156098
 21
-473.3232616733859
 31
0.0
  0
LINE
  5
27C
330
1F
100
AcDbEntity
  8
D-0
  6
Continuous
 62
     7
370
     5
100
AcDbLine
 10
-593.5604634156098
 20
-473.3232616733859
 30
0.0
 11
-593.5604634156098
 21
-474.8235439609836
 31
0.0
  0
LINE
  5
27D
330
1F
100
AcDbEntity
  8
D-0
  6
Continuous
 62
     7
370
     5
100
AcDbLine
 10
-593.5604634156098
 20
-474.8235439609836
 30
0.0
 11
-595.060488211142
 21
-474.8235439609836
 31
0.0
  0
LINE
  5
27E
330
1F
100
AcDbEntity
  8
D-0
  6
Continuous
 62
     7
370
     5
100
AcDbLine
 10
-535.8227410187592
 20
-579.4769596409152
 30
0.0
 11
-535.8227410187592
 21
-577.9766773533175
 31
0.0
  0
LINE
  5
27F
330
1F
100
AcDbEntity
  8
D-0
  6
Continuous
 62
     7
370
     5
100
AcDbLine
 10
-535.8227410187592
 20
-577.9766773533175
 30
0.0
 11
-534.3227114548554
 21
-577.9766773533175
 31
0.0
  0
LINE
  5
280
330
1F
100
AcDbEntity
  8
D-0
  6
Continuous
 62
     7
370
     5
100
AcDbLine
 10
-534.3227114548554
 20
-577.9766773533175
 30
0.0
 11
-534.3227114548554
 21
-579.4769596409152
 31
0.0
  0
LINE
  5
281
330
1F
100
AcDbEntity
  8
D-0
  6
Continuous
 62
     7
370
     5
100
AcDbLine
 10
-534.3227114548554
 20
-579.4769596409152
 30
0.0
 11
-535.8227410187592
 21
-579.4769596409152
 31
0.0
  0
LINE
  5
282
330
1F
100
AcDbEntity
  8
D-0
  6
Continuous
 62
     7
370
     5
100
AcDbLine
 10
-549.644958006369
 20
-638.714706833298
 30
0.0
 11
-549.644958006369
 21
-637.2144245457004
 31
0.0
  0
LINE
  5
283
330
1F
100
AcDbEntity
  8
D-0
  6
Continuous
 62
     7
370
     5
100
AcDbLine
 10
-549.644958006369
 20
-637.2144245457004
 30
0.0
 11
-548.1449236740937
 21
-637.2144245457004
 31
0.0
  0
LINE
  5
284
330
1F
100
AcDbEntity
  8
D-0
  6
Continuous
 62
     7
370
     5
100
AcDbLine
 10
-548.1449236740937
 20
-637.2144245457004
 30
0.0
 11
-548.1449236740937
 21
-638.714706833298
 31
0.0
  0
LINE
  5
285
330
1F
100
AcDbEntity
  8
D-0
  6
Continuous
 62
     7
370
     5
100
AcDbLine
 10
-548.1449236740937
 20
-638.714706833298
 30
0.0
 11
-549.644958006369
 21
-638.714706833298
 31
0.0
  0
LINE
  5
286
330
1F
100
AcDbEntity
  8
D-0
  6
Continuous
 62
     7
370
     5
100
AcDbLine
 10
-580.2511753907074
 20
-649.5749019932101
 30
0.0
 11
-580.2511753907074
 21
-648.0746197056125
 31
0.0
  0
LINE
  5
287
330
1F
100
AcDbEntity
  8
D-0
  6
Continuous
 62
     7
370
     5
100
AcDbLine
 10
-580.2511753907074
 20
-648.0746197056125
 30
0.0
 11
-578.7511505951752
 21
-648.0746197056125
 31
0.0
  0
LINE
  5
288
330
1F
100
AcDbEntity
  8
D-0
  6
Continuous
 62
     7
370
     5
100
AcDbLine
 10
-578.7511505951752
 20
-648.0746197056125
 30
0.0
 11
-578.7511505951752
 21
-649.5749019932101
 31
0.0
  0
LINE
  5
289
330
1F
100
AcDbEntity
  8
D-0
  6
Continuous
 62
     7
370
     5
100
AcDbLine
 10
-578.7511505951752
 20
-649.5749019932101
 30
0.0
 11
-580.2511753907074
 21
-649.5749019932101
 31
0.0
  0
LINE
  5
28A
330
1F
100
AcDbEntity
  8
D-0
  6
Continuous
 62
     7
370
     5
100
AcDbLine
 10
-603.1046738495697
 20
-583.4263347935031
 30
0.0
 11
-603.1046738495697
 21
-581.9260525059054
 31
0.0
  0
LINE
  5
28B
330
1F
100
AcDbEntity
  8
D-0
  6
Continuous
 62
     7
370
     5
100
AcDbLine
 10
-603.1046738495697
 20
-581.9260525059054
 30
0.0
 11
-601.6046395172943
 21
-581.9260525059054
 31
0.0
  0
LINE
  5
28C
330
1F
100
AcDbEntity
  8
D-0
  6
Continuous
 62
     7
370
     5
100
AcDbLine
 10
-601.6046395172943
 20
-581.9260525059054
 30
0.0
 11
-601.6046395172943
 21
-583.4263347935031
 31
0.0
  0
LINE
  5
28D
330
1F
100
AcDbEntity
  8
D-0
  6
Continuous
 62
     7
370
     5
100
AcDbLine
 10
-601.6046395172943
 20
-583.4263347935031
 30
0.0
 11
-603.1046738495697
 21
-583.4263347935031
 31
0.0
  0
LINE
  5
28E
330
1F
100
AcDbEntity
  8
D-0
  6
Continuous
 62
     7
370
     5
100
AcDbLine
 10
-577.2891392578949
 20
-561.7059826206515
 30
0.0
 11
-577.2891392578949
 21
-560.2057003330539
 31
0.0
  0
LINE
  5
28F
330
1F
100
AcDbEntity
  8
D-0
  6
Continuous
 62
     7
370
     5
100
AcDbLine
 10
-577.2891392578949
 20
-560.2057003330539
 30
0.0
 11
-575.7891144623627
 21
-560.2057003330539
 31
0.0
  0
LINE
  5
290
330
1F
100
AcDbEntity
  8
D-0
  6
Continuous
 62
     7
370
     5
100
AcDbLine
 10
-575.7891144623627
 20
-560.2057003330539
 30
0.0
 11
-575.7891144623627
 21
-561.7059826206515
 31
0.0
  0
LINE
  5
291
330
1F
100
AcDbEntity
  8
D-0
  6
Continuous
 62
     7
370
     5
100
AcDbLine
 10
-575.7891144623627
 20
-561.7059826206515
 30
0.0
 11
-577.2891392578949
 21
-561.7059826206515
 31
0.0
  0
LINE
  5
292
330
1F
100
AcDbEntity
  8
D-0
  6
Continuous
 62
     7
370
     5
100
AcDbLine
 10
-514.1022577156891
 20
-614.1989063572238
 30
0.0
 11
-514.1022577156891
 21
-612.6986240696261
 31
0.0
  0
LINE
  5
293
330
1F
100
AcDbEntity
  8
D-0
  6
Continuous
 62
     7
370
     5
100
AcDbLine
 10
-514.1022577156891
 20
-612.6986240696261
 30
0.0
 11
-512.6022257675995
 21
-612.6986240696261
 31
0.0
  0
LINE
  5
294
330
1F
100
AcDbEntity
  8
D-0
  6
Continuous
 62
     7
370
     5
100
AcDbLine
 10
-512.6022257675995
 20
-612.6986240696261
 30
0.0
 11
-512.6022257675995
 21
-614.1989063572238
 31
0.0
  0
LINE
  5
295
330
1F
100
AcDbEntity
  8
D-0
  6
Continuous
 62
     7
370
     5
100
AcDbLine
 10
-512.6022257675995
 20
-614.1989063572238
 30
0.0
 11
-514.1022577156891
 21
-614.1989063572238
 31
0.0
  0
LINE
  5
296
330
1F
100
AcDbEntity
  8
D-0
  6
Continuous
 62
     7
370
     5
100
AcDbLine
 10
-591.1113610138764
 20
-752.0779537510226
 30
0.0
 11
-591.1113610138764
 21
-750.577671463425
 31
0.0
  0
LINE
  5
297
330
1F
100
AcDbEntity
  8
D-0
  6
Continuous
 62
     7
370
     5
100
AcDbLine
 10
-591.1113610138764
 20
-750.577671463425
 30
0.0
 11
-589.611326681601
 21
-750.577671463425
 31
0.0
  0
LINE
  5
298
330
1F
100
AcDbEntity
  8
D-0
  6
Continuous
 62
     7
370
     5
100
AcDbLine
 10
-589.611326681601
 20
-750.577671463425
 30
0.0
 11
-589.611326681601
 21
-752.0779537510226
 31
0.0
  0
LINE
  5
299
330
1F
100
AcDbEntity
  8
D-0
  6
Continuous
 62
     7
370
     5
100
AcDbLine
 10
-589.611326681601
 20
-752.0779537510226
 30
0.0
 11
-591.1113610138764
 21
-752.0779537510226
 31
0.0
  0
LINE
  5
29A
330
1F
100
AcDbEntity
  8
D-0
  6
Continuous
 62
     7
370
     5
100
AcDbLine
 10
-520.7211007943024
 20
-755.7899975132297
 30
0.0
 11
-520.7211007943024
 21
-754.289715225632
 31
0.0
  0
LINE
  5
29B
330
1F
100
AcDbEntity
  8
D-0
  6
Continuous
 62
     7
370
     5
100
AcDbLine
 10
-520.7211007943024
 20
-754.289715225632
 30
0.0
 11
-519.2210688462128
 21
-754.289715225632
 31
0.0
  0
LINE
  5
29C
330
1F
100
AcDbEntity
  8
D-0
  6
Continuous
 62
     7
370
     5
100
AcDbLine
 10
-519.2210688462128
 20
-754.289715225632
 30
0.0
 11
-519.2210688462128
 21
-755.7899975132297
 31
0.0
  0
LINE
  5
29D
330
1F
100
AcDbEntity
  8
D-0
  6
Continuous
 62
     7
370
     5
100
AcDbLine
 10
-519.2210688462128
 20
-755.7899975132297
 30
0.0
 11
-520.7211007943024
 21
-755.7899975132297
 31
0.0
  0
LINE
  5
29E
330
1F
100
AcDbEntity
  8
D-0
  6
Continuous
 62
     7
370
     5
100
AcDbLine
 10
-496.3309066762795
 20
-781.6965984653781
 30
0.0
 11
-496.3309066762795
 21
-780.1963161777804
 31
0.0
  0
LINE
  5
29F
330
1F
100
AcDbEntity
  8
D-0
  6
Continuous
 62
     7
370
     5
100
AcDbLine
 10
-496.3309066762795
 20
-780.1963161777804
 30
0.0
 11
-494.8308748772016
 21
-780.1963161777804
 31
0.0
  0
LINE
  5
2A0
330
1F
100
AcDbEntity
  8
D-0
  6
Continuous
 62
     7
370
     5
100
AcDbLine
 10
-494.8308748772016
 20
-780.1963161777804
 30
0.0
 11
-494.8308748772016
 21
-781.6965984653781
 31
0.0
  0
LINE
  5
2A1
330
1F
100
AcDbEntity
  8
D-0
  6
Continuous
 62
     7
370
     5
100
AcDbLine
 10
-494.8308748772016
 20
-781.6965984653781
 30
0.0
 11
-496.3309066762795
 21
-781.6965984653781
 31
0.0
  0
LINE
  5
2A2
330
1F
100
AcDbEntity
  8
D-0
  6
Continuous
 62
     7
370
     5
100
AcDbLine
 10
-490.0520785918107
 20
-819.908611710007
 30
0.0
 11
-490.0520785918107
 21
-818.4083294224093
 31
0.0
  0
LINE
  5
2A3
330
1F
100
AcDbEntity
  8
D-0
  6
Continuous
 62
     7
370
     5
100
AcDbLine
 10
-490.0520785918107
 20
-818.4083294224093
 30
0.0
 11
-488.5520469417443
 21
-818.4083294224093
 31
0.0
  0
LINE
  5
2A4
330
1F
100
AcDbEntity
  8
D-0
  6
Continuous
 62
     7
370
     5
100
AcDbLine
 10
-488.5520469417443
 20
-818.4083294224093
 30
0.0
 11
-488.5520469417443
 21
-819.908611710007
 31
0.0
  0
LINE
  5
2A5
330
1F
100
AcDbEntity
  8
D-0
  6
Continuous
 62
     7
370
     5
100
AcDbLine
 10
-488.5520469417443
 20
-819.908611710007
 30
0.0
 11
-490.0520785918107
 21
-819.908611710007
 31
0.0
  0
LINE
  5
2A6
330
1F
100
AcDbEntity
  8
D-0
  6
Continuous
 62
     7
370
     5
100
AcDbLine
 10
-564.2806115021576
 20
-825.3672146152804
 30
0.0
 11
-564.2806115021576
 21
-823.8669323276828
 31
0.0
  0
LINE
  5
2A7
330
1F
100
AcDbEntity
  8
D-0
  6
Continuous
 62
     7
370
     5
100
AcDbLine
 10
-564.2806115021576
 20
-823.8669323276828
 30
0.0
 11
-562.7805771698822
 21
-823.8669323276828
 31
0.0
  0
LINE
  5
2A8
330
1F
100
AcDbEntity
  8
D-0
  6
Continuous
 62
     7
370
     5
100
AcDbLine
 10
-562.7805771698822
 20
-823.8669323276828
 30
0.0
 11
-562.7805771698822
 21
-825.3672146152804
 31
0.0
  0
LINE
  5
2A9
330
1F
100
AcDbEntity
  8
D-0
  6
Continuous
 62
     7
370
     5
100
AcDbLine
 10
-562.7805771698822
 20
-825.3672146152804
 30
0.0
 11
-564.2806115021576
 21
-825.3672146152804
 31
0.0
  0
LINE
  5
2AA
330
1F
100
AcDbEntity
  8
D-0
  6
Continuous
 62
     7
370
     5
100
AcDbLine
 10
-599.0096249451508
 20
-816.070721085007
 30
0.0
 11
-599.0096249451508
 21
-814.5704387974093
 31
0.0
  0
LINE
  5
2AB
330
1F
100
AcDbEntity
  8
D-0
  6
Continuous
 62
     7
370
     5
100
AcDbLine
 10
-599.0096249451508
 20
-814.5704387974093
 30
0.0
 11
-597.5095906128754
 21
-814.5704387974093
 31
0.0
  0
LINE
  5
2AC
330
1F
100
AcDbEntity
  8
D-0
  6
Continuous
 62
     7
370
     5
100
AcDbLine
 10
-597.5095906128754
 20
-814.5704387974093
 30
0.0
 11
-597.5095906128754
 21
-816.070721085007
 31
0.0
  0
LINE
  5
2AD
330
1F
100
AcDbEntity
  8
D-0
  6
Continuous
 62
     7
370
     5
100
AcDbLine
 10
-597.5095906128754
 20
-816.070721085007
 30
0.0
 11
-599.0096249451508
 21
-816.070721085007
 31
0.0
  0
LINE
  5
2AE
330
1F
100
AcDbEntity
  8
D-0
  6
Continuous
 62
     7
370
     5
100
AcDbLine
 10
-601.2210240235199
 20
-775.772755081589
 30
0.0
 11
-601.2210240235199
 21
-774.2724727939914
 31
0.0
  0
LINE
  5
2AF
330
1F
100
AcDbEntity
  8
D-0
  6
Continuous
 62
     7
370
     5
100
AcDbLine
 10
-601.2210240235199
 20
-774.2724727939914
 30
0.0
 11
-599.7209992279877
 21
-774.2724727939914
 31
0.0
  0
LINE
  5
2B0
330
1F
100
AcDbEntity
  8
D-0
  6
Continuous
 62
     7
370
     5
100
AcDbLine
 10
-599.7209992279877
 20
-774.2724727939914
 30
0.0
 11
-599.7209992279877
 21
-775.772755081589
 31
0.0
  0
LINE
  5
2B1
330
1F
100
AcDbEntity
  8
D-0
  6
Continuous
 62
     7
370
     5
100
AcDbLine
 10
-599.7209992279877
 20
-775.772755081589
 30
0.0
 11
-601.2210240235199
 21
-775.772755081589
 31
0.0
  0
LINE
  5
2B2
330
1F
100
AcDbEntity
  8
D-0
  6
Continuous
 62
     7
370
     5
100
AcDbLine
 10
-543.7211336960663
 20
-795.5186962436984
 30
0.0
 11
-543.7211336960663
 21
-794.0184139561007
 31
0.0
  0
LINE
  5
2B3
330
1F
100
AcDbEntity
  8
D-0
  6
Continuous
 62
     7
370
     5
100
AcDbLine
 10
-543.7211336960663
 20
-794.0184139561007
 30
0.0
 11
-542.2210993637909
 21
-794.0184139561007
 31
0.0
  0
LINE
  5
2B4
330
1F
100
AcDbEntity
  8
D-0
  6
Continuous
 62
     7
370
     5
100
AcDbLine
 10
-542.2210993637909
 20
-794.0184139561007
 30
0.0
 11
-542.2210993637909
 21
-795.5186962436984
 31
0.0
  0
LINE
  5
2B5
330
1F
100
AcDbEntity
  8
D-0
  6
Continuous
 62
     7
370
     5
100
AcDbLine
 10
-542.2210993637909
 20
-795.5186962436984
 30
0.0
 11
-543.7211336960663
 21
-795.5186962436984
 31
0.0
  0
LINE
  5
2B6
330
1F
100
AcDbEntity
  8
D-0
  6
Continuous
 62
     7
370
     5
100
AcDbLine
 10
-555.5686583390107
 20
-761.9506573032687
 30
0.0
 11
-555.5686583390107
 21
-760.450375015671
 31
0.0
  0
LINE
  5
2B7
330
1F
100
AcDbEntity
  8
D-0
  6
Continuous
 62
     7
370
     5
100
AcDbLine
 10
-555.5686583390107
 20
-760.450375015671
 30
0.0
 11
-554.0686240067353
 21
-760.450375015671
 31
0.0
  0
LINE
  5
2B8
330
1F
100
AcDbEntity
  8
D-0
  6
Continuous
 62
     7
370
     5
100
AcDbLine
 10
-554.0686240067353
 20
-760.450375015671
 30
0.0
 11
-554.0686240067353
 21
-761.9506573032687
 31
0.0
  0
LINE
  5
2B9
330
1F
100
AcDbEntity
  8
D-0
  6
Continuous
 62
     7
370
     5
100
AcDbLine
 10
-554.0686240067353
 20
-761.9506573032687
 30
0.0
 11
-555.5686583390107
 21
-761.9506573032687
 31
0.0
  0
LINE
  5
2BA
330
1F
100
AcDbEntity
  8
D-0
  6
Continuous
 62
     7
370
     5
100
AcDbLine
 10
-500.280164109694
 20
-647.7669262241672
 30
0.0
 11
-500.280164109694
 21
-646.2666439365695
 31
0.0
  0
LINE
  5
2BB
330
1F
100
AcDbEntity
  8
D-0
  6
Continuous
 62
     7
370
     5
100
AcDbLine
 10
-500.280164109694
 20
-646.2666439365695
 30
0.0
 11
-498.7801327576508
 21
-646.2666439365695
 31
0.0
  0
LINE
  5
2BC
330
1F
100
AcDbEntity
  8
D-0
  6
Continuous
 62
     7
370
     5
100
AcDbLine
 10
-498.7801327576508
 20
-646.2666439365695
 30
0.0
 11
-498.7801327576508
 21
-647.7669262241672
 31
0.0
  0
LINE
  5
2BD
330
1F
100
AcDbEntity
  8
D-0
  6
Continuous
 62
     7
370
     5
100
AcDbLine
 10
-498.7801327576508
 20
-647.7669262241672
 30
0.0
 11
-500.280164109694
 21
-647.7669262241672
 31
0.0
  0
LINE
  5
2BE
330
1F
100
AcDbEntity
  8
D-0
  6
Continuous
 62
     7
370
     5
100
AcDbLine
 10
-488.4326388707032
 20
-547.8833889316867
 30
0.0
 11
-488.4326388707032
 21
-546.383106644089
 31
0.0
  0
LINE
  5
2BF
330
1F
100
AcDbEntity
  8
D-0
  6
Continuous
 62
     7
370
     5
100
AcDbLine
 10
-488.4326388707032
 20
-546.383106644089
 30
0.0
 11
-486.9326069226136
 21
-546.383106644089
 31
0.0
  0
LINE
  5
2C0
330
1F
100
AcDbEntity
  8
D-0
  6
Continuous
 62
     7
370
     5
100
AcDbLine
 10
-486.9326069226136
 20
-546.383106644089
 30
0.0
 11
-486.9326069226136
 21
-547.8833889316867
 31
0.0
  0
LINE
  5
2C1
330
1F
100
AcDbEntity
  8
D-0
  6
Continuous
 62
     7
370
     5
100
AcDbLine
 10
-486.9326069226136
 20
-547.8833889316867
 30
0.0
 11
-488.4326388707032
 21
-547.8833889316867
 31
0.0
  0
LINE
  5
2C2
330
1F
100
AcDbEntity
  8
D-0
  6
Continuous
 62
     7
370
     5
100
AcDbLine
 10
-393.6523117890229
 20
-555.7821392368625
 30
0.0
 11
-393.6523117890229
 21
-554.2818760227511
 31
0.0
  0
LINE
  5
2C3
330
1F
100
AcDbEntity
  8
D-0
  6
Continuous
 62
     7
370
     5
100
AcDbLine
 10
-393.6523117890229
 20
-554.2818760227511
 30
0.0
 11
-392.1522774567475
 21
-554.2818760227511
 31
0.0
  0
LINE
  5
2C4
330
1F
100
AcDbEntity
  8
D-0
  6
Continuous
 62
     7
370
     5
100
AcDbLine
 10
-392.1522774567475
 20
-554.2818760227511
 30
0.0
 11
-392.1522774567475
 21
-555.7821392368625
 31
0.0
  0
LINE
  5
2C5
330
1F
100
AcDbEntity
  8
D-0
  6
Continuous
 62
     7
370
     5
100
AcDbLine
 10
-392.1522774567475
 20
-555.7821392368625
 30
0.0
 11
-393.6523117890229
 21
-555.7821392368625
 31
0.0
  0
LINE
  5
2C6
330
1F
100
AcDbEntity
  8
D-0
  6
Continuous
 62
     7
370
     5
100
AcDbLine
 10
-446.9662394394746
 20
-551.8327640842746
 30
0.0
 11
-446.9662394394746
 21
-550.3324817966769
 31
0.0
  0
LINE
  5
2C7
330
1F
100
AcDbEntity
  8
D-0
  6
Continuous
 62
     7
370
     5
100
AcDbLine
 10
-446.9662394394746
 20
-550.3324817966769
 30
0.0
 11
-445.4662051071992
 21
-550.3324817966769
 31
0.0
  0
LINE
  5
2C8
330
1F
100
AcDbEntity
  8
D-0
  6
Continuous
 62
     7
370
     5
100
AcDbLine
 10
-445.4662051071992
 20
-550.3324817966769
 30
0.0
 11
-445.4662051071992
 21
-551.8327640842746
 31
0.0
  0
LINE
  5
2C9
330
1F
100
AcDbEntity
  8
D-0
  6
Continuous
 62
     7
370
     5
100
AcDbLine
 10
-445.4662051071992
 20
-551.8327640842746
 30
0.0
 11
-446.9662394394746
 21
-551.8327640842746
 31
0.0
  0
LINE
  5
2CA
330
1F
100
AcDbEntity
  8
D-0
  6
Continuous
 62
     7
370
     5
100
AcDbLine
 10
-296.89729355477
 20
-522.2141384434054
 30
0.0
 11
-296.89729355477
 21
-520.7138561558078
 31
0.0
  0
LINE
  5
2CB
330
1F
100
AcDbEntity
  8
D-0
  6
Continuous
 62
     7
370
     5
100
AcDbLine
 10
-296.89729355477
 20
-520.7138561558078
 30
0.0
 11
-295.3972592224946
 21
-520.7138561558078
 31
0.0
  0
LINE
  5
2CC
330
1F
100
AcDbEntity
  8
D-0
  6
Continuous
 62
     7
370
     5
100
AcDbLine
 10
-295.3972592224946
 20
-520.7138561558078
 30
0.0
 11
-295.3972592224946
 21
-522.2141384434054
 31
0.0
  0
LINE
  5
2CD
330
1F
100
AcDbEntity
  8
D-0
  6
Continuous
 62
     7
370
     5
100
AcDbLine
 10
-295.3972592224946
 20
-522.2141384434054
 30
0.0
 11
-296.89729355477
 21
-522.2141384434054
 31
0.0
  0
LINE
  5
2CE
330
1F
100
AcDbEntity
  8
D-0
  6
Continuous
 62
     7
370
     5
100
AcDbLine
 10
-366.0080017914643
 20
-358.3229779552768
 30
0.0
 11
-366.0080017914643
 21
-356.8226980518649
 31
0.0
  0
LINE
  5
2CF
330
1F
100
AcDbEntity
  8
D-0
  6
Continuous
 62
     7
370
     5
100
AcDbLine
 10
-366.0080017914643
 20
-356.8226980518649
 30
0.0
 11
-364.5079674591889
 21
-356.8226980518649
 31
0.0
  0
LINE
  5
2D0
330
1F
100
AcDbEntity
  8
D-0
  6
Continuous
 62
     7
370
     5
100
AcDbLine
 10
-364.5079674591889
 20
-356.8226980518649
 30
0.0
 11
-364.5079674591889
 21
-358.3229779552768
 31
0.0
  0
LINE
  5
2D1
330
1F
100
AcDbEntity
  8
D-0
  6
Continuous
 62
     7
370
     5
100
AcDbLine
 10
-364.5079674591889
 20
-358.3229779552768
 30
0.0
 11
-366.0080017914643
 21
-358.3229779552768
 31
0.0
  0
LINE
  5
2D2
330
1F
100
AcDbEntity
  8
D-0
  6
Continuous
 62
     7
370
     5
100
AcDbLine
 10
-581.2383999695649
 20
-611.0705112766574
 30
0.0
 11
-581.2383999695649
 21
-609.570248062546
 31
0.0
  0
LINE
  5
2D3
330
1F
100
AcDbEntity
  8
D-0
  6
Continuous
 62
     7
370
     5
100
AcDbLine
 10
-581.2383999695649
 20
-609.570248062546
 30
0.0
 11
-579.7383656372895
 21
-609.570248062546
 31
0.0
  0
LINE
  5
2D4
330
1F
100
AcDbEntity
  8
D-0
  6
Continuous
 62
     7
370
     5
100
AcDbLine
 10
-579.7383656372895
 20
-609.570248062546
 30
0.0
 11
-579.7383656372895
 21
-611.0705112766574
 31
0.0
  0
LINE
  5
2D5
330
1F
100
AcDbEntity
  8
D-0
  6
Continuous
 62
     7
370
     5
100
AcDbLine
 10
-579.7383656372895
 20
-611.0705112766574
 30
0.0
 11
-581.2383999695649
 21
-611.0705112766574
 31
0.0
  0
LINE
  5
2D6
330
1F
100
AcDbEntity
  8
D-0
  6
Continuous
 62
     7
370
     5
100
AcDbLine
 10
-561.4924826493134
 20
-437.3066448520968
 30
0.0
 11
-561.4924826493134
 21
-435.8063625644992
 31
0.0
  0
LINE
  5
2D7
330
1F
100
AcDbEntity
  8
D-0
  6
Continuous
 62
     7
370
     5
100
AcDbLine
 10
-561.4924826493134
 20
-435.8063625644992
 30
0.0
 11
-559.9924530854096
 21
-435.8063625644992
 31
0.0
  0
LINE
  5
2D8
330
1F
100
AcDbEntity
  8
D-0
  6
Continuous
 62
     7
370
     5
100
AcDbLine
 10
-559.9924530854096
 20
-435.8063625644992
 30
0.0
 11
-559.9924530854096
 21
-437.3066448520968
 31
0.0
  0
LINE
  5
2D9
330
1F
100
AcDbEntity
  8
D-0
  6
Continuous
 62
     7
370
     5
100
AcDbLine
 10
-559.9924530854096
 20
-437.3066448520968
 30
0.0
 11
-561.4924826493134
 21
-437.3066448520968
 31
0.0
  0
LINE
  5
2DA
330
1F
100
AcDbEntity
  8
D-0
  6
Continuous
 62
     7
370
     5
100
AcDbLine
 10
-550.1175083985199
 20
-469.2995571445773
 30
0.0
 11
-550.1175083985199
 21
-467.7992843937228
 31
0.0
  0
LINE
  5
2DB
330
1F
100
AcDbEntity
  8
D-0
  6
Continuous
 62
     7
370
     5
100
AcDbLine
 10
-550.1175083985199
 20
-467.7992843937228
 30
0.0
 11
-548.6174788346161
 21
-467.7992843937228
 31
0.0
  0
LINE
  5
2DC
330
1F
100
AcDbEntity
  8
D-0
  6
Continuous
 62
     7
370
     5
100
AcDbLine
 10
-548.6174788346161
 20
-467.7992843937228
 30
0.0
 11
-548.6174788346161
 21
-469.2995571445773
 31
0.0
  0
LINE
  5
2DD
330
1F
100
AcDbEntity
  8
D-0
  6
Continuous
 62
     7
370
     5
100
AcDbLine
 10
-548.6174788346161
 20
-469.2995571445773
 30
0.0
 11
-550.1175083985199
 21
-469.2995571445773
 31
0.0
  0
LINE
  5
2DE
330
1F
100
AcDbEntity
  8
D-0
  6
Continuous
 62
     7
370
     5
100
AcDbLine
 10
-494.3564636280408
 20
-580.6309055637668
 30
0.0
 11
-494.3564636280408
 21
-579.1306232761691
 31
0.0
  0
LINE
  5
2DF
330
1F
100
AcDbEntity
  8
D-0
  6
Continuous
 62
     7
370
     5
100
AcDbLine
 10
-494.3564636280408
 20
-579.1306232761691
 30
0.0
 11
-492.8564318662157
 21
-579.1306232761691
 31
0.0
  0
LINE
  5
2E0
330
1F
100
AcDbEntity
  8
D-0
  6
Continuous
 62
     7
370
     5
100
AcDbLine
 10
-492.8564318662157
 20
-579.1306232761691
 30
0.0
 11
-492.8564318662157
 21
-580.6309055637668
 31
0.0
  0
LINE
  5
2E1
330
1F
100
AcDbEntity
  8
D-0
  6
Continuous
 62
     7
370
     5
100
AcDbLine
 10
-492.8564318662157
 20
-580.6309055637668
 30
0.0
 11
-494.3564636280408
 21
-580.6309055637668
 31
0.0
  0
LINE
  5
2E2
330
1F
100
AcDbEntity
  8
D-0
  6
Continuous
 62
     7
370
     5
100
AcDbLine
 10
-553.5940899720063
 20
-603.1722568821261
 30
0.0
 11
-553.5940899720063
 21
-601.6719745945285
 31
0.0
  0
LINE
  5
2E3
330
1F
100
AcDbEntity
  8
D-0
  6
Continuous
 62
     7
370
     5
100
AcDbLine
 10
-553.5940899720063
 20
-601.6719745945285
 30
0.0
 11
-552.0940604081025
 21
-601.6719745945285
 31
0.0
  0
LINE
  5
2E4
330
1F
100
AcDbEntity
  8
D-0
  6
Continuous
 62
     7
370
     5
100
AcDbLine
 10
-552.0940604081025
 20
-601.6719745945285
 30
0.0
 11
-552.0940604081025
 21
-603.1722568821261
 31
0.0
  0
LINE
  5
2E5
330
1F
100
AcDbEntity
  8
D-0
  6
Continuous
 62
     7
370
     5
100
AcDbLine
 10
-552.0940604081025
 20
-603.1722568821261
 30
0.0
 11
-553.5940899720063
 21
-603.1722568821261
 31
0.0
  0
LINE
  5
2E6
330
1F
100
AcDbEntity
  8
D-0
  6
Continuous
 62
     7
370
     5
100
AcDbLine
 10
-541.7465653290619
 20
-676.2320827793429
 30
0.0
 11
-541.7465653290619
 21
-674.7318004917453
 31
0.0
  0
LINE
  5
2E7
330
1F
100
AcDbEntity
  8
D-0
  6
Continuous
 62
     7
370
     5
100
AcDbLine
 10
-541.7465653290619
 20
-674.7318004917453
 30
0.0
 11
-540.2465357651581
 21
-674.7318004917453
 31
0.0
  0
LINE
  5
2E8
330
1F
100
AcDbEntity
  8
D-0
  6
Continuous
 62
     7
370
     5
100
AcDbLine
 10
-540.2465357651581
 20
-674.7318004917453
 30
0.0
 11
-540.2465357651581
 21
-676.2320827793429
 31
0.0
  0
LINE
  5
2E9
330
1F
100
AcDbEntity
  8
D-0
  6
Continuous
 62
     7
370
     5
100
AcDbLine
 10
-540.2465357651581
 20
-676.2320827793429
 30
0.0
 11
-541.7465653290619
 21
-676.2320827793429
 31
0.0
  0
LINE
  5
2EA
330
1F
100
AcDbEntity
  8
D-0
  6
Continuous
 62
     7
370
     5
100
AcDbLine
 10
-590.1237645020356
 20
-675.2446102451632
 30
0.0
 11
-590.1237645020356
 21
-673.7443279575656
 31
0.0
  0
LINE
  5
2EB
330
1F
100
AcDbEntity
  8
D-0
  6
Continuous
 62
     7
370
     5
100
AcDbLine
 10
-590.1237645020356
 20
-673.7443279575656
 30
0.0
 11
-588.6237301697602
 21
-673.7443279575656
 31
0.0
  0
LINE
  5
2EC
330
1F
100
AcDbEntity
  8
D-0
  6
Continuous
 62
     7
370
     5
100
AcDbLine
 10
-588.6237301697602
 20
-673.7443279575656
 30
0.0
 11
-588.6237301697602
 21
-675.2446102451632
 31
0.0
  0
LINE
  5
2ED
330
1F
100
AcDbEntity
  8
D-0
  6
Continuous
 62
     7
370
     5
100
AcDbLine
 10
-588.6237301697602
 20
-675.2446102451632
 30
0.0
 11
-590.1237645020356
 21
-675.2446102451632
 31
0.0
  0
LINE
  5
2EE
330
1F
100
AcDbEntity
  8
D-0
  6
Continuous
 62
     7
370
     5
100
AcDbLine
 10
-577.1708454956879
 20
-794.3503689121554
 30
0.0
 11
-577.1708454956879
 21
-792.8500866245578
 31
0.0
  0
LINE
  5
2EF
330
1F
100
AcDbEntity
  8
D-0
  6
Continuous
 62
     7
370
     5
100
AcDbLine
 10
-577.1708454956879
 20
-792.8500866245578
 30
0.0
 11
-575.6708207001557
 21
-792.8500866245578
 31
0.0
  0
LINE
  5
2F0
330
1F
100
AcDbEntity
  8
D-0
  6
Continuous
 62
     7
370
     5
100
AcDbLine
 10
-575.6708207001557
 20
-792.8500866245578
 30
0.0
 11
-575.6708207001557
 21
-794.3503689121554
 31
0.0
  0
LINE
  5
2F1
330
1F
100
AcDbEntity
  8
D-0
  6
Continuous
 62
     7
370
     5
100
AcDbLine
 10
-575.6708207001557
 20
-794.3503689121554
 30
0.0
 11
-577.1708454956879
 21
-794.3503689121554
 31
0.0
  0
LINE
  5
2F2
330
1F
100
AcDbEntity
  8
D-0
  6
Continuous
 62
     7
370
     5
100
AcDbLine
 10
-526.6450490822663
 20
-823.8580059360812
 30
0.0
 11
-526.6450490822663
 21
-822.3577236484836
 31
0.0
  0
LINE
  5
2F3
330
1F
100
AcDbEntity
  8
D-0
  6
Continuous
 62
     7
370
     5
100
AcDbLine
 10
-526.6450490822663
 20
-822.3577236484836
 30
0.0
 11
-525.1450171341767
 21
-822.3577236484836
 31
0.0
  0
LINE
  5
2F4
330
1F
100
AcDbEntity
  8
D-0
  6
Continuous
 62
     7
370
     5
100
AcDbLine
 10
-525.1450171341767
 20
-822.3577236484836
 30
0.0
 11
-525.1450171341767
 21
-823.8580059360812
 31
0.0
  0
LINE
  5
2F5
330
1F
100
AcDbEntity
  8
D-0
  6
Continuous
 62
     7
370
     5
100
AcDbLine
 10
-525.1450171341767
 20
-823.8580059360812
 30
0.0
 11
-526.6450490822663
 21
-823.8580059360812
 31
0.0
  0
LINE
  5
2F6
330
1F
100
AcDbEntity
  8
D-0
  6
Continuous
 62
     7
370
     5
100
AcDbLine
 10
-490.4072058966031
 20
-748.1285595249484
 30
0.0
 11
-490.4072058966031
 21
-746.6283153843234
 31
0.0
  0
LINE
  5
2F7
330
1F
100
AcDbEntity
  8
D-0
  6
Continuous
 62
     7
370
     5
100
AcDbLine
 10
-490.4072058966031
 20
-746.6283153843234
 30
0.0
 11
-488.9071740975251
 21
-746.6283153843234
 31
0.0
  0
LINE
  5
2F8
330
1F
100
AcDbEntity
  8
D-0
  6
Continuous
 62
     7
370
     5
100
AcDbLine
 10
-488.9071740975251
 20
-746.6283153843234
 30
0.0
 11
-488.9071740975251
 21
-748.1285595249484
 31
0.0
  0
LINE
  5
2F9
330
1F
100
AcDbEntity
  8
D-0
  6
Continuous
 62
     7
370
     5
100
AcDbLine
 10
-488.9071740975251
 20
-748.1285595249484
 30
0.0
 11
-490.4072058966031
 21
-748.1285595249484
 31
0.0
  0
LINE
  5
2FA
330
1F
100
AcDbEntity
  8
D-0
  6
Continuous
 62
     7
370
     5
100
AcDbLine
 10
-607.4399056305756
 20
-630.0653004001925
 30
0.0
 11
-607.4399056305756
 21
-628.5650181125949
 31
0.0
  0
LINE
  5
2FB
330
1F
100
AcDbEntity
  8
D-0
  6
Continuous
 62
     7
370
     5
100
AcDbLine
 10
-607.4399056305756
 20
-628.5650181125949
 30
0.0
 11
-605.9398712983002
 21
-628.5650181125949
 31
0.0
  0
LINE
  5
2FC
330
1F
100
AcDbEntity
  8
D-0
  6
Continuous
 62
     7
370
     5
100
AcDbLine
 10
-605.9398712983002
 20
-628.5650181125949
 30
0.0
 11
-605.9398712983002
 21
-630.0653004001925
 31
0.0
  0
LINE
  5
2FD
330
1F
100
AcDbEntity
  8
D-0
  6
Continuous
 62
     7
370
     5
100
AcDbLine
 10
-605.9398712983002
 20
-630.0653004001925
 30
0.0
 11
-607.4399056305756
 21
-630.0653004001925
 31
0.0
  0
LINE
  5
2FE
330
1F
100
AcDbEntity
  8
D-0
  6
Continuous
 62
     7
370
     5
100
AcDbLine
 10
-265.0300946106782
 20
-478.3354210209201
 30
0.0
 11
-265.0300946106782
 21
-476.8351482700656
 31
0.0
  0
LINE
  5
2FF
330
1F
100
AcDbEntity
  8
D-0
  6
Continuous
 62
     7
370
     5
100
AcDbLine
 10
-265.0300946106782
 20
-476.8351482700656
 30
0.0
 11
-263.5300793518891
 21
-476.8351482700656
 31
0.0
  0
LINE
  5
300
330
1F
100
AcDbEntity
  8
D-0
  6
Continuous
 62
     7
370
     5
100
AcDbLine
 10
-263.5300793518891
 20
-476.8351482700656
 30
0.0
 11
-263.5300793518891
 21
-478.3354210209201
 31
0.0
  0
LINE
  5
301
330
1F
100
AcDbEntity
  8
D-0
  6
Continuous
 62
     7
370
     5
100
AcDbLine
 10
-263.5300793518891
 20
-478.3354210209201
 30
0.0
 11
-265.0300946106782
 21
-478.3354210209201
 31
0.0
  0
LINE
  5
302
330
1F
100
AcDbEntity
  8
D-0
  6
Continuous
 62
     7
370
     5
100
AcDbLine
 10
-490.5181907882562
 20
-673.7993358921359
 30
0.0
 11
-490.5181907882562
 21
-672.2990536045382
 31
0.0
  0
LINE
  5
303
330
1F
100
AcDbEntity
  8
D-0
  6
Continuous
 62
     7
370
     5
100
AcDbLine
 10
-490.5181907882562
 20
-672.2990536045382
 30
0.0
 11
-489.0181591381898
 21
-672.2990536045382
 31
0.0
  0
LINE
  5
304
330
1F
100
AcDbEntity
  8
D-0
  6
Continuous
 62
     7
370
     5
100
AcDbLine
 10
-489.0181591381898
 20
-672.2990536045382
 30
0.0
 11
-489.0181591381898
 21
-673.7993358921359
 31
0.0
  0
LINE
  5
305
330
1F
100
AcDbEntity
  8
D-0
  6
Continuous
 62
     7
370
     5
100
AcDbLine
 10
-489.0181591381898
 20
-673.7993358921359
 30
0.0
 11
-490.5181907882562
 21
-673.7993358921359
 31
0.0
  0
LINE
  5
306
330
1F
100
AcDbEntity
  8
D-0
  6
Continuous
 62
     7
370
     5
100
AcDbLine
 10
-515.2484001984467
 20
-797.1453213047336
 30
0.0
 11
-515.2484001984467
 21
-795.6450390171359
 31
0.0
  0
LINE
  5
307
330
1F
100
AcDbEntity
  8
D-0
  6
Continuous
 62
     7
370
     5
100
AcDbLine
 10
-515.2484001984467
 20
-795.6450390171359
 30
0.0
 11
-513.7483682503571
 21
-795.6450390171359
 31
0.0
  0
LINE
  5
308
330
1F
100
AcDbEntity
  8
D-0
  6
Continuous
 62
     7
370
     5
100
AcDbLine
 10
-513.7483682503571
 20
-795.6450390171359
 30
0.0
 11
-513.7483682503571
 21
-797.1453213047336
 31
0.0
  0
LINE
  5
309
330
1F
100
AcDbEntity
  8
D-0
  6
Continuous
 62
     7
370
     5
100
AcDbLine
 10
-513.7483682503571
 20
-797.1453213047336
 30
0.0
 11
-515.2484001984467
 21
-797.1453213047336
 31
0.0
  0
LINE
  5
30A
330
1F
100
AcDbEntity
  8
D-0
  6
Continuous
 62
     7
370
     5
100
AcDbLine
 10
-274.3135800232758
 20
-549.7750782322238
 30
0.0
 11
-274.3135800232758
 21
-548.2748150181125
 31
0.0
  0
LINE
  5
30B
330
1F
100
AcDbEntity
  8
D-0
  6
Continuous
 62
     7
370
     5
100
AcDbLine
 10
-274.3135800232758
 20
-548.2748150181125
 30
0.0
 11
-272.8135456910005
 21
-548.2748150181125
 31
0.0
  0
LINE
  5
30C
330
1F
100
AcDbEntity
  8
D-0
  6
Continuous
 62
     7
370
     5
100
AcDbLine
 10
-272.8135456910005
 20
-548.2748150181125
 30
0.0
 11
-272.8135456910005
 21
-549.7750782322238
 31
0.0
  0
LINE
  5
30D
330
1F
100
AcDbEntity
  8
D-0
  6
Continuous
 62
     7
370
     5
100
AcDbLine
 10
-272.8135456910005
 20
-549.7750782322238
 30
0.0
 11
-274.3135800232758
 21
-549.7750782322238
 31
0.0
  0
LINE
  5
30E
330
1F
100
AcDbEntity
  8
D-0
  6
Continuous
 62
     7
370
     5
100
AcDbLine
 10
-486.9334741701951
 20
-471.2740063022922
 30
0.0
 11
-486.9334741701951
 21
-469.7737240146945
 31
0.0
  0
LINE
  5
30F
330
1F
100
AcDbEntity
  8
D-0
  6
Continuous
 62
     7
370
     5
100
AcDbLine
 10
-486.9334741701951
 20
-469.7737240146945
 30
0.0
 11
-485.4334428181519
 21
-469.7737240146945
 31
0.0
  0
LINE
  5
310
330
1F
100
AcDbEntity
  8
D-0
  6
Continuous
 62
     7
370
     5
100
AcDbLine
 10
-485.4334428181519
 20
-469.7737240146945
 30
0.0
 11
-485.4334428181519
 21
-471.2740063022922
 31
0.0
  0
LINE
  5
311
330
1F
100
AcDbEntity
  8
D-0
  6
Continuous
 62
     7
370
     5
100
AcDbLine
 10
-485.4334428181519
 20
-471.2740063022922
 30
0.0
 11
-486.9334741701951
 21
-471.2740063022922
 31
0.0
  0
LINE
  5
312
330
1F
100
AcDbEntity
  8
D-0
  6
Continuous
 62
     7
370
     5
100
AcDbLine
 10
-574.0587259005397
 20
-515.5598571918463
 30
0.0
 11
-574.0587259005397
 21
-514.0595844409918
 31
0.0
  0
LINE
  5
313
330
1F
100
AcDbEntity
  8
D-0
  6
Continuous
 62
     7
370
     5
100
AcDbLine
 10
-574.0587259005397
 20
-514.0595844409918
 30
0.0
 11
-572.5586963366359
 21
-514.0595844409918
 31
0.0
  0
LINE
  5
314
330
1F
100
AcDbEntity
  8
D-0
  6
Continuous
 62
     7
370
     5
100
AcDbLine
 10
-572.5586963366359
 20
-514.0595844409918
 30
0.0
 11
-572.5586963366359
 21
-515.5598571918463
 31
0.0
  0
LINE
  5
315
330
1F
100
AcDbEntity
  8
D-0
  6
Continuous
 62
     7
370
     5
100
AcDbLine
 10
-572.5586963366359
 20
-515.5598571918463
 30
0.0
 11
-574.0587259005397
 21
-515.5598571918463
 31
0.0
  0
LINE
  5
316
330
1F
100
AcDbEntity
  8
D-0
  6
Continuous
 62
     7
370
     5
100
AcDbLine
 10
-521.2803218726573
 20
-520.5599165208037
 30
0.0
 11
-521.2803218726573
 21
-519.0596437699492
 31
0.0
  0
LINE
  5
317
330
1F
100
AcDbEntity
  8
D-0
  6
Continuous
 62
     7
370
     5
100
AcDbLine
 10
-521.2803218726573
 20
-519.0596437699492
 30
0.0
 11
-519.7802923087535
 21
-519.0596437699492
 31
0.0
  0
LINE
  5
318
330
1F
100
AcDbEntity
  8
D-0
  6
Continuous
 62
     7
370
     5
100
AcDbLine
 10
-519.7802923087535
 20
-519.0596437699492
 30
0.0
 11
-519.7802923087535
 21
-520.5599165208037
 31
0.0
  0
LINE
  5
319
330
1F
100
AcDbEntity
  8
D-0
  6
Continuous
 62
     7
370
     5
100
AcDbLine
 10
-519.7802923087535
 20
-520.5599165208037
 30
0.0
 11
-521.2803218726573
 21
-520.5599165208037
 31
0.0
  0
LINE
  5
31A
330
1F
100
AcDbEntity
  8
D-0
  6
Continuous
 62
     7
370
     5
100
AcDbLine
 10
-505.7245817381236
 20
-497.226306319003
 30
0.0
 11
-505.7245817381236
 21
-495.7260335681485
 31
0.0
  0
LINE
  5
31B
330
1F
100
AcDbEntity
  8
D-0
  6
Continuous
 62
     7
370
     5
100
AcDbLine
 10
-505.7245817381236
 20
-495.7260335681485
 30
0.0
 11
-504.2245521742198
 21
-495.7260335681485
 31
0.0
  0
LINE
  5
31C
330
1F
100
AcDbEntity
  8
D-0
  6
Continuous
 62
     7
370
     5
100
AcDbLine
 10
-504.2245521742198
 20
-495.7260335681485
 30
0.0
 11
-504.2245521742198
 21
-497.226306319003
 31
0.0
  0
LINE
  5
31D
330
1F
100
AcDbEntity
  8
D-0
  6
Continuous
 62
     7
370
     5
100
AcDbLine
 10
-504.2245521742198
 20
-497.226306319003
 30
0.0
 11
-505.7245817381236
 21
-497.226306319003
 31
0.0
  0
TEXT
  5
31E
330
1F
100
AcDbEntity
  8
F-4
  6
Continuous
 62
     2
370
     5
100
AcDbText
 10
-851.6662025596897
 20
-1365.511899375921
 30
0.0
 40
30.48
  1
ステンレス縞鋼板製　排水ピット蓋　　ＳＰ－３　５００×５００＋ＳＦ０３Ｂ
 41
0.8993055555555554
  7
ＭＳ ゴシック
100
AcDbText
  0
LINE
  5
31F
330
1F
100
AcDbEntity
  8
C-B
  6
JWW_DASHED3
 62
     6
370
     5
100
AcDbLine
 10
-61.81099159653119
 20
933.2437925596497
 30
0.0
 11
-65.81099159653121
 21
933.2437925596497
 31
0.0
  0
LINE
  5
320
330
1F
100
AcDbEntity
  8
C-B
  6
JWW_DASHED3
 62
     6
370
     5
100
AcDbLine
 10
-61.81099159653119
 20
933.2437925596497
 30
0.0
 11
-61.81099159653119
 21
503.2437620420717
 31
0.0
  0
LINE
  5
321
330
1F
100
AcDbEntity
  8
C-B
  6
JWW_DASHED3
 62
     6
370
     5
100
AcDbLine
 10
-65.81099159653121
 20
933.2437925596497
 30
0.0
 11
-65.81099159653121
 21
503.2437620420717
 31
0.0
  0
LINE
  5
322
330
1F
100
AcDbEntity
  8
C-B
  6
JWW_DASHED3
 62
     6
370
     5
100
AcDbLine
 10
-61.81099159653119
 20
503.2437620420717
 30
0.0
 11
-65.81099159653121
 21
503.2437620420717
 31
0.0
  0
TEXT
  5
323
330
1F
100
AcDbEntity
  8
D-5
  6
Continuous
 62
     7
370
     5
100
AcDbText
 10
-1668.86845676028
 20
-599.9096832686126
 30
0.0
 40
22.86
  1
補強材：ＦＢ４×２５～３本／枚
 41
1.155555555555555
  7
ＭＳ ゴシック
100
AcDbText
  0
ENDSEC
  0
SECTION
  2
OBJECTS
  0
DICTIONARY
  5
C
330
0
100
AcDbDictionary
281
     1
  3
ACAD_GROUP
350
D
  3
ACAD_LAYOUT
350
1A
  3
ACAD_MLEADERSTYLE
350
325
  3
ACAD_MLINESTYLE
350
17
  3
ACAD_PLOTSETTINGS
350
19
  3
ACAD_PLOTSTYLENAME
350
E
  3
ACAD_TABLESTYLE
350
324
  3
ACAD_VISUALSTYLE
350
2A
  3
AcDbVariableDictionary
350
326
  0
DICTIONARY
  5
D
102
{ACAD_REACTORS
330
C
102
}
330
C
100
AcDbDictionary
281
     1
  0
DICTIONARY
  5
1A
102
{ACAD_REACTORS
330
C
102
}
330
C
100
AcDbDictionary
281
     1
  3
Layout1
350
1E
  3
Layout2
350
26
  3
Model
350
22
  0
DICTIONARY
  5
325
102
{ACAD_REACTORS
330
C
102
}
330
C
100
AcDbDictionary
281
     1
  0
DICTIONARY
  5
17
102
{ACAD_REACTORS
330
C
102
}
330
C
100
AcDbDictionary
281
     1
  3
Standard
350
18
  0
DICTIONARY
  5
19
102
{ACAD_REACTORS
330
C
102
}
330
C
100
AcDbDictionary
281
     1
  0
ACDBDICTIONARYWDFLT
  5
E
102
{ACAD_REACTORS
330
C
102
}
330
C
100
AcDbDictionary
281
     1
  3
Normal
350
F
100
AcDbDictionaryWithDefault
340
F
  0
DICTIONARY
  5
324
102
{ACAD_REACTORS
330
C
102
}
330
C
100
AcDbDictionary
281
     1
  0
DICTIONARY
  5
2A
102
{ACAD_REACTORS
330
C
102
}
330
C
100
AcDbDictionary
281
     1
  3
2dWireframe
350
2F
  3
3D Hidden
350
31
  3
3dWireframe
350
30
  3
Basic
350
32
  3
Brighten
350
36
  3
ColorChange
350
3A
  3
Conceptual
350
34
  3
Dim
350
35
  3
Facepattern
350
39
  3
Flat
350
2B
  3
FlatWithEdges
350
2C
  3
Gouraud
350
2D
  3
GouraudWithEdges
350
2E
  3
Linepattern
350
38
  3
Realistic
350
33
  3
Thicken
350
37
  0
DICTIONARY
  5
326
102
{ACAD_REACTORS
330
C
102
}
330
C
100
AcDbDictionary
281
     1
  3
PSOLHEIGHT
350
328
  3
PSOLWIDTH
350
327
  0
LAYOUT
  5
1E
102
{ACAD_REACTORS
330
1A
102
}
102
{ACAD_XDICTIONARY
360
329
102
}
330
1A
100
AcDbPlotSettings
  1

  2
none_device
  4

  6

 40
0.0
 41
0.0
 42
0.0
 43
0.0
 44
0.0
 45
0.0
 46
0.0
 47
0.0
 48
0.0
 49
0.0
140
0.0
141
0.0
142
1.0
143
1.0
 70
   688
 72
     0
 73
     0
 74
     5
  7

 75
    16
147
1.0
148
0.0
149
0.0
100
AcDbLayout
  1
Layout1
 70
     1
 71
     1
 10
0.0
 20
0.0
 11
420.0
 21
297.0
 12
0.0
 22
0.0
 32
0.0
 14
1.000000000000000E+20
 24
1.000000000000000E+20
 34
1.000000000000000E+20
 15
-1.000000000000000E+20
 25
-1.000000000000000E+20
 35
-1.000000000000000E+20
146
0.0
 13
0.0
 23
0.0
 33
0.0
 16
1.0
 26
0.0
 36
0.0
 17
0.0
 27
1.0
 37
0.0
 76
     0
330
1B
  0
LAYOUT
  5
26
102
{ACAD_REACTORS
330
1A
102
}
102
{ACAD_XDICTIONARY
360
32D
102
}
330
1A
100
AcDbPlotSettings
  1

  2
none_device
  4

  6

 40
0.0
 41
0.0
 42
0.0
 43
0.0
 44
0.0
 45
0.0
 46
0.0
 47
0.0
 48
0.0
 49
0.0
140
0.0
141
0.0
142
1.0
143
1.0
 70
   688
 72
     0
 73
     0
 74
     5
  7

 75
    16
147
1.0
148
0.0
149
0.0
100
AcDbLayout
  1
Layout2
 70
     1
 71
     2
 10
0.0
 20
0.0
 11
0.0
 21
0.0
 12
0.0
 22
0.0
 32
0.0
 14
0.0
 24
0.0
 34
0.0
 15
0.0
 25
0.0
 35
0.0
146
0.0
 13
0.0
 23
0.0
 33
0.0
 16
1.0
 26
0.0
 36
0.0
 17
0.0
 27
1.0
 37
0.0
 76
     0
330
23
  0
LAYOUT
  5
22
102
{ACAD_REACTORS
330
1A
102
}
102
{ACAD_XDICTIONARY
360
32B
102
}
330
1A
100
AcDbPlotSettings
  1

  2
none_device
  4

  6

 40
0.0
 41
0.0
 42
0.0
 43
0.0
 44
0.0
 45
0.0
 46
0.0
 47
0.0
 48
0.0
 49
0.0
140
0.0
141
0.0
142
1.0
143
1.0
 70
  1712
 72
     0
 73
     0
 74
     0
  7

 75
     0
147
1.0
148
0.0
149
0.0
100
AcDbLayout
  1
Model
 70
     1
 71
     0
 10
-2100.0
 20
-1485.0
 11
2100.0
 21
1485.0
 12
0.0
 22
0.0
 32
0.0
 14
-2100.0
 24
-1485.0
 34
0.0
 15
2100.0
 25
1485.0
 35
0.0
146
0.0
 13
0.0
 23
0.0
 33
0.0
 16
1.0
 26
0.0
 36
0.0
 17
0.0
 27
1.0
 37
0.0
 76
     0
330
1F
331
29
  0
MLINESTYLE
  5
18
102
{ACAD_REACTORS
330
17
102
}
330
17
100
AcDbMlineStyle
  2
Standard
 70
     0
  3

 62
   256
 51
90.0
 52
90.0
 71
     2
 49
0.5
 62
   256
  6
BYLAYER
 49
-0.5
 62
   256
  6
BYLAYER
  0
ACDBPLACEHOLDER
  5
F
102
{ACAD_REACTORS
330
E
102
}
330
E
  0
VISUALSTYLE
  5
2F
102
{ACAD_REACTORS
330
2A
102
}
330
2A
100
AcDbVisualStyle
  2
2dWireframe
 70
     4
 71
     0
 72
     2
 73
     0
 90
        0
 40
-0.6
 41
-30.0
 62
     5
 63
     7
 74
     1
 91
        4
 64
     7
 65
   257
 75
     1
175
     1
 42
1.0
 92
        0
 66
   257
 43
1.0
 76
     1
 77
     6
 78
     2
 67
     7
 79
     5
170
     0
171
     0
290
     0
174
     0
 93
        1
 44
0.0
173
     0
291
     0
 45
0.0
1001
ACAD
1000
AcDbSavedByObjectVersion
1070
     0
  0
VISUALSTYLE
  5
31
102
{ACAD_REACTORS
330
2A
102
}
330
2A
100
AcDbVisualStyle
  2
3D Hidden
 70
     6
 71
     1
 72
     2
 73
     2
 90
        0
 40
-0.6
 41
-30.0
 62
     5
 63
     7
 74
     2
 91
        2
 64
     7
 65
   257
 75
     2
175
     1
 42
40.0
 92
        0
 66
   257
 43
1.0
 76
     1
 77
     6
 78
     2
 67
     7
 79
     3
170
     0
171
     0
290
     0
174
     0
 93
        1
 44
0.0
173
     0
291
     0
 45
0.0
1001
ACAD
1000
AcDbSavedByObjectVersion
1070
     0
  0
VISUALSTYLE
  5
30
102
{ACAD_REACTORS
330
2A
102
}
330
2A
100
AcDbVisualStyle
  2
3dWireframe
 70
     5
 71
     0
 72
     2
 73
     0
 90
        0
 40
-0.6
 41
-30.0
 62
     5
 63
     7
 74
     1
 91
        4
 64
     7
 65
   257
 75
     1
175
     1
 42
1.0
 92
        0
 66
   257
 43
1.0
 76
     1
 77
     6
 78
     2
 67
     7
 79
     5
170
     0
171
     0
290
     0
174
     0
 93
        1
 44
0.0
173
     0
291
     0
 45
0.0
1001
ACAD
1000
AcDbSavedByObjectVersion
1070
     0
  0
VISUALSTYLE
  5
32
102
{ACAD_REACTORS
330
2A
102
}
330
2A
100
AcDbVisualStyle
  2
Basic
 70
     7
 71
     1
 72
     0
 73
     1
 90
        0
 40
-0.6
 41
-30.0
 62
     5
 63
     7
 74
     0
 91
        4
 64
     7
 65
   257
 75
     1
175
     1
 42
1.0
 92
        8
 66
     7
 43
1.0
 76
     1
 77
     6
 78
     2
 67
     7
 79
     5
170
     0
171
     0
290
     0
174
     0
 93
        1
 44
0.0
173
     0
291
     1
 45
0.0
1001
ACAD
1000
AcDbSavedByObjectVersion
1070
     0
  0
VISUALSTYLE
  5
36
102
{ACAD_REACTORS
330
2A
102
}
330
2A
100
AcDbVisualStyle
  2
Brighten
 70
    12
 71
     2
 72
     2
 73
     0
 90
        0
 40
-0.6
 41
-30.0
 62
     5
 63
     7
 74
     1
 91
        4
 64
     7
 65
   257
 75
     1
175
     1
 42
1.0
 92
        8
 66
     7
 43
1.0
 76
     1
 77
     6
 78
     2
 67
     7
 79
     5
170
     0
171
     0
290
     0
174
     0
 93
        1
 44
50.0
173
     0
291
     1
 45
0.0
1001
ACAD
1000
AcDbSavedByObjectVersion
1070
     0
  0
VISUALSTYLE
  5
3A
102
{ACAD_REACTORS
330
2A
102
}
330
2A
100
AcDbVisualStyle
  2
ColorChange
 70
    16
 71
     2
 72
     2
 73
     3
 90
        0
 40
-0.6
 41
-30.0
 62
     5
 63
     8
 74
     1
 91
        4
 64
     7
 65
   257
 75
     1
175
     1
 42
1.0
 92
        8
 66
     8
 43
1.0
 76
     1
 77
     6
 78
     2
 67
     7
 79
     5
170
     0
171
     0
290
     0
174
     0
 93
        1
 44
0.0
173
     0
291
     1
 45
0.0
1001
ACAD
1000
AcDbSavedByObjectVersion
1070
     0
  0
VISUALSTYLE
  5
34
102
{ACAD_REACTORS
330
2A
102
}
330
2A
100
AcDbVisualStyle
  2
Conceptual
 70
     9
 71
     3
 72
     2
 73
     0
 90
        0
 40
-0.6
 41
-30.0
 62
     5
 63
     7
 74
     2
 91
        2
 64
     7
 65
   257
 75
     1
175
     1
 42
40.0
 92
        8
 66
     7
 43
1.0
 76
     1
 77
     6
 78
     2
 67
     7
 79
     3
170
     0
171
     0
290
     0
174
     0
 93
        1
 44
0.0
173
     0
291
     0
 45
0.0
1001
ACAD
1000
AcDbSavedByObjectVersion
1070
     0
  0
VISUALSTYLE
  5
35
102
{ACAD_REACTORS
330
2A
102
}
330
2A
100
AcDbVisualStyle
  2
Dim
 70
    11
 71
     2
 72
     2
 73
     0
 90
        0
 40
-0.6
 41
-30.0
 62
     5
 63
     7
 74
     1
 91
        4
 64
     7
 65
   257
 75
     1
175
     1
 42
1.0
 92
        8
 66
     7
 43
1.0
 76
     1
 77
     6
 78
     2
 67
     7
 79
     5
170
     0
171
     0
290
     0
174
     0
 93
        1
 44
-50.0
173
     0
291
     1
 45
0.0
1001
ACAD
1000
AcDbSavedByObjectVersion
1070
     0
  0
VISUALSTYLE
  5
39
102
{ACAD_REACTORS
330
2A
102
}
330
2A
100
AcDbVisualStyle
  2
Facepattern
 70
    15
 71
     2
 72
     2
 73
     0
 90
        0
 40
-0.6
 41
-30.0
 62
     5
 63
     7
 74
     1
 91
        4
 64
     7
 65
   257
 75
     1
175
     1
 42
1.0
 92
        8
 66
     7
 43
1.0
 76
     1
 77
     6
 78
     2
 67
     7
 79
     5
170
     0
171
     0
290
     0
174
     0
 93
        1
 44
0.0
173
     0
291
     1
 45
0.0
1001
ACAD
1000
AcDbSavedByObjectVersion
1070
     0
  0
VISUALSTYLE
  5
2B
102
{ACAD_REACTORS
330
2A
102
}
330
2A
100
AcDbVisualStyle
  2
Flat
 70
     0
 71
     2
 72
     1
 73
     1
 90
        2
 40
-0.6
 41
30.0
 62
     5
 63
     7
 74
     0
 91
        4
 64
     7
 65
   257
 75
     1
175
     1
 42
1.0
 92
        8
 66
     7
 43
1.0
 76
     1
 77
     6
 78
     2
 67
     7
 79
     5
170
     0
171
     0
290
     0
174
     0
 93
       13
 44
0.0
173
     0
291
     1
 45
0.0
1001
ACAD
1000
AcDbSavedByObjectVersion
1070
     0
  0
VISUALSTYLE
  5
2C
102
{ACAD_REACTORS
330
2A
102
}
330
2A
100
AcDbVisualStyle
  2
FlatWithEdges
 70
     1
 71
     2
 72
     1
 73
     1
 90
        2
 40
-0.6
 41
30.0
 62
     5
 63
     7
 74
     1
 91
        4
 64
     7
 65
   257
 75
     1
175
     1
 42
1.0
 92
        0
 66
   257
 43
1.0
 76
     1
 77
     6
 78
     2
 67
     7
 79
     5
170
     0
171
     0
290
     0
174
     0
 93
       13
 44
0.0
173
     0
291
     1
 45
0.0
1001
ACAD
1000
AcDbSavedByObjectVersion
1070
     0
  0
VISUALSTYLE
  5
2D
102
{ACAD_REACTORS
330
2A
102
}
330
2A
100
AcDbVisualStyle
  2
Gouraud
 70
     2
 71
     2
 72
     2
 73
     1
 90
        2
 40
-0.6
 41
30.0
 62
     5
 63
     7
 74
     0
 91
        4
 64
     7
 65
   257
 75
     1
175
     1
 42
1.0
 92
        0
 66
     7
 43
1.0
 76
     1
 77
     6
 78
     2
 67
     7
 79
     5
170
     0
171
     0
290
     0
174
     0
 93
       13
 44
0.0
173
     0
291
     1
 45
0.0
1001
ACAD
1000
AcDbSavedByObjectVersion
1070
     0
  0
VISUALSTYLE
  5
2E
102
{ACAD_REACTORS
330
2A
102
}
330
2A
100
AcDbVisualStyle
  2
GouraudWithEdges
 70
     3
 71
     2
 72
     2
 73
     1
 90
        2
 40
-0.6
 41
30.0
 62
     5
 63
     7
 74
     1
 91
        4
 64
     7
 65
   257
 75
     1
175
     1
 42
1.0
 92
        0
 66
   257
 43
1.0
 76
     1
 77
     6
 78
     2
 67
     7
 79
     5
170
     0
171
     0
290
     0
174
     0
 93
       13
 44
0.0
173
     0
291
     1
 45
0.0
1001
ACAD
1000
AcDbSavedByObjectVersion
1070
     0
  0
VISUALSTYLE
  5
38
102
{ACAD_REACTORS
330
2A
102
}
330
2A
100
AcDbVisualStyle
  2
Linepattern
 70
    14
 71
     2
 72
     2
 73
     0
 90
        0
 40
-0.6
 41
-30.0
 62
     5
 63
     7
 74
     1
 91
        4
 64
     7
 65
   257
 75
     7
175
     7
 42
1.0
 92
        8
 66
     7
 43
1.0
 76
     1
 77
     6
 78
     2
 67
     7
 79
     5
170
     0
171
     0
290
     0
174
     0
 93
        1
 44
0.0
173
     0
291
     1
 45
0.0
1001
ACAD
1000
AcDbSavedByObjectVersion
1070
     0
  0
VISUALSTYLE
  5
33
102
{ACAD_REACTORS
330
2A
102
}
330
2A
100
AcDbVisualStyle
  2
Realistic
 70
     8
 71
     2
 72
     2
 73
     0
 90
        0
 40
-0.6
 41
-30.0
 62
     5
 63
     7
 74
     1
 91
        0
 64
     7
 65
   257
 75
     1
175
     1
 42
1.0
 92
        8
 66
     8
 43
1.0
 76
     1
 77
     6
 78
     2
 67
     7
 79
     5
170
     0
171
     0
290
     0
174
     0
 93
       13
 44
0.0
173
     0
291
     0
 45
0.0
1001
ACAD
1000
AcDbSavedByObjectVersion
1070
     0
  0
VISUALSTYLE
  5
37
102
{ACAD_REACTORS
330
2A
102
}
330
2A
100
AcDbVisualStyle
  2
Thicken
 70
    13
 71
     2
 72
     2
 73
     0
 90
        0
 40
-0.6
 41
-30.0
 62
     5
 63
     7
 74
     1
 91
        4
 64
     7
 65
   257
 75
     1
175
     1
 42
1.0
 92
       12
 66
     7
 43
1.0
 76
     1
 77
     6
 78
     2
 67
     7
 79
     5
170
     0
171
     0
290
     0
174
     0
 93
        1
 44
0.0
173
     0
291
     1
 45
0.0
1001
ACAD
1000
AcDbSavedByObjectVersion
1070
     0
  0
DICTIONARYVAR
  5
328
102
{ACAD_REACTORS
330
326
102
}
330
326
100
DictionaryVariables
280
     0
  1
80.000000
  0
DICTIONARYVAR
  5
327
102
{ACAD_REACTORS
330
326
102
}
330
326
100
DictionaryVariables
280
     0
  1
5.000000
  0
DICTIONARY
  5
329
330
1E
100
AcDbDictionary
280
     1
281
     1
  3
ACAD_XREC_ROUNDTRIP
360
32A
  0
DICTIONARY
  5
32D
330
26
100
AcDbDictionary
280
     1
281
     1
  3
ACAD_XREC_ROUNDTRIP
360
32E
  0
DICTIONARY
  5
32B
330
22
100
AcDbDictionary
280
     1
281
     1
  3
ACAD_XREC_ROUNDTRIP
360
32C
  0
XRECORD
  5
32A
102
{ACAD_REACTORS
330
329
102
}
330
329
100
AcDbXrecord
280
     1
102
SHADEPLOT
 70
     0
102
SHADEPLOTRESLEVEL
 70
     5
102
SHADEPLOTCUSTOMDPI
 70
   300
  0
XRECORD
  5
32E
102
{ACAD_REACTORS
330
32D
102
}
330
32D
100
AcDbXrecord
280
     1
102
SHADEPLOT
 70
     0
102
SHADEPLOTRESLEVEL
 70
     5
102
SHADEPLOTCUSTOMDPI
 70
   300
  0
XRECORD
  5
32C
102
{ACAD_REACTORS
330
32B
102
}
330
32B
100
AcDbXrecord
280
     1
102
SHADEPLOT
 70
     0
102
SHADEPLOTRESLEVEL
 70
     5
102
SHADEPLOTCUSTOMDPI
 70
   300
  0
ENDSEC
  0
EOF
