  0
SECTION
  2
HEADER
  9
$ACADVER
  1
AC1015
  9
$ACADMAINTVER
 70
     6
  9
$DWGCODEPAGE
  3
ANSI_932
  9
$INSBASE
 10
0.0
 20
0.0
 30
0.0
  9
$EXTMIN
 10
-2970.0
 20
-2100.0
 30
0.0
  9
$EXTMAX
 10
2970.0
 20
2100.0
 30
0.0
  9
$LIMMIN
 10
-2970.0
 20
-2100.0
  9
$LIMMAX
 10
2970.0
 20
2100.0
  9
$ORTHOMODE
 70
     0
  9
$REGENMODE
 70
     1
  9
$FILLMODE
 70
     1
  9
$QTEXTMODE
 70
     0
  9
$MIRRTEXT
 70
     1
  9
$LTSCALE
 40
10.0
  9
$ATTMODE
 70
     1
  9
$TEXTSIZE
 40
2.5
  9
$TRACEWID
 40
1.0
  9
$TEXTSTYLE
  7
Standard
  9
$CLAYER
  8
0
  9
$CELTYPE
  6
ByLayer
  9
$CECOLOR
 62
   256
  9
$CELTSCALE
 40
1.0
  9
$DISPSILH
 70
     0
  9
$DIMSCALE
 40
1.0
  9
$DIMASZ
 40
2.5
  9
$DIMEXO
 40
0.625
  9
$DIMDLI
 40
3.75
  9
$DIMRND
 40
0.0
  9
$DIMDLE
 40
0.0
  9
$DIMEXE
 40
1.25
  9
$DIMTP
 40
0.0
  9
$DIMTM
 40
0.0
  9
$DIMTXT
 40
2.5
  9
$DIMCEN
 40
2.5
  9
$DIMTSZ
 40
0.0
  9
$DIMTOL
 70
     0
  9
$DIMLIM
 70
     0
  9
$DIMTIH
 70
     0
  9
$DIMTOH
 70
     0
  9
$DIMSE1
 70
     0
  9
$DIMSE2
 70
     0
  9
$DIMTAD
 70
     1
  9
$DIMZIN
 70
     8
  9
$DIMBLK
  1

  9
$DIMASO
 70
     1
  9
$DIMSHO
 70
     1
  9
$DIMPOST
  1

  9
$DIMAPOST
  1

  9
$DIMALT
 70
     0
  9
$DIMALTD
 70
     3
  9
$DIMALTF
 40
0.03937007874016
  9
$DIMLFAC
 40
1.0
  9
$DIMTOFL
 70
     1
  9
$DIMTVP
 40
0.0
  9
$DIMTIX
 70
     0
  9
$DIMSOXD
 70
     0
  9
$DIMSAH
 70
     0
  9
$DIMBLK1
  1

  9
$DIMBLK2
  1

  9
$DIMSTYLE
  2
ISO-25
  9
$DIMCLRD
 70
     0
  9
$DIMCLRE
 70
     0
  9
$DIMCLRT
 70
     0
  9
$DIMTFAC
 40
1.0
  9
$DIMGAP
 40
0.625
  9
$DIMJUST
 70
     0
  9
$DIMSD1
 70
     0
  9
$DIMSD2
 70
     0
  9
$DIMTOLJ
 70
     0
  9
$DIMTZIN
 70
     8
  9
$DIMALTZ
 70
     0
  9
$DIMALTTZ
 70
     0
  9
$DIMUPT
 70
     0
  9
$DIMDEC
 70
     2
  9
$DIMTDEC
 70
     2
  9
$DIMALTU
 70
     2
  9
$DIMALTTD
 70
     3
  9
$DIMTXSTY
  7
Standard
  9
$DIMAUNIT
 70
     0
  9
$DIMADEC
 70
     0
  9
$DIMALTRND
 40
0.0
  9
$DIMAZIN
 70
     0
  9
$DIMDSEP
 70
    44
  9
$DIMATFIT
 70
     3
  9
$DIMFRAC
 70
     0
  9
$DIMLDRBLK
  1

  9
$DIMLUNIT
 70
     2
  9
$DIMLWD
 70
    -2
  9
$DIMLWE
 70
    -2
  9
$DIMTMOVE
 70
     0
  9
$LUNITS
 70
     2
  9
$LUPREC
 70
     4
  9
$SKETCHINC
 40
1.0
  9
$FILLETRAD
 40
10.0
  9
$AUNITS
 70
     0
  9
$AUPREC
 70
     0
  9
$MENU
  1
.
  9
$ELEVATION
 40
0.0
  9
$PELEVATION
 40
0.0
  9
$THICKNESS
 40
0.0
  9
$LIMCHECK
 70
     0
  9
$CHAMFERA
 40
10.0
  9
$CHAMFERB
 40
10.0
  9
$CHAMFERC
 40
20.0
  9
$CHAMFERD
 40
0.0
  9
$SKPOLY
 70
     0
  9
$TDCREATE
 40
2456905.40109191
  9
$TDUCREATE
 40
2456905.02609191
  9
$TDUPDATE
 40
2456905.401091921
  9
$TDUUPDATE
 40
2456905.026091921
  9
$TDINDWG
 40
0.0000000116
  9
$TDUSRTIMER
 40
0.0000000116
  9
$USRTIMER
 70
     1
  9
$ANGBASE
 50
0.0
  9
$ANGDIR
 70
     0
  9
$PDMODE
 70
     0
  9
$PDSIZE
 40
0.0
  9
$PLINEWID
 40
0.0
  9
$SPLFRAME
 70
     0
  9
$SPLINETYPE
 70
     6
  9
$SPLINESEGS
 70
     8
  9
$HANDSEED
  5
35C
  9
$SURFTAB1
 70
     6
  9
$SURFTAB2
 70
     6
  9
$SURFTYPE
 70
     6
  9
$SURFU
 70
     6
  9
$SURFV
 70
     6
  9
$UCSBASE
  2

  9
$UCSNAME
  2

  9
$UCSORG
 10
0.0
 20
0.0
 30
0.0
  9
$UCSXDIR
 10
1.0
 20
0.0
 30
0.0
  9
$UCSYDIR
 10
0.0
 20
1.0
 30
0.0
  9
$UCSORTHOREF
  2

  9
$UCSORTHOVIEW
 70
     0
  9
$UCSORGTOP
 10
0.0
 20
0.0
 30
0.0
  9
$UCSORGBOTTOM
 10
0.0
 20
0.0
 30
0.0
  9
$UCSORGLEFT
 10
0.0
 20
0.0
 30
0.0
  9
$UCSORGRIGHT
 10
0.0
 20
0.0
 30
0.0
  9
$UCSORGFRONT
 10
0.0
 20
0.0
 30
0.0
  9
$UCSORGBACK
 10
0.0
 20
0.0
 30
0.0
  9
$PUCSBASE
  2

  9
$PUCSNAME
  2

  9
$PUCSORG
 10
0.0
 20
0.0
 30
0.0
  9
$PUCSXDIR
 10
1.0
 20
0.0
 30
0.0
  9
$PUCSYDIR
 10
0.0
 20
1.0
 30
0.0
  9
$PUCSORTHOREF
  2

  9
$PUCSORTHOVIEW
 70
     0
  9
$PUCSORGTOP
 10
0.0
 20
0.0
 30
0.0
  9
$PUCSORGBOTTOM
 10
0.0
 20
0.0
 30
0.0
  9
$PUCSORGLEFT
 10
0.0
 20
0.0
 30
0.0
  9
$PUCSORGRIGHT
 10
0.0
 20
0.0
 30
0.0
  9
$PUCSORGFRONT
 10
0.0
 20
0.0
 30
0.0
  9
$PUCSORGBACK
 10
0.0
 20
0.0
 30
0.0
  9
$USERI1
 70
     0
  9
$USERI2
 70
     0
  9
$USERI3
 70
     0
  9
$USERI4
 70
     0
  9
$USERI5
 70
     0
  9
$USERR1
 40
0.0
  9
$USERR2
 40
0.0
  9
$USERR3
 40
0.0
  9
$USERR4
 40
0.0
  9
$USERR5
 40
0.0
  9
$WORLDVIEW
 70
     1
  9
$SHADEDGE
 70
     3
  9
$SHADEDIF
 70
    70
  9
$TILEMODE
 70
     1
  9
$MAXACTVP
 70
    64
  9
$PINSBASE
 10
0.0
 20
0.0
 30
0.0
  9
$PLIMCHECK
 70
     0
  9
$PEXTMIN
 10
1.000000000000000E+20
 20
1.000000000000000E+20
 30
1.000000000000000E+20
  9
$PEXTMAX
 10
-1.000000000000000E+20
 20
-1.000000000000000E+20
 30
-1.000000000000000E+20
  9
$PLIMMIN
 10
0.0
 20
0.0
  9
$PLIMMAX
 10
420.0
 20
297.0
  9
$UNITMODE
 70
     0
  9
$VISRETAIN
 70
     1
  9
$PLINEGEN
 70
     0
  9
$PSLTSCALE
 70
     1
  9
$TREEDEPTH
 70
  3020
  9
$CMLSTYLE
  2
Standard
  9
$CMLJUST
 70
     0
  9
$CMLSCALE
 40
20.0
  9
$PROXYGRAPHICS
 70
     1
  9
$MEASUREMENT
 70
     1
  9
$CELWEIGHT
370
    -1
  9
$ENDCAPS
280
     0
  9
$JOINSTYLE
280
     0
  9
$LWDISPLAY
290
     0
  9
$INSUNITS
 70
     4
  9
$HYPERLINKBASE
  1

  9
$STYLESHEET
  1

  9
$XEDIT
290
     1
  9
$CEPSNTYPE
380
     0
  9
$PSTYLEMODE
290
     1
  9
$FINGERPRINTGUID
  2
{384133E8-5B18-406E-83E7-021CF39D5DDA}
  9
$VERSIONGUID
  2
{FAEB1C32-E019-11D5-929B-00C0DF256EC4}
  9
$EXTNAMES
290
     1
  9
$PSVPSCALE
 40
0.0
  9
$OLESTARTUP
290
     0
  0
ENDSEC
  0
SECTION
  2
CLASSES
  0
CLASS
  1
ACDBDICTIONARYWDFLT
  2
AcDbDictionaryWithDefault
  3
ObjectDBX Classes
 90
        0
280
     0
281
     0
  0
CLASS
  1
VISUALSTYLE
  2
AcDbVisualStyle
  3
ObjectDBX Classes
 90
     4095
280
     0
281
     0
  0
CLASS
  1
DICTIONARYVAR
  2
AcDbDictionaryVar
  3
ObjectDBX Classes
 90
        0
280
     0
281
     0
  0
CLASS
  1
ACDBPLACEHOLDER
  2
AcDbPlaceHolder
  3
ObjectDBX Classes
 90
        0
280
     0
281
     0
  0
CLASS
  1
LAYOUT
  2
AcDbLayout
  3
ObjectDBX Classes
 90
        0
280
     0
281
     0
  0
ENDSEC
  0
SECTION
  2
TABLES
  0
TABLE
  2
VPORT
  5
8
330
0
100
AcDbSymbolTable
 70
     1
  0
VPORT
  5
29
330
8
100
AcDbSymbolTableRecord
100
AcDbViewportTableRecord
  2
*Active
 70
     0
 10
0.0
 20
0.0
 11
1.0
 21
1.0
 12
0.0
 22
0.0
 13
0.0
 23
0.0
 14
10.0
 24
10.0
 15
10.0
 25
10.0
 16
0.0
 26
0.0
 36
1.0
 17
0.0
 27
0.0
 37
0.0
 40
4620.0
 41
1.414285714285715
 42
50.0
 43
0.0
 44
0.0
 50
0.0
 51
0.0
 71
     0
 72
 10000
 73
     1
 74
     3
 75
     0
 76
     0
 77
     0
 78
     0
281
     0
 65
     1
110
0.0
120
0.0
130
0.0
111
1.0
121
0.0
131
0.0
112
0.0
122
1.0
132
0.0
 79
     0
146
0.0
  0
ENDTAB
  0
TABLE
  2
LTYPE
  5
5
330
0
100
AcDbSymbolTable
 70
     6
  0
LTYPE
  5
14
330
5
100
AcDbSymbolTableRecord
100
AcDbLinetypeTableRecord
  2
ByBlock
 70
     0
  3

 72
    65
 73
     0
 40
0.0
  0
LTYPE
  5
15
330
5
100
AcDbSymbolTableRecord
100
AcDbLinetypeTableRecord
  2
ByLayer
 70
     0
  3

 72
    65
 73
     0
 40
0.0
  0
LTYPE
  5
16
330
5
100
AcDbSymbolTableRecord
100
AcDbLinetypeTableRecord
  2
Continuous
 70
     0
  3
Solid line
 72
    65
 73
     0
 40
0.0
  0
LTYPE
  5
3C
330
5
100
AcDbSymbolTableRecord
100
AcDbLinetypeTableRecord
  2
JWW_DASHED1
 70
     0
  3
-  --  --  --  --  --  --  --  -
 72
    65
 73
     2
 40
1.693333333333333
 49
0.8466666666666667
 74
     0
 49
-0.8466666666666667
 74
     0
  0
LTYPE
  5
3D
330
5
100
AcDbSymbolTableRecord
100
AcDbLinetypeTableRecord
  2
JWW_PHANTOM2
 70
     0
  3
------------  -  -  ------------
 72
    65
 73
     6
 40
13.54666666666667
 49
10.16
 74
     0
 49
-0.8466666666666667
 74
     0
 49
0.4233333333333333
 74
     0
 49
-0.8466666666666667
 74
     0
 49
0.4233333333333333
 74
     0
 49
-0.8466666666666667
 74
     0
  0
LTYPE
  5
3E
330
5
100
AcDbSymbolTableRecord
100
AcDbLinetypeTableRecord
  2
JWW_CENTER2
 70
     0
  3
-------------  --  -------------
 72
    65
 73
     4
 40
13.54666666666667
 49
11.00666666666667
 74
     0
 49
-0.8466666666666667
 74
     0
 49
0.8466666666666667
 74
     0
 49
-0.8466666666666667
 74
     0
  0
LTYPE
  5
3F
330
5
100
AcDbSymbolTableRecord
100
AcDbLinetypeTableRecord
  2
JWW_CENTER1
 70
     0
  3
-----  --  ----------  --  -----
 72
    65
 73
     4
 40
6.773333333333333
 49
4.233333333333333
 74
     0
 49
-0.8466666666666667
 74
     0
 49
0.8466666666666667
 74
     0
 49
-0.8466666666666667
 74
     0
  0
LTYPE
  5
40
330
5
100
AcDbSymbolTableRecord
100
AcDbLinetypeTableRecord
  2
JWW_DASHED2
 70
     0
  3
--    ----    ----    ----    --
 72
    65
 73
     2
 40
3.386666666666667
 49
1.693333333333333
 74
     0
 49
-1.693333333333333
 74
     0
  0
ENDTAB
  0
TABLE
  2
LAYER
  5
2
330
0
100
AcDbSymbolTable
 70
    14
  0
LAYER
  5
10
330
2
100
AcDbSymbolTableRecord
100
AcDbLayerTableRecord
  2
0
 70
     0
 62
     7
  6
Continuous
370
    -3
390
F
  0
LAYER
  5
41
330
2
100
AcDbSymbolTableRecord
100
AcDbLayerTableRecord
  2
通り芯
 70
     0
 62
     7
  6
Continuous
370
    -3
390
F
  0
LAYER
  5
42
330
2
100
AcDbSymbolTableRecord
100
AcDbLayerTableRecord
  2
092
 70
     0
 62
     7
  6
Continuous
370
    -3
390
F
  0
LAYER
  5
43
330
2
100
AcDbSymbolTableRecord
100
AcDbLayerTableRecord
  2
躯体
 70
     0
 62
     7
  6
Continuous
370
    -3
390
F
  0
LAYER
  5
44
330
2
100
AcDbSymbolTableRecord
100
AcDbLayerTableRecord
  2
_2-c_Shi
 70
     0
 62
     7
  6
Continuous
370
    -3
390
F
  0
LAYER
  5
45
330
2
100
AcDbSymbolTableRecord
100
AcDbLayerTableRecord
  2
1-0ﾚｲﾔ
 70
     0
 62
     7
  6
Continuous
370
    -3
390
F
  0
LAYER
  5
46
330
2
100
AcDbSymbolTableRecord
100
AcDbLayerTableRecord
  2
Hojo
 70
     0
 62
     7
  6
Continuous
370
    -3
390
F
  0
LAYER
  5
47
330
2
100
AcDbSymbolTableRecord
100
AcDbLayerTableRecord
  2
1-1ﾚｲﾔ
 70
     0
 62
     7
  6
Continuous
370
    -3
390
F
  0
LAYER
  5
48
330
2
100
AcDbSymbolTableRecord
100
AcDbLayerTableRecord
  2
_2-a_N_s
 70
     0
 62
     7
  6
Continuous
370
    -3
390
F
  0
LAYER
  5
49
330
2
100
AcDbSymbolTableRecord
100
AcDbLayerTableRecord
  2
Yobi_3
 70
     0
 62
     7
  6
Continuous
370
    -3
390
F
  0
LAYER
  5
4A
330
2
100
AcDbSymbolTableRecord
100
AcDbLayerTableRecord
  2
4-F
 70
     0
 62
     7
  6
Continuous
370
    -3
390
F
  0
LAYER
  5
4B
330
2
100
AcDbSymbolTableRecord
100
AcDbLayerTableRecord
  2
2-Fﾚｲﾔ
 70
     0
 62
     7
  6
Continuous
370
    -3
390
F
  0
LAYER
  5
4C
330
2
100
AcDbSymbolTableRecord
100
AcDbLayerTableRecord
  2
3-F
 70
     0
 62
     7
  6
Continuous
370
    -3
390
F
  0
LAYER
  5
4D
330
2
100
AcDbSymbolTableRecord
100
AcDbLayerTableRecord
  2
F-Fﾚｲﾔ
 70
     0
 62
     7
  6
Continuous
370
    -3
390
F
  0
ENDTAB
  0
TABLE
  2
STYLE
  5
3
330
0
100
AcDbSymbolTable
 70
     2
  0
STYLE
  5
11
330
3
100
AcDbSymbolTableRecord
100
AcDbTextStyleTableRecord
  2
Standard
 70
     0
 40
0.0
 41
1.0
 50
0.0
 71
     0
 42
2.5
  3
txt
  4

1001
ACAD
1000

1071
        0
  0
STYLE
  5
3B
330
3
100
AcDbSymbolTableRecord
100
AcDbTextStyleTableRecord
  2
ＭＳ ゴシック
 70
     0
 40
1.0
 41
1.0
 50
0.0
 71
     0
 42
10.0
  3

  4

1001
ACAD
1000
MS Gothic
1071
    32817
  0
ENDTAB
  0
TABLE
  2
VIEW
  5
6
330
0
100
AcDbSymbolTable
 70
     0
  0
ENDTAB
  0
TABLE
  2
UCS
  5
7
330
0
100
AcDbSymbolTable
 70
     0
  0
ENDTAB
  0
TABLE
  2
APPID
  5
9
330
0
100
AcDbSymbolTable
 70
     1
  0
APPID
  5
12
330
9
100
AcDbSymbolTableRecord
100
AcDbRegAppTableRecord
  2
ACAD
 70
     0
  0
ENDTAB
  0
TABLE
  2
DIMSTYLE
  5
A
330
0
100
AcDbSymbolTable
 70
     1
100
AcDbDimStyleTable
  0
DIMSTYLE
105
27
330
A
100
AcDbSymbolTableRecord
100
AcDbDimStyleTableRecord
  2
ISO-25
 70
     0
 41
2.5
 42
0.625
 43
3.75
 44
1.25
 73
     0
 74
     0
 77
     1
 78
     8
140
2.5
141
2.5
143
0.03937007874016
147
0.625
171
     3
172
     1
271
     2
272
     2
274
     3
278
    44
283
     0
284
     8
340
11
  0
ENDTAB
  0
TABLE
  2
BLOCK_RECORD
  5
1
330
0
100
AcDbSymbolTable
 70
     1
  0
BLOCK_RECORD
  5
1F
330
1
100
AcDbSymbolTableRecord
100
AcDbBlockTableRecord
  2
*Model_Space
340
22
  0
BLOCK_RECORD
  5
1B
330
1
100
AcDbSymbolTableRecord
100
AcDbBlockTableRecord
  2
*Paper_Space
340
1E
  0
BLOCK_RECORD
  5
23
330
1
100
AcDbSymbolTableRecord
100
AcDbBlockTableRecord
  2
*Paper_Space0
340
26
  0
ENDTAB
  0
ENDSEC
  0
SECTION
  2
BLOCKS
  0
BLOCK
  5
20
330
1F
100
AcDbEntity
  8
0
100
AcDbBlockBegin
  2
*Model_Space
 70
     0
 10
0.0
 20
0.0
 30
0.0
  3
*Model_Space
  1

  0
ENDBLK
  5
21
330
1F
100
AcDbEntity
  8
0
100
AcDbBlockEnd
  0
BLOCK
  5
1C
330
1B
100
AcDbEntity
 67
     1
  8
0
100
AcDbBlockBegin
  2
*Paper_Space
 70
     0
 10
0.0
 20
0.0
 30
0.0
  3
*Paper_Space
  1

  0
ENDBLK
  5
1D
330
1B
100
AcDbEntity
 67
     1
  8
0
100
AcDbBlockEnd
  0
BLOCK
  5
24
330
23
100
AcDbEntity
  8
0
100
AcDbBlockBegin
  2
*Paper_Space0
 70
     0
 10
0.0
 20
0.0
 30
0.0
  3
*Paper_Space0
  1

  0
ENDBLK
  5
25
330
23
100
AcDbEntity
  8
0
100
AcDbBlockEnd
  0
ENDSEC
  0
SECTION
  2
ENTITIES
  0
LINE
  5
4E
330
1F
100
AcDbEntity
  8
通り芯
  6
Continuous
 62
     4
370
     9
100
AcDbLine
 10
-1949.266387238006
 20
1219.605124397167
 30
0.0
 11
-1949.266387238006
 21
1603.605224787038
 31
0.0
  0
LINE
  5
4F
330
1F
100
AcDbEntity
  8
通り芯
  6
Continuous
 62
     4
370
     9
100
AcDbLine
 10
-1949.266387238006
 20
1603.605224787038
 30
0.0
 11
-949.2664320128307
 21
1603.605224787038
 31
0.0
  0
LINE
  5
50
330
1F
100
AcDbEntity
  8
通り芯
  6
Continuous
 62
     4
370
     9
100
AcDbLine
 10
-949.2664320128307
 20
1603.605224787038
 30
0.0
 11
-949.2664320128307
 21
1219.605124397167
 31
0.0
  0
LINE
  5
51
330
1F
100
AcDbEntity
  8
通り芯
  6
JWW_DASHED1
 62
     4
370
     9
100
AcDbLine
 10
-1945.266451808016
 20
1219.605124397167
 30
0.0
 11
-1945.266451808016
 21
1603.605224787038
 31
0.0
  0
LINE
  5
52
330
1F
100
AcDbEntity
  8
通り芯
  6
JWW_DASHED1
 62
     4
370
     9
100
AcDbLine
 10
-953.2663674428198
 20
1603.605224787038
 30
0.0
 11
-953.2663674428198
 21
1219.605124397167
 31
0.0
  0
LINE
  5
53
330
1F
100
AcDbEntity
  8
通り芯
  6
Continuous
 62
     4
370
     9
100
AcDbLine
 10
-1257.266359430482
 20
1219.605124397167
 30
0.0
 11
-1257.266359430482
 21
561.6050726704614
 31
0.0
  0
LINE
  5
54
330
1F
100
AcDbEntity
  8
通り芯
  6
Continuous
 62
     4
370
     9
100
AcDbLine
 10
-1257.266359430482
 20
561.6050726704614
 30
0.0
 11
-1641.266459820353
 21
561.6050726704614
 31
0.0
  0
LINE
  5
55
330
1F
100
AcDbEntity
  8
通り芯
  6
Continuous
 62
     4
370
     9
100
AcDbLine
 10
-1641.266459820353
 20
561.6050726704614
 30
0.0
 11
-1641.266459820353
 21
1219.605124397167
 31
0.0
  0
LINE
  5
56
330
1F
100
AcDbEntity
  8
通り芯
  6
Continuous
 62
     4
370
     9
100
AcDbLine
 10
-1641.266459820353
 20
1219.605124397167
 30
0.0
 11
-1949.266387238006
 21
1219.605124397167
 31
0.0
  0
LINE
  5
57
330
1F
100
AcDbEntity
  8
通り芯
  6
Continuous
 62
     4
370
     9
100
AcDbLine
 10
-949.2664320128307
 20
1219.605124397167
 30
0.0
 11
-1257.266359430482
 21
1219.605124397167
 31
0.0
  0
LINE
  5
58
330
1F
100
AcDbEntity
  8
通り芯
  6
JWW_DASHED1
 62
     4
370
     9
100
AcDbLine
 10
-1257.266359430482
 20
565.6050081004505
 30
0.0
 11
-1641.266459820353
 21
565.6050081004505
 31
0.0
  0
LINE
  5
59
330
1F
100
AcDbEntity
  8
通り芯
  6
Continuous
 62
     4
370
     9
100
AcDbLine
 10
-949.2664320128307
 20
1411.605174592102
 30
0.0
 11
-1949.266387238006
 21
1411.605174592102
 31
0.0
  0
LINE
  5
5A
330
1F
100
AcDbEntity
  8
通り芯
  6
Continuous
 62
     4
370
     9
100
AcDbLine
 10
-1449.266409625418
 20
561.6050726704614
 30
0.0
 11
-1449.266409625418
 21
1411.605174592102
 31
0.0
  0
LINE
  5
5B
330
1F
100
AcDbEntity
  8
通り芯
  6
Continuous
 62
     4
370
     9
100
AcDbLine
 10
-1949.266387238006
 20
1563.605170585934
 30
0.0
 11
-949.2664320128307
 21
1563.605170585934
 31
0.0
  0
LINE
  5
5C
330
1F
100
AcDbEntity
  8
通り芯
  6
Continuous
 62
     4
370
     9
100
AcDbLine
 10
-1949.266387238006
 20
1511.605310094863
 30
0.0
 11
-949.2664320128307
 21
1511.605310094863
 31
0.0
  0
LINE
  5
5D
330
1F
100
AcDbEntity
  8
通り芯
  6
Continuous
 62
     4
370
     9
100
AcDbLine
 10
-1641.266459820353
 20
1219.605124397167
 30
0.0
 11
-1449.266409625418
 21
1411.605174592102
 31
0.0
  0
LINE
  5
5E
330
1F
100
AcDbEntity
  8
通り芯
  6
Continuous
 62
     4
370
     9
100
AcDbLine
 10
-1449.266409625418
 20
1411.605174592102
 30
0.0
 11
-1257.266359430482
 21
1219.605124397167
 31
0.0
  0
LINE
  5
5F
330
1F
100
AcDbEntity
  8
通り芯
  6
Continuous
 62
     4
370
     9
100
AcDbLine
 10
-1549.266545128178
 20
1311.605039089343
 30
0.0
 11
-1949.266387238006
 21
1311.605039089343
 31
0.0
  0
LINE
  5
60
330
1F
100
AcDbEntity
  8
通り芯
  6
Continuous
 62
     4
370
     9
100
AcDbLine
 10
-1601.266405619249
 20
1259.605178598272
 30
0.0
 11
-1949.266387238006
 21
1259.605178598272
 31
0.0
  0
LINE
  5
61
330
1F
100
AcDbEntity
  8
通り芯
  6
Continuous
 62
     4
370
     9
100
AcDbLine
 10
-949.2664320128307
 20
1311.605039089343
 30
0.0
 11
-1349.266274122658
 21
1311.605039089343
 31
0.0
  0
LINE
  5
62
330
1F
100
AcDbEntity
  8
通り芯
  6
Continuous
 62
     4
370
     9
100
AcDbLine
 10
-949.2664320128307
 20
1259.605178598272
 30
0.0
 11
-1297.266413631587
 21
1259.605178598272
 31
0.0
  0
LINE
  5
63
330
1F
100
AcDbEntity
  8
通り芯
  6
Continuous
 62
     4
370
     9
100
AcDbLine
 10
-1601.266405619249
 20
1259.605178598272
 30
0.0
 11
-1601.266405619249
 21
561.6050726704614
 31
0.0
  0
LINE
  5
64
330
1F
100
AcDbEntity
  8
通り芯
  6
Continuous
 62
     4
370
     9
100
AcDbLine
 10
-1549.266545128178
 20
1311.605039089343
 30
0.0
 11
-1549.266545128178
 21
561.6050726704614
 31
0.0
  0
LINE
  5
65
330
1F
100
AcDbEntity
  8
通り芯
  6
Continuous
 62
     4
370
     9
100
AcDbLine
 10
-1349.266274122658
 20
1311.605039089343
 30
0.0
 11
-1349.266274122658
 21
561.6050726704614
 31
0.0
  0
LINE
  5
66
330
1F
100
AcDbEntity
  8
通り芯
  6
Continuous
 62
     4
370
     9
100
AcDbLine
 10
-1297.266413631587
 20
1259.605178598272
 30
0.0
 11
-1297.266413631587
 21
561.6050726704614
 31
0.0
  0
LINE
  5
67
330
1F
100
AcDbEntity
  8
通り芯
  6
JWW_DASHED1
 62
     4
370
     9
100
AcDbLine
 10
-1859.266440260824
 20
1219.605124397167
 30
0.0
 11
-1859.266440260824
 21
1603.605224787038
 31
0.0
  0
LINE
  5
68
330
1F
100
AcDbEntity
  8
通り芯
  6
JWW_DASHED1
 62
     4
370
     9
100
AcDbLine
 10
-1039.266378990012
 20
1603.605224787038
 30
0.0
 11
-1039.266378990012
 21
1219.605124397167
 31
0.0
  0
LINE
  5
69
330
1F
100
AcDbEntity
  8
通り芯
  6
JWW_DASHED1
 62
     4
370
     9
100
AcDbLine
 10
-1257.266359430482
 20
651.6050196476422
 30
0.0
 11
-1641.266459820353
 21
651.6050196476422
 31
0.0
  0
LINE
  5
6A
330
1F
100
AcDbEntity
  8
通り芯
  6
JWW_DASHED1
 62
     4
370
     9
100
AcDbLine
 10
-1345.266338692669
 20
1147.605236805544
 30
0.0
 11
-1345.266338692669
 21
1219.605124397167
 31
0.0
  0
LINE
  5
6B
330
1F
100
AcDbEntity
  8
通り芯
  6
JWW_DASHED1
 62
     4
370
     9
100
AcDbLine
 10
-1257.266359430482
 20
1147.605236805544
 30
0.0
 11
-1345.266338692669
 21
1147.605236805544
 31
0.0
  0
LINE
  5
6C
330
1F
100
AcDbEntity
  8
通り芯
  6
JWW_DASHED1
 62
     4
370
     9
100
AcDbLine
 10
-1345.266338692669
 20
1219.605124397167
 30
0.0
 11
-1257.266359430482
 21
1219.605124397167
 31
0.0
  0
LINE
  5
6D
330
1F
100
AcDbEntity
  8
通り芯
  6
JWW_DASHED1
 62
     4
370
     9
100
AcDbLine
 10
-1341.26640326268
 20
1147.605236805544
 30
0.0
 11
-1341.26640326268
 21
1219.605124397167
 31
0.0
  0
LINE
  5
6E
330
1F
100
AcDbEntity
  8
通り芯
  6
JWW_DASHED1
 62
     4
370
     9
100
AcDbLine
 10
-1553.266480558167
 20
1147.605236805544
 30
0.0
 11
-1553.266480558167
 21
1219.605124397167
 31
0.0
  0
LINE
  5
6F
330
1F
100
AcDbEntity
  8
通り芯
  6
JWW_DASHED1
 62
     4
370
     9
100
AcDbLine
 10
-1641.266459820353
 20
1147.605236805544
 30
0.0
 11
-1553.266480558167
 21
1147.605236805544
 31
0.0
  0
LINE
  5
70
330
1F
100
AcDbEntity
  8
通り芯
  6
JWW_DASHED1
 62
     4
370
     9
100
AcDbLine
 10
-1553.266480558167
 20
1219.605124397167
 30
0.0
 11
-1641.266459820353
 21
1219.605124397167
 31
0.0
  0
LINE
  5
71
330
1F
100
AcDbEntity
  8
通り芯
  6
JWW_DASHED1
 62
     4
370
     9
100
AcDbLine
 10
-1557.266415988156
 20
1147.605236805544
 30
0.0
 11
-1557.266415988156
 21
1219.605124397167
 31
0.0
  0
LINE
  5
72
330
1F
100
AcDbEntity
  8
092
  6
Continuous
 62
     7
370
     9
100
AcDbLine
 10
-2053.617808579478
 20
1411.605174592102
 30
0.0
 11
-2129.884643913696
 21
1435.877048743738
 31
0.0
  0
LINE
  5
73
330
1F
100
AcDbEntity
  8
092
  6
Continuous
 62
     7
370
     9
100
AcDbLine
 10
-2129.884643913696
 20
1435.877048743738
 30
0.0
 11
-2129.884643913696
 21
1385.598945235654
 31
0.0
  0
LINE
  5
74
330
1F
100
AcDbEntity
  8
092
  6
Continuous
 62
     7
370
     9
100
AcDbLine
 10
-844.915010671358
 20
1411.605174592102
 30
0.0
 11
-768.648350312443
 21
1435.877048743738
 31
0.0
  0
LINE
  5
75
330
1F
100
AcDbEntity
  8
092
  6
Continuous
 62
     7
370
     9
100
AcDbLine
 10
-768.648350312443
 20
1435.877048743738
 30
0.0
 11
-768.648350312443
 21
1385.598945235654
 31
0.0
  0
LINE
  5
76
330
1F
100
AcDbEntity
  8
092
  6
Continuous
 62
     7
370
     9
100
AcDbLine
 10
-844.915010671358
 20
1411.605174592102
 30
0.0
 11
-681.1785462187987
 21
1411.605174592102
 31
0.0
  0
LINE
  5
77
330
1F
100
AcDbEntity
  8
092
  6
Continuous
 62
     7
370
     9
100
AcDbLine
 10
-2053.617808579478
 20
1411.605174592102
 30
0.0
 11
-2217.354098056735
 21
1411.605174592102
 31
0.0
  0
LINE
  5
78
330
1F
100
AcDbEntity
  8
092
  6
Continuous
 62
     7
370
     9
100
AcDbLine
 10
-1713.996344376715
 20
1036.241155264461
 30
0.0
 11
-1738.26821852835
 21
959.974319930242
 31
0.0
  0
LINE
  5
79
330
1F
100
AcDbEntity
  8
092
  6
Continuous
 62
     7
370
     9
100
AcDbLine
 10
-1738.26821852835
 20
959.974319930242
 30
0.0
 11
-1687.990115020266
 21
959.974319930242
 31
0.0
  0
LINE
  5
7A
330
1F
100
AcDbEntity
  8
092
  6
Continuous
 62
     7
370
     9
100
AcDbLine
 10
-1713.996344376715
 20
1036.241155264461
 30
0.0
 11
-1713.996344376715
 21
872.5045158365979
 31
0.0
  0
LINE
  5
7B
330
1F
100
AcDbEntity
  8
092
  6
Continuous
 62
     7
370
     9
100
AcDbLine
 10
-1184.515827788349
 20
1036.241155264461
 30
0.0
 11
-1160.243953636715
 21
959.974319930242
 31
0.0
  0
LINE
  5
7C
330
1F
100
AcDbEntity
  8
092
  6
Continuous
 62
     7
370
     9
100
AcDbLine
 10
-1160.243953636715
 20
959.974319930242
 30
0.0
 11
-1210.522057144799
 21
959.974319930242
 31
0.0
  0
LINE
  5
7D
330
1F
100
AcDbEntity
  8
092
  6
Continuous
 62
     7
370
     9
100
AcDbLine
 10
-1184.515827788349
 20
1036.241155264461
 30
0.0
 11
-1184.515827788349
 21
872.5045158365979
 31
0.0
  0
LINE
  5
7E
330
1F
100
AcDbEntity
  8
092
  6
Continuous
 62
     7
370
     9
100
AcDbLine
 10
-1449.266409625418
 20
524.8098661218366
 30
0.0
 11
-1473.538283777053
 21
448.5430307876189
 31
0.0
  0
LINE
  5
7F
330
1F
100
AcDbEntity
  8
092
  6
Continuous
 62
     7
370
     9
100
AcDbLine
 10
-1473.538283777053
 20
448.5430307876189
 30
0.0
 11
-1423.260180268969
 21
448.5430307876189
 31
0.0
  0
LINE
  5
80
330
1F
100
AcDbEntity
  8
092
  6
Continuous
 62
     7
370
     9
100
AcDbLine
 10
-1449.266409625418
 20
524.8098661218366
 30
0.0
 11
-1449.266409625418
 21
361.0732266939743
 31
0.0
  0
LINE
  5
81
330
1F
100
AcDbEntity
  8
092
  6
Continuous
 62
     7
370
     9
100
AcDbLine
 10
-1949.266387238006
 20
1738.154233896594
 30
0.0
 11
-949.2664320128307
 21
1738.154233896594
 31
0.0
  0
LINE
  5
82
330
1F
100
AcDbEntity
  8
092
  6
Continuous
 62
     7
370
     9
100
AcDbLine
 10
-1949.266387238006
 20
1633.605090462563
 30
0.0
 11
-1949.266387238006
 21
1741.154360444389
 31
0.0
  0
LINE
  5
83
330
1F
100
AcDbEntity
  8
092
  6
Continuous
 62
     7
370
     9
100
AcDbLine
 10
-949.2664320128307
 20
1633.605090462563
 30
0.0
 11
-949.2664320128307
 21
1741.154360444389
 31
0.0
  0
LINE
  5
84
330
1F
100
AcDbEntity
  8
092
  6
Continuous
 62
     7
370
     9
100
AcDbLine
 10
-604.7789046294904
 20
1603.605224787038
 30
0.0
 11
-604.7789046294904
 21
561.6050726704614
 31
0.0
  0
LINE
  5
85
330
1F
100
AcDbEntity
  8
092
  6
Continuous
 62
     7
370
     9
100
AcDbLine
 10
-919.2663913620027
 20
1603.605224787038
 30
0.0
 11
-601.7789530569985
 21
1603.605224787038
 31
0.0
  0
LINE
  5
86
330
1F
100
AcDbEntity
  8
092
  6
Continuous
 62
     7
370
     9
100
AcDbLine
 10
-919.2663913620027
 20
1219.605124397167
 30
0.0
 11
-601.7789530569985
 21
1219.605124397167
 31
0.0
  0
LINE
  5
87
330
1F
100
AcDbEntity
  8
092
  6
Continuous
 62
     7
370
     9
100
AcDbLine
 10
-1227.266318779655
 20
561.6050726704614
 30
0.0
 11
-601.7789530569985
 21
561.6050726704614
 31
0.0
  0
LINE
  5
88
330
1F
100
AcDbEntity
  8
092
  6
Continuous
 62
     7
370
     9
100
AcDbLine
 10
-1949.266387238006
 20
273.5794509837984
 30
0.0
 11
-949.2664320128307
 21
273.5794509837984
 31
0.0
  0
LINE
  5
89
330
1F
100
AcDbEntity
  8
092
  6
Continuous
 62
     7
370
     9
100
AcDbLine
 10
-1641.266459820353
 20
531.6050320196334
 30
0.0
 11
-1641.266459820353
 21
270.5794994113066
 31
0.0
  0
LINE
  5
8A
330
1F
100
AcDbEntity
  8
092
  6
Continuous
 62
     7
370
     9
100
AcDbLine
 10
-1257.266359430482
 20
531.6050320196334
 30
0.0
 11
-1257.266359430482
 21
270.5794994113066
 31
0.0
  0
LINE
  5
8B
330
1F
100
AcDbEntity
  8
092
  6
Continuous
 62
     7
370
     9
100
AcDbLine
 10
-1349.265924172052
 20
762.1397182517987
 30
0.0
 11
-949.2667819634369
 21
762.1397182517987
 31
0.0
  0
LINE
  5
8C
330
1F
100
AcDbEntity
  8
092
  6
Continuous
 62
     7
370
     9
100
AcDbLine
 10
-1349.265924172052
 20
732.1396776009713
 30
0.0
 11
-1349.265924172052
 21
759.1397666793071
 31
0.0
  0
LINE
  5
8D
330
1F
100
AcDbEntity
  8
092
  6
Continuous
 62
     7
370
     9
100
AcDbLine
 10
-949.2667819634369
 20
270.5794994113066
 30
0.0
 11
-949.2667819634369
 21
778.0817181217164
 31
0.0
  0
LINE
  5
8E
330
1F
100
AcDbEntity
  8
躯体
  6
JWW_PHANTOM2
 62
     7
370
     9
100
AcDbLine
 10
-1144.965460116339
 20
1036.241155264461
 30
0.0
 11
-1753.722387253088
 21
1036.241155264461
 31
0.0
  0
LINE
  5
8F
330
1F
100
AcDbEntity
  8
092
  6
Continuous
 62
     7
370
     9
100
AcDbLine
 10
-949.2664320128307
 20
1189.604908771036
 30
0.0
 11
-949.2664320128307
 21
852.0222568005668
 31
0.0
  0
LINE
  5
90
330
1F
100
AcDbEntity
  8
092
  6
Continuous
 62
     7
370
     9
100
AcDbLine
 10
-1949.266037287399
 20
762.1397182517987
 30
0.0
 11
-1549.266195177572
 21
762.1397182517987
 31
0.0
  0
LINE
  5
91
330
1F
100
AcDbEntity
  8
092
  6
Continuous
 62
     7
370
     9
100
AcDbLine
 10
-1949.266037287399
 20
270.5794994113066
 30
0.0
 11
-1949.266037287399
 21
778.0817181217164
 31
0.0
  0
LINE
  5
92
330
1F
100
AcDbEntity
  8
092
  6
Continuous
 62
     7
370
     9
100
AcDbLine
 10
-1549.266195177572
 20
732.1396776009713
 30
0.0
 11
-1549.266195177572
 21
759.1397666793071
 31
0.0
  0
LINE
  5
93
330
1F
100
AcDbEntity
  8
092
  6
Continuous
 62
     7
370
     9
100
AcDbLine
 10
-1949.266387238006
 20
1189.604908771036
 30
0.0
 11
-1949.266387238006
 21
852.0222568005668
 31
0.0
  0
LINE
  5
94
330
1F
100
AcDbEntity
  8
092
  6
Continuous
 62
     7
370
     9
100
AcDbLine
 10
-2198.211799892219
 20
1311.605039089343
 30
0.0
 11
-2198.211799892219
 21
561.6050726704614
 31
0.0
  0
LINE
  5
95
330
1F
100
AcDbEntity
  8
092
  6
Continuous
 62
     7
370
     9
100
AcDbLine
 10
-1979.266427888834
 20
1311.605039089343
 30
0.0
 11
-2201.211926440014
 21
1311.605039089343
 31
0.0
  0
LINE
  5
96
330
1F
100
AcDbEntity
  8
092
  6
Continuous
 62
     7
370
     9
100
AcDbLine
 10
-1671.266500471181
 20
561.6050726704614
 30
0.0
 11
-2324.118428828634
 21
561.6050726704614
 31
0.0
  0
LINE
  5
97
330
1F
100
AcDbEntity
  8
092
  6
Continuous
 62
     7
370
     9
100
AcDbLine
 10
-2321.118652231445
 20
1603.605224787038
 30
0.0
 11
-2321.118652231445
 21
561.6050726704614
 31
0.0
  0
LINE
  5
98
330
1F
100
AcDbEntity
  8
092
  6
Continuous
 62
     7
370
     9
100
AcDbLine
 10
-1979.266427888834
 20
1603.605224787038
 30
0.0
 11
-2324.118428828634
 21
1603.605224787038
 31
0.0
  0
LINE
  5
99
330
1F
100
AcDbEntity
  8
通り芯
  6
Continuous
 62
     4
370
     9
100
AcDbLine
 10
-123.0732948623569
 20
651.6051946229456
 30
0.0
 11
-119.0733594323677
 21
651.6051946229456
 31
0.0
  0
LINE
  5
9A
330
1F
100
AcDbEntity
  8
通り芯
  6
Continuous
 62
     4
370
     9
100
AcDbLine
 10
-439.0734430905937
 20
561.6052476457648
 30
0.0
 11
-439.0734430905937
 21
1253.605275453288
 31
0.0
  0
LINE
  5
9B
330
1F
100
AcDbEntity
  8
通り芯
  6
Continuous
 62
     4
370
     9
100
AcDbLine
 10
-127.073230292346
 20
561.6052476457648
 30
0.0
 11
-439.0734430905937
 21
561.6052476457648
 31
0.0
  0
LINE
  5
9C
330
1F
100
AcDbEntity
  8
通り芯
  6
Continuous
 62
     4
370
     9
100
AcDbLine
 10
-119.0733594323677
 20
569.6051185057431
 30
0.0
 11
-119.0733594323677
 21
651.6051946229456
 31
0.0
  0
LINE
  5
9D
330
1F
100
AcDbEntity
  8
通り芯
  6
Continuous
 62
     4
370
     9
100
AcDbLine
 10
-127.073230292346
 20
565.605183075754
 30
0.0
 11
-439.0734430905937
 21
565.605183075754
 31
0.0
  0
LINE
  5
9E
330
1F
100
AcDbEntity
  8
通り芯
  6
Continuous
 62
     4
370
     9
100
AcDbLine
 10
-123.0732948623569
 20
569.6051185057431
 30
0.0
 11
-123.0732948623569
 21
651.6051946229456
 31
0.0
  0
LINE
  5
9F
330
1F
100
AcDbEntity
  8
通り芯
  6
Continuous
 62
     4
370
     9
100
AcDbLine
 10
-279.0735762367842
 20
1147.604886854938
 30
0.0
 11
-279.0735762367842
 21
1219.605124397167
 31
0.0
  0
LINE
  5
A0
330
1F
100
AcDbEntity
  8
通り芯
  6
Continuous
 62
     4
370
     9
100
AcDbLine
 10
-119.0733594323677
 20
1147.604886854938
 30
0.0
 11
-279.0735762367842
 21
1147.604886854938
 31
0.0
  0
LINE
  5
A1
330
1F
100
AcDbEntity
  8
通り芯
  6
Continuous
 62
     4
370
     9
100
AcDbLine
 10
-123.0732948623569
 20
1219.605124397167
 30
0.0
 11
-123.0732948623569
 21
1147.604886854938
 31
0.0
  0
LINE
  5
A2
330
1F
100
AcDbEntity
  8
092
  6
Continuous
 62
     7
370
     9
100
AcDbLine
 10
-141.0656553345757
 20
918.9454109466212
 30
0.0
 11
-205.7855204633768
 21
837.8737537879281
 31
0.0
  0
LINE
  5
A3
330
1F
100
AcDbEntity
  8
092
  6
Continuous
 62
     7
370
     9
100
AcDbLine
 10
-205.7855204633768
 20
837.8737537879281
 30
0.0
 11
-192.8719931403646
 21
859.2802323751928
 31
0.0
  0
LINE
  5
A4
330
1F
100
AcDbEntity
  8
092
  6
Continuous
 62
     7
370
     9
100
AcDbLine
 10
-205.7855204633768
 20
837.8737537879281
 30
0.0
 11
-187.7714630535672
 21
855.2089070215188
 31
0.0
  0
LINE
  5
A5
330
1F
100
AcDbEntity
  8
092
  6
Continuous
 62
     7
370
     9
100
AcDbLine
 10
-20.00794199903055
 20
751.1503943375178
 30
0.0
 11
-119.0733594323677
 21
651.6051946229456
 31
0.0
  0
LINE
  5
A6
330
1F
100
AcDbEntity
  8
092
  6
Continuous
 62
     7
370
     9
100
AcDbLine
 10
-119.0733594323677
 20
651.6051946229456
 30
0.0
 11
-103.9023007481256
 21
671.4757399991672
 31
0.0
  0
LINE
  5
A7
330
1F
100
AcDbEntity
  8
092
  6
Continuous
 62
     7
370
     9
100
AcDbLine
 10
-119.0733594323677
 20
651.6051946229456
 30
0.0
 11
-99.27630368346911
 21
666.8721397733136
 31
0.0
  0
LINE
  5
A8
330
1F
100
AcDbEntity
  8
092
  6
Continuous
 62
     7
370
     9
100
AcDbLine
 10
410.3693624905173
 20
1263.19112246101
 30
0.0
 11
12.91331133787196
 21
1263.19112246101
 31
0.0
  0
LINE
  5
A9
330
1F
100
AcDbEntity
  8
092
  6
Continuous
 62
     7
370
     9
100
AcDbLine
 10
250.6725528617619
 20
918.9454109466212
 30
0.0
 11
-141.0656553345757
 21
918.9454109466212
 31
0.0
  0
LINE
  5
AA
330
1F
100
AcDbEntity
  8
通り芯
  6
Continuous
 62
     4
370
     9
100
AcDbLine
 10
-1859.266440260824
 20
-212.7346583176765
 30
0.0
 11
-1859.266440260824
 21
-216.7345937476657
 31
0.0
  0
LINE
  5
AB
330
1F
100
AcDbEntity
  8
通り芯
  6
Continuous
 62
     4
370
     9
100
AcDbLine
 10
-1941.266516378027
 20
-212.7346583176765
 30
0.0
 11
-1859.266440260824
 21
-212.7346583176765
 31
0.0
  0
LINE
  5
AC
330
1F
100
AcDbEntity
  8
通り芯
  6
Continuous
 62
     4
370
     9
100
AcDbLine
 10
-957.266302872809
 20
-212.7346583176765
 30
0.0
 11
-1039.266378990012
 21
-212.7346583176765
 31
0.0
  0
LINE
  5
AD
330
1F
100
AcDbEntity
  8
通り芯
  6
Continuous
 62
     4
370
     9
100
AcDbLine
 10
-189.0734542843001
 20
565.605183075754
 30
0.0
 11
-189.0734542843001
 21
1147.604886854938
 31
0.0
  0
LINE
  5
AE
330
1F
100
AcDbEntity
  8
通り芯
  6
Continuous
 62
     4
370
     9
100
AcDbLine
 10
-217.0735272201335
 20
565.605183075754
 30
0.0
 11
-217.0735272201335
 21
1147.604886854938
 31
0.0
  0
LINE
  5
AF
330
1F
100
AcDbEntity
  8
通り芯
  6
Continuous
 62
     4
370
     9
100
AcDbLine
 10
-1949.266387238006
 20
-208.8026133053091
 30
0.0
 11
-1949.266387238006
 21
103.2654899105603
 31
0.0
  0
LINE
  5
B0
330
1F
100
AcDbEntity
  8
通り芯
  6
Continuous
 62
     4
370
     9
100
AcDbLine
 10
-1945.266451808016
 20
-208.7975390215178
 30
0.0
 11
-1945.266451808016
 21
103.2654899105603
 31
0.0
  0
LINE
  5
B1
330
1F
100
AcDbEntity
  8
通り芯
  6
Continuous
 62
     4
370
     9
100
AcDbLine
 10
-949.2664320128307
 20
-208.8701537723247
 30
0.0
 11
-949.2664320128307
 21
103.2654899105603
 31
0.0
  0
LINE
  5
B2
330
1F
100
AcDbEntity
  8
通り芯
  6
Continuous
 62
     4
370
     9
100
AcDbLine
 10
-953.2663674428198
 20
-208.7347228876874
 30
0.0
 11
-953.2663674428198
 21
103.2654899105603
 31
0.0
  0
LINE
  5
B3
330
1F
100
AcDbEntity
  8
通り芯
  6
Continuous
 62
     4
370
     9
100
AcDbLine
 10
-1945.266451808016
 20
-146.7344988957336
 30
0.0
 11
-1641.266459820353
 21
-146.7344988957336
 31
0.0
  0
LINE
  5
B4
330
1F
100
AcDbEntity
  8
通り芯
  6
Continuous
 62
     4
370
     9
100
AcDbLine
 10
-1945.266451808016
 20
-118.7344259599001
 30
0.0
 11
-1641.266459820353
 21
-118.7344259599001
 31
0.0
  0
LINE
  5
B5
330
1F
100
AcDbEntity
  8
通り芯
  6
Continuous
 62
     4
370
     9
100
AcDbLine
 10
-953.2663674428198
 20
-146.7344988957336
 30
0.0
 11
-1257.266359430482
 21
-146.7344988957336
 31
0.0
  0
LINE
  5
B6
330
1F
100
AcDbEntity
  8
通り芯
  6
Continuous
 62
     4
370
     9
100
AcDbLine
 10
-953.2663674428198
 20
-118.7344259599001
 30
0.0
 11
-1257.266359430482
 21
-118.7344259599001
 31
0.0
  0
LINE
  5
B7
330
1F
100
AcDbEntity
  8
通り芯
  6
Continuous
 62
     4
370
     9
100
AcDbLine
 10
-949.2664320128307
 20
103.2656648858634
 30
0.0
 11
-1949.266387238006
 21
103.2656648858634
 31
0.0
  0
LINE
  5
B8
330
1F
100
AcDbEntity
  8
092
  6
Continuous
 62
     7
370
     9
100
AcDbLine
 10
-2041.404007493759
 20
103.2654899105603
 30
0.0
 11
-2041.404007493759
 21
-146.7344988957336
 31
0.0
  0
LINE
  5
B9
330
1F
100
AcDbEntity
  8
092
  6
Continuous
 62
     7
370
     9
100
AcDbLine
 10
-2151.150267381926
 20
103.2654899105603
 30
0.0
 11
-2151.150267381926
 21
-216.7345937476657
 31
0.0
  0
LINE
  5
BA
330
1F
100
AcDbEntity
  8
092
  6
Continuous
 62
     7
370
     9
100
AcDbLine
 10
-1979.266427888834
 20
103.2654899105603
 30
0.0
 11
-2154.150306442069
 21
103.2654899105603
 31
0.0
  0
LINE
  5
BB
330
1F
100
AcDbEntity
  8
092
  6
Continuous
 62
     7
370
     9
100
AcDbLine
 10
-1979.266427888834
 20
-146.7344988957336
 30
0.0
 11
-2044.404046553903
 21
-146.7344988957336
 31
0.0
  0
LINE
  5
BC
330
1F
100
AcDbEntity
  8
092
  6
Continuous
 62
     7
370
     9
100
AcDbLine
 10
-1979.266427888834
 20
-216.7345937476657
 30
0.0
 11
-2154.150306442069
 21
-216.7345937476657
 31
0.0
  0
LINE
  5
BD
330
1F
100
AcDbEntity
  8
躯体
  6
JWW_CENTER2
 62
     7
370
     9
100
AcDbLine
 10
-493.8599602596182
 20
-200.552002835918
 30
0.0
 11
-493.8599602596182
 21
140.7184286237222
 31
0.0
  0
LINE
  5
BE
330
1F
100
AcDbEntity
  8
通り芯
  6
Continuous
 62
     4
370
     9
100
AcDbLine
 10
-836.7905573955375
 20
87.26574819060374
 30
0.0
 11
-682.8602338573648
 21
87.26574819060374
 31
0.0
  0
LINE
  5
BF
330
1F
100
AcDbEntity
  8
通り芯
  6
Continuous
 62
     4
370
     9
100
AcDbLine
 10
-150.9293631236989
 20
87.26574819060374
 30
0.0
 11
-304.8600366124776
 21
87.26574819060374
 31
0.0
  0
LINE
  5
C0
330
1F
100
AcDbEntity
  8
通り芯
  6
Continuous
 62
     4
370
     9
100
AcDbLine
 10
-390.8600481596693
 20
-56.73437694324946
 30
0.0
 11
-386.8601127296802
 21
-56.73437694324946
 31
0.0
  0
LINE
  5
C1
330
1F
100
AcDbEntity
  8
通り芯
  6
Continuous
 62
     4
370
     9
100
AcDbLine
 10
-302.8600688974831
 20
-216.7344187723623
 30
0.0
 11
-302.8600688974831
 21
-212.7344833423732
 31
0.0
  0
LINE
  5
C2
330
1F
100
AcDbEntity
  8
通り芯
  6
Continuous
 62
     4
370
     9
100
AcDbLine
 10
-386.8601127296802
 20
-208.734547912384
 30
0.0
 11
-386.8601127296802
 21
-56.73437694324946
 31
0.0
  0
LINE
  5
C3
330
1F
100
AcDbEntity
  8
通り芯
  6
Continuous
 62
     4
370
     9
100
AcDbLine
 10
-382.860177299691
 20
-212.7344833423732
 30
0.0
 11
-302.8600688974831
 21
-212.7344833423732
 31
0.0
  0
LINE
  5
C4
330
1F
100
AcDbEntity
  8
通り芯
  6
Continuous
 62
     4
370
     9
100
AcDbLine
 10
-382.860177299691
 20
-216.7344187723623
 30
0.0
 11
-302.8600688974831
 21
-216.7344187723623
 31
0.0
  0
LINE
  5
C5
330
1F
100
AcDbEntity
  8
通り芯
  6
Continuous
 62
     4
370
     9
100
AcDbLine
 10
-596.8598723595667
 20
-56.73437694324946
 30
0.0
 11
-600.8598077895558
 21
-56.73437694324946
 31
0.0
  0
LINE
  5
C6
330
1F
100
AcDbEntity
  8
通り芯
  6
Continuous
 62
     4
370
     9
100
AcDbLine
 10
-684.8598516217533
 20
-216.7344187723623
 30
0.0
 11
-684.8598516217533
 21
-212.7344833423732
 31
0.0
  0
LINE
  5
C7
330
1F
100
AcDbEntity
  8
通り芯
  6
Continuous
 62
     4
370
     9
100
AcDbLine
 10
-600.8598077895558
 20
-208.734547912384
 30
0.0
 11
-600.8598077895558
 21
-56.73437694324946
 31
0.0
  0
LINE
  5
C8
330
1F
100
AcDbEntity
  8
通り芯
  6
Continuous
 62
     4
370
     9
100
AcDbLine
 10
-604.8597432195453
 20
-212.7344833423732
 30
0.0
 11
-684.8598516217533
 21
-212.7344833423732
 31
0.0
  0
LINE
  5
C9
330
1F
100
AcDbEntity
  8
通り芯
  6
Continuous
 62
     4
370
     9
100
AcDbLine
 10
-604.8597432195453
 20
-216.7344187723623
 30
0.0
 11
-684.8598516217533
 21
-216.7344187723623
 31
0.0
  0
LINE
  5
CA
330
1F
100
AcDbEntity
  8
躯体
  6
Continuous
 62
     7
370
     9
100
AcDbLine
 10
-836.7905573955375
 20
-181.2406785285611
 30
0.0
 11
-836.7905573955375
 21
-52.35684480906457
 31
0.0
  0
LINE
  5
CB
330
1F
100
AcDbEntity
  8
躯体
  6
Continuous
 62
     7
370
     9
100
AcDbLine
 10
-836.7905573955375
 20
-52.35684480906457
 30
0.0
 11
-852.7904740907974
 21
-52.35684480906457
 31
0.0
  0
LINE
  5
CC
330
1F
100
AcDbEntity
  8
躯体
  6
Continuous
 62
     7
370
     9
100
AcDbLine
 10
-836.7905573955375
 20
20.18126681504555
 30
0.0
 11
-820.7904657249748
 21
20.18126681504555
 31
0.0
  0
LINE
  5
CD
330
1F
100
AcDbEntity
  8
躯体
  6
Continuous
 62
     7
370
     9
100
AcDbLine
 10
-852.7904740907974
 20
-52.35684480906457
 30
0.0
 11
-820.7904657249748
 21
20.18126681504555
 31
0.0
  0
LINE
  5
CE
330
1F
100
AcDbEntity
  8
躯体
  6
Continuous
 62
     7
370
     9
100
AcDbLine
 10
-150.9293631236989
 20
-181.2406785285611
 30
0.0
 11
-150.9293631236989
 21
-52.35684480906457
 31
0.0
  0
LINE
  5
CF
330
1F
100
AcDbEntity
  8
躯体
  6
Continuous
 62
     7
370
     9
100
AcDbLine
 10
-150.9293631236989
 20
-52.35684480906457
 30
0.0
 11
-166.9294547942616
 21
-52.35684480906457
 31
0.0
  0
LINE
  5
D0
330
1F
100
AcDbEntity
  8
躯体
  6
Continuous
 62
     7
370
     9
100
AcDbLine
 10
-150.9293631236989
 20
20.18126681504555
 30
0.0
 11
-134.9292714531362
 21
20.18126681504555
 31
0.0
  0
LINE
  5
D1
330
1F
100
AcDbEntity
  8
躯体
  6
Continuous
 62
     7
370
     9
100
AcDbLine
 10
-166.9294547942616
 20
-52.35684480906457
 30
0.0
 11
-134.9292714531362
 21
20.18126681504555
 31
0.0
  0
LINE
  5
D2
330
1F
100
AcDbEntity
  8
躯体
  6
Continuous
 62
     7
370
     9
100
AcDbLine
 10
-836.7905573955375
 20
20.18126681504555
 30
0.0
 11
-836.7905573955375
 21
136.7004707375088
 31
0.0
  0
LINE
  5
D3
330
1F
100
AcDbEntity
  8
躯体
  6
Continuous
 62
     7
370
     9
100
AcDbLine
 10
-150.9293631236989
 20
20.18126681504555
 30
0.0
 11
-150.9293631236989
 21
136.7004707375088
 31
0.0
  0
LINE
  5
D4
330
1F
100
AcDbEntity
  8
092
  6
Continuous
 62
     7
370
     9
100
AcDbLine
 10
290.2516164834896
 20
213.9774384968069
 30
0.0
 11
-107.2044346691558
 21
213.9774384968069
 31
0.0
  0
LINE
  5
D5
330
1F
100
AcDbEntity
  8
092
  6
Continuous
 62
     7
370
     9
100
AcDbLine
 10
-107.2044346691558
 20
213.9774384968069
 30
0.0
 11
-386.8601127296802
 21
-86.83957775127027
 31
0.0
  0
LINE
  5
D6
330
1F
100
AcDbEntity
  8
092
  6
Continuous
 62
     7
370
     9
100
AcDbLine
 10
-386.8601127296802
 20
-86.83957775127027
 30
0.0
 11
-372.3737324066605
 21
-66.46440360076639
 31
0.0
  0
LINE
  5
D7
330
1F
100
AcDbEntity
  8
092
  6
Continuous
 62
     7
370
     9
100
AcDbLine
 10
-386.8601127296802
 20
-86.83957775127027
 30
0.0
 11
-367.5939320505358
 21
-70.90807639954164
 31
0.0
  0
LINE
  5
D8
330
1F
100
AcDbEntity
  8
092
  6
Continuous
 62
     7
370
     9
100
AcDbLine
 10
-649.1757382481256
 20
-352.4800839801554
 30
0.0
 11
-346.8698571455525
 21
-352.4800839801554
 31
0.0
  0
LINE
  5
D9
330
1F
100
AcDbEntity
  8
_2-c_Shi
  6
Continuous
 62
     7
370
     9
100
AcDbLine
 10
-2113.952005222498
 20
-460.6624146087751
 30
0.0
 11
-1417.79727632935
 21
-460.6624146087751
 31
0.0
  0
LINE
  5
DA
330
1F
100
AcDbEntity
  8
_2-c_Shi
  6
Continuous
 62
     7
370
     9
100
AcDbLine
 10
-1417.79727632935
 20
-470.107581472765
 30
0.0
 11
-2113.952005222498
 21
-470.107581472765
 31
0.0
  0
LINE
  5
DB
330
1F
100
AcDbEntity
  8
_2-c_Shi
  6
Continuous
 62
     7
370
     9
100
AcDbLine
 10
-1417.79727632935
 20
-535.1077570372106
 30
0.0
 11
-2113.952005222498
 21
-535.1077570372106
 31
0.0
  0
LINE
  5
DC
330
1F
100
AcDbEntity
  8
_2-c_Shi
  6
Continuous
 62
     7
370
     9
100
AcDbLine
 10
-1417.79727632935
 20
-600.1075826510498
 30
0.0
 11
-2113.952005222498
 21
-600.1075826510498
 31
0.0
  0
LINE
  5
DD
330
1F
100
AcDbEntity
  8
_2-c_Shi
  6
Continuous
 62
     7
370
     9
100
AcDbLine
 10
-1417.79727632935
 20
-665.1077582154954
 30
0.0
 11
-2113.952005222498
 21
-665.1077582154954
 31
0.0
  0
LINE
  5
DE
330
1F
100
AcDbEntity
  8
_2-c_Shi
  6
Continuous
 62
     7
370
     9
100
AcDbLine
 10
-1417.79727632935
 20
-730.1075838293349
 30
0.0
 11
-2113.952005222498
 21
-730.1075838293349
 31
0.0
  0
LINE
  5
DF
330
1F
100
AcDbEntity
  8
_2-c_Shi
  6
Continuous
 62
     7
370
     9
100
AcDbLine
 10
-1417.79727632935
 20
-860.1075850076197
 30
0.0
 11
-2113.952005222498
 21
-860.1075850076197
 31
0.0
  0
LINE
  5
E0
330
1F
100
AcDbEntity
  8
_2-c_Shi
  6
Continuous
 62
     7
370
     9
100
AcDbLine
 10
-1417.79727632935
 20
-795.1077593937805
 30
0.0
 11
-2113.952005222498
 21
-795.1077593937805
 31
0.0
  0
LINE
  5
E1
330
1F
100
AcDbEntity
  8
_2-c_Shi
  6
Continuous
 62
     7
370
     9
100
AcDbLine
 10
-1417.79727632935
 20
-990.1077611612077
 30
0.0
 11
-2113.952005222498
 21
-990.1077611612077
 31
0.0
  0
LINE
  5
E2
330
1F
100
AcDbEntity
  8
_2-c_Shi
  6
Continuous
 62
     7
370
     9
100
AcDbLine
 10
-1417.79727632935
 20
-925.1077605720652
 30
0.0
 11
-2113.952005222498
 21
-925.1077605720652
 31
0.0
  0
LINE
  5
E3
330
1F
100
AcDbEntity
  8
_2-c_Shi
  6
Continuous
 62
     7
370
     9
100
AcDbLine
 10
-1417.79727632935
 20
-1055.10776175035
 30
0.0
 11
-2113.952005222498
 21
-1055.10776175035
 31
0.0
  0
LINE
  5
E4
330
1F
100
AcDbEntity
  8
_2-c_Shi
  6
Continuous
 62
     7
370
     9
100
AcDbLine
 10
-1417.79727632935
 20
-1120.107587364189
 30
0.0
 11
-2113.952005222498
 21
-1120.107587364189
 31
0.0
  0
LINE
  5
E5
330
1F
100
AcDbEntity
  8
_2-c_Shi
  6
Continuous
 62
     7
370
     9
100
AcDbLine
 10
-1417.79727632935
 20
-1185.107762928635
 30
0.0
 11
-2113.952005222498
 21
-1185.107762928635
 31
0.0
  0
LINE
  5
E6
330
1F
100
AcDbEntity
  8
_2-c_Shi
  6
Continuous
 62
     7
370
     9
100
AcDbLine
 10
-1417.79727632935
 20
-1250.107588542474
 30
0.0
 11
-2113.952005222498
 21
-1250.107588542474
 31
0.0
  0
LINE
  5
E7
330
1F
100
AcDbEntity
  8
_2-c_Shi
  6
Continuous
 62
     7
370
     9
100
AcDbLine
 10
-1417.79727632935
 20
-1315.10776410692
 30
0.0
 11
-2113.952005222498
 21
-1315.10776410692
 31
0.0
  0
LINE
  5
E8
330
1F
100
AcDbEntity
  8
_2-c_Shi
  6
Continuous
 62
     7
370
     9
100
AcDbLine
 10
-1417.79727632935
 20
-1445.107721541379
 30
0.0
 11
-2113.952005222498
 21
-1445.107721541379
 31
0.0
  0
LINE
  5
E9
330
1F
100
AcDbEntity
  8
_2-c_Shi
  6
Continuous
 62
     7
370
     9
100
AcDbLine
 10
-1417.79727632935
 20
-1380.107589720759
 30
0.0
 11
-2113.952005222498
 21
-1380.107589720759
 31
0.0
  0
LINE
  5
EA
330
1F
100
AcDbEntity
  8
_2-c_Shi
  6
Continuous
 62
     7
370
     9
100
AcDbLine
 10
-1417.79727632935
 20
-1510.107590899044
 30
0.0
 11
-2113.952005222498
 21
-1510.107590899044
 31
0.0
  0
LINE
  5
EB
330
1F
100
AcDbEntity
  8
_2-c_Shi
  6
Continuous
 62
     7
370
     9
100
AcDbLine
 10
-1417.79727632935
 20
-1575.107766463489
 30
0.0
 11
-2113.952005222498
 21
-1575.107766463489
 31
0.0
  0
LINE
  5
EC
330
1F
100
AcDbEntity
  8
_2-c_Shi
  6
Continuous
 62
     7
370
     9
100
AcDbLine
 10
-1417.79727632935
 20
-1640.10767956498
 30
0.0
 11
-2113.952005222498
 21
-1640.10767956498
 31
0.0
  0
LINE
  5
ED
330
1F
100
AcDbEntity
  8
_2-c_Shi
  6
Continuous
 62
     7
370
     9
100
AcDbLine
 10
-1417.79727632935
 20
-395.6624140196325
 30
0.0
 11
-2113.952005222498
 21
-395.6624140196325
 31
0.0
  0
LINE
  5
EE
330
1F
100
AcDbEntity
  8
_2-c_Shi
  6
Continuous
 62
     7
370
     9
100
AcDbLine
 10
-2113.952005222498
 20
-395.6624140196325
 30
0.0
 11
-2113.952005222498
 21
-1640.10767956498
 31
0.0
  0
LINE
  5
EF
330
1F
100
AcDbEntity
  8
_2-c_Shi
  6
Continuous
 62
     7
370
     9
100
AcDbLine
 10
-1893.621266256428
 20
-1640.10767956498
 30
0.0
 11
-1893.621266256428
 21
-395.6624140196325
 31
0.0
  0
LINE
  5
F0
330
1F
100
AcDbEntity
  8
_2-c_Shi
  6
Continuous
 62
     7
370
     9
100
AcDbLine
 10
-1655.707434052206
 20
-395.6624140196325
 30
0.0
 11
-1655.707434052206
 21
-1640.10767956498
 31
0.0
  0
LINE
  5
F1
330
1F
100
AcDbEntity
  8
_2-c_Shi
  6
Continuous
 62
     7
370
     9
100
AcDbLine
 10
-1417.79727632935
 20
-395.6624140196325
 30
0.0
 11
-1417.79727632935
 21
-1640.10767956498
 31
0.0
  0
LINE
  5
F2
330
1F
100
AcDbEntity
  8
_2-c_Shi
  6
Continuous
 62
     7
370
     9
100
AcDbLine
 10
-2113.952005222498
 20
-365.7762822911548
 30
0.0
 11
-1929.547195499008
 21
-365.7762822911548
 31
0.0
  0
LINE
  5
F3
330
1F
100
AcDbEntity
  8
通り芯
  6
JWW_DASHED1
 62
     4
370
     9
100
AcDbLine
 10
-423.0733514200307
 20
1600.605098239243
 30
0.0
 11
-423.0733514200307
 21
1603.604874836432
 31
0.0
  0
LINE
  5
F4
330
1F
100
AcDbEntity
  8
通り芯
  6
JWW_DASHED1
 62
     4
370
     9
100
AcDbLine
 10
-423.0733514200307
 20
1222.604900994356
 30
0.0
 11
-423.0733514200307
 21
1219.605124397167
 31
0.0
  0
LINE
  5
F5
330
1F
100
AcDbEntity
  8
通り芯
  6
Continuous
 62
     4
370
     9
100
AcDbLine
 10
-119.0733594323677
 20
1147.604886854938
 30
0.0
 11
-119.0733594323677
 21
1603.604874836432
 31
0.0
  0
LINE
  5
F6
330
1F
100
AcDbEntity
  8
通り芯
  6
Continuous
 62
     4
370
     9
100
AcDbLine
 10
-433.07353994561
 20
1603.604874836432
 30
0.0
 11
-119.0733594323677
 21
1603.604874836432
 31
0.0
  0
LINE
  5
F7
330
1F
100
AcDbEntity
  8
通り芯
  6
Continuous
 62
     4
370
     9
100
AcDbLine
 10
-433.07353994561
 20
1219.605124397167
 30
0.0
 11
-119.0733594323677
 21
1219.605124397167
 31
0.0
  0
LINE
  5
F8
330
1F
100
AcDbEntity
  8
通り芯
  6
JWW_DASHED1
 62
     4
370
     9
100
AcDbLine
 10
-436.0733165427988
 20
1597.604971691448
 30
0.0
 11
-436.0733165427988
 21
1569.604723780311
 31
0.0
  0
LINE
  5
F9
330
1F
100
AcDbEntity
  8
通り芯
  6
JWW_DASHED1
 62
     4
370
     9
100
AcDbLine
 10
-433.0731899950035
 20
1600.605098239243
 30
0.0
 11
-423.0733514200307
 21
1600.605098239243
 31
0.0
  0
LINE
  5
FA
330
1F
100
AcDbEntity
  8
通り芯
  6
JWW_DASHED1
 62
     4
370
     9
100
AcDbLine
 10
-436.0733165427988
 20
1225.605027542151
 30
0.0
 11
-436.0733165427988
 21
1253.604925502681
 31
0.0
  0
LINE
  5
FB
330
1F
100
AcDbEntity
  8
通り芯
  6
JWW_DASHED1
 62
     4
370
     9
100
AcDbLine
 10
-433.0731899950035
 20
1222.604900994356
 30
0.0
 11
-423.0733514200307
 21
1222.604900994356
 31
0.0
  0
LINE
  5
FC
330
1F
100
AcDbEntity
  8
通り芯
  6
Continuous
 62
     4
370
     9
100
AcDbLine
 10
-439.0734430905937
 20
1569.604723780311
 30
0.0
 11
-439.0734430905937
 21
1597.604971691448
 31
0.0
  0
LINE
  5
FD
330
1F
100
AcDbEntity
  8
通り芯
  6
JWW_DASHED1
 62
     4
370
     9
100
AcDbLine
 10
-405.0732920344734
 20
1560.604694087533
 30
0.0
 11
-405.0732920344734
 21
1517.60486328924
 31
0.0
  0
LINE
  5
FE
330
1F
100
AcDbEntity
  8
通り芯
  6
Continuous
 62
     4
370
     9
100
AcDbLine
 10
-408.0734185822683
 20
1517.60486328924
 30
0.0
 11
-408.0734185822683
 21
1560.604694087533
 31
0.0
  0
LINE
  5
FF
330
1F
100
AcDbEntity
  8
通り芯
  6
Continuous
 62
     4
370
     9
100
AcDbLine
 10
-408.0734185822683
 20
1305.605135944359
 30
0.0
 11
-408.0734185822683
 21
1262.605305146066
 31
0.0
  0
LINE
  5
100
330
1F
100
AcDbEntity
  8
通り芯
  6
JWW_DASHED1
 62
     4
370
     9
100
AcDbLine
 10
-405.0732920344734
 20
1262.60495519546
 30
0.0
 11
-405.0732920344734
 21
1305.605135944359
 31
0.0
  0
LINE
  5
101
330
1F
100
AcDbEntity
  8
通り芯
  6
JWW_CENTER2
 62
     4
370
     9
100
AcDbLine
 10
-355.6273710681666
 20
1573.6046592103
 30
0.0
 11
-382.5189754585506
 21
1573.6046592103
 31
0.0
  0
LINE
  5
102
330
1F
100
AcDbEntity
  8
通り芯
  6
JWW_CENTER2
 62
     4
370
     9
100
AcDbLine
 10
-243.5126454765737
 20
1573.605359111514
 30
0.0
 11
-214.1654376817951
 21
1573.605359111514
 31
0.0
  0
LINE
  5
103
330
1F
100
AcDbEntity
  8
通り芯
  6
JWW_CENTER2
 62
     4
370
     9
100
AcDbLine
 10
-229.073333510101
 20
1588.044321127379
 30
0.0
 11
-229.073333510101
 21
1559.165697194435
 31
0.0
  0
LINE
  5
104
330
1F
100
AcDbEntity
  8
通り芯
  6
JWW_CENTER2
 62
     4
370
     9
100
AcDbLine
 10
-145.6174628706975
 20
1481.695731675763
 30
0.0
 11
-172.5094172116872
 21
1481.695731675763
 31
0.0
  0
LINE
  5
105
330
1F
100
AcDbEntity
  8
通り芯
  6
JWW_CENTER2
 62
     4
370
     9
100
AcDbLine
 10
-159.0636150164954
 20
1468.249929480571
 30
0.0
 11
-159.0636150164954
 21
1495.141533870955
 31
0.0
  0
LINE
  5
106
330
1F
100
AcDbEntity
  8
通り芯
  6
JWW_CENTER2
 62
     4
370
     9
100
AcDbLine
 10
-145.6174628706975
 20
1341.696241873111
 30
0.0
 11
-172.5094172116872
 21
1341.696241873111
 31
0.0
  0
LINE
  5
107
330
1F
100
AcDbEntity
  8
通り芯
  6
JWW_CENTER2
 62
     4
370
     9
100
AcDbLine
 10
-159.0636150164954
 20
1328.25043967792
 30
0.0
 11
-159.0636150164954
 21
1355.142044068303
 31
0.0
  0
LINE
  5
108
330
1F
100
AcDbEntity
  8
通り芯
  6
JWW_CENTER2
 62
     4
370
     9
100
AcDbLine
 10
-243.5126454765737
 20
1249.604990072692
 30
0.0
 11
-214.6340215436283
 21
1249.604990072692
 31
0.0
  0
LINE
  5
109
330
1F
100
AcDbEntity
  8
通り芯
  6
JWW_CENTER2
 62
     4
370
     9
100
AcDbLine
 10
-229.073333510101
 20
1235.166028056826
 30
0.0
 11
-229.073333510101
 21
1264.044302039165
 31
0.0
  0
LINE
  5
10A
330
1F
100
AcDbEntity
  8
通り芯
  6
JWW_DASHED1
 62
     4
370
     9
100
AcDbLine
 10
-189.8564687658921
 20
1405.652164828363
 30
0.0
 11
-211.29199325348
 21
1325.652406376761
 31
0.0
  0
LINE
  5
10B
330
1F
100
AcDbEntity
  8
通り芯
  6
JWW_DASHED1
 62
     4
370
     9
100
AcDbLine
 10
-189.8568187164989
 20
1417.55748445463
 30
0.0
 11
-211.29199325348
 21
1497.557592856838
 31
0.0
  0
LINE
  5
10C
330
1F
100
AcDbEntity
  8
通り芯
  6
Continuous
 62
     4
370
     9
100
AcDbLine
 10
-192.7544097366484
 20
1416.78129400986
 30
0.0
 11
-214.1902841748418
 21
1496.781052461462
 31
0.0
  0
LINE
  5
10D
330
1F
100
AcDbEntity
  8
通り芯
  6
Continuous
 62
     4
370
     9
100
AcDbLine
 10
-192.7544097366484
 20
1406.428355273132
 30
0.0
 11
-214.1902841748418
 21
1326.428946772137
 31
0.0
  0
LINE
  5
10E
330
1F
100
AcDbEntity
  8
通り芯
  6
JWW_CENTER2
 62
     4
370
     9
100
AcDbLine
 10
-368.9034472193038
 20
1236.250175035138
 30
0.0
 11
-368.9034472193038
 21
1263.142129376128
 31
0.0
  0
LINE
  5
10F
330
1F
100
AcDbEntity
  8
通り芯
  6
JWW_CENTER2
 62
     4
370
     9
100
AcDbLine
 10
-355.457645024112
 20
1249.696327180936
 30
0.0
 11
-382.3492494144955
 21
1249.696327180936
 31
0.0
  0
LINE
  5
110
330
1F
100
AcDbEntity
  8
通り芯
  6
JWW_CENTER2
 62
     4
370
     9
100
AcDbLine
 10
-369.0731732633583
 20
1560.158857015109
 30
0.0
 11
-369.0731732633583
 21
1587.050811356099
 31
0.0
  0
LINE
  5
111
330
1F
100
AcDbEntity
  8
通り芯
  6
Continuous
 62
     4
370
     9
100
AcDbLine
 10
-433.07353994561
 20
1563.604820635328
 30
0.0
 11
-411.0735451300633
 21
1563.604820635328
 31
0.0
  0
LINE
  5
112
330
1F
100
AcDbEntity
  8
通り芯
  6
Continuous
 62
     4
370
     9
100
AcDbLine
 10
-411.0735451300633
 20
1259.605178598272
 30
0.0
 11
-433.07353994561
 21
1259.605178598272
 31
0.0
  0
LINE
  5
113
330
1F
100
AcDbEntity
  8
通り芯
  6
JWW_DASHED1
 62
     4
370
     9
100
AcDbLine
 10
-433.0731899950035
 20
1256.605052050476
 30
0.0
 11
-411.0731951794571
 21
1256.605052050476
 31
0.0
  0
LINE
  5
114
330
1F
100
AcDbEntity
  8
通り芯
  6
JWW_DASHED1
 62
     4
370
     9
100
AcDbLine
 10
-411.0731951794571
 20
1566.604597232516
 30
0.0
 11
-433.0731899950035
 21
1566.604597232516
 31
0.0
  0
LINE
  5
115
330
1F
100
AcDbEntity
  8
通り芯
  6
JWW_DASHED1
 62
     4
370
     9
100
AcDbLine
 10
-123.0732948623569
 20
1219.605124397167
 30
0.0
 11
-123.0732948623569
 21
1603.604874836432
 31
0.0
  0
LINE
  5
116
330
1F
100
AcDbEntity
  8
通り芯
  6
JWW_DASHED1
 62
     4
370
     9
100
AcDbLine
 10
-1260.266485978278
 20
87.26557321530038
 30
0.0
 11
-1257.266709381089
 21
87.26557321530038
 31
0.0
  0
LINE
  5
117
330
1F
100
AcDbEntity
  8
通り芯
  6
JWW_DASHED1
 62
     4
370
     9
100
AcDbLine
 10
-1638.266683223165
 20
87.26557321530038
 30
0.0
 11
-1641.266459820353
 21
87.26557321530038
 31
0.0
  0
LINE
  5
118
330
1F
100
AcDbEntity
  8
通り芯
  6
Continuous
 62
     4
370
     9
100
AcDbLine
 10
-1641.266459820353
 20
-216.7345937476657
 30
0.0
 11
-1257.266709381089
 21
-216.7345937476657
 31
0.0
  0
LINE
  5
119
330
1F
100
AcDbEntity
  8
通り芯
  6
Continuous
 62
     4
370
     9
100
AcDbLine
 10
-1257.266709381089
 20
97.26576174087967
 30
0.0
 11
-1257.266709381089
 21
-216.7345937476657
 31
0.0
  0
LINE
  5
11A
330
1F
100
AcDbEntity
  8
通り芯
  6
Continuous
 62
     4
370
     9
100
AcDbLine
 10
-1641.266459820353
 20
97.26576174087967
 30
0.0
 11
-1641.266459820353
 21
-216.7345937476657
 31
0.0
  0
LINE
  5
11B
330
1F
100
AcDbEntity
  8
通り芯
  6
JWW_DASHED1
 62
     4
370
     9
100
AcDbLine
 10
-1263.266612526073
 20
100.2655383380684
 30
0.0
 11
-1291.266860437209
 21
100.2655383380684
 31
0.0
  0
LINE
  5
11C
330
1F
100
AcDbEntity
  8
通り芯
  6
JWW_DASHED1
 62
     4
370
     9
100
AcDbLine
 10
-1260.266485978278
 20
97.26541179027322
 30
0.0
 11
-1260.266485978278
 21
87.26557321530038
 31
0.0
  0
LINE
  5
11D
330
1F
100
AcDbEntity
  8
通り芯
  6
JWW_DASHED1
 62
     4
370
     9
100
AcDbLine
 10
-1635.26655667537
 20
100.2655383380684
 30
0.0
 11
-1607.26665871484
 21
100.2655383380684
 31
0.0
  0
LINE
  5
11E
330
1F
100
AcDbEntity
  8
通り芯
  6
JWW_DASHED1
 62
     4
370
     9
100
AcDbLine
 10
-1638.266683223165
 20
97.26541179027322
 30
0.0
 11
-1638.266683223165
 21
87.26557321530038
 31
0.0
  0
LINE
  5
11F
330
1F
100
AcDbEntity
  8
通り芯
  6
JWW_DASHED1
 62
     4
370
     9
100
AcDbLine
 10
-1300.266890129988
 20
69.2655138297431
 30
0.0
 11
-1343.266720928281
 21
69.2655138297431
 31
0.0
  0
LINE
  5
120
330
1F
100
AcDbEntity
  8
通り芯
  6
Continuous
 62
     4
370
     9
100
AcDbLine
 10
-1598.266279071454
 20
72.26564037753803
 30
0.0
 11
-1300.266890129988
 21
72.26564037753803
 31
0.0
  0
LINE
  5
121
330
1F
100
AcDbEntity
  8
通り芯
  6
JWW_DASHED1
 62
     4
370
     9
100
AcDbLine
 10
-1598.266629022061
 20
69.2655138297431
 30
0.0
 11
-1555.266448273162
 21
69.2655138297431
 31
0.0
  0
LINE
  5
122
330
1F
100
AcDbEntity
  8
通り芯
  6
JWW_CENTER2
 62
     4
370
     9
100
AcDbLine
 10
-1287.26692500722
 20
19.81941788813316
 30
0.0
 11
-1287.26692500722
 21
46.71102227851691
 31
0.0
  0
LINE
  5
123
330
1F
100
AcDbEntity
  8
通り芯
  6
JWW_CENTER2
 62
     4
370
     9
100
AcDbLine
 10
-1287.266225106007
 20
-92.29530770346003
 30
0.0
 11
-1287.266225106007
 21
-121.6425154982386
 31
0.0
  0
LINE
  5
124
330
1F
100
AcDbEntity
  8
通り芯
  6
JWW_CENTER2
 62
     4
370
     9
100
AcDbLine
 10
-1272.827263090141
 20
-106.7346196699327
 30
0.0
 11
-1301.705887023086
 21
-106.7346196699327
 31
0.0
  0
LINE
  5
125
330
1F
100
AcDbEntity
  8
通り芯
  6
JWW_CENTER2
 62
     4
370
     9
100
AcDbLine
 10
-1379.175852541758
 20
-190.1904903093362
 30
0.0
 11
-1379.175852541758
 21
-163.298535968346
 31
0.0
  0
LINE
  5
126
330
1F
100
AcDbEntity
  8
通り芯
  6
JWW_CENTER2
 62
     4
370
     9
100
AcDbLine
 10
-1392.62165473695
 20
-176.744338163538
 30
0.0
 11
-1365.730050346566
 21
-176.744338163538
 31
0.0
  0
LINE
  5
127
330
1F
100
AcDbEntity
  8
通り芯
  6
JWW_CENTER2
 62
     4
370
     9
100
AcDbLine
 10
-1519.175342344409
 20
-190.1904903093362
 30
0.0
 11
-1519.175342344409
 21
-163.298535968346
 31
0.0
  0
LINE
  5
128
330
1F
100
AcDbEntity
  8
通り芯
  6
JWW_CENTER2
 62
     4
370
     9
100
AcDbLine
 10
-1532.621144539601
 20
-176.744338163538
 30
0.0
 11
-1505.729540149217
 21
-176.744338163538
 31
0.0
  0
LINE
  5
129
330
1F
100
AcDbEntity
  8
通り芯
  6
JWW_CENTER2
 62
     4
370
     9
100
AcDbLine
 10
-1611.266594144829
 20
-92.29530770346003
 30
0.0
 11
-1611.266594144829
 21
-121.1739316364054
 31
0.0
  0
LINE
  5
12A
330
1F
100
AcDbEntity
  8
通り芯
  6
JWW_CENTER2
 62
     4
370
     9
100
AcDbLine
 10
-1625.705556160695
 20
-106.7346196699327
 30
0.0
 11
-1596.827282178356
 21
-106.7346196699327
 31
0.0
  0
LINE
  5
12B
330
1F
100
AcDbEntity
  8
通り芯
  6
JWW_DASHED1
 62
     4
370
     9
100
AcDbLine
 10
-1455.219419389158
 20
-145.9513094388382
 30
0.0
 11
-1535.21917784076
 21
-124.5157849512506
 31
0.0
  0
LINE
  5
12C
330
1F
100
AcDbEntity
  8
通り芯
  6
JWW_DASHED1
 62
     4
370
     9
100
AcDbLine
 10
-1443.314099762891
 20
-145.9509594882317
 30
0.0
 11
-1363.313991360683
 21
-124.5157849512506
 31
0.0
  0
LINE
  5
12D
330
1F
100
AcDbEntity
  8
通り芯
  6
Continuous
 62
     4
370
     9
100
AcDbLine
 10
-1444.09029020766
 20
-143.0533684680822
 30
0.0
 11
-1364.090531756059
 21
-121.6174940298885
 31
0.0
  0
LINE
  5
12E
330
1F
100
AcDbEntity
  8
通り芯
  6
Continuous
 62
     4
370
     9
100
AcDbLine
 10
-1454.443228944388
 20
-143.0533684680822
 30
0.0
 11
-1534.442637445384
 21
-121.6174940298885
 31
0.0
  0
LINE
  5
12F
330
1F
100
AcDbEntity
  8
通り芯
  6
JWW_CENTER2
 62
     4
370
     9
100
AcDbLine
 10
-1624.621409182383
 20
33.09549403927036
 30
0.0
 11
-1597.729454841393
 21
33.09549403927036
 31
0.0
  0
LINE
  5
130
330
1F
100
AcDbEntity
  8
通り芯
  6
JWW_CENTER2
 62
     4
370
     9
100
AcDbLine
 10
-1611.175257036585
 20
19.64969184407863
 30
0.0
 11
-1611.175257036585
 21
46.5412962344621
 31
0.0
  0
LINE
  5
131
330
1F
100
AcDbEntity
  8
通り芯
  6
JWW_CENTER2
 62
     4
370
     9
100
AcDbLine
 10
-1300.712727202412
 20
33.26522008332489
 30
0.0
 11
-1273.820772861422
 21
33.26522008332489
 31
0.0
  0
LINE
  5
132
330
1F
100
AcDbEntity
  8
通り芯
  6
Continuous
 62
     4
370
     9
100
AcDbLine
 10
-1297.266763582193
 20
97.26576174087967
 30
0.0
 11
-1297.266763582193
 21
75.26576692533297
 31
0.0
  0
LINE
  5
133
330
1F
100
AcDbEntity
  8
通り芯
  6
Continuous
 62
     4
370
     9
100
AcDbLine
 10
-1349.266624073264
 20
66.26573723255433
 30
0.0
 11
-1349.266624073264
 21
-101.392798640093
 31
0.0
  0
LINE
  5
134
330
1F
100
AcDbEntity
  8
通り芯
  6
Continuous
 62
     4
370
     9
100
AcDbLine
 10
-1549.266545128178
 20
-101.392798640093
 30
0.0
 11
-1549.266545128178
 21
66.26573723255433
 31
0.0
  0
LINE
  5
135
330
1F
100
AcDbEntity
  8
通り芯
  6
Continuous
 62
     4
370
     9
100
AcDbLine
 10
-1601.266405619249
 20
75.26576692533297
 30
0.0
 11
-1601.266405619249
 21
97.26576174087967
 31
0.0
  0
LINE
  5
136
330
1F
100
AcDbEntity
  8
通り芯
  6
JWW_DASHED1
 62
     4
370
     9
100
AcDbLine
 10
-1604.266532167044
 20
97.26541179027322
 30
0.0
 11
-1604.266532167044
 21
75.2654169747268
 31
0.0
  0
LINE
  5
137
330
1F
100
AcDbEntity
  8
通り芯
  6
JWW_DASHED1
 62
     4
370
     9
100
AcDbLine
 10
-1552.266321725367
 20
66.26538728194788
 30
0.0
 11
-1552.266321725367
 21
-101.3931485906991
 31
0.0
  0
LINE
  5
138
330
1F
100
AcDbEntity
  8
通り芯
  6
JWW_DASHED1
 62
     4
370
     9
100
AcDbLine
 10
-1346.266847476076
 20
-101.3931485906991
 30
0.0
 11
-1346.266847476076
 21
66.26573723255433
 31
0.0
  0
LINE
  5
139
330
1F
100
AcDbEntity
  8
通り芯
  6
JWW_DASHED1
 62
     4
370
     9
100
AcDbLine
 10
-1294.266986985004
 20
75.2654169747268
 30
0.0
 11
-1294.266986985004
 21
97.26541179027322
 31
0.0
  0
LINE
  5
13A
330
1F
100
AcDbEntity
  8
通り芯
  6
JWW_DASHED1
 62
     4
370
     9
100
AcDbLine
 10
-1641.266459820353
 20
-212.7346583176765
 30
0.0
 11
-1257.266709381089
 21
-212.7346583176765
 31
0.0
  0
LINE
  5
13B
330
1F
100
AcDbEntity
  8
通り芯
  6
Continuous
 62
     4
370
     9
100
AcDbLine
 10
-307.8601631602726
 20
100.2657133133715
 30
0.0
 11
-335.8604110714094
 21
100.2657133133715
 31
0.0
  0
LINE
  5
13C
330
1F
100
AcDbEntity
  8
通り芯
  6
Continuous
 62
     4
370
     9
100
AcDbLine
 10
-304.8600366124776
 20
97.26558676557659
 30
0.0
 11
-304.8600366124776
 21
87.26574819060374
 31
0.0
  0
LINE
  5
13D
330
1F
100
AcDbEntity
  8
通り芯
  6
Continuous
 62
     4
370
     9
100
AcDbLine
 10
-679.8601073095699
 20
100.2657133133715
 30
0.0
 11
-651.8602093490395
 21
100.2657133133715
 31
0.0
  0
LINE
  5
13E
330
1F
100
AcDbEntity
  8
通り芯
  6
Continuous
 62
     4
370
     9
100
AcDbLine
 10
-682.8602338573648
 20
97.26558676557659
 30
0.0
 11
-682.8602338573648
 21
87.26574819060374
 31
0.0
  0
LINE
  5
13F
330
1F
100
AcDbEntity
  8
通り芯
  6
Continuous
 62
     4
370
     9
100
AcDbLine
 10
-301.8602600152889
 20
97.26593671618275
 30
0.0
 11
-301.8602600152889
 21
87.26574819060374
 31
0.0
  0
LINE
  5
140
330
1F
100
AcDbEntity
  8
通り芯
  6
Continuous
 62
     4
370
     9
100
AcDbLine
 10
-150.9293631236989
 20
69.26568880504618
 30
0.0
 11
-387.8602715624805
 21
69.26568880504618
 31
0.0
  0
LINE
  5
141
330
1F
100
AcDbEntity
  8
通り芯
  6
Continuous
 62
     4
370
     9
100
AcDbLine
 10
-344.8604407641881
 20
72.26581535284112
 30
0.0
 11
-642.8598297056546
 21
72.26581535284112
 31
0.0
  0
LINE
  5
142
330
1F
100
AcDbEntity
  8
通り芯
  6
Continuous
 62
     4
370
     9
100
AcDbLine
 10
-642.8601796562609
 20
69.26568880504618
 30
0.0
 11
-599.859998907362
 21
69.26568880504618
 31
0.0
  0
LINE
  5
143
330
1F
100
AcDbEntity
  8
通り芯
  6
Continuous
 62
     4
370
     9
100
AcDbLine
 10
-836.7905573955375
 20
103.2658398611665
 30
0.0
 11
-150.9293631236989
 21
103.2658398611665
 31
0.0
  0
LINE
  5
144
330
1F
100
AcDbEntity
  8
通り芯
  6
Continuous
 62
     4
370
     9
100
AcDbLine
 10
-685.8600104545536
 20
97.26593671618275
 30
0.0
 11
-685.8600104545536
 21
87.26574819060374
 31
0.0
  0
LINE
  5
145
330
1F
100
AcDbEntity
  8
通り芯
  6
Continuous
 62
     4
370
     9
100
AcDbLine
 10
-499.8129700233579
 20
-145.9511344635348
 30
0.0
 11
-579.8127284749597
 21
-124.5156099759475
 31
0.0
  0
LINE
  5
146
330
1F
100
AcDbEntity
  8
通り芯
  6
Continuous
 62
     4
370
     9
100
AcDbLine
 10
-487.907650397091
 20
-145.9507845129286
 30
0.0
 11
-407.9075419948828
 21
-124.5156099759475
 31
0.0
  0
LINE
  5
147
330
1F
100
AcDbEntity
  8
通り芯
  6
Continuous
 62
     4
370
     9
100
AcDbLine
 10
-488.6838408418606
 20
-143.0531934927791
 30
0.0
 11
-408.6840823902588
 21
-121.6173190545851
 31
0.0
  0
LINE
  5
148
330
1F
100
AcDbEntity
  8
通り芯
  6
Continuous
 62
     4
370
     9
100
AcDbLine
 10
-499.0367795785883
 20
-143.0531934927791
 30
0.0
 11
-579.0361880795837
 21
-121.6173190545851
 31
0.0
  0
LINE
  5
149
330
1F
100
AcDbEntity
  8
通り芯
  6
Continuous
 62
     4
370
     9
100
AcDbLine
 10
-645.8599562534496
 20
75.26594190063605
 30
0.0
 11
-645.8599562534496
 21
97.26593671618275
 31
0.0
  0
LINE
  5
14A
330
1F
100
AcDbEntity
  8
通り芯
  6
Continuous
 62
     4
370
     9
100
AcDbLine
 10
-648.8600828012445
 20
97.26558676557659
 30
0.0
 11
-648.8600828012445
 21
75.26559195002989
 31
0.0
  0
LINE
  5
14B
330
1F
100
AcDbEntity
  8
通り芯
  6
Continuous
 62
     4
370
     9
100
AcDbLine
 10
-596.8598723595667
 20
66.26556225725125
 30
0.0
 11
-596.8598723595667
 21
-208.7343729370809
 31
0.0
  0
LINE
  5
14C
330
1F
100
AcDbEntity
  8
通り芯
  6
Continuous
 62
     4
370
     9
100
AcDbLine
 10
-390.8603981102755
 20
-208.7343729370809
 30
0.0
 11
-390.8603981102755
 21
66.26591220785741
 31
0.0
  0
LINE
  5
14D
330
1F
100
AcDbEntity
  8
通り芯
  6
Continuous
 62
     4
370
     9
100
AcDbLine
 10
-338.8605376192044
 20
75.26559195002989
 30
0.0
 11
-338.8605376192044
 21
97.26558676557659
 31
0.0
  0
LINE
  5
14E
330
1F
100
AcDbEntity
  8
通り芯
  6
Continuous
 62
     4
370
     9
100
AcDbLine
 10
-341.8603142163931
 20
97.26593671618275
 30
0.0
 11
-341.8603142163931
 21
75.26594190063605
 31
0.0
  0
LINE
  5
14F
330
1F
100
AcDbEntity
  8
通り芯
  6
Continuous
 62
     4
370
     9
100
AcDbLine
 10
-644.1532471465331
 20
69.26568880504618
 30
0.0
 11
-836.7905573955375
 21
69.26568880504618
 31
0.0
  0
LINE
  5
150
330
1F
100
AcDbEntity
  8
通り芯
  6
Continuous
 62
     4
370
     9
100
AcDbLine
 10
-600.8598077895558
 20
-118.7342509845971
 30
0.0
 11
-836.7905573955375
 21
-118.7342509845971
 31
0.0
  0
LINE
  5
151
330
1F
100
AcDbEntity
  8
通り芯
  6
Continuous
 62
     4
370
     9
100
AcDbLine
 10
-600.8598077895558
 20
-146.7343239204305
 30
0.0
 11
-836.7905573955375
 21
-146.7343239204305
 31
0.0
  0
LINE
  5
152
330
1F
100
AcDbEntity
  8
通り芯
  6
Continuous
 62
     4
370
     9
100
AcDbLine
 10
-390.8602231349727
 20
-146.7343239204305
 30
0.0
 11
-596.8596973842637
 21
-146.7343239204305
 31
0.0
  0
LINE
  5
153
330
1F
100
AcDbEntity
  8
通り芯
  6
Continuous
 62
     4
370
     9
100
AcDbLine
 10
-150.9293631236989
 20
-146.7343239204305
 30
0.0
 11
-386.8601127296802
 21
-146.7343239204305
 31
0.0
  0
LINE
  5
154
330
1F
100
AcDbEntity
  8
通り芯
  6
Continuous
 62
     4
370
     9
100
AcDbLine
 10
-150.9293631236989
 20
-118.7342509845971
 30
0.0
 11
-386.8601127296802
 21
-118.7342509845971
 31
0.0
  0
LINE
  5
155
330
1F
100
AcDbEntity
  8
通り芯
  6
Continuous
 62
     4
370
     9
100
AcDbLine
 10
-405.0732920344734
 20
1219.605124397167
 30
0.0
 11
-405.0732920344734
 21
565.605183075754
 31
0.0
  0
LINE
  5
156
330
1F
100
AcDbEntity
  8
通り芯
  6
Continuous
 62
     4
370
     9
100
AcDbLine
 10
-423.0733514200307
 20
565.605183075754
 30
0.0
 11
-423.0733514200307
 21
1219.605124397167
 31
0.0
  0
LINE
  5
157
330
1F
100
AcDbEntity
  8
通り芯
  6
Continuous
 62
     4
370
     9
100
AcDbLine
 10
-1641.266459820353
 20
69.2655138297431
 30
0.0
 11
-1945.266451808016
 21
69.2655138297431
 31
0.0
  0
LINE
  5
158
330
1F
100
AcDbEntity
  8
通り芯
  6
Continuous
 62
     4
370
     9
100
AcDbLine
 10
-1945.266451808016
 20
87.26557321530038
 30
0.0
 11
-1641.266459820353
 21
87.26557321530038
 31
0.0
  0
LINE
  5
159
330
1F
100
AcDbEntity
  8
通り芯
  6
Continuous
 62
     4
370
     9
100
AcDbLine
 10
-1257.266359430482
 20
69.2655138297431
 30
0.0
 11
-953.2663674428198
 21
69.2655138297431
 31
0.0
  0
LINE
  5
15A
330
1F
100
AcDbEntity
  8
通り芯
  6
Continuous
 62
     4
370
     9
100
AcDbLine
 10
-953.2663674428198
 20
87.26557321530038
 30
0.0
 11
-1257.266359430482
 21
87.26557321530038
 31
0.0
  0
LINE
  5
15B
330
1F
100
AcDbEntity
  8
通り芯
  6
Continuous
 62
     4
370
     9
100
AcDbLine
 10
-233.4149957071401
 20
1311.605039089343
 30
0.0
 11
-402.0735154372846
 21
1311.605039089343
 31
0.0
  0
LINE
  5
15C
330
1F
100
AcDbEntity
  8
通り芯
  6
JWW_DASHED1
 62
     4
370
     9
100
AcDbLine
 10
-402.0731654866785
 20
1308.605262492154
 30
0.0
 11
-233.4146457565339
 21
1308.605262492154
 31
0.0
  0
LINE
  5
15D
330
1F
100
AcDbEntity
  8
通り芯
  6
Continuous
 62
     4
370
     9
100
AcDbLine
 10
-402.0735154372846
 20
1511.604960144257
 30
0.0
 11
-233.4149957071401
 21
1511.604960144257
 31
0.0
  0
LINE
  5
15E
330
1F
100
AcDbEntity
  8
通り芯
  6
JWW_DASHED1
 62
     4
370
     9
100
AcDbLine
 10
-233.4146457565339
 20
1514.604736741445
 30
0.0
 11
-402.0735154372846
 21
1514.604736741445
 31
0.0
  0
LINE
  5
15F
330
1F
100
AcDbEntity
  8
通り芯
  6
Continuous
 62
     4
370
     9
100
AcDbLine
 10
-593.8600957623783
 20
-102.2986457844959
 30
0.0
 11
-593.8600957623783
 21
66.26591220785741
 31
0.0
  0
LINE
  5
160
330
1F
100
AcDbEntity
  8
通り芯
  6
Continuous
 62
     4
370
     9
100
AcDbLine
 10
-393.8601747074642
 20
-102.2986457844959
 30
0.0
 11
-393.8601747074642
 21
66.26591220785741
 31
0.0
  0
LINE
  5
161
330
1F
100
AcDbEntity
  8
躯体
  6
JWW_CENTER2
 62
     7
370
     9
100
AcDbLine
 10
-439.0736180658968
 20
1411.604824641496
 30
0.0
 11
-85.74756319458459
 21
1411.604824641496
 31
0.0
  0
LINE
  5
162
330
1F
100
AcDbEntity
  8
通り芯
  6
Continuous
 62
     4
370
     9
100
AcDbLine
 10
-1941.266516378027
 20
-216.7345937476657
 30
0.0
 11
-1859.266440260824
 21
-216.7345937476657
 31
0.0
  0
LINE
  5
163
330
1F
100
AcDbEntity
  8
通り芯
  6
Continuous
 62
     4
370
     9
100
AcDbLine
 10
-1039.266378990012
 20
-212.7346583176765
 30
0.0
 11
-1039.266378990012
 21
-216.7345937476657
 31
0.0
  0
LINE
  5
164
330
1F
100
AcDbEntity
  8
通り芯
  6
Continuous
 62
     4
370
     9
100
AcDbLine
 10
-1039.266378990012
 20
-216.7345937476657
 30
0.0
 11
-957.266302872809
 21
-216.7345937476657
 31
0.0
  0
LINE
  5
165
330
1F
100
AcDbEntity
  8
躯体
  6
JWW_CENTER2
 62
     7
370
     9
100
AcDbLine
 10
-1449.266759576024
 20
138.0950239036073
 30
0.0
 11
-1449.266759576024
 21
-250.0603899854491
 31
0.0
  0
LINE
  5
166
330
1F
100
AcDbEntity
  8
通り芯
  6
Continuous
 62
     4
370
     9
100
AcDbLine
 10
-589.9495727122983
 20
-118.7342509845971
 30
0.0
 11
-596.8596973842637
 21
-118.7342509845971
 31
0.0
  0
LINE
  5
167
330
1F
100
AcDbEntity
  8
通り芯
  6
Continuous
 62
     4
370
     9
100
AcDbLine
 10
-390.8602231349727
 20
-118.7342509845971
 30
0.0
 11
-397.7706977575446
 21
-118.7342509845971
 31
0.0
  0
LINE
  5
168
330
1F
100
AcDbEntity
  8
092
  6
Continuous
 62
     7
370
     9
100
AcDbLine
 10
12.91331133787196
 20
1263.19112246101
 30
0.0
 11
-119.0733594323677
 21
1185.104893924647
 31
0.0
  0
LINE
  5
169
330
1F
100
AcDbEntity
  8
092
  6
Continuous
 62
     7
370
     9
100
AcDbLine
 10
-119.0733594323677
 20
1185.104893924647
 30
0.0
 11
-99.4024608770394
 21
1200.534216156337
 31
0.0
  0
LINE
  5
16A
330
1F
100
AcDbEntity
  8
092
  6
Continuous
 62
     7
370
     9
100
AcDbLine
 10
-119.0733594323677
 20
1185.104893924647
 30
0.0
 11
-96.07950489493419
 21
1194.917158974644
 31
0.0
  0
LINE
  5
16B
330
1F
100
AcDbEntity
  8
092
  6
Continuous
 62
     7
370
     9
100
AcDbLine
 10
-20.00794199903055
 20
751.1503943375178
 30
0.0
 11
472.6154267833959
 21
751.1503943375178
 31
0.0
  0
LINE
  5
16C
330
1F
100
AcDbEntity
  8
092
  6
Continuous
 62
     7
370
     9
100
AcDbLine
 10
-649.1757382481256
 20
-287.4800833910129
 30
0.0
 11
-346.8698571455525
 21
-287.4800833910129
 31
0.0
  0
LINE
  5
16D
330
1F
100
AcDbEntity
  8
092
  6
Continuous
 62
     7
370
     9
100
AcDbLine
 10
-649.1757382481256
 20
-352.4800839801554
 30
0.0
 11
-649.1757382481256
 21
-287.4800833910129
 31
0.0
  0
LINE
  5
16E
330
1F
100
AcDbEntity
  8
092
  6
Continuous
 62
     7
370
     9
100
AcDbLine
 10
-346.8698571455525
 20
-287.4800833910129
 30
0.0
 11
-346.8698571455525
 21
-352.4800839801554
 31
0.0
  0
LINE
  5
16F
330
1F
100
AcDbEntity
  8
1-0ﾚｲﾔ
  6
JWW_DASHED1
 62
     4
370
     9
100
AcDbLine
 10
964.0223672583295
 20
1065.930964702805
 30
0.0
 11
971.522508652514
 21
1065.930964702805
 31
0.0
  0
LINE
  5
170
330
1F
100
AcDbEntity
  8
1-0ﾚｲﾔ
  6
JWW_DASHED1
 62
     4
370
     9
100
AcDbLine
 10
1916.522826789429
 20
1065.930964702805
 30
0.0
 11
1924.022968183613
 21
1065.930964702805
 31
0.0
  0
LINE
  5
171
330
1F
100
AcDbEntity
  8
Hojo
  6
Continuous
 62
     7
370
     9
100
AcDbLine
 10
1064.022852711696
 20
1265.714616283026
 30
0.0
 11
1824.022482730247
 21
1265.714616283026
 31
0.0
  0
LINE
  5
172
330
1F
100
AcDbEntity
  8
Hojo
  6
Continuous
 62
     7
370
     9
100
AcDbLine
 10
1064.022852711696
 20
1128.431443086462
 30
0.0
 11
1064.022852711696
 21
1270.214981080022
 31
0.0
  0
LINE
  5
173
330
1F
100
AcDbEntity
  8
Hojo
  6
Continuous
 62
     7
370
     9
100
AcDbLine
 10
1824.022482730247
 20
1128.431443086462
 30
0.0
 11
1824.022482730247
 21
1270.214981080022
 31
0.0
  0
LINE
  5
174
330
1F
100
AcDbEntity
  8
Hojo
  6
Continuous
 62
     7
370
     9
100
AcDbLine
 10
964.0223672583295
 20
1354.269267256195
 30
0.0
 11
1924.022968183613
 21
1354.269267256195
 31
0.0
  0
LINE
  5
175
330
1F
100
AcDbEntity
  8
Hojo
  6
Continuous
 62
     7
370
     9
100
AcDbLine
 10
964.0223672583295
 20
1128.431443086462
 30
0.0
 11
964.0223672583295
 21
1358.769632053191
 31
0.0
  0
LINE
  5
176
330
1F
100
AcDbEntity
  8
Hojo
  6
Continuous
 62
     7
370
     9
100
AcDbLine
 10
1924.022968183613
 20
1128.431443086462
 30
0.0
 11
1924.022968183613
 21
1358.769632053191
 31
0.0
  0
LINE
  5
177
330
1F
100
AcDbEntity
  8
Hojo
  6
Continuous
 62
     7
370
     9
100
AcDbLine
 10
1216.522928121927
 20
1028.430957633095
 30
0.0
 11
1342.837599465285
 21
1028.430957633095
 31
0.0
  0
LINE
  5
178
330
1F
100
AcDbEntity
  8
Hojo
  6
Continuous
 62
     7
370
     9
100
AcDbLine
 10
1630.091755040364
 20
387.7917805095436
 30
0.0
 11
1730.14228343043
 21
-11.51358462208492
 31
0.0
  0
LINE
  5
179
330
1F
100
AcDbEntity
  8
1-0ﾚｲﾔ
  6
JWW_DASHED1
 62
     4
370
     9
100
AcDbLine
 10
979.022650046698
 20
1098.431577410937
 30
0.0
 11
1049.022569923327
 21
1098.431577410937
 31
0.0
  0
LINE
  5
17A
330
1F
100
AcDbEntity
  8
1-0ﾚｲﾔ
  6
JWW_DASHED1
 62
     4
370
     9
100
AcDbLine
 10
971.522508652514
 20
1090.931436016753
 30
0.0
 11
971.522508652514
 21
1065.930964702805
 31
0.0
  0
LINE
  5
17B
330
1F
100
AcDbEntity
  8
1-0ﾚｲﾔ
  6
Continuous
 62
     4
370
     9
100
AcDbLine
 10
1194.023203840587
 20
1013.431024795333
 30
0.0
 11
1194.023203840587
 21
592.020854641572
 31
0.0
  0
LINE
  5
17C
330
1F
100
AcDbEntity
  8
1-0ﾚｲﾔ
  6
Continuous
 62
     4
370
     9
100
AcDbLine
 10
1179.023620953431
 20
1028.430957633095
 30
0.0
 11
1071.52299410588
 21
1028.430957633095
 31
0.0
  0
LINE
  5
17D
330
1F
100
AcDbEntity
  8
1-0ﾚｲﾔ
  6
JWW_DASHED1
 62
     4
370
     9
100
AcDbLine
 10
1056.522711317511
 20
1035.93109902728
 30
0.0
 11
1056.522711317511
 21
1090.931436016753
 31
0.0
  0
LINE
  5
17E
330
1F
100
AcDbEntity
  8
1-0ﾚｲﾔ
  6
Continuous
 62
     4
370
     9
100
AcDbLine
 10
1064.022852711696
 20
1090.931086066147
 30
0.0
 11
1064.022852711696
 21
1035.93109902728
 31
0.0
  0
LINE
  5
17F
330
1F
100
AcDbEntity
  8
1-0ﾚｲﾔ
  6
JWW_DASHED1
 62
     4
370
     9
100
AcDbLine
 10
1709.022414389724
 20
1020.931516140124
 30
0.0
 11
1816.522341336062
 21
1020.931516140124
 31
0.0
  0
LINE
  5
180
330
1F
100
AcDbEntity
  8
1-0ﾚｲﾔ
  6
JWW_DASHED1
 62
     4
370
     9
100
AcDbLine
 10
1831.522624124431
 20
1090.931436016753
 30
0.0
 11
1831.522624124431
 21
1035.93109902728
 31
0.0
  0
LINE
  5
181
330
1F
100
AcDbEntity
  8
1-0ﾚｲﾔ
  6
JWW_DASHED1
 62
     4
370
     9
100
AcDbLine
 10
1909.022685395244
 20
1098.431577410937
 30
0.0
 11
1839.022765518615
 21
1098.431577410937
 31
0.0
  0
LINE
  5
182
330
1F
100
AcDbEntity
  8
1-0ﾚｲﾔ
  6
JWW_DASHED1
 62
     4
370
     9
100
AcDbLine
 10
1916.522826789429
 20
1090.931436016753
 30
0.0
 11
1916.522826789429
 21
1065.930964702805
 31
0.0
  0
LINE
  5
183
330
1F
100
AcDbEntity
  8
1-0ﾚｲﾔ
  6
Continuous
 62
     4
370
     9
100
AcDbLine
 10
1816.522341336062
 20
1028.430957633095
 30
0.0
 11
1709.022414389724
 21
1028.430957633095
 31
0.0
  0
LINE
  5
184
330
1F
100
AcDbEntity
  8
1-0ﾚｲﾔ
  6
Continuous
 62
     4
370
     9
100
AcDbLine
 10
1824.022482730247
 20
1035.93109902728
 30
0.0
 11
1824.022482730247
 21
1090.931086066147
 31
0.0
  0
LINE
  5
185
330
1F
100
AcDbEntity
  8
Hojo
  6
Continuous
 62
     7
370
     9
100
AcDbLine
 10
1730.14228343043
 20
-11.51358462208492
 30
0.0
 11
2053.103299168546
 21
-11.51358462208492
 31
0.0
  0
LINE
  5
186
330
1F
100
AcDbEntity
  8
Hojo
  6
Continuous
 62
     7
370
     9
100
AcDbLine
 10
1338.337934569502
 20
1105.931018903909
 30
0.0
 11
1108.75633881359
 21
1105.931018903909
 31
0.0
  0
LINE
  5
187
330
1F
100
AcDbEntity
  8
Hojo
  6
Continuous
 62
     7
370
     9
100
AcDbLine
 10
621.7993702483449
 20
1105.931018903909
 30
0.0
 11
621.7993702483449
 21
305.9309847336476
 31
0.0
  0
LINE
  5
188
330
1F
100
AcDbEntity
  8
Hojo
  6
Continuous
 62
     7
370
     9
100
AcDbLine
 10
934.0232014840171
 20
305.9309847336476
 30
0.0
 11
618.7995936511567
 21
305.9309847336476
 31
0.0
  0
LINE
  5
189
330
1F
100
AcDbEntity
  8
Hojo
  6
Continuous
 62
     7
370
     9
100
AcDbLine
 10
934.0232014840171
 20
1105.931018903909
 30
0.0
 11
618.7995936511567
 21
1105.931018903909
 31
0.0
  0
LINE
  5
18A
330
1F
100
AcDbEntity
  8
1-0ﾚｲﾔ
  6
Continuous
 62
     4
370
     9
100
AcDbLine
 10
964.0223672583295
 20
1090.931086066147
 30
0.0
 11
964.0223672583295
 21
305.9309847336476
 31
0.0
  0
LINE
  5
18B
330
1F
100
AcDbEntity
  8
1-0ﾚｲﾔ
  6
Continuous
 62
     4
370
     9
100
AcDbLine
 10
979.022650046698
 20
1105.931018903909
 30
0.0
 11
1049.022569923327
 21
1105.931018903909
 31
0.0
  0
LINE
  5
18C
330
1F
100
AcDbEntity
  8
1-0ﾚｲﾔ
  6
Continuous
 62
     4
370
     9
100
AcDbLine
 10
1909.022685395244
 20
1105.931018903909
 30
0.0
 11
1839.022065617403
 21
1105.931018903909
 31
0.0
  0
LINE
  5
18D
330
1F
100
AcDbEntity
  8
1-0ﾚｲﾔ
  6
Continuous
 62
     4
370
     9
100
AcDbLine
 10
1924.022968183613
 20
1090.931086066147
 30
0.0
 11
1924.022968183613
 21
305.9313346842541
 31
0.0
  0
LINE
  5
18E
330
1F
100
AcDbEntity
  8
Hojo
  6
Continuous
 62
     7
370
     9
100
AcDbLine
 10
1301.041598752659
 20
480.9311343758262
 30
0.0
 11
797.5228677937423
 21
480.9311343758262
 31
0.0
  0
LINE
  5
18F
330
1F
100
AcDbEntity
  8
Hojo
  6
Continuous
 62
     7
370
     9
100
AcDbLine
 10
1199.364849895123
 20
-129.4798343015916
 30
0.0
 11
1674.07914644963
 21
-129.4798343015916
 31
0.0
  0
LINE
  5
190
330
1F
100
AcDbEntity
  8
Hojo
  6
Continuous
 62
     7
370
     9
100
AcDbLine
 10
800.5226443909305
 20
1105.931018903909
 30
0.0
 11
800.5226443909305
 21
480.9311343758262
 31
0.0
  0
LINE
  5
191
330
1F
100
AcDbEntity
  8
1-0ﾚｲﾔ
  6
JWW_DASHED1
 62
     4
370
     9
100
AcDbLine
 10
1179.023620953431
 20
1020.931516140124
 30
0.0
 11
1071.52299410588
 21
1020.931516140124
 31
0.0
  0
LINE
  5
192
330
1F
100
AcDbEntity
  8
1-0ﾚｲﾔ
  6
JWW_CENTER2
 62
     4
370
     9
100
AcDbLine
 10
1039.02308129896
 20
964.1058367881997
 30
0.0
 11
1039.02308129896
 21
897.7817980801276
 31
0.0
  0
LINE
  5
193
330
1F
100
AcDbEntity
  8
1-0ﾚｲﾔ
  6
JWW_CENTER2
 62
     4
370
     9
100
AcDbLine
 10
1005.872960265539
 20
930.9312192123368
 30
0.0
 11
1072.173202332383
 21
930.9312192123368
 31
0.0
  0
LINE
  5
194
330
1F
100
AcDbEntity
  8
1-0ﾚｲﾔ
  6
JWW_CENTER2
 62
     4
370
     9
100
AcDbLine
 10
1039.02308129896
 20
614.1058874544487
 30
0.0
 11
1039.02308129896
 21
547.7814987957706
 31
0.0
  0
LINE
  5
195
330
1F
100
AcDbEntity
  8
1-0ﾚｲﾔ
  6
JWW_CENTER2
 62
     4
370
     9
100
AcDbLine
 10
1005.872960265539
 20
580.9309199279799
 30
0.0
 11
1072.173202332383
 21
580.9309199279799
 31
0.0
  0
LINE
  5
196
330
1F
100
AcDbEntity
  8
1-0ﾚｲﾔ
  6
JWW_CENTER2
 62
     4
370
     9
100
AcDbLine
 10
1269.022518078793
 20
439.1057378122704
 30
0.0
 11
1269.022518078793
 21
372.7816991041985
 31
0.0
  0
LINE
  5
197
330
1F
100
AcDbEntity
  8
1-0ﾚｲﾔ
  6
JWW_CENTER2
 62
     4
370
     9
100
AcDbLine
 10
1235.872397045371
 20
405.9311202364077
 30
0.0
 11
1302.172639112214
 21
405.9311202364077
 31
0.0
  0
LINE
  5
198
330
1F
100
AcDbEntity
  8
1-0ﾚｲﾔ
  6
JWW_CENTER2
 62
     4
370
     9
100
AcDbLine
 10
1619.022817363149
 20
439.1057378122704
 30
0.0
 11
1619.022817363149
 21
372.7816991041985
 31
0.0
  0
LINE
  5
199
330
1F
100
AcDbEntity
  8
1-0ﾚｲﾔ
  6
JWW_CENTER2
 62
     4
370
     9
100
AcDbLine
 10
1585.871996428516
 20
405.9311202364077
 30
0.0
 11
1652.172238495359
 21
405.9311202364077
 31
0.0
  0
LINE
  5
19A
330
1F
100
AcDbEntity
  8
1-0ﾚｲﾔ
  6
JWW_CENTER2
 62
     4
370
     9
100
AcDbLine
 10
1849.022254142982
 20
614.1058874544487
 30
0.0
 11
1849.022254142982
 21
547.7814987957706
 31
0.0
  0
LINE
  5
19B
330
1F
100
AcDbEntity
  8
1-0ﾚｲﾔ
  6
JWW_CENTER2
 62
     4
370
     9
100
AcDbLine
 10
1815.87213310956
 20
580.9309199279799
 30
0.0
 11
1882.172375176403
 21
580.9309199279799
 31
0.0
  0
LINE
  5
19C
330
1F
100
AcDbEntity
  8
1-0ﾚｲﾔ
  6
JWW_CENTER2
 62
     4
370
     9
100
AcDbLine
 10
1849.022254142982
 20
964.1058367881997
 30
0.0
 11
1849.022254142982
 21
897.7817980801276
 31
0.0
  0
LINE
  5
19D
330
1F
100
AcDbEntity
  8
1-0ﾚｲﾔ
  6
JWW_CENTER2
 62
     4
370
     9
100
AcDbLine
 10
1815.87213310956
 20
930.9312192123368
 30
0.0
 11
1882.172375176403
 21
930.9312192123368
 31
0.0
  0
LINE
  5
19E
330
1F
100
AcDbEntity
  8
1-0ﾚｲﾔ
  6
Continuous
 62
     4
370
     9
100
AcDbLine
 10
1431.080444448243
 20
490.1351852720765
 30
0.0
 11
1231.08227314636
 21
543.724521416955
 31
0.0
  0
LINE
  5
19F
330
1F
100
AcDbEntity
  8
1-0ﾚｲﾔ
  6
Continuous
 62
     4
370
     9
100
AcDbLine
 10
1656.963762196795
 20
543.7248713675613
 30
0.0
 11
1456.962091388849
 21
490.1351852720765
 31
0.0
  0
LINE
  5
1A0
330
1F
100
AcDbEntity
  8
1-0ﾚｲﾔ
  6
JWW_DASHED1
 62
     4
370
     9
100
AcDbLine
 10
964.0223672583295
 20
315.9308233086207
 30
0.0
 11
1924.022968183613
 21
315.9308233086207
 31
0.0
  0
LINE
  5
1A1
330
1F
100
AcDbEntity
  8
1-0ﾚｲﾔ
  6
JWW_DASHED1
 62
     4
370
     9
100
AcDbLine
 10
1229.14144708383
 20
536.4801939159745
 30
0.0
 11
1429.140318286925
 21
482.8905078204903
 31
0.0
  0
LINE
  5
1A2
330
1F
100
AcDbEntity
  8
1-0ﾚｲﾔ
  6
JWW_DASHED1
 62
     4
370
     9
100
AcDbLine
 10
1658.904588259325
 20
536.4801939159745
 30
0.0
 11
1458.904317253805
 21
482.8905078204903
 31
0.0
  0
LINE
  5
1A3
330
1F
100
AcDbEntity
  8
1-0ﾚｲﾔ
  6
Continuous
 62
     4
370
     9
100
AcDbLine
 10
964.0223672583295
 20
305.9309847336476
 30
0.0
 11
1924.022968183613
 21
305.9309847336476
 31
0.0
  0
LINE
  5
1A4
330
1F
100
AcDbEntity
  8
1-1ﾚｲﾔ
  6
JWW_CENTER2
 62
     7
370
     9
100
AcDbLine
 10
1444.023017671577
 20
1105.931018903909
 30
0.0
 11
1444.023017671577
 21
222.6171940404015
 31
0.0
  0
LINE
  5
1A5
330
1F
100
AcDbEntity
  8
1-0ﾚｲﾔ
  6
JWW_DASHED1
 62
     4
370
     9
100
AcDbLine
 10
1186.523762347615
 20
592.020854641572
 30
0.0
 11
1186.523762347615
 21
1013.431374745939
 31
0.0
  0
LINE
  5
1A6
330
1F
100
AcDbEntity
  8
1-0ﾚｲﾔ
  6
Continuous
 62
     4
370
     9
100
AcDbLine
 10
1694.022131601355
 20
592.0215545427843
 30
0.0
 11
1694.022131601355
 21
1013.431024795333
 31
0.0
  0
LINE
  5
1A7
330
1F
100
AcDbEntity
  8
1-0ﾚｲﾔ
  6
JWW_DASHED1
 62
     4
370
     9
100
AcDbLine
 10
1701.52227299554
 20
592.020854641572
 30
0.0
 11
1701.52227299554
 21
1013.431374745939
 31
0.0
  0
LINE
  5
1A8
330
1F
100
AcDbEntity
  8
Hojo
  6
Continuous
 62
     7
370
     9
100
AcDbLine
 10
1199.364849895123
 20
-64.47965873714594
 30
0.0
 11
1674.07914644963
 21
-64.47965873714594
 31
0.0
  0
LINE
  5
1A9
330
1F
100
AcDbEntity
  8
Hojo
  6
Continuous
 62
     7
370
     9
100
AcDbLine
 10
1199.364849895123
 20
-64.47965873714594
 30
0.0
 11
1199.364849895123
 21
-129.4798343015916
 31
0.0
  0
LINE
  5
1AA
330
1F
100
AcDbEntity
  8
Hojo
  6
Continuous
 62
     7
370
     9
100
AcDbLine
 10
1674.07914644963
 20
-129.4798343015916
 30
0.0
 11
1674.07914644963
 21
-64.47965873714594
 31
0.0
  0
LINE
  5
1AB
330
1F
100
AcDbEntity
  8
Hojo
  6
Continuous
 62
     7
370
     9
100
AcDbLine
 10
1338.337934569502
 20
1105.931018903909
 30
0.0
 11
1338.337934569502
 21
900.3791314800733
 31
0.0
  0
LINE
  5
1AC
330
1F
100
AcDbEntity
  8
Hojo
  6
Continuous
 62
     7
370
     9
100
AcDbLine
 10
1204.362494503669
 20
561.5727022393789
 30
0.0
 11
1221.295904441229
 21
579.9643563533843
 31
0.0
  0
LINE
  5
1AD
330
1F
100
AcDbEntity
  8
Hojo
  6
Continuous
 62
     7
370
     9
100
AcDbLine
 10
1204.362494503669
 20
561.5727022393789
 30
0.0
 11
1225.479213988919
 21
574.9551633748306
 31
0.0
  0
LINE
  5
1AE
330
1F
100
AcDbEntity
  8
Hojo
  6
Continuous
 62
     7
370
     9
100
AcDbLine
 10
1310.413625939932
 20
650.1308527186111
 30
0.0
 11
1204.362494503669
 21
561.5727022393789
 31
0.0
  0
LINE
  5
1AF
330
1F
100
AcDbEntity
  8
Hojo
  6
Continuous
 62
     7
370
     9
100
AcDbLine
 10
1573.355313093045
 20
630.4272337815937
 30
0.0
 11
1685.407397526111
 21
563.9625149297897
 31
0.0
  0
LINE
  5
1B0
330
1F
100
AcDbEntity
  8
Hojo
  6
Continuous
 62
     7
370
     9
100
AcDbLine
 10
1685.407397526111
 20
563.9625149297897
 30
0.0
 11
1662.424391457473
 21
573.799626472834
 31
0.0
  0
LINE
  5
1B1
330
1F
100
AcDbEntity
  8
Hojo
  6
Continuous
 62
     7
370
     9
100
AcDbLine
 10
1685.407397526111
 20
563.9625149297897
 30
0.0
 11
1665.753471575188
 21
579.4128341978578
 31
0.0
  0
LINE
  5
1B2
330
1F
100
AcDbEntity
  8
Hojo
  6
Continuous
 62
     7
370
     9
100
AcDbLine
 10
1444.023017671577
 20
488.4316257206169
 30
0.0
 11
1455.997627517891
 21
510.3773781921873
 31
0.0
  0
LINE
  5
1B3
330
1F
100
AcDbEntity
  8
Hojo
  6
Continuous
 62
     7
370
     9
100
AcDbLine
 10
1444.023017671577
 20
488.4316257206169
 30
0.0
 11
1461.269283451168
 21
506.5300212265439
 31
0.0
  0
LINE
  5
1B4
330
1F
100
AcDbEntity
  8
Hojo
  6
Continuous
 62
     7
370
     9
100
AcDbLine
 10
1532.148629201425
 20
609.1988800529348
 30
0.0
 11
1444.023017671577
 21
488.4316257206169
 31
0.0
  0
LINE
  5
1B5
330
1F
100
AcDbEntity
  8
Hojo
  6
Continuous
 62
     7
370
     9
100
AcDbLine
 10
1194.023203840587
 20
1179.129137371498
 30
0.0
 11
1694.022131601355
 21
1179.129137371498
 31
0.0
  0
LINE
  5
1B6
330
1F
100
AcDbEntity
  8
Hojo
  6
Continuous
 62
     7
370
     9
100
AcDbLine
 10
1194.023203840587
 20
1045.957883798938
 30
0.0
 11
1194.023203840587
 21
1182.129263919292
 31
0.0
  0
LINE
  5
1B7
330
1F
100
AcDbEntity
  8
Hojo
  6
Continuous
 62
     7
370
     9
100
AcDbLine
 10
1694.022131601355
 20
1045.957883798938
 30
0.0
 11
1694.022131601355
 21
1182.129263919292
 31
0.0
  0
LINE
  5
1B8
330
1F
100
AcDbEntity
  8
_2-a_N_s
  6
Continuous
 62
     2
370
     9
100
AcDbLine
 10
1365.118954568296
 20
-721.060485780009
 30
0.0
 11
1140.118212248828
 21
-721.060485780009
 31
0.0
  0
LINE
  5
1B9
330
1F
100
AcDbEntity
  8
_2-a_N_s
  6
Continuous
 62
     2
370
     9
100
AcDbLine
 10
1365.118954568296
 20
-671.060243053326
 30
0.0
 11
1365.118954568296
 21
-721.060485780009
 31
0.0
  0
LINE
  5
1BA
330
1F
100
AcDbEntity
  8
_2-a_N_s
  6
Continuous
 62
     2
370
     9
100
AcDbLine
 10
1140.118212248828
 20
-671.060243053326
 30
0.0
 11
1365.118954568296
 21
-671.060243053326
 31
0.0
  0
LINE
  5
1BB
330
1F
100
AcDbEntity
  8
_2-a_N_s
  6
Continuous
 62
     2
370
     9
100
AcDbLine
 10
1140.118212248828
 20
-721.060485780009
 30
0.0
 11
1140.118212248828
 21
-671.060243053326
 31
0.0
  0
LINE
  5
1BC
330
1F
100
AcDbEntity
  8
Yobi_3
  6
JWW_CENTER1
 62
     4
370
     9
100
AcDbLine
 10
18.63255409660439
 20
-928.0534698005808
 30
0.0
 11
-9.51327326675198
 21
-928.0534698005808
 31
0.0
  0
LINE
  5
1BD
330
1F
100
AcDbEntity
  8
Yobi_3
  6
JWW_CENTER1
 62
     4
370
     9
100
AcDbLine
 10
4.560340316139104
 20
-942.1267334328655
 30
0.0
 11
4.560340316139104
 21
-913.9803811435993
 31
0.0
  0
LINE
  5
1BE
330
1F
100
AcDbEntity
  8
Yobi_3
  6
JWW_CENTER1
 62
     4
370
     9
100
AcDbLine
 10
18.63255409660439
 20
-1218.046688771156
 30
0.0
 11
-9.51327326675198
 21
-1218.046688771156
 31
0.0
  0
LINE
  5
1BF
330
1F
100
AcDbEntity
  8
Yobi_3
  6
JWW_CENTER1
 62
     4
370
     9
100
AcDbLine
 10
4.560340316139104
 20
-1232.119777428137
 30
0.0
 11
4.560340316139104
 21
-1203.973600114174
 31
0.0
  0
LINE
  5
1C0
330
1F
100
AcDbEntity
  8
Yobi_3
  6
JWW_CENTER1
 62
     4
370
     9
100
AcDbLine
 10
110.7325546621814
 20
-1288.0474835243
 30
0.0
 11
82.58672729882448
 21
-1288.0474835243
 31
0.0
  0
LINE
  5
1C1
330
1F
100
AcDbEntity
  8
Yobi_3
  6
JWW_CENTER1
 62
     4
370
     9
100
AcDbLine
 10
96.65894107929034
 20
-1302.120572181282
 30
0.0
 11
96.65894107929034
 21
-1273.974394867319
 31
0.0
  0
LINE
  5
1C2
330
1F
100
AcDbEntity
  8
Yobi_3
  6
Continuous
 62
     4
370
     9
100
AcDbLine
 10
-25.34223909083494
 20
-1328.048062651314
 30
0.0
 11
358.6585612002483
 21
-1328.048062651314
 31
0.0
  0
LINE
  5
1C3
330
1F
100
AcDbEntity
  8
Yobi_3
  6
JWW_DASHED2
 62
     4
370
     9
100
AcDbLine
 10
-25.34223909083494
 20
-1324.047777270718
 30
0.0
 11
358.6585612002483
 21
-1324.047777270718
 31
0.0
  0
LINE
  5
1C4
330
1F
100
AcDbEntity
  8
Yobi_3
  6
JWW_CENTER2
 62
     7
370
     9
100
AcDbLine
 10
166.6588609559193
 20
-860.5842177333978
 30
0.0
 11
166.6588609559193
 21
-1359.837225776842
 31
0.0
  0
LINE
  5
1C5
330
1F
100
AcDbEntity
  8
Yobi_3
  6
Continuous
 62
     4
370
     9
100
AcDbLine
 10
161.4823915875553
 20
-1253.555126940422
 30
0.0
 11
81.48088338292212
 21
-1232.118377625712
 31
0.0
  0
LINE
  5
1C6
330
1F
100
AcDbEntity
  8
Yobi_3
  6
Continuous
 62
     4
370
     9
100
AcDbLine
 10
171.8353303242833
 20
-1253.554252063906
 30
0.0
 11
251.8375384301288
 21
-1232.117327773893
 31
0.0
  0
LINE
  5
1C7
330
1F
100
AcDbEntity
  8
Yobi_3
  6
JWW_CENTER1
 62
     4
370
     9
100
AcDbLine
 10
-533.5671058032506
 20
-928.0534698005808
 30
0.0
 11
-561.7136330678198
 21
-928.0534698005808
 31
0.0
  0
LINE
  5
1C8
330
1F
100
AcDbEntity
  8
Yobi_3
  6
JWW_CENTER1
 62
     4
370
     9
100
AcDbLine
 10
-547.6400194849288
 20
-942.1267334328655
 30
0.0
 11
-547.6400194849288
 21
-913.9803811435993
 31
0.0
  0
LINE
  5
1C9
330
1F
100
AcDbEntity
  8
Yobi_3
  6
JWW_CENTER1
 62
     4
370
     9
100
AcDbLine
 10
-533.5671058032506
 20
-1043.04671410428
 30
0.0
 11
-561.7136330678198
 21
-1043.04671410428
 31
0.0
  0
LINE
  5
1CA
330
1F
100
AcDbEntity
  8
Yobi_3
  6
JWW_CENTER1
 62
     4
370
     9
100
AcDbLine
 10
-547.6400194849288
 20
-1057.119802761262
 30
0.0
 11
-547.6400194849288
 21
-1028.973625447299
 31
0.0
  0
LINE
  5
1CB
330
1F
100
AcDbEntity
  8
Yobi_3
  6
JWW_CENTER1
 62
     4
370
     9
100
AcDbLine
 10
-441.4678051388864
 20
-1113.047508857425
 30
0.0
 11
-469.6136325022431
 21
-1113.047508857425
 31
0.0
  0
LINE
  5
1CC
330
1F
100
AcDbEntity
  8
Yobi_3
  6
JWW_CENTER1
 62
     4
370
     9
100
AcDbLine
 10
-455.5407188205646
 20
-1127.120597514407
 30
0.0
 11
-455.5407188205646
 21
-1098.974420200444
 31
0.0
  0
LINE
  5
1CD
330
1F
100
AcDbEntity
  8
Yobi_3
  6
Continuous
 62
     4
370
     9
100
AcDbLine
 10
-577.5418989906902
 20
-1153.048087984439
 30
0.0
 11
-193.5410986996067
 21
-1153.048087984439
 31
0.0
  0
LINE
  5
1CE
330
1F
100
AcDbEntity
  8
Yobi_3
  6
JWW_DASHED2
 62
     4
370
     9
100
AcDbLine
 10
-577.5418989906902
 20
-1149.047802603843
 30
0.0
 11
-193.5410986996067
 21
-1149.047802603843
 31
0.0
  0
LINE
  5
1CF
330
1F
100
AcDbEntity
  8
Yobi_3
  6
JWW_CENTER2
 62
     7
370
     9
100
AcDbLine
 10
-385.5414988451486
 20
-860.5842177333978
 30
0.0
 11
-385.5414988451486
 21
-1184.837426085269
 31
0.0
  0
LINE
  5
1D0
330
1F
100
AcDbEntity
  8
Yobi_3
  6
Continuous
 62
     4
370
     9
100
AcDbLine
 10
-390.7172683122997
 20
-1078.555152273546
 30
0.0
 11
-470.7194764181455
 21
-1057.118402958837
 31
0.0
  0
LINE
  5
1D1
330
1F
100
AcDbEntity
  8
Yobi_3
  6
Continuous
 62
     4
370
     9
100
AcDbLine
 10
-380.3643295755717
 20
-1078.554102421727
 30
0.0
 11
-300.3628213709385
 21
-1057.117353107018
 31
0.0
  0
LINE
  5
1D2
330
1F
100
AcDbEntity
  8
Yobi_3
  6
JWW_CENTER1
 62
     4
370
     9
100
AcDbLine
 10
-1085.767465604318
 20
-928.0534698005808
 30
0.0
 11
-1113.913992868887
 21
-928.0534698005808
 31
0.0
  0
LINE
  5
1D3
330
1F
100
AcDbEntity
  8
Yobi_3
  6
JWW_CENTER1
 62
     4
370
     9
100
AcDbLine
 10
-1099.841079187209
 20
-942.1267334328655
 30
0.0
 11
-1099.841079187209
 21
-913.9803811435993
 31
0.0
  0
LINE
  5
1D4
330
1F
100
AcDbEntity
  8
Yobi_3
  6
JWW_CENTER1
 62
     4
370
     9
100
AcDbLine
 10
-993.6681649399543
 20
-1038.047494718007
 30
0.0
 11
-1021.813992303311
 21
-1038.047494718007
 31
0.0
  0
LINE
  5
1D5
330
1F
100
AcDbEntity
  8
Yobi_3
  6
JWW_CENTER1
 62
     4
370
     9
100
AcDbLine
 10
-1007.741078621632
 20
-1052.120583374988
 30
0.0
 11
-1007.741078621632
 21
-1023.974406061025
 31
0.0
  0
LINE
  5
1D6
330
1F
100
AcDbEntity
  8
Yobi_3
  6
Continuous
 62
     4
370
     9
100
AcDbLine
 10
-1129.742258791758
 20
-1078.04807384502
 30
0.0
 11
-745.7414585006745
 21
-1078.04807384502
 31
0.0
  0
LINE
  5
1D7
330
1F
100
AcDbEntity
  8
Yobi_3
  6
JWW_DASHED2
 62
     4
370
     9
100
AcDbLine
 10
-1129.742258791758
 20
-1074.047788464425
 30
0.0
 11
-745.7414585006745
 21
-1074.047788464425
 31
0.0
  0
LINE
  5
1D8
330
1F
100
AcDbEntity
  8
Yobi_3
  6
JWW_CENTER2
 62
     7
370
     9
100
AcDbLine
 10
-937.7418586462161
 20
-860.5842177333978
 30
0.0
 11
-937.7418586462161
 21
-1109.837411945851
 31
0.0
  0
LINE
  5
1D9
330
1F
100
AcDbEntity
  8
Yobi_3
  6
Continuous
 62
     4
370
     9
100
AcDbLine
 10
-942.9183280145801
 20
-1003.555138134128
 30
0.0
 11
-1022.919836219213
 21
-982.1183888194183
 31
0.0
  0
LINE
  5
1DA
330
1F
100
AcDbEntity
  8
Yobi_3
  6
Continuous
 62
     4
370
     9
100
AcDbLine
 10
-932.5646893766398
 20
-1003.554263257612
 30
0.0
 11
-852.5638810732192
 21
-982.1175139429026
 31
0.0
  0
LINE
  5
1DB
330
1F
100
AcDbEntity
  8
Yobi_3
  6
JWW_CENTER1
 62
     4
370
     9
100
AcDbLine
 10
18.63255409660439
 20
-1073.050079285868
 30
0.0
 11
-9.51327326675198
 21
-1073.050079285868
 31
0.0
  0
LINE
  5
1DC
330
1F
100
AcDbEntity
  8
Yobi_3
  6
JWW_CENTER1
 62
     4
370
     9
100
AcDbLine
 10
4.560340316139104
 20
-1087.123342918153
 30
0.0
 11
4.560340316139104
 21
-1058.976990628887
 31
0.0
  0
LINE
  5
1DD
330
1F
100
AcDbEntity
  8
Yobi_3
  6
JWW_CENTER1
 62
     4
370
     9
100
AcDbLine
 10
314.6851678152342
 20
-928.0534698005808
 30
0.0
 11
342.8323949810158
 21
-928.0534698005808
 31
0.0
  0
LINE
  5
1DE
330
1F
100
AcDbEntity
  8
Yobi_3
  6
JWW_CENTER1
 62
     4
370
     9
100
AcDbLine
 10
328.7587813981247
 20
-942.1267334328655
 30
0.0
 11
328.7587813981247
 21
-913.9803811435993
 31
0.0
  0
LINE
  5
1DF
330
1F
100
AcDbEntity
  8
Yobi_3
  6
JWW_CENTER1
 62
     4
370
     9
100
AcDbLine
 10
314.6851678152342
 20
-1218.046688771156
 30
0.0
 11
342.8323949810158
 21
-1218.046688771156
 31
0.0
  0
LINE
  5
1E0
330
1F
100
AcDbEntity
  8
Yobi_3
  6
JWW_CENTER1
 62
     4
370
     9
100
AcDbLine
 10
328.7587813981247
 20
-1232.119777428137
 30
0.0
 11
328.7587813981247
 21
-1203.973600114174
 31
0.0
  0
LINE
  5
1E1
330
1F
100
AcDbEntity
  8
Yobi_3
  6
JWW_CENTER1
 62
     4
370
     9
100
AcDbLine
 10
222.5858671508701
 20
-1288.0474835243
 30
0.0
 11
250.7316945142264
 21
-1288.0474835243
 31
0.0
  0
LINE
  5
1E2
330
1F
100
AcDbEntity
  8
Yobi_3
  6
JWW_CENTER1
 62
     4
370
     9
100
AcDbLine
 10
236.6587808325482
 20
-1302.120572181282
 30
0.0
 11
236.6587808325482
 21
-1273.974394867319
 31
0.0
  0
LINE
  5
1E3
330
1F
100
AcDbEntity
  8
Yobi_3
  6
JWW_CENTER1
 62
     4
370
     9
100
AcDbLine
 10
314.6851678152342
 20
-1073.050079285868
 30
0.0
 11
342.8323949810158
 21
-1073.050079285868
 31
0.0
  0
LINE
  5
1E4
330
1F
100
AcDbEntity
  8
Yobi_3
  6
JWW_CENTER1
 62
     4
370
     9
100
AcDbLine
 10
328.7587813981247
 20
-1087.123342918153
 30
0.0
 11
328.7587813981247
 21
-1058.976990628887
 31
0.0
  0
LINE
  5
1E5
330
1F
100
AcDbEntity
  8
Yobi_3
  6
JWW_CENTER1
 62
     4
370
     9
100
AcDbLine
 10
-237.5151919858337
 20
-928.0534698005808
 30
0.0
 11
-209.3686647212644
 21
-928.0534698005808
 31
0.0
  0
LINE
  5
1E6
330
1F
100
AcDbEntity
  8
Yobi_3
  6
JWW_CENTER1
 62
     4
370
     9
100
AcDbLine
 10
-223.4422783041555
 20
-942.1267334328655
 30
0.0
 11
-223.4422783041555
 21
-913.9803811435993
 31
0.0
  0
LINE
  5
1E7
330
1F
100
AcDbEntity
  8
Yobi_3
  6
JWW_CENTER1
 62
     4
370
     9
100
AcDbLine
 10
-237.5151919858337
 20
-1043.04671410428
 30
0.0
 11
-209.3686647212644
 21
-1043.04671410428
 31
0.0
  0
LINE
  5
1E8
330
1F
100
AcDbEntity
  8
Yobi_3
  6
JWW_CENTER1
 62
     4
370
     9
100
AcDbLine
 10
-223.4422783041555
 20
-1057.119802761262
 30
0.0
 11
-223.4422783041555
 21
-1028.973625447299
 31
0.0
  0
LINE
  5
1E9
330
1F
100
AcDbEntity
  8
Yobi_3
  6
JWW_CENTER1
 62
     4
370
     9
100
AcDbLine
 10
-329.6144926501978
 20
-1113.047508857425
 30
0.0
 11
-301.4686652868414
 21
-1113.047508857425
 31
0.0
  0
LINE
  5
1EA
330
1F
100
AcDbEntity
  8
Yobi_3
  6
JWW_CENTER1
 62
     4
370
     9
100
AcDbLine
 10
-315.5415789685196
 20
-1127.120597514407
 30
0.0
 11
-315.5415789685196
 21
-1098.974420200444
 31
0.0
  0
LINE
  5
1EB
330
1F
100
AcDbEntity
  8
Yobi_3
  6
JWW_CENTER1
 62
     4
370
     9
100
AcDbLine
 10
-789.7155517869015
 20
-928.0534698005808
 30
0.0
 11
-761.5690245223323
 21
-928.0534698005808
 31
0.0
  0
LINE
  5
1EC
330
1F
100
AcDbEntity
  8
Yobi_3
  6
JWW_CENTER1
 62
     4
370
     9
100
AcDbLine
 10
-775.6419382040108
 20
-942.1267334328655
 30
0.0
 11
-775.6419382040108
 21
-913.9803811435993
 31
0.0
  0
LINE
  5
1ED
330
1F
100
AcDbEntity
  8
Yobi_3
  6
JWW_CENTER1
 62
     4
370
     9
100
AcDbLine
 10
-881.8148524512657
 20
-1038.047494718007
 30
0.0
 11
-853.669025087909
 21
-1038.047494718007
 31
0.0
  0
LINE
  5
1EE
330
1F
100
AcDbEntity
  8
Yobi_3
  6
JWW_CENTER1
 62
     4
370
     9
100
AcDbLine
 10
-867.7419387695875
 20
-1052.120583374988
 30
0.0
 11
-867.7419387695875
 21
-1023.974406061025
 31
0.0
  0
LINE
  5
1EF
330
1F
100
AcDbEntity
  8
Yobi_3
  6
Continuous
 62
     4
370
     9
100
AcDbLine
 10
-1129.742258791758
 20
-864.0473289333255
 30
0.0
 11
-1129.742258791758
 21
-1078.04807384502
 31
0.0
  0
LINE
  5
1F0
330
1F
100
AcDbEntity
  8
Yobi_3
  6
Continuous
 62
     4
370
     9
100
AcDbLine
 10
-1095.742457686244
 20
-858.0472508130388
 30
0.0
 11
-1123.742005696168
 21
-858.0472508130388
 31
0.0
  0
LINE
  5
1F1
330
1F
100
AcDbEntity
  8
Yobi_3
  6
Continuous
 62
     4
370
     9
100
AcDbLine
 10
-837.7427729952751
 20
-895.0471784663476
 30
0.0
 11
-837.7441727977003
 21
-962.8000654999353
 31
0.0
  0
LINE
  5
1F2
330
1F
100
AcDbEntity
  8
Yobi_3
  6
Continuous
 62
     4
370
     9
100
AcDbLine
 10
-751.7410116950518
 20
-858.0472508130388
 30
0.0
 11
-779.740559704976
 21
-858.0472508130388
 31
0.0
  0
LINE
  5
1F3
330
1F
100
AcDbEntity
  8
Yobi_3
  6
Continuous
 62
     4
370
     9
100
AcDbLine
 10
-745.7414585006745
 20
-864.0473289333255
 30
0.0
 11
-745.7414585006745
 21
-1078.04807384502
 31
0.0
  0
LINE
  5
1F4
330
1F
100
AcDbEntity
  8
Yobi_3
  6
Continuous
 62
     4
370
     9
100
AcDbLine
 10
-577.5418989906902
 20
-864.0473289333255
 30
0.0
 11
-577.5418989906902
 21
-1153.048087984439
 31
0.0
  0
LINE
  5
1F5
330
1F
100
AcDbEntity
  8
Yobi_3
  6
Continuous
 62
     4
370
     9
100
AcDbLine
 10
-543.5413979839634
 20
-858.0472508130388
 30
0.0
 11
-571.5416458951
 21
-858.0472508130388
 31
0.0
  0
LINE
  5
1F6
330
1F
100
AcDbEntity
  8
Yobi_3
  6
Continuous
 62
     4
370
     9
100
AcDbLine
 10
-485.5419842985148
 20
-895.0473534416508
 30
0.0
 11
-485.5426841997274
 21
-1037.799729688747
 31
0.0
  0
LINE
  5
1F7
330
1F
100
AcDbEntity
  8
Yobi_3
  6
Continuous
 62
     4
370
     9
100
AcDbLine
 10
-285.5424131942073
 20
-895.0473534416508
 30
0.0
 11
-285.5431130954202
 21
-1037.799904664051
 31
0.0
  0
LINE
  5
1F8
330
1F
100
AcDbEntity
  8
Yobi_3
  6
Continuous
 62
     4
370
     9
100
AcDbLine
 10
-1037.742344099582
 20
-895.0473534416508
 30
0.0
 11
-1037.743743902008
 21
-962.799715549329
 31
0.0
  0
LINE
  5
1F9
330
1F
100
AcDbEntity
  8
Yobi_3
  6
Continuous
 62
     4
370
     9
100
AcDbLine
 10
-199.5413517951965
 20
-858.0472508130388
 30
0.0
 11
-227.5401999039082
 21
-858.0472508130388
 31
0.0
  0
LINE
  5
1FA
330
1F
100
AcDbEntity
  8
Yobi_3
  6
Continuous
 62
     4
370
     9
100
AcDbLine
 10
-193.5410986996067
 20
-864.0473289333255
 30
0.0
 11
-193.5410986996067
 21
-1153.048087984439
 31
0.0
  0
LINE
  5
1FB
330
1F
100
AcDbEntity
  8
Yobi_3
  6
Continuous
 62
     4
370
     9
100
AcDbLine
 10
-25.34223909083494
 20
-864.0473289333255
 30
0.0
 11
-25.34223909083494
 21
-1328.048062651314
 31
0.0
  0
LINE
  5
1FC
330
1F
100
AcDbEntity
  8
Yobi_3
  6
Continuous
 62
     4
370
     9
100
AcDbLine
 10
8.658261915891785
 20
-858.0472508130388
 30
0.0
 11
-19.3426858964574
 21
-858.0472508130388
 31
0.0
  0
LINE
  5
1FD
330
1F
100
AcDbEntity
  8
Yobi_3
  6
Continuous
 62
     4
370
     9
100
AcDbLine
 10
66.65837550255276
 20
-895.0473534416508
 30
0.0
 11
66.6569757001281
 21
-1212.799704355623
 31
0.0
  0
LINE
  5
1FE
330
1F
100
AcDbEntity
  8
Yobi_3
  6
Continuous
 62
     4
370
     9
100
AcDbLine
 10
266.6579466068606
 20
-895.0473534416508
 30
0.0
 11
266.6565468044354
 21
-1212.800054306229
 31
0.0
  0
LINE
  5
1FF
330
1F
100
AcDbEntity
  8
Yobi_3
  6
Continuous
 62
     4
370
     9
100
AcDbLine
 10
352.6583081046584
 20
-858.0472508130388
 30
0.0
 11
324.6594599959468
 21
-858.0472508130388
 31
0.0
  0
LINE
  5
200
330
1F
100
AcDbEntity
  8
Yobi_3
  6
Continuous
 62
     4
370
     9
100
AcDbLine
 10
358.6585612002483
 20
-864.0473289333255
 30
0.0
 11
358.6585612002483
 21
-1328.048062651314
 31
0.0
  0
LINE
  5
201
330
1F
100
AcDbEntity
  8
Yobi_3
  6
Continuous
 62
     4
370
     9
100
AcDbLine
 10
-1089.742204590654
 20
-886.047323748872
 30
0.0
 11
-1089.742204590654
 21
-864.0473289333255
 31
0.0
  0
LINE
  5
202
330
1F
100
AcDbEntity
  8
Yobi_3
  6
Continuous
 62
     4
370
     9
100
AcDbLine
 10
-1086.742427993465
 20
-889.0472753213639
 30
0.0
 11
-1043.742597195172
 21
-889.0472753213639
 31
0.0
  0
LINE
  5
203
330
1F
100
AcDbEntity
  8
Yobi_3
  6
Continuous
 62
     4
370
     9
100
AcDbLine
 10
-788.7426891013924
 20
-889.0472753213639
 30
0.0
 11
-831.7432198008976
 21
-889.0472753213639
 31
0.0
  0
LINE
  5
204
330
1F
100
AcDbEntity
  8
Yobi_3
  6
Continuous
 62
     4
370
     9
100
AcDbLine
 10
-785.7429125042038
 20
-886.047323748872
 30
0.0
 11
-785.7429125042038
 21
-864.0473289333255
 31
0.0
  0
LINE
  5
205
330
1F
100
AcDbEntity
  8
Yobi_3
  6
Continuous
 62
     4
370
     9
100
AcDbLine
 10
-537.5418447895862
 20
-886.047323748872
 30
0.0
 11
-537.5418447895862
 21
-864.0473289333255
 31
0.0
  0
LINE
  5
206
330
1F
100
AcDbEntity
  8
Yobi_3
  6
Continuous
 62
     4
370
     9
100
AcDbLine
 10
-534.5420681923974
 20
-889.0472753213639
 30
0.0
 11
-491.5422373941047
 21
-889.0472753213639
 31
0.0
  0
LINE
  5
207
330
1F
100
AcDbEntity
  8
Yobi_3
  6
Continuous
 62
     4
370
     9
100
AcDbLine
 10
-236.5409294978997
 20
-889.0472753213639
 30
0.0
 11
-279.5428599998297
 21
-889.0472753213639
 31
0.0
  0
LINE
  5
208
330
1F
100
AcDbEntity
  8
Yobi_3
  6
Continuous
 62
     4
370
     9
100
AcDbLine
 10
-233.540452999498
 20
-886.047323748872
 30
0.0
 11
-233.540452999498
 21
-864.0473289333255
 31
0.0
  0
LINE
  5
209
330
1F
100
AcDbEntity
  8
Yobi_3
  6
Continuous
 62
     4
370
     9
100
AcDbLine
 10
14.65851501148165
 20
-886.047323748872
 30
0.0
 11
14.65851501148165
 21
-864.0473289333255
 31
0.0
  0
LINE
  5
20A
330
1F
100
AcDbEntity
  8
Yobi_3
  6
Continuous
 62
     4
370
     9
100
AcDbLine
 10
17.65829160867042
 20
-889.0472753213639
 30
0.0
 11
60.65812240696289
 21
-889.0472753213639
 31
0.0
  0
LINE
  5
20B
330
1F
100
AcDbEntity
  8
Yobi_3
  6
Continuous
 62
     4
370
     9
100
AcDbLine
 10
315.6601302043811
 20
-889.0472753213639
 30
0.0
 11
272.6581997024505
 21
-889.0472753213639
 31
0.0
  0
LINE
  5
20C
330
1F
100
AcDbEntity
  8
Yobi_3
  6
Continuous
 62
     4
370
     9
100
AcDbLine
 10
318.6599068015698
 20
-886.047323748872
 30
0.0
 11
318.6599068015698
 21
-864.0473289333255
 31
0.0
  0
LINE
  5
20D
330
1F
100
AcDbEntity
  8
Hojo
  6
Continuous
 62
     7
370
     9
100
AcDbLine
 10
1630.091755040364
 20
387.7917805095436
 30
0.0
 11
1639.281457961756
 21
364.5419371036027
 31
0.0
  0
LINE
  5
20E
330
1F
100
AcDbEntity
  8
Hojo
  6
Continuous
 62
     7
370
     9
100
AcDbLine
 10
1630.091755040364
 20
387.7917805095436
 30
0.0
 11
1632.950501543214
 21
362.9557859805558
 31
0.0
  0
LINE
  5
20F
330
1F
100
AcDbEntity
  8
4-F
  6
Continuous
 62
     7
370
     9
100
AcDbLine
 10
-1289.212300427632
 20
-694.6138435855335
 30
0.0
 11
-883.4335489806983
 21
-694.6138435855335
 31
0.0
  0
LINE
  5
210
330
1F
100
AcDbEntity
  8
4-F
  6
Continuous
 62
     7
370
     9
100
AcDbLine
 10
-1289.212300427632
 20
-629.6138429963912
 30
0.0
 11
-883.4335489806983
 21
-629.6138429963912
 31
0.0
  0
LINE
  5
211
330
1F
100
AcDbEntity
  8
4-F
  6
Continuous
 62
     7
370
     9
100
AcDbLine
 10
-1289.212300427632
 20
-629.6138429963912
 30
0.0
 11
-1289.212300427632
 21
-694.6138435855335
 31
0.0
  0
LINE
  5
212
330
1F
100
AcDbEntity
  8
4-F
  6
Continuous
 62
     7
370
     9
100
AcDbLine
 10
-883.4335489806983
 20
-629.6138429963912
 30
0.0
 11
-883.4335489806983
 21
-694.6138435855335
 31
0.0
  0
ARC
  5
213
330
1F
100
AcDbEntity
  8
通り芯
  6
Continuous
 62
     4
370
     9
100
AcDbCircle
 10
-127.073230292346
 20
569.6051185057431
 30
0.0
 40
8.00000004096381
100
AcDbArc
 50
270.0
 51
0.0
  0
ARC
  5
214
330
1F
100
AcDbEntity
  8
通り芯
  6
Continuous
 62
     4
370
     9
100
AcDbCircle
 10
-127.073230292346
 20
569.6051185057431
 30
0.0
 40
4.000000020481905
100
AcDbArc
 50
270.0
 51
0.0
  0
ARC
  5
215
330
1F
100
AcDbEntity
  8
通り芯
  6
Continuous
 62
     4
370
     9
100
AcDbCircle
 10
-1941.266516378027
 20
-208.734547912384
 30
0.0
 40
8.00000004096381
100
AcDbArc
 50
180.0
 51
270.0
  0
ARC
  5
216
330
1F
100
AcDbEntity
  8
通り芯
  6
Continuous
 62
     4
370
     9
100
AcDbCircle
 10
-1941.266516378027
 20
-208.7347228876874
 30
0.0
 40
4.000000020481905
100
AcDbArc
 50
180.0
 51
270.0
  0
ARC
  5
217
330
1F
100
AcDbEntity
  8
通り芯
  6
Continuous
 62
     4
370
     9
100
AcDbCircle
 10
-957.266302872809
 20
-208.7347228876874
 30
0.0
 40
4.000000020481905
100
AcDbArc
 50
270.0
 51
0.0
  0
ARC
  5
218
330
1F
100
AcDbEntity
  8
通り芯
  6
Continuous
 62
     4
370
     9
100
AcDbCircle
 10
-957.266302872809
 20
-208.734547912384
 30
0.0
 40
8.00000004096381
100
AcDbArc
 50
270.0
 51
350.8980407714844
  0
ARC
  5
219
330
1F
100
AcDbEntity
  8
通り芯
  6
Continuous
 62
     4
370
     9
100
AcDbCircle
 10
-382.860177299691
 20
-208.734547912384
 30
0.0
 40
4.000000020481905
100
AcDbArc
 50
180.0
 51
270.0
  0
ARC
  5
21A
330
1F
100
AcDbEntity
  8
通り芯
  6
Continuous
 62
     4
370
     9
100
AcDbCircle
 10
-382.860177299691
 20
-208.7343729370809
 30
0.0
 40
8.00000004096381
100
AcDbArc
 50
180.0
 51
270.0
  0
ARC
  5
21B
330
1F
100
AcDbEntity
  8
通り芯
  6
Continuous
 62
     4
370
     9
100
AcDbCircle
 10
-604.8597432195453
 20
-208.734547912384
 30
0.0
 40
4.000000020481905
100
AcDbArc
 50
270.0
 51
0.0
  0
ARC
  5
21C
330
1F
100
AcDbEntity
  8
通り芯
  6
Continuous
 62
     4
370
     9
100
AcDbCircle
 10
-604.8597432195453
 20
-208.7343729370809
 30
0.0
 40
8.00000004096381
100
AcDbArc
 50
270.0
 51
0.0
  0
ARC
  5
21D
330
1F
100
AcDbEntity
  8
通り芯
  6
Continuous
 62
     4
370
     9
100
AcDbCircle
 10
-233.5089574449313
 20
1491.604583093098
 30
0.0
 40
19.99999839366633
100
AcDbArc
 50
15.00009155273437
 51
90.0
  0
ARC
  5
21E
330
1F
100
AcDbEntity
  8
通り芯
  6
Continuous
 62
     4
370
     9
100
AcDbCircle
 10
-233.5089574449313
 20
1331.605066189894
 30
0.0
 40
19.99999839366633
100
AcDbArc
 50
270.0
 51
344.9999084472656
  0
CIRCLE
  5
21F
330
1F
100
AcDbEntity
  8
通り芯
  6
Continuous
 62
     4
370
     9
100
AcDbCircle
 10
-369.0731732633583
 20
1573.6046592103
 30
0.0
 40
8.499998804685232
  0
CIRCLE
  5
220
330
1F
100
AcDbEntity
  8
通り芯
  6
Continuous
 62
     4
370
     9
100
AcDbCircle
 10
-159.0636150164954
 20
1481.695731675763
 30
0.0
 40
8.499998804685232
  0
CIRCLE
  5
221
330
1F
100
AcDbEntity
  8
通り芯
  6
Continuous
 62
     4
370
     9
100
AcDbCircle
 10
-159.0636150164954
 20
1341.696241873111
 30
0.0
 40
8.499998804685232
  0
CIRCLE
  5
222
330
1F
100
AcDbEntity
  8
通り芯
  6
Continuous
 62
     4
370
     9
100
AcDbCircle
 10
-368.9034472193038
 20
1249.696327180936
 30
0.0
 40
8.499998804685232
  0
ARC
  5
223
330
1F
100
AcDbEntity
  8
通り芯
  6
JWW_DASHED1
 62
     4
370
     9
100
AcDbCircle
 10
-402.0731654866785
 20
1517.60486328924
 30
0.0
 40
3.000000100798588
100
AcDbArc
 50
180.0
 51
270.0
  0
ARC
  5
224
330
1F
100
AcDbEntity
  8
通り芯
  6
Continuous
 62
     4
370
     9
100
AcDbCircle
 10
-411.0735451300633
 20
1560.604694087533
 30
0.0
 40
3.000000100798588
100
AcDbArc
 50
0.0
 51
90.0
  0
ARC
  5
225
330
1F
100
AcDbEntity
  8
通り芯
  6
JWW_DASHED1
 62
     4
370
     9
100
AcDbCircle
 10
-433.0731899950035
 20
1569.604723780311
 30
0.0
 40
3.000000100798588
100
AcDbArc
 50
180.0
 51
270.0
  0
ARC
  5
226
330
1F
100
AcDbEntity
  8
通り芯
  6
JWW_DASHED1
 62
     4
370
     9
100
AcDbCircle
 10
-433.0731899950035
 20
1597.604971691448
 30
0.0
 40
3.000000100798588
100
AcDbArc
 50
90.0
 51
180.0
  0
ARC
  5
227
330
1F
100
AcDbEntity
  8
通り芯
  6
Continuous
 62
     4
370
     9
100
AcDbCircle
 10
-411.0735451300633
 20
1262.605305146066
 30
0.0
 40
3.000000100798588
100
AcDbArc
 50
270.0
 51
0.0
  0
ARC
  5
228
330
1F
100
AcDbEntity
  8
通り芯
  6
JWW_DASHED1
 62
     4
370
     9
100
AcDbCircle
 10
-402.0731654866785
 20
1305.605135944359
 30
0.0
 40
3.000000100798588
100
AcDbArc
 50
90.0
 51
180.0
  0
ARC
  5
229
330
1F
100
AcDbEntity
  8
通り芯
  6
JWW_DASHED1
 62
     4
370
     9
100
AcDbCircle
 10
-433.0731899950035
 20
1253.604925502681
 30
0.0
 40
3.000000100798588
100
AcDbArc
 50
90.0
 51
180.0
  0
ARC
  5
22A
330
1F
100
AcDbEntity
  8
通り芯
  6
JWW_DASHED1
 62
     4
370
     9
100
AcDbCircle
 10
-433.0731899950035
 20
1225.605027542151
 30
0.0
 40
3.000000100798588
100
AcDbArc
 50
180.0
 51
270.0
  0
ARC
  5
22B
330
1F
100
AcDbEntity
  8
通り芯
  6
Continuous
 62
     4
370
     9
100
AcDbCircle
 10
-433.07353994561
 20
1597.604971691448
 30
0.0
 40
6.000000201597176
100
AcDbArc
 50
90.0
 51
180.0
  0
ARC
  5
22C
330
1F
100
AcDbEntity
  8
通り芯
  6
Continuous
 62
     4
370
     9
100
AcDbCircle
 10
-433.07353994561
 20
1569.604723780311
 30
0.0
 40
6.000000201597176
100
AcDbArc
 50
180.0
 51
270.0
  0
ARC
  5
22D
330
1F
100
AcDbEntity
  8
通り芯
  6
JWW_DASHED1
 62
     4
370
     9
100
AcDbCircle
 10
-411.0731951794571
 20
1560.604694087533
 30
0.0
 40
6.000000201597176
100
AcDbArc
 50
0.0
 51
90.0
  0
ARC
  5
22E
330
1F
100
AcDbEntity
  8
通り芯
  6
Continuous
 62
     4
370
     9
100
AcDbCircle
 10
-402.0735154372846
 20
1517.60486328924
 30
0.0
 40
6.000000201597176
100
AcDbArc
 50
180.0
 51
270.0
  0
ARC
  5
22F
330
1F
100
AcDbEntity
  8
通り芯
  6
Continuous
 62
     4
370
     9
100
AcDbCircle
 10
-402.0735154372846
 20
1305.605135944359
 30
0.0
 40
6.000000201597176
100
AcDbArc
 50
90.0
 51
180.0
  0
ARC
  5
230
330
1F
100
AcDbEntity
  8
通り芯
  6
JWW_DASHED1
 62
     4
370
     9
100
AcDbCircle
 10
-411.0731951794571
 20
1262.60495519546
 30
0.0
 40
6.000000201597176
100
AcDbArc
 50
270.0
 51
0.0
  0
ARC
  5
231
330
1F
100
AcDbEntity
  8
通り芯
  6
Continuous
 62
     4
370
     9
100
AcDbCircle
 10
-433.07353994561
 20
1253.605275453288
 30
0.0
 40
6.000000201597176
100
AcDbArc
 50
90.0
 51
180.0
  0
ARC
  5
232
330
1F
100
AcDbEntity
  8
通り芯
  6
Continuous
 62
     4
370
     9
100
AcDbCircle
 10
-433.07353994561
 20
1225.605027542151
 30
0.0
 40
6.000000201597176
100
AcDbArc
 50
180.0
 51
270.0
  0
CIRCLE
  5
233
330
1F
100
AcDbEntity
  8
通り芯
  6
Continuous
 62
     4
370
     9
100
AcDbCircle
 10
-229.073333510101
 20
1249.604990072692
 30
0.0
 40
8.500000171679787
  0
CIRCLE
  5
234
330
1F
100
AcDbEntity
  8
通り芯
  6
Continuous
 62
     4
370
     9
100
AcDbCircle
 10
-229.073333510101
 20
1573.605359111514
 30
0.0
 40
8.500000171679787
  0
ARC
  5
235
330
1F
100
AcDbEntity
  8
通り芯
  6
JWW_DASHED1
 62
     4
370
     9
100
AcDbCircle
 10
-233.5086074943251
 20
1331.605416140501
 30
0.0
 40
23.00000054495675
100
AcDbArc
 50
270.0
 51
344.9997863769531
  0
ARC
  5
236
330
1F
100
AcDbEntity
  8
通り芯
  6
JWW_DASHED1
 62
     4
370
     9
100
AcDbCircle
 10
-233.5086074943251
 20
1491.604583093098
 30
0.0
 40
23.00000054495675
100
AcDbArc
 50
15.00021362304688
 51
90.0
  0
ARC
  5
237
330
1F
100
AcDbEntity
  8
通り芯
  6
Continuous
 62
     4
370
     9
100
AcDbCircle
 10
-212.0727330561311
 20
1411.604824641496
 30
0.0
 40
19.99999976066088
100
AcDbArc
 50
344.9996032714844
 51
15.00036621093749
  0
ARC
  5
238
330
1F
100
AcDbEntity
  8
通り芯
  6
Continuous
 62
     4
370
     9
100
AcDbCircle
 10
-212.0730830067373
 20
1411.604824641496
 30
0.0
 40
23.00000054495675
100
AcDbArc
 50
345.0006408691406
 51
14.9995880126953
  0
CIRCLE
  5
239
330
1F
100
AcDbEntity
  8
通り芯
  6
Continuous
 62
     4
370
     9
100
AcDbCircle
 10
-1287.26692500722
 20
33.26522008332489
 30
0.0
 40
8.499998804685232
  0
CIRCLE
  5
23A
330
1F
100
AcDbEntity
  8
通り芯
  6
Continuous
 62
     4
370
     9
100
AcDbCircle
 10
-1379.175852541758
 20
-176.744338163538
 30
0.0
 40
8.499998804685232
  0
CIRCLE
  5
23B
330
1F
100
AcDbEntity
  8
通り芯
  6
Continuous
 62
     4
370
     9
100
AcDbCircle
 10
-1519.175342344409
 20
-176.744338163538
 30
0.0
 40
8.499998804685232
  0
CIRCLE
  5
23C
330
1F
100
AcDbEntity
  8
通り芯
  6
Continuous
 62
     4
370
     9
100
AcDbCircle
 10
-1611.175257036585
 20
33.09549403927036
 30
0.0
 40
8.499998804685232
  0
ARC
  5
23D
330
1F
100
AcDbEntity
  8
通り芯
  6
JWW_DASHED1
 62
     4
370
     9
100
AcDbCircle
 10
-1343.266720928281
 20
66.26538728194788
 30
0.0
 40
3.000000100798588
100
AcDbArc
 50
90.0
 51
180.0
  0
ARC
  5
23E
330
1F
100
AcDbEntity
  8
通り芯
  6
Continuous
 62
     4
370
     9
100
AcDbCircle
 10
-1300.266890129988
 20
75.26576692533297
 30
0.0
 40
3.000000100798588
100
AcDbArc
 50
270.0
 51
0.0
  0
ARC
  5
23F
330
1F
100
AcDbEntity
  8
通り芯
  6
JWW_DASHED1
 62
     4
370
     9
100
AcDbCircle
 10
-1291.266860437209
 20
97.26541179027322
 30
0.0
 40
3.000000100798588
100
AcDbArc
 50
90.0
 51
180.0
  0
ARC
  5
240
330
1F
100
AcDbEntity
  8
通り芯
  6
JWW_DASHED1
 62
     4
370
     9
100
AcDbCircle
 10
-1263.266612526073
 20
97.26541179027322
 30
0.0
 40
3.000000100798588
100
AcDbArc
 50
0.0
 51
90.0
  0
ARC
  5
241
330
1F
100
AcDbEntity
  8
通り芯
  6
Continuous
 62
     4
370
     9
100
AcDbCircle
 10
-1598.266279071454
 20
75.26576692533297
 30
0.0
 40
3.000000100798588
100
AcDbArc
 50
180.0
 51
270.0
  0
ARC
  5
242
330
1F
100
AcDbEntity
  8
通り芯
  6
JWW_DASHED1
 62
     4
370
     9
100
AcDbCircle
 10
-1555.266448273162
 20
66.26538728194788
 30
0.0
 40
3.000000100798588
100
AcDbArc
 50
0.0
 51
90.0
  0
ARC
  5
243
330
1F
100
AcDbEntity
  8
通り芯
  6
JWW_DASHED1
 62
     4
370
     9
100
AcDbCircle
 10
-1607.26665871484
 20
97.26541179027322
 30
0.0
 40
3.000000100798588
100
AcDbArc
 50
0.0
 51
90.0
  0
ARC
  5
244
330
1F
100
AcDbEntity
  8
通り芯
  6
JWW_DASHED1
 62
     4
370
     9
100
AcDbCircle
 10
-1635.26655667537
 20
97.26541179027322
 30
0.0
 40
3.000000100798588
100
AcDbArc
 50
90.0
 51
180.0
  0
ARC
  5
245
330
1F
100
AcDbEntity
  8
通り芯
  6
Continuous
 62
     4
370
     9
100
AcDbCircle
 10
-1263.266612526073
 20
97.26576174087967
 30
0.0
 40
6.000000201597176
100
AcDbArc
 50
0.0
 51
90.0
  0
ARC
  5
246
330
1F
100
AcDbEntity
  8
通り芯
  6
Continuous
 62
     4
370
     9
100
AcDbCircle
 10
-1291.266860437209
 20
97.26576174087967
 30
0.0
 40
6.000000201597176
100
AcDbArc
 50
90.0
 51
180.0
  0
ARC
  5
247
330
1F
100
AcDbEntity
  8
通り芯
  6
JWW_DASHED1
 62
     4
370
     9
100
AcDbCircle
 10
-1300.266890129988
 20
75.2654169747268
 30
0.0
 40
6.000000201597176
100
AcDbArc
 50
270.0
 51
0.0
  0
ARC
  5
248
330
1F
100
AcDbEntity
  8
通り芯
  6
Continuous
 62
     4
370
     9
100
AcDbCircle
 10
-1343.266720928281
 20
66.26573723255433
 30
0.0
 40
6.000000201597176
100
AcDbArc
 50
90.0
 51
180.0
  0
ARC
  5
249
330
1F
100
AcDbEntity
  8
通り芯
  6
Continuous
 62
     4
370
     9
100
AcDbCircle
 10
-1555.266448273162
 20
66.26573723255433
 30
0.0
 40
6.000000201597176
100
AcDbArc
 50
0.0
 51
90.0
  0
ARC
  5
24A
330
1F
100
AcDbEntity
  8
通り芯
  6
JWW_DASHED1
 62
     4
370
     9
100
AcDbCircle
 10
-1598.266629022061
 20
75.2654169747268
 30
0.0
 40
6.000000201597176
100
AcDbArc
 50
180.0
 51
270.0
  0
ARC
  5
24B
330
1F
100
AcDbEntity
  8
通り芯
  6
Continuous
 62
     4
370
     9
100
AcDbCircle
 10
-1607.266308764233
 20
97.26576174087967
 30
0.0
 40
6.000000201597176
100
AcDbArc
 50
0.0
 51
90.0
  0
ARC
  5
24C
330
1F
100
AcDbEntity
  8
通り芯
  6
Continuous
 62
     4
370
     9
100
AcDbCircle
 10
-1635.26655667537
 20
97.26576174087967
 30
0.0
 40
6.000000201597176
100
AcDbArc
 50
90.0
 51
180.0
  0
CIRCLE
  5
24D
330
1F
100
AcDbEntity
  8
通り芯
  6
Continuous
 62
     4
370
     9
100
AcDbCircle
 10
-1611.266594144829
 20
-106.7346196699327
 30
0.0
 40
8.500000171679787
  0
CIRCLE
  5
24E
330
1F
100
AcDbEntity
  8
通り芯
  6
Continuous
 62
     4
370
     9
100
AcDbCircle
 10
-1287.266225106007
 20
-106.7346196699327
 30
0.0
 40
8.500000171679787
  0
ARC
  5
24F
330
1F
100
AcDbEntity
  8
通り芯
  6
Continuous
 62
     4
370
     9
100
AcDbCircle
 10
-1449.266759576024
 20
-123.7350451485992
 30
0.0
 40
19.99999976066088
100
AcDbArc
 50
254.9996185302735
 51
285.0003814697266
  0
ARC
  5
250
330
1F
100
AcDbEntity
  8
通り芯
  6
Continuous
 62
     4
370
     9
100
AcDbCircle
 10
-413.8605517586228
 20
-102.2986457844959
 30
0.0
 40
19.99999839366633
100
AcDbArc
 50
285.0000915527344
 51
0.0
  0
ARC
  5
251
330
1F
100
AcDbEntity
  8
通り芯
  6
Continuous
 62
     4
370
     9
100
AcDbCircle
 10
-573.8600686618261
 20
-102.2986457844959
 30
0.0
 40
19.99999839366633
100
AcDbArc
 50
180.0
 51
254.9999084472656
  0
ARC
  5
252
330
1F
100
AcDbEntity
  8
通り芯
  6
Continuous
 62
     4
370
     9
100
AcDbCircle
 10
-387.8602715624805
 20
66.26556225725125
 30
0.0
 40
3.000000100798588
100
AcDbArc
 50
90.0
 51
180.0
  0
ARC
  5
253
330
1F
100
AcDbEntity
  8
通り芯
  6
Continuous
 62
     4
370
     9
100
AcDbCircle
 10
-344.8604407641881
 20
75.26594190063605
 30
0.0
 40
3.000000100798588
100
AcDbArc
 50
270.0
 51
0.0
  0
ARC
  5
254
330
1F
100
AcDbEntity
  8
通り芯
  6
Continuous
 62
     4
370
     9
100
AcDbCircle
 10
-335.8604110714094
 20
97.26558676557659
 30
0.0
 40
3.000000100798588
100
AcDbArc
 50
90.0
 51
180.0
  0
ARC
  5
255
330
1F
100
AcDbEntity
  8
通り芯
  6
Continuous
 62
     4
370
     9
100
AcDbCircle
 10
-307.8601631602726
 20
97.26558676557659
 30
0.0
 40
3.000000100798588
100
AcDbArc
 50
0.0
 51
90.0
  0
ARC
  5
256
330
1F
100
AcDbEntity
  8
通り芯
  6
Continuous
 62
     4
370
     9
100
AcDbCircle
 10
-642.8598297056546
 20
75.26594190063605
 30
0.0
 40
3.000000100798588
100
AcDbArc
 50
180.0
 51
270.0
  0
ARC
  5
257
330
1F
100
AcDbEntity
  8
通り芯
  6
Continuous
 62
     4
370
     9
100
AcDbCircle
 10
-599.859998907362
 20
66.26556225725125
 30
0.0
 40
3.000000100798588
100
AcDbArc
 50
0.0
 51
90.0
  0
ARC
  5
258
330
1F
100
AcDbEntity
  8
通り芯
  6
Continuous
 62
     4
370
     9
100
AcDbCircle
 10
-651.8602093490395
 20
97.26558676557659
 30
0.0
 40
3.000000100798588
100
AcDbArc
 50
0.0
 51
90.0
  0
ARC
  5
259
330
1F
100
AcDbEntity
  8
通り芯
  6
Continuous
 62
     4
370
     9
100
AcDbCircle
 10
-679.8601073095699
 20
97.26558676557659
 30
0.0
 40
3.000000100798588
100
AcDbArc
 50
90.0
 51
180.0
  0
ARC
  5
25A
330
1F
100
AcDbEntity
  8
通り芯
  6
Continuous
 62
     4
370
     9
100
AcDbCircle
 10
-307.8601631602726
 20
97.26593671618275
 30
0.0
 40
6.000000201597176
100
AcDbArc
 50
0.0
 51
90.0
  0
ARC
  5
25B
330
1F
100
AcDbEntity
  8
通り芯
  6
Continuous
 62
     4
370
     9
100
AcDbCircle
 10
-344.8604407641881
 20
75.26559195002989
 30
0.0
 40
6.000000201597176
100
AcDbArc
 50
270.0
 51
0.0
  0
ARC
  5
25C
330
1F
100
AcDbEntity
  8
通り芯
  6
Continuous
 62
     4
370
     9
100
AcDbCircle
 10
-387.8602715624805
 20
66.26591220785741
 30
0.0
 40
6.000000201597176
100
AcDbArc
 50
90.0
 51
180.0
  0
ARC
  5
25D
330
1F
100
AcDbEntity
  8
通り芯
  6
Continuous
 62
     4
370
     9
100
AcDbCircle
 10
-599.859998907362
 20
66.26591220785741
 30
0.0
 40
6.000000201597176
100
AcDbArc
 50
0.0
 51
90.0
  0
ARC
  5
25E
330
1F
100
AcDbEntity
  8
通り芯
  6
Continuous
 62
     4
370
     9
100
AcDbCircle
 10
-642.8601796562609
 20
75.26559195002989
 30
0.0
 40
6.000000201597176
100
AcDbArc
 50
180.0
 51
270.0
  0
ARC
  5
25F
330
1F
100
AcDbEntity
  8
通り芯
  6
Continuous
 62
     4
370
     9
100
AcDbCircle
 10
-651.8598593984334
 20
97.26593671618275
 30
0.0
 40
6.000000201597176
100
AcDbArc
 50
0.0
 51
90.0
  0
ARC
  5
260
330
1F
100
AcDbEntity
  8
通り芯
  6
Continuous
 62
     4
370
     9
100
AcDbCircle
 10
-679.8601073095699
 20
97.26593671618275
 30
0.0
 40
6.000000201597176
100
AcDbArc
 50
90.0
 51
180.0
  0
ARC
  5
261
330
1F
100
AcDbEntity
  8
通り芯
  6
Continuous
 62
     4
370
     9
100
AcDbCircle
 10
-573.85971871122
 20
-102.2989957351021
 30
0.0
 40
23.00000054495675
100
AcDbArc
 50
180.0
 51
254.9997863769531
  0
ARC
  5
262
330
1F
100
AcDbEntity
  8
通り芯
  6
Continuous
 62
     4
370
     9
100
AcDbCircle
 10
-413.8605517586228
 20
-102.2989957351021
 30
0.0
 40
23.00000054495675
100
AcDbArc
 50
285.0002136230469
 51
0.0
  0
ARC
  5
263
330
1F
100
AcDbEntity
  8
通り芯
  6
Continuous
 62
     4
370
     9
100
AcDbCircle
 10
-493.8603102102243
 20
-123.7348701732961
 30
0.0
 40
19.99999976066088
100
AcDbArc
 50
254.9996185302735
 51
285.0003814697266
  0
ARC
  5
264
330
1F
100
AcDbEntity
  8
通り芯
  6
Continuous
 62
     4
370
     9
100
AcDbCircle
 10
-493.8603102102243
 20
-123.7345202226896
 30
0.0
 40
23.00000054495675
100
AcDbArc
 50
255.0006408691406
 51
284.9995880126953
  0
ARC
  5
265
330
1F
100
AcDbEntity
  8
通り芯
  6
Continuous
 62
     4
370
     9
100
AcDbCircle
 10
-335.8604110714094
 20
97.26593671618275
 30
0.0
 40
6.000000201597176
100
AcDbArc
 50
90.0
 51
180.0
  0
ARC
  5
266
330
1F
100
AcDbEntity
  8
通り芯
  6
JWW_DASHED1
 62
     4
370
     9
100
AcDbCircle
 10
-1529.26616807702
 20
-102.2991707104055
 30
0.0
 40
23.00000054495675
100
AcDbArc
 50
177.7441711425781
 51
254.9997863769531
  0
ARC
  5
267
330
1F
100
AcDbEntity
  8
通り芯
  6
Continuous
 62
     4
370
     9
100
AcDbCircle
 10
-1529.266518027626
 20
-102.298820759799
 30
0.0
 40
19.99999839366633
100
AcDbArc
 50
177.4062194824219
 51
254.9999084472656
  0
ARC
  5
268
330
1F
100
AcDbEntity
  8
通り芯
  6
Continuous
 62
     4
370
     9
100
AcDbCircle
 10
-1369.267001124423
 20
-102.298820759799
 30
0.0
 40
19.99999839366633
100
AcDbArc
 50
285.0000915527344
 51
2.593734741210926
  0
ARC
  5
269
330
1F
100
AcDbEntity
  8
通り芯
  6
JWW_DASHED1
 62
     4
370
     9
100
AcDbCircle
 10
-1369.267001124423
 20
-102.2991707104055
 30
0.0
 40
23.00000054495675
100
AcDbArc
 50
285.0002136230469
 51
2.255828857421887
  0
ARC
  5
26A
330
1F
100
AcDbEntity
  8
通り芯
  6
JWW_DASHED1
 62
     4
370
     9
100
AcDbCircle
 10
-1449.266759576024
 20
-123.7346951979927
 30
0.0
 40
23.00000054495675
100
AcDbArc
 50
255.0006408691406
 51
284.9995880126953
  0
ARC
  5
26B
330
1F
100
AcDbEntity
  8
1-0ﾚｲﾔ
  6
JWW_DASHED1
 62
     4
370
     9
100
AcDbCircle
 10
1049.022569923327
 20
1090.931436016753
 30
0.0
 40
7.499999910247832
100
AcDbArc
 50
0.0
 51
90.0
  0
ARC
  5
26C
330
1F
100
AcDbEntity
  8
1-0ﾚｲﾔ
  6
JWW_DASHED1
 62
     4
370
     9
100
AcDbCircle
 10
979.022650046698
 20
1090.931436016753
 30
0.0
 40
7.499999910247832
100
AcDbArc
 50
90.0
 51
180.0
  0
ARC
  5
26D
330
1F
100
AcDbEntity
  8
1-0ﾚｲﾔ
  6
Continuous
 62
     4
370
     9
100
AcDbCircle
 10
1071.52299410588
 20
1035.93109902728
 30
0.0
 40
7.499999910247832
100
AcDbArc
 50
180.0
 51
270.0
  0
ARC
  5
26E
330
1F
100
AcDbEntity
  8
1-0ﾚｲﾔ
  6
Continuous
 62
     4
370
     9
100
AcDbCircle
 10
1179.023620953431
 20
1013.431024795333
 30
0.0
 40
14.99999982049566
100
AcDbArc
 50
0.0
 51
90.0
  0
ARC
  5
26F
330
1F
100
AcDbEntity
  8
1-0ﾚｲﾔ
  6
JWW_DASHED1
 62
     4
370
     9
100
AcDbCircle
 10
1071.52299410588
 20
1035.93109902728
 30
0.0
 40
14.99999982049566
100
AcDbArc
 50
180.0
 51
270.0
  0
ARC
  5
270
330
1F
100
AcDbEntity
  8
1-0ﾚｲﾔ
  6
Continuous
 62
     4
370
     9
100
AcDbCircle
 10
1049.022569923327
 20
1090.931086066147
 30
0.0
 40
14.99999982049566
100
AcDbArc
 50
0.0
 51
90.0
  0
ARC
  5
271
330
1F
100
AcDbEntity
  8
1-0ﾚｲﾔ
  6
Continuous
 62
     4
370
     9
100
AcDbCircle
 10
1709.022414389724
 20
1013.431024795333
 30
0.0
 40
14.99999982049566
100
AcDbArc
 50
90.0
 51
180.0
  0
ARC
  5
272
330
1F
100
AcDbEntity
  8
1-0ﾚｲﾔ
  6
Continuous
 62
     4
370
     9
100
AcDbCircle
 10
1839.022065617403
 20
1090.931086066147
 30
0.0
 40
14.99999982049566
100
AcDbArc
 50
90.0
 51
180.0
  0
ARC
  5
273
330
1F
100
AcDbEntity
  8
1-0ﾚｲﾔ
  6
JWW_DASHED1
 62
     4
370
     9
100
AcDbCircle
 10
1816.522341336062
 20
1035.93109902728
 30
0.0
 40
14.99999982049566
100
AcDbArc
 50
270.0
 51
0.0
  0
ARC
  5
274
330
1F
100
AcDbEntity
  8
1-0ﾚｲﾔ
  6
JWW_DASHED1
 62
     4
370
     9
100
AcDbCircle
 10
1709.022414389724
 20
1013.431374745939
 30
0.0
 40
7.499999910247832
100
AcDbArc
 50
90.0
 51
180.0
  0
ARC
  5
275
330
1F
100
AcDbEntity
  8
1-0ﾚｲﾔ
  6
JWW_DASHED1
 62
     4
370
     9
100
AcDbCircle
 10
1839.022765518615
 20
1090.931436016753
 30
0.0
 40
7.499999910247832
100
AcDbArc
 50
90.0
 51
180.0
  0
ARC
  5
276
330
1F
100
AcDbEntity
  8
1-0ﾚｲﾔ
  6
JWW_DASHED1
 62
     4
370
     9
100
AcDbCircle
 10
1909.022685395244
 20
1090.931436016753
 30
0.0
 40
7.499999910247832
100
AcDbArc
 50
0.0
 51
90.0
  0
ARC
  5
277
330
1F
100
AcDbEntity
  8
1-0ﾚｲﾔ
  6
Continuous
 62
     4
370
     9
100
AcDbCircle
 10
1816.522341336062
 20
1035.93109902728
 30
0.0
 40
7.499999910247832
100
AcDbArc
 50
270.0
 51
0.0
  0
ARC
  5
278
330
1F
100
AcDbEntity
  8
1-0ﾚｲﾔ
  6
Continuous
 62
     4
370
     9
100
AcDbCircle
 10
979.022650046698
 20
1090.931086066147
 30
0.0
 40
14.99999982049566
100
AcDbArc
 50
90.0
 51
180.0
  0
ARC
  5
279
330
1F
100
AcDbEntity
  8
1-0ﾚｲﾔ
  6
Continuous
 62
     4
370
     9
100
AcDbCircle
 10
1909.022685395244
 20
1090.931086066147
 30
0.0
 40
14.99999982049566
100
AcDbArc
 50
0.0
 51
90.0
  0
ARC
  5
27A
330
1F
100
AcDbEntity
  8
1-0ﾚｲﾔ
  6
JWW_DASHED1
 62
     4
370
     9
100
AcDbCircle
 10
1179.023620953431
 20
1013.431374745939
 30
0.0
 40
7.499999910247832
100
AcDbArc
 50
0.0
 51
90.0
  0
CIRCLE
  5
27B
330
1F
100
AcDbEntity
  8
1-0ﾚｲﾔ
  6
Continuous
 62
     4
370
     9
100
AcDbCircle
 10
1039.02308129896
 20
930.9312192123368
 30
0.0
 40
21.25000145444539
  0
CIRCLE
  5
27C
330
1F
100
AcDbEntity
  8
1-0ﾚｲﾔ
  6
Continuous
 62
     4
370
     9
100
AcDbCircle
 10
1039.02308129896
 20
580.9309199279799
 30
0.0
 40
21.25000145444539
  0
CIRCLE
  5
27D
330
1F
100
AcDbEntity
  8
1-0ﾚｲﾔ
  6
Continuous
 62
     4
370
     9
100
AcDbCircle
 10
1269.022518078793
 20
405.9311202364077
 30
0.0
 40
21.25000145444539
  0
CIRCLE
  5
27E
330
1F
100
AcDbEntity
  8
1-0ﾚｲﾔ
  6
Continuous
 62
     4
370
     9
100
AcDbCircle
 10
1619.022817363149
 20
405.9311202364077
 30
0.0
 40
21.25000145444539
  0
CIRCLE
  5
27F
330
1F
100
AcDbEntity
  8
1-0ﾚｲﾔ
  6
Continuous
 62
     4
370
     9
100
AcDbCircle
 10
1849.022254142982
 20
580.9309199279799
 30
0.0
 40
21.25000145444539
  0
CIRCLE
  5
280
330
1F
100
AcDbEntity
  8
1-0ﾚｲﾔ
  6
Continuous
 62
     4
370
     9
100
AcDbCircle
 10
1849.022254142982
 20
930.9312192123368
 30
0.0
 40
21.25000145444539
  0
ARC
  5
281
330
1F
100
AcDbEntity
  8
1-0ﾚｲﾔ
  6
Continuous
 62
     4
370
     9
100
AcDbCircle
 10
1444.021617869152
 20
538.431518496694
 30
0.0
 40
50.00000213564132
100
AcDbArc
 50
255.0001525878906
 51
284.9998474121094
  0
ARC
  5
282
330
1F
100
AcDbEntity
  8
1-0ﾚｲﾔ
  6
JWW_DASHED1
 62
     4
370
     9
100
AcDbCircle
 10
1444.022317770365
 20
538.4311685460873
 30
0.0
 40
57.50000136239188
100
AcDbArc
 50
255.0000762939453
 51
284.9999237060547
  0
ARC
  5
283
330
1F
100
AcDbEntity
  8
1-0ﾚｲﾔ
  6
JWW_DASHED1
 62
     4
370
     9
100
AcDbCircle
 10
1244.02344656727
 20
592.020854641572
 30
0.0
 40
57.50000136239188
100
AcDbArc
 50
180.0
 51
255.0000915527344
  0
ARC
  5
284
330
1F
100
AcDbEntity
  8
1-0ﾚｲﾔ
  6
Continuous
 62
     4
370
     9
100
AcDbCircle
 10
1244.022046764845
 20
592.020854641572
 30
0.0
 40
50.00000213564132
100
AcDbArc
 50
180.0
 51
254.9998779296875
  0
ARC
  5
285
330
1F
100
AcDbEntity
  8
1-0ﾚｲﾔ
  6
Continuous
 62
     4
370
     9
100
AcDbCircle
 10
1644.022588775885
 20
592.0215545427843
 30
0.0
 40
50.00000213564132
100
AcDbArc
 50
284.9998474121094
 51
0.0
  0
ARC
  5
286
330
1F
100
AcDbEntity
  8
1-0ﾚｲﾔ
  6
JWW_DASHED1
 62
     4
370
     9
100
AcDbCircle
 10
1644.022588775885
 20
592.020854641572
 30
0.0
 40
57.50000136239188
100
AcDbArc
 50
284.9999084472657
 51
0.0000000000000382
  0
ARC
  5
287
330
1F
100
AcDbEntity
  8
Yobi_3
  6
Continuous
 62
     4
370
     9
100
AcDbCircle
 10
86.65735275128611
 20
-1212.799879330926
 30
0.0
 40
19.99999976066088
100
AcDbArc
 50
179.9994964599609
 51
254.9997406005859
  0
ARC
  5
288
330
1F
100
AcDbEntity
  8
Yobi_3
  6
Continuous
 62
     4
370
     9
100
AcDbCircle
 10
246.657569555702
 20
-1212.799879330926
 30
0.0
 40
19.99999976066088
100
AcDbArc
 50
285.0002899169922
 51
359.9998931884766
  0
ARC
  5
289
330
1F
100
AcDbEntity
  8
Yobi_3
  6
Continuous
 62
     4
370
     9
100
AcDbCircle
 10
166.6588609559193
 20
-1234.235928744423
 30
0.0
 40
19.99999976066088
100
AcDbArc
 50
254.9997406005859
 51
285.0002899169922
  0
ARC
  5
28A
330
1F
100
AcDbEntity
  8
Yobi_3
  6
Continuous
 62
     4
370
     9
100
AcDbCircle
 10
-465.5430070497817
 20
-1037.799904664051
 30
0.0
 40
19.99999976066088
100
AcDbArc
 50
179.9994964599609
 51
254.9997406005859
  0
ARC
  5
28B
330
1F
100
AcDbEntity
  8
Yobi_3
  6
Continuous
 62
     4
370
     9
100
AcDbCircle
 10
-305.5427902453658
 20
-1037.799904664051
 30
0.0
 40
19.99999976066088
100
AcDbArc
 50
285.0002899169922
 51
359.9998931884766
  0
ARC
  5
28C
330
1F
100
AcDbEntity
  8
Yobi_3
  6
Continuous
 62
     4
370
     9
100
AcDbCircle
 10
-385.5414988451486
 20
-1059.235779102244
 30
0.0
 40
19.99999976066088
100
AcDbArc
 50
254.9997100830078
 51
285.0002899169922
  0
ARC
  5
28D
330
1F
100
AcDbEntity
  8
Yobi_3
  6
Continuous
 62
     4
370
     9
100
AcDbCircle
 10
-1017.743366850849
 20
-962.7998905246322
 30
0.0
 40
19.99999976066088
100
AcDbArc
 50
179.9994964599609
 51
254.9997406005859
  0
ARC
  5
28E
330
1F
100
AcDbEntity
  8
Yobi_3
  6
Continuous
 62
     4
370
     9
100
AcDbCircle
 10
-857.7431500464334
 20
-962.7998905246322
 30
0.0
 40
19.99999976066088
100
AcDbArc
 50
285.0002899169922
 51
359.9998931884766
  0
ARC
  5
28F
330
1F
100
AcDbEntity
  8
Yobi_3
  6
Continuous
 62
     4
370
     9
100
AcDbCircle
 10
-937.7418586462161
 20
-984.2357649628259
 30
0.0
 40
19.99999976066088
100
AcDbArc
 50
254.9997100830078
 51
285.0002899169922
  0
CIRCLE
  5
290
330
1F
100
AcDbEntity
  8
Yobi_3
  6
Continuous
 62
     4
370
     9
100
AcDbCircle
 10
-547.6400194849288
 20
-928.0534698005808
 30
0.0
 40
8.500000171679787
  0
CIRCLE
  5
291
330
1F
100
AcDbEntity
  8
Yobi_3
  6
Continuous
 62
     4
370
     9
100
AcDbCircle
 10
-547.6400194849288
 20
-1043.04671410428
 30
0.0
 40
8.500000171679787
  0
CIRCLE
  5
292
330
1F
100
AcDbEntity
  8
Yobi_3
  6
Continuous
 62
     4
370
     9
100
AcDbCircle
 10
-455.5407188205646
 20
-1113.047508857425
 30
0.0
 40
8.500000171679787
  0
CIRCLE
  5
293
330
1F
100
AcDbEntity
  8
Yobi_3
  6
Continuous
 62
     4
370
     9
100
AcDbCircle
 10
-1099.841079187209
 20
-928.0534698005808
 30
0.0
 40
8.500000171679787
  0
CIRCLE
  5
294
330
1F
100
AcDbEntity
  8
Yobi_3
  6
Continuous
 62
     4
370
     9
100
AcDbCircle
 10
-1007.741078621632
 20
-1038.047494718007
 30
0.0
 40
8.500000171679787
  0
CIRCLE
  5
295
330
1F
100
AcDbEntity
  8
Yobi_3
  6
Continuous
 62
     4
370
     9
100
AcDbCircle
 10
4.560340316139104
 20
-928.0534698005808
 30
0.0
 40
8.500000171679787
  0
CIRCLE
  5
296
330
1F
100
AcDbEntity
  8
Yobi_3
  6
Continuous
 62
     4
370
     9
100
AcDbCircle
 10
4.560340316139104
 20
-1073.050079285868
 30
0.0
 40
8.500000171679787
  0
CIRCLE
  5
297
330
1F
100
AcDbEntity
  8
Yobi_3
  6
Continuous
 62
     4
370
     9
100
AcDbCircle
 10
4.560340316139104
 20
-1218.046688771156
 30
0.0
 40
8.500000171679787
  0
CIRCLE
  5
298
330
1F
100
AcDbEntity
  8
Yobi_3
  6
Continuous
 62
     4
370
     9
100
AcDbCircle
 10
96.65894107929034
 20
-1288.0474835243
 30
0.0
 40
8.500000171679787
  0
ARC
  5
299
330
1F
100
AcDbEntity
  8
Yobi_3
  6
Continuous
 62
     4
370
     9
100
AcDbCircle
 10
246.6610690617654
 20
-1212.799879330926
 30
0.0
 40
19.99999976066088
100
AcDbArc
 50
285.0002593994141
 51
0.0005035400390676
  0
CIRCLE
  5
29A
330
1F
100
AcDbEntity
  8
Yobi_3
  6
Continuous
 62
     4
370
     9
100
AcDbCircle
 10
328.7587813981247
 20
-928.0534698005808
 30
0.0
 40
8.500000171679787
  0
CIRCLE
  5
29B
330
1F
100
AcDbEntity
  8
Yobi_3
  6
Continuous
 62
     4
370
     9
100
AcDbCircle
 10
328.7587813981247
 20
-1073.050079285868
 30
0.0
 40
8.500000171679787
  0
CIRCLE
  5
29C
330
1F
100
AcDbEntity
  8
Yobi_3
  6
Continuous
 62
     4
370
     9
100
AcDbCircle
 10
328.7587813981247
 20
-1218.046688771156
 30
0.0
 40
8.500000171679787
  0
CIRCLE
  5
29D
330
1F
100
AcDbEntity
  8
Yobi_3
  6
Continuous
 62
     4
370
     9
100
AcDbCircle
 10
236.6587808325482
 20
-1288.0474835243
 30
0.0
 40
8.500000171679787
  0
ARC
  5
29E
330
1F
100
AcDbEntity
  8
Yobi_3
  6
Continuous
 62
     4
370
     9
100
AcDbCircle
 10
-305.5392907393025
 20
-1037.799904664051
 30
0.0
 40
19.99999976066088
100
AcDbArc
 50
285.0002593994141
 51
0.0005035400390676
  0
CIRCLE
  5
29F
330
1F
100
AcDbEntity
  8
Yobi_3
  6
Continuous
 62
     4
370
     9
100
AcDbCircle
 10
-223.4422783041555
 20
-928.0534698005808
 30
0.0
 40
8.500000171679787
  0
CIRCLE
  5
2A0
330
1F
100
AcDbEntity
  8
Yobi_3
  6
Continuous
 62
     4
370
     9
100
AcDbCircle
 10
-223.4422783041555
 20
-1043.04671410428
 30
0.0
 40
8.500000171679787
  0
CIRCLE
  5
2A1
330
1F
100
AcDbEntity
  8
Yobi_3
  6
Continuous
 62
     4
370
     9
100
AcDbCircle
 10
-315.5415789685196
 20
-1113.047508857425
 30
0.0
 40
8.500000171679787
  0
ARC
  5
2A2
330
1F
100
AcDbEntity
  8
Yobi_3
  6
Continuous
 62
     4
370
     9
100
AcDbCircle
 10
-857.7396505403703
 20
-962.7998905246322
 30
0.0
 40
19.99999976066088
100
AcDbArc
 50
285.0002593994141
 51
0.0005035400390676
  0
CIRCLE
  5
2A3
330
1F
100
AcDbEntity
  8
Yobi_3
  6
Continuous
 62
     4
370
     9
100
AcDbCircle
 10
-775.6419382040108
 20
-928.0534698005808
 30
0.0
 40
8.500000171679787
  0
CIRCLE
  5
2A4
330
1F
100
AcDbEntity
  8
Yobi_3
  6
Continuous
 62
     4
370
     9
100
AcDbCircle
 10
-867.7419387695875
 20
-1038.047494718007
 30
0.0
 40
8.500000171679787
  0
ARC
  5
2A5
330
1F
100
AcDbEntity
  8
Yobi_3
  6
Continuous
 62
     4
370
     9
100
AcDbCircle
 10
-1123.742005696168
 20
-864.0473289333255
 30
0.0
 40
6.000000201597176
100
AcDbArc
 50
90.0
 51
180.0
  0
ARC
  5
2A6
330
1F
100
AcDbEntity
  8
Yobi_3
  6
Continuous
 62
     4
370
     9
100
AcDbCircle
 10
-1095.742457686244
 20
-864.0473289333255
 30
0.0
 40
6.000000201597176
100
AcDbArc
 50
0.0
 51
90.0
  0
ARC
  5
2A7
330
1F
100
AcDbEntity
  8
Yobi_3
  6
Continuous
 62
     4
370
     9
100
AcDbCircle
 10
-1043.742597195172
 20
-895.0473534416508
 30
0.0
 40
6.000000201597176
100
AcDbArc
 50
359.9991607666016
 51
89.99999999999999
  0
ARC
  5
2A8
330
1F
100
AcDbEntity
  8
Yobi_3
  6
Continuous
 62
     4
370
     9
100
AcDbCircle
 10
-831.7432198008976
 20
-895.0473534416508
 30
0.0
 40
6.000000201597176
100
AcDbArc
 50
90.0
 51
179.9991607666016
  0
ARC
  5
2A9
330
1F
100
AcDbEntity
  8
Yobi_3
  6
Continuous
 62
     4
370
     9
100
AcDbCircle
 10
-751.7410116950518
 20
-864.0473289333255
 30
0.0
 40
6.000000201597176
100
AcDbArc
 50
0.0
 51
90.0
  0
ARC
  5
2AA
330
1F
100
AcDbEntity
  8
Yobi_3
  6
Continuous
 62
     4
370
     9
100
AcDbCircle
 10
-571.5416458951
 20
-864.0473289333255
 30
0.0
 40
6.000000201597176
100
AcDbArc
 50
90.0
 51
180.0
  0
ARC
  5
2AB
330
1F
100
AcDbEntity
  8
Yobi_3
  6
Continuous
 62
     4
370
     9
100
AcDbCircle
 10
-543.5413979839634
 20
-864.0473289333255
 30
0.0
 40
6.000000201597176
100
AcDbArc
 50
0.0
 51
90.0
  0
ARC
  5
2AC
330
1F
100
AcDbEntity
  8
Yobi_3
  6
Continuous
 62
     4
370
     9
100
AcDbCircle
 10
-491.5422373941047
 20
-895.0473534416508
 30
0.0
 40
6.000000201597176
100
AcDbArc
 50
0.0
 51
90.0
  0
ARC
  5
2AD
330
1F
100
AcDbEntity
  8
Yobi_3
  6
Continuous
 62
     4
370
     9
100
AcDbCircle
 10
-279.5428599998297
 20
-895.0473534416508
 30
0.0
 40
6.000000201597176
100
AcDbArc
 50
90.0
 51
180.0
  0
ARC
  5
2AE
330
1F
100
AcDbEntity
  8
Yobi_3
  6
Continuous
 62
     4
370
     9
100
AcDbCircle
 10
-227.5401999039082
 20
-864.0473289333255
 30
0.0
 40
6.000000201597176
100
AcDbArc
 50
90.0
 51
180.0
  0
ARC
  5
2AF
330
1F
100
AcDbEntity
  8
Yobi_3
  6
Continuous
 62
     4
370
     9
100
AcDbCircle
 10
-779.740559704976
 20
-864.0473289333255
 30
0.0
 40
6.000000201597176
100
AcDbArc
 50
90.0
 51
180.0
  0
ARC
  5
2B0
330
1F
100
AcDbEntity
  8
Yobi_3
  6
Continuous
 62
     4
370
     9
100
AcDbCircle
 10
-199.5413517951965
 20
-864.0473289333255
 30
0.0
 40
6.000000201597176
100
AcDbArc
 50
0.0
 51
90.0
  0
ARC
  5
2B1
330
1F
100
AcDbEntity
  8
Yobi_3
  6
Continuous
 62
     4
370
     9
100
AcDbCircle
 10
-19.3426858964574
 20
-864.0473289333255
 30
0.0
 40
6.000000201597176
100
AcDbArc
 50
90.0
 51
180.0
  0
ARC
  5
2B2
330
1F
100
AcDbEntity
  8
Yobi_3
  6
Continuous
 62
     4
370
     9
100
AcDbCircle
 10
8.658261915891785
 20
-864.0473289333255
 30
0.0
 40
6.000000201597176
100
AcDbArc
 50
0.0
 51
90.0
  0
ARC
  5
2B3
330
1F
100
AcDbEntity
  8
Yobi_3
  6
Continuous
 62
     4
370
     9
100
AcDbCircle
 10
60.65812240696289
 20
-895.0473534416508
 30
0.0
 40
6.000000201597176
100
AcDbArc
 50
0.0
 51
90.0
  0
ARC
  5
2B4
330
1F
100
AcDbEntity
  8
Yobi_3
  6
Continuous
 62
     4
370
     9
100
AcDbCircle
 10
272.6581997024505
 20
-895.0473534416508
 30
0.0
 40
6.000000201597176
100
AcDbArc
 50
90.0
 51
180.0
  0
ARC
  5
2B5
330
1F
100
AcDbEntity
  8
Yobi_3
  6
Continuous
 62
     4
370
     9
100
AcDbCircle
 10
324.6594599959468
 20
-864.0473289333255
 30
0.0
 40
6.000000201597176
100
AcDbArc
 50
90.0
 51
180.0
  0
ARC
  5
2B6
330
1F
100
AcDbEntity
  8
Yobi_3
  6
Continuous
 62
     4
370
     9
100
AcDbCircle
 10
352.6583081046584
 20
-864.0473289333255
 30
0.0
 40
6.000000201597176
100
AcDbArc
 50
0.0
 51
90.0
  0
ARC
  5
2B7
330
1F
100
AcDbEntity
  8
Yobi_3
  6
Continuous
 62
     4
370
     9
100
AcDbCircle
 10
-1086.742427993465
 20
-886.047323748872
 30
0.0
 40
3.000000100798588
100
AcDbArc
 50
180.0
 51
270.0
  0
ARC
  5
2B8
330
1F
100
AcDbEntity
  8
Yobi_3
  6
Continuous
 62
     4
370
     9
100
AcDbCircle
 10
-788.7426891013924
 20
-886.047323748872
 30
0.0
 40
3.000000100798588
100
AcDbArc
 50
270.0
 51
0.0
  0
ARC
  5
2B9
330
1F
100
AcDbEntity
  8
Yobi_3
  6
Continuous
 62
     4
370
     9
100
AcDbCircle
 10
-534.5420681923974
 20
-886.047323748872
 30
0.0
 40
3.000000100798588
100
AcDbArc
 50
180.0
 51
270.0
  0
ARC
  5
2BA
330
1F
100
AcDbEntity
  8
Yobi_3
  6
Continuous
 62
     4
370
     9
100
AcDbCircle
 10
-236.5409294978997
 20
-886.047323748872
 30
0.0
 40
3.000000100798588
100
AcDbArc
 50
270.0
 51
0.0
  0
ARC
  5
2BB
330
1F
100
AcDbEntity
  8
Yobi_3
  6
Continuous
 62
     4
370
     9
100
AcDbCircle
 10
17.65829160867042
 20
-886.047323748872
 30
0.0
 40
3.000000100798588
100
AcDbArc
 50
180.0
 51
270.0
  0
ARC
  5
2BC
330
1F
100
AcDbEntity
  8
Yobi_3
  6
Continuous
 62
     4
370
     9
100
AcDbCircle
 10
315.6601302043811
 20
-886.047323748872
 30
0.0
 40
3.000000100798588
100
AcDbArc
 50
270.0
 51
0.0
  0
TEXT
  5
2BD
330
1F
100
AcDbEntity
  8
092
  6
Continuous
 62
     2
370
     9
100
AcDbText
 10
-2208.207455703191
 20
1429.992475377124
 30
0.0
 40
30.48
  1
Ａ
 41
0.9999999999999998
  7
ＭＳ ゴシック
100
AcDbText
  0
TEXT
  5
2BE
330
1F
100
AcDbEntity
  8
092
  6
Continuous
 62
     2
370
     9
100
AcDbText
 10
-730.3254072914715
 20
1429.992475377124
 30
0.0
 40
30.48
  1
Ａ
 41
0.9999999999999998
  7
ＭＳ ゴシック
100
AcDbText
  0
TEXT
  5
2BF
330
1F
100
AcDbEntity
  8
092
  6
Continuous
 62
     2
370
     9
100
AcDbText
 10
-1785.661870807294
 20
892.2520746282993
 30
0.0
 40
30.48
  1
Ｂ
 41
0.9999999999999998
  7
ＭＳ ゴシック
100
AcDbText
  0
TEXT
  5
2C0
330
1F
100
AcDbEntity
  8
092
  6
Continuous
 62
     2
370
     9
100
AcDbText
 10
-1155.586783867545
 20
889.8836089248726
 30
0.0
 40
30.48
  1
Ｂ
 41
0.9999999999999998
  7
ＭＳ ゴシック
100
AcDbText
  0
TEXT
  5
2C1
330
1F
100
AcDbEntity
  8
092
  6
Continuous
 62
     2
370
     9
100
AcDbText
 10
-1467.653709536211
 20
370.2199125448118
 30
0.0
 40
30.48
  1
Ａ
 50
90.00000250447816
 41
0.9999999999999989
  7
ＭＳ ゴシック
100
AcDbText
  0
TEXT
  5
2C2
330
1F
100
AcDbEntity
  8
092
  6
Continuous
 62
     2
370
     9
100
AcDbText
 10
-1481.766322137767
 20
1748.794328159384
 30
0.0
 40
30.48
  1
500
 41
1.083333333333333
  7
ＭＳ ゴシック
100
AcDbText
  0
TEXT
  5
2C3
330
1F
100
AcDbEntity
  8
092
  6
Continuous
 62
     2
370
     9
100
AcDbText
 10
-615.4188224963565
 20
858.1051857749337
 30
0.0
 40
30.48
  1
329
 50
90.00000250447816
 41
1.083333333333334
  7
ＭＳ ゴシック
100
AcDbText
  0
TEXT
  5
2C4
330
1F
100
AcDbEntity
  8
092
  6
Continuous
 62
     2
370
     9
100
AcDbText
 10
-1827.766336041528
 20
284.2193702712848
 30
0.0
 40
30.48
  1
154
 41
1.083333333333333
  7
ＭＳ ゴシック
100
AcDbText
  0
TEXT
  5
2C5
330
1F
100
AcDbEntity
  8
092
  6
Continuous
 62
     2
370
     9
100
AcDbText
 10
-1135.766308234005
 20
284.2193702712848
 30
0.0
 40
30.48
  1
154
 41
1.083333333333333
  7
ＭＳ ゴシック
100
AcDbText
  0
TEXT
  5
2C6
330
1F
100
AcDbEntity
  8
092
  6
Continuous
 62
     2
370
     9
100
AcDbText
 10
-1229.960755224854
 20
792.399268330791
 30
0.0
 40
30.48
  1
ピット寸法：200
 41
1.116666666666666
  7
ＭＳ ゴシック
100
AcDbText
  0
TEXT
  5
2C7
330
1F
100
AcDbEntity
  8
092
  6
Continuous
 62
     2
370
     9
100
AcDbText
 10
-2008.181963362749
 20
792.399268330791
 30
0.0
 40
30.48
  1
ピット寸法：200
 41
1.116666666666666
  7
ＭＳ ゴシック
100
AcDbText
  0
TEXT
  5
2C8
330
1F
100
AcDbEntity
  8
092
  6
Continuous
 62
     2
370
     9
100
AcDbText
 10
-2208.851886833351
 20
769.1049681457184
 30
0.0
 40
30.48
  1
ピット寸法：375
 50
90.00000250447816
 41
1.116666666666666
  7
ＭＳ ゴシック
100
AcDbText
  0
TEXT
  5
2C9
330
1F
100
AcDbEntity
  8
092
  6
Continuous
 62
     2
370
     9
100
AcDbText
 10
-2331.758745073614
 20
1050.105235969869
 30
0.0
 40
30.48
  1
521
 50
90.00000250447816
 41
1.083333333333334
  7
ＭＳ ゴシック
100
AcDbText
  0
TEXT
  5
2CA
330
1F
100
AcDbEntity
  8
092
  6
Continuous
 62
     2
370
     9
100
AcDbText
 10
42.10936226900003
 20
1275.040995969772
 30
0.0
 40
30.48
  1
③コーナー支持脚
 41
1.109375
  7
ＭＳ ゴシック
100
AcDbText
  0
TEXT
  5
2CB
330
1F
100
AcDbEntity
  8
092
  6
Continuous
 62
     2
370
     9
100
AcDbText
 10
-112.0393304475027
 20
930.0768358606537
 30
0.0
 40
30.48
  1
①トラフパン本体
 41
1.109375
  7
ＭＳ ゴシック
100
AcDbText
  0
TEXT
  5
2CC
330
1F
100
AcDbEntity
  8
092
  6
Continuous
 62
     2
370
     9
100
AcDbText
 10
-78.00838373802833
 20
225.8273120055694
 30
0.0
 40
30.48
  1
③コーナー支持脚
 41
1.109375
  7
ＭＳ ゴシック
100
AcDbText
  0
TEXT
  5
2CD
330
1F
100
AcDbEntity
  8
2-Fﾚｲﾔ
  6
Continuous
 62
     2
370
     9
100
AcDbText
 10
-1646.750911644527
 20
-646.9676975338248
 30
0.0
 40
30.48
  1
１２２．５
 41
1.1
  7
ＭＳ ゴシック
100
AcDbText
  0
TEXT
  5
2CE
330
1F
100
AcDbEntity
  8
2-Fﾚｲﾔ
  6
Continuous
 62
     2
370
     9
100
AcDbText
 10
-1646.750885133117
 20
-711.9675231476639
 30
0.0
 40
30.48
  1
１３５
 41
1.083333333333333
  7
ＭＳ ゴシック
100
AcDbText
  0
TEXT
  5
2CF
330
1F
100
AcDbEntity
  8
2-Fﾚｲﾔ
  6
Continuous
 62
     2
370
     9
100
AcDbText
 10
-1646.750911644527
 20
-776.9676987121096
 30
0.0
 40
30.48
  1
１４７．５
 41
1.1
  7
ＭＳ ゴシック
100
AcDbText
  0
TEXT
  5
2D0
330
1F
100
AcDbEntity
  8
2-Fﾚｲﾔ
  6
Continuous
 62
     2
370
     9
100
AcDbText
 10
-1646.750885133117
 20
-841.9676993012521
 30
0.0
 40
30.48
  1
１６０
 41
1.083333333333333
  7
ＭＳ ゴシック
100
AcDbText
  0
TEXT
  5
2D1
330
1F
100
AcDbEntity
  8
2-Fﾚｲﾔ
  6
Continuous
 62
     2
370
     9
100
AcDbText
 10
-1646.750911644527
 20
-906.9675249150914
 30
0.0
 40
30.48
  1
１７２．５
 41
1.1
  7
ＭＳ ゴシック
100
AcDbText
  0
TEXT
  5
2D2
330
1F
100
AcDbEntity
  8
2-Fﾚｲﾔ
  6
Continuous
 62
     2
370
     9
100
AcDbText
 10
-1646.750885133117
 20
-971.9677004795368
 30
0.0
 40
30.48
  1
１８５
 41
1.083333333333333
  7
ＭＳ ゴシック
100
AcDbText
  0
TEXT
  5
2D3
330
1F
100
AcDbEntity
  8
2-Fﾚｲﾔ
  6
Continuous
 62
     2
370
     9
100
AcDbText
 10
-1646.750911644527
 20
-1036.967526093376
 30
0.0
 40
30.48
  1
１９７．５
 41
1.1
  7
ＭＳ ゴシック
100
AcDbText
  0
TEXT
  5
2D4
330
1F
100
AcDbEntity
  8
2-Fﾚｲﾔ
  6
Continuous
 62
     2
370
     9
100
AcDbText
 10
-1646.750885133117
 20
-1101.967701657822
 30
0.0
 40
30.48
  1
２１０
 41
1.083333333333333
  7
ＭＳ ゴシック
100
AcDbText
  0
TEXT
  5
2D5
330
1F
100
AcDbEntity
  8
2-Fﾚｲﾔ
  6
Continuous
 62
     2
370
     9
100
AcDbText
 10
-1646.750911644527
 20
-1166.967527271661
 30
0.0
 40
30.48
  1
２２２．５
 41
1.1
  7
ＭＳ ゴシック
100
AcDbText
  0
TEXT
  5
2D6
330
1F
100
AcDbEntity
  8
2-Fﾚｲﾔ
  6
Continuous
 62
     2
370
     9
100
AcDbText
 10
-1646.750885133117
 20
-1231.967702836107
 30
0.0
 40
30.48
  1
２３５
 41
1.083333333333333
  7
ＭＳ ゴシック
100
AcDbText
  0
TEXT
  5
2D7
330
1F
100
AcDbEntity
  8
2-Fﾚｲﾔ
  6
Continuous
 62
     2
370
     9
100
AcDbText
 10
-1646.750911644527
 20
-1296.967528449946
 30
0.0
 40
30.48
  1
２４７．５
 41
1.1
  7
ＭＳ ゴシック
100
AcDbText
  0
TEXT
  5
2D8
330
1F
100
AcDbEntity
  8
2-Fﾚｲﾔ
  6
Continuous
 62
     2
370
     9
100
AcDbText
 10
-1646.750885133117
 20
-1361.967704014391
 30
0.0
 40
30.48
  1
２６０
 41
1.083333333333333
  7
ＭＳ ゴシック
100
AcDbText
  0
TEXT
  5
2D9
330
1F
100
AcDbEntity
  8
2-Fﾚｲﾔ
  6
Continuous
 62
     2
370
     9
100
AcDbText
 10
-1646.750911644527
 20
-1426.967529628231
 30
0.0
 40
30.48
  1
２７２．５
 41
1.1
  7
ＭＳ ゴシック
100
AcDbText
  0
TEXT
  5
2DA
330
1F
100
AcDbEntity
  8
2-Fﾚｲﾔ
  6
Continuous
 62
     2
370
     9
100
AcDbText
 10
-1646.750885133117
 20
-1491.967705192676
 30
0.0
 40
30.48
  1
２８５
 41
1.083333333333333
  7
ＭＳ ゴシック
100
AcDbText
  0
TEXT
  5
2DB
330
1F
100
AcDbEntity
  8
2-Fﾚｲﾔ
  6
Continuous
 62
     2
370
     9
100
AcDbText
 10
-1646.750911644527
 20
-1556.967530806515
 30
0.0
 40
30.48
  1
２９７．５
 41
1.1
  7
ＭＳ ゴシック
100
AcDbText
  0
TEXT
  5
2DC
330
1F
100
AcDbEntity
  8
2-Fﾚｲﾔ
  6
Continuous
 62
     2
370
     9
100
AcDbText
 10
-1884.665767189158
 20
-711.9676981229674
 30
0.0
 40
30.48
  1
１００
 41
1.083333333333333
  7
ＭＳ ゴシック
100
AcDbText
  0
TEXT
  5
2DD
330
1F
100
AcDbEntity
  8
2-Fﾚｲﾔ
  6
Continuous
 62
     2
370
     9
100
AcDbText
 10
-1884.665745470978
 20
-776.9675237368238
 30
0.0
 40
30.48
  1
１１２．５
 50
359.9999544302518
 41
1.1
  7
ＭＳ ゴシック
100
AcDbText
  0
TEXT
  5
2DE
330
1F
100
AcDbEntity
  8
2-Fﾚｲﾔ
  6
Continuous
 62
     2
370
     9
100
AcDbText
 10
-1884.665767189158
 20
-841.9676993012521
 30
0.0
 40
30.48
  1
１２５
 41
1.083333333333333
  7
ＭＳ ゴシック
100
AcDbText
  0
TEXT
  5
2DF
330
1F
100
AcDbEntity
  8
2-Fﾚｲﾔ
  6
Continuous
 62
     2
370
     9
100
AcDbText
 10
-1884.665745470978
 20
-906.9675249151087
 30
0.0
 40
30.48
  1
１３７．５
 50
359.9999544302518
 41
1.1
  7
ＭＳ ゴシック
100
AcDbText
  0
TEXT
  5
2E0
330
1F
100
AcDbEntity
  8
2-Fﾚｲﾔ
  6
Continuous
 62
     2
370
     9
100
AcDbText
 10
-1884.665767189158
 20
-971.9677004795368
 30
0.0
 40
30.48
  1
１５０
 41
1.083333333333333
  7
ＭＳ ゴシック
100
AcDbText
  0
TEXT
  5
2E1
330
1F
100
AcDbEntity
  8
2-Fﾚｲﾔ
  6
Continuous
 62
     2
370
     9
100
AcDbText
 10
-1884.665745470978
 20
-1036.967526093393
 30
0.0
 40
30.48
  1
１６２．５
 50
359.9999544302518
 41
1.1
  7
ＭＳ ゴシック
100
AcDbText
  0
TEXT
  5
2E2
330
1F
100
AcDbEntity
  8
2-Fﾚｲﾔ
  6
Continuous
 62
     2
370
     9
100
AcDbText
 10
-1884.665767189158
 20
-1101.967701657822
 30
0.0
 40
30.48
  1
１７５
 41
1.083333333333333
  7
ＭＳ ゴシック
100
AcDbText
  0
TEXT
  5
2E3
330
1F
100
AcDbEntity
  8
2-Fﾚｲﾔ
  6
Continuous
 62
     2
370
     9
100
AcDbText
 10
-1884.665745470978
 20
-1166.967527271678
 30
0.0
 40
30.48
  1
１８７．５
 50
359.9999544302518
 41
1.1
  7
ＭＳ ゴシック
100
AcDbText
  0
TEXT
  5
2E4
330
1F
100
AcDbEntity
  8
2-Fﾚｲﾔ
  6
Continuous
 62
     2
370
     9
100
AcDbText
 10
-1884.665767189158
 20
-1231.967702836107
 30
0.0
 40
30.48
  1
２００
 41
1.083333333333333
  7
ＭＳ ゴシック
100
AcDbText
  0
TEXT
  5
2E5
330
1F
100
AcDbEntity
  8
2-Fﾚｲﾔ
  6
Continuous
 62
     2
370
     9
100
AcDbText
 10
-1884.665745470978
 20
-1296.967528449963
 30
0.0
 40
30.48
  1
２１２．５
 50
359.9999544302518
 41
1.1
  7
ＭＳ ゴシック
100
AcDbText
  0
TEXT
  5
2E6
330
1F
100
AcDbEntity
  8
2-Fﾚｲﾔ
  6
Continuous
 62
     2
370
     9
100
AcDbText
 10
-1884.665767189158
 20
-1361.967704014391
 30
0.0
 40
30.48
  1
２２５
 41
1.083333333333333
  7
ＭＳ ゴシック
100
AcDbText
  0
TEXT
  5
2E7
330
1F
100
AcDbEntity
  8
2-Fﾚｲﾔ
  6
Continuous
 62
     2
370
     9
100
AcDbText
 10
-1884.665745470978
 20
-1426.967529628248
 30
0.0
 40
30.48
  1
２３７．５
 50
359.9999544302518
 41
1.1
  7
ＭＳ ゴシック
100
AcDbText
  0
TEXT
  5
2E8
330
1F
100
AcDbEntity
  8
2-Fﾚｲﾔ
  6
Continuous
 62
     2
370
     9
100
AcDbText
 10
-1884.665767189158
 20
-1491.967705192676
 30
0.0
 40
30.48
  1
２５０
 41
1.083333333333333
  7
ＭＳ ゴシック
100
AcDbText
  0
TEXT
  5
2E9
330
1F
100
AcDbEntity
  8
2-Fﾚｲﾔ
  6
Continuous
 62
     2
370
     9
100
AcDbText
 10
-1884.665745470978
 20
-1556.967530806533
 30
0.0
 40
30.48
  1
２６２．５
 50
359.9999544302518
 41
1.1
  7
ＭＳ ゴシック
100
AcDbText
  0
TEXT
  5
2EA
330
1F
100
AcDbEntity
  8
2-Fﾚｲﾔ
  6
Continuous
 62
     2
370
     9
100
AcDbText
 10
-1884.665767189158
 20
-1621.96761888331
 30
0.0
 40
30.48
  1
２７５
 41
1.083333333333333
  7
ＭＳ ゴシック
100
AcDbText
  0
TEXT
  5
2EB
330
1F
100
AcDbEntity
  8
2-Fﾚｲﾔ
  6
Continuous
 62
     2
370
     9
100
AcDbText
 10
-1646.750885133117
 20
-1621.96761888331
 30
0.0
 40
30.48
  1
３１０
 41
1.083333333333333
  7
ＭＳ ゴシック
100
AcDbText
  0
TEXT
  5
2EC
330
1F
100
AcDbEntity
  8
2-Fﾚｲﾔ
  6
Continuous
 62
     2
370
     9
100
AcDbText
 10
-2091.286591995637
 20
-442.5225289024075
 30
0.0
 40
30.48
  1
製品符号
 41
1.09375
  7
ＭＳ ゴシック
100
AcDbText
  0
TEXT
  5
2ED
330
1F
100
AcDbEntity
  8
2-Fﾚｲﾔ
  6
Continuous
 62
     2
370
     9
100
AcDbText
 10
-1794.664350154317
 20
-442.5225289024075
 30
0.0
 40
30.48
  1
Ｈ
 41
0.9999999999999998
  7
ＭＳ ゴシック
100
AcDbText
  0
TEXT
  5
2EE
330
1F
100
AcDbEntity
  8
2-Fﾚｲﾔ
  6
Continuous
 62
     2
370
     9
100
AcDbText
 10
-1556.752311446952
 20
-442.5225289024075
 30
0.0
 40
30.48
  1
ｈ
 41
0.9999999999999998
  7
ＭＳ ゴシック
100
AcDbText
  0
TEXT
  5
2EF
330
1F
100
AcDbEntity
  8
2-Fﾚｲﾔ
  6
Continuous
 62
     2
370
     9
100
AcDbText
 10
-2091.286666227584
 20
-347.3861819012839
 30
0.0
 40
30.48
  1
寸法表
 41
1.083333333333333
  7
ＭＳ ゴシック
100
AcDbText
  0
TEXT
  5
2F0
330
1F
100
AcDbEntity
  8
2-Fﾚｲﾔ
  6
Continuous
 62
     2
370
     9
100
AcDbText
 10
-1589.913495691587
 20
-360.1362822911548
 30
0.0
 40
30.48
  1
［ｍｍ］
 41
1.09375
  7
ＭＳ ゴシック
100
AcDbText
  0
TEXT
  5
2F1
330
1F
100
AcDbEntity
  8
2-Fﾚｲﾔ
  6
Continuous
 62
     2
370
     9
100
AcDbText
 10
-2091.286591995637
 20
-516.9675213802367
 30
0.0
 40
30.48
  1
Ｔ０１Ｆ
 41
1.09375
  7
ＭＳ ゴシック
100
AcDbText
  0
TEXT
  5
2F2
330
1F
100
AcDbEntity
  8
2-Fﾚｲﾔ
  6
Continuous
 62
     2
370
     9
100
AcDbText
 10
-2091.286591995637
 20
-581.9676969446822
 30
0.0
 40
30.48
  1
Ｔ０２Ｆ
 41
1.09375
  7
ＭＳ ゴシック
100
AcDbText
  0
TEXT
  5
2F3
330
1F
100
AcDbEntity
  8
2-Fﾚｲﾔ
  6
Continuous
 62
     2
370
     9
100
AcDbText
 10
-2091.286591995637
 20
-646.9675225585216
 30
0.0
 40
30.48
  1
Ｔ０３Ｆ
 41
1.09375
  7
ＭＳ ゴシック
100
AcDbText
  0
TEXT
  5
2F4
330
1F
100
AcDbEntity
  8
2-Fﾚｲﾔ
  6
Continuous
 62
     2
370
     9
100
AcDbText
 10
-2091.286591995637
 20
-711.9676981229674
 30
0.0
 40
30.48
  1
Ｔ０４Ｆ
 41
1.09375
  7
ＭＳ ゴシック
100
AcDbText
  0
TEXT
  5
2F5
330
1F
100
AcDbEntity
  8
2-Fﾚｲﾔ
  6
Continuous
 62
     2
370
     9
100
AcDbText
 10
-2091.286591995637
 20
-776.9675237368065
 30
0.0
 40
30.48
  1
Ｔ０５Ｆ
 41
1.09375
  7
ＭＳ ゴシック
100
AcDbText
  0
TEXT
  5
2F6
330
1F
100
AcDbEntity
  8
2-Fﾚｲﾔ
  6
Continuous
 62
     2
370
     9
100
AcDbText
 10
-2091.286591995637
 20
-841.9676993012521
 30
0.0
 40
30.48
  1
Ｔ０６Ｆ
 41
1.09375
  7
ＭＳ ゴシック
100
AcDbText
  0
TEXT
  5
2F7
330
1F
100
AcDbEntity
  8
2-Fﾚｲﾔ
  6
Continuous
 62
     2
370
     9
100
AcDbText
 10
-2091.286498868737
 20
-906.967524915081
 30
0.0
 40
30.48
  1
Ｔ０７Ｆ
 50
359.9999427122977
 41
1.09375
  7
ＭＳ ゴシック
100
AcDbText
  0
TEXT
  5
2F8
330
1F
100
AcDbEntity
  8
2-Fﾚｲﾔ
  6
Continuous
 62
     2
370
     9
100
AcDbText
 10
-2091.286597634798
 20
-971.967700479553
 30
0.0
 40
30.48
  1
Ｔ０８Ｆ
 50
0.0000572877022862
 41
1.09375
  7
ＭＳ ゴシック
100
AcDbText
  0
TEXT
  5
2F9
330
1F
100
AcDbEntity
  8
2-Fﾚｲﾔ
  6
Continuous
 62
     2
370
     9
100
AcDbText
 10
-2091.286498868737
 20
-1036.967526093366
 30
0.0
 40
30.48
  1
Ｔ０９Ｆ
 50
359.9999427122977
 41
1.09375
  7
ＭＳ ゴシック
100
AcDbText
  0
TEXT
  5
2FA
330
1F
100
AcDbEntity
  8
2-Fﾚｲﾔ
  6
Continuous
 62
     2
370
     9
100
AcDbText
 10
-2091.286597634798
 20
-1101.967701657838
 30
0.0
 40
30.48
  1
Ｔ１０Ｆ
 50
0.0000572877022862
 41
1.09375
  7
ＭＳ ゴシック
100
AcDbText
  0
TEXT
  5
2FB
330
1F
100
AcDbEntity
  8
2-Fﾚｲﾔ
  6
Continuous
 62
     2
370
     9
100
AcDbText
 10
-2091.286498868737
 20
-1166.967527271651
 30
0.0
 40
30.48
  1
Ｔ１１Ｆ
 50
359.9999427122977
 41
1.09375
  7
ＭＳ ゴシック
100
AcDbText
  0
TEXT
  5
2FC
330
1F
100
AcDbEntity
  8
2-Fﾚｲﾔ
  6
Continuous
 62
     2
370
     9
100
AcDbText
 10
-2091.286597634798
 20
-1231.967702836122
 30
0.0
 40
30.48
  1
Ｔ１２Ｆ
 50
0.0000572877022862
 41
1.09375
  7
ＭＳ ゴシック
100
AcDbText
  0
TEXT
  5
2FD
330
1F
100
AcDbEntity
  8
2-Fﾚｲﾔ
  6
Continuous
 62
     2
370
     9
100
AcDbText
 10
-2091.286498868737
 20
-1296.967528449936
 30
0.0
 40
30.48
  1
Ｔ１３Ｆ
 50
359.9999427122977
 41
1.09375
  7
ＭＳ ゴシック
100
AcDbText
  0
TEXT
  5
2FE
330
1F
100
AcDbEntity
  8
2-Fﾚｲﾔ
  6
Continuous
 62
     2
370
     9
100
AcDbText
 10
-2091.286597634798
 20
-1361.967704014408
 30
0.0
 40
30.48
  1
Ｔ１４Ｆ
 50
0.0000572877022862
 41
1.09375
  7
ＭＳ ゴシック
100
AcDbText
  0
TEXT
  5
2FF
330
1F
100
AcDbEntity
  8
2-Fﾚｲﾔ
  6
Continuous
 62
     2
370
     9
100
AcDbText
 10
-2091.286498868737
 20
-1426.967485884395
 30
0.0
 40
30.48
  1
Ｔ１５Ｆ
 50
359.9999427122977
 41
1.09375
  7
ＭＳ ゴシック
100
AcDbText
  0
TEXT
  5
300
330
1F
100
AcDbEntity
  8
2-Fﾚｲﾔ
  6
Continuous
 62
     2
370
     9
100
AcDbText
 10
-2091.286597634798
 20
-1491.967705192692
 30
0.0
 40
30.48
  1
Ｔ１６Ｆ
 50
0.0000572877022862
 41
1.09375
  7
ＭＳ ゴシック
100
AcDbText
  0
TEXT
  5
301
330
1F
100
AcDbEntity
  8
2-Fﾚｲﾔ
  6
Continuous
 62
     2
370
     9
100
AcDbText
 10
-2091.286498868737
 20
-1556.967530806505
 30
0.0
 40
30.48
  1
Ｔ１７Ｆ
 50
359.9999427122977
 41
1.09375
  7
ＭＳ ゴシック
100
AcDbText
  0
TEXT
  5
302
330
1F
100
AcDbEntity
  8
2-Fﾚｲﾔ
  6
Continuous
 62
     2
370
     9
100
AcDbText
 10
-2091.286501688372
 20
-1621.967531395652
 30
0.0
 40
30.48
  1
Ｔ１８Ｆ
 50
359.9999713561489
 41
1.09375
  7
ＭＳ ゴシック
100
AcDbText
  0
TEXT
  5
303
330
1F
100
AcDbEntity
  8
2-Fﾚｲﾔ
  6
Continuous
 62
     2
370
     9
100
AcDbText
 10
-1601.750749924929
 20
-516.9678713308431
 30
0.0
 40
30.48
  1
９７．５
 41
1.09375
  7
ＭＳ ゴシック
100
AcDbText
  0
TEXT
  5
304
330
1F
100
AcDbEntity
  8
2-Fﾚｲﾔ
  6
Continuous
 62
     2
370
     9
100
AcDbText
 10
-1646.750885133117
 20
-581.9675219693792
 30
0.0
 40
30.48
  1
１１０
 41
1.083333333333333
  7
ＭＳ ゴシック
100
AcDbText
  0
TEXT
  5
305
330
1F
100
AcDbEntity
  8
2-Fﾚｲﾔ
  6
Continuous
 62
     2
370
     9
100
AcDbText
 10
-1839.665806956273
 20
-516.9675213802367
 30
0.0
 40
30.48
  1
６２．５
 41
1.09375
  7
ＭＳ ゴシック
100
AcDbText
  0
TEXT
  5
306
330
1F
100
AcDbEntity
  8
2-Fﾚｲﾔ
  6
Continuous
 62
     2
370
     9
100
AcDbText
 10
-1839.665780444863
 20
-581.9676969446822
 30
0.0
 40
30.48
  1
７５
 41
1.0625
  7
ＭＳ ゴシック
100
AcDbText
  0
TEXT
  5
307
330
1F
100
AcDbEntity
  8
092
  6
Continuous
 62
     2
370
     9
100
AcDbText
 10
-615.4188224963565
 20
1379.105349320874
 30
0.0
 40
30.48
  1
192
 50
90.00000250447816
 41
1.083333333333334
  7
ＭＳ ゴシック
100
AcDbText
  0
TEXT
  5
308
330
1F
100
AcDbEntity
  8
092
  6
Continuous
 62
     2
370
     9
100
AcDbText
 10
-1481.766322137767
 20
284.2193702712848
 30
0.0
 40
30.48
  1
192
 41
1.083333333333333
  7
ＭＳ ゴシック
100
AcDbText
  0
TEXT
  5
309
330
1F
100
AcDbEntity
  8
092
  6
Continuous
 62
     2
370
     9
100
AcDbText
 10
15.07879875885897
 20
762.8571380483049
 30
0.0
 40
30.48
  1
②ジョイントプレート
 50
0.0000225288680628
 41
1.1125
  7
ＭＳ ゴシック
100
AcDbText
  0
TEXT
  5
30A
330
1F
100
AcDbEntity
  8
Hojo
  6
Continuous
 62
     2
370
     9
100
AcDbText
 10
1411.522492745668
 20
1280.355345877018
 30
0.0
 40
30.48
  1
152
 41
1.083333333333333
  7
ＭＳ ゴシック
100
AcDbText
  0
TEXT
  5
30B
330
1F
100
AcDbEntity
  8
Hojo
  6
Continuous
 62
     2
370
     9
100
AcDbText
 10
1778.907948727773
 20
9.211561188311137
 30
0.0
 40
30.48
  1
ジョイント穴
 41
1.104166666666667
  7
ＭＳ ゴシック
100
AcDbText
  0
TEXT
  5
30C
330
1F
100
AcDbEntity
  8
Hojo
  6
Continuous
 62
     2
370
     9
100
AcDbText
 10
1259.221823197074
 20
-111.3399485952237
 30
0.0
 40
30.48
  1
Ａ視　Ｓ＝１：２
 41
1.109375
  7
ＭＳ ゴシック
100
AcDbText
  0
TEXT
  5
30D
330
1F
100
AcDbEntity
  8
Hojo
  6
Continuous
 62
     2
370
     9
100
AcDbText
 10
1778.907975239183
 20
-64.71008015779908
 30
0.0
 40
30.48
  1
Φ８．５
 41
1.09375
  7
ＭＳ ゴシック
100
AcDbText
  0
TEXT
  5
30E
330
1F
100
AcDbEntity
  8
Hojo
  6
Continuous
 62
     2
370
     9
100
AcDbText
 10
1411.522492745668
 20
1368.909296948974
 30
0.0
 40
30.48
  1
192
 41
1.083333333333333
  7
ＭＳ ゴシック
100
AcDbText
  0
TEXT
  5
30F
330
1F
100
AcDbEntity
  8
Hojo
  6
Continuous
 62
     2
370
     9
100
AcDbText
 10
1323.697206887884
 20
925.635366363586
 30
0.0
 40
30.48
  1
15.5
 50
90.00000250447816
 41
1.093749999999999
  7
ＭＳ ゴシック
100
AcDbText
  0
TEXT
  5
310
330
1F
100
AcDbEntity
  8
Hojo
  6
Continuous
 62
     2
370
     9
100
AcDbText
 10
1253.547133195602
 20
617.7295978131326
 30
0.0
 40
30.48
  1
R10
 50
40.00016617600635
 41
1.083333333333332
  7
ＭＳ ゴシック
100
AcDbText
  0
TEXT
  5
311
330
1F
100
AcDbEntity
  8
Hojo
  6
Continuous
 62
     2
370
     9
100
AcDbText
 10
1581.313264748886
 20
634.4790983413521
 30
0.0
 40
30.48
  1
R10
 50
330.0000674670657
 41
1.083333333333333
  7
ＭＳ ゴシック
100
AcDbText
  0
TEXT
  5
312
330
1F
100
AcDbEntity
  8
Hojo
  6
Continuous
 62
     2
370
     9
100
AcDbText
 10
1482.112683086847
 20
563.9847357341423
 30
0.0
 40
30.48
  1
R10
 50
49.99983291337723
 41
1.083333333333333
  7
ＭＳ ゴシック
100
AcDbText
  0
TEXT
  5
313
330
1F
100
AcDbEntity
  8
Hojo
  6
Continuous
 62
     2
370
     9
100
AcDbText
 10
1411.522842696274
 20
1189.769231634287
 30
0.0
 40
30.48
  1
100
 41
1.083333333333333
  7
ＭＳ ゴシック
100
AcDbText
  0
TEXT
  5
314
330
1F
100
AcDbEntity
  8
3-F
  6
Continuous
 62
     2
370
     9
100
AcDbText
 10
1140.118234047098
 20
-838.3406362422737
 30
0.0
 40
30.48
  1
①トラフパン本体
 41
1.109375
  7
ＭＳ ゴシック
100
AcDbText
  0
TEXT
  5
315
330
1F
100
AcDbEntity
  8
3-F
  6
Continuous
 62
     2
370
     9
100
AcDbText
 10
1182.054877787483
 20
-903.3404618561129
 30
0.0
 40
30.48
  1
材質：ステンレス鋼板　ｔ＝１．５（ＳＵＳ３０４）
 41
1.119791666666667
  7
ＭＳ ゴシック
100
AcDbText
  0
TEXT
  5
316
330
1F
100
AcDbEntity
  8
3-F
  6
Continuous
 62
     2
370
     9
100
AcDbText
 10
1182.054877787483
 20
-1033.340638009701
 30
0.0
 40
30.48
  1
材質：ステンレス鋼板　ｔ＝２．０（ＳＵＳ３０４）
 41
1.119791666666667
  7
ＭＳ ゴシック
100
AcDbText
  0
TEXT
  5
317
330
1F
100
AcDbEntity
  8
3-F
  6
Continuous
 62
     2
370
     9
100
AcDbText
 10
1182.054877787483
 20
-1156.260438521359
 30
0.0
 40
30.48
  1
材質：ステンレス鋼板　ｔ＝２．０（ＳＵＳ３０４）
 41
1.119791666666667
  7
ＭＳ ゴシック
100
AcDbText
  0
TEXT
  5
318
330
1F
100
AcDbEntity
  8
3-F
  6
Continuous
 62
     2
370
     9
100
AcDbText
 10
1187.618408433259
 20
-710.4203915172194
 30
0.0
 40
30.48
  1
仕　様
 41
1.083333333333333
  7
ＭＳ ゴシック
100
AcDbText
  0
TEXT
  5
319
330
1F
100
AcDbEntity
  8
3-F
  6
Continuous
 62
     2
370
     9
100
AcDbText
 10
1140.118207535688
 20
-968.3406374205586
 30
0.0
 40
30.48
  1
②ジョイントプレート
 41
1.1125
  7
ＭＳ ゴシック
100
AcDbText
  0
TEXT
  5
31A
330
1F
100
AcDbEntity
  8
3-F
  6
Continuous
 62
     2
370
     9
100
AcDbText
 10
1140.118234047098
 20
-1092.702759356075
 30
0.0
 40
30.48
  1
③コーナー支持脚
 41
1.109375
  7
ＭＳ ゴシック
100
AcDbText
  0
TEXT
  5
31B
330
1F
100
AcDbEntity
  8
092
  6
Continuous
 62
     2
370
     9
100
AcDbText
 10
-2161.790273282836
 20
-76.73472714038799
 30
0.0
 40
30.48
  1
ｈ
 50
90.00000250447816
 41
0.9999999999999997
  7
ＭＳ ゴシック
100
AcDbText
  0
TEXT
  5
31C
330
1F
100
AcDbEntity
  8
092
  6
Continuous
 62
     2
370
     9
100
AcDbText
 10
-2052.044013394669
 20
-41.73441725146735
 30
0.0
 40
30.48
  1
Ｈ
 50
90.00000250447816
 41
0.9999999999999997
  7
ＭＳ ゴシック
100
AcDbText
  0
TEXT
  5
31D
330
1F
100
AcDbEntity
  8
Hojo
  6
Continuous
 62
     2
370
     9
100
AcDbText
 10
611.1599767609961
 20
685.9311765475492
 30
0.0
 40
30.48
  1
ｈ
 50
90.00000250447816
 41
1.000000000000001
  7
ＭＳ ゴシック
100
AcDbText
  0
TEXT
  5
31E
330
1F
100
AcDbEntity
  8
Hojo
  6
Continuous
 62
     2
370
     9
100
AcDbText
 10
789.8825510023688
 20
777.1811470904275
 30
0.0
 40
30.48
  1
Ｈ
 50
90.00000250447816
 41
1.000000000000001
  7
ＭＳ ゴシック
100
AcDbText
  0
TEXT
  5
31F
330
1F
100
AcDbEntity
  8
4-F
  6
Continuous
 62
     2
370
     9
100
AcDbText
 10
-1137.741419974378
 20
-768.0828027688044
 30
0.0
 40
30.48
  1
Ｔ０１Ｆ～Ｔ０４Ｆ
 50
359.9999874683174
 41
1.111111111111111
  7
ＭＳ ゴシック
100
AcDbText
  0
TEXT
  5
320
330
1F
100
AcDbEntity
  8
4-F
  6
Continuous
 62
     2
370
     9
100
AcDbText
 10
-585.5417600745226
 20
-768.0828027688044
 30
0.0
 40
30.48
  1
Ｔ０５Ｆ～Ｔ１１Ｆ
 50
359.9999874683174
 41
1.111111111111111
  7
ＭＳ ゴシック
100
AcDbText
  0
TEXT
  5
321
330
1F
100
AcDbEntity
  8
4-F
  6
Continuous
 62
     2
370
     9
100
AcDbText
 10
-33.34061288459112
 20
-768.0828027688243
 30
0.0
 40
30.48
  1
Ｔ１２Ｆ～Ｔ１８Ｆ
 50
359.9999874683231
 41
1.111111111111111
  7
ＭＳ ゴシック
100
AcDbText
  0
TEXT
  5
322
330
1F
100
AcDbEntity
  8
4-F
  6
Continuous
 62
     2
370
     9
100
AcDbText
 10
-1171.492033621519
 20
-822.8045790756624
 30
0.0
 40
30.48
  1
ｼﾞｮｲﾝﾄ穴：４-Φ８．５
 41
1.113095238095238
  7
ＭＳ ゴシック
100
AcDbText
  0
TEXT
  5
323
330
1F
100
AcDbEntity
  8
4-F
  6
Continuous
 62
     2
370
     9
100
AcDbText
 10
-630.5412363821937
 20
-822.8045790756624
 30
0.0
 40
30.48
  1
ｼﾞｮｲﾝﾄ穴：６－Φ８．５
 41
1.113636363636364
  7
ＭＳ ゴシック
100
AcDbText
  0
TEXT
  5
324
330
1F
100
AcDbEntity
  8
4-F
  6
Continuous
 62
     2
370
     9
100
AcDbText
 10
-78.34148899468687
 20
-822.8045790756624
 30
0.0
 40
30.48
  1
ｼﾞｮｲﾝﾄ穴：８－Φ８．５
 41
1.113636363636364
  7
ＭＳ ゴシック
100
AcDbText
  0
TEXT
  5
325
330
1F
100
AcDbEntity
  8
092
  6
Continuous
 62
     2
370
     9
100
AcDbText
 10
-608.022797696839
 20
-334.3401982737876
 30
0.0
 40
30.48
  1
Ｂ－Ｂ断面
 41
1.1
  7
ＭＳ ゴシック
100
AcDbText
  0
TEXT
  5
326
330
1F
100
AcDbEntity
  8
3-F
  6
Continuous
 62
     2
370
     9
100
AcDbText
 10
1140.118122699178
 20
-773.3408106284343
 30
0.0
 40
30.48
  1
サニタリートラフ　ＳＴＶ－１００　Ｔコーナー　
 41
1.119565217391304
  7
ＭＳ ゴシック
100
AcDbText
  0
TEXT
  5
327
330
1F
100
AcDbEntity
  8
F-Fﾚｲﾔ
  6
Continuous
 62
     2
370
     9
100
AcDbText
 10
-360.0004009758646
 20
-1917.638873928725
 30
0.0
 40
30.48
  1
サニタリートラフ　ＳＴＶ－１００　Ｔ字コーナー　Ｔ０１Ｆ～Ｔ１８Ｆ
 41
1.121212121212121
  7
ＭＳ ゴシック
100
AcDbText
  0
TEXT
  5
328
330
1F
100
AcDbEntity
  8
Hojo
  6
Continuous
 62
     2
370
     9
100
AcDbText
 10
-1839.665806956273
 20
-646.9676975338248
 30
0.0
 40
30.48
  1
８７．５
 41
1.09375
  7
ＭＳ ゴシック
100
AcDbText
  0
TEXT
  5
329
330
1F
100
AcDbEntity
  8
4-F
  6
Continuous
 62
     2
370
     9
100
AcDbText
 10
-1263.822837216514
 20
-676.4738703915142
 30
0.0
 40
30.48
  1
ジョイント穴詳細
 41
1.109375
  7
ＭＳ ゴシック
100
AcDbText
  0
LWPOLYLINE
  5
32A
330
1F
100
AcDbEntity
  8
092
  6
Continuous
 62
     7
370
     9
100
AcDbPolyline
 90
        4
 70
     1
 43
1.0
 10
-1948.766387238005
 20
1738.154233896594
 42
0.4142135623731
 10
-1949.266387238006
 20
1738.654233896594
 42
0.4142135623731
 10
-1949.766387238006
 20
1738.154233896594
 42
0.4142135623731
 10
-1949.266387238006
 20
1737.654233896594
 42
0.4142135623731
  0
LWPOLYLINE
  5
32B
330
1F
100
AcDbEntity
  8
092
  6
Continuous
 62
     7
370
     9
100
AcDbPolyline
 90
        4
 70
     1
 43
1.0
 10
-948.7664320128307
 20
1738.154233896594
 42
0.4142135623731
 10
-949.2664320128307
 20
1738.654233896594
 42
0.4142135623731
 10
-949.7664320128307
 20
1738.154233896594
 42
0.4142135623731
 10
-949.2664320128307
 20
1737.654233896594
 42
0.4142135623731
  0
LWPOLYLINE
  5
32C
330
1F
100
AcDbEntity
  8
092
  6
Continuous
 62
     7
370
     9
100
AcDbPolyline
 90
        4
 70
     1
 43
1.0
 10
-604.2789046294904
 20
1603.605224787038
 42
0.4142135623731
 10
-604.7789046294904
 20
1604.105224787038
 42
0.4142135623731
 10
-605.2789046294903
 20
1603.605224787038
 42
0.4142135623731
 10
-604.7789046294904
 20
1603.105224787038
 42
0.4142135623731
  0
LWPOLYLINE
  5
32D
330
1F
100
AcDbEntity
  8
092
  6
Continuous
 62
     7
370
     9
100
AcDbPolyline
 90
        4
 70
     1
 43
1.0
 10
-604.2789046294904
 20
1219.605124397167
 42
0.4142135623731
 10
-604.7789046294904
 20
1220.105124397167
 42
0.4142135623731
 10
-605.2789046294903
 20
1219.605124397167
 42
0.4142135623731
 10
-604.7789046294904
 20
1219.105124397167
 42
0.4142135623731
  0
LWPOLYLINE
  5
32E
330
1F
100
AcDbEntity
  8
092
  6
Continuous
 62
     7
370
     9
100
AcDbPolyline
 90
        4
 70
     1
 43
1.0
 10
-604.2789046294904
 20
561.6050726704614
 42
0.4142135623731
 10
-604.7789046294904
 20
562.1050726704614
 42
0.4142135623731
 10
-605.2789046294903
 20
561.6050726704614
 42
0.4142135623731
 10
-604.7789046294904
 20
561.1050726704615
 42
0.4142135623731
  0
LWPOLYLINE
  5
32F
330
1F
100
AcDbEntity
  8
092
  6
Continuous
 62
     7
370
     9
100
AcDbPolyline
 90
        4
 70
     1
 43
1.0
 10
-1948.766387238005
 20
273.5794509837984
 42
0.4142135623731
 10
-1949.266387238006
 20
274.0794509837984
 42
0.4142135623731
 10
-1949.766387238006
 20
273.5794509837984
 42
0.4142135623731
 10
-1949.266387238006
 20
273.0794509837984
 42
0.4142135623731
  0
LWPOLYLINE
  5
330
330
1F
100
AcDbEntity
  8
092
  6
Continuous
 62
     7
370
     9
100
AcDbPolyline
 90
        4
 70
     1
 43
1.0
 10
-1640.766459820353
 20
273.5794509837984
 42
0.4142135623731
 10
-1641.266459820353
 20
274.0794509837984
 42
0.4142135623731
 10
-1641.766459820353
 20
273.5794509837984
 42
0.4142135623731
 10
-1641.266459820353
 20
273.0794509837984
 42
0.4142135623731
  0
LWPOLYLINE
  5
331
330
1F
100
AcDbEntity
  8
092
  6
Continuous
 62
     7
370
     9
100
AcDbPolyline
 90
        4
 70
     1
 43
1.0
 10
-1256.766359430482
 20
273.5794509837984
 42
0.4142135623731
 10
-1257.266359430482
 20
274.0794509837984
 42
0.4142135623731
 10
-1257.766359430482
 20
273.5794509837984
 42
0.4142135623731
 10
-1257.266359430482
 20
273.0794509837984
 42
0.4142135623731
  0
LWPOLYLINE
  5
332
330
1F
100
AcDbEntity
  8
092
  6
Continuous
 62
     7
370
     9
100
AcDbPolyline
 90
        4
 70
     1
 43
1.0
 10
-948.7664320128307
 20
273.5794509837984
 42
0.4142135623731
 10
-949.2664320128307
 20
274.0794509837984
 42
0.4142135623731
 10
-949.7664320128307
 20
273.5794509837984
 42
0.4142135623731
 10
-949.2664320128307
 20
273.0794509837984
 42
0.4142135623731
  0
LWPOLYLINE
  5
333
330
1F
100
AcDbEntity
  8
092
  6
Continuous
 62
     7
370
     9
100
AcDbPolyline
 90
        4
 70
     1
 43
1.0
 10
-1348.765924172052
 20
762.1397182517987
 42
0.4142135623731
 10
-1349.265924172052
 20
762.6397182517986
 42
0.4142135623731
 10
-1349.765924172052
 20
762.1397182517987
 42
0.4142135623731
 10
-1349.265924172052
 20
761.6397182517987
 42
0.4142135623731
  0
LWPOLYLINE
  5
334
330
1F
100
AcDbEntity
  8
092
  6
Continuous
 62
     7
370
     9
100
AcDbPolyline
 90
        4
 70
     1
 43
1.0
 10
-948.7667819634369
 20
762.1397182517987
 42
0.4142135623731
 10
-949.2667819634369
 20
762.6397182517986
 42
0.4142135623731
 10
-949.7667819634369
 20
762.1397182517987
 42
0.4142135623731
 10
-949.2667819634369
 20
761.6397182517987
 42
0.4142135623731
  0
LWPOLYLINE
  5
335
330
1F
100
AcDbEntity
  8
092
  6
Continuous
 62
     7
370
     9
100
AcDbPolyline
 90
        4
 70
     1
 43
1.0
 10
-1948.766037287399
 20
762.1397182517987
 42
0.4142135623731
 10
-1949.266037287399
 20
762.6397182517986
 42
0.4142135623731
 10
-1949.766037287399
 20
762.1397182517987
 42
0.4142135623731
 10
-1949.266037287399
 20
761.6397182517987
 42
0.4142135623731
  0
LWPOLYLINE
  5
336
330
1F
100
AcDbEntity
  8
092
  6
Continuous
 62
     7
370
     9
100
AcDbPolyline
 90
        4
 70
     1
 43
1.0
 10
-1548.766195177572
 20
762.1397182517987
 42
0.4142135623731
 10
-1549.266195177572
 20
762.6397182517986
 42
0.4142135623731
 10
-1549.766195177572
 20
762.1397182517987
 42
0.4142135623731
 10
-1549.266195177572
 20
761.6397182517987
 42
0.4142135623731
  0
LWPOLYLINE
  5
337
330
1F
100
AcDbEntity
  8
092
  6
Continuous
 62
     7
370
     9
100
AcDbPolyline
 90
        4
 70
     1
 43
1.0
 10
-2197.711799892219
 20
1311.605039089343
 42
0.4142135623731
 10
-2198.211799892219
 20
1312.105039089343
 42
0.4142135623731
 10
-2198.711799892219
 20
1311.605039089343
 42
0.4142135623731
 10
-2198.211799892219
 20
1311.105039089342
 42
0.4142135623731
  0
LWPOLYLINE
  5
338
330
1F
100
AcDbEntity
  8
092
  6
Continuous
 62
     7
370
     9
100
AcDbPolyline
 90
        4
 70
     1
 43
1.0
 10
-2197.711799892219
 20
561.6050726704614
 42
0.4142135623731
 10
-2198.211799892219
 20
562.1050726704614
 42
0.4142135623731
 10
-2198.711799892219
 20
561.6050726704614
 42
0.4142135623731
 10
-2198.211799892219
 20
561.1050726704615
 42
0.4142135623731
  0
LWPOLYLINE
  5
339
330
1F
100
AcDbEntity
  8
092
  6
Continuous
 62
     7
370
     9
100
AcDbPolyline
 90
        4
 70
     1
 43
1.0
 10
-2320.618652231445
 20
1603.605224787038
 42
0.4142135623731
 10
-2321.118652231445
 20
1604.105224787038
 42
0.4142135623731
 10
-2321.618652231445
 20
1603.605224787038
 42
0.4142135623731
 10
-2321.118652231445
 20
1603.105224787038
 42
0.4142135623731
  0
LWPOLYLINE
  5
33A
330
1F
100
AcDbEntity
  8
092
  6
Continuous
 62
     7
370
     9
100
AcDbPolyline
 90
        4
 70
     1
 43
1.0
 10
-2320.618652231445
 20
561.6050726704614
 42
0.4142135623731
 10
-2321.118652231445
 20
562.1050726704614
 42
0.4142135623731
 10
-2321.618652231445
 20
561.6050726704614
 42
0.4142135623731
 10
-2321.118652231445
 20
561.1050726704615
 42
0.4142135623731
  0
LWPOLYLINE
  5
33B
330
1F
100
AcDbEntity
  8
092
  6
Continuous
 62
     7
370
     9
100
AcDbPolyline
 90
        4
 70
     1
 43
1.0
 10
-2040.904007493759
 20
103.2654899105603
 42
0.4142135623731
 10
-2041.404007493759
 20
103.7654899105603
 42
0.4142135623731
 10
-2041.90400749376
 20
103.2654899105603
 42
0.4142135623731
 10
-2041.404007493759
 20
102.7654899105603
 42
0.4142135623731
  0
LWPOLYLINE
  5
33C
330
1F
100
AcDbEntity
  8
092
  6
Continuous
 62
     7
370
     9
100
AcDbPolyline
 90
        4
 70
     1
 43
1.0
 10
-2040.904007493759
 20
-146.7344988957336
 42
0.4142135623731
 10
-2041.404007493759
 20
-146.2344988957336
 42
0.4142135623731
 10
-2041.90400749376
 20
-146.7344988957336
 42
0.4142135623731
 10
-2041.404007493759
 20
-147.2344988957336
 42
0.4142135623731
  0
LWPOLYLINE
  5
33D
330
1F
100
AcDbEntity
  8
092
  6
Continuous
 62
     7
370
     9
100
AcDbPolyline
 90
        4
 70
     1
 43
1.0
 10
-2150.650267381926
 20
103.2654899105603
 42
0.4142135623731
 10
-2151.150267381926
 20
103.7654899105603
 42
0.4142135623731
 10
-2151.650267381926
 20
103.2654899105603
 42
0.4142135623731
 10
-2151.150267381926
 20
102.7654899105603
 42
0.4142135623731
  0
LWPOLYLINE
  5
33E
330
1F
100
AcDbEntity
  8
092
  6
Continuous
 62
     7
370
     9
100
AcDbPolyline
 90
        4
 70
     1
 43
1.0
 10
-2150.650267381926
 20
-216.7345937476657
 42
0.4142135623731
 10
-2151.150267381926
 20
-216.2345937476657
 42
0.4142135623731
 10
-2151.650267381926
 20
-216.7345937476657
 42
0.4142135623731
 10
-2151.150267381926
 20
-217.2345937476657
 42
0.4142135623731
  0
LWPOLYLINE
  5
33F
330
1F
100
AcDbEntity
  8
Hojo
  6
Continuous
 62
     7
370
     9
100
AcDbPolyline
 90
        4
 70
     1
 43
1.0
 10
1064.522852711695
 20
1265.714616283026
 42
0.4142135623731
 10
1064.022852711696
 20
1266.214616283026
 42
0.4142135623731
 10
1063.522852711696
 20
1265.714616283026
 42
0.4142135623731
 10
1064.022852711696
 20
1265.214616283026
 42
0.4142135623731
  0
LWPOLYLINE
  5
340
330
1F
100
AcDbEntity
  8
Hojo
  6
Continuous
 62
     7
370
     9
100
AcDbPolyline
 90
        4
 70
     1
 43
1.0
 10
1824.522482730247
 20
1265.714616283026
 42
0.4142135623731
 10
1824.022482730247
 20
1266.214616283026
 42
0.4142135623731
 10
1823.522482730247
 20
1265.714616283026
 42
0.4142135623731
 10
1824.022482730247
 20
1265.214616283026
 42
0.4142135623731
  0
LWPOLYLINE
  5
341
330
1F
100
AcDbEntity
  8
Hojo
  6
Continuous
 62
     7
370
     9
100
AcDbPolyline
 90
        4
 70
     1
 43
1.0
 10
964.5223672583295
 20
1354.269267256195
 42
0.4142135623731
 10
964.0223672583295
 20
1354.769267256196
 42
0.4142135623731
 10
963.5223672583295
 20
1354.269267256195
 42
0.4142135623731
 10
964.0223672583295
 20
1353.769267256195
 42
0.4142135623731
  0
LWPOLYLINE
  5
342
330
1F
100
AcDbEntity
  8
Hojo
  6
Continuous
 62
     7
370
     9
100
AcDbPolyline
 90
        4
 70
     1
 43
1.0
 10
1924.522968183613
 20
1354.269267256195
 42
0.4142135623731
 10
1924.022968183613
 20
1354.769267256196
 42
0.4142135623731
 10
1923.522968183613
 20
1354.269267256195
 42
0.4142135623731
 10
1924.022968183613
 20
1353.769267256195
 42
0.4142135623731
  0
LWPOLYLINE
  5
343
330
1F
100
AcDbEntity
  8
Hojo
  6
Continuous
 62
     7
370
     9
100
AcDbPolyline
 90
        4
 70
     1
 43
1.0
 10
801.0226443909305
 20
1105.931018903909
 42
0.4142135623731
 10
800.5226443909305
 20
1106.431018903909
 42
0.4142135623731
 10
800.0226443909305
 20
1105.931018903909
 42
0.4142135623731
 10
800.5226443909305
 20
1105.431018903909
 42
0.4142135623731
  0
LWPOLYLINE
  5
344
330
1F
100
AcDbEntity
  8
Hojo
  6
Continuous
 62
     7
370
     9
100
AcDbPolyline
 90
        4
 70
     1
 43
1.0
 10
1338.837934569502
 20
1105.931018903909
 42
0.4142135623731
 10
1338.337934569502
 20
1106.431018903909
 42
0.4142135623731
 10
1337.837934569502
 20
1105.931018903909
 42
0.4142135623731
 10
1338.337934569502
 20
1105.431018903909
 42
0.4142135623731
  0
LWPOLYLINE
  5
345
330
1F
100
AcDbEntity
  8
Hojo
  6
Continuous
 62
     7
370
     9
100
AcDbPolyline
 90
        4
 70
     1
 43
1.0
 10
1338.837934569502
 20
1028.430957633095
 42
0.4142135623731
 10
1338.337934569502
 20
1028.930957633095
 42
0.4142135623731
 10
1337.837934569502
 20
1028.430957633095
 42
0.4142135623731
 10
1338.337934569502
 20
1027.930957633095
 42
0.4142135623731
  0
LWPOLYLINE
  5
346
330
1F
100
AcDbEntity
  8
Hojo
  6
Continuous
 62
     7
370
     9
100
AcDbPolyline
 90
        4
 70
     1
 43
1.0
 10
801.0226443909305
 20
480.9311343758262
 42
0.4142135623731
 10
800.5226443909305
 20
481.4311343758261
 42
0.4142135623731
 10
800.0226443909305
 20
480.9311343758262
 42
0.4142135623731
 10
800.5226443909305
 20
480.4311343758262
 42
0.4142135623731
  0
LWPOLYLINE
  5
347
330
1F
100
AcDbEntity
  8
Hojo
  6
Continuous
 62
     7
370
     9
100
AcDbPolyline
 90
        4
 70
     1
 43
1.0
 10
622.2993702483449
 20
1105.931018903909
 42
0.4142135623731
 10
621.7993702483449
 20
1106.431018903909
 42
0.4142135623731
 10
621.2993702483449
 20
1105.931018903909
 42
0.4142135623731
 10
621.7993702483449
 20
1105.431018903909
 42
0.4142135623731
  0
LWPOLYLINE
  5
348
330
1F
100
AcDbEntity
  8
Hojo
  6
Continuous
 62
     7
370
     9
100
AcDbPolyline
 90
        4
 70
     1
 43
1.0
 10
622.2993702483449
 20
305.9309847336476
 42
0.4142135623731
 10
621.7993702483449
 20
306.4309847336476
 42
0.4142135623731
 10
621.2993702483449
 20
305.9309847336476
 42
0.4142135623731
 10
621.7993702483449
 20
305.4309847336476
 42
0.4142135623731
  0
LWPOLYLINE
  5
349
330
1F
100
AcDbEntity
  8
Hojo
  6
Continuous
 62
     7
370
     9
100
AcDbPolyline
 90
        4
 70
     1
 43
1.0
 10
1194.523203840587
 20
1179.129137371498
 42
0.4142135623731
 10
1194.023203840587
 20
1179.629137371498
 42
0.4142135623731
 10
1193.523203840587
 20
1179.129137371498
 42
0.4142135623731
 10
1194.023203840587
 20
1178.629137371498
 42
0.4142135623731
  0
LWPOLYLINE
  5
34A
330
1F
100
AcDbEntity
  8
Hojo
  6
Continuous
 62
     7
370
     9
100
AcDbPolyline
 90
        4
 70
     1
 43
1.0
 10
1694.522131601356
 20
1179.129137371498
 42
0.4142135623731
 10
1694.022131601355
 20
1179.629137371498
 42
0.4142135623731
 10
1693.522131601355
 20
1179.129137371498
 42
0.4142135623731
 10
1694.022131601355
 20
1178.629137371498
 42
0.4142135623731
  0
CIRCLE
  5
34B
330
1F
100
AcDbEntity
  8
通り芯
  6
JWW_DASHED1
 62
     4
370
     9
100
AcDbCircle
 10
-1892.266432484144
 20
1573.605359111514
 30
0.0
 40
13.00000066462631
  0
CIRCLE
  5
34C
330
1F
100
AcDbEntity
  8
通り芯
  6
JWW_DASHED1
 62
     4
370
     9
100
AcDbCircle
 10
-1892.266432484144
 20
1249.605204520538
 30
0.0
 40
13.00000066462631
  0
CIRCLE
  5
34D
330
1F
100
AcDbEntity
  8
通り芯
  6
JWW_DASHED1
 62
     4
370
     9
100
AcDbCircle
 10
-1006.266378990012
 20
1573.605359111514
 30
0.0
 40
13.00000066462631
  0
CIRCLE
  5
34E
330
1F
100
AcDbEntity
  8
通り芯
  6
JWW_DASHED1
 62
     4
370
     9
100
AcDbCircle
 10
-1006.266378990012
 20
1249.605204520538
 30
0.0
 40
13.00000066462631
  0
CIRCLE
  5
34F
330
1F
100
AcDbEntity
  8
通り芯
  6
JWW_DASHED1
 62
     4
370
     9
100
AcDbCircle
 10
-1611.266594144829
 20
618.6050274243225
 30
0.0
 40
13.00000066462631
  0
CIRCLE
  5
350
330
1F
100
AcDbEntity
  8
通り芯
  6
JWW_DASHED1
 62
     4
370
     9
100
AcDbCircle
 10
-1287.266439553853
 20
618.6050274243225
 30
0.0
 40
13.00000066462631
  0
ENDSEC
  0
SECTION
  2
OBJECTS
  0
DICTIONARY
  5
C
330
0
100
AcDbDictionary
281
     1
  3
ACAD_GROUP
350
D
  3
ACAD_LAYOUT
350
1A
  3
ACAD_MLEADERSTYLE
350
352
  3
ACAD_MLINESTYLE
350
17
  3
ACAD_PLOTSETTINGS
350
19
  3
ACAD_PLOTSTYLENAME
350
E
  3
ACAD_TABLESTYLE
350
351
  3
ACAD_VISUALSTYLE
350
2A
  3
AcDbVariableDictionary
350
353
  0
DICTIONARY
  5
D
102
{ACAD_REACTORS
330
C
102
}
330
C
100
AcDbDictionary
281
     1
  0
DICTIONARY
  5
1A
102
{ACAD_REACTORS
330
C
102
}
330
C
100
AcDbDictionary
281
     1
  3
Layout1
350
1E
  3
Layout2
350
26
  3
Model
350
22
  0
DICTIONARY
  5
352
102
{ACAD_REACTORS
330
C
102
}
330
C
100
AcDbDictionary
281
     1
  0
DICTIONARY
  5
17
102
{ACAD_REACTORS
330
C
102
}
330
C
100
AcDbDictionary
281
     1
  3
Standard
350
18
  0
DICTIONARY
  5
19
102
{ACAD_REACTORS
330
C
102
}
330
C
100
AcDbDictionary
281
     1
  0
ACDBDICTIONARYWDFLT
  5
E
102
{ACAD_REACTORS
330
C
102
}
330
C
100
AcDbDictionary
281
     1
  3
Normal
350
F
100
AcDbDictionaryWithDefault
340
F
  0
DICTIONARY
  5
351
102
{ACAD_REACTORS
330
C
102
}
330
C
100
AcDbDictionary
281
     1
  0
DICTIONARY
  5
2A
102
{ACAD_REACTORS
330
C
102
}
330
C
100
AcDbDictionary
281
     1
  3
2dWireframe
350
2F
  3
3D Hidden
350
31
  3
3dWireframe
350
30
  3
Basic
350
32
  3
Brighten
350
36
  3
ColorChange
350
3A
  3
Conceptual
350
34
  3
Dim
350
35
  3
Facepattern
350
39
  3
Flat
350
2B
  3
FlatWithEdges
350
2C
  3
Gouraud
350
2D
  3
GouraudWithEdges
350
2E
  3
Linepattern
350
38
  3
Realistic
350
33
  3
Thicken
350
37
  0
DICTIONARY
  5
353
102
{ACAD_REACTORS
330
C
102
}
330
C
100
AcDbDictionary
281
     1
  3
PSOLHEIGHT
350
355
  3
PSOLWIDTH
350
354
  0
LAYOUT
  5
1E
102
{ACAD_REACTORS
330
1A
102
}
102
{ACAD_XDICTIONARY
360
356
102
}
330
1A
100
AcDbPlotSettings
  1

  2
none_device
  4

  6

 40
0.0
 41
0.0
 42
0.0
 43
0.0
 44
0.0
 45
0.0
 46
0.0
 47
0.0
 48
0.0
 49
0.0
140
0.0
141
0.0
142
1.0
143
1.0
 70
   688
 72
     0
 73
     0
 74
     5
  7

 75
    16
147
1.0
148
0.0
149
0.0
100
AcDbLayout
  1
Layout1
 70
     1
 71
     1
 10
0.0
 20
0.0
 11
420.0
 21
297.0
 12
0.0
 22
0.0
 32
0.0
 14
1.000000000000000E+20
 24
1.000000000000000E+20
 34
1.000000000000000E+20
 15
-1.000000000000000E+20
 25
-1.000000000000000E+20
 35
-1.000000000000000E+20
146
0.0
 13
0.0
 23
0.0
 33
0.0
 16
1.0
 26
0.0
 36
0.0
 17
0.0
 27
1.0
 37
0.0
 76
     0
330
1B
  0
LAYOUT
  5
26
102
{ACAD_REACTORS
330
1A
102
}
102
{ACAD_XDICTIONARY
360
35A
102
}
330
1A
100
AcDbPlotSettings
  1

  2
none_device
  4

  6

 40
0.0
 41
0.0
 42
0.0
 43
0.0
 44
0.0
 45
0.0
 46
0.0
 47
0.0
 48
0.0
 49
0.0
140
0.0
141
0.0
142
1.0
143
1.0
 70
   688
 72
     0
 73
     0
 74
     5
  7

 75
    16
147
1.0
148
0.0
149
0.0
100
AcDbLayout
  1
Layout2
 70
     1
 71
     2
 10
0.0
 20
0.0
 11
0.0
 21
0.0
 12
0.0
 22
0.0
 32
0.0
 14
0.0
 24
0.0
 34
0.0
 15
0.0
 25
0.0
 35
0.0
146
0.0
 13
0.0
 23
0.0
 33
0.0
 16
1.0
 26
0.0
 36
0.0
 17
0.0
 27
1.0
 37
0.0
 76
     0
330
23
  0
LAYOUT
  5
22
102
{ACAD_REACTORS
330
1A
102
}
102
{ACAD_XDICTIONARY
360
358
102
}
330
1A
100
AcDbPlotSettings
  1

  2
none_device
  4

  6

 40
0.0
 41
0.0
 42
0.0
 43
0.0
 44
0.0
 45
0.0
 46
0.0
 47
0.0
 48
0.0
 49
0.0
140
0.0
141
0.0
142
1.0
143
1.0
 70
  1712
 72
     0
 73
     0
 74
     0
  7

 75
     0
147
1.0
148
0.0
149
0.0
100
AcDbLayout
  1
Model
 70
     1
 71
     0
 10
-2970.0
 20
-2100.0
 11
2970.0
 21
2100.0
 12
0.0
 22
0.0
 32
0.0
 14
-2970.0
 24
-2100.0
 34
0.0
 15
2970.0
 25
2100.0
 35
0.0
146
0.0
 13
0.0
 23
0.0
 33
0.0
 16
1.0
 26
0.0
 36
0.0
 17
0.0
 27
1.0
 37
0.0
 76
     0
330
1F
331
29
  0
MLINESTYLE
  5
18
102
{ACAD_REACTORS
330
17
102
}
330
17
100
AcDbMlineStyle
  2
Standard
 70
     0
  3

 62
   256
 51
90.0
 52
90.0
 71
     2
 49
0.5
 62
   256
  6
BYLAYER
 49
-0.5
 62
   256
  6
BYLAYER
  0
ACDBPLACEHOLDER
  5
F
102
{ACAD_REACTORS
330
E
102
}
330
E
  0
VISUALSTYLE
  5
2F
102
{ACAD_REACTORS
330
2A
102
}
330
2A
100
AcDbVisualStyle
  2
2dWireframe
 70
     4
 71
     0
 72
     2
 73
     0
 90
        0
 40
-0.6
 41
-30.0
 62
     5
 63
     7
 74
     1
 91
        4
 64
     7
 65
   257
 75
     1
175
     1
 42
1.0
 92
        0
 66
   257
 43
1.0
 76
     1
 77
     6
 78
     2
 67
     7
 79
     5
170
     0
171
     0
290
     0
174
     0
 93
        1
 44
0.0
173
     0
291
     0
 45
0.0
1001
ACAD
1000
AcDbSavedByObjectVersion
1070
     0
  0
VISUALSTYLE
  5
31
102
{ACAD_REACTORS
330
2A
102
}
330
2A
100
AcDbVisualStyle
  2
3D Hidden
 70
     6
 71
     1
 72
     2
 73
     2
 90
        0
 40
-0.6
 41
-30.0
 62
     5
 63
     7
 74
     2
 91
        2
 64
     7
 65
   257
 75
     2
175
     1
 42
40.0
 92
        0
 66
   257
 43
1.0
 76
     1
 77
     6
 78
     2
 67
     7
 79
     3
170
     0
171
     0
290
     0
174
     0
 93
        1
 44
0.0
173
     0
291
     0
 45
0.0
1001
ACAD
1000
AcDbSavedByObjectVersion
1070
     0
  0
VISUALSTYLE
  5
30
102
{ACAD_REACTORS
330
2A
102
}
330
2A
100
AcDbVisualStyle
  2
3dWireframe
 70
     5
 71
     0
 72
     2
 73
     0
 90
        0
 40
-0.6
 41
-30.0
 62
     5
 63
     7
 74
     1
 91
        4
 64
     7
 65
   257
 75
     1
175
     1
 42
1.0
 92
        0
 66
   257
 43
1.0
 76
     1
 77
     6
 78
     2
 67
     7
 79
     5
170
     0
171
     0
290
     0
174
     0
 93
        1
 44
0.0
173
     0
291
     0
 45
0.0
1001
ACAD
1000
AcDbSavedByObjectVersion
1070
     0
  0
VISUALSTYLE
  5
32
102
{ACAD_REACTORS
330
2A
102
}
330
2A
100
AcDbVisualStyle
  2
Basic
 70
     7
 71
     1
 72
     0
 73
     1
 90
        0
 40
-0.6
 41
-30.0
 62
     5
 63
     7
 74
     0
 91
        4
 64
     7
 65
   257
 75
     1
175
     1
 42
1.0
 92
        8
 66
     7
 43
1.0
 76
     1
 77
     6
 78
     2
 67
     7
 79
     5
170
     0
171
     0
290
     0
174
     0
 93
        1
 44
0.0
173
     0
291
     1
 45
0.0
1001
ACAD
1000
AcDbSavedByObjectVersion
1070
     0
  0
VISUALSTYLE
  5
36
102
{ACAD_REACTORS
330
2A
102
}
330
2A
100
AcDbVisualStyle
  2
Brighten
 70
    12
 71
     2
 72
     2
 73
     0
 90
        0
 40
-0.6
 41
-30.0
 62
     5
 63
     7
 74
     1
 91
        4
 64
     7
 65
   257
 75
     1
175
     1
 42
1.0
 92
        8
 66
     7
 43
1.0
 76
     1
 77
     6
 78
     2
 67
     7
 79
     5
170
     0
171
     0
290
     0
174
     0
 93
        1
 44
50.0
173
     0
291
     1
 45
0.0
1001
ACAD
1000
AcDbSavedByObjectVersion
1070
     0
  0
VISUALSTYLE
  5
3A
102
{ACAD_REACTORS
330
2A
102
}
330
2A
100
AcDbVisualStyle
  2
ColorChange
 70
    16
 71
     2
 72
     2
 73
     3
 90
        0
 40
-0.6
 41
-30.0
 62
     5
 63
     8
 74
     1
 91
        4
 64
     7
 65
   257
 75
     1
175
     1
 42
1.0
 92
        8
 66
     8
 43
1.0
 76
     1
 77
     6
 78
     2
 67
     7
 79
     5
170
     0
171
     0
290
     0
174
     0
 93
        1
 44
0.0
173
     0
291
     1
 45
0.0
1001
ACAD
1000
AcDbSavedByObjectVersion
1070
     0
  0
VISUALSTYLE
  5
34
102
{ACAD_REACTORS
330
2A
102
}
330
2A
100
AcDbVisualStyle
  2
Conceptual
 70
     9
 71
     3
 72
     2
 73
     0
 90
        0
 40
-0.6
 41
-30.0
 62
     5
 63
     7
 74
     2
 91
        2
 64
     7
 65
   257
 75
     1
175
     1
 42
40.0
 92
        8
 66
     7
 43
1.0
 76
     1
 77
     6
 78
     2
 67
     7
 79
     3
170
     0
171
     0
290
     0
174
     0
 93
        1
 44
0.0
173
     0
291
     0
 45
0.0
1001
ACAD
1000
AcDbSavedByObjectVersion
1070
     0
  0
VISUALSTYLE
  5
35
102
{ACAD_REACTORS
330
2A
102
}
330
2A
100
AcDbVisualStyle
  2
Dim
 70
    11
 71
     2
 72
     2
 73
     0
 90
        0
 40
-0.6
 41
-30.0
 62
     5
 63
     7
 74
     1
 91
        4
 64
     7
 65
   257
 75
     1
175
     1
 42
1.0
 92
        8
 66
     7
 43
1.0
 76
     1
 77
     6
 78
     2
 67
     7
 79
     5
170
     0
171
     0
290
     0
174
     0
 93
        1
 44
-50.0
173
     0
291
     1
 45
0.0
1001
ACAD
1000
AcDbSavedByObjectVersion
1070
     0
  0
VISUALSTYLE
  5
39
102
{ACAD_REACTORS
330
2A
102
}
330
2A
100
AcDbVisualStyle
  2
Facepattern
 70
    15
 71
     2
 72
     2
 73
     0
 90
        0
 40
-0.6
 41
-30.0
 62
     5
 63
     7
 74
     1
 91
        4
 64
     7
 65
   257
 75
     1
175
     1
 42
1.0
 92
        8
 66
     7
 43
1.0
 76
     1
 77
     6
 78
     2
 67
     7
 79
     5
170
     0
171
     0
290
     0
174
     0
 93
        1
 44
0.0
173
     0
291
     1
 45
0.0
1001
ACAD
1000
AcDbSavedByObjectVersion
1070
     0
  0
VISUALSTYLE
  5
2B
102
{ACAD_REACTORS
330
2A
102
}
330
2A
100
AcDbVisualStyle
  2
Flat
 70
     0
 71
     2
 72
     1
 73
     1
 90
        2
 40
-0.6
 41
30.0
 62
     5
 63
     7
 74
     0
 91
        4
 64
     7
 65
   257
 75
     1
175
     1
 42
1.0
 92
        8
 66
     7
 43
1.0
 76
     1
 77
     6
 78
     2
 67
     7
 79
     5
170
     0
171
     0
290
     0
174
     0
 93
       13
 44
0.0
173
     0
291
     1
 45
0.0
1001
ACAD
1000
AcDbSavedByObjectVersion
1070
     0
  0
VISUALSTYLE
  5
2C
102
{ACAD_REACTORS
330
2A
102
}
330
2A
100
AcDbVisualStyle
  2
FlatWithEdges
 70
     1
 71
     2
 72
     1
 73
     1
 90
        2
 40
-0.6
 41
30.0
 62
     5
 63
     7
 74
     1
 91
        4
 64
     7
 65
   257
 75
     1
175
     1
 42
1.0
 92
        0
 66
   257
 43
1.0
 76
     1
 77
     6
 78
     2
 67
     7
 79
     5
170
     0
171
     0
290
     0
174
     0
 93
       13
 44
0.0
173
     0
291
     1
 45
0.0
1001
ACAD
1000
AcDbSavedByObjectVersion
1070
     0
  0
VISUALSTYLE
  5
2D
102
{ACAD_REACTORS
330
2A
102
}
330
2A
100
AcDbVisualStyle
  2
Gouraud
 70
     2
 71
     2
 72
     2
 73
     1
 90
        2
 40
-0.6
 41
30.0
 62
     5
 63
     7
 74
     0
 91
        4
 64
     7
 65
   257
 75
     1
175
     1
 42
1.0
 92
        0
 66
     7
 43
1.0
 76
     1
 77
     6
 78
     2
 67
     7
 79
     5
170
     0
171
     0
290
     0
174
     0
 93
       13
 44
0.0
173
     0
291
     1
 45
0.0
1001
ACAD
1000
AcDbSavedByObjectVersion
1070
     0
  0
VISUALSTYLE
  5
2E
102
{ACAD_REACTORS
330
2A
102
}
330
2A
100
AcDbVisualStyle
  2
GouraudWithEdges
 70
     3
 71
     2
 72
     2
 73
     1
 90
        2
 40
-0.6
 41
30.0
 62
     5
 63
     7
 74
     1
 91
        4
 64
     7
 65
   257
 75
     1
175
     1
 42
1.0
 92
        0
 66
   257
 43
1.0
 76
     1
 77
     6
 78
     2
 67
     7
 79
     5
170
     0
171
     0
290
     0
174
     0
 93
       13
 44
0.0
173
     0
291
     1
 45
0.0
1001
ACAD
1000
AcDbSavedByObjectVersion
1070
     0
  0
VISUALSTYLE
  5
38
102
{ACAD_REACTORS
330
2A
102
}
330
2A
100
AcDbVisualStyle
  2
Linepattern
 70
    14
 71
     2
 72
     2
 73
     0
 90
        0
 40
-0.6
 41
-30.0
 62
     5
 63
     7
 74
     1
 91
        4
 64
     7
 65
   257
 75
     7
175
     7
 42
1.0
 92
        8
 66
     7
 43
1.0
 76
     1
 77
     6
 78
     2
 67
     7
 79
     5
170
     0
171
     0
290
     0
174
     0
 93
        1
 44
0.0
173
     0
291
     1
 45
0.0
1001
ACAD
1000
AcDbSavedByObjectVersion
1070
     0
  0
VISUALSTYLE
  5
33
102
{ACAD_REACTORS
330
2A
102
}
330
2A
100
AcDbVisualStyle
  2
Realistic
 70
     8
 71
     2
 72
     2
 73
     0
 90
        0
 40
-0.6
 41
-30.0
 62
     5
 63
     7
 74
     1
 91
        0
 64
     7
 65
   257
 75
     1
175
     1
 42
1.0
 92
        8
 66
     8
 43
1.0
 76
     1
 77
     6
 78
     2
 67
     7
 79
     5
170
     0
171
     0
290
     0
174
     0
 93
       13
 44
0.0
173
     0
291
     0
 45
0.0
1001
ACAD
1000
AcDbSavedByObjectVersion
1070
     0
  0
VISUALSTYLE
  5
37
102
{ACAD_REACTORS
330
2A
102
}
330
2A
100
AcDbVisualStyle
  2
Thicken
 70
    13
 71
     2
 72
     2
 73
     0
 90
        0
 40
-0.6
 41
-30.0
 62
     5
 63
     7
 74
     1
 91
        4
 64
     7
 65
   257
 75
     1
175
     1
 42
1.0
 92
       12
 66
     7
 43
1.0
 76
     1
 77
     6
 78
     2
 67
     7
 79
     5
170
     0
171
     0
290
     0
174
     0
 93
        1
 44
0.0
173
     0
291
     1
 45
0.0
1001
ACAD
1000
AcDbSavedByObjectVersion
1070
     0
  0
DICTIONARYVAR
  5
355
102
{ACAD_REACTORS
330
353
102
}
330
353
100
DictionaryVariables
280
     0
  1
80.000000
  0
DICTIONARYVAR
  5
354
102
{ACAD_REACTORS
330
353
102
}
330
353
100
DictionaryVariables
280
     0
  1
5.000000
  0
DICTIONARY
  5
356
330
1E
100
AcDbDictionary
280
     1
281
     1
  3
ACAD_XREC_ROUNDTRIP
360
357
  0
DICTIONARY
  5
35A
330
26
100
AcDbDictionary
280
     1
281
     1
  3
ACAD_XREC_ROUNDTRIP
360
35B
  0
DICTIONARY
  5
358
330
22
100
AcDbDictionary
280
     1
281
     1
  3
ACAD_XREC_ROUNDTRIP
360
359
  0
XRECORD
  5
357
102
{ACAD_REACTORS
330
356
102
}
330
356
100
AcDbXrecord
280
     1
102
SHADEPLOT
 70
     0
102
SHADEPLOTRESLEVEL
 70
     5
102
SHADEPLOTCUSTOMDPI
 70
   300
  0
XRECORD
  5
35B
102
{ACAD_REACTORS
330
35A
102
}
330
35A
100
AcDbXrecord
280
     1
102
SHADEPLOT
 70
     0
102
SHADEPLOTRESLEVEL
 70
     5
102
SHADEPLOTCUSTOMDPI
 70
   300
  0
XRECORD
  5
359
102
{ACAD_REACTORS
330
358
102
}
330
358
100
AcDbXrecord
280
     1
102
SHADEPLOT
 70
     0
102
SHADEPLOTRESLEVEL
 70
     5
102
SHADEPLOTCUSTOMDPI
 70
   300
  0
ENDSEC
  0
EOF
