  0
SECTION
  2
HEADER
  9
$ACADVER
  1
AC1015
  9
$ACADMAINTVER
 70
     6
  9
$DWGCODEPAGE
  3
ANSI_932
  9
$INSBASE
 10
0.0
 20
0.0
 30
0.0
  9
$EXTMIN
 10
-2100.0
 20
-1485.0
 30
0.0
  9
$EXTMAX
 10
2100.0
 20
1485.0
 30
0.0
  9
$LIMMIN
 10
-2100.0
 20
-1485.0
  9
$LIMMAX
 10
2100.0
 20
1485.0
  9
$ORTHOMODE
 70
     0
  9
$REGENMODE
 70
     1
  9
$FILLMODE
 70
     1
  9
$QTEXTMODE
 70
     0
  9
$MIRRTEXT
 70
     1
  9
$LTSCALE
 40
10.0
  9
$ATTMODE
 70
     1
  9
$TEXTSIZE
 40
2.5
  9
$TRACEWID
 40
1.0
  9
$TEXTSTYLE
  7
Standard
  9
$CLAYER
  8
0
  9
$CELTYPE
  6
ByLayer
  9
$CECOLOR
 62
   256
  9
$CELTSCALE
 40
1.0
  9
$DISPSILH
 70
     0
  9
$DIMSCALE
 40
1.0
  9
$DIMASZ
 40
2.5
  9
$DIMEXO
 40
0.625
  9
$DIMDLI
 40
3.75
  9
$DIMRND
 40
0.0
  9
$DIMDLE
 40
0.0
  9
$DIMEXE
 40
1.25
  9
$DIMTP
 40
0.0
  9
$DIMTM
 40
0.0
  9
$DIMTXT
 40
2.5
  9
$DIMCEN
 40
2.5
  9
$DIMTSZ
 40
0.0
  9
$DIMTOL
 70
     0
  9
$DIMLIM
 70
     0
  9
$DIMTIH
 70
     0
  9
$DIMTOH
 70
     0
  9
$DIMSE1
 70
     0
  9
$DIMSE2
 70
     0
  9
$DIMTAD
 70
     1
  9
$DIMZIN
 70
     8
  9
$DIMBLK
  1

  9
$DIMASO
 70
     1
  9
$DIMSHO
 70
     1
  9
$DIMPOST
  1

  9
$DIMAPOST
  1

  9
$DIMALT
 70
     0
  9
$DIMALTD
 70
     3
  9
$DIMALTF
 40
0.03937007874016
  9
$DIMLFAC
 40
1.0
  9
$DIMTOFL
 70
     1
  9
$DIMTVP
 40
0.0
  9
$DIMTIX
 70
     0
  9
$DIMSOXD
 70
     0
  9
$DIMSAH
 70
     0
  9
$DIMBLK1
  1

  9
$DIMBLK2
  1

  9
$DIMSTYLE
  2
ISO-25
  9
$DIMCLRD
 70
     0
  9
$DIMCLRE
 70
     0
  9
$DIMCLRT
 70
     0
  9
$DIMTFAC
 40
1.0
  9
$DIMGAP
 40
0.625
  9
$DIMJUST
 70
     0
  9
$DIMSD1
 70
     0
  9
$DIMSD2
 70
     0
  9
$DIMTOLJ
 70
     0
  9
$DIMTZIN
 70
     8
  9
$DIMALTZ
 70
     0
  9
$DIMALTTZ
 70
     0
  9
$DIMUPT
 70
     0
  9
$DIMDEC
 70
     2
  9
$DIMTDEC
 70
     2
  9
$DIMALTU
 70
     2
  9
$DIMALTTD
 70
     3
  9
$DIMTXSTY
  7
Standard
  9
$DIMAUNIT
 70
     0
  9
$DIMADEC
 70
     0
  9
$DIMALTRND
 40
0.0
  9
$DIMAZIN
 70
     0
  9
$DIMDSEP
 70
    44
  9
$DIMATFIT
 70
     3
  9
$DIMFRAC
 70
     0
  9
$DIMLDRBLK
  1

  9
$DIMLUNIT
 70
     2
  9
$DIMLWD
 70
    -2
  9
$DIMLWE
 70
    -2
  9
$DIMTMOVE
 70
     0
  9
$LUNITS
 70
     2
  9
$LUPREC
 70
     4
  9
$SKETCHINC
 40
1.0
  9
$FILLETRAD
 40
10.0
  9
$AUNITS
 70
     0
  9
$AUPREC
 70
     0
  9
$MENU
  1
.
  9
$ELEVATION
 40
0.0
  9
$PELEVATION
 40
0.0
  9
$THICKNESS
 40
0.0
  9
$LIMCHECK
 70
     0
  9
$CHAMFERA
 40
10.0
  9
$CHAMFERB
 40
10.0
  9
$CHAMFERC
 40
20.0
  9
$CHAMFERD
 40
0.0
  9
$SKPOLY
 70
     0
  9
$TDCREATE
 40
2456905.401686782
  9
$TDUCREATE
 40
2456905.026686782
  9
$TDUPDATE
 40
2456905.401686794
  9
$TDUUPDATE
 40
2456905.026686794
  9
$TDINDWG
 40
0.0000000116
  9
$TDUSRTIMER
 40
0.0000000116
  9
$USRTIMER
 70
     1
  9
$ANGBASE
 50
0.0
  9
$ANGDIR
 70
     0
  9
$PDMODE
 70
     0
  9
$PDSIZE
 40
0.0
  9
$PLINEWID
 40
0.0
  9
$SPLFRAME
 70
     0
  9
$SPLINETYPE
 70
     6
  9
$SPLINESEGS
 70
     8
  9
$HANDSEED
  5
1B4
  9
$SURFTAB1
 70
     6
  9
$SURFTAB2
 70
     6
  9
$SURFTYPE
 70
     6
  9
$SURFU
 70
     6
  9
$SURFV
 70
     6
  9
$UCSBASE
  2

  9
$UCSNAME
  2

  9
$UCSORG
 10
0.0
 20
0.0
 30
0.0
  9
$UCSXDIR
 10
1.0
 20
0.0
 30
0.0
  9
$UCSYDIR
 10
0.0
 20
1.0
 30
0.0
  9
$UCSORTHOREF
  2

  9
$UCSORTHOVIEW
 70
     0
  9
$UCSORGTOP
 10
0.0
 20
0.0
 30
0.0
  9
$UCSORGBOTTOM
 10
0.0
 20
0.0
 30
0.0
  9
$UCSORGLEFT
 10
0.0
 20
0.0
 30
0.0
  9
$UCSORGRIGHT
 10
0.0
 20
0.0
 30
0.0
  9
$UCSORGFRONT
 10
0.0
 20
0.0
 30
0.0
  9
$UCSORGBACK
 10
0.0
 20
0.0
 30
0.0
  9
$PUCSBASE
  2

  9
$PUCSNAME
  2

  9
$PUCSORG
 10
0.0
 20
0.0
 30
0.0
  9
$PUCSXDIR
 10
1.0
 20
0.0
 30
0.0
  9
$PUCSYDIR
 10
0.0
 20
1.0
 30
0.0
  9
$PUCSORTHOREF
  2

  9
$PUCSORTHOVIEW
 70
     0
  9
$PUCSORGTOP
 10
0.0
 20
0.0
 30
0.0
  9
$PUCSORGBOTTOM
 10
0.0
 20
0.0
 30
0.0
  9
$PUCSORGLEFT
 10
0.0
 20
0.0
 30
0.0
  9
$PUCSORGRIGHT
 10
0.0
 20
0.0
 30
0.0
  9
$PUCSORGFRONT
 10
0.0
 20
0.0
 30
0.0
  9
$PUCSORGBACK
 10
0.0
 20
0.0
 30
0.0
  9
$USERI1
 70
     0
  9
$USERI2
 70
     0
  9
$USERI3
 70
     0
  9
$USERI4
 70
     0
  9
$USERI5
 70
     0
  9
$USERR1
 40
0.0
  9
$USERR2
 40
0.0
  9
$USERR3
 40
0.0
  9
$USERR4
 40
0.0
  9
$USERR5
 40
0.0
  9
$WORLDVIEW
 70
     1
  9
$SHADEDGE
 70
     3
  9
$SHADEDIF
 70
    70
  9
$TILEMODE
 70
     1
  9
$MAXACTVP
 70
    64
  9
$PINSBASE
 10
0.0
 20
0.0
 30
0.0
  9
$PLIMCHECK
 70
     0
  9
$PEXTMIN
 10
1.000000000000000E+20
 20
1.000000000000000E+20
 30
1.000000000000000E+20
  9
$PEXTMAX
 10
-1.000000000000000E+20
 20
-1.000000000000000E+20
 30
-1.000000000000000E+20
  9
$PLIMMIN
 10
0.0
 20
0.0
  9
$PLIMMAX
 10
420.0
 20
297.0
  9
$UNITMODE
 70
     0
  9
$VISRETAIN
 70
     1
  9
$PLINEGEN
 70
     0
  9
$PSLTSCALE
 70
     1
  9
$TREEDEPTH
 70
  3020
  9
$CMLSTYLE
  2
Standard
  9
$CMLJUST
 70
     0
  9
$CMLSCALE
 40
20.0
  9
$PROXYGRAPHICS
 70
     1
  9
$MEASUREMENT
 70
     1
  9
$CELWEIGHT
370
    -1
  9
$ENDCAPS
280
     0
  9
$JOINSTYLE
280
     0
  9
$LWDISPLAY
290
     0
  9
$INSUNITS
 70
     4
  9
$HYPERLINKBASE
  1

  9
$STYLESHEET
  1

  9
$XEDIT
290
     1
  9
$CEPSNTYPE
380
     0
  9
$PSTYLEMODE
290
     1
  9
$FINGERPRINTGUID
  2
{802E7F56-25EB-4359-A38A-E09C85708D0D}
  9
$VERSIONGUID
  2
{FAEB1C32-E019-11D5-929B-00C0DF256EC4}
  9
$EXTNAMES
290
     1
  9
$PSVPSCALE
 40
0.0
  9
$OLESTARTUP
290
     0
  0
ENDSEC
  0
SECTION
  2
CLASSES
  0
CLASS
  1
ACDBDICTIONARYWDFLT
  2
AcDbDictionaryWithDefault
  3
ObjectDBX Classes
 90
        0
280
     0
281
     0
  0
CLASS
  1
VISUALSTYLE
  2
AcDbVisualStyle
  3
ObjectDBX Classes
 90
     4095
280
     0
281
     0
  0
CLASS
  1
DICTIONARYVAR
  2
AcDbDictionaryVar
  3
ObjectDBX Classes
 90
        0
280
     0
281
     0
  0
CLASS
  1
ACDBPLACEHOLDER
  2
AcDbPlaceHolder
  3
ObjectDBX Classes
 90
        0
280
     0
281
     0
  0
CLASS
  1
LAYOUT
  2
AcDbLayout
  3
ObjectDBX Classes
 90
        0
280
     0
281
     0
  0
ENDSEC
  0
SECTION
  2
TABLES
  0
TABLE
  2
VPORT
  5
8
330
0
100
AcDbSymbolTable
 70
     1
  0
VPORT
  5
29
330
8
100
AcDbSymbolTableRecord
100
AcDbViewportTableRecord
  2
*Active
 70
     0
 10
0.0
 20
0.0
 11
1.0
 21
1.0
 12
0.0
 22
0.0
 13
0.0
 23
0.0
 14
10.0
 24
10.0
 15
10.0
 25
10.0
 16
0.0
 26
0.0
 36
1.0
 17
0.0
 27
0.0
 37
0.0
 40
3267.0
 41
1.414141414141414
 42
50.0
 43
0.0
 44
0.0
 50
0.0
 51
0.0
 71
     0
 72
 10000
 73
     1
 74
     3
 75
     0
 76
     0
 77
     0
 78
     0
281
     0
 65
     1
110
0.0
120
0.0
130
0.0
111
1.0
121
0.0
131
0.0
112
0.0
122
1.0
132
0.0
 79
     0
146
0.0
  0
ENDTAB
  0
TABLE
  2
LTYPE
  5
5
330
0
100
AcDbSymbolTable
 70
     4
  0
LTYPE
  5
14
330
5
100
AcDbSymbolTableRecord
100
AcDbLinetypeTableRecord
  2
ByBlock
 70
     0
  3

 72
    65
 73
     0
 40
0.0
  0
LTYPE
  5
15
330
5
100
AcDbSymbolTableRecord
100
AcDbLinetypeTableRecord
  2
ByLayer
 70
     0
  3

 72
    65
 73
     0
 40
0.0
  0
LTYPE
  5
16
330
5
100
AcDbSymbolTableRecord
100
AcDbLinetypeTableRecord
  2
Continuous
 70
     0
  3
Solid line
 72
    65
 73
     0
 40
0.0
  0
LTYPE
  5
3C
330
5
100
AcDbSymbolTableRecord
100
AcDbLinetypeTableRecord
  2
JWW_CENTER2
 70
     0
  3
-------------  --  -------------
 72
    65
 73
     4
 40
13.54666666666667
 49
11.00666666666667
 74
     0
 49
-0.8466666666666667
 74
     0
 49
0.8466666666666667
 74
     0
 49
-0.8466666666666667
 74
     0
  0
LTYPE
  5
3D
330
5
100
AcDbSymbolTableRecord
100
AcDbLinetypeTableRecord
  2
JWW_CENTER1
 70
     0
  3
-----  --  ----------  --  -----
 72
    65
 73
     4
 40
6.773333333333333
 49
4.233333333333333
 74
     0
 49
-0.8466666666666667
 74
     0
 49
0.8466666666666667
 74
     0
 49
-0.8466666666666667
 74
     0
  0
LTYPE
  5
3E
330
5
100
AcDbSymbolTableRecord
100
AcDbLinetypeTableRecord
  2
JWW_PHANTOM2
 70
     0
  3
------------  -  -  ------------
 72
    65
 73
     6
 40
13.54666666666667
 49
10.16
 74
     0
 49
-0.8466666666666667
 74
     0
 49
0.4233333333333333
 74
     0
 49
-0.8466666666666667
 74
     0
 49
0.4233333333333333
 74
     0
 49
-0.8466666666666667
 74
     0
  0
ENDTAB
  0
TABLE
  2
LAYER
  5
2
330
0
100
AcDbSymbolTable
 70
    12
  0
LAYER
  5
10
330
2
100
AcDbSymbolTableRecord
100
AcDbLayerTableRecord
  2
0
 70
     0
 62
     7
  6
Continuous
370
    -3
390
F
  0
LAYER
  5
3F
330
2
100
AcDbSymbolTableRecord
100
AcDbLayerTableRecord
  2
通り芯
 70
     0
 62
     7
  6
Continuous
370
    -3
390
F
  0
LAYER
  5
40
330
2
100
AcDbSymbolTableRecord
100
AcDbLayerTableRecord
  2
092
 70
     0
 62
     7
  6
Continuous
370
    -3
390
F
  0
LAYER
  5
41
330
2
100
AcDbSymbolTableRecord
100
AcDbLayerTableRecord
  2
1-0ﾚｲﾔ
 70
     0
 62
     7
  6
Continuous
370
    -3
390
F
  0
LAYER
  5
42
330
2
100
AcDbSymbolTableRecord
100
AcDbLayerTableRecord
  2
躯体
 70
     0
 62
     7
  6
Continuous
370
    -3
390
F
  0
LAYER
  5
43
330
2
100
AcDbSymbolTableRecord
100
AcDbLayerTableRecord
  2
_2-c_Shi
 70
     0
 62
     7
  6
Continuous
370
    -3
390
F
  0
LAYER
  5
44
330
2
100
AcDbSymbolTableRecord
100
AcDbLayerTableRecord
  2
_2-a_N_s
 70
     0
 62
     7
  6
Continuous
370
    -3
390
F
  0
LAYER
  5
45
330
2
100
AcDbSymbolTableRecord
100
AcDbLayerTableRecord
  2
3-F
 70
     0
 62
     7
  6
Continuous
370
    -3
390
F
  0
LAYER
  5
46
330
2
100
AcDbSymbolTableRecord
100
AcDbLayerTableRecord
  2
Hojo
 70
     0
 62
     7
  6
Continuous
370
    -3
390
F
  0
LAYER
  5
47
330
2
100
AcDbSymbolTableRecord
100
AcDbLayerTableRecord
  2
2-Fﾚｲﾔ
 70
     0
 62
     7
  6
Continuous
370
    -3
390
F
  0
LAYER
  5
48
330
2
100
AcDbSymbolTableRecord
100
AcDbLayerTableRecord
  2
F-Fﾚｲﾔ
 70
     0
 62
     7
  6
Continuous
370
    -3
390
F
  0
LAYER
  5
49
330
2
100
AcDbSymbolTableRecord
100
AcDbLayerTableRecord
  2
仕上
 70
     0
 62
     7
  6
Continuous
370
    -3
390
F
  0
ENDTAB
  0
TABLE
  2
STYLE
  5
3
330
0
100
AcDbSymbolTable
 70
     2
  0
STYLE
  5
11
330
3
100
AcDbSymbolTableRecord
100
AcDbTextStyleTableRecord
  2
Standard
 70
     0
 40
0.0
 41
1.0
 50
0.0
 71
     0
 42
2.5
  3
txt
  4

1001
ACAD
1000

1071
        0
  0
STYLE
  5
3B
330
3
100
AcDbSymbolTableRecord
100
AcDbTextStyleTableRecord
  2
ＭＳ ゴシック
 70
     0
 40
1.0
 41
1.0
 50
0.0
 71
     0
 42
10.0
  3

  4

1001
ACAD
1000
MS Gothic
1071
    32817
  0
ENDTAB
  0
TABLE
  2
VIEW
  5
6
330
0
100
AcDbSymbolTable
 70
     0
  0
ENDTAB
  0
TABLE
  2
UCS
  5
7
330
0
100
AcDbSymbolTable
 70
     0
  0
ENDTAB
  0
TABLE
  2
APPID
  5
9
330
0
100
AcDbSymbolTable
 70
     1
  0
APPID
  5
12
330
9
100
AcDbSymbolTableRecord
100
AcDbRegAppTableRecord
  2
ACAD
 70
     0
  0
ENDTAB
  0
TABLE
  2
DIMSTYLE
  5
A
330
0
100
AcDbSymbolTable
 70
     1
100
AcDbDimStyleTable
  0
DIMSTYLE
105
27
330
A
100
AcDbSymbolTableRecord
100
AcDbDimStyleTableRecord
  2
ISO-25
 70
     0
 41
2.5
 42
0.625
 43
3.75
 44
1.25
 73
     0
 74
     0
 77
     1
 78
     8
140
2.5
141
2.5
143
0.03937007874016
147
0.625
171
     3
172
     1
271
     2
272
     2
274
     3
278
    44
283
     0
284
     8
340
11
  0
ENDTAB
  0
TABLE
  2
BLOCK_RECORD
  5
1
330
0
100
AcDbSymbolTable
 70
     1
  0
BLOCK_RECORD
  5
1F
330
1
100
AcDbSymbolTableRecord
100
AcDbBlockTableRecord
  2
*Model_Space
340
22
  0
BLOCK_RECORD
  5
1B
330
1
100
AcDbSymbolTableRecord
100
AcDbBlockTableRecord
  2
*Paper_Space
340
1E
  0
BLOCK_RECORD
  5
23
330
1
100
AcDbSymbolTableRecord
100
AcDbBlockTableRecord
  2
*Paper_Space0
340
26
  0
ENDTAB
  0
ENDSEC
  0
SECTION
  2
BLOCKS
  0
BLOCK
  5
20
330
1F
100
AcDbEntity
  8
0
100
AcDbBlockBegin
  2
*Model_Space
 70
     0
 10
0.0
 20
0.0
 30
0.0
  3
*Model_Space
  1

  0
ENDBLK
  5
21
330
1F
100
AcDbEntity
  8
0
100
AcDbBlockEnd
  0
BLOCK
  5
1C
330
1B
100
AcDbEntity
 67
     1
  8
0
100
AcDbBlockBegin
  2
*Paper_Space
 70
     0
 10
0.0
 20
0.0
 30
0.0
  3
*Paper_Space
  1

  0
ENDBLK
  5
1D
330
1B
100
AcDbEntity
 67
     1
  8
0
100
AcDbBlockEnd
  0
BLOCK
  5
24
330
23
100
AcDbEntity
  8
0
100
AcDbBlockBegin
  2
*Paper_Space0
 70
     0
 10
0.0
 20
0.0
 30
0.0
  3
*Paper_Space0
  1

  0
ENDBLK
  5
25
330
23
100
AcDbEntity
  8
0
100
AcDbBlockEnd
  0
ENDSEC
  0
SECTION
  2
ENTITIES
  0
LINE
  5
4A
330
1F
100
AcDbEntity
  8
通り芯
  6
Continuous
 62
     4
370
     9
100
AcDbLine
 10
195.5909767666381
 20
818.9233001502785
 30
0.0
 11
205.5907623187917
 21
818.9233001502785
 31
0.0
  0
LINE
  5
4B
330
1F
100
AcDbEntity
  8
通り芯
  6
Continuous
 62
     4
370
     9
100
AcDbLine
 10
195.5909767666381
 20
393.9233826302194
 30
0.0
 11
205.5907623187917
 21
393.9233826302194
 31
0.0
  0
LINE
  5
4C
330
1F
100
AcDbEntity
  8
通り芯
  6
Continuous
 62
     4
370
     9
100
AcDbLine
 10
205.5907623187917
 20
368.9230527104559
 30
0.0
 11
555.5906798388512
 21
368.9230527104559
 31
0.0
  0
LINE
  5
4D
330
1F
100
AcDbEntity
  8
通り芯
  6
Continuous
 62
     4
370
     9
100
AcDbLine
 10
205.5907623187917
 20
843.9231351903968
 30
0.0
 11
555.5906798388512
 21
843.9231351903968
 31
0.0
  0
LINE
  5
4E
330
1F
100
AcDbEntity
  8
通り芯
  6
Continuous
 62
     4
370
     9
100
AcDbLine
 10
205.5907623187917
 20
386.9233100478715
 30
0.0
 11
555.5906798388512
 21
386.9233100478715
 31
0.0
  0
LINE
  5
4F
330
1F
100
AcDbEntity
  8
通り芯
  6
Continuous
 62
     4
370
     9
100
AcDbLine
 10
205.5907623187917
 20
386.9233100478715
 30
0.0
 11
212.5908349011397
 21
393.9233826302194
 31
0.0
  0
LINE
  5
50
330
1F
100
AcDbEntity
  8
通り芯
  6
Continuous
 62
     4
370
     9
100
AcDbLine
 10
205.5907623187917
 20
825.9233727326264
 30
0.0
 11
555.5906798388512
 21
825.9233727326264
 31
0.0
  0
LINE
  5
51
330
1F
100
AcDbEntity
  8
通り芯
  6
Continuous
 62
     4
370
     9
100
AcDbLine
 10
212.5908349011397
 20
818.9233001502785
 30
0.0
 11
212.5908349011397
 21
393.9233826302194
 31
0.0
  0
LINE
  5
52
330
1F
100
AcDbEntity
  8
通り芯
  6
Continuous
 62
     4
370
     9
100
AcDbLine
 10
212.5908349011397
 20
818.9233001502785
 30
0.0
 11
205.5907623187917
 21
825.9233727326264
 31
0.0
  0
LINE
  5
53
330
1F
100
AcDbEntity
  8
通り芯
  6
Continuous
 62
     4
370
     9
100
AcDbLine
 10
555.5906798388512
 20
843.9231351903968
 30
0.0
 11
555.5906798388512
 21
368.9230527104559
 31
0.0
  0
LINE
  5
54
330
1F
100
AcDbEntity
  8
通り芯
  6
Continuous
 62
     4
370
     9
100
AcDbLine
 10
212.5908349011397
 20
818.9233001502785
 30
0.0
 11
548.5906072565033
 21
818.9233001502785
 31
0.0
  0
LINE
  5
55
330
1F
100
AcDbEntity
  8
通り芯
  6
Continuous
 62
     4
370
     9
100
AcDbLine
 10
548.5906072565033
 20
818.9233001502785
 30
0.0
 11
555.5906798388512
 21
825.9233727326264
 31
0.0
  0
LINE
  5
56
330
1F
100
AcDbEntity
  8
通り芯
  6
Continuous
 62
     4
370
     9
100
AcDbLine
 10
548.5906072565033
 20
818.9233001502785
 30
0.0
 11
548.5906072565033
 21
393.9233826302194
 31
0.0
  0
LINE
  5
57
330
1F
100
AcDbEntity
  8
通り芯
  6
Continuous
 62
     4
370
     9
100
AcDbLine
 10
212.5908349011397
 20
393.9233826302194
 30
0.0
 11
548.5906072565033
 21
393.9233826302194
 31
0.0
  0
LINE
  5
58
330
1F
100
AcDbEntity
  8
通り芯
  6
Continuous
 62
     4
370
     9
100
AcDbLine
 10
548.5906072565033
 20
393.9233826302194
 30
0.0
 11
555.5906798388512
 21
386.9233100478715
 31
0.0
  0
LINE
  5
59
330
1F
100
AcDbEntity
  8
通り芯
  6
Continuous
 62
     4
370
     9
100
AcDbLine
 10
195.5909767666381
 20
818.9233001502785
 30
0.0
 11
195.5909767666381
 21
393.9233826302194
 31
0.0
  0
LINE
  5
5A
330
1F
100
AcDbEntity
  8
通り芯
  6
Continuous
 62
     4
370
     9
100
AcDbLine
 10
195.5909767666381
 20
818.9233001502785
 30
0.0
 11
195.5909767666381
 21
1041.350173434696
 31
0.0
  0
LINE
  5
5B
330
1F
100
AcDbEntity
  8
通り芯
  6
Continuous
 62
     4
370
     9
100
AcDbLine
 10
195.5909767666381
 20
1041.350173434696
 30
0.0
 11
195.5909767666381
 21
1041.423415622196
 31
0.0
  0
LINE
  5
5C
330
1F
100
AcDbEntity
  8
通り芯
  6
Continuous
 62
     4
370
     9
100
AcDbLine
 10
195.5909767666381
 20
1041.423415622196
 30
0.0
 11
205.5907623187917
 21
1041.423415622196
 31
0.0
  0
LINE
  5
5D
330
1F
100
AcDbEntity
  8
通り芯
  6
Continuous
 62
     4
370
     9
100
AcDbLine
 10
195.5909767666381
 20
393.9233826302194
 30
0.0
 11
195.5909767666381
 21
171.4233908782134
 31
0.0
  0
LINE
  5
5E
330
1F
100
AcDbEntity
  8
通り芯
  6
Continuous
 62
     4
370
     9
100
AcDbLine
 10
205.5907623187917
 20
1041.423415622196
 30
0.0
 11
205.5907623187917
 21
171.4233908782134
 31
0.0
  0
LINE
  5
5F
330
1F
100
AcDbEntity
  8
通り芯
  6
Continuous
 62
     4
370
     9
100
AcDbLine
 10
195.5909767666381
 20
171.4233908782134
 30
0.0
 11
205.5907623187917
 21
171.4233908782134
 31
0.0
  0
LINE
  5
60
330
1F
100
AcDbEntity
  8
092
  6
Continuous
 62
     7
370
     9
100
AcDbLine
 10
721.0418121234793
 20
843.9231351903968
 30
0.0
 11
721.0418121234793
 21
368.9230527104559
 31
0.0
  0
LINE
  5
61
330
1F
100
AcDbEntity
  8
092
  6
Continuous
 62
     7
370
     9
100
AcDbLine
 10
585.5905313749574
 20
843.9231351903968
 30
0.0
 11
724.0417725331079
 21
843.9231351903968
 31
0.0
  0
LINE
  5
62
330
1F
100
AcDbEntity
  8
092
  6
Continuous
 62
     7
370
     9
100
AcDbLine
 10
585.5905313749574
 20
368.9230527104559
 30
0.0
 11
724.0417725331079
 21
368.9230527104559
 31
0.0
  0
LINE
  5
63
330
1F
100
AcDbEntity
  8
092
  6
Continuous
 62
     7
370
     9
100
AcDbLine
 10
195.5909767666381
 20
33.90437925184102
 30
0.0
 11
205.5907623187917
 21
33.90437925184102
 31
0.0
  0
LINE
  5
64
330
1F
100
AcDbEntity
  8
092
  6
Continuous
 62
     7
370
     9
100
AcDbLine
 10
195.5909767666381
 20
141.4232919022845
 30
0.0
 11
195.5909767666381
 21
30.90441884221264
 31
0.0
  0
LINE
  5
65
330
1F
100
AcDbEntity
  8
092
  6
Continuous
 62
     7
370
     9
100
AcDbLine
 10
205.5907623187917
 20
141.4232919022845
 30
0.0
 11
205.5907623187917
 21
30.90441884221264
 31
0.0
  0
LINE
  5
66
330
1F
100
AcDbEntity
  8
092
  6
Continuous
 62
     7
370
     9
100
AcDbLine
 10
555.5906798388512
 20
338.9230774544382
 30
0.0
 11
555.5906798388512
 21
30.90441884221264
 31
0.0
  0
LINE
  5
67
330
1F
100
AcDbEntity
  8
092
  6
Continuous
 62
     7
370
     9
100
AcDbLine
 10
195.5909767666381
 20
-65.76017482860664
 30
0.0
 11
555.5906798388512
 21
-65.76017482860664
 31
0.0
  0
LINE
  5
68
330
1F
100
AcDbEntity
  8
092
  6
Continuous
 62
     7
370
     9
100
AcDbLine
 10
555.5906798388512
 20
31.82774054037566
 30
0.0
 11
555.5906798388512
 21
-68.76013523823502
 31
0.0
  0
LINE
  5
69
330
1F
100
AcDbEntity
  8
092
  6
Continuous
 62
     7
370
     9
100
AcDbLine
 10
195.5909767666381
 20
32.5458109056629
 30
0.0
 11
195.5909767666381
 21
-68.76013523823502
 31
0.0
  0
LINE
  5
6A
330
1F
100
AcDbEntity
  8
092
  6
Continuous
 62
     7
370
     9
100
AcDbLine
 10
150.2741053297714
 20
33.90437925184102
 30
0.0
 11
555.5906798388512
 21
33.90437925184102
 31
0.0
  0
LINE
  5
6B
330
1F
100
AcDbEntity
  8
092
  6
Continuous
 62
     7
370
     9
100
AcDbLine
 10
380.2859989372462
 20
843.9231351903968
 30
0.0
 11
386.7914393141464
 21
868.0621270875673
 31
0.0
  0
LINE
  5
6C
330
1F
100
AcDbEntity
  8
092
  6
Continuous
 62
     7
370
     9
100
AcDbLine
 10
380.2859989372462
 20
843.9231351903968
 30
0.0
 11
392.8175887546027
 21
865.5555616842736
 31
0.0
  0
LINE
  5
6D
330
1F
100
AcDbEntity
  8
1-0ﾚｲﾔ
  6
Continuous
 62
     7
370
     9
100
AcDbLine
 10
973.5811220633022
 20
970.3309853012499
 30
0.0
 11
1669.73574225967
 21
970.3309853012499
 31
0.0
  0
LINE
  5
6E
330
1F
100
AcDbEntity
  8
1-0ﾚｲﾔ
  6
Continuous
 62
     7
370
     9
100
AcDbLine
 10
1669.73574225967
 20
960.8859598314441
 30
0.0
 11
973.5811220633022
 21
960.8859598314441
 31
0.0
  0
LINE
  5
6F
330
1F
100
AcDbEntity
  8
1-0ﾚｲﾔ
  6
Continuous
 62
     7
370
     9
100
AcDbLine
 10
1669.73574225967
 20
765.8858113675503
 30
0.0
 11
973.5811220633022
 21
765.8858113675503
 31
0.0
  0
LINE
  5
70
330
1F
100
AcDbEntity
  8
1-0ﾚｲﾔ
  6
Continuous
 62
     7
370
     9
100
AcDbLine
 10
1669.73574225967
 20
700.8860917993493
 30
0.0
 11
973.5811220633022
 21
700.8860917993493
 31
0.0
  0
LINE
  5
71
330
1F
100
AcDbEntity
  8
1-0ﾚｲﾔ
  6
Continuous
 62
     7
370
     9
100
AcDbLine
 10
1669.73574225967
 20
570.8860340633908
 30
0.0
 11
973.5811220633022
 21
570.8860340633908
 31
0.0
  0
LINE
  5
72
330
1F
100
AcDbEntity
  8
1-0ﾚｲﾔ
  6
Continuous
 62
     7
370
     9
100
AcDbLine
 10
1669.73574225967
 20
635.8858773515033
 30
0.0
 11
973.5811220633022
 21
635.8858773515033
 31
0.0
  0
LINE
  5
73
330
1F
100
AcDbEntity
  8
1-0ﾚｲﾔ
  6
Continuous
 62
     7
370
     9
100
AcDbLine
 10
1669.73574225967
 20
440.885852607521
 30
0.0
 11
973.5811220633022
 21
440.885852607521
 31
0.0
  0
LINE
  5
74
330
1F
100
AcDbEntity
  8
1-0ﾚｲﾔ
  6
Continuous
 62
     7
370
     9
100
AcDbLine
 10
1669.73574225967
 20
505.8858196155447
 30
0.0
 11
973.5811220633022
 21
505.8858196155447
 31
0.0
  0
LINE
  5
75
330
1F
100
AcDbEntity
  8
1-0ﾚｲﾔ
  6
Continuous
 62
     7
370
     9
100
AcDbLine
 10
1669.73574225967
 20
375.8857618795858
 30
0.0
 11
973.5811220633022
 21
375.8857618795858
 31
0.0
  0
LINE
  5
76
330
1F
100
AcDbEntity
  8
1-0ﾚｲﾔ
  6
Continuous
 62
     7
370
     9
100
AcDbLine
 10
1669.73574225967
 20
310.886042311385
 30
0.0
 11
973.5811220633022
 21
310.886042311385
 31
0.0
  0
LINE
  5
77
330
1F
100
AcDbEntity
  8
1-0ﾚｲﾔ
  6
Continuous
 62
     7
370
     9
100
AcDbLine
 10
1669.73574225967
 20
245.8858278635387
 30
0.0
 11
973.5811220633022
 21
245.8858278635387
 31
0.0
  0
LINE
  5
78
330
1F
100
AcDbEntity
  8
1-0ﾚｲﾔ
  6
Continuous
 62
     7
370
     9
100
AcDbLine
 10
1669.73574225967
 20
180.8859845754262
 30
0.0
 11
973.5811220633022
 21
180.8859845754262
 31
0.0
  0
LINE
  5
79
330
1F
100
AcDbEntity
  8
1-0ﾚｲﾔ
  6
Continuous
 62
     7
370
     9
100
AcDbLine
 10
1669.73574225967
 20
115.8858938474913
 30
0.0
 11
973.5811220633022
 21
115.8858938474913
 31
0.0
  0
LINE
  5
7A
330
1F
100
AcDbEntity
  8
1-0ﾚｲﾔ
  6
Continuous
 62
     7
370
     9
100
AcDbLine
 10
1669.73574225967
 20
-14.11404016855613
 30
0.0
 11
973.5811220633022
 21
-14.11404016855613
 31
0.0
  0
LINE
  5
7B
330
1F
100
AcDbEntity
  8
1-0ﾚｲﾔ
  6
Continuous
 62
     7
370
     9
100
AcDbLine
 10
1669.73574225967
 20
50.88592683946757
 30
0.0
 11
973.5811220633022
 21
50.88592683946757
 31
0.0
  0
LINE
  5
7C
330
1F
100
AcDbEntity
  8
1-0ﾚｲﾔ
  6
Continuous
 62
     7
370
     9
100
AcDbLine
 10
1669.73574225967
 20
-79.11400717657955
 30
0.0
 11
973.5811220633022
 21
-79.11400717657955
 31
0.0
  0
LINE
  5
7D
330
1F
100
AcDbEntity
  8
1-0ﾚｲﾔ
  6
Continuous
 62
     7
370
     9
100
AcDbLine
 10
1669.73574225967
 20
-144.1142216244259
 30
0.0
 11
973.5811220633022
 21
-144.1142216244259
 31
0.0
  0
LINE
  5
7E
330
1F
100
AcDbEntity
  8
1-0ﾚｲﾔ
  6
Continuous
 62
     7
370
     9
100
AcDbLine
 10
1669.73574225967
 20
-209.1140649125383
 30
0.0
 11
973.5811220633022
 21
-209.1140649125383
 31
0.0
  0
LINE
  5
7F
330
1F
100
AcDbEntity
  8
1-0ﾚｲﾔ
  6
Continuous
 62
     7
370
     9
100
AcDbLine
 10
1669.73574225967
 20
1035.330952309273
 30
0.0
 11
973.5811220633022
 21
1035.330952309273
 31
0.0
  0
LINE
  5
80
330
1F
100
AcDbEntity
  8
1-0ﾚｲﾔ
  6
Continuous
 62
     7
370
     9
100
AcDbLine
 10
973.5811220633022
 20
1035.330952309273
 30
0.0
 11
973.5811220633022
 21
-209.1140649125383
 31
0.0
  0
LINE
  5
81
330
1F
100
AcDbEntity
  8
1-0ﾚｲﾔ
  6
Continuous
 62
     7
370
     9
100
AcDbLine
 10
1193.91218005
 20
-209.1140649125383
 30
0.0
 11
1193.91218005
 21
1035.330952309273
 31
0.0
  0
LINE
  5
82
330
1F
100
AcDbEntity
  8
1-0ﾚｲﾔ
  6
Continuous
 62
     7
370
     9
100
AcDbLine
 10
1431.825569513682
 20
1035.330952309273
 30
0.0
 11
1431.825569513682
 21
-209.1140649125383
 31
0.0
  0
LINE
  5
83
330
1F
100
AcDbEntity
  8
1-0ﾚｲﾔ
  6
Continuous
 62
     7
370
     9
100
AcDbLine
 10
1669.73574225967
 20
1035.330952309273
 30
0.0
 11
1669.73574225967
 21
-209.1140649125383
 31
0.0
  0
LINE
  5
84
330
1F
100
AcDbEntity
  8
1-0ﾚｲﾔ
  6
Continuous
 62
     7
370
     9
100
AcDbLine
 10
973.5811220633022
 20
1065.21722896679
 30
0.0
 11
1157.986144761782
 21
1065.21722896679
 31
0.0
  0
LINE
  5
85
330
1F
100
AcDbEntity
  8
1-0ﾚｲﾔ
  6
Continuous
 62
     7
370
     9
100
AcDbLine
 10
1193.91218005
 20
895.8857453835979
 30
0.0
 11
973.5811220633022
 21
895.8857453835979
 31
0.0
  0
LINE
  5
86
330
1F
100
AcDbEntity
  8
1-0ﾚｲﾔ
  6
Continuous
 62
     7
370
     9
100
AcDbLine
 10
1193.91218005
 20
830.8860258153968
 30
0.0
 11
973.5811220633022
 21
830.8860258153968
 31
0.0
  0
LINE
  5
87
330
1F
100
AcDbEntity
  8
躯体
  6
JWW_CENTER2
 62
     7
370
     9
100
AcDbLine
 10
152.8553975595014
 20
606.4232176703376
 30
0.0
 11
601.4447431306585
 21
606.4232176703376
 31
0.0
  0
LINE
  5
88
330
1F
100
AcDbEntity
  8
092
  6
Continuous
 62
     7
370
     9
100
AcDbLine
 10
658.9302101650756
 20
269.4779777526855
 30
0.0
 11
815.8280901006751
 21
269.4779777526855
 31
0.0
  0
LINE
  5
89
330
1F
100
AcDbEntity
  8
092
  6
Continuous
 62
     7
370
     9
100
AcDbLine
 10
658.9302101650756
 20
269.4779777526855
 30
0.0
 11
592.2894696931585
 21
492.6088173324999
 31
0.0
  0
LINE
  5
8A
330
1F
100
AcDbEntity
  8
092
  6
Continuous
 62
     7
370
     9
100
AcDbLine
 10
592.2894696931585
 20
492.6088173324999
 30
0.0
 11
459.4437302769845
 21
393.9233826302194
 31
0.0
  0
LINE
  5
8B
330
1F
100
AcDbEntity
  8
092
  6
Continuous
 62
     7
370
     9
100
AcDbLine
 10
459.4437302769845
 20
393.9233826302194
 30
0.0
 11
477.3947470896957
 21
411.3234746778335
 31
0.0
  0
LINE
  5
8C
330
1F
100
AcDbEntity
  8
092
  6
Continuous
 62
     7
370
     9
100
AcDbLine
 10
459.4437302769845
 20
393.9233826302194
 30
0.0
 11
481.2864806201009
 21
406.0844313131796
 31
0.0
  0
LINE
  5
8D
330
1F
100
AcDbEntity
  8
_2-c_Shi
  6
Continuous
 62
     2
370
     9
100
AcDbLine
 10
787.5942165787158
 20
-583.3585074141218
 30
0.0
 11
562.5934742592481
 21
-583.3585074141218
 31
0.0
  0
LINE
  5
8E
330
1F
100
AcDbEntity
  8
_2-c_Shi
  6
Continuous
 62
     2
370
     9
100
AcDbLine
 10
787.5942165787158
 20
-533.3582187343288
 30
0.0
 11
787.5942165787158
 21
-583.3585074141218
 31
0.0
  0
LINE
  5
8F
330
1F
100
AcDbEntity
  8
_2-c_Shi
  6
Continuous
 62
     2
370
     9
100
AcDbLine
 10
562.5934742592481
 20
-533.3582187343288
 30
0.0
 11
787.5942165787158
 21
-533.3582187343288
 31
0.0
  0
LINE
  5
90
330
1F
100
AcDbEntity
  8
_2-c_Shi
  6
Continuous
 62
     2
370
     9
100
AcDbLine
 10
562.5934742592481
 20
-583.3585074141218
 30
0.0
 11
562.5934742592481
 21
-533.3582187343288
 31
0.0
  0
LINE
  5
91
330
1F
100
AcDbEntity
  8
_2-a_N_s
  6
JWW_CENTER1
 62
     4
370
     9
100
AcDbLine
 10
-625.9587223465377
 20
-758.8915752720188
 30
0.0
 11
-654.1048784513728
 21
-758.8915752720188
 31
0.0
  0
LINE
  5
92
330
1F
100
AcDbEntity
  8
_2-a_N_s
  6
JWW_CENTER1
 62
     4
370
     9
100
AcDbLine
 10
-640.0317385389997
 20
-772.9647151843922
 30
0.0
 11
-640.0317385389997
 21
-744.818559079557
 31
0.0
  0
LINE
  5
93
330
1F
100
AcDbEntity
  8
3-F
  6
JWW_CENTER2
 62
     7
370
     9
100
AcDbLine
 10
-570.0321261947217
 20
-820.5443000793457
 30
0.0
 11
-570.0321261947217
 21
-456.4244765204353
 31
0.0
  0
LINE
  5
94
330
1F
100
AcDbEntity
  8
3-F
  6
JWW_CENTER2
 62
     7
370
     9
100
AcDbLine
 10
-458.7089499911744
 20
-658.8917402319007
 30
0.0
 11
-681.3553023982689
 21
-658.8917402319007
 31
0.0
  0
LINE
  5
95
330
1F
100
AcDbEntity
  8
_2-a_N_s
  6
JWW_CENTER1
 62
     4
370
     9
100
AcDbLine
 10
-514.1055300429059
 20
-758.8915752720188
 30
0.0
 11
-485.9593739380705
 21
-758.8915752720188
 31
0.0
  0
LINE
  5
96
330
1F
100
AcDbEntity
  8
_2-a_N_s
  6
JWW_CENTER1
 62
     4
370
     9
100
AcDbLine
 10
-500.0325138504439
 20
-772.9647151843922
 30
0.0
 11
-500.0325138504439
 21
-744.818559079557
 31
0.0
  0
CIRCLE
  5
97
330
1F
100
AcDbEntity
  8
3-F
  6
Continuous
 62
     2
370
     9
100
AcDbCircle
 10
-570.0321261947217
 20
-658.8917402319007
 30
0.0
 40
94.99999639150259
  0
CIRCLE
  5
98
330
1F
100
AcDbEntity
  8
3-F
  6
Continuous
 62
     2
370
     9
100
AcDbCircle
 10
-570.0321261947217
 20
-658.8917402319007
 30
0.0
 40
84.89999771118164
  0
CIRCLE
  5
99
330
1F
100
AcDbEntity
  8
_2-a_N_s
  6
Continuous
 62
     4
370
     9
100
AcDbCircle
 10
-640.0317385389997
 20
-758.8915752720188
 30
0.0
 40
8.499999626262769
  0
CIRCLE
  5
9A
330
1F
100
AcDbEntity
  8
_2-a_N_s
  6
Continuous
 62
     4
370
     9
100
AcDbCircle
 10
-500.0325138504439
 20
-758.8915752720188
 30
0.0
 40
8.499999626262769
  0
TEXT
  5
9B
330
1F
100
AcDbEntity
  8
092
  6
Continuous
 62
     2
370
     9
100
AcDbText
 10
158.4715722058273
 20
44.54427202791784
 30
0.0
 40
30.48
  1
2
 41
0.9999999999999998
  7
ＭＳ ゴシック
100
AcDbText
  0
TEXT
  5
9C
330
1F
100
AcDbEntity
  8
092
  6
Continuous
 62
     2
370
     9
100
AcDbText
 10
359.340968518644
 20
44.54427202791784
 30
0.0
 40
30.48
  1
70
 41
1.0625
  7
ＭＳ ゴシック
100
AcDbText
  0
TEXT
  5
9D
330
1F
100
AcDbEntity
  8
092
  6
Continuous
 62
     2
370
     9
100
AcDbText
 10
354.3407045828333
 20
-55.12028205252982
 30
0.0
 40
30.48
  1
72
 41
1.0625
  7
ＭＳ ゴシック
100
AcDbText
  0
TEXT
  5
9E
330
1F
100
AcDbEntity
  8
Hojo
  6
Continuous
 62
     2
370
     9
100
AcDbText
 10
1440.782363221452
 20
719.0260093194084
 30
0.0
 40
30.48
  1
１３５
 41
1.083333333333333
  7
ＭＳ ゴシック
100
AcDbText
  0
TEXT
  5
9F
330
1F
100
AcDbEntity
  8
Hojo
  6
Continuous
 62
     2
370
     9
100
AcDbText
 10
1440.782357853938
 20
589.0258278635046
 30
0.0
 40
30.48
  1
１６０
 50
0.0000545279412169
 41
1.083333333333333
  7
ＭＳ ゴシック
100
AcDbText
  0
TEXT
  5
A0
330
1F
100
AcDbEntity
  8
Hojo
  6
Continuous
 62
     2
370
     9
100
AcDbText
 10
1440.782387965435
 20
524.0261082953376
 30
0.0
 40
30.48
  1
１７２．５
 41
1.1
  7
ＭＳ ゴシック
100
AcDbText
  0
TEXT
  5
A1
330
1F
100
AcDbEntity
  8
Hojo
  6
Continuous
 62
     2
370
     9
100
AcDbText
 10
1440.782363221452
 20
459.0258938474913
 30
0.0
 40
30.48
  1
１８５
 41
1.083333333333333
  7
ＭＳ ゴシック
100
AcDbText
  0
TEXT
  5
A2
330
1F
100
AcDbEntity
  8
Hojo
  6
Continuous
 62
     2
370
     9
100
AcDbText
 10
1440.782387965435
 20
394.026050559379
 30
0.0
 40
30.48
  1
１９７．５
 41
1.1
  7
ＭＳ ゴシック
100
AcDbText
  0
TEXT
  5
A3
330
1F
100
AcDbEntity
  8
Hojo
  6
Continuous
 62
     2
370
     9
100
AcDbText
 10
1440.782363221452
 20
329.0259598314441
 30
0.0
 40
30.48
  1
２１０
 41
1.083333333333333
  7
ＭＳ ゴシック
100
AcDbText
  0
TEXT
  5
A4
330
1F
100
AcDbEntity
  8
Hojo
  6
Continuous
 62
     2
370
     9
100
AcDbText
 10
1440.782387965435
 20
264.0259928234204
 30
0.0
 40
30.48
  1
２２２．５
 41
1.1
  7
ＭＳ ゴシック
100
AcDbText
  0
TEXT
  5
A5
330
1F
100
AcDbEntity
  8
Hojo
  6
Continuous
 62
     2
370
     9
100
AcDbText
 10
1440.782363221452
 20
199.0259020954853
 30
0.0
 40
30.48
  1
２３５
 41
1.083333333333333
  7
ＭＳ ゴシック
100
AcDbText
  0
TEXT
  5
A6
330
1F
100
AcDbEntity
  8
Hojo
  6
Continuous
 62
     2
370
     9
100
AcDbText
 10
1440.782387965435
 20
134.026058807373
 30
0.0
 40
30.48
  1
２４７．５
 41
1.1
  7
ＭＳ ゴシック
100
AcDbText
  0
TEXT
  5
A7
330
1F
100
AcDbEntity
  8
Hojo
  6
Continuous
 62
     2
370
     9
100
AcDbText
 10
1440.782363221452
 20
69.02584435952669
 30
0.0
 40
30.48
  1
２６０
 41
1.083333333333333
  7
ＭＳ ゴシック
100
AcDbText
  0
TEXT
  5
A8
330
1F
100
AcDbEntity
  8
Hojo
  6
Continuous
 62
     2
370
     9
100
AcDbText
 10
1440.782387965435
 20
4.026124791325643
 30
0.0
 40
30.48
  1
２７２．５
 41
1.1
  7
ＭＳ ゴシック
100
AcDbText
  0
TEXT
  5
A9
330
1F
100
AcDbEntity
  8
Hojo
  6
Continuous
 62
     2
370
     9
100
AcDbText
 10
1440.782363221452
 20
-60.97408965652043
 30
0.0
 40
30.48
  1
２８５
 41
1.083333333333333
  7
ＭＳ ゴシック
100
AcDbText
  0
TEXT
  5
AA
330
1F
100
AcDbEntity
  8
Hojo
  6
Continuous
 62
     2
370
     9
100
AcDbText
 10
1440.782387965435
 20
-125.9739329446329
 30
0.0
 40
30.48
  1
２９７．５
 41
1.1
  7
ＭＳ ゴシック
100
AcDbText
  0
TEXT
  5
AB
330
1F
100
AcDbEntity
  8
Hojo
  6
Continuous
 62
     2
370
     9
100
AcDbText
 10
1202.867736558657
 20
719.0260093194084
 30
0.0
 40
30.48
  1
１００
 41
1.083333333333333
  7
ＭＳ ゴシック
100
AcDbText
  0
TEXT
  5
AC
330
1F
100
AcDbEntity
  8
Hojo
  6
Continuous
 62
     2
370
     9
100
AcDbText
 10
1202.867761302639
 20
654.026042311385
 30
0.0
 40
30.48
  1
１１２．５
 41
1.1
  7
ＭＳ ゴシック
100
AcDbText
  0
TEXT
  5
AD
330
1F
100
AcDbEntity
  8
Hojo
  6
Continuous
 62
     2
370
     9
100
AcDbText
 10
1202.867736558657
 20
589.0258278635387
 30
0.0
 40
30.48
  1
１２５
 41
1.083333333333333
  7
ＭＳ ゴシック
100
AcDbText
  0
TEXT
  5
AE
330
1F
100
AcDbEntity
  8
Hojo
  6
Continuous
 62
     2
370
     9
100
AcDbText
 10
1202.867767646166
 20
524.0261082953433
 30
0.0
 40
30.48
  1
１３７．５
 50
359.9999355579155
 41
1.099999999999999
  7
ＭＳ ゴシック
100
AcDbText
  0
TEXT
  5
AF
330
1F
100
AcDbEntity
  8
Hojo
  6
Continuous
 62
     2
370
     9
100
AcDbText
 10
1202.867736558657
 20
459.0258938474913
 30
0.0
 40
30.48
  1
１５０
 41
1.083333333333333
  7
ＭＳ ゴシック
100
AcDbText
  0
TEXT
  5
B0
330
1F
100
AcDbEntity
  8
Hojo
  6
Continuous
 62
     2
370
     9
100
AcDbText
 10
1202.867764474385
 20
394.0260505593827
 30
0.0
 40
30.48
  1
１６２．５
 50
359.9999677789577
 41
1.1
  7
ＭＳ ゴシック
100
AcDbText
  0
TEXT
  5
B1
330
1F
100
AcDbEntity
  8
Hojo
  6
Continuous
 62
     2
370
     9
100
AcDbText
 10
1202.867736558657
 20
329.0259598314441
 30
0.0
 40
30.48
  1
１７５
 41
1.083333333333333
  7
ＭＳ ゴシック
100
AcDbText
  0
TEXT
  5
B2
330
1F
100
AcDbEntity
  8
Hojo
  6
Continuous
 62
     2
370
     9
100
AcDbText
 10
1202.867767646166
 20
264.0259928234261
 30
0.0
 40
30.48
  1
１８７．５
 50
359.9999355579155
 41
1.099999999999999
  7
ＭＳ ゴシック
100
AcDbText
  0
TEXT
  5
B3
330
1F
100
AcDbEntity
  8
Hojo
  6
Continuous
 62
     2
370
     9
100
AcDbText
 10
1202.867736558657
 20
199.0259020954853
 30
0.0
 40
30.48
  1
２００
 41
1.083333333333333
  7
ＭＳ ゴシック
100
AcDbText
  0
TEXT
  5
B4
330
1F
100
AcDbEntity
  8
Hojo
  6
Continuous
 62
     2
370
     9
100
AcDbText
 10
1202.867767646166
 20
134.0260588073787
 30
0.0
 40
30.48
  1
２１２．５
 50
359.9999355579155
 41
1.099999999999999
  7
ＭＳ ゴシック
100
AcDbText
  0
TEXT
  5
B5
330
1F
100
AcDbEntity
  8
Hojo
  6
Continuous
 62
     2
370
     9
100
AcDbText
 10
1202.867736558657
 20
69.02584435952669
 30
0.0
 40
30.48
  1
２２５
 41
1.083333333333333
  7
ＭＳ ゴシック
100
AcDbText
  0
TEXT
  5
B6
330
1F
100
AcDbEntity
  8
Hojo
  6
Continuous
 62
     2
370
     9
100
AcDbText
 10
1202.867767646166
 20
4.02612479133149
 30
0.0
 40
30.48
  1
２３７．５
 50
359.9999355579155
 41
1.099999999999999
  7
ＭＳ ゴシック
100
AcDbText
  0
TEXT
  5
B7
330
1F
100
AcDbEntity
  8
Hojo
  6
Continuous
 62
     2
370
     9
100
AcDbText
 10
1202.867736558657
 20
-60.97408965652043
 30
0.0
 40
30.48
  1
２５０
 41
1.083333333333333
  7
ＭＳ ゴシック
100
AcDbText
  0
TEXT
  5
B8
330
1F
100
AcDbEntity
  8
Hojo
  6
Continuous
 62
     2
370
     9
100
AcDbText
 10
1202.867764474385
 20
-125.9739329446291
 30
0.0
 40
30.48
  1
２６２．５
 50
359.9999677789577
 41
1.1
  7
ＭＳ ゴシック
100
AcDbText
  0
TEXT
  5
B9
330
1F
100
AcDbEntity
  8
Hojo
  6
Continuous
 62
     2
370
     9
100
AcDbText
 10
1202.867736558657
 20
-190.9740236725679
 30
0.0
 40
30.48
  1
２７５
 41
1.083333333333333
  7
ＭＳ ゴシック
100
AcDbText
  0
TEXT
  5
BA
330
1F
100
AcDbEntity
  8
Hojo
  6
Continuous
 62
     2
370
     9
100
AcDbText
 10
1440.782363221452
 20
-190.9740236725679
 30
0.0
 40
30.48
  1
３１０
 41
1.083333333333333
  7
ＭＳ ゴシック
100
AcDbText
  0
TEXT
  5
BB
330
1F
100
AcDbEntity
  8
Hojo
  6
Continuous
 62
     2
370
     9
100
AcDbText
 10
996.2466510566509
 20
988.4711502611316
 30
0.0
 40
30.48
  1
製品符号
 41
1.09375
  7
ＭＳ ゴシック
100
AcDbText
  0
TEXT
  5
BC
330
1F
100
AcDbEntity
  8
Hojo
  6
Continuous
 62
     2
370
     9
100
AcDbText
 10
1292.868998501752
 20
988.4711502611316
 30
0.0
 40
30.48
  1
Ｈ
 41
0.9999999999999998
  7
ＭＳ ゴシック
100
AcDbText
  0
TEXT
  5
BD
330
1F
100
AcDbEntity
  8
Hojo
  6
Continuous
 62
     2
370
     9
100
AcDbText
 10
1530.780903326499
 20
988.4711502611316
 30
0.0
 40
30.48
  1
ｈ
 41
0.9999999999999998
  7
ＭＳ ゴシック
100
AcDbText
  0
TEXT
  5
BE
330
1F
100
AcDbEntity
  8
Hojo
  6
Continuous
 62
     2
370
     9
100
AcDbText
 10
996.246576824704
 20
1083.607308147534
 30
0.0
 40
30.48
  1
寸法表
 41
1.083333333333333
  7
ＭＳ ゴシック
100
AcDbText
  0
TEXT
  5
BF
330
1F
100
AcDbEntity
  8
Hojo
  6
Continuous
 62
     2
370
     9
100
AcDbText
 10
1497.619612152512
 20
1070.85722896679
 30
0.0
 40
30.48
  1
［ｍｍ］
 41
1.09375
  7
ＭＳ ゴシック
100
AcDbText
  0
TEXT
  5
C0
330
1F
100
AcDbEntity
  8
Hojo
  6
Continuous
 62
     2
370
     9
100
AcDbText
 10
1440.782387965435
 20
654.026042311385
 30
0.0
 40
30.48
  1
１４７．５
 41
1.1
  7
ＭＳ ゴシック
100
AcDbText
  0
TEXT
  5
C1
330
1F
100
AcDbEntity
  8
Hojo
  6
Continuous
 62
     2
370
     9
100
AcDbText
 10
1018.746774776562
 20
914.0259103434795
 30
0.0
 40
30.48
  1
Ｌ０１
 41
1.083333333333333
  7
ＭＳ ゴシック
100
AcDbText
  0
TEXT
  5
C2
330
1F
100
AcDbEntity
  8
Hojo
  6
Continuous
 62
     2
370
     9
100
AcDbText
 10
1018.746774776562
 20
849.0259433354558
 30
0.0
 40
30.48
  1
Ｌ０２
 41
1.083333333333333
  7
ＭＳ ゴシック
100
AcDbText
  0
TEXT
  5
C3
330
1F
100
AcDbEntity
  8
Hojo
  6
Continuous
 62
     2
370
     9
100
AcDbText
 10
1018.746774776562
 20
784.0259763274322
 30
0.0
 40
30.48
  1
Ｌ０３
 41
1.083333333333333
  7
ＭＳ ゴシック
100
AcDbText
  0
TEXT
  5
C4
330
1F
100
AcDbEntity
  8
Hojo
  6
Continuous
 62
     2
370
     9
100
AcDbText
 10
1018.746774776562
 20
719.0260093194084
 30
0.0
 40
30.48
  1
Ｌ０４
 41
1.083333333333333
  7
ＭＳ ゴシック
100
AcDbText
  0
TEXT
  5
C5
330
1F
100
AcDbEntity
  8
Hojo
  6
Continuous
 62
     2
370
     9
100
AcDbText
 10
1018.746774776562
 20
654.026042311385
 30
0.0
 40
30.48
  1
Ｌ０５
 41
1.083333333333333
  7
ＭＳ ゴシック
100
AcDbText
  0
TEXT
  5
C6
330
1F
100
AcDbEntity
  8
Hojo
  6
Continuous
 62
     2
370
     9
100
AcDbText
 10
1018.746780144135
 20
524.0259845754551
 30
0.0
 40
30.48
  1
Ｌ０７
 50
359.9999454720588
 41
1.083333333333333
  7
ＭＳ ゴシック
100
AcDbText
  0
TEXT
  5
C7
330
1F
100
AcDbEntity
  8
Hojo
  6
Continuous
 62
     2
370
     9
100
AcDbText
 10
1018.746769409048
 20
589.0258278635046
 30
0.0
 40
30.48
  1
Ｌ０６
 50
0.0000545279412169
 41
1.083333333333333
  7
ＭＳ ゴシック
100
AcDbText
  0
TEXT
  5
C8
330
1F
100
AcDbEntity
  8
Hojo
  6
Continuous
 62
     2
370
     9
100
AcDbText
 10
1018.746764041593
 20
459.0258938474183
 30
0.0
 40
30.48
  1
Ｌ０８
 50
0.0001090558824337
 41
1.083333333333333
  7
ＭＳ ゴシック
100
AcDbText
  0
TEXT
  5
C9
330
1F
100
AcDbEntity
  8
Hojo
  6
Continuous
 62
     2
370
     9
100
AcDbText
 10
1018.746780144135
 20
394.0260505594078
 30
0.0
 40
30.48
  1
Ｌ０９
 50
359.9999454720588
 41
1.083333333333333
  7
ＭＳ ゴシック
100
AcDbText
  0
TEXT
  5
CA
330
1F
100
AcDbEntity
  8
Hojo
  6
Continuous
 62
     2
370
     9
100
AcDbText
 10
1018.746769409048
 20
329.0259598314101
 30
0.0
 40
30.48
  1
Ｌ１０
 50
0.0000545279412169
 41
1.083333333333333
  7
ＭＳ ゴシック
100
AcDbText
  0
TEXT
  5
CB
330
1F
100
AcDbEntity
  8
Hojo
  6
Continuous
 62
     2
370
     9
100
AcDbText
 10
1018.746774776562
 20
264.0259928234204
 30
0.0
 40
30.48
  1
Ｌ１１
 41
1.083333333333333
  7
ＭＳ ゴシック
100
AcDbText
  0
TEXT
  5
CC
330
1F
100
AcDbEntity
  8
Hojo
  6
Continuous
 62
     2
370
     9
100
AcDbText
 10
1018.746769409048
 20
199.0260258153627
 30
0.0
 40
30.48
  1
Ｌ１２
 50
0.0000545279412169
 41
1.083333333333333
  7
ＭＳ ゴシック
100
AcDbText
  0
TEXT
  5
CD
330
1F
100
AcDbEntity
  8
Hojo
  6
Continuous
 62
     2
370
     9
100
AcDbText
 10
1018.746774776562
 20
134.026058807373
 30
0.0
 40
30.48
  1
Ｌ１３
 41
1.083333333333333
  7
ＭＳ ゴシック
100
AcDbText
  0
TEXT
  5
CE
330
1F
100
AcDbEntity
  8
Hojo
  6
Continuous
 62
     2
370
     9
100
AcDbText
 10
1018.746769409048
 20
69.02596807940412
 30
0.0
 40
30.48
  1
Ｌ１４
 50
0.0000545279412169
 41
1.083333333333333
  7
ＭＳ ゴシック
100
AcDbText
  0
TEXT
  5
CF
330
1F
100
AcDbEntity
  8
Hojo
  6
Continuous
 62
     2
370
     9
100
AcDbText
 10
1018.746774776562
 20
4.026124791325643
 30
0.0
 40
30.48
  1
Ｌ１５
 41
1.083333333333333
  7
ＭＳ ゴシック
100
AcDbText
  0
TEXT
  5
D0
330
1F
100
AcDbEntity
  8
Hojo
  6
Continuous
 62
     2
370
     9
100
AcDbText
 10
1018.746769409048
 20
-60.97408965655445
 30
0.0
 40
30.48
  1
Ｌ１６
 50
0.0000545279412169
 41
1.083333333333333
  7
ＭＳ ゴシック
100
AcDbText
  0
TEXT
  5
D1
330
1F
100
AcDbEntity
  8
Hojo
  6
Continuous
 62
     2
370
     9
100
AcDbText
 10
1018.746780144135
 20
-125.973932944604
 30
0.0
 40
30.48
  1
Ｌ１７
 50
359.9999454720588
 41
1.083333333333333
  7
ＭＳ ゴシック
100
AcDbText
  0
TEXT
  5
D2
330
1F
100
AcDbEntity
  8
Hojo
  6
Continuous
 62
     2
370
     9
100
AcDbText
 10
1018.746774776562
 20
-190.9740236725679
 30
0.0
 40
30.48
  1
Ｌ１８
 41
1.083333333333333
  7
ＭＳ ゴシック
100
AcDbText
  0
TEXT
  5
D3
330
1F
100
AcDbEntity
  8
Hojo
  6
Continuous
 62
     2
370
     9
100
AcDbText
 10
1463.282635405257
 20
849.0259433354558
 30
0.0
 40
30.48
  1
設定なし
 41
1.09375
  7
ＭＳ ゴシック
100
AcDbText
  0
TEXT
  5
D4
330
1F
100
AcDbEntity
  8
Hojo
  6
Continuous
 62
     2
370
     9
100
AcDbText
 10
1225.367018983171
 20
849.0259433354558
 30
0.0
 40
30.48
  1
設定なし
 41
1.09375
  7
ＭＳ ゴシック
100
AcDbText
  0
TEXT
  5
D5
330
1F
100
AcDbEntity
  8
092
  6
Continuous
 62
     2
370
     9
100
AcDbText
 10
710.4015481876683
 20
562.673341390249
 30
0.0
 40
30.48
  1
Φ95
 50
90.0
 41
1.09375
  7
ＭＳ ゴシック
100
AcDbText
  0
TEXT
  5
D6
330
1F
100
AcDbEntity
  8
092
  6
Continuous
 62
     2
370
     9
100
AcDbText
 10
673.1938457489016
 20
285.8156673245816
 30
0.0
 40
30.48
  1
Ｒｐ３
 41
1.083333333333333
  7
ＭＳ ゴシック
100
AcDbText
  0
TEXT
  5
D7
330
1F
100
AcDbEntity
  8
2-Fﾚｲﾔ
  6
Continuous
 62
     2
370
     9
100
AcDbText
 10
610.0934742592477
 20
-572.7183671982224
 30
0.0
 40
30.48
  1
仕　様
 41
1.083333333333333
  7
ＭＳ ゴシック
100
AcDbText
  0
TEXT
  5
D8
330
1F
100
AcDbEntity
  8
3-F
  6
Continuous
 62
     2
370
     9
100
AcDbText
 10
-725.0321261947216
 20
-360.8194397673736
 30
0.0
 40
30.48
  1
Ｌ０５～Ｌ１１
 41
1.107142857142857
  7
ＭＳ ゴシック
100
AcDbText
  0
TEXT
  5
D9
330
1F
100
AcDbEntity
  8
3-F
  6
Continuous
 62
     7
370
     9
100
AcDbText
 10
-795.0321261947217
 20
-414.6028000661489
 30
0.0
 40
22.86
  1
ジョイント穴：６－Φ８．５
 41
1.153846153846154
  7
ＭＳ ゴシック
100
AcDbText
  0
TEXT
  5
DA
330
1F
100
AcDbEntity
  8
2-Fﾚｲﾔ
  6
Continuous
 62
     2
370
     9
100
AcDbText
 10
562.593466011254
 20
-700.6385695050213
 30
0.0
 40
30.48
  1
①プレート
 41
1.1
  7
ＭＳ ゴシック
100
AcDbText
  0
TEXT
  5
DB
330
1F
100
AcDbEntity
  8
2-Fﾚｲﾔ
  6
Continuous
 62
     2
370
     9
100
AcDbText
 10
604.5301115190665
 20
-765.6384127931337
 30
0.0
 40
30.48
  1
材質：ステンレス鋼板　ｔ＝２．０（ＳＵＳ３０４）
 41
1.119791666666667
  7
ＭＳ ゴシック
100
AcDbText
  0
TEXT
  5
DC
330
1F
100
AcDbEntity
  8
2-Fﾚｲﾔ
  6
Continuous
 62
     2
370
     9
100
AcDbText
 10
562.5934412672717
 20
-830.6386272409801
 30
0.0
 40
30.48
  1
②ソケット８０Ａ
 41
1.109375
  7
ＭＳ ゴシック
100
AcDbText
  0
TEXT
  5
DD
330
1F
100
AcDbEntity
  8
2-Fﾚｲﾔ
  6
Continuous
 62
     2
370
     9
100
AcDbText
 10
604.5300867750842
 20
-895.8006673328297
 30
0.0
 40
30.48
  1
材質：ＳＵＳ３０４（内ねじソケット８０Ａ用）
 41
1.119318181818182
  7
ＭＳ ゴシック
100
AcDbText
  0
LWPOLYLINE
  5
DE
330
1F
100
AcDbEntity
  8
092
  6
Continuous
 62
     7
370
     9
100
AcDbPolyline
 90
        4
 70
     1
 43
1.0
 10
721.5418121234792
 20
843.9231351903968
 42
0.4142135623731
 10
721.0418121234793
 20
844.4231351903967
 42
0.4142135623731
 10
720.5418121234793
 20
843.9231351903968
 42
0.4142135623731
 10
721.0418121234793
 20
843.4231351903968
 42
0.4142135623731
  0
LWPOLYLINE
  5
DF
330
1F
100
AcDbEntity
  8
092
  6
Continuous
 62
     7
370
     9
100
AcDbPolyline
 90
        4
 70
     1
 43
1.0
 10
721.5418121234792
 20
368.9230527104559
 42
0.4142135623731
 10
721.0418121234793
 20
369.4230527104559
 42
0.4142135623731
 10
720.5418121234793
 20
368.9230527104559
 42
0.4142135623731
 10
721.0418121234793
 20
368.4230527104559
 42
0.4142135623731
  0
LWPOLYLINE
  5
E0
330
1F
100
AcDbEntity
  8
092
  6
Continuous
 62
     7
370
     9
100
AcDbPolyline
 90
        4
 70
     1
 43
1.0
 10
196.0909767666381
 20
33.90437925184102
 42
0.4142135623731
 10
195.5909767666381
 20
34.40437925184102
 42
0.4142135623731
 10
195.0909767666381
 20
33.90437925184102
 42
0.4142135623731
 10
195.5909767666381
 20
33.40437925184102
 42
0.4142135623731
  0
LWPOLYLINE
  5
E1
330
1F
100
AcDbEntity
  8
092
  6
Continuous
 62
     7
370
     9
100
AcDbPolyline
 90
        4
 70
     1
 43
1.0
 10
206.0907623187917
 20
33.90437925184102
 42
0.4142135623731
 10
205.5907623187917
 20
34.40437925184102
 42
0.4142135623731
 10
205.0907623187917
 20
33.90437925184102
 42
0.4142135623731
 10
205.5907623187917
 20
33.40437925184102
 42
0.4142135623731
  0
LWPOLYLINE
  5
E2
330
1F
100
AcDbEntity
  8
092
  6
Continuous
 62
     7
370
     9
100
AcDbPolyline
 90
        4
 70
     1
 43
1.0
 10
556.0906798388511
 20
33.90437925184102
 42
0.4142135623731
 10
555.5906798388512
 20
34.40437925184102
 42
0.4142135623731
 10
555.0906798388512
 20
33.90437925184102
 42
0.4142135623731
 10
555.5906798388512
 20
33.40437925184102
 42
0.4142135623731
  0
LWPOLYLINE
  5
E3
330
1F
100
AcDbEntity
  8
092
  6
Continuous
 62
     7
370
     9
100
AcDbPolyline
 90
        4
 70
     1
 43
1.0
 10
196.0909767666381
 20
-65.76017482860664
 42
0.4142135623731
 10
195.5909767666381
 20
-65.26017482860664
 42
0.4142135623731
 10
195.0909767666381
 20
-65.76017482860664
 42
0.4142135623731
 10
195.5909767666381
 20
-66.26017482860664
 42
0.4142135623731
  0
LWPOLYLINE
  5
E4
330
1F
100
AcDbEntity
  8
092
  6
Continuous
 62
     7
370
     9
100
AcDbPolyline
 90
        4
 70
     1
 43
1.0
 10
556.0906798388511
 20
-65.76017482860664
 42
0.4142135623731
 10
555.5906798388512
 20
-65.26017482860664
 42
0.4142135623731
 10
555.0906798388512
 20
-65.76017482860664
 42
0.4142135623731
 10
555.5906798388512
 20
-66.26017482860664
 42
0.4142135623731
  0
TEXT
  5
E5
330
1F
100
AcDbEntity
  8
F-Fﾚｲﾔ
  6
Continuous
 62
     7
370
     9
100
AcDbText
 10
-758.0001708095131
 20
-1323.769842360212
 30
0.0
 40
22.86
  1
サニタリートラフ　ＳＴＶ－１５０　横引き排水口　Ｌ０４～Ｌ１８
 50
359.9999975386706
 41
1.161290322580645
  7
ＭＳ ゴシック
100
AcDbText
  0
TEXT
  5
E6
330
1F
100
AcDbEntity
  8
2-Fﾚｲﾔ
  6
Continuous
 62
     2
370
     9
100
AcDbText
 10
562.5935154992183
 20
-635.6387880768647
 30
0.0
 40
30.48
  1
サニタリートラフ　ＳＴＶ－１５０　横引き排水口　
 41
1.119791666666667
  7
ＭＳ ゴシック
100
AcDbText
  0
LINE
  5
E7
330
1F
100
AcDbEntity
  8
_2-a_N_s
  6
JWW_CENTER1
 62
     4
370
     9
100
AcDbLine
 10
-768.0582987295613
 20
-548.8976870356379
 30
0.0
 11
-796.2044548343965
 21
-548.8976870356379
 31
0.0
  0
LINE
  5
E8
330
1F
100
AcDbEntity
  8
_2-a_N_s
  6
JWW_CENTER1
 62
     4
370
     9
100
AcDbLine
 10
-782.1313149220234
 20
-562.9709506679226
 30
0.0
 11
-782.1313149220234
 21
-534.8246708431759
 31
0.0
  0
LINE
  5
E9
330
1F
100
AcDbEntity
  8
_2-a_N_s
  6
JWW_CENTER1
 62
     4
370
     9
100
AcDbLine
 10
-768.0582987295613
 20
-688.8908494485393
 30
0.0
 11
-796.2044548343965
 21
-688.8908494485393
 31
0.0
  0
LINE
  5
EA
330
1F
100
AcDbEntity
  8
_2-a_N_s
  6
JWW_CENTER1
 62
     4
370
     9
100
AcDbLine
 10
-782.1313149220234
 20
-702.9638656410011
 30
0.0
 11
-782.1313149220234
 21
-674.8177095361659
 31
0.0
  0
LINE
  5
EB
330
1F
100
AcDbEntity
  8
_2-a_N_s
  6
Continuous
 62
     4
370
     9
100
AcDbLine
 10
-812.0330565684549
 20
-794.89208994685
 30
0.0
 11
-812.0330565684549
 21
-482.8915059888685
 31
0.0
  0
ARC
  5
EC
330
1F
100
AcDbEntity
  8
_2-a_N_s
  6
Continuous
 62
     4
370
     9
100
AcDbCircle
 10
-808.0330681156465
 20
-482.8915059888685
 30
0.0
 40
3.999999809909511
100
AcDbArc
 50
90.0
 51
180.0
  0
ARC
  5
ED
330
1F
100
AcDbEntity
  8
_2-a_N_s
  6
Continuous
 62
     4
370
     9
100
AcDbCircle
 10
-808.0330681156465
 20
-794.89208994685
 30
0.0
 40
3.999999809909511
100
AcDbArc
 50
180.0
 51
270.0
  0
CIRCLE
  5
EE
330
1F
100
AcDbEntity
  8
_2-a_N_s
  6
Continuous
 62
     4
370
     9
100
AcDbCircle
 10
-782.1313149220234
 20
-548.8976870356379
 30
0.0
 40
8.499999626262769
  0
CIRCLE
  5
EF
330
1F
100
AcDbEntity
  8
_2-a_N_s
  6
Continuous
 62
     4
370
     9
100
AcDbCircle
 10
-782.1313149220234
 20
-688.8908494485393
 30
0.0
 40
8.499999626262769
  0
LINE
  5
F0
330
1F
100
AcDbEntity
  8
_2-a_N_s
  6
Continuous
 62
     4
370
     9
100
AcDbLine
 10
-328.0324330201017
 20
-794.89208994685
 30
0.0
 11
-328.0324330201017
 21
-482.8915059888685
 31
0.0
  0
LINE
  5
F1
330
1F
100
AcDbEntity
  8
_2-a_N_s
  6
JWW_CENTER1
 62
     4
370
     9
100
AcDbLine
 10
-372.0059536598822
 20
-548.8976870356379
 30
0.0
 11
-343.8597975550468
 21
-548.8976870356379
 31
0.0
  0
LINE
  5
F2
330
1F
100
AcDbEntity
  8
_2-a_N_s
  6
JWW_CENTER1
 62
     4
370
     9
100
AcDbLine
 10
-357.9329374674202
 20
-562.9709506679226
 30
0.0
 11
-357.9329374674202
 21
-534.8246708431759
 31
0.0
  0
LINE
  5
F3
330
1F
100
AcDbEntity
  8
_2-a_N_s
  6
JWW_CENTER1
 62
     4
370
     9
100
AcDbLine
 10
-372.0059536598822
 20
-688.8908494485393
 30
0.0
 11
-343.8597975550468
 21
-688.8908494485393
 31
0.0
  0
LINE
  5
F4
330
1F
100
AcDbEntity
  8
_2-a_N_s
  6
JWW_CENTER1
 62
     4
370
     9
100
AcDbLine
 10
-357.9329374674202
 20
-702.9638656410011
 30
0.0
 11
-357.9329374674202
 21
-674.8177095361659
 31
0.0
  0
ARC
  5
F5
330
1F
100
AcDbEntity
  8
_2-a_N_s
  6
Continuous
 62
     4
370
     9
100
AcDbCircle
 10
-332.0325451928213
 20
-482.8915059888685
 30
0.0
 40
3.999999809909511
100
AcDbArc
 50
0.0
 51
90.0
  0
ARC
  5
F6
330
1F
100
AcDbEntity
  8
_2-a_N_s
  6
Continuous
 62
     4
370
     9
100
AcDbCircle
 10
-332.0325451928213
 20
-794.89208994685
 30
0.0
 40
3.999999809909511
100
AcDbArc
 50
270.0
 51
0.0
  0
CIRCLE
  5
F7
330
1F
100
AcDbEntity
  8
_2-a_N_s
  6
Continuous
 62
     4
370
     9
100
AcDbCircle
 10
-357.9329374674202
 20
-548.8976870356379
 30
0.0
 40
8.499999626262769
  0
CIRCLE
  5
F8
330
1F
100
AcDbEntity
  8
_2-a_N_s
  6
Continuous
 62
     4
370
     9
100
AcDbCircle
 10
-357.9329374674202
 20
-688.8908494485393
 30
0.0
 40
8.499999626262769
  0
LINE
  5
F9
330
1F
100
AcDbEntity
  8
_2-a_N_s
  6
Continuous
 62
     4
370
     9
100
AcDbLine
 10
-332.0325451928213
 20
-478.8915175360603
 30
0.0
 11
-808.0330681156465
 21
-478.8915175360603
 31
0.0
  0
LINE
  5
FA
330
1F
100
AcDbEntity
  8
_2-a_N_s
  6
Continuous
 62
     4
370
     9
100
AcDbLine
 10
-808.0330681156465
 20
-798.8922021195696
 30
0.0
 11
-332.0325451928213
 21
-798.8922021195696
 31
0.0
  0
LINE
  5
FB
330
1F
100
AcDbEntity
  8
_2-a_N_s
  6
JWW_CENTER1
 62
     4
370
     9
100
AcDbLine
 10
-1233.157593564597
 20
-708.8916577519598
 30
0.0
 11
-1261.303873389344
 21
-708.8916577519598
 31
0.0
  0
LINE
  5
FC
330
1F
100
AcDbEntity
  8
_2-a_N_s
  6
JWW_CENTER1
 62
     4
370
     9
100
AcDbLine
 10
-1247.23073347697
 20
-722.9647976643331
 30
0.0
 11
-1247.23073347697
 21
-694.8185178395864
 31
0.0
  0
LINE
  5
FD
330
1F
100
AcDbEntity
  8
3-F
  6
JWW_CENTER2
 62
     7
370
     9
100
AcDbLine
 10
-1177.230997412781
 20
-770.5442588393753
 30
0.0
 11
-1177.230997412781
 21
-456.4244765204353
 31
0.0
  0
LINE
  5
FE
330
1F
100
AcDbEntity
  8
3-F
  6
JWW_CENTER2
 62
     7
370
     9
100
AcDbLine
 10
-1065.907821209234
 20
-608.8918227118415
 30
0.0
 11
-1288.554173616328
 21
-608.8918227118415
 31
0.0
  0
LINE
  5
FF
330
1F
100
AcDbEntity
  8
_2-a_N_s
  6
JWW_CENTER1
 62
     4
370
     9
100
AcDbLine
 10
-1121.304401260965
 20
-708.8916577519598
 30
0.0
 11
-1093.158121436218
 21
-708.8916577519598
 31
0.0
  0
LINE
  5
100
330
1F
100
AcDbEntity
  8
_2-a_N_s
  6
JWW_CENTER1
 62
     4
370
     9
100
AcDbLine
 10
-1107.231261348591
 20
-722.9647976643331
 30
0.0
 11
-1107.231261348591
 21
-694.8185178395864
 31
0.0
  0
LINE
  5
101
330
1F
100
AcDbEntity
  8
3-F
  6
Continuous
 62
     7
370
     9
100
AcDbLine
 10
-1500.032453348697
 20
-297.2689556431126
 30
0.0
 11
-1094.253723110891
 21
-297.2689556431126
 31
0.0
  0
LINE
  5
102
330
1F
100
AcDbEntity
  8
3-F
  6
Continuous
 62
     7
370
     9
100
AcDbLine
 10
-1500.032453348697
 20
-232.2688649151776
 30
0.0
 11
-1094.253723110891
 21
-232.2688649151776
 31
0.0
  0
LINE
  5
103
330
1F
100
AcDbEntity
  8
3-F
  6
Continuous
 62
     7
370
     9
100
AcDbLine
 10
-1500.032453348697
 20
-232.2688649151776
 30
0.0
 11
-1500.032453348697
 21
-297.2689556431126
 31
0.0
  0
LINE
  5
104
330
1F
100
AcDbEntity
  8
3-F
  6
Continuous
 62
     7
370
     9
100
AcDbLine
 10
-1094.253723110891
 20
-232.2688649151776
 30
0.0
 11
-1094.253723110891
 21
-297.2689556431126
 31
0.0
  0
CIRCLE
  5
105
330
1F
100
AcDbEntity
  8
3-F
  6
Continuous
 62
     2
370
     9
100
AcDbCircle
 10
-1177.230997412781
 20
-608.8918227118415
 30
0.0
 40
94.99999639150259
  0
CIRCLE
  5
106
330
1F
100
AcDbEntity
  8
3-F
  6
Continuous
 62
     2
370
     9
100
AcDbCircle
 10
-1177.230997412781
 20
-608.8918227118415
 30
0.0
 40
84.89999771118164
  0
CIRCLE
  5
107
330
1F
100
AcDbEntity
  8
_2-a_N_s
  6
Continuous
 62
     4
370
     9
100
AcDbCircle
 10
-1247.23073347697
 20
-708.8916577519598
 30
0.0
 40
8.499999626262769
  0
CIRCLE
  5
108
330
1F
100
AcDbEntity
  8
_2-a_N_s
  6
Continuous
 62
     4
370
     9
100
AcDbCircle
 10
-1107.231261348591
 20
-708.8916577519598
 30
0.0
 40
8.499999626262769
  0
TEXT
  5
109
330
1F
100
AcDbEntity
  8
3-F
  6
Continuous
 62
     2
370
     9
100
AcDbText
 10
-1242.231090202714
 20
-360.8194397673736
 30
0.0
 40
30.48
  1
Ｌ０４
 41
1.083333333333334
  7
ＭＳ ゴシック
100
AcDbText
  0
TEXT
  5
10A
330
1F
100
AcDbEntity
  8
3-F
  6
Continuous
 62
     7
370
     9
100
AcDbText
 10
-1367.230997412781
 20
-414.6028000661489
 30
0.0
 40
22.86
  1
ジョイント穴：４－Φ９
 41
1.151515151515152
  7
ＭＳ ゴシック
100
AcDbText
  0
TEXT
  5
10B
330
1F
100
AcDbEntity
  8
3-F
  6
Continuous
 62
     2
370
     9
100
AcDbText
 10
-1474.642995439861
 20
-279.1289144031422
 30
0.0
 40
30.48
  1
ジョイント穴詳細
 41
1.109375
  7
ＭＳ ゴシック
100
AcDbText
  0
LINE
  5
10C
330
1F
100
AcDbEntity
  8
_2-a_N_s
  6
JWW_CENTER1
 62
     4
370
     9
100
AcDbLine
 10
-1375.257169947621
 20
-548.8976870356379
 30
0.0
 11
-1403.403326052455
 21
-548.8976870356379
 31
0.0
  0
LINE
  5
10D
330
1F
100
AcDbEntity
  8
_2-a_N_s
  6
JWW_CENTER1
 62
     4
370
     9
100
AcDbLine
 10
-1389.330309859994
 20
-562.9709506679226
 30
0.0
 11
-1389.330309859994
 21
-534.8246708431759
 31
0.0
  0
LINE
  5
10E
330
1F
100
AcDbEntity
  8
_2-a_N_s
  6
Continuous
 62
     4
370
     9
100
AcDbLine
 10
-1419.231927786514
 20
-744.8921724267909
 30
0.0
 11
-1419.231927786514
 21
-482.8915059888685
 31
0.0
  0
ARC
  5
10F
330
1F
100
AcDbEntity
  8
_2-a_N_s
  6
Continuous
 62
     4
370
     9
100
AcDbCircle
 10
-1415.231939333705
 20
-482.8915059888685
 30
0.0
 40
3.999999809909511
100
AcDbArc
 50
90.0
 51
180.0
  0
ARC
  5
110
330
1F
100
AcDbEntity
  8
_2-a_N_s
  6
Continuous
 62
     4
370
     9
100
AcDbCircle
 10
-1415.231939333705
 20
-744.8921724267909
 30
0.0
 40
3.999999809909511
100
AcDbArc
 50
180.0
 51
270.0
  0
CIRCLE
  5
111
330
1F
100
AcDbEntity
  8
_2-a_N_s
  6
Continuous
 62
     4
370
     9
100
AcDbCircle
 10
-1389.330309859994
 20
-548.8976870356379
 30
0.0
 40
8.499999626262769
  0
LINE
  5
112
330
1F
100
AcDbEntity
  8
_2-a_N_s
  6
Continuous
 62
     4
370
     9
100
AcDbLine
 10
-935.2314279580721
 20
-744.8921724267909
 30
0.0
 11
-935.2314279580721
 21
-482.8915059888685
 31
0.0
  0
LINE
  5
113
330
1F
100
AcDbEntity
  8
_2-a_N_s
  6
JWW_CENTER1
 62
     4
370
     9
100
AcDbLine
 10
-979.2048248779413
 20
-548.8976870356379
 30
0.0
 11
-951.0586687731061
 21
-548.8976870356379
 31
0.0
  0
LINE
  5
114
330
1F
100
AcDbEntity
  8
_2-a_N_s
  6
JWW_CENTER1
 62
     4
370
     9
100
AcDbLine
 10
-965.131684965568
 20
-562.9709506679226
 30
0.0
 11
-965.131684965568
 21
-534.8246708431759
 31
0.0
  0
ARC
  5
115
330
1F
100
AcDbEntity
  8
_2-a_N_s
  6
Continuous
 62
     4
370
     9
100
AcDbCircle
 10
-939.2314164108805
 20
-482.8915059888685
 30
0.0
 40
3.999999809909511
100
AcDbArc
 50
0.0
 51
90.0
  0
ARC
  5
116
330
1F
100
AcDbEntity
  8
_2-a_N_s
  6
Continuous
 62
     4
370
     9
100
AcDbCircle
 10
-939.2314164108805
 20
-744.8921724267909
 30
0.0
 40
3.999999809909511
100
AcDbArc
 50
270.0
 51
0.0
  0
CIRCLE
  5
117
330
1F
100
AcDbEntity
  8
_2-a_N_s
  6
Continuous
 62
     4
370
     9
100
AcDbCircle
 10
-965.131684965568
 20
-548.8976870356379
 30
0.0
 40
8.499999626262769
  0
LINE
  5
118
330
1F
100
AcDbEntity
  8
_2-a_N_s
  6
Continuous
 62
     4
370
     9
100
AcDbLine
 10
-939.2314164108805
 20
-478.8915175360603
 30
0.0
 11
-1415.231939333705
 21
-478.8915175360603
 31
0.0
  0
LINE
  5
119
330
1F
100
AcDbEntity
  8
_2-a_N_s
  6
Continuous
 62
     4
370
     9
100
AcDbLine
 10
-1415.231939333705
 20
-748.892160879599
 30
0.0
 11
-939.2314164108805
 21
-748.892160879599
 31
0.0
  0
LINE
  5
11A
330
1F
100
AcDbEntity
  8
_2-a_N_s
  6
JWW_CENTER1
 62
     4
370
     9
100
AcDbLine
 10
-23.22990395650715
 20
-908.8915752720188
 30
0.0
 11
-51.37606006134229
 21
-908.8915752720188
 31
0.0
  0
LINE
  5
11B
330
1F
100
AcDbEntity
  8
_2-a_N_s
  6
JWW_CENTER1
 62
     4
370
     9
100
AcDbLine
 10
-37.30292014896912
 20
-922.9647151843922
 30
0.0
 11
-37.30292014896912
 21
-894.818559079557
 31
0.0
  0
LINE
  5
11C
330
1F
100
AcDbEntity
  8
3-F
  6
JWW_CENTER2
 62
     7
370
     9
100
AcDbLine
 10
32.69681591522021
 20
-970.5443000793457
 30
0.0
 11
32.69681591522021
 21
-456.4244765204353
 31
0.0
  0
LINE
  5
11D
330
1F
100
AcDbEntity
  8
3-F
  6
JWW_CENTER2
 62
     7
370
     9
100
AcDbLine
 10
144.0199921187673
 20
-808.8917402319007
 30
0.0
 11
-78.62648400823838
 21
-808.8917402319007
 31
0.0
  0
LINE
  5
11E
330
1F
100
AcDbEntity
  8
_2-a_N_s
  6
JWW_CENTER1
 62
     4
370
     9
100
AcDbLine
 10
88.62316462721346
 20
-908.8915752720188
 30
0.0
 11
116.7694444519601
 21
-908.8915752720188
 31
0.0
  0
LINE
  5
11F
330
1F
100
AcDbEntity
  8
_2-a_N_s
  6
JWW_CENTER1
 62
     4
370
     9
100
AcDbLine
 10
102.6963045395866
 20
-922.9647151843922
 30
0.0
 11
102.6963045395866
 21
-894.818559079557
 31
0.0
  0
CIRCLE
  5
120
330
1F
100
AcDbEntity
  8
3-F
  6
Continuous
 62
     2
370
     9
100
AcDbCircle
 10
32.69681591522021
 20
-808.8917402319007
 30
0.0
 40
94.99999639150259
  0
CIRCLE
  5
121
330
1F
100
AcDbEntity
  8
3-F
  6
Continuous
 62
     2
370
     9
100
AcDbCircle
 10
32.69681591522021
 20
-808.8917402319007
 30
0.0
 40
84.89999771118164
  0
CIRCLE
  5
122
330
1F
100
AcDbEntity
  8
_2-a_N_s
  6
Continuous
 62
     4
370
     9
100
AcDbCircle
 10
-37.30292014896912
 20
-908.8915752720188
 30
0.0
 40
8.499999626262769
  0
CIRCLE
  5
123
330
1F
100
AcDbEntity
  8
_2-a_N_s
  6
Continuous
 62
     4
370
     9
100
AcDbCircle
 10
102.6963045395866
 20
-908.8915752720188
 30
0.0
 40
8.499999626262769
  0
TEXT
  5
124
330
1F
100
AcDbEntity
  8
3-F
  6
Continuous
 62
     2
370
     9
100
AcDbText
 10
-122.3031840847799
 20
-360.8194397673736
 30
0.0
 40
30.48
  1
Ｌ１２～Ｌ１８
 41
1.107142857142857
  7
ＭＳ ゴシック
100
AcDbText
  0
TEXT
  5
125
330
1F
100
AcDbEntity
  8
3-F
  6
Continuous
 62
     7
370
     9
100
AcDbText
 10
-192.3031840847798
 20
-414.6028000661489
 30
0.0
 40
22.86
  1
ジョイント穴：８－Φ８．５
 41
1.153846153846154
  7
ＭＳ ゴシック
100
AcDbText
  0
LINE
  5
126
330
1F
100
AcDbEntity
  8
_2-a_N_s
  6
JWW_CENTER1
 62
     4
370
     9
100
AcDbLine
 10
-165.3294803395308
 20
-548.8976870356379
 30
0.0
 11
-193.475636444366
 21
-548.8976870356379
 31
0.0
  0
LINE
  5
127
330
1F
100
AcDbEntity
  8
_2-a_N_s
  6
JWW_CENTER1
 62
     4
370
     9
100
AcDbLine
 10
-179.4024965319928
 20
-562.9708269480112
 30
0.0
 11
-179.4024965319928
 21
-534.8246708431759
 31
0.0
  0
LINE
  5
128
330
1F
100
AcDbEntity
  8
_2-a_N_s
  6
JWW_CENTER1
 62
     4
370
     9
100
AcDbLine
 10
-165.3294803395308
 20
-838.8907875885834
 30
0.0
 11
-193.475636444366
 21
-838.8907875885834
 31
0.0
  0
LINE
  5
129
330
1F
100
AcDbEntity
  8
_2-a_N_s
  6
JWW_CENTER1
 62
     4
370
     9
100
AcDbLine
 10
-179.4024965319928
 20
-852.9638656410011
 30
0.0
 11
-179.4024965319928
 21
-824.8176476762102
 31
0.0
  0
LINE
  5
12A
330
1F
100
AcDbEntity
  8
_2-a_N_s
  6
Continuous
 62
     4
370
     9
100
AcDbLine
 10
-209.3042381784243
 20
-944.8920899468499
 30
0.0
 11
-209.3042381784243
 21
-482.8915059888685
 31
0.0
  0
LINE
  5
12B
330
1F
100
AcDbEntity
  8
_2-a_N_s
  6
JWW_CENTER1
 62
     4
370
     9
100
AcDbLine
 10
-165.3294803395308
 20
-693.894206382133
 30
0.0
 11
-193.475636444366
 21
-693.894206382133
 31
0.0
  0
LINE
  5
12C
330
1F
100
AcDbEntity
  8
_2-a_N_s
  6
JWW_CENTER1
 62
     4
370
     9
100
AcDbLine
 10
-179.4024965319928
 20
-707.9673462945062
 30
0.0
 11
-179.4024965319928
 21
-679.8211901896708
 31
0.0
  0
ARC
  5
12D
330
1F
100
AcDbEntity
  8
_2-a_N_s
  6
Continuous
 62
     4
370
     9
100
AcDbCircle
 10
-205.304249725616
 20
-482.8915059888685
 30
0.0
 40
3.999999809909511
100
AcDbArc
 50
90.0
 51
180.0
  0
ARC
  5
12E
330
1F
100
AcDbEntity
  8
_2-a_N_s
  6
Continuous
 62
     4
370
     9
100
AcDbCircle
 10
-205.304249725616
 20
-944.8920899468499
 30
0.0
 40
3.999999809909511
100
AcDbArc
 50
180.0
 51
270.0
  0
CIRCLE
  5
12F
330
1F
100
AcDbEntity
  8
_2-a_N_s
  6
Continuous
 62
     4
370
     9
100
AcDbCircle
 10
-179.4024965319928
 20
-548.8976870356379
 30
0.0
 40
8.499999626262769
  0
CIRCLE
  5
130
330
1F
100
AcDbEntity
  8
_2-a_N_s
  6
Continuous
 62
     4
370
     9
100
AcDbCircle
 10
-179.4024965319928
 20
-693.894206382133
 30
0.0
 40
8.499999626262769
  0
CIRCLE
  5
131
330
1F
100
AcDbEntity
  8
_2-a_N_s
  6
Continuous
 62
     4
370
     9
100
AcDbCircle
 10
-179.4024965319928
 20
-838.8907875885834
 30
0.0
 40
8.499999626262769
  0
LINE
  5
132
330
1F
100
AcDbEntity
  8
_2-a_N_s
  6
Continuous
 62
     4
370
     9
100
AcDbLine
 10
274.6962616500173
 20
-944.8920899468499
 30
0.0
 11
274.6962616500173
 21
-482.8915059888685
 31
0.0
  0
LINE
  5
133
330
1F
100
AcDbEntity
  8
_2-a_N_s
  6
JWW_CENTER1
 62
     4
370
     9
100
AcDbLine
 10
230.7227410102371
 20
-548.8976870356379
 30
0.0
 11
258.8690208349838
 21
-548.8976870356379
 31
0.0
  0
LINE
  5
134
330
1F
100
AcDbEntity
  8
_2-a_N_s
  6
JWW_CENTER1
 62
     4
370
     9
100
AcDbLine
 10
244.7958809226103
 20
-562.9708269480112
 30
0.0
 11
244.7958809226103
 21
-534.8246708431759
 31
0.0
  0
LINE
  5
135
330
1F
100
AcDbEntity
  8
_2-a_N_s
  6
JWW_CENTER1
 62
     4
370
     9
100
AcDbLine
 10
230.7227410102371
 20
-838.8907875885834
 30
0.0
 11
258.8690208349838
 21
-838.8907875885834
 31
0.0
  0
LINE
  5
136
330
1F
100
AcDbEntity
  8
_2-a_N_s
  6
JWW_CENTER1
 62
     4
370
     9
100
AcDbLine
 10
244.7958809226103
 20
-852.9638656410011
 30
0.0
 11
244.7958809226103
 21
-824.8176476762102
 31
0.0
  0
LINE
  5
137
330
1F
100
AcDbEntity
  8
_2-a_N_s
  6
JWW_CENTER1
 62
     4
370
     9
100
AcDbLine
 10
230.7227410102371
 20
-693.894206382133
 30
0.0
 11
258.8690208349838
 21
-693.894206382133
 31
0.0
  0
LINE
  5
138
330
1F
100
AcDbEntity
  8
_2-a_N_s
  6
JWW_CENTER1
 62
     4
370
     9
100
AcDbLine
 10
244.7958809226103
 20
-707.9673462945062
 30
0.0
 11
244.7958809226103
 21
-679.8211901896708
 31
0.0
  0
ARC
  5
139
330
1F
100
AcDbEntity
  8
_2-a_N_s
  6
Continuous
 62
     4
370
     9
100
AcDbCircle
 10
270.6961494772978
 20
-482.8915059888685
 30
0.0
 40
3.999999809909511
100
AcDbArc
 50
0.0
 51
90.0
  0
ARC
  5
13A
330
1F
100
AcDbEntity
  8
_2-a_N_s
  6
Continuous
 62
     4
370
     9
100
AcDbCircle
 10
270.6961494772978
 20
-944.8920899468499
 30
0.0
 40
3.999999809909511
100
AcDbArc
 50
270.0
 51
0.0
  0
CIRCLE
  5
13B
330
1F
100
AcDbEntity
  8
_2-a_N_s
  6
Continuous
 62
     4
370
     9
100
AcDbCircle
 10
244.7958809226103
 20
-548.8976870356379
 30
0.0
 40
8.499999626262769
  0
CIRCLE
  5
13C
330
1F
100
AcDbEntity
  8
_2-a_N_s
  6
Continuous
 62
     4
370
     9
100
AcDbCircle
 10
244.7958809226103
 20
-693.894206382133
 30
0.0
 40
8.499999626262769
  0
CIRCLE
  5
13D
330
1F
100
AcDbEntity
  8
_2-a_N_s
  6
Continuous
 62
     4
370
     9
100
AcDbCircle
 10
244.7958809226103
 20
-838.8907875885834
 30
0.0
 40
8.499999626262769
  0
LINE
  5
13E
330
1F
100
AcDbEntity
  8
_2-a_N_s
  6
Continuous
 62
     4
370
     9
100
AcDbLine
 10
270.6961494772978
 20
-478.8915175360603
 30
0.0
 11
-205.304249725616
 21
-478.8915175360603
 31
0.0
  0
LINE
  5
13F
330
1F
100
AcDbEntity
  8
_2-a_N_s
  6
Continuous
 62
     4
370
     9
100
AcDbLine
 10
-205.304249725616
 20
-948.8920783996582
 30
0.0
 11
270.6961494772978
 21
-948.8920783996582
 31
0.0
  0
LINE
  5
140
330
1F
100
AcDbEntity
  8
通り芯
  6
JWW_CENTER2
 62
     4
370
     9
100
AcDbLine
 10
-991.182841637014
 20
300.7090898462243
 30
0.0
 11
-991.182841637014
 21
333.8837180266509
 31
0.0
  0
LINE
  5
141
330
1F
100
AcDbEntity
  8
通り芯
  6
JWW_CENTER2
 62
     4
370
     9
100
AcDbLine
 10
-991.182841637014
 20
300.7090898462243
 30
0.0
 11
-1024.332849555088
 21
300.7090898462243
 31
0.0
  0
LINE
  5
142
330
1F
100
AcDbEntity
  8
通り芯
  6
JWW_CENTER2
 62
     4
370
     9
100
AcDbLine
 10
-991.182841637014
 20
300.7090898462243
 30
0.0
 11
-991.182841637014
 21
267.5590819281501
 31
0.0
  0
LINE
  5
143
330
1F
100
AcDbEntity
  8
通り芯
  6
JWW_CENTER2
 62
     4
370
     9
100
AcDbLine
 10
-991.182841637014
 20
300.7090898462243
 30
0.0
 11
-958.032586279117
 21
300.7090898462243
 31
0.0
  0
LINE
  5
144
330
1F
100
AcDbEntity
  8
通り芯
  6
JWW_CENTER2
 62
     4
370
     9
100
AcDbLine
 10
-641.1828003970436
 20
300.7090898462243
 30
0.0
 11
-641.1828003970436
 21
333.8837180266509
 31
0.0
  0
LINE
  5
145
330
1F
100
AcDbEntity
  8
通り芯
  6
JWW_CENTER2
 62
     4
370
     9
100
AcDbLine
 10
-641.1828003970436
 20
300.7090898462243
 30
0.0
 11
-674.3321897155613
 21
300.7090898462243
 31
0.0
  0
LINE
  5
146
330
1F
100
AcDbEntity
  8
通り芯
  6
JWW_CENTER2
 62
     4
370
     9
100
AcDbLine
 10
-641.1828003970436
 20
300.7090898462243
 30
0.0
 11
-641.1828003970436
 21
267.5590819281501
 31
0.0
  0
LINE
  5
147
330
1F
100
AcDbEntity
  8
通り芯
  6
JWW_CENTER2
 62
     4
370
     9
100
AcDbLine
 10
-641.1828003970436
 20
300.7090898462243
 30
0.0
 11
-608.032668759058
 21
300.7090898462243
 31
0.0
  0
LINE
  5
148
330
1F
100
AcDbEntity
  8
躯体
  6
JWW_CENTER2
 62
     7
370
     9
100
AcDbLine
 10
-816.1830065968958
 20
133.7088605519887
 30
0.0
 11
-816.1830065968958
 21
1083.868747917382
 31
0.0
  0
LINE
  5
149
330
1F
100
AcDbEntity
  8
092
  6
Continuous
 62
     7
370
     9
100
AcDbLine
 10
-442.4318353817353
 20
47.82670459231809
 30
0.0
 11
-96.6393846057639
 21
47.82670459231809
 31
0.0
  0
LINE
  5
14A
330
1F
100
AcDbEntity
  8
092
  6
Continuous
 62
     7
370
     9
100
AcDbLine
 10
-442.4318353817353
 20
47.82670459231809
 30
0.0
 11
-628.406121435367
 21
283.7291506174449
 31
0.0
  0
LINE
  5
14B
330
1F
100
AcDbEntity
  8
092
  6
Continuous
 62
     7
370
     9
100
AcDbLine
 10
-628.406121435367
 20
283.7291506174449
 30
0.0
 11
-610.498406591617
 21
266.2846431216678
 31
0.0
  0
LINE
  5
14C
330
1F
100
AcDbEntity
  8
092
  6
Continuous
 62
     7
370
     9
100
AcDbLine
 10
-628.406121435367
 20
283.7291506174449
 30
0.0
 11
-615.6236276378587
 21
262.2440745379475
 31
0.0
  0
CIRCLE
  5
14D
330
1F
100
AcDbEntity
  8
通り芯
  6
Continuous
 62
     4
370
     9
100
AcDbCircle
 10
-991.182841637014
 20
300.7090898462243
 30
0.0
 40
21.25000244862325
  0
CIRCLE
  5
14E
330
1F
100
AcDbEntity
  8
通り芯
  6
Continuous
 62
     4
370
     9
100
AcDbCircle
 10
-641.1828003970436
 20
300.7090898462243
 30
0.0
 40
21.25000244862325
  0
CIRCLE
  5
14F
330
1F
100
AcDbEntity
  8
仕上
  6
Continuous
 62
     2
370
     9
100
AcDbCircle
 10
-816.1830065968958
 20
550.7089248863426
 30
0.0
 40
212.5000051549963
  0
CIRCLE
  5
150
330
1F
100
AcDbEntity
  8
仕上
  6
Continuous
 62
     2
370
     9
100
AcDbCircle
 10
-816.1830065968958
 20
550.7089248863426
 30
0.0
 40
237.5000103099926
  0
CIRCLE
  5
151
330
1F
100
AcDbEntity
  8
仕上
  6
Continuous
 62
     2
370
     9
100
AcDbCircle
 10
-816.1830065968958
 20
550.7089248863426
 30
0.0
 40
219.4998766924884
  0
ARC
  5
152
330
1F
100
AcDbEntity
  8
通り芯
  6
JWW_PHANTOM2
 62
     4
370
     9
100
AcDbCircle
 10
-816.1828828769844
 20
433.2090321102658
 30
0.0
 40
57.50000025774982
100
AcDbArc
 50
254.9999542236328
 51
285.0000457763672
  0
TEXT
  5
153
330
1F
100
AcDbEntity
  8
092
  6
Continuous
 62
     2
370
     9
100
AcDbText
 10
-393.6662672928945
 20
68.55199709918061
 30
0.0
 40
30.48
  1
ジョイント穴
 41
1.104166666666667
  7
ＭＳ ゴシック
100
AcDbText
  0
TEXT
  5
154
330
1F
100
AcDbEntity
  8
092
  6
Continuous
 62
     2
370
     9
100
AcDbText
 10
-393.6662920368767
 20
1.526858862799614
 30
0.0
 40
30.48
  1
Φ８．５
 41
1.09375
  7
ＭＳ ゴシック
100
AcDbText
  0
LINE
  5
155
330
1F
100
AcDbEntity
  8
通り芯
  6
JWW_CENTER2
 62
     4
370
     9
100
AcDbLine
 10
-1346.182115813534
 20
825.709337286047
 30
0.0
 11
-1346.182115813534
 21
858.884089186385
 31
0.0
  0
LINE
  5
156
330
1F
100
AcDbEntity
  8
通り芯
  6
JWW_CENTER2
 62
     4
370
     9
100
AcDbLine
 10
-1346.182115813534
 20
825.709337286047
 30
0.0
 11
-1379.332371171431
 21
825.709337286047
 31
0.0
  0
LINE
  5
157
330
1F
100
AcDbEntity
  8
通り芯
  6
JWW_CENTER2
 62
     4
370
     9
100
AcDbLine
 10
-1346.182115813534
 20
825.709337286047
 30
0.0
 11
-1346.182115813534
 21
792.5593293679729
 31
0.0
  0
LINE
  5
158
330
1F
100
AcDbEntity
  8
通り芯
  6
JWW_CENTER2
 62
     4
370
     9
100
AcDbLine
 10
-1346.182115813534
 20
825.709337286047
 30
0.0
 11
-1313.03210789546
 21
825.709337286047
 31
0.0
  0
LINE
  5
159
330
1F
100
AcDbEntity
  8
通り芯
  6
JWW_CENTER2
 62
     4
370
     9
100
AcDbLine
 10
-1346.182115813534
 20
475.7089248863426
 30
0.0
 11
-1346.182115813534
 21
508.883429346858
 31
0.0
  0
LINE
  5
15A
330
1F
100
AcDbEntity
  8
通り芯
  6
JWW_CENTER2
 62
     4
370
     9
100
AcDbLine
 10
-1346.182115813534
 20
475.7089248863426
 30
0.0
 11
-1379.332371171431
 21
475.7089248863426
 31
0.0
  0
LINE
  5
15B
330
1F
100
AcDbEntity
  8
通り芯
  6
JWW_CENTER2
 62
     4
370
     9
100
AcDbLine
 10
-1346.182115813534
 20
475.7089248863426
 30
0.0
 11
-1346.182115813534
 21
442.5592881280022
 31
0.0
  0
LINE
  5
15C
330
1F
100
AcDbEntity
  8
通り芯
  6
JWW_CENTER2
 62
     4
370
     9
100
AcDbLine
 10
-1346.182115813534
 20
475.7089248863426
 30
0.0
 11
-1313.03210789546
 21
475.7089248863426
 31
0.0
  0
LINE
  5
15D
330
1F
100
AcDbEntity
  8
通り芯
  6
JWW_PHANTOM2
 62
     4
370
     9
100
AcDbLine
 10
-1406.182561205215
 20
993.2092713020944
 30
0.0
 11
-1336.182825141026
 21
993.2092713020944
 31
0.0
  0
LINE
  5
15E
330
1F
100
AcDbEntity
  8
通り芯
  6
JWW_PHANTOM2
 62
     4
370
     9
100
AcDbLine
 10
-1413.682462229286
 20
985.7093702780236
 30
0.0
 11
-1413.682462229286
 21
960.70904035826
 31
0.0
  0
LINE
  5
15F
330
1F
100
AcDbEntity
  8
通り芯
  6
JWW_PHANTOM2
 62
     4
370
     9
100
AcDbLine
 10
-1206.181901365688
 20
915.7091393341889
 30
0.0
 11
-1313.682627189168
 21
915.7091393341889
 31
0.0
  0
LINE
  5
160
330
1F
100
AcDbEntity
  8
通り芯
  6
JWW_PHANTOM2
 62
     4
370
     9
100
AcDbLine
 10
-1328.68242923731
 20
930.7094362619762
 30
0.0
 11
-1328.68242923731
 21
985.7093702780236
 31
0.0
  0
LINE
  5
161
330
1F
100
AcDbEntity
  8
092
  6
Continuous
 62
     7
370
     9
100
AcDbLine
 10
-1421.182610693179
 20
1030.200535026757
 30
0.0
 11
-1421.182610693179
 21
1220.003457456022
 31
0.0
  0
LINE
  5
162
330
1F
100
AcDbEntity
  8
通り芯
  6
Continuous
 62
     4
370
     9
100
AcDbLine
 10
-1421.182363253357
 20
210.70904035826
 30
0.0
 11
-1421.182363253357
 21
990.7088918943663
 31
0.0
  0
CIRCLE
  5
163
330
1F
100
AcDbEntity
  8
通り芯
  6
Continuous
 62
     4
370
     9
100
AcDbCircle
 10
-1346.182115813534
 20
825.709337286047
 30
0.0
 40
21.25000244862325
  0
CIRCLE
  5
164
330
1F
100
AcDbEntity
  8
通り芯
  6
Continuous
 62
     4
370
     9
100
AcDbCircle
 10
-1346.182115813534
 20
475.7089248863426
 30
0.0
 40
21.25000244862325
  0
ARC
  5
165
330
1F
100
AcDbEntity
  8
通り芯
  6
JWW_PHANTOM2
 62
     4
370
     9
100
AcDbCircle
 10
-1336.182825141026
 20
985.7093702780236
 30
0.0
 40
7.500000096656181
100
AcDbArc
 50
0.0
 51
90.0
  0
ARC
  5
166
330
1F
100
AcDbEntity
  8
通り芯
  6
JWW_PHANTOM2
 62
     4
370
     9
100
AcDbCircle
 10
-1406.182561205215
 20
985.7093702780236
 30
0.0
 40
7.500000096656181
100
AcDbArc
 50
90.0
 51
180.0
  0
ARC
  5
167
330
1F
100
AcDbEntity
  8
通り芯
  6
JWW_PHANTOM2
 62
     4
370
     9
100
AcDbCircle
 10
-1313.682627189168
 20
930.7094362619762
 30
0.0
 40
15.00000019331236
100
AcDbArc
 50
180.0
 51
270.0
  0
ARC
  5
168
330
1F
100
AcDbEntity
  8
通り芯
  6
JWW_PHANTOM2
 62
     4
370
     9
100
AcDbCircle
 10
-1206.181901365688
 20
908.209238310118
 30
0.0
 40
7.500000096656181
100
AcDbArc
 50
0.0
 51
90.0
  0
ARC
  5
169
330
1F
100
AcDbEntity
  8
通り芯
  6
Continuous
 62
     4
370
     9
100
AcDbCircle
 10
-1411.182330261381
 20
990.7088918943663
 30
0.0
 40
10.00000012887491
100
AcDbArc
 50
90.0
 51
180.0
  0
ARC
  5
16A
330
1F
100
AcDbEntity
  8
通り芯
  6
Continuous
 62
     4
370
     9
100
AcDbCircle
 10
-1411.182330261381
 20
210.70904035826
 30
0.0
 40
10.00000012887491
100
AcDbArc
 50
180.0
 51
270.0
  0
LWPOLYLINE
  5
16B
330
1F
100
AcDbEntity
  8
092
  6
Continuous
 62
     7
370
     9
100
AcDbPolyline
 90
        4
 70
     1
 43
1.0
 10
-1420.682610693179
 20
1217.003249606571
 42
0.4142135623731
 10
-1421.182610693179
 20
1217.503249606571
 42
0.4142135623731
 10
-1421.68261069318
 20
1217.003249606571
 42
0.4142135623731
 10
-1421.182610693179
 20
1216.503249606571
 42
0.4142135623731
  0
LINE
  5
16C
330
1F
100
AcDbEntity
  8
通り芯
  6
JWW_CENTER2
 62
     4
370
     9
100
AcDbLine
 10
-286.1826601811441
 20
475.7089248863426
 30
0.0
 11
-286.1826601811441
 21
508.883429346858
 31
0.0
  0
LINE
  5
16D
330
1F
100
AcDbEntity
  8
通り芯
  6
JWW_CENTER2
 62
     4
370
     9
100
AcDbLine
 10
-286.1826601811441
 20
475.7089248863426
 30
0.0
 11
-319.3327918191298
 21
475.7089248863426
 31
0.0
  0
LINE
  5
16E
330
1F
100
AcDbEntity
  8
通り芯
  6
JWW_CENTER2
 62
     4
370
     9
100
AcDbLine
 10
-286.1826601811441
 20
475.7089248863426
 30
0.0
 11
-286.1826601811441
 21
442.5592881280022
 31
0.0
  0
LINE
  5
16F
330
1F
100
AcDbEntity
  8
通り芯
  6
JWW_CENTER2
 62
     4
370
     9
100
AcDbLine
 10
-286.1826601811441
 20
475.7089248863426
 30
0.0
 11
-253.0325285431584
 21
475.7089248863426
 31
0.0
  0
LINE
  5
170
330
1F
100
AcDbEntity
  8
通り芯
  6
JWW_CENTER2
 62
     4
370
     9
100
AcDbLine
 10
-286.1826601811441
 20
825.709337286047
 30
0.0
 11
-286.1826601811441
 21
858.884089186385
 31
0.0
  0
LINE
  5
171
330
1F
100
AcDbEntity
  8
通り芯
  6
JWW_CENTER2
 62
     4
370
     9
100
AcDbLine
 10
-286.1826601811441
 20
825.709337286047
 30
0.0
 11
-319.3327918191298
 21
825.709337286047
 31
0.0
  0
LINE
  5
172
330
1F
100
AcDbEntity
  8
通り芯
  6
JWW_CENTER2
 62
     4
370
     9
100
AcDbLine
 10
-286.1826601811441
 20
825.709337286047
 30
0.0
 11
-286.1826601811441
 21
792.5593293679729
 31
0.0
  0
LINE
  5
173
330
1F
100
AcDbEntity
  8
通り芯
  6
JWW_CENTER2
 62
     4
370
     9
100
AcDbLine
 10
-286.1826601811441
 20
825.709337286047
 30
0.0
 11
-253.0325285431584
 21
825.709337286047
 31
0.0
  0
LINE
  5
174
330
1F
100
AcDbEntity
  8
通り芯
  6
JWW_PHANTOM2
 62
     4
370
     9
100
AcDbLine
 10
-426.1825034692563
 20
915.7091393341889
 30
0.0
 11
-318.6825199652446
 21
915.7091393341889
 31
0.0
  0
LINE
  5
175
330
1F
100
AcDbEntity
  8
通り芯
  6
JWW_PHANTOM2
 62
     4
370
     9
100
AcDbLine
 10
-303.6825941971912
 20
985.7093702780236
 30
0.0
 11
-303.6825941971912
 21
930.7094362619762
 31
0.0
  0
LINE
  5
176
330
1F
100
AcDbEntity
  8
通り芯
  6
JWW_PHANTOM2
 62
     4
370
     9
100
AcDbLine
 10
-226.1825859491972
 20
993.2092713020944
 30
0.0
 11
-296.1824457332978
 21
993.2092713020944
 31
0.0
  0
LINE
  5
177
330
1F
100
AcDbEntity
  8
092
  6
Continuous
 62
     7
370
     9
100
AcDbLine
 10
-211.18228902141
 20
1030.200535026757
 30
0.0
 11
-211.18228902141
 21
1220.003457456022
 31
0.0
  0
LINE
  5
178
330
1F
100
AcDbEntity
  8
通り芯
  6
JWW_PHANTOM2
 62
     4
370
     9
100
AcDbLine
 10
-218.6824374853038
 20
985.7093702780236
 30
0.0
 11
-218.6824374853038
 21
960.70904035826
 31
0.0
  0
LINE
  5
179
330
1F
100
AcDbEntity
  8
通り芯
  6
Continuous
 62
     4
370
     9
100
AcDbLine
 10
-221.1823220133866
 20
1000.708924886343
 30
0.0
 11
-296.1828168930316
 21
1000.708924886343
 31
0.0
  0
LINE
  5
17A
330
1F
100
AcDbEntity
  8
通り芯
  6
Continuous
 62
     4
370
     9
100
AcDbLine
 10
-211.18228902141
 20
210.70904035826
 30
0.0
 11
-211.18228902141
 21
990.7088918943663
 31
0.0
  0
CIRCLE
  5
17B
330
1F
100
AcDbEntity
  8
通り芯
  6
Continuous
 62
     4
370
     9
100
AcDbCircle
 10
-286.1826601811441
 20
475.7089248863426
 30
0.0
 40
21.25000244862325
  0
CIRCLE
  5
17C
330
1F
100
AcDbEntity
  8
通り芯
  6
Continuous
 62
     4
370
     9
100
AcDbCircle
 10
-286.1826601811441
 20
825.709337286047
 30
0.0
 40
21.25000244862325
  0
ARC
  5
17D
330
1F
100
AcDbEntity
  8
通り芯
  6
JWW_PHANTOM2
 62
     4
370
     9
100
AcDbCircle
 10
-318.6825199652446
 20
930.7094362619762
 30
0.0
 40
15.00000019331236
100
AcDbArc
 50
270.0
 51
0.0
  0
ARC
  5
17E
330
1F
100
AcDbEntity
  8
通り芯
  6
JWW_PHANTOM2
 62
     4
370
     9
100
AcDbCircle
 10
-426.1825034692563
 20
908.209238310118
 30
0.0
 40
7.500000096656181
100
AcDbArc
 50
90.0
 51
180.0
  0
ARC
  5
17F
330
1F
100
AcDbEntity
  8
通り芯
  6
JWW_PHANTOM2
 62
     4
370
     9
100
AcDbCircle
 10
-296.1824457332978
 20
985.7093702780236
 30
0.0
 40
7.500000096656181
100
AcDbArc
 50
90.0
 51
180.0
  0
ARC
  5
180
330
1F
100
AcDbEntity
  8
通り芯
  6
JWW_PHANTOM2
 62
     4
370
     9
100
AcDbCircle
 10
-226.1825859491972
 20
985.7093702780236
 30
0.0
 40
7.500000096656181
100
AcDbArc
 50
0.0
 51
90.0
  0
ARC
  5
181
330
1F
100
AcDbEntity
  8
通り芯
  6
Continuous
 62
     4
370
     9
100
AcDbCircle
 10
-221.1823220133866
 20
990.7088918943663
 30
0.0
 40
10.00000012887491
100
AcDbArc
 50
0.0
 51
90.0
  0
ARC
  5
182
330
1F
100
AcDbEntity
  8
通り芯
  6
Continuous
 62
     4
370
     9
100
AcDbCircle
 10
-221.1823220133866
 20
210.70904035826
 30
0.0
 40
10.00000012887491
100
AcDbArc
 50
270.0
 51
0.0
  0
LWPOLYLINE
  5
183
330
1F
100
AcDbEntity
  8
092
  6
Continuous
 62
     7
370
     9
100
AcDbPolyline
 90
        4
 70
     1
 43
1.0
 10
-210.68228902141
 20
1217.003249606571
 42
0.4142135623731
 10
-211.18228902141
 20
1217.503249606571
 42
0.4142135623731
 10
-211.68228902141
 20
1217.003249606571
 42
0.4142135623731
 10
-211.18228902141
 20
1216.503249606571
 42
0.4142135623731
  0
LINE
  5
184
330
1F
100
AcDbEntity
  8
躯体
  6
JWW_CENTER2
 62
     7
370
     9
100
AcDbLine
 10
-1245.153673430722
 20
550.7089248863426
 30
0.0
 11
-394.5751591254009
 21
550.7089248863426
 31
0.0
  0
LINE
  5
185
330
1F
100
AcDbEntity
  8
通り芯
  6
Continuous
 62
     4
370
     9
100
AcDbLine
 10
-1411.182330261381
 20
1000.708924886343
 30
0.0
 11
-296.1828168930316
 21
1000.708924886343
 31
0.0
  0
LINE
  5
186
330
1F
100
AcDbEntity
  8
通り芯
  6
Continuous
 62
     4
370
     9
100
AcDbLine
 10
-221.1823220133866
 20
200.7090073662835
 30
0.0
 11
-1411.182330261381
 21
200.7090073662835
 31
0.0
  0
LINE
  5
187
330
1F
100
AcDbEntity
  8
092
  6
Continuous
 62
     7
370
     9
100
AcDbLine
 10
-1421.182610693179
 20
1217.003249606571
 30
0.0
 11
-211.18228902141
 21
1217.003249606571
 31
0.0
  0
TEXT
  5
188
330
1F
100
AcDbEntity
  8
092
  6
Continuous
 62
     2
370
   211
100
AcDbText
 10
-848.6824498572947
 20
1227.643513542381
 30
0.0
 40
30.48
  1
242
 41
1.083333333333333
  7
ＭＳ ゴシック
100
AcDbText
  0
LINE
  5
189
330
1F
100
AcDbEntity
  8
通り芯
  6
JWW_PHANTOM2
 62
     4
370
     9
100
AcDbLine
 10
-1198.682000341617
 20
520.2923991496555
 30
0.0
 11
-1198.682000341617
 21
908.209238310118
 31
0.0
  0
LINE
  5
18A
330
1F
100
AcDbEntity
  8
通り芯
  6
JWW_PHANTOM2
 62
     4
370
     9
100
AcDbLine
 10
-1156.064112643469
 20
464.7516687490292
 30
0.0
 11
-831.0650272894634
 21
377.6683183618493
 31
0.0
  0
ARC
  5
18B
330
1F
100
AcDbEntity
  8
通り芯
  6
JWW_PHANTOM2
 62
     4
370
     9
100
AcDbCircle
 10
-1141.182000341617
 20
520.2923991496555
 30
0.0
 40
57.5
100
AcDbArc
 50
180.0
 51
254.9999822477678
  0
LINE
  5
18C
330
1F
100
AcDbEntity
  8
通り芯
  6
JWW_PHANTOM2
 62
     4
370
     9
100
AcDbLine
 10
-476.3005528237775
 20
464.7518808312041
 30
0.0
 11
-801.3007384645056
 21
377.6683183618493
 31
0.0
  0
LINE
  5
18D
330
1F
100
AcDbEntity
  8
通り芯
  6
JWW_PHANTOM2
 62
     4
370
     9
100
AcDbLine
 10
-433.6826519331498
 20
520.2926147667474
 30
0.0
 11
-433.6826519331498
 21
908.209238310118
 31
0.0
  0
ARC
  5
18E
330
1F
100
AcDbEntity
  8
通り芯
  6
JWW_PHANTOM2
 62
     4
370
     9
100
AcDbCircle
 10
-491.1826519331498
 20
520.2926147667474
 30
0.0
 40
57.5
100
AcDbArc
 50
285.0000041428792
 51
0.0
  0
LINE
  5
18F
330
1F
100
AcDbEntity
  8
092
  6
Continuous
 62
     7
370
     9
100
AcDbLine
 10
-5.662268339997354
 20
550.7089248863426
 30
0.0
 11
-5.662268339997354
 21
200.7090073662835
 31
0.0
  0
LINE
  5
190
330
1F
100
AcDbEntity
  8
092
  6
Continuous
 62
     7
370
     9
100
AcDbLine
 10
-364.5750601494717
 20
550.7089248863426
 30
0.0
 11
-2.662307930368968
 21
550.7089248863426
 31
0.0
  0
LINE
  5
191
330
1F
100
AcDbEntity
  8
092
  6
Continuous
 62
     7
370
     9
100
AcDbLine
 10
-181.1823137653923
 20
200.7090073662835
 30
0.0
 11
-2.662307930368968
 21
200.7090073662835
 31
0.0
  0
TEXT
  5
192
330
1F
100
AcDbEntity
  8
092
  6
Continuous
 62
     2
370
     9
100
AcDbText
 10
-16.30228483598565
 20
354.4588424064018
 30
0.0
 40
30.48
  1
70
 50
90.0
 41
1.0625
  7
ＭＳ ゴシック
100
AcDbText
  0
LWPOLYLINE
  5
193
330
1F
100
AcDbEntity
  8
092
  6
Continuous
 62
     7
370
     9
100
AcDbPolyline
 90
        4
 70
     1
 43
1.0
 10
-5.162268339997354
 20
550.7089248863426
 42
0.4142135623731
 10
-5.662268339997354
 20
551.2089248863425
 42
0.4142135623731
 10
-6.162268339997354
 20
550.7089248863426
 42
0.4142135623731
 10
-5.662268339997354
 20
550.2089248863426
 42
0.4142135623731
  0
LWPOLYLINE
  5
194
330
1F
100
AcDbEntity
  8
092
  6
Continuous
 62
     7
370
     9
100
AcDbPolyline
 90
        4
 70
     1
 43
1.0
 10
-5.162268339997354
 20
200.7090073662835
 42
0.4142135623731
 10
-5.662268339997354
 20
201.2090073662835
 42
0.4142135623731
 10
-6.162268339997354
 20
200.7090073662835
 42
0.4142135623731
 10
-5.662268339997354
 20
200.2090073662835
 42
0.4142135623731
  0
LINE
  5
195
330
1F
100
AcDbEntity
  8
092
  6
Continuous
 62
     7
370
     9
100
AcDbLine
 10
-1605.29792344711
 20
1000.708924886343
 30
0.0
 11
-1605.29792344711
 21
375.7090898462243
 31
0.0
  0
LINE
  5
196
330
1F
100
AcDbEntity
  8
092
  6
Continuous
 62
     7
370
     9
100
AcDbLine
 10
-1446.874040037563
 20
1000.708924886343
 30
0.0
 11
-1608.297883856739
 21
1000.708924886343
 31
0.0
  0
LINE
  5
197
330
1F
100
AcDbEntity
  8
092
  6
Continuous
 62
     7
370
     9
100
AcDbLine
 10
-881.2334513287369
 20
375.7090898462243
 30
0.0
 11
-1608.297883856739
 21
375.7090898462243
 31
0.0
  0
LWPOLYLINE
  5
198
330
1F
100
AcDbEntity
  8
092
  6
Continuous
 62
     7
370
     9
100
AcDbPolyline
 90
        4
 70
     1
 43
1.0
 10
-1604.79792344711
 20
1000.708924886343
 42
0.4142135623731
 10
-1605.29792344711
 20
1001.208924886343
 42
0.4142135623731
 10
-1605.79792344711
 20
1000.708924886343
 42
0.4142135623731
 10
-1605.29792344711
 20
1000.208924886343
 42
0.4142135623731
  0
LWPOLYLINE
  5
199
330
1F
100
AcDbEntity
  8
092
  6
Continuous
 62
     7
370
     9
100
AcDbPolyline
 90
        4
 70
     1
 43
1.0
 10
-1604.79792344711
 20
375.7090898462243
 42
0.4142135623731
 10
-1605.29792344711
 20
376.2090898462243
 42
0.4142135623731
 10
-1605.79792344711
 20
375.7090898462243
 42
0.4142135623731
 10
-1605.29792344711
 20
375.2090898462244
 42
0.4142135623731
  0
TEXT
  5
19A
330
1F
100
AcDbEntity
  8
092
  6
Continuous
 62
     2
370
     9
100
AcDbText
 10
-1615.937692503275
 20
668.2088836463722
 30
0.0
 40
30.48
  1
Ｈ
 50
90.0
 41
0.9999999999999998
  7
ＭＳ ゴシック
100
AcDbText
  0
LINE
  5
19B
330
1F
100
AcDbEntity
  8
092
  6
Continuous
 62
     7
370
     9
100
AcDbLine
 10
-1705.734623550844
 20
1000.708924886343
 30
0.0
 11
-1705.734623550844
 21
200.7090073662835
 31
0.0
  0
LINE
  5
19C
330
1F
100
AcDbEntity
  8
092
  6
Continuous
 62
     7
370
     9
100
AcDbLine
 10
-1451.182462229286
 20
200.7090073662835
 30
0.0
 11
-1708.734831400295
 21
200.7090073662835
 31
0.0
  0
LINE
  5
19D
330
1F
100
AcDbEntity
  8
092
  6
Continuous
 62
     7
370
     9
100
AcDbLine
 10
-1605.29792344711
 20
1000.708924886343
 30
0.0
 11
-1708.734831400295
 21
1000.708924886343
 31
0.0
  0
LWPOLYLINE
  5
19E
330
1F
100
AcDbEntity
  8
092
  6
Continuous
 62
     7
370
     9
100
AcDbPolyline
 90
        4
 70
     1
 43
1.0
 10
-1705.234623550844
 20
1000.708924886343
 42
0.4142135623731
 10
-1705.734623550844
 20
1001.208924886343
 42
0.4142135623731
 10
-1706.234623550844
 20
1000.708924886343
 42
0.4142135623731
 10
-1705.734623550844
 20
1000.208924886343
 42
0.4142135623731
  0
LWPOLYLINE
  5
19F
330
1F
100
AcDbEntity
  8
092
  6
Continuous
 62
     7
370
     9
100
AcDbPolyline
 90
        4
 70
     1
 43
1.0
 10
-1705.234623550844
 20
200.7090073662835
 42
0.4142135623731
 10
-1705.734623550844
 20
201.2090073662835
 42
0.4142135623731
 10
-1706.234623550844
 20
200.7090073662835
 42
0.4142135623731
 10
-1705.734623550844
 20
200.2090073662835
 42
0.4142135623731
  0
TEXT
  5
1A0
330
1F
100
AcDbEntity
  8
092
  6
Continuous
 62
     2
370
     9
100
AcDbText
 10
-1716.374640046833
 20
580.7087186864906
 30
0.0
 40
30.48
  1
ｈ
 50
90.0
 41
0.9999999999999998
  7
ＭＳ ゴシック
100
AcDbText
  0
LINE
  5
1A1
330
1F
100
AcDbEntity
  8
092
  6
Continuous
 62
     7
370
     9
100
AcDbLine
 10
205.5907623187917
 20
1041.423415622196
 30
0.0
 11
212.096202695692
 21
1065.562407519366
 31
0.0
  0
LINE
  5
1A2
330
1F
100
AcDbEntity
  8
092
  6
Continuous
 62
     7
370
     9
100
AcDbLine
 10
205.5907623187917
 20
1041.423415622196
 30
0.0
 11
218.1223521361483
 21
1063.055842116073
 31
0.0
  0
TEXT
  5
1A3
330
1F
100
AcDbEntity
  8
092
  6
Continuous
 62
     2
370
     9
100
AcDbText
 10
318.1319499965687
 20
1269.621184572787
 30
0.0
 40
30.48
  1
①プレート
 41
1.1
  7
ＭＳ ゴシック
100
AcDbText
  0
LINE
  5
1A4
330
1F
100
AcDbEntity
  8
092
  6
Continuous
 62
     7
370
     9
100
AcDbLine
 10
293.7687858680846
 20
1253.438268609949
 30
0.0
 11
560.5502371191407
 21
1253.438268609949
 31
0.0
  0
LINE
  5
1A5
330
1F
100
AcDbEntity
  8
092
  6
Continuous
 62
     7
370
     9
100
AcDbLine
 10
293.7687858680846
 20
1253.438268609949
 30
0.0
 11
205.5907623187917
 21
1041.423415622196
 31
0.0
  0
LINE
  5
1A6
330
1F
100
AcDbEntity
  8
092
  6
Continuous
 62
     7
370
     9
100
AcDbLine
 10
488.3750962756411
 20
1103.812086647424
 30
0.0
 11
884.17389800706
 21
1103.812086647424
 31
0.0
  0
LINE
  5
1A7
330
1F
100
AcDbEntity
  8
092
  6
Continuous
 62
     7
370
     9
100
AcDbLine
 10
488.3750962756411
 20
1103.812086647424
 30
0.0
 11
380.2859989372462
 21
843.9231351903968
 31
0.0
  0
TEXT
  5
1A8
330
1F
100
AcDbEntity
  8
092
  6
Continuous
 62
     2
370
     9
100
AcDbText
 10
510.4489224211226
 20
1119.995002610262
 30
0.0
 40
30.48
  1
②ソケット８０Ａ
 41
1.109375
  7
ＭＳ ゴシック
100
AcDbText
  0
ENDSEC
  0
SECTION
  2
OBJECTS
  0
DICTIONARY
  5
C
330
0
100
AcDbDictionary
281
     1
  3
ACAD_GROUP
350
D
  3
ACAD_LAYOUT
350
1A
  3
ACAD_MLEADERSTYLE
350
1AA
  3
ACAD_MLINESTYLE
350
17
  3
ACAD_PLOTSETTINGS
350
19
  3
ACAD_PLOTSTYLENAME
350
E
  3
ACAD_TABLESTYLE
350
1A9
  3
ACAD_VISUALSTYLE
350
2A
  3
AcDbVariableDictionary
350
1AB
  0
DICTIONARY
  5
D
102
{ACAD_REACTORS
330
C
102
}
330
C
100
AcDbDictionary
281
     1
  0
DICTIONARY
  5
1A
102
{ACAD_REACTORS
330
C
102
}
330
C
100
AcDbDictionary
281
     1
  3
Layout1
350
1E
  3
Layout2
350
26
  3
Model
350
22
  0
DICTIONARY
  5
1AA
102
{ACAD_REACTORS
330
C
102
}
330
C
100
AcDbDictionary
281
     1
  0
DICTIONARY
  5
17
102
{ACAD_REACTORS
330
C
102
}
330
C
100
AcDbDictionary
281
     1
  3
Standard
350
18
  0
DICTIONARY
  5
19
102
{ACAD_REACTORS
330
C
102
}
330
C
100
AcDbDictionary
281
     1
  0
ACDBDICTIONARYWDFLT
  5
E
102
{ACAD_REACTORS
330
C
102
}
330
C
100
AcDbDictionary
281
     1
  3
Normal
350
F
100
AcDbDictionaryWithDefault
340
F
  0
DICTIONARY
  5
1A9
102
{ACAD_REACTORS
330
C
102
}
330
C
100
AcDbDictionary
281
     1
  0
DICTIONARY
  5
2A
102
{ACAD_REACTORS
330
C
102
}
330
C
100
AcDbDictionary
281
     1
  3
2dWireframe
350
2F
  3
3D Hidden
350
31
  3
3dWireframe
350
30
  3
Basic
350
32
  3
Brighten
350
36
  3
ColorChange
350
3A
  3
Conceptual
350
34
  3
Dim
350
35
  3
Facepattern
350
39
  3
Flat
350
2B
  3
FlatWithEdges
350
2C
  3
Gouraud
350
2D
  3
GouraudWithEdges
350
2E
  3
Linepattern
350
38
  3
Realistic
350
33
  3
Thicken
350
37
  0
DICTIONARY
  5
1AB
102
{ACAD_REACTORS
330
C
102
}
330
C
100
AcDbDictionary
281
     1
  3
PSOLHEIGHT
350
1AD
  3
PSOLWIDTH
350
1AC
  0
LAYOUT
  5
1E
102
{ACAD_REACTORS
330
1A
102
}
102
{ACAD_XDICTIONARY
360
1AE
102
}
330
1A
100
AcDbPlotSettings
  1

  2
none_device
  4

  6

 40
0.0
 41
0.0
 42
0.0
 43
0.0
 44
0.0
 45
0.0
 46
0.0
 47
0.0
 48
0.0
 49
0.0
140
0.0
141
0.0
142
1.0
143
1.0
 70
   688
 72
     0
 73
     0
 74
     5
  7

 75
    16
147
1.0
148
0.0
149
0.0
100
AcDbLayout
  1
Layout1
 70
     1
 71
     1
 10
0.0
 20
0.0
 11
420.0
 21
297.0
 12
0.0
 22
0.0
 32
0.0
 14
1.000000000000000E+20
 24
1.000000000000000E+20
 34
1.000000000000000E+20
 15
-1.000000000000000E+20
 25
-1.000000000000000E+20
 35
-1.000000000000000E+20
146
0.0
 13
0.0
 23
0.0
 33
0.0
 16
1.0
 26
0.0
 36
0.0
 17
0.0
 27
1.0
 37
0.0
 76
     0
330
1B
  0
LAYOUT
  5
26
102
{ACAD_REACTORS
330
1A
102
}
102
{ACAD_XDICTIONARY
360
1B2
102
}
330
1A
100
AcDbPlotSettings
  1

  2
none_device
  4

  6

 40
0.0
 41
0.0
 42
0.0
 43
0.0
 44
0.0
 45
0.0
 46
0.0
 47
0.0
 48
0.0
 49
0.0
140
0.0
141
0.0
142
1.0
143
1.0
 70
   688
 72
     0
 73
     0
 74
     5
  7

 75
    16
147
1.0
148
0.0
149
0.0
100
AcDbLayout
  1
Layout2
 70
     1
 71
     2
 10
0.0
 20
0.0
 11
0.0
 21
0.0
 12
0.0
 22
0.0
 32
0.0
 14
0.0
 24
0.0
 34
0.0
 15
0.0
 25
0.0
 35
0.0
146
0.0
 13
0.0
 23
0.0
 33
0.0
 16
1.0
 26
0.0
 36
0.0
 17
0.0
 27
1.0
 37
0.0
 76
     0
330
23
  0
LAYOUT
  5
22
102
{ACAD_REACTORS
330
1A
102
}
102
{ACAD_XDICTIONARY
360
1B0
102
}
330
1A
100
AcDbPlotSettings
  1

  2
none_device
  4

  6

 40
0.0
 41
0.0
 42
0.0
 43
0.0
 44
0.0
 45
0.0
 46
0.0
 47
0.0
 48
0.0
 49
0.0
140
0.0
141
0.0
142
1.0
143
1.0
 70
  1712
 72
     0
 73
     0
 74
     0
  7

 75
     0
147
1.0
148
0.0
149
0.0
100
AcDbLayout
  1
Model
 70
     1
 71
     0
 10
-2100.0
 20
-1485.0
 11
2100.0
 21
1485.0
 12
0.0
 22
0.0
 32
0.0
 14
-2100.0
 24
-1485.0
 34
0.0
 15
2100.0
 25
1485.0
 35
0.0
146
0.0
 13
0.0
 23
0.0
 33
0.0
 16
1.0
 26
0.0
 36
0.0
 17
0.0
 27
1.0
 37
0.0
 76
     0
330
1F
331
29
  0
MLINESTYLE
  5
18
102
{ACAD_REACTORS
330
17
102
}
330
17
100
AcDbMlineStyle
  2
Standard
 70
     0
  3

 62
   256
 51
90.0
 52
90.0
 71
     2
 49
0.5
 62
   256
  6
BYLAYER
 49
-0.5
 62
   256
  6
BYLAYER
  0
ACDBPLACEHOLDER
  5
F
102
{ACAD_REACTORS
330
E
102
}
330
E
  0
VISUALSTYLE
  5
2F
102
{ACAD_REACTORS
330
2A
102
}
330
2A
100
AcDbVisualStyle
  2
2dWireframe
 70
     4
 71
     0
 72
     2
 73
     0
 90
        0
 40
-0.6
 41
-30.0
 62
     5
 63
     7
 74
     1
 91
        4
 64
     7
 65
   257
 75
     1
175
     1
 42
1.0
 92
        0
 66
   257
 43
1.0
 76
     1
 77
     6
 78
     2
 67
     7
 79
     5
170
     0
171
     0
290
     0
174
     0
 93
        1
 44
0.0
173
     0
291
     0
 45
0.0
1001
ACAD
1000
AcDbSavedByObjectVersion
1070
     0
  0
VISUALSTYLE
  5
31
102
{ACAD_REACTORS
330
2A
102
}
330
2A
100
AcDbVisualStyle
  2
3D Hidden
 70
     6
 71
     1
 72
     2
 73
     2
 90
        0
 40
-0.6
 41
-30.0
 62
     5
 63
     7
 74
     2
 91
        2
 64
     7
 65
   257
 75
     2
175
     1
 42
40.0
 92
        0
 66
   257
 43
1.0
 76
     1
 77
     6
 78
     2
 67
     7
 79
     3
170
     0
171
     0
290
     0
174
     0
 93
        1
 44
0.0
173
     0
291
     0
 45
0.0
1001
ACAD
1000
AcDbSavedByObjectVersion
1070
     0
  0
VISUALSTYLE
  5
30
102
{ACAD_REACTORS
330
2A
102
}
330
2A
100
AcDbVisualStyle
  2
3dWireframe
 70
     5
 71
     0
 72
     2
 73
     0
 90
        0
 40
-0.6
 41
-30.0
 62
     5
 63
     7
 74
     1
 91
        4
 64
     7
 65
   257
 75
     1
175
     1
 42
1.0
 92
        0
 66
   257
 43
1.0
 76
     1
 77
     6
 78
     2
 67
     7
 79
     5
170
     0
171
     0
290
     0
174
     0
 93
        1
 44
0.0
173
     0
291
     0
 45
0.0
1001
ACAD
1000
AcDbSavedByObjectVersion
1070
     0
  0
VISUALSTYLE
  5
32
102
{ACAD_REACTORS
330
2A
102
}
330
2A
100
AcDbVisualStyle
  2
Basic
 70
     7
 71
     1
 72
     0
 73
     1
 90
        0
 40
-0.6
 41
-30.0
 62
     5
 63
     7
 74
     0
 91
        4
 64
     7
 65
   257
 75
     1
175
     1
 42
1.0
 92
        8
 66
     7
 43
1.0
 76
     1
 77
     6
 78
     2
 67
     7
 79
     5
170
     0
171
     0
290
     0
174
     0
 93
        1
 44
0.0
173
     0
291
     1
 45
0.0
1001
ACAD
1000
AcDbSavedByObjectVersion
1070
     0
  0
VISUALSTYLE
  5
36
102
{ACAD_REACTORS
330
2A
102
}
330
2A
100
AcDbVisualStyle
  2
Brighten
 70
    12
 71
     2
 72
     2
 73
     0
 90
        0
 40
-0.6
 41
-30.0
 62
     5
 63
     7
 74
     1
 91
        4
 64
     7
 65
   257
 75
     1
175
     1
 42
1.0
 92
        8
 66
     7
 43
1.0
 76
     1
 77
     6
 78
     2
 67
     7
 79
     5
170
     0
171
     0
290
     0
174
     0
 93
        1
 44
50.0
173
     0
291
     1
 45
0.0
1001
ACAD
1000
AcDbSavedByObjectVersion
1070
     0
  0
VISUALSTYLE
  5
3A
102
{ACAD_REACTORS
330
2A
102
}
330
2A
100
AcDbVisualStyle
  2
ColorChange
 70
    16
 71
     2
 72
     2
 73
     3
 90
        0
 40
-0.6
 41
-30.0
 62
     5
 63
     8
 74
     1
 91
        4
 64
     7
 65
   257
 75
     1
175
     1
 42
1.0
 92
        8
 66
     8
 43
1.0
 76
     1
 77
     6
 78
     2
 67
     7
 79
     5
170
     0
171
     0
290
     0
174
     0
 93
        1
 44
0.0
173
     0
291
     1
 45
0.0
1001
ACAD
1000
AcDbSavedByObjectVersion
1070
     0
  0
VISUALSTYLE
  5
34
102
{ACAD_REACTORS
330
2A
102
}
330
2A
100
AcDbVisualStyle
  2
Conceptual
 70
     9
 71
     3
 72
     2
 73
     0
 90
        0
 40
-0.6
 41
-30.0
 62
     5
 63
     7
 74
     2
 91
        2
 64
     7
 65
   257
 75
     1
175
     1
 42
40.0
 92
        8
 66
     7
 43
1.0
 76
     1
 77
     6
 78
     2
 67
     7
 79
     3
170
     0
171
     0
290
     0
174
     0
 93
        1
 44
0.0
173
     0
291
     0
 45
0.0
1001
ACAD
1000
AcDbSavedByObjectVersion
1070
     0
  0
VISUALSTYLE
  5
35
102
{ACAD_REACTORS
330
2A
102
}
330
2A
100
AcDbVisualStyle
  2
Dim
 70
    11
 71
     2
 72
     2
 73
     0
 90
        0
 40
-0.6
 41
-30.0
 62
     5
 63
     7
 74
     1
 91
        4
 64
     7
 65
   257
 75
     1
175
     1
 42
1.0
 92
        8
 66
     7
 43
1.0
 76
     1
 77
     6
 78
     2
 67
     7
 79
     5
170
     0
171
     0
290
     0
174
     0
 93
        1
 44
-50.0
173
     0
291
     1
 45
0.0
1001
ACAD
1000
AcDbSavedByObjectVersion
1070
     0
  0
VISUALSTYLE
  5
39
102
{ACAD_REACTORS
330
2A
102
}
330
2A
100
AcDbVisualStyle
  2
Facepattern
 70
    15
 71
     2
 72
     2
 73
     0
 90
        0
 40
-0.6
 41
-30.0
 62
     5
 63
     7
 74
     1
 91
        4
 64
     7
 65
   257
 75
     1
175
     1
 42
1.0
 92
        8
 66
     7
 43
1.0
 76
     1
 77
     6
 78
     2
 67
     7
 79
     5
170
     0
171
     0
290
     0
174
     0
 93
        1
 44
0.0
173
     0
291
     1
 45
0.0
1001
ACAD
1000
AcDbSavedByObjectVersion
1070
     0
  0
VISUALSTYLE
  5
2B
102
{ACAD_REACTORS
330
2A
102
}
330
2A
100
AcDbVisualStyle
  2
Flat
 70
     0
 71
     2
 72
     1
 73
     1
 90
        2
 40
-0.6
 41
30.0
 62
     5
 63
     7
 74
     0
 91
        4
 64
     7
 65
   257
 75
     1
175
     1
 42
1.0
 92
        8
 66
     7
 43
1.0
 76
     1
 77
     6
 78
     2
 67
     7
 79
     5
170
     0
171
     0
290
     0
174
     0
 93
       13
 44
0.0
173
     0
291
     1
 45
0.0
1001
ACAD
1000
AcDbSavedByObjectVersion
1070
     0
  0
VISUALSTYLE
  5
2C
102
{ACAD_REACTORS
330
2A
102
}
330
2A
100
AcDbVisualStyle
  2
FlatWithEdges
 70
     1
 71
     2
 72
     1
 73
     1
 90
        2
 40
-0.6
 41
30.0
 62
     5
 63
     7
 74
     1
 91
        4
 64
     7
 65
   257
 75
     1
175
     1
 42
1.0
 92
        0
 66
   257
 43
1.0
 76
     1
 77
     6
 78
     2
 67
     7
 79
     5
170
     0
171
     0
290
     0
174
     0
 93
       13
 44
0.0
173
     0
291
     1
 45
0.0
1001
ACAD
1000
AcDbSavedByObjectVersion
1070
     0
  0
VISUALSTYLE
  5
2D
102
{ACAD_REACTORS
330
2A
102
}
330
2A
100
AcDbVisualStyle
  2
Gouraud
 70
     2
 71
     2
 72
     2
 73
     1
 90
        2
 40
-0.6
 41
30.0
 62
     5
 63
     7
 74
     0
 91
        4
 64
     7
 65
   257
 75
     1
175
     1
 42
1.0
 92
        0
 66
     7
 43
1.0
 76
     1
 77
     6
 78
     2
 67
     7
 79
     5
170
     0
171
     0
290
     0
174
     0
 93
       13
 44
0.0
173
     0
291
     1
 45
0.0
1001
ACAD
1000
AcDbSavedByObjectVersion
1070
     0
  0
VISUALSTYLE
  5
2E
102
{ACAD_REACTORS
330
2A
102
}
330
2A
100
AcDbVisualStyle
  2
GouraudWithEdges
 70
     3
 71
     2
 72
     2
 73
     1
 90
        2
 40
-0.6
 41
30.0
 62
     5
 63
     7
 74
     1
 91
        4
 64
     7
 65
   257
 75
     1
175
     1
 42
1.0
 92
        0
 66
   257
 43
1.0
 76
     1
 77
     6
 78
     2
 67
     7
 79
     5
170
     0
171
     0
290
     0
174
     0
 93
       13
 44
0.0
173
     0
291
     1
 45
0.0
1001
ACAD
1000
AcDbSavedByObjectVersion
1070
     0
  0
VISUALSTYLE
  5
38
102
{ACAD_REACTORS
330
2A
102
}
330
2A
100
AcDbVisualStyle
  2
Linepattern
 70
    14
 71
     2
 72
     2
 73
     0
 90
        0
 40
-0.6
 41
-30.0
 62
     5
 63
     7
 74
     1
 91
        4
 64
     7
 65
   257
 75
     7
175
     7
 42
1.0
 92
        8
 66
     7
 43
1.0
 76
     1
 77
     6
 78
     2
 67
     7
 79
     5
170
     0
171
     0
290
     0
174
     0
 93
        1
 44
0.0
173
     0
291
     1
 45
0.0
1001
ACAD
1000
AcDbSavedByObjectVersion
1070
     0
  0
VISUALSTYLE
  5
33
102
{ACAD_REACTORS
330
2A
102
}
330
2A
100
AcDbVisualStyle
  2
Realistic
 70
     8
 71
     2
 72
     2
 73
     0
 90
        0
 40
-0.6
 41
-30.0
 62
     5
 63
     7
 74
     1
 91
        0
 64
     7
 65
   257
 75
     1
175
     1
 42
1.0
 92
        8
 66
     8
 43
1.0
 76
     1
 77
     6
 78
     2
 67
     7
 79
     5
170
     0
171
     0
290
     0
174
     0
 93
       13
 44
0.0
173
     0
291
     0
 45
0.0
1001
ACAD
1000
AcDbSavedByObjectVersion
1070
     0
  0
VISUALSTYLE
  5
37
102
{ACAD_REACTORS
330
2A
102
}
330
2A
100
AcDbVisualStyle
  2
Thicken
 70
    13
 71
     2
 72
     2
 73
     0
 90
        0
 40
-0.6
 41
-30.0
 62
     5
 63
     7
 74
     1
 91
        4
 64
     7
 65
   257
 75
     1
175
     1
 42
1.0
 92
       12
 66
     7
 43
1.0
 76
     1
 77
     6
 78
     2
 67
     7
 79
     5
170
     0
171
     0
290
     0
174
     0
 93
        1
 44
0.0
173
     0
291
     1
 45
0.0
1001
ACAD
1000
AcDbSavedByObjectVersion
1070
     0
  0
DICTIONARYVAR
  5
1AD
102
{ACAD_REACTORS
330
1AB
102
}
330
1AB
100
DictionaryVariables
280
     0
  1
80.000000
  0
DICTIONARYVAR
  5
1AC
102
{ACAD_REACTORS
330
1AB
102
}
330
1AB
100
DictionaryVariables
280
     0
  1
5.000000
  0
DICTIONARY
  5
1AE
330
1E
100
AcDbDictionary
280
     1
281
     1
  3
ACAD_XREC_ROUNDTRIP
360
1AF
  0
DICTIONARY
  5
1B2
330
26
100
AcDbDictionary
280
     1
281
     1
  3
ACAD_XREC_ROUNDTRIP
360
1B3
  0
DICTIONARY
  5
1B0
330
22
100
AcDbDictionary
280
     1
281
     1
  3
ACAD_XREC_ROUNDTRIP
360
1B1
  0
XRECORD
  5
1AF
102
{ACAD_REACTORS
330
1AE
102
}
330
1AE
100
AcDbXrecord
280
     1
102
SHADEPLOT
 70
     0
102
SHADEPLOTRESLEVEL
 70
     5
102
SHADEPLOTCUSTOMDPI
 70
   300
  0
XRECORD
  5
1B3
102
{ACAD_REACTORS
330
1B2
102
}
330
1B2
100
AcDbXrecord
280
     1
102
SHADEPLOT
 70
     0
102
SHADEPLOTRESLEVEL
 70
     5
102
SHADEPLOTCUSTOMDPI
 70
   300
  0
XRECORD
  5
1B1
102
{ACAD_REACTORS
330
1B0
102
}
330
1B0
100
AcDbXrecord
280
     1
102
SHADEPLOT
 70
     0
102
SHADEPLOTRESLEVEL
 70
     5
102
SHADEPLOTCUSTOMDPI
 70
   300
  0
ENDSEC
  0
EOF
