  0
SECTION
  2
HEADER
  9
$ACADVER
  1
AC1018
  9
$ACADMAINTVER
 70
     0
  9
$DWGCODEPAGE
  3
ANSI_932
  9
$INSBASE
 10
0.0
 20
0.0
 30
0.0
  9
$EXTMIN
 10
-1050.0
 20
-742.5
 30
0.0
  9
$EXTMAX
 10
1050.0
 20
742.5
 30
0.0
  9
$LIMMIN
 10
-1050.0
 20
-742.5
  9
$LIMMAX
 10
1050.0
 20
742.5
  9
$ORTHOMODE
 70
     0
  9
$REGENMODE
 70
     1
  9
$FILLMODE
 70
     1
  9
$QTEXTMODE
 70
     0
  9
$MIRRTEXT
 70
     1
  9
$LTSCALE
 40
5.0
  9
$ATTMODE
 70
     1
  9
$TEXTSIZE
 40
2.5
  9
$TRACEWID
 40
1.0
  9
$TEXTSTYLE
  7
Standard
  9
$CLAYER
  8
0
  9
$CELTYPE
  6
ByLayer
  9
$CECOLOR
 62
   256
  9
$CELTSCALE
 40
1.0
  9
$DISPSILH
 70
     0
  9
$DIMSCALE
 40
1.0
  9
$DIMASZ
 40
2.5
  9
$DIMEXO
 40
0.625
  9
$DIMDLI
 40
3.75
  9
$DIMRND
 40
0.0
  9
$DIMDLE
 40
0.0
  9
$DIMEXE
 40
1.25
  9
$DIMTP
 40
0.0
  9
$DIMTM
 40
0.0
  9
$DIMTXT
 40
2.5
  9
$DIMCEN
 40
2.5
  9
$DIMTSZ
 40
0.0
  9
$DIMTOL
 70
     0
  9
$DIMLIM
 70
     0
  9
$DIMTIH
 70
     0
  9
$DIMTOH
 70
     0
  9
$DIMSE1
 70
     0
  9
$DIMSE2
 70
     0
  9
$DIMTAD
 70
     1
  9
$DIMZIN
 70
     8
  9
$DIMBLK
  1

  9
$DIMASO
 70
     1
  9
$DIMSHO
 70
     1
  9
$DIMPOST
  1

  9
$DIMAPOST
  1

  9
$DIMALT
 70
     0
  9
$DIMALTD
 70
     3
  9
$DIMALTF
 40
0.03937007874016
  9
$DIMLFAC
 40
1.0
  9
$DIMTOFL
 70
     1
  9
$DIMTVP
 40
0.0
  9
$DIMTIX
 70
     0
  9
$DIMSOXD
 70
     0
  9
$DIMSAH
 70
     0
  9
$DIMBLK1
  1

  9
$DIMBLK2
  1

  9
$DIMSTYLE
  2
ISO-25
  9
$DIMCLRD
 70
     0
  9
$DIMCLRE
 70
     0
  9
$DIMCLRT
 70
     0
  9
$DIMTFAC
 40
1.0
  9
$DIMGAP
 40
0.625
  9
$DIMJUST
 70
     0
  9
$DIMSD1
 70
     0
  9
$DIMSD2
 70
     0
  9
$DIMTOLJ
 70
     0
  9
$DIMTZIN
 70
     8
  9
$DIMALTZ
 70
     0
  9
$DIMALTTZ
 70
     0
  9
$DIMUPT
 70
     0
  9
$DIMDEC
 70
     2
  9
$DIMTDEC
 70
     2
  9
$DIMALTU
 70
     2
  9
$DIMALTTD
 70
     3
  9
$DIMTXSTY
  7
Standard
  9
$DIMAUNIT
 70
     0
  9
$DIMADEC
 70
     0
  9
$DIMALTRND
 40
0.0
  9
$DIMAZIN
 70
     0
  9
$DIMDSEP
 70
    44
  9
$DIMATFIT
 70
     3
  9
$DIMFRAC
 70
     0
  9
$DIMLDRBLK
  1

  9
$DIMLUNIT
 70
     2
  9
$DIMLWD
 70
    -2
  9
$DIMLWE
 70
    -2
  9
$DIMTMOVE
 70
     0
  9
$LUNITS
 70
     2
  9
$LUPREC
 70
     4
  9
$SKETCHINC
 40
1.0
  9
$FILLETRAD
 40
10.0
  9
$AUNITS
 70
     0
  9
$AUPREC
 70
     0
  9
$MENU
  1
.
  9
$ELEVATION
 40
0.0
  9
$PELEVATION
 40
0.0
  9
$THICKNESS
 40
0.0
  9
$LIMCHECK
 70
     0
  9
$CHAMFERA
 40
10.0
  9
$CHAMFERB
 40
10.0
  9
$CHAMFERC
 40
20.0
  9
$CHAMFERD
 40
0.0
  9
$SKPOLY
 70
     0
  9
$TDCREATE
 40
2457722.830937072
  9
$TDUCREATE
 40
2457722.455937072
  9
$TDUPDATE
 40
2457722.830937083
  9
$TDUUPDATE
 40
2457722.455937083
  9
$TDINDWG
 40
0.0000000116
  9
$TDUSRTIMER
 40
0.0000000116
  9
$USRTIMER
 70
     1
  9
$ANGBASE
 50
0.0
  9
$ANGDIR
 70
     0
  9
$PDMODE
 70
     0
  9
$PDSIZE
 40
0.0
  9
$PLINEWID
 40
0.0
  9
$SPLFRAME
 70
     0
  9
$SPLINETYPE
 70
     6
  9
$SPLINESEGS
 70
     8
  9
$HANDSEED
  5
2A0
  9
$SURFTAB1
 70
     6
  9
$SURFTAB2
 70
     6
  9
$SURFTYPE
 70
     6
  9
$SURFU
 70
     6
  9
$SURFV
 70
     6
  9
$UCSBASE
  2

  9
$UCSNAME
  2

  9
$UCSORG
 10
0.0
 20
0.0
 30
0.0
  9
$UCSXDIR
 10
1.0
 20
0.0
 30
0.0
  9
$UCSYDIR
 10
0.0
 20
1.0
 30
0.0
  9
$UCSORTHOREF
  2

  9
$UCSORTHOVIEW
 70
     0
  9
$UCSORGTOP
 10
0.0
 20
0.0
 30
0.0
  9
$UCSORGBOTTOM
 10
0.0
 20
0.0
 30
0.0
  9
$UCSORGLEFT
 10
0.0
 20
0.0
 30
0.0
  9
$UCSORGRIGHT
 10
0.0
 20
0.0
 30
0.0
  9
$UCSORGFRONT
 10
0.0
 20
0.0
 30
0.0
  9
$UCSORGBACK
 10
0.0
 20
0.0
 30
0.0
  9
$PUCSBASE
  2

  9
$PUCSNAME
  2

  9
$PUCSORG
 10
0.0
 20
0.0
 30
0.0
  9
$PUCSXDIR
 10
1.0
 20
0.0
 30
0.0
  9
$PUCSYDIR
 10
0.0
 20
1.0
 30
0.0
  9
$PUCSORTHOREF
  2

  9
$PUCSORTHOVIEW
 70
     0
  9
$PUCSORGTOP
 10
0.0
 20
0.0
 30
0.0
  9
$PUCSORGBOTTOM
 10
0.0
 20
0.0
 30
0.0
  9
$PUCSORGLEFT
 10
0.0
 20
0.0
 30
0.0
  9
$PUCSORGRIGHT
 10
0.0
 20
0.0
 30
0.0
  9
$PUCSORGFRONT
 10
0.0
 20
0.0
 30
0.0
  9
$PUCSORGBACK
 10
0.0
 20
0.0
 30
0.0
  9
$USERI1
 70
     0
  9
$USERI2
 70
     0
  9
$USERI3
 70
     0
  9
$USERI4
 70
     0
  9
$USERI5
 70
     0
  9
$USERR1
 40
0.0
  9
$USERR2
 40
0.0
  9
$USERR3
 40
0.0
  9
$USERR4
 40
0.0
  9
$USERR5
 40
0.0
  9
$WORLDVIEW
 70
     1
  9
$SHADEDGE
 70
     3
  9
$SHADEDIF
 70
    70
  9
$TILEMODE
 70
     1
  9
$MAXACTVP
 70
    64
  9
$PINSBASE
 10
0.0
 20
0.0
 30
0.0
  9
$PLIMCHECK
 70
     0
  9
$PEXTMIN
 10
1.000000000000000E+20
 20
1.000000000000000E+20
 30
1.000000000000000E+20
  9
$PEXTMAX
 10
-1.000000000000000E+20
 20
-1.000000000000000E+20
 30
-1.000000000000000E+20
  9
$PLIMMIN
 10
0.0
 20
0.0
  9
$PLIMMAX
 10
420.0
 20
297.0
  9
$UNITMODE
 70
     0
  9
$VISRETAIN
 70
     1
  9
$PLINEGEN
 70
     0
  9
$PSLTSCALE
 70
     1
  9
$TREEDEPTH
 70
  3020
  9
$CMLSTYLE
  2
Standard
  9
$CMLJUST
 70
     0
  9
$CMLSCALE
 40
20.0
  9
$PROXYGRAPHICS
 70
     1
  9
$MEASUREMENT
 70
     1
  9
$CELWEIGHT
370
    -1
  9
$ENDCAPS
280
     0
  9
$JOINSTYLE
280
     0
  9
$LWDISPLAY
290
     0
  9
$INSUNITS
 70
     4
  9
$HYPERLINKBASE
  1

  9
$STYLESHEET
  1

  9
$XEDIT
290
     1
  9
$CEPSNTYPE
380
     0
  9
$PSTYLEMODE
290
     1
  9
$FINGERPRINTGUID
  2
{BA10123E-B28E-4A75-A769-6C49FA3CFC64}
  9
$VERSIONGUID
  2
{FAEB1C32-E019-11D5-929B-00C0DF256EC4}
  9
$EXTNAMES
290
     1
  9
$PSVPSCALE
 40
0.0
  9
$OLESTARTUP
290
     0
  9
$SORTENTS
280
   127
  9
$INDEXCTL
280
     0
  9
$HIDETEXT
280
     1
  9
$XCLIPFRAME
290
     0
  9
$HALOGAP
280
     0
  9
$OBSCOLOR
 70
   257
  9
$OBSLTYPE
280
     0
  9
$INTERSECTIONDISPLAY
280
     0
  9
$INTERSECTIONCOLOR
 70
   257
  9
$DIMASSOC
280
     2
  9
$PROJECTNAME
  1

  0
ENDSEC
  0
SECTION
  2
CLASSES
  0
CLASS
  1
ACDBDICTIONARYWDFLT
  2
AcDbDictionaryWithDefault
  3
ObjectDBX Classes
 90
        0
 91
        4
280
     0
281
     0
  0
CLASS
  1
VISUALSTYLE
  2
AcDbVisualStyle
  3
ObjectDBX Classes
 90
     4095
 91
        4
280
     0
281
     0
  0
ENDSEC
  0
SECTION
  2
TABLES
  0
TABLE
  2
VPORT
  5
8
330
0
100
AcDbSymbolTable
 70
     1
  0
VPORT
  5
29
330
8
100
AcDbSymbolTableRecord
100
AcDbViewportTableRecord
  2
*Active
 70
     0
 10
0.0
 20
0.0
 11
1.0
 21
1.0
 12
0.0
 22
0.0
 13
0.0
 23
0.0
 14
10.0
 24
10.0
 15
10.0
 25
10.0
 16
0.0
 26
0.0
 36
1.0
 17
0.0
 27
0.0
 37
0.0
 40
1633.5
 41
1.414141414141414
 42
50.0
 43
0.0
 44
0.0
 50
0.0
 51
0.0
 71
     0
 72
 10000
 73
     1
 74
     3
 75
     0
 76
     0
 77
     0
 78
     0
281
     0
 65
     1
110
0.0
120
0.0
130
0.0
111
1.0
121
0.0
131
0.0
112
0.0
122
1.0
132
0.0
 79
     0
146
0.0
  0
ENDTAB
  0
TABLE
  2
LTYPE
  5
5
330
0
100
AcDbSymbolTable
 70
     5
  0
LTYPE
  5
14
330
5
100
AcDbSymbolTableRecord
100
AcDbLinetypeTableRecord
  2
ByBlock
 70
     0
  3

 72
    65
 73
     0
 40
0.0
  0
LTYPE
  5
15
330
5
100
AcDbSymbolTableRecord
100
AcDbLinetypeTableRecord
  2
ByLayer
 70
     0
  3

 72
    65
 73
     0
 40
0.0
  0
LTYPE
  5
16
330
5
100
AcDbSymbolTableRecord
100
AcDbLinetypeTableRecord
  2
Continuous
 70
     0
  3
Solid line
 72
    65
 73
     0
 40
0.0
  0
LTYPE
  5
3C
330
5
100
AcDbSymbolTableRecord
100
AcDbLinetypeTableRecord
  2
JWW_DASHED1
 70
     0
  3
-  --  --  --  --  --  --  --  -
 72
    65
 73
     2
 40
1.693333333333333
 49
0.8466666666666667
 74
     0
 49
-0.8466666666666667
 74
     0
  0
LTYPE
  5
3D
330
5
100
AcDbSymbolTableRecord
100
AcDbLinetypeTableRecord
  2
JWW_DASHED2
 70
     0
  3
--    ----    ----    ----    --
 72
    65
 73
     2
 40
3.386666666666667
 49
1.693333333333333
 74
     0
 49
-1.693333333333333
 74
     0
  0
LTYPE
  5
3E
330
5
100
AcDbSymbolTableRecord
100
AcDbLinetypeTableRecord
  2
JWW_HOJO
 70
     0
  3
  -   -   -   -   -   -   -   - 
 72
    65
 73
     2
 40
1.693333333333333
 49
-1.27
 74
     0
 49
0.4233333333333333
 74
     0
  0
LTYPE
  5
3F
330
5
100
AcDbSymbolTableRecord
100
AcDbLinetypeTableRecord
  2
JWW_CENTER2
 70
     0
  3
-------------  --  -------------
 72
    65
 73
     4
 40
13.54666666666667
 49
11.00666666666667
 74
     0
 49
-0.8466666666666667
 74
     0
 49
0.8466666666666667
 74
     0
 49
-0.8466666666666667
 74
     0
  0
ENDTAB
  0
TABLE
  2
LAYER
  5
2
330
0
100
AcDbSymbolTable
 70
    13
  0
LAYER
  5
10
330
2
100
AcDbSymbolTableRecord
100
AcDbLayerTableRecord
  2
0
 70
     0
 62
     7
  6
Continuous
370
    -3
390
F
  0
LAYER
  5
40
330
2
100
AcDbSymbolTableRecord
100
AcDbLayerTableRecord
  2
F-5ﾚｲﾔ
 70
     0
 62
     7
  6
Continuous
370
    -3
390
F
  0
LAYER
  5
41
330
2
100
AcDbSymbolTableRecord
100
AcDbLayerTableRecord
  2
D-F
 70
     0
 62
     7
  6
Continuous
370
    -3
390
F
  0
LAYER
  5
42
330
2
100
AcDbSymbolTableRecord
100
AcDbLayerTableRecord
  2
D-0
 70
     0
 62
     7
  6
Continuous
370
    -3
390
F
  0
LAYER
  5
43
330
2
100
AcDbSymbolTableRecord
100
AcDbLayerTableRecord
  2
D-5
 70
     0
 62
     7
  6
Continuous
370
    -3
390
F
  0
LAYER
  5
44
330
2
100
AcDbSymbolTableRecord
100
AcDbLayerTableRecord
  2
084
 70
     0
 62
     7
  6
Continuous
370
    -3
390
F
  0
LAYER
  5
45
330
2
100
AcDbSymbolTableRecord
100
AcDbLayerTableRecord
  2
ハッチ
 70
     0
 62
     7
  6
Continuous
370
    -3
390
F
  0
LAYER
  5
46
330
2
100
AcDbSymbolTableRecord
100
AcDbLayerTableRecord
  2
その他
 70
     0
 62
     7
  6
Continuous
370
    -3
390
F
  0
LAYER
  5
47
330
2
100
AcDbSymbolTableRecord
100
AcDbLayerTableRecord
  2
051
 70
     0
 62
     7
  6
Continuous
370
    -3
390
F
  0
LAYER
  5
48
330
2
100
AcDbSymbolTableRecord
100
AcDbLayerTableRecord
  2
041
 70
     0
 62
     7
  6
Continuous
370
    -3
390
F
  0
LAYER
  5
49
330
2
100
AcDbSymbolTableRecord
100
AcDbLayerTableRecord
  2
寸法
 70
     0
 62
     7
  6
Continuous
370
    -3
390
F
  0
LAYER
  5
4A
330
2
100
AcDbSymbolTableRecord
100
AcDbLayerTableRecord
  2
建具
 70
     0
 62
     7
  6
Continuous
370
    -3
390
F
  0
LAYER
  5
4B
330
2
100
AcDbSymbolTableRecord
100
AcDbLayerTableRecord
  2
仕上
 70
     0
 62
     7
  6
Continuous
370
    -3
390
F
  0
ENDTAB
  0
TABLE
  2
STYLE
  5
3
330
0
100
AcDbSymbolTable
 70
     2
  0
STYLE
  5
11
330
3
100
AcDbSymbolTableRecord
100
AcDbTextStyleTableRecord
  2
Standard
 70
     0
 40
0.0
 41
1.0
 50
0.0
 71
     0
 42
2.5
  3
txt
  4

1001
ACAD
1000

1071
        0
  0
STYLE
  5
3B
330
3
100
AcDbSymbolTableRecord
100
AcDbTextStyleTableRecord
  2
ＭＳ ゴシック
 70
     0
 40
1.0
 41
1.0
 50
0.0
 71
     0
 42
10.0
  3
msgothic.ttc
  4

1001
ACAD
1000
MS Gothic
1071
    32817
  0
ENDTAB
  0
TABLE
  2
VIEW
  5
6
330
0
100
AcDbSymbolTable
 70
     0
  0
ENDTAB
  0
TABLE
  2
UCS
  5
7
330
0
100
AcDbSymbolTable
 70
     0
  0
ENDTAB
  0
TABLE
  2
APPID
  5
9
330
0
100
AcDbSymbolTable
 70
     1
  0
APPID
  5
12
330
9
100
AcDbSymbolTableRecord
100
AcDbRegAppTableRecord
  2
ACAD
 70
     0
  0
ENDTAB
  0
TABLE
  2
DIMSTYLE
  5
A
330
0
100
AcDbSymbolTable
 70
     1
100
AcDbDimStyleTable
  0
DIMSTYLE
105
27
330
A
100
AcDbSymbolTableRecord
100
AcDbDimStyleTableRecord
  2
ISO-25
 70
     0
 41
2.5
 42
0.625
 43
3.75
 44
1.25
 73
     0
 74
     0
 77
     1
 78
     8
140
2.5
141
2.5
143
0.03937007874016
147
0.625
171
     3
172
     1
271
     2
272
     2
274
     3
278
    44
283
     0
284
     8
340
11
  0
ENDTAB
  0
TABLE
  2
BLOCK_RECORD
  5
1
330
0
100
AcDbSymbolTable
 70
     1
  0
BLOCK_RECORD
  5
1F
330
1
100
AcDbSymbolTableRecord
100
AcDbBlockTableRecord
  2
*Model_Space
340
22
  0
BLOCK_RECORD
  5
1B
330
1
100
AcDbSymbolTableRecord
100
AcDbBlockTableRecord
  2
*Paper_Space
340
1E
  0
BLOCK_RECORD
  5
23
330
1
100
AcDbSymbolTableRecord
100
AcDbBlockTableRecord
  2
*Paper_Space0
340
26
  0
ENDTAB
  0
ENDSEC
  0
SECTION
  2
BLOCKS
  0
BLOCK
  5
20
330
1F
100
AcDbEntity
  8
0
100
AcDbBlockBegin
  2
*Model_Space
 70
     0
 10
0.0
 20
0.0
 30
0.0
  3
*Model_Space
  1

  0
ENDBLK
  5
21
330
1F
100
AcDbEntity
  8
0
100
AcDbBlockEnd
  0
BLOCK
  5
1C
330
1B
100
AcDbEntity
 67
     1
  8
0
100
AcDbBlockBegin
  2
*Paper_Space
 70
     0
 10
0.0
 20
0.0
 30
0.0
  3
*Paper_Space
  1

  0
ENDBLK
  5
1D
330
1B
100
AcDbEntity
 67
     1
  8
0
100
AcDbBlockEnd
  0
BLOCK
  5
24
330
23
100
AcDbEntity
  8
0
100
AcDbBlockBegin
  2
*Paper_Space0
 70
     0
 10
0.0
 20
0.0
 30
0.0
  3
*Paper_Space0
  1

  0
ENDBLK
  5
25
330
23
100
AcDbEntity
  8
0
100
AcDbBlockEnd
  0
ENDSEC
  0
SECTION
  2
ENTITIES
  0
TEXT
  5
4C
330
1F
100
AcDbEntity
  8
F-5ﾚｲﾔ
  6
Continuous
 62
     4
370
     9
100
AcDbText
 10
-389.5249597137047
 20
-652.0749299436002
 30
0.0
 40
11.43
  1
ＨＡＣＣＰ対応　現場溶接タイプ　サニタリートラフ（ステンレス製トラフパン）
 41
1.097297297297298
  7
ＭＳ ゴシック
100
AcDbText
  0
TEXT
  5
4D
330
1F
100
AcDbEntity
  8
F-5ﾚｲﾔ
  6
Continuous
 62
     7
370
     9
100
AcDbText
 10
47.97504028629589
 20
-672.3999299436002
 30
0.0
 40
11.43
  1
集水桝　ＳＴＷＶ－Ｍ
 41
1.15
  7
ＭＳ ゴシック
100
AcDbText
  0
TEXT
  5
4E
330
1F
100
AcDbEntity
  8
D-F
  6
Continuous
 62
     2
370
     9
100
AcDbText
 10
820.1223275498501
 20
-85.70517937286706
 30
0.0
 40
15.24
  1
352
 41
1.083333333333333
  7
ＭＳ ゴシック
100
AcDbText
  0
TEXT
  5
4F
330
1F
100
AcDbEntity
  8
D-F
  6
Continuous
 62
     2
370
     9
100
AcDbText
 10
663.3433461900268
 20
-42.32844513002998
 30
0.0
 40
15.24
  1
Ｗ１
 41
1.0625
  7
ＭＳ ゴシック
100
AcDbText
  0
LINE
  5
50
330
1F
100
AcDbEntity
  8
D-0
  6
Continuous
 62
     7
370
     9
100
AcDbLine
 10
481.0929604451803
 20
2.198801591315203
 30
0.0
 11
573.2953215631005
 21
2.198801591315203
 31
0.0
  0
TEXT
  5
51
330
1F
100
AcDbEntity
  8
D-F
  6
Continuous
 62
     2
370
     9
100
AcDbText
 10
492.4256299426384
 20
11.39385178625094
 30
0.0
 40
15.24
  1
寸法表
 41
1.083333333333333
  7
ＭＳ ゴシック
100
AcDbText
  0
TEXT
  5
52
330
1F
100
AcDbEntity
  8
D-F
  6
Continuous
 62
     2
370
     9
100
AcDbText
 10
491.7647587392662
 20
-85.70517937286706
 30
0.0
 40
15.24
  1
STWV-150-M300
 41
1.115384615384615
  7
ＭＳ ゴシック
100
AcDbText
  0
TEXT
  5
53
330
1F
100
AcDbEntity
  8
D-F
  6
Continuous
 62
     2
370
     9
100
AcDbText
 10
492.3897587392662
 20
-118.2050921797865
 30
0.0
 40
15.24
  1
STWV-150-M350
 41
1.115384615384615
  7
ＭＳ ゴシック
100
AcDbText
  0
TEXT
  5
54
330
1F
100
AcDbEntity
  8
D-F
  6
Continuous
 62
     2
370
     9
100
AcDbText
 10
492.3897587392662
 20
-150.7050049867059
 30
0.0
 40
15.24
  1
STWV-150-M400
 41
1.115384615384615
  7
ＭＳ ゴシック
100
AcDbText
  0
TEXT
  5
55
330
1F
100
AcDbEntity
  8
D-F
  6
Continuous
 62
     2
370
     9
100
AcDbText
 10
492.3897587392662
 20
-183.2049177936254
 30
0.0
 40
15.24
  1
STWV-150-M450
 41
1.115384615384615
  7
ＭＳ ゴシック
100
AcDbText
  0
TEXT
  5
56
330
1F
100
AcDbEntity
  8
D-F
  6
Continuous
 62
     2
370
     9
100
AcDbText
 10
492.3897587392662
 20
-215.7048306005448
 30
0.0
 40
15.24
  1
STWV-200-M300
 41
1.115384615384615
  7
ＭＳ ゴシック
100
AcDbText
  0
TEXT
  5
57
330
1F
100
AcDbEntity
  8
D-F
  6
Continuous
 62
     2
370
     9
100
AcDbText
 10
492.3897587392662
 20
-248.2047434074643
 30
0.0
 40
15.24
  1
STWV-200-M350
 41
1.115384615384615
  7
ＭＳ ゴシック
100
AcDbText
  0
TEXT
  5
58
330
1F
100
AcDbEntity
  8
D-F
  6
Continuous
 62
     2
370
     9
100
AcDbText
 10
491.7647587392662
 20
-280.7048311896871
 30
0.0
 40
15.24
  1
STWV-200-M400
 41
1.115384615384615
  7
ＭＳ ゴシック
100
AcDbText
  0
TEXT
  5
59
330
1F
100
AcDbEntity
  8
D-F
  6
Continuous
 62
     2
370
     9
100
AcDbText
 10
492.3897587392662
 20
-313.2047439966065
 30
0.0
 40
15.24
  1
STWV-200-M450
 41
1.115384615384615
  7
ＭＳ ゴシック
100
AcDbText
  0
LINE
  5
5A
330
1F
100
AcDbEntity
  8
D-0
  6
Continuous
 62
     7
370
     9
100
AcDbLine
 10
481.0929604451803
 20
-12.74426427292383
 30
0.0
 11
481.0929604451803
 21
-322.2746868497902
 31
0.0
  0
LINE
  5
5B
330
1F
100
AcDbEntity
  8
D-0
  6
Continuous
 62
     7
370
     9
100
AcDbLine
 10
646.6486008500715
 20
-322.2746868497902
 30
0.0
 11
646.6486008500715
 21
-12.74426427292383
 31
0.0
  0
LINE
  5
5C
330
1F
100
AcDbEntity
  8
D-0
  6
Continuous
 62
     7
370
     9
100
AcDbLine
 10
874.3170728898053
 20
-12.74426427292383
 30
0.0
 11
874.3170728898053
 21
-322.2746868497902
 31
0.0
  0
LINE
  5
5D
330
1F
100
AcDbEntity
  8
D-0
  6
Continuous
 62
     7
370
     9
100
AcDbLine
 10
722.538091529982
 20
-12.74426427292383
 30
0.0
 11
722.538091529982
 21
-322.2746868497902
 31
0.0
  0
LINE
  5
5E
330
1F
100
AcDbEntity
  8
D-0
  6
Continuous
 62
     7
370
     9
100
AcDbLine
 10
798.4275822098937
 20
-12.74426427292383
 30
0.0
 11
798.4275822098937
 21
-322.2746868497902
 31
0.0
  0
LINE
  5
5F
330
1F
100
AcDbEntity
  8
D-0
  6
Continuous
 62
     7
370
     9
100
AcDbLine
 10
950.206563569717
 20
-12.74426427292383
 30
0.0
 11
950.206563569717
 21
-322.2746868497902
 31
0.0
  0
LINE
  5
60
330
1F
100
AcDbEntity
  8
D-0
  6
Continuous
 62
     7
370
     9
100
AcDbLine
 10
950.206563569717
 20
-62.27520941913127
 30
0.0
 11
481.0929604451803
 21
-62.27520941913127
 31
0.0
  0
LINE
  5
61
330
1F
100
AcDbEntity
  8
D-0
  6
Continuous
 62
     7
370
     9
100
AcDbLine
 10
481.0929604451803
 20
-57.55262598713642
 30
0.0
 11
950.206563569717
 21
-57.55262598713642
 31
0.0
  0
LINE
  5
62
330
1F
100
AcDbEntity
  8
D-0
  6
Continuous
 62
     7
370
     9
100
AcDbLine
 10
950.206563569717
 20
-12.74426427292383
 30
0.0
 11
481.0929604451803
 21
-12.74426427292383
 31
0.0
  0
TEXT
  5
63
330
1F
100
AcDbEntity
  8
D-F
  6
Continuous
 62
     2
370
     9
100
AcDbText
 10
864.1484538885982
 20
5.018801591315203
 30
0.0
 40
15.24
  1
［ｍｍ］
 41
1.09375
  7
ＭＳ ゴシック
100
AcDbText
  0
LINE
  5
64
330
1F
100
AcDbEntity
  8
D-0
  6
Continuous
 62
     7
370
     9
100
AcDbLine
 10
950.206563569717
 20
-322.2746868497902
 30
0.0
 11
481.0929604451803
 21
-322.2746868497902
 31
0.0
  0
LINE
  5
65
330
1F
100
AcDbEntity
  8
D-0
  6
Continuous
 62
     7
370
     9
100
AcDbLine
 10
950.206563569717
 20
-192.2750356221124
 30
0.0
 11
481.0929604451803
 21
-192.2750356221124
 31
0.0
  0
TEXT
  5
66
330
1F
100
AcDbEntity
  8
D-F
  6
Continuous
 62
     2
370
     9
100
AcDbText
 10
744.2328368699384
 20
-85.70517937286706
 30
0.0
 40
15.24
  1
300
 41
1.083333333333333
  7
ＭＳ ゴシック
100
AcDbText
  0
TEXT
  5
67
330
1F
100
AcDbEntity
  8
D-F
  6
Continuous
 62
     2
370
     9
100
AcDbText
 10
744.2328368699384
 20
-118.2050921797865
 30
0.0
 40
15.24
  1
350
 41
1.083333333333333
  7
ＭＳ ゴシック
100
AcDbText
  0
TEXT
  5
68
330
1F
100
AcDbEntity
  8
D-F
  6
Continuous
 62
     2
370
     9
100
AcDbText
 10
744.2328368699384
 20
-150.7050049867059
 30
0.0
 40
15.24
  1
400
 41
1.083333333333333
  7
ＭＳ ゴシック
100
AcDbText
  0
TEXT
  5
69
330
1F
100
AcDbEntity
  8
D-F
  6
Continuous
 62
     2
370
     9
100
AcDbText
 10
744.2328368699384
 20
-183.2049177936254
 30
0.0
 40
15.24
  1
450
 41
1.083333333333333
  7
ＭＳ ゴシック
100
AcDbText
  0
TEXT
  5
6A
330
1F
100
AcDbEntity
  8
D-F
  6
Continuous
 62
     2
370
     9
100
AcDbText
 10
744.2328368699384
 20
-215.7050055758482
 30
0.0
 40
15.24
  1
300
 41
1.083333333333333
  7
ＭＳ ゴシック
100
AcDbText
  0
TEXT
  5
6B
330
1F
100
AcDbEntity
  8
D-F
  6
Continuous
 62
     2
370
     9
100
AcDbText
 10
744.2328368699384
 20
-248.2049183827676
 30
0.0
 40
15.24
  1
350
 41
1.083333333333333
  7
ＭＳ ゴシック
100
AcDbText
  0
TEXT
  5
6C
330
1F
100
AcDbEntity
  8
D-F
  6
Continuous
 62
     2
370
     9
100
AcDbText
 10
744.2328368699384
 20
-280.7048311896871
 30
0.0
 40
15.24
  1
400
 41
1.083333333333333
  7
ＭＳ ゴシック
100
AcDbText
  0
TEXT
  5
6D
330
1F
100
AcDbEntity
  8
D-F
  6
Continuous
 62
     2
370
     9
100
AcDbText
 10
744.2328368699384
 20
-313.2047439966065
 30
0.0
 40
15.24
  1
450
 41
1.083333333333333
  7
ＭＳ ゴシック
100
AcDbText
  0
TEXT
  5
6E
330
1F
100
AcDbEntity
  8
D-F
  6
Continuous
 62
     2
370
     9
100
AcDbText
 10
820.1223275498501
 20
-118.2050921797865
 30
0.0
 40
15.24
  1
402
 41
1.083333333333333
  7
ＭＳ ゴシック
100
AcDbText
  0
TEXT
  5
6F
330
1F
100
AcDbEntity
  8
D-F
  6
Continuous
 62
     2
370
     9
100
AcDbText
 10
820.1223275498501
 20
-150.7050049867059
 30
0.0
 40
15.24
  1
452
 41
1.083333333333333
  7
ＭＳ ゴシック
100
AcDbText
  0
TEXT
  5
70
330
1F
100
AcDbEntity
  8
D-F
  6
Continuous
 62
     2
370
     9
100
AcDbText
 10
820.1223275498501
 20
-183.2049177936254
 30
0.0
 40
15.24
  1
502
 41
1.083333333333333
  7
ＭＳ ゴシック
100
AcDbText
  0
TEXT
  5
71
330
1F
100
AcDbEntity
  8
D-F
  6
Continuous
 62
     2
370
     9
100
AcDbText
 10
820.1223275498501
 20
-215.7048306005448
 30
0.0
 40
15.24
  1
352
 41
1.083333333333333
  7
ＭＳ ゴシック
100
AcDbText
  0
TEXT
  5
72
330
1F
100
AcDbEntity
  8
D-F
  6
Continuous
 62
     2
370
     9
100
AcDbText
 10
820.1223275498501
 20
-248.2047434074643
 30
0.0
 40
15.24
  1
402
 41
1.083333333333333
  7
ＭＳ ゴシック
100
AcDbText
  0
TEXT
  5
73
330
1F
100
AcDbEntity
  8
D-F
  6
Continuous
 62
     2
370
     9
100
AcDbText
 10
820.1223275498501
 20
-280.7046562143837
 30
0.0
 40
15.24
  1
452
 41
1.083333333333333
  7
ＭＳ ゴシック
100
AcDbText
  0
TEXT
  5
74
330
1F
100
AcDbEntity
  8
D-F
  6
Continuous
 62
     2
370
     9
100
AcDbText
 10
820.1223275498501
 20
-313.2045690213031
 30
0.0
 40
15.24
  1
502
 41
1.083333333333333
  7
ＭＳ ゴシック
100
AcDbText
  0
TEXT
  5
75
330
1F
100
AcDbEntity
  8
D-F
  6
Continuous
 62
     2
370
     9
100
AcDbText
 10
896.0118182297617
 20
-85.70517937286706
 30
0.0
 40
15.24
  1
382
 41
1.083333333333333
  7
ＭＳ ゴシック
100
AcDbText
  0
TEXT
  5
76
330
1F
100
AcDbEntity
  8
D-F
  6
Continuous
 62
     2
370
     9
100
AcDbText
 10
896.0118182297617
 20
-118.2050921797865
 30
0.0
 40
15.24
  1
432
 41
1.083333333333333
  7
ＭＳ ゴシック
100
AcDbText
  0
TEXT
  5
77
330
1F
100
AcDbEntity
  8
D-F
  6
Continuous
 62
     2
370
     9
100
AcDbText
 10
896.0118182297617
 20
-150.7050049867059
 30
0.0
 40
15.24
  1
482
 41
1.083333333333333
  7
ＭＳ ゴシック
100
AcDbText
  0
TEXT
  5
78
330
1F
100
AcDbEntity
  8
D-F
  6
Continuous
 62
     2
370
     9
100
AcDbText
 10
896.0118182297617
 20
-183.2049177936254
 30
0.0
 40
15.24
  1
532
 41
1.083333333333333
  7
ＭＳ ゴシック
100
AcDbText
  0
TEXT
  5
79
330
1F
100
AcDbEntity
  8
D-F
  6
Continuous
 62
     2
370
     9
100
AcDbText
 10
896.0118182297617
 20
-215.7048306005448
 30
0.0
 40
15.24
  1
382
 41
1.083333333333333
  7
ＭＳ ゴシック
100
AcDbText
  0
TEXT
  5
7A
330
1F
100
AcDbEntity
  8
D-F
  6
Continuous
 62
     2
370
     9
100
AcDbText
 10
896.0118182297617
 20
-248.2047434074643
 30
0.0
 40
15.24
  1
432
 41
1.083333333333333
  7
ＭＳ ゴシック
100
AcDbText
  0
TEXT
  5
7B
330
1F
100
AcDbEntity
  8
D-F
  6
Continuous
 62
     2
370
     9
100
AcDbText
 10
896.0118182297617
 20
-280.7046562143837
 30
0.0
 40
15.24
  1
482
 41
1.083333333333333
  7
ＭＳ ゴシック
100
AcDbText
  0
TEXT
  5
7C
330
1F
100
AcDbEntity
  8
D-F
  6
Continuous
 62
     2
370
     9
100
AcDbText
 10
896.0118182297617
 20
-313.2045690213031
 30
0.0
 40
15.24
  1
532
 41
1.083333333333333
  7
ＭＳ ゴシック
100
AcDbText
  0
TEXT
  5
7D
330
1F
100
AcDbEntity
  8
D-F
  6
Continuous
 62
     2
370
     9
100
AcDbText
 10
750.4828368699373
 20
-42.32844513002998
 30
0.0
 40
15.24
  1
Ａ
 41
0.9999999999999998
  7
ＭＳ ゴシック
100
AcDbText
  0
TEXT
  5
7E
330
1F
100
AcDbEntity
  8
D-F
  6
Continuous
 62
     2
370
     9
100
AcDbText
 10
826.3723275498489
 20
-42.32844513002998
 30
0.0
 40
15.24
  1
Ｂ
 41
0.9999999999999998
  7
ＭＳ ゴシック
100
AcDbText
  0
TEXT
  5
7F
330
1F
100
AcDbEntity
  8
D-F
  6
Continuous
 62
     2
370
     9
100
AcDbText
 10
902.2618182297606
 20
-42.32844513002998
 30
0.0
 40
15.24
  1
Ｃ
 41
0.9999999999999998
  7
ＭＳ ゴシック
100
AcDbText
  0
TEXT
  5
80
330
1F
100
AcDbEntity
  8
D-F
  6
Continuous
 62
     2
370
     9
100
AcDbText
 10
520.1207806476259
 20
-42.32844513002998
 30
0.0
 40
15.24
  1
製品符号
 41
1.09375
  7
ＭＳ ゴシック
100
AcDbText
  0
LINE
  5
81
330
1F
100
AcDbEntity
  8
D-0
  6
Continuous
 62
     7
370
     9
100
AcDbLine
 10
481.0929604451803
 20
-377.0260096610892
 30
0.0
 11
573.2953215631005
 21
-377.0260096610892
 31
0.0
  0
TEXT
  5
82
330
1F
100
AcDbEntity
  8
D-F
  6
Continuous
 62
     2
370
     9
100
AcDbText
 10
492.4256299426384
 20
-367.8309594661534
 30
0.0
 40
15.24
  1
寸法表
 41
1.083333333333333
  7
ＭＳ ゴシック
100
AcDbText
  0
LINE
  5
83
330
1F
100
AcDbEntity
  8
D-0
  6
Continuous
 62
     7
370
     9
100
AcDbLine
 10
481.0929604451803
 20
-391.9690755253281
 30
0.0
 11
481.0929604451803
 21
-538.9999340675973
 31
0.0
  0
LINE
  5
84
330
1F
100
AcDbEntity
  8
D-0
  6
Continuous
 62
     7
370
     9
100
AcDbLine
 10
576.3282132126346
 20
-538.9999340675973
 30
0.0
 11
576.3282132126346
 21
-391.9690755253281
 31
0.0
  0
LINE
  5
85
330
1F
100
AcDbEntity
  8
D-0
  6
Continuous
 62
     7
370
     9
100
AcDbLine
 10
652.2177038925452
 20
-391.9690755253281
 30
0.0
 11
652.2177038925452
 21
-538.9999340675973
 31
0.0
  0
TEXT
  5
86
330
1F
100
AcDbEntity
  8
D-F
  6
Continuous
 62
     2
370
     9
100
AcDbText
 10
507.4605868289075
 20
-421.5532563824344
 30
0.0
 40
15.24
  1
呼称
 41
1.0625
  7
ＭＳ ゴシック
100
AcDbText
  0
TEXT
  5
87
330
1F
100
AcDbEntity
  8
D-F
  6
Continuous
 62
     2
370
     9
100
AcDbText
 10
512.4605868289075
 20
-464.9299906252714
 30
0.0
 40
15.24
  1
01F
 41
1.083333333333333
  7
ＭＳ ゴシック
100
AcDbText
  0
TEXT
  5
88
330
1F
100
AcDbEntity
  8
D-F
  6
Continuous
 62
     2
370
     9
100
AcDbText
 10
512.4605868289075
 20
-497.4299034321909
 30
0.0
 40
15.24
  1
02F
 41
1.083333333333333
  7
ＭＳ ゴシック
100
AcDbText
  0
TEXT
  5
89
330
1F
100
AcDbEntity
  8
D-F
  6
Continuous
 62
     2
370
     9
100
AcDbText
 10
512.4605868289075
 20
-529.9298162391102
 30
0.0
 40
15.24
  1
03F
 41
1.083333333333333
  7
ＭＳ ゴシック
100
AcDbText
  0
TEXT
  5
8A
330
1F
100
AcDbEntity
  8
D-F
  6
Continuous
 62
     2
370
     9
100
AcDbText
 10
604.2729585525899
 20
-421.5532563824344
 30
0.0
 40
15.24
  1
ｈ
 41
0.9999999999999998
  7
ＭＳ ゴシック
100
AcDbText
  0
TEXT
  5
8B
330
1F
100
AcDbEntity
  8
D-F
  6
Continuous
 62
     2
370
     9
100
AcDbText
 10
680.1624492325004
 20
-421.5532563824344
 30
0.0
 40
15.24
  1
Ｈ
 41
0.9999999999999998
  7
ＭＳ ゴシック
100
AcDbText
  0
TEXT
  5
8C
330
1F
100
AcDbEntity
  8
D-F
  6
Continuous
 62
     2
370
     9
100
AcDbText
 10
609.2729585525899
 20
-464.9299906252714
 30
0.0
 40
15.24
  1
90
 41
1.0625
  7
ＭＳ ゴシック
100
AcDbText
  0
TEXT
  5
8D
330
1F
100
AcDbEntity
  8
D-F
  6
Continuous
 62
     2
370
     9
100
AcDbText
 10
598.0229585525899
 20
-497.4299034321909
 30
0.0
 40
15.24
  1
115
 41
1.083333333333333
  7
ＭＳ ゴシック
100
AcDbText
  0
TEXT
  5
8E
330
1F
100
AcDbEntity
  8
D-F
  6
Continuous
 62
     2
370
     9
100
AcDbText
 10
598.0229585525899
 20
-529.9298162391102
 30
0.0
 40
15.24
  1
140
 41
1.083333333333333
  7
ＭＳ ゴシック
100
AcDbText
  0
TEXT
  5
8F
330
1F
100
AcDbEntity
  8
D-F
  6
Continuous
 62
     2
370
     9
100
AcDbText
 10
673.9124492325016
 20
-464.9299906252714
 30
0.0
 40
15.24
  1
135
 41
1.083333333333333
  7
ＭＳ ゴシック
100
AcDbText
  0
TEXT
  5
90
330
1F
100
AcDbEntity
  8
D-F
  6
Continuous
 62
     2
370
     9
100
AcDbText
 10
673.9124492325016
 20
-497.4299034321909
 30
0.0
 40
15.24
  1
160
 41
1.083333333333333
  7
ＭＳ ゴシック
100
AcDbText
  0
TEXT
  5
91
330
1F
100
AcDbEntity
  8
D-F
  6
Continuous
 62
     2
370
     9
100
AcDbText
 10
673.9124492325016
 20
-529.9298162391102
 30
0.0
 40
15.24
  1
185
 41
1.083333333333333
  7
ＭＳ ゴシック
100
AcDbText
  0
LINE
  5
92
330
1F
100
AcDbEntity
  8
D-0
  6
Continuous
 62
     7
370
     9
100
AcDbLine
 10
728.1071945724568
 20
-441.5000206715357
 30
0.0
 11
481.0929604451803
 21
-441.5000206715357
 31
0.0
  0
LINE
  5
93
330
1F
100
AcDbEntity
  8
D-0
  6
Continuous
 62
     7
370
     9
100
AcDbLine
 10
481.0929604451803
 20
-436.7774372395408
 30
0.0
 11
728.1071945724568
 21
-436.7774372395408
 31
0.0
  0
LINE
  5
94
330
1F
100
AcDbEntity
  8
D-0
  6
Continuous
 62
     7
370
     9
100
AcDbLine
 10
728.1071945724568
 20
-391.9690755253281
 30
0.0
 11
481.0929604451803
 21
-391.9690755253281
 31
0.0
  0
LINE
  5
95
330
1F
100
AcDbEntity
  8
D-0
  6
Continuous
 62
     7
370
     9
100
AcDbLine
 10
728.1071945724568
 20
-474.0001084537585
 30
0.0
 11
481.0929604451803
 21
-474.0001084537585
 31
0.0
  0
LINE
  5
96
330
1F
100
AcDbEntity
  8
D-0
  6
Continuous
 62
     7
370
     9
100
AcDbLine
 10
728.1071945724568
 20
-506.5000212606779
 30
0.0
 11
481.0929604451803
 21
-506.5000212606779
 31
0.0
  0
LINE
  5
97
330
1F
100
AcDbEntity
  8
D-0
  6
Continuous
 62
     7
370
     9
100
AcDbLine
 10
728.1071945724568
 20
-538.9999340675973
 30
0.0
 11
481.0929604451803
 21
-538.9999340675973
 31
0.0
  0
LINE
  5
98
330
1F
100
AcDbEntity
  8
D-0
  6
Continuous
 62
     7
370
     9
100
AcDbLine
 10
728.1071945724568
 20
-391.9690755253281
 30
0.0
 11
728.1071945724568
 21
-538.9999340675973
 31
0.0
  0
TEXT
  5
99
330
1F
100
AcDbEntity
  8
D-F
  6
Continuous
 62
     2
370
     9
100
AcDbText
 10
642.049084891338
 20
-374.2060096610892
 30
0.0
 40
15.24
  1
［ｍｍ］
 41
1.09375
  7
ＭＳ ゴシック
100
AcDbText
  0
LINE
  5
9A
330
1F
100
AcDbEntity
  8
D-5
  6
Continuous
 62
     7
370
     9
100
AcDbLine
 10
481.0929604451803
 20
159.2233446454091
 30
0.0
 11
481.0929604451803
 21
184.2233035987491
 31
0.0
  0
LINE
  5
9B
330
1F
100
AcDbEntity
  8
D-5
  6
Continuous
 62
     7
370
     9
100
AcDbLine
 10
481.0929604451803
 20
184.2233035987491
 30
0.0
 11
593.5927887838034
 21
184.2233035987491
 31
0.0
  0
LINE
  5
9C
330
1F
100
AcDbEntity
  8
D-5
  6
Continuous
 62
     7
370
     9
100
AcDbLine
 10
593.5927887838034
 20
184.2233035987491
 30
0.0
 11
593.5927887838034
 21
159.2233446454091
 31
0.0
  0
LINE
  5
9D
330
1F
100
AcDbEntity
  8
D-5
  6
Continuous
 62
     7
370
     9
100
AcDbLine
 10
593.5927887838034
 20
159.2233446454091
 30
0.0
 11
481.0929604451803
 21
159.2233446454091
 31
0.0
  0
TEXT
  5
9E
330
1F
100
AcDbEntity
  8
D-5
  6
Continuous
 62
     2
370
     9
100
AcDbText
 10
504.8428650777487
 20
164.5433541821523
 30
0.0
 40
15.24
  1
仕　様
 41
1.083333333333333
  7
ＭＳ ゴシック
100
AcDbText
  0
TEXT
  5
9F
330
1F
100
AcDbEntity
  8
D-5
  6
Continuous
 62
     2
370
     9
100
AcDbText
 10
479.6192383306163
 20
129.0750200501269
 30
0.0
 40
15.24
  1
現場溶接タイプサニタリートラフ
 41
1.116666666666666
  7
ＭＳ ゴシック
100
AcDbText
  0
TEXT
  5
A0
330
1F
100
AcDbEntity
  8
D-5
  6
Continuous
 62
     2
370
     9
100
AcDbText
 10
509.5876359690044
 20
67.57529756711722
 30
0.0
 40
15.24
  1
材質：ＳＵＳ３０４
 41
1.111111111111111
  7
ＭＳ ゴシック
100
AcDbText
  0
TEXT
  5
A1
330
1F
100
AcDbEntity
  8
D-5
  6
Continuous
 62
     2
370
     9
100
AcDbText
 10
502.1192383306163
 20
97.85543538834179
 30
0.0
 40
15.24
  1
　　　集水桝　ＳＴＷＶ－Ｍ
 41
1.115384615384615
  7
ＭＳ ゴシック
100
AcDbText
  0
LINE
  5
A2
330
1F
100
AcDbEntity
  8
D-0
  6
Continuous
 62
     7
370
     9
100
AcDbLine
 10
950.206563569717
 20
-94.77529720135408
 30
0.0
 11
722.538091529982
 21
-94.77529720135408
 31
0.0
  0
LINE
  5
A3
330
1F
100
AcDbEntity
  8
D-0
  6
Continuous
 62
     7
370
     9
100
AcDbLine
 10
646.6486008500715
 20
-94.77529720135408
 30
0.0
 11
481.0929604451803
 21
-94.77529720135408
 31
0.0
  0
LINE
  5
A4
330
1F
100
AcDbEntity
  8
D-0
  6
Continuous
 62
     7
370
     9
100
AcDbLine
 10
950.206563569717
 20
-127.2752100082735
 30
0.0
 11
722.538091529982
 21
-127.2752100082735
 31
0.0
  0
LINE
  5
A5
330
1F
100
AcDbEntity
  8
D-0
  6
Continuous
 62
     7
370
     9
100
AcDbLine
 10
646.6486008500715
 20
-127.2752100082735
 30
0.0
 11
481.0929604451803
 21
-127.2752100082735
 31
0.0
  0
LINE
  5
A6
330
1F
100
AcDbEntity
  8
D-0
  6
Continuous
 62
     7
370
     9
100
AcDbLine
 10
950.206563569717
 20
-159.775122815193
 30
0.0
 11
722.538091529982
 21
-159.775122815193
 31
0.0
  0
LINE
  5
A7
330
1F
100
AcDbEntity
  8
D-0
  6
Continuous
 62
     7
370
     9
100
AcDbLine
 10
646.6486008500715
 20
-159.775122815193
 30
0.0
 11
481.0929604451803
 21
-159.775122815193
 31
0.0
  0
TEXT
  5
A8
330
1F
100
AcDbEntity
  8
D-F
  6
Continuous
 62
     2
370
     9
100
AcDbText
 10
668.3433461900268
 20
-134.4552100082735
 30
0.0
 40
15.24
  1
150
 41
1.083333333333333
  7
ＭＳ ゴシック
100
AcDbText
  0
LINE
  5
A9
330
1F
100
AcDbEntity
  8
D-0
  6
Continuous
 62
     7
370
     9
100
AcDbLine
 10
950.206563569717
 20
-224.7749484290318
 30
0.0
 11
722.538091529982
 21
-224.7749484290318
 31
0.0
  0
LINE
  5
AA
330
1F
100
AcDbEntity
  8
D-0
  6
Continuous
 62
     7
370
     9
100
AcDbLine
 10
646.6486008500715
 20
-224.7749484290318
 30
0.0
 11
481.0929604451803
 21
-224.7749484290318
 31
0.0
  0
LINE
  5
AB
330
1F
100
AcDbEntity
  8
D-0
  6
Continuous
 62
     7
370
     9
100
AcDbLine
 10
950.206563569717
 20
-289.7747740428707
 30
0.0
 11
722.538091529982
 21
-289.7747740428707
 31
0.0
  0
LINE
  5
AC
330
1F
100
AcDbEntity
  8
D-0
  6
Continuous
 62
     7
370
     9
100
AcDbLine
 10
646.6486008500715
 20
-289.7747740428707
 30
0.0
 11
481.0929604451803
 21
-289.7747740428707
 31
0.0
  0
LINE
  5
AD
330
1F
100
AcDbEntity
  8
D-0
  6
Continuous
 62
     7
370
     9
100
AcDbLine
 10
950.206563569717
 20
-257.2748612359513
 30
0.0
 11
722.538091529982
 21
-257.2748612359513
 31
0.0
  0
LINE
  5
AE
330
1F
100
AcDbEntity
  8
D-0
  6
Continuous
 62
     7
370
     9
100
AcDbLine
 10
646.6486008500715
 20
-257.2748612359513
 30
0.0
 11
481.0929604451803
 21
-257.2748612359513
 31
0.0
  0
TEXT
  5
AF
330
1F
100
AcDbEntity
  8
D-F
  6
Continuous
 62
     2
370
     9
100
AcDbText
 10
668.3433461900268
 20
-264.4548612359513
 30
0.0
 40
15.24
  1
200
 41
1.083333333333333
  7
ＭＳ ゴシック
100
AcDbText
  0
CIRCLE
  5
B0
330
1F
100
AcDbEntity
  8
084
  6
JWW_DASHED1
 62
     3
370
     9
100
AcDbCircle
 10
-78.49574585807886
 20
261.9211834051436
 30
0.0
 40
47.5000972747813
  0
CIRCLE
  5
B1
330
1F
100
AcDbEntity
  8
ハッチ
  6
Continuous
 62
     6
370
     9
100
AcDbCircle
 10
-116.4958855888005
 20
252.9210547364366
 30
0.0
 40
3.0
  0
CIRCLE
  5
B2
330
1F
100
AcDbEntity
  8
ハッチ
  6
Continuous
 62
     6
370
     9
100
AcDbCircle
 10
-40.49588558880032
 20
252.9210547364366
 30
0.0
 40
3.0
  0
ARC
  5
B3
330
1F
100
AcDbEntity
  8
ハッチ
  6
Continuous
 62
     6
370
     9
100
AcDbCircle
 10
-106.9956447473737
 20
252.9210547364366
 30
0.0
 40
2.999999797022021
100
AcDbArc
 50
90.0
 51
270.0
  0
ARC
  5
B4
330
1F
100
AcDbEntity
  8
ハッチ
  6
Continuous
 62
     6
370
     9
100
AcDbCircle
 10
-87.99573052651226
 20
252.9210547364366
 30
0.0
 40
2.999999797022021
100
AcDbArc
 50
270.0
 51
90.0
  0
LINE
  5
B5
330
1F
100
AcDbEntity
  8
ハッチ
  6
Continuous
 62
     6
370
     9
100
AcDbLine
 10
-106.9956447473737
 20
249.9210943268073
 30
0.0
 11
-87.99573052651226
 21
249.9210943268073
 31
0.0
  0
LINE
  5
B6
330
1F
100
AcDbEntity
  8
ハッチ
  6
Continuous
 62
     6
370
     9
100
AcDbLine
 10
-106.9956447473737
 20
255.9210151460636
 30
0.0
 11
-87.99573052651226
 21
255.9210151460636
 31
0.0
  0
ARC
  5
B7
330
1F
100
AcDbEntity
  8
ハッチ
  6
Continuous
 62
     6
370
     9
100
AcDbCircle
 10
-68.99579321126794
 20
252.9210547364366
 30
0.0
 40
2.999999797022021
100
AcDbArc
 50
90.0
 51
270.0
  0
ARC
  5
B8
330
1F
100
AcDbEntity
  8
ハッチ
  6
Continuous
 62
     6
370
     9
100
AcDbCircle
 10
-49.99587899040534
 20
252.9210547364366
 30
0.0
 40
2.999999797022021
100
AcDbArc
 50
270.0
 51
90.0
  0
LINE
  5
B9
330
1F
100
AcDbEntity
  8
ハッチ
  6
Continuous
 62
     6
370
     9
100
AcDbLine
 10
-68.99579321126794
 20
249.9210943268073
 30
0.0
 11
-49.99587899040534
 21
249.9210943268073
 31
0.0
  0
LINE
  5
BA
330
1F
100
AcDbEntity
  8
ハッチ
  6
Continuous
 62
     6
370
     9
100
AcDbLine
 10
-68.99579321126794
 20
255.9210151460636
 30
0.0
 11
-49.99587899040534
 21
255.9210151460636
 31
0.0
  0
CIRCLE
  5
BB
330
1F
100
AcDbEntity
  8
ハッチ
  6
Continuous
 62
     6
370
     9
100
AcDbCircle
 10
-78.495885588801
 20
252.9210547364366
 30
0.0
 40
3.0
  0
CIRCLE
  5
BC
330
1F
100
AcDbEntity
  8
ハッチ
  6
Continuous
 62
     6
370
     9
100
AcDbCircle
 10
-78.495885588801
 20
234.9210448388428
 30
0.0
 40
3.0
  0
ARC
  5
BD
330
1F
100
AcDbEntity
  8
ハッチ
  6
Continuous
 62
     6
370
     9
100
AcDbCircle
 10
-105.9956447473735
 20
234.9210448388428
 30
0.0
 40
2.999999797022021
100
AcDbArc
 50
90.0
 51
270.0
  0
ARC
  5
BE
330
1F
100
AcDbEntity
  8
ハッチ
  6
Continuous
 62
     6
370
     9
100
AcDbCircle
 10
-86.99573052651203
 20
234.9210448388428
 30
0.0
 40
2.999999797022021
100
AcDbArc
 50
270.0
 51
90.0
  0
LINE
  5
BF
330
1F
100
AcDbEntity
  8
ハッチ
  6
Continuous
 62
     6
370
     9
100
AcDbLine
 10
-105.9956447473735
 20
231.9210844292158
 30
0.0
 11
-86.99573052651203
 21
231.9210844292158
 31
0.0
  0
LINE
  5
C0
330
1F
100
AcDbEntity
  8
ハッチ
  6
Continuous
 62
     6
370
     9
100
AcDbLine
 10
-105.9956447473735
 20
237.921005248472
 30
0.0
 11
-86.99573052651203
 21
237.921005248472
 31
0.0
  0
LINE
  5
C1
330
1F
100
AcDbEntity
  8
ハッチ
  6
Continuous
 62
     6
370
     9
100
AcDbLine
 10
-69.99579321126703
 20
237.921005248472
 30
0.0
 11
-50.99587899040671
 21
237.921005248472
 31
0.0
  0
LINE
  5
C2
330
1F
100
AcDbEntity
  8
ハッチ
  6
Continuous
 62
     6
370
     9
100
AcDbLine
 10
-69.99579321126703
 20
231.9210844292158
 30
0.0
 11
-50.99587899040671
 21
231.9210844292158
 31
0.0
  0
ARC
  5
C3
330
1F
100
AcDbEntity
  8
ハッチ
  6
Continuous
 62
     6
370
     9
100
AcDbCircle
 10
-50.99587899040671
 20
234.9210448388428
 30
0.0
 40
2.999999797022021
100
AcDbArc
 50
270.0
 51
90.0
  0
ARC
  5
C4
330
1F
100
AcDbEntity
  8
ハッチ
  6
Continuous
 62
     6
370
     9
100
AcDbCircle
 10
-69.99579321126703
 20
234.9210448388428
 30
0.0
 40
2.999999797022021
100
AcDbArc
 50
90.0
 51
270.0
  0
ARC
  5
C5
330
1F
100
AcDbEntity
  8
ハッチ
  6
Continuous
 62
     6
370
     9
100
AcDbCircle
 10
-42.99569423533853
 20
243.9211735075511
 30
0.0
 40
2.999999797022021
100
AcDbArc
 50
270.0
 51
90.0
  0
ARC
  5
C6
330
1F
100
AcDbEntity
  8
ハッチ
  6
Continuous
 62
     6
370
     9
100
AcDbCircle
 10
-87.99559525940936
 20
225.9211636099573
 30
0.0
 40
2.999999797022021
100
AcDbArc
 50
90.0
 51
270.0
  0
ARC
  5
C7
330
1F
100
AcDbEntity
  8
ハッチ
  6
Continuous
 62
     6
370
     9
100
AcDbCircle
 10
-68.9956810385479
 20
225.9211636099573
 30
0.0
 40
2.999999797022021
100
AcDbArc
 50
270.0
 51
90.0
  0
ARC
  5
C8
330
1F
100
AcDbEntity
  8
ハッチ
  6
Continuous
 62
     6
370
     9
100
AcDbCircle
 10
-113.9958295024417
 20
243.9211735075511
 30
0.0
 40
2.999999797022021
100
AcDbArc
 50
90.0
 51
270.0
  0
ARC
  5
C9
330
1F
100
AcDbEntity
  8
ハッチ
  6
Continuous
 62
     6
370
     9
100
AcDbCircle
 10
-98.99578001447708
 20
243.9211735075511
 30
0.0
 40
2.999999797022021
100
AcDbArc
 50
270.0
 51
90.0
  0
ARC
  5
CA
330
1F
100
AcDbEntity
  8
ハッチ
  6
Continuous
 62
     6
370
     9
100
AcDbCircle
 10
-57.99574372330312
 20
243.9211735075511
 30
0.0
 40
2.999999797022021
100
AcDbArc
 50
90.0
 51
270.0
  0
ARC
  5
CB
330
1F
100
AcDbEntity
  8
ハッチ
  6
Continuous
 62
     6
370
     9
100
AcDbCircle
 10
-87.99559525940936
 20
243.9211735075511
 30
0.0
 40
2.999999797022021
100
AcDbArc
 50
90.0
 51
270.0
  0
ARC
  5
CC
330
1F
100
AcDbEntity
  8
ハッチ
  6
Continuous
 62
     6
370
     9
100
AcDbCircle
 10
-68.9956810385479
 20
243.9211735075511
 30
0.0
 40
2.999999797022021
100
AcDbArc
 50
270.0
 51
90.0
  0
LINE
  5
CD
330
1F
100
AcDbEntity
  8
ハッチ
  6
Continuous
 62
     6
370
     9
100
AcDbLine
 10
-42.99569423533853
 20
240.9212130979219
 30
0.0
 11
-57.99574372330312
 21
240.9212130979219
 31
0.0
  0
LINE
  5
CE
330
1F
100
AcDbEntity
  8
ハッチ
  6
Continuous
 62
     6
370
     9
100
AcDbLine
 10
-42.99569423533853
 20
246.9211339171804
 30
0.0
 11
-57.99574372330312
 21
246.9211339171804
 31
0.0
  0
LINE
  5
CF
330
1F
100
AcDbEntity
  8
ハッチ
  6
Continuous
 62
     6
370
     9
100
AcDbLine
 10
-87.99559525940936
 20
222.9212032003304
 30
0.0
 11
-68.9956810385479
 21
222.9212032003304
 31
0.0
  0
LINE
  5
D0
330
1F
100
AcDbEntity
  8
ハッチ
  6
Continuous
 62
     6
370
     9
100
AcDbLine
 10
-87.99559525940936
 20
228.9211240195866
 30
0.0
 11
-68.9956810385479
 21
228.9211240195866
 31
0.0
  0
LINE
  5
D1
330
1F
100
AcDbEntity
  8
ハッチ
  6
Continuous
 62
     6
370
     9
100
AcDbLine
 10
-113.9958295024417
 20
240.9212130979219
 30
0.0
 11
-98.99578001447708
 21
240.9212130979219
 31
0.0
  0
LINE
  5
D2
330
1F
100
AcDbEntity
  8
ハッチ
  6
Continuous
 62
     6
370
     9
100
AcDbLine
 10
-113.9958295024417
 20
246.9211339171804
 30
0.0
 11
-98.99578001447708
 21
246.9211339171804
 31
0.0
  0
LINE
  5
D3
330
1F
100
AcDbEntity
  8
ハッチ
  6
Continuous
 62
     6
370
     9
100
AcDbLine
 10
-87.99559525940936
 20
240.9212130979219
 30
0.0
 11
-68.9956810385479
 21
240.9212130979219
 31
0.0
  0
LINE
  5
D4
330
1F
100
AcDbEntity
  8
ハッチ
  6
Continuous
 62
     6
370
     9
100
AcDbLine
 10
-87.99559525940936
 20
246.9211339171804
 30
0.0
 11
-68.9956810385479
 21
246.9211339171804
 31
0.0
  0
CIRCLE
  5
D5
330
1F
100
AcDbEntity
  8
ハッチ
  6
Continuous
 62
     6
370
     9
100
AcDbCircle
 10
-116.4958855888005
 20
270.9213120738522
 30
0.0
 40
3.0
  0
CIRCLE
  5
D6
330
1F
100
AcDbEntity
  8
ハッチ
  6
Continuous
 62
     6
370
     9
100
AcDbCircle
 10
-40.49588558880032
 20
270.9213120738522
 30
0.0
 40
3.0
  0
ARC
  5
D7
330
1F
100
AcDbEntity
  8
ハッチ
  6
Continuous
 62
     6
370
     9
100
AcDbCircle
 10
-106.9956447473737
 20
270.9213120738511
 30
0.0
 40
2.999999797022021
100
AcDbArc
 50
90.0
 51
270.0
  0
ARC
  5
D8
330
1F
100
AcDbEntity
  8
ハッチ
  6
Continuous
 62
     6
370
     9
100
AcDbCircle
 10
-87.99573052651226
 20
270.9213120738511
 30
0.0
 40
2.999999797022021
100
AcDbArc
 50
270.0
 51
90.0
  0
LINE
  5
D9
330
1F
100
AcDbEntity
  8
ハッチ
  6
Continuous
 62
     6
370
     9
100
AcDbLine
 10
-106.9956447473737
 20
273.9212724834803
 30
0.0
 11
-87.99573052651226
 21
273.9212724834803
 31
0.0
  0
LINE
  5
DA
330
1F
100
AcDbEntity
  8
ハッチ
  6
Continuous
 62
     6
370
     9
100
AcDbLine
 10
-106.9956447473737
 20
267.9213516642241
 30
0.0
 11
-87.99573052651226
 21
267.9213516642241
 31
0.0
  0
ARC
  5
DB
330
1F
100
AcDbEntity
  8
ハッチ
  6
Continuous
 62
     6
370
     9
100
AcDbCircle
 10
-68.99579321126794
 20
270.9213120738511
 30
0.0
 40
2.999999797022021
100
AcDbArc
 50
90.0
 51
270.0
  0
ARC
  5
DC
330
1F
100
AcDbEntity
  8
ハッチ
  6
Continuous
 62
     6
370
     9
100
AcDbCircle
 10
-49.99587899040534
 20
270.9213120738511
 30
0.0
 40
2.999999797022021
100
AcDbArc
 50
270.0
 51
90.0
  0
LINE
  5
DD
330
1F
100
AcDbEntity
  8
ハッチ
  6
Continuous
 62
     6
370
     9
100
AcDbLine
 10
-68.99579321126794
 20
273.9212724834803
 30
0.0
 11
-49.99587899040534
 21
273.9212724834803
 31
0.0
  0
LINE
  5
DE
330
1F
100
AcDbEntity
  8
ハッチ
  6
Continuous
 62
     6
370
     9
100
AcDbLine
 10
-68.99579321126794
 20
267.9213516642241
 30
0.0
 11
-49.99587899040534
 21
267.9213516642241
 31
0.0
  0
CIRCLE
  5
DF
330
1F
100
AcDbEntity
  8
ハッチ
  6
Continuous
 62
     6
370
     9
100
AcDbCircle
 10
-78.495885588801
 20
270.9213120738522
 30
0.0
 40
3.0
  0
CIRCLE
  5
E0
330
1F
100
AcDbEntity
  8
ハッチ
  6
Continuous
 62
     6
370
     9
100
AcDbCircle
 10
-78.495885588801
 20
288.9213219714449
 30
0.0
 40
3.0
  0
ARC
  5
E1
330
1F
100
AcDbEntity
  8
ハッチ
  6
Continuous
 62
     6
370
     9
100
AcDbCircle
 10
-105.9956447473735
 20
288.9213219714449
 30
0.0
 40
2.999999797022021
100
AcDbArc
 50
90.0
 51
270.0
  0
ARC
  5
E2
330
1F
100
AcDbEntity
  8
ハッチ
  6
Continuous
 62
     6
370
     9
100
AcDbCircle
 10
-86.99573052651203
 20
288.9213219714449
 30
0.0
 40
2.999999797022021
100
AcDbArc
 50
270.0
 51
90.0
  0
LINE
  5
E3
330
1F
100
AcDbEntity
  8
ハッチ
  6
Continuous
 62
     6
370
     9
100
AcDbLine
 10
-105.9956447473735
 20
291.9212823810741
 30
0.0
 11
-86.99573052651203
 21
291.9212823810741
 31
0.0
  0
LINE
  5
E4
330
1F
100
AcDbEntity
  8
ハッチ
  6
Continuous
 62
     6
370
     9
100
AcDbLine
 10
-105.9956447473735
 20
285.9213615618157
 30
0.0
 11
-86.99573052651203
 21
285.9213615618157
 31
0.0
  0
LINE
  5
E5
330
1F
100
AcDbEntity
  8
ハッチ
  6
Continuous
 62
     6
370
     9
100
AcDbLine
 10
-69.99579321126703
 20
285.9213615618157
 30
0.0
 11
-50.99587899040671
 21
285.9213615618157
 31
0.0
  0
LINE
  5
E6
330
1F
100
AcDbEntity
  8
ハッチ
  6
Continuous
 62
     6
370
     9
100
AcDbLine
 10
-69.99579321126703
 20
291.9212823810741
 30
0.0
 11
-50.99587899040671
 21
291.9212823810741
 31
0.0
  0
ARC
  5
E7
330
1F
100
AcDbEntity
  8
ハッチ
  6
Continuous
 62
     6
370
     9
100
AcDbCircle
 10
-50.99587899040671
 20
288.9213219714449
 30
0.0
 40
2.999999797022021
100
AcDbArc
 50
270.0
 51
90.0
  0
ARC
  5
E8
330
1F
100
AcDbEntity
  8
ハッチ
  6
Continuous
 62
     6
370
     9
100
AcDbCircle
 10
-69.99579321126703
 20
288.9213219714449
 30
0.0
 40
2.999999797022021
100
AcDbArc
 50
90.0
 51
270.0
  0
ARC
  5
E9
330
1F
100
AcDbEntity
  8
ハッチ
  6
Continuous
 62
     6
370
     9
100
AcDbCircle
 10
-42.99569423533853
 20
279.9211933027365
 30
0.0
 40
2.999999797022021
100
AcDbArc
 50
270.0
 51
90.0
  0
ARC
  5
EA
330
1F
100
AcDbEntity
  8
ハッチ
  6
Continuous
 62
     6
370
     9
100
AcDbCircle
 10
-87.99559525940936
 20
297.9212032003304
 30
0.0
 40
2.999999797022021
100
AcDbArc
 50
90.0
 51
270.0
  0
ARC
  5
EB
330
1F
100
AcDbEntity
  8
ハッチ
  6
Continuous
 62
     6
370
     9
100
AcDbCircle
 10
-68.9956810385479
 20
297.9212032003304
 30
0.0
 40
2.999999797022021
100
AcDbArc
 50
270.0
 51
90.0
  0
ARC
  5
EC
330
1F
100
AcDbEntity
  8
ハッチ
  6
Continuous
 62
     6
370
     9
100
AcDbCircle
 10
-113.9958295024417
 20
279.9211933027365
 30
0.0
 40
2.999999797022021
100
AcDbArc
 50
90.0
 51
270.0
  0
ARC
  5
ED
330
1F
100
AcDbEntity
  8
ハッチ
  6
Continuous
 62
     6
370
     9
100
AcDbCircle
 10
-98.99578001447708
 20
279.9211933027365
 30
0.0
 40
2.999999797022021
100
AcDbArc
 50
270.0
 51
90.0
  0
ARC
  5
EE
330
1F
100
AcDbEntity
  8
ハッチ
  6
Continuous
 62
     6
370
     9
100
AcDbCircle
 10
-57.99574372330312
 20
279.9211933027365
 30
0.0
 40
2.999999797022021
100
AcDbArc
 50
90.0
 51
270.0
  0
ARC
  5
EF
330
1F
100
AcDbEntity
  8
ハッチ
  6
Continuous
 62
     6
370
     9
100
AcDbCircle
 10
-87.99559525940936
 20
279.9211933027365
 30
0.0
 40
2.999999797022021
100
AcDbArc
 50
90.0
 51
270.0
  0
ARC
  5
F0
330
1F
100
AcDbEntity
  8
ハッチ
  6
Continuous
 62
     6
370
     9
100
AcDbCircle
 10
-68.9956810385479
 20
279.9211933027365
 30
0.0
 40
2.999999797022021
100
AcDbArc
 50
270.0
 51
90.0
  0
ARC
  5
F1
330
1F
100
AcDbEntity
  8
ハッチ
  6
Continuous
 62
     6
370
     9
100
AcDbCircle
 10
-117.9956942353385
 20
261.921183405145
 30
0.0
 40
2.999999797022021
100
AcDbArc
 50
90.0
 51
270.0
  0
ARC
  5
F2
330
1F
100
AcDbEntity
  8
ハッチ
  6
Continuous
 62
     6
370
     9
100
AcDbCircle
 10
-98.99578001447708
 20
261.921183405145
 30
0.0
 40
2.999999797022021
100
AcDbArc
 50
270.0
 51
90.0
  0
ARC
  5
F3
330
1F
100
AcDbEntity
  8
ハッチ
  6
Continuous
 62
     6
370
     9
100
AcDbCircle
 10
-57.99574372330312
 20
261.921183405145
 30
0.0
 40
2.999999797022021
100
AcDbArc
 50
90.0
 51
270.0
  0
ARC
  5
F4
330
1F
100
AcDbEntity
  8
ハッチ
  6
Continuous
 62
     6
370
     9
100
AcDbCircle
 10
-38.99582950244167
 20
261.921183405145
 30
0.0
 40
2.999999797022021
100
AcDbArc
 50
270.0
 51
90.0
  0
ARC
  5
F5
330
1F
100
AcDbEntity
  8
ハッチ
  6
Continuous
 62
     6
370
     9
100
AcDbCircle
 10
-87.99559525940936
 20
261.921183405145
 30
0.0
 40
2.999999797022021
100
AcDbArc
 50
90.0
 51
270.0
  0
ARC
  5
F6
330
1F
100
AcDbEntity
  8
ハッチ
  6
Continuous
 62
     6
370
     9
100
AcDbCircle
 10
-68.9956810385479
 20
261.921183405145
 30
0.0
 40
2.999999797022021
100
AcDbArc
 50
270.0
 51
90.0
  0
CIRCLE
  5
F7
330
1F
100
AcDbEntity
  8
ハッチ
  6
Continuous
 62
     6
370
     9
100
AcDbCircle
 10
-78.495885588801
 20
261.921183405145
 30
0.0
 40
44.99999768025167
  0
LINE
  5
F8
330
1F
100
AcDbEntity
  8
ハッチ
  6
Continuous
 62
     6
370
     9
100
AcDbLine
 10
-42.99569423533853
 20
282.9211537123658
 30
0.0
 11
-57.99574372330312
 21
282.9211537123658
 31
0.0
  0
LINE
  5
F9
330
1F
100
AcDbEntity
  8
ハッチ
  6
Continuous
 62
     6
370
     9
100
AcDbLine
 10
-42.99569423533853
 20
276.9212328931096
 30
0.0
 11
-57.99574372330312
 21
276.9212328931096
 31
0.0
  0
LINE
  5
FA
330
1F
100
AcDbEntity
  8
ハッチ
  6
Continuous
 62
     6
370
     9
100
AcDbLine
 10
-87.99559525940936
 20
300.9211636099596
 30
0.0
 11
-68.9956810385479
 21
300.9211636099596
 31
0.0
  0
LINE
  5
FB
330
1F
100
AcDbEntity
  8
ハッチ
  6
Continuous
 62
     6
370
     9
100
AcDbLine
 10
-87.99559525940936
 20
294.9212427907011
 30
0.0
 11
-68.9956810385479
 21
294.9212427907011
 31
0.0
  0
LINE
  5
FC
330
1F
100
AcDbEntity
  8
ハッチ
  6
Continuous
 62
     6
370
     9
100
AcDbLine
 10
-113.9958295024417
 20
282.9211537123658
 30
0.0
 11
-98.99578001447708
 21
282.9211537123658
 31
0.0
  0
LINE
  5
FD
330
1F
100
AcDbEntity
  8
ハッチ
  6
Continuous
 62
     6
370
     9
100
AcDbLine
 10
-113.9958295024417
 20
276.9212328931096
 30
0.0
 11
-98.99578001447708
 21
276.9212328931096
 31
0.0
  0
LINE
  5
FE
330
1F
100
AcDbEntity
  8
ハッチ
  6
Continuous
 62
     6
370
     9
100
AcDbLine
 10
-87.99559525940936
 20
282.9211537123658
 30
0.0
 11
-68.9956810385479
 21
282.9211537123658
 31
0.0
  0
LINE
  5
FF
330
1F
100
AcDbEntity
  8
ハッチ
  6
Continuous
 62
     6
370
     9
100
AcDbLine
 10
-87.99559525940936
 20
276.9212328931096
 30
0.0
 11
-68.9956810385479
 21
276.9212328931096
 31
0.0
  0
LINE
  5
100
330
1F
100
AcDbEntity
  8
ハッチ
  6
Continuous
 62
     6
370
     9
100
AcDbLine
 10
-117.9956942353385
 20
264.9211438147719
 30
0.0
 11
-98.99578001447708
 21
264.9211438147719
 31
0.0
  0
LINE
  5
101
330
1F
100
AcDbEntity
  8
ハッチ
  6
Continuous
 62
     6
370
     9
100
AcDbLine
 10
-117.9956942353385
 20
258.9212229955157
 30
0.0
 11
-98.99578001447708
 21
258.9212229955157
 31
0.0
  0
LINE
  5
102
330
1F
100
AcDbEntity
  8
ハッチ
  6
Continuous
 62
     6
370
     9
100
AcDbLine
 10
-57.99574372330312
 20
264.9211438147719
 30
0.0
 11
-38.99582950244167
 21
264.9211438147719
 31
0.0
  0
LINE
  5
103
330
1F
100
AcDbEntity
  8
ハッチ
  6
Continuous
 62
     6
370
     9
100
AcDbLine
 10
-57.99574372330312
 20
258.9212229955157
 30
0.0
 11
-38.99582950244167
 21
258.9212229955157
 31
0.0
  0
LINE
  5
104
330
1F
100
AcDbEntity
  8
ハッチ
  6
Continuous
 62
     6
370
     9
100
AcDbLine
 10
-87.99559525940936
 20
264.9211438147719
 30
0.0
 11
-68.9956810385479
 21
264.9211438147719
 31
0.0
  0
LINE
  5
105
330
1F
100
AcDbEntity
  8
ハッチ
  6
Continuous
 62
     6
370
     9
100
AcDbLine
 10
-87.99559525940936
 20
258.9212229955157
 30
0.0
 11
-68.9956810385479
 21
258.9212229955157
 31
0.0
  0
CIRCLE
  5
106
330
1F
100
AcDbEntity
  8
084
  6
JWW_DASHED1
 62
     3
370
     9
100
AcDbCircle
 10
-78.49574585807886
 20
261.9211834051436
 30
0.0
 40
42.51701379483131
  0
CIRCLE
  5
107
330
1F
100
AcDbEntity
  8
084
  6
JWW_DASHED1
 62
     3
370
     9
100
AcDbCircle
 10
-78.49574585807886
 20
261.9211834051436
 30
0.0
 40
43.9
  0
TEXT
  5
108
330
1F
100
AcDbEntity
  8
その他
  6
Continuous
 62
     2
370
   211
100
AcDbText
 10
-88.4957467123354
 20
569.2100918472999
 30
0.0
 40
15.24
  1
Ａ
 41
0.9999999999999998
  7
ＭＳ ゴシック
100
AcDbText
  0
TEXT
  5
109
330
1F
100
AcDbEntity
  8
その他
  6
Continuous
 62
     2
370
   211
100
AcDbText
 10
248.504187350931
 20
251.9211842594004
 30
0.0
 40
15.24
  1
Ａ
 50
90.0
 41
0.9999999999999998
  7
ＭＳ ゴシック
100
AcDbText
  0
LWPOLYLINE
  5
10A
330
1F
100
AcDbEntity
  8
その他
  6
Continuous
 62
     7
370
     9
100
AcDbPolyline
 90
        4
 70
     1
 43
0.5
 10
121.7542541419211
 20
563.3900918472999
 42
0.4142135623731
 10
121.5042541419211
 20
563.6400918472999
 42
0.4142135623731
 10
121.2542541419211
 20
563.3900918472999
 42
0.4142135623731
 10
121.5042541419211
 20
563.1400918472999
 42
0.4142135623731
  0
LINE
  5
10B
330
1F
100
AcDbEntity
  8
その他
  6
Continuous
 62
     7
370
     9
100
AcDbLine
 10
121.5042541419211
 20
564.8900918472999
 30
0.0
 11
121.5042541419211
 21
512.9211834051426
 31
0.0
  0
LWPOLYLINE
  5
10C
330
1F
100
AcDbEntity
  8
その他
  6
Continuous
 62
     7
370
     9
100
AcDbPolyline
 90
        4
 70
     1
 43
0.5
 10
254.5741873509311
 20
461.921183405143
 42
0.4142135623731
 10
254.3241873509311
 20
462.171183405143
 42
0.4142135623731
 10
254.0741873509311
 20
461.921183405143
 42
0.4142135623731
 10
254.3241873509311
 20
461.671183405143
 42
0.4142135623731
  0
LINE
  5
10D
330
1F
100
AcDbEntity
  8
その他
  6
Continuous
 62
     7
370
     9
100
AcDbLine
 10
255.8241873509309
 20
461.921183405143
 30
0.0
 11
172.5042541419208
 21
461.921183405143
 31
0.0
  0
LWPOLYLINE
  5
10E
330
1F
100
AcDbEntity
  8
その他
  6
Continuous
 62
     7
370
     9
100
AcDbPolyline
 90
        4
 70
     1
 43
0.5
 10
254.5741873509311
 20
61.92118511365778
 42
0.4142135623731
 10
254.3241873509311
 20
62.17118511365779
 42
0.4142135623731
 10
254.0741873509311
 20
61.92118511365778
 42
0.4142135623731
 10
254.3241873509311
 20
61.67118511365778
 42
0.4142135623731
  0
LINE
  5
10F
330
1F
100
AcDbEntity
  8
その他
  6
Continuous
 62
     7
370
     9
100
AcDbLine
 10
255.8241873509309
 20
61.92118511365778
 30
0.0
 11
172.5042541419208
 21
61.92118511365778
 31
0.0
  0
LINE
  5
110
330
1F
100
AcDbEntity
  8
その他
  6
Continuous
 62
     7
370
     9
100
AcDbLine
 10
254.3241873509311
 20
61.92118511365778
 30
0.0
 11
254.3241873509311
 21
461.921183405143
 31
0.0
  0
LINE
  5
111
330
1F
100
AcDbEntity
  8
051
  6
JWW_DASHED2
 62
   211
370
     9
100
AcDbLine
 10
-294.4957458580825
 20
158.921183405144
 30
0.0
 11
-294.4957458580825
 21
364.9211834051454
 31
0.0
  0
LINE
  5
112
330
1F
100
AcDbEntity
  8
051
  6
JWW_DASHED2
 62
   211
370
     9
100
AcDbLine
 10
-319.4957458580825
 20
364.9211834051454
 30
0.0
 11
-294.4957458580825
 21
364.9211834051454
 31
0.0
  0
LINE
  5
113
330
1F
100
AcDbEntity
  8
051
  6
Continuous
 62
   211
370
     9
100
AcDbLine
 10
-319.4957458580825
 20
363.4211834051445
 30
0.0
 11
-344.4957475665956
 21
363.4211834051445
 31
0.0
  0
LINE
  5
114
330
1F
100
AcDbEntity
  8
051
  6
Continuous
 62
   211
370
     9
100
AcDbLine
 10
-319.4957458580825
 20
364.9211834051454
 30
0.0
 11
-344.4957475665956
 21
364.9211834051454
 31
0.0
  0
LINE
  5
115
330
1F
100
AcDbEntity
  8
041
  6
JWW_DASHED2
 62
     2
370
     9
100
AcDbLine
 10
-319.4957458580825
 20
361.9211834051436
 30
0.0
 11
-278.4957475665942
 21
361.9211834051436
 31
0.0
  0
LINE
  5
116
330
1F
100
AcDbEntity
  8
041
  6
JWW_DASHED2
 62
     2
370
     9
100
AcDbLine
 10
-319.4957458580825
 20
363.4211834051445
 30
0.0
 11
-278.4957475665942
 21
363.4211834051445
 31
0.0
  0
LINE
  5
117
330
1F
100
AcDbEntity
  8
051
  6
JWW_DASHED2
 62
   211
370
     9
100
AcDbLine
 10
-319.4957458580825
 20
158.921183405144
 30
0.0
 11
-294.4957458580825
 21
158.921183405144
 31
0.0
  0
LINE
  5
118
330
1F
100
AcDbEntity
  8
051
  6
Continuous
 62
   211
370
     9
100
AcDbLine
 10
-319.4957458580825
 20
160.4211834051449
 30
0.0
 11
-344.4957475665956
 21
160.4211834051449
 31
0.0
  0
LINE
  5
119
330
1F
100
AcDbEntity
  8
051
  6
Continuous
 62
   211
370
     9
100
AcDbLine
 10
-344.4957475665956
 20
364.9211834051454
 30
0.0
 11
-344.4957475665956
 21
158.921183405144
 31
0.0
  0
LINE
  5
11A
330
1F
100
AcDbEntity
  8
051
  6
Continuous
 62
   211
370
     9
100
AcDbLine
 10
-319.4957458580825
 20
158.921183405144
 30
0.0
 11
-344.4957475665956
 21
158.921183405144
 31
0.0
  0
LINE
  5
11B
330
1F
100
AcDbEntity
  8
041
  6
JWW_DASHED2
 62
     2
370
     9
100
AcDbLine
 10
-319.4957458580825
 20
161.9211834051436
 30
0.0
 11
-278.4957475665942
 21
161.9211834051436
 31
0.0
  0
LINE
  5
11C
330
1F
100
AcDbEntity
  8
041
  6
JWW_DASHED2
 62
     2
370
     9
100
AcDbLine
 10
-319.4957458580825
 20
160.4211834051449
 30
0.0
 11
-278.4957475665942
 21
160.4211834051449
 31
0.0
  0
LINE
  5
11D
330
1F
100
AcDbEntity
  8
その他
  6
Continuous
 62
     7
370
     9
100
AcDbLine
 10
-403.7476074424785
 20
161.9211834051436
 30
0.0
 11
-403.7476074424785
 21
361.9211834051436
 31
0.0
  0
LWPOLYLINE
  5
11E
330
1F
100
AcDbEntity
  8
その他
  6
Continuous
 62
     7
370
     9
100
AcDbPolyline
 90
        4
 70
     1
 43
0.5
 10
-403.4976074424785
 20
161.9211834051436
 42
0.4142135623731
 10
-403.7476074424785
 20
162.1711834051436
 42
0.4142135623731
 10
-403.9976074424785
 20
161.9211834051436
 42
0.4142135623731
 10
-403.7476074424785
 20
161.6711834051436
 42
0.4142135623731
  0
LWPOLYLINE
  5
11F
330
1F
100
AcDbEntity
  8
その他
  6
Continuous
 62
     7
370
     9
100
AcDbPolyline
 90
        4
 70
     1
 43
0.5
 10
-403.4976074424785
 20
361.9211834051436
 42
0.4142135623731
 10
-403.7476074424785
 20
362.1711834051436
 42
0.4142135623731
 10
-403.9976074424785
 20
361.9211834051436
 42
0.4142135623731
 10
-403.7476074424785
 20
361.6711834051436
 42
0.4142135623731
  0
LINE
  5
120
330
1F
100
AcDbEntity
  8
その他
  6
Continuous
 62
     7
370
     9
100
AcDbLine
 10
-405.2476074424783
 20
361.9211834051436
 30
0.0
 11
-358.039825576675
 21
361.9211834051436
 31
0.0
  0
LINE
  5
121
330
1F
100
AcDbEntity
  8
その他
  6
Continuous
 62
     7
370
     9
100
AcDbLine
 10
-405.2476074424783
 20
161.9211834051436
 30
0.0
 11
-358.039825576675
 21
161.9211834051436
 31
0.0
  0
TEXT
  5
122
330
1F
100
AcDbEntity
  8
その他
  6
Continuous
 62
     2
370
   211
100
AcDbText
 10
-409.567607442478
 20
240.6711834051436
 30
0.0
 40
15.24
  1
Ｗ１
 50
90.0
 41
1.0625
  7
ＭＳ ゴシック
100
AcDbText
  0
LWPOLYLINE
  5
123
330
1F
100
AcDbEntity
  8
その他
  6
Continuous
 62
     7
370
     9
100
AcDbPolyline
 90
        4
 70
     1
 43
0.5
 10
-278.2457475665919
 20
563.3900918472999
 42
0.4142135623731
 10
-278.4957475665919
 20
563.6400918472999
 42
0.4142135623731
 10
-278.7457475665919
 20
563.3900918472999
 42
0.4142135623731
 10
-278.4957475665919
 20
563.1400918472999
 42
0.4142135623731
  0
LINE
  5
124
330
1F
100
AcDbEntity
  8
その他
  6
Continuous
 62
     7
370
     9
100
AcDbLine
 10
-278.4957475665919
 20
564.8900918472999
 30
0.0
 11
-278.4957475665919
 21
512.9211834051426
 31
0.0
  0
LINE
  5
125
330
1F
100
AcDbEntity
  8
その他
  6
Continuous
 62
     7
370
     9
100
AcDbLine
 10
-278.4957475665919
 20
563.3900918472999
 30
0.0
 11
121.5042541419211
 21
563.3900918472999
 31
0.0
  0
LINE
  5
126
330
1F
100
AcDbEntity
  8
084
  6
JWW_DASHED2
 62
     3
370
     9
100
AcDbLine
 10
-35.99566956413355
 20
-356.9467012769741
 30
0.0
 11
-120.9958202446774
 21
-356.9467012769741
 31
0.0
  0
LINE
  5
127
330
1F
100
AcDbEntity
  8
084
  6
JWW_DASHED2
 62
     3
370
     9
100
AcDbLine
 10
-35.99566956413355
 20
-424.546730268674
 30
0.0
 11
-120.9958202446774
 21
-424.546730268674
 31
0.0
  0
LINE
  5
128
330
1F
100
AcDbEntity
  8
084
  6
JWW_DASHED2
 62
     3
370
     9
100
AcDbLine
 10
-120.9958202446774
 20
-356.9467012769741
 30
0.0
 11
-120.9958202446774
 21
-424.546730268674
 31
0.0
  0
LINE
  5
129
330
1F
100
AcDbEntity
  8
084
  6
JWW_DASHED2
 62
     3
370
     9
100
AcDbLine
 10
-122.395768364795
 20
-355.7466776258519
 30
0.0
 11
-122.395768364795
 21
-425.7467882520717
 31
0.0
  0
LINE
  5
12A
330
1F
100
AcDbEntity
  8
084
  6
JWW_DASHED2
 62
     3
370
     9
100
AcDbLine
 10
-122.395768364795
 20
-425.7467882520717
 30
0.0
 11
-120.9958202446774
 21
-424.546730268674
 31
0.0
  0
LINE
  5
12B
330
1F
100
AcDbEntity
  8
084
  6
JWW_DASHED2
 62
     3
370
     9
100
AcDbLine
 10
-122.395768364795
 20
-355.7466776258519
 30
0.0
 11
-120.9958202446774
 21
-356.9467012769741
 31
0.0
  0
LINE
  5
12C
330
1F
100
AcDbEntity
  8
084
  6
JWW_DASHED2
 62
     3
370
     9
100
AcDbLine
 10
-35.99566956413355
 20
-356.9467012769741
 30
0.0
 11
-35.99566956413355
 21
-424.546730268674
 31
0.0
  0
LINE
  5
12D
330
1F
100
AcDbEntity
  8
084
  6
JWW_DASHED2
 62
     3
370
     9
100
AcDbLine
 10
-34.59572144401818
 20
-355.7466776258519
 30
0.0
 11
-34.59572144401818
 21
-425.7467882520717
 31
0.0
  0
LINE
  5
12E
330
1F
100
AcDbEntity
  8
084
  6
JWW_DASHED2
 62
     3
370
     9
100
AcDbLine
 10
-34.59572144401818
 20
-425.7467882520717
 30
0.0
 11
-35.99566956413355
 21
-424.546730268674
 31
0.0
  0
LINE
  5
12F
330
1F
100
AcDbEntity
  8
084
  6
JWW_DASHED2
 62
     3
370
     9
100
AcDbLine
 10
-34.59572144401818
 20
-355.7466776258519
 30
0.0
 11
-35.99566956413355
 21
-356.9467012769741
 31
0.0
  0
LINE
  5
130
330
1F
100
AcDbEntity
  8
084
  6
Continuous
 62
     3
370
     9
100
AcDbLine
 10
-125.9958431328619
 20
-355.7466776258519
 30
0.0
 11
-30.99564667595132
 21
-355.7466776258519
 31
0.0
  0
LINE
  5
131
330
1F
100
AcDbEntity
  8
084
  6
Continuous
 62
     3
370
     9
100
AcDbLine
 10
-125.9958431328619
 20
-425.7467882520717
 30
0.0
 11
-125.9958431328619
 21
-355.7466776258519
 31
0.0
  0
LINE
  5
132
330
1F
100
AcDbEntity
  8
084
  6
Continuous
 62
     3
370
     9
100
AcDbLine
 10
-30.99564667595132
 20
-425.7467882520717
 30
0.0
 11
-125.9958431328619
 21
-425.7467882520717
 31
0.0
  0
LINE
  5
133
330
1F
100
AcDbEntity
  8
084
  6
Continuous
 62
     3
370
     9
100
AcDbLine
 10
-30.99564667595132
 20
-355.7466776258519
 30
0.0
 11
-30.99564667595132
 21
-425.7467882520717
 31
0.0
  0
LINE
  5
134
330
1F
100
AcDbEntity
  8
その他
  6
Continuous
 62
     7
370
     9
100
AcDbLine
 10
-125.9958431328619
 20
-495.7850620869856
 30
0.0
 11
-30.99564667595132
 21
-495.7850620869856
 31
0.0
  0
LWPOLYLINE
  5
135
330
1F
100
AcDbEntity
  8
その他
  6
Continuous
 62
     7
370
     9
100
AcDbPolyline
 90
        4
 70
     1
 43
0.5
 10
-125.7458431328619
 20
-495.7850620869856
 42
0.4142135623731
 10
-125.9958431328619
 20
-495.5350620869856
 42
0.4142135623731
 10
-126.2458431328619
 20
-495.7850620869856
 42
0.4142135623731
 10
-125.9958431328619
 20
-496.0350620869855
 42
0.4142135623731
  0
LWPOLYLINE
  5
136
330
1F
100
AcDbEntity
  8
その他
  6
Continuous
 62
     7
370
     9
100
AcDbPolyline
 90
        4
 70
     1
 43
0.5
 10
-30.74564667595132
 20
-495.7850620869856
 42
0.4142135623731
 10
-30.99564667595132
 20
-495.5350620869856
 42
0.4142135623731
 10
-31.24564667595132
 20
-495.7850620869856
 42
0.4142135623731
 10
-30.99564667595132
 20
-496.0350620869855
 42
0.4142135623731
  0
LINE
  5
137
330
1F
100
AcDbEntity
  8
その他
  6
Continuous
 62
     7
370
     9
100
AcDbLine
 10
-125.9958431328619
 20
-497.2850620869856
 30
0.0
 11
-125.9958431328619
 21
-435.7467882520717
 31
0.0
  0
LINE
  5
138
330
1F
100
AcDbEntity
  8
その他
  6
Continuous
 62
     7
370
     9
100
AcDbLine
 10
-30.99564667595132
 20
-497.2850620869856
 30
0.0
 11
-30.99564667595132
 21
-435.7467882520717
 31
0.0
  0
TEXT
  5
139
330
1F
100
AcDbEntity
  8
その他
  6
Continuous
 62
     2
370
   211
100
AcDbText
 10
-100.3707449044066
 20
-489.9650620869856
 30
0.0
 40
15.24
  1
Φ95
 41
1.09375
  7
ＭＳ ゴシック
100
AcDbText
  0
LINE
  5
13A
330
1F
100
AcDbEntity
  8
051
  6
Continuous
 62
   211
370
     9
100
AcDbLine
 10
-344.4957475665956
 20
-235.7466776258519
 30
0.0
 11
-294.4957475665956
 21
-235.7466776258519
 31
0.0
  0
LINE
  5
13B
330
1F
100
AcDbEntity
  8
051
  6
JWW_DASHED2
 62
   211
370
     9
100
AcDbLine
 10
-294.4957475665956
 20
-310.7466776258519
 30
0.0
 11
-344.4957475665956
 21
-310.7466776258519
 31
0.0
  0
LINE
  5
13C
330
1F
100
AcDbEntity
  8
051
  6
Continuous
 62
   211
370
     9
100
AcDbLine
 10
-294.4957475665956
 20
-312.2466776258519
 30
0.0
 11
-294.4957475665956
 21
-235.7466776258519
 31
0.0
  0
LINE
  5
13D
330
1F
100
AcDbEntity
  8
051
  6
Continuous
 62
   211
370
     9
100
AcDbLine
 10
-344.4957475665956
 20
-312.2466776258519
 30
0.0
 11
-344.4957475665956
 21
-235.7466776258519
 31
0.0
  0
LINE
  5
13E
330
1F
100
AcDbEntity
  8
051
  6
Continuous
 62
   211
370
     9
100
AcDbLine
 10
-294.4957475665956
 20
-312.2466776258519
 30
0.0
 11
-344.4957475665956
 21
-312.2466776258519
 31
0.0
  0
LWPOLYLINE
  5
13F
330
1F
100
AcDbEntity
  8
その他
  6
Continuous
 62
     7
370
     9
100
AcDbPolyline
 90
        4
 70
     1
 43
0.5
 10
-396.6159887080969
 20
-195.7466776258515
 42
0.4142135623731
 10
-396.8659887080969
 20
-195.4966776258515
 42
0.4142135623731
 10
-397.1159887080969
 20
-195.7466776258515
 42
0.4142135623731
 10
-396.8659887080969
 20
-195.9966776258515
 42
0.4142135623731
  0
LWPOLYLINE
  5
140
330
1F
100
AcDbEntity
  8
その他
  6
Continuous
 62
     7
370
     9
100
AcDbPolyline
 90
        4
 70
     1
 43
0.5
 10
-396.6159887080969
 20
-310.7466776258519
 42
0.4142135623731
 10
-396.8659887080969
 20
-310.4966776258519
 42
0.4142135623731
 10
-397.1159887080969
 20
-310.7466776258519
 42
0.4142135623731
 10
-396.8659887080969
 20
-310.9966776258519
 42
0.4142135623731
  0
LINE
  5
141
330
1F
100
AcDbEntity
  8
その他
  6
Continuous
 62
     7
370
     9
100
AcDbLine
 10
-396.8659887080969
 20
-195.7466776258515
 30
0.0
 11
-396.8659887080969
 21
-310.7466776258519
 31
0.0
  0
TEXT
  5
142
330
1F
100
AcDbEntity
  8
その他
  6
Continuous
 62
     2
370
   211
100
AcDbText
 10
-402.6859887080964
 20
-263.2466776258517
 30
0.0
 40
15.24
  1
ｈ
 50
90.0
 41
0.9999999999999998
  7
ＭＳ ゴシック
100
AcDbText
  0
LINE
  5
143
330
1F
100
AcDbEntity
  8
その他
  6
Continuous
 62
     7
370
     9
100
AcDbLine
 10
-398.3659887080967
 20
-310.7466776258519
 30
0.0
 11
-356.1480818931216
 21
-310.7466776258519
 31
0.0
  0
LINE
  5
144
330
1F
100
AcDbEntity
  8
051
  6
Continuous
 62
   211
370
     9
100
AcDbLine
 10
-564.355804300792
 20
158.9211834051429
 30
0.0
 11
-564.355804300792
 21
160.4211834051438
 31
0.0
  0
LINE
  5
145
330
1F
100
AcDbEntity
  8
051
  6
Continuous
 62
   211
370
     9
100
AcDbLine
 10
-564.355804300792
 20
364.921183405142
 30
0.0
 11
-564.355804300792
 21
363.4211834051445
 31
0.0
  0
LINE
  5
146
330
1F
100
AcDbEntity
  8
084
  6
JWW_DASHED2
 62
     3
370
     9
100
AcDbLine
 10
-685.5557110660561
 20
304.4212596990894
 30
0.0
 11
-685.5557110660561
 21
219.4211090185456
 31
0.0
  0
LINE
  5
147
330
1F
100
AcDbEntity
  8
084
  6
JWW_DASHED2
 62
     3
370
     9
100
AcDbLine
 10
-753.1557400577572
 20
304.4212596990894
 30
0.0
 11
-753.1557400577572
 21
219.4211090185456
 31
0.0
  0
LINE
  5
148
330
1F
100
AcDbEntity
  8
084
  6
JWW_DASHED2
 62
     3
370
     9
100
AcDbLine
 10
-685.5557110660561
 20
219.4211090185456
 30
0.0
 11
-753.1557400577572
 21
219.4211090185456
 31
0.0
  0
LINE
  5
149
330
1F
100
AcDbEntity
  8
084
  6
JWW_DASHED2
 62
     3
370
     9
100
AcDbLine
 10
-684.355687414934
 20
218.021160898428
 30
0.0
 11
-754.3557980411538
 21
218.021160898428
 31
0.0
  0
LINE
  5
14A
330
1F
100
AcDbEntity
  8
084
  6
JWW_DASHED2
 62
     3
370
     9
100
AcDbLine
 10
-754.3557980411538
 20
218.021160898428
 30
0.0
 11
-753.1557400577572
 21
219.4211090185456
 31
0.0
  0
LINE
  5
14B
330
1F
100
AcDbEntity
  8
084
  6
JWW_DASHED2
 62
     3
370
     9
100
AcDbLine
 10
-684.355687414934
 20
218.021160898428
 30
0.0
 11
-685.5557110660561
 21
219.4211090185456
 31
0.0
  0
LINE
  5
14C
330
1F
100
AcDbEntity
  8
084
  6
JWW_DASHED2
 62
     3
370
     9
100
AcDbLine
 10
-685.5557110660561
 20
304.4212596990894
 30
0.0
 11
-753.1557400577572
 21
304.4212596990894
 31
0.0
  0
LINE
  5
14D
330
1F
100
AcDbEntity
  8
084
  6
JWW_DASHED2
 62
     3
370
     9
100
AcDbLine
 10
-684.355687414934
 20
305.8212078192048
 30
0.0
 11
-754.3557980411538
 21
305.8212078192048
 31
0.0
  0
LINE
  5
14E
330
1F
100
AcDbEntity
  8
084
  6
JWW_DASHED2
 62
     3
370
     9
100
AcDbLine
 10
-754.3557980411538
 20
305.8212078192048
 30
0.0
 11
-753.1557400577572
 21
304.4212596990894
 31
0.0
  0
LINE
  5
14F
330
1F
100
AcDbEntity
  8
084
  6
JWW_DASHED2
 62
     3
370
     9
100
AcDbLine
 10
-684.355687414934
 20
305.8212078192048
 30
0.0
 11
-685.5557110660561
 21
304.4212596990894
 31
0.0
  0
LINE
  5
150
330
1F
100
AcDbEntity
  8
084
  6
Continuous
 62
     3
370
     9
100
AcDbLine
 10
-684.355687414934
 20
214.4210861303611
 30
0.0
 11
-684.355687414934
 21
309.4212825872717
 31
0.0
  0
LINE
  5
151
330
1F
100
AcDbEntity
  8
084
  6
Continuous
 62
     3
370
     9
100
AcDbLine
 10
-754.3557980411538
 20
214.4210861303611
 30
0.0
 11
-684.355687414934
 21
214.4210861303611
 31
0.0
  0
LINE
  5
152
330
1F
100
AcDbEntity
  8
084
  6
Continuous
 62
     3
370
     9
100
AcDbLine
 10
-754.3557980411538
 20
309.4212825872717
 30
0.0
 11
-754.3557980411538
 21
214.4210861303611
 31
0.0
  0
LINE
  5
153
330
1F
100
AcDbEntity
  8
084
  6
Continuous
 62
     3
370
     9
100
AcDbLine
 10
-684.355687414934
 20
309.4212825872717
 30
0.0
 11
-754.3557980411538
 21
309.4212825872717
 31
0.0
  0
LINE
  5
154
330
1F
100
AcDbEntity
  8
051
  6
Continuous
 62
   211
370
     9
100
AcDbLine
 10
-564.355804300792
 20
158.9211834051429
 30
0.0
 11
-607.8715781866913
 21
158.9211834051429
 31
0.0
  0
LINE
  5
155
330
1F
100
AcDbEntity
  8
051
  6
Continuous
 62
   211
370
     9
100
AcDbLine
 10
-564.355804300792
 20
364.921183405142
 30
0.0
 11
-607.8715781866913
 21
364.921183405142
 31
0.0
  0
LINE
  5
156
330
1F
100
AcDbEntity
  8
051
  6
JWW_HOJO
 62
   211
370
     9
100
AcDbLine
 10
-640.5229045415763
 20
259.1181885068249
 30
0.0
 11
-640.8670690393797
 21
261.9211834051441
 31
0.0
  0
LINE
  5
157
330
1F
100
AcDbEntity
  8
051
  6
JWW_HOJO
 62
   211
370
     9
100
AcDbLine
 10
-640.5229045415763
 20
264.7241783034622
 30
0.0
 11
-640.8670690393797
 21
261.9211834051441
 31
0.0
  0
ARC
  5
158
330
1F
100
AcDbEntity
  8
051
  6
Continuous
 62
   211
370
     9
100
AcDbCircle
 10
-607.8715781866913
 20
341.9211834051436
 30
0.0
 40
23.0
100
AcDbArc
 50
90.0
 51
173.0000000035966
  0
LINE
  5
159
330
1F
100
AcDbEntity
  8
051
  6
Continuous
 62
   211
370
     9
100
AcDbLine
 10
-630.7001396746182
 20
344.7241783020291
 30
0.0
 11
-640.5229045415876
 21
264.7241783033689
 31
0.0
  0
ARC
  5
15A
330
1F
100
AcDbEntity
  8
051
  6
Continuous
 62
   211
370
     9
100
AcDbCircle
 10
-617.6943430538267
 20
261.9211834051441
 30
0.0
 40
23.0
100
AcDbArc
 50
173.0000000000001
 51
186.9999999999999
  0
ARC
  5
15B
330
1F
100
AcDbEntity
  8
051
  6
Continuous
 62
   211
370
     9
100
AcDbCircle
 10
-607.8715781866913
 20
181.9211834051424
 30
0.0
 40
23.0
100
AcDbArc
 50
186.9999999964035
 51
270.0
  0
LINE
  5
15C
330
1F
100
AcDbEntity
  8
051
  6
Continuous
 62
   211
370
     9
100
AcDbLine
 10
-630.7001396746182
 20
179.1181885082568
 30
0.0
 11
-640.5229045415876
 21
259.1181885069182
 31
0.0
  0
LINE
  5
15D
330
1F
100
AcDbEntity
  8
寸法
  6
Continuous
 62
     7
370
     9
100
AcDbLine
 10
-99.0914515129316
 20
-443.0467786350722
 30
0.0
 11
-197.2211525095099
 21
-541.1764796316509
 31
0.0
  0
LINE
  5
15E
330
1F
100
AcDbEntity
  8
寸法
  6
Continuous
 62
     7
370
     9
100
AcDbLine
 10
47.50425414192023
 20
-1.078899605026269
 30
0.0
 11
39.89473627931147
 21
-10.99581635866677
 31
0.0
  0
LINE
  5
15F
330
1F
100
AcDbEntity
  8
寸法
  6
Continuous
 62
     7
370
     9
100
AcDbLine
 10
47.50425414192023
 20
-1.078899605026269
 30
0.0
 11
37.58733738827971
 21
-8.68841746763529
 31
0.0
  0
LINE
  5
160
330
1F
100
AcDbEntity
  8
寸法
  6
Continuous
 62
     7
370
     9
100
AcDbLine
 10
-430.9985632544453
 20
-149.2438619380024
 30
0.0
 11
-344.4957475665956
 21
-235.7466776258519
 31
0.0
  0
LINE
  5
161
330
1F
100
AcDbEntity
  8
寸法
  6
Continuous
 62
     7
370
     9
100
AcDbLine
 10
-344.4957475665956
 20
-235.7466776258519
 30
0.0
 11
-354.4126643202367
 21
-228.1371597632429
 31
0.0
  0
LINE
  5
162
330
1F
100
AcDbEntity
  8
寸法
  6
Continuous
 62
     7
370
     9
100
AcDbLine
 10
-344.4957475665956
 20
-235.7466776258519
 30
0.0
 11
-352.1052654292043
 21
-225.8297608722114
 31
0.0
  0
LINE
  5
163
330
1F
100
AcDbEntity
  8
寸法
  6
Continuous
 62
     7
370
     9
100
AcDbLine
 10
192.2973836384591
 20
-142.8193914603145
 30
0.0
 11
139.3700974729217
 21
-195.7466776258521
 31
0.0
  0
LINE
  5
164
330
1F
100
AcDbEntity
  8
寸法
  6
Continuous
 62
     7
370
     9
100
AcDbLine
 10
139.3700974729217
 20
-195.7466776258521
 30
0.0
 11
146.9796153355304
 21
-185.8297608722116
 31
0.0
  0
LINE
  5
165
330
1F
100
AcDbEntity
  8
寸法
  6
Continuous
 62
     7
370
     9
100
AcDbLine
 10
139.3700974729217
 20
-195.7466776258521
 30
0.0
 11
149.2870142265622
 21
-188.137159763243
 31
0.0
  0
LINE
  5
166
330
1F
100
AcDbEntity
  8
寸法
  6
Continuous
 62
     7
370
     9
100
AcDbLine
 10
-224.1255441294402
 20
-481.1409070625988
 30
0.0
 11
-125.9958431328619
 21
-383.0112060660202
 31
0.0
  0
LINE
  5
167
330
1F
100
AcDbEntity
  8
寸法
  6
Continuous
 62
     7
370
     9
100
AcDbLine
 10
-125.9958431328619
 20
-383.0112060660202
 30
0.0
 11
-133.6053609954706
 21
-392.9281228196607
 31
0.0
  0
LINE
  5
168
330
1F
100
AcDbEntity
  8
寸法
  6
Continuous
 62
     7
370
     9
100
AcDbLine
 10
-125.9958431328619
 20
-383.0112060660202
 30
0.0
 11
-135.9127598865018
 21
-390.6207239286292
 31
0.0
  0
LINE
  5
169
330
1F
100
AcDbEntity
  8
寸法
  6
Continuous
 62
     7
370
     9
100
AcDbLine
 10
-99.0914515129316
 20
-443.0467786350722
 30
0.0
 11
-120.9958202446774
 21
-405.1072990839651
 31
0.0
  0
LINE
  5
16A
330
1F
100
AcDbEntity
  8
寸法
  6
Continuous
 62
     7
370
     9
100
AcDbLine
 10
-120.9958202446774
 20
-405.1072990839651
 30
0.0
 11
-113.3863023820686
 21
-415.0242158376057
 31
0.0
  0
LINE
  5
16B
330
1F
100
AcDbEntity
  8
寸法
  6
Continuous
 62
     7
370
     9
100
AcDbLine
 10
-120.9958202446774
 20
-405.1072990839651
 30
0.0
 11
-116.2122773401131
 21
-416.6557932403563
 31
0.0
  0
LINE
  5
16C
330
1F
100
AcDbEntity
  8
寸法
  6
Continuous
 62
     7
370
     9
100
AcDbLine
 10
214.3680277643909
 20
575.3722735218663
 30
0.0
 11
-54.6820150328233
 21
300.1036317337397
 31
0.0
  0
LINE
  5
16D
330
1F
100
AcDbEntity
  8
寸法
  6
Continuous
 62
     7
370
     9
100
AcDbLine
 10
-54.6820150328233
 20
300.1036317337397
 30
0.0
 11
-47.18628269277588
 21
310.106831056275
 31
0.0
  0
LINE
  5
16E
330
1F
100
AcDbEntity
  8
寸法
  6
Continuous
 62
     7
370
     9
100
AcDbLine
 10
-54.6820150328233
 20
300.1036317337397
 30
0.0
 11
-44.85267508199172
 21
307.8259420182986
 31
0.0
  0
LINE
  5
16F
330
1F
100
AcDbEntity
  8
その他
  6
Continuous
 62
     7
370
     9
100
AcDbLine
 10
-204.4957458580802
 20
-38.12117939266486
 30
0.0
 11
-234.4957458580802
 21
-38.12117939266486
 31
0.0
  0
LWPOLYLINE
  5
170
330
1F
100
AcDbEntity
  8
その他
  6
Continuous
 62
     7
370
     9
100
AcDbPolyline
 90
        4
 70
     1
 43
0.5
 10
-204.2457458580802
 20
-38.12117939266486
 42
0.4142135623731
 10
-204.4957458580802
 20
-37.87117939266486
 42
0.4142135623731
 10
-204.7457458580802
 20
-38.12117939266486
 42
0.4142135623731
 10
-204.4957458580802
 20
-38.37117939266486
 42
0.4142135623731
  0
LWPOLYLINE
  5
171
330
1F
100
AcDbEntity
  8
その他
  6
Continuous
 62
     7
370
     9
100
AcDbPolyline
 90
        4
 70
     1
 43
0.5
 10
-234.2457458580802
 20
-38.12117939266486
 42
0.4142135623731
 10
-234.4957458580802
 20
-37.87117939266486
 42
0.4142135623731
 10
-234.7457458580802
 20
-38.12117939266486
 42
0.4142135623731
 10
-234.4957458580802
 20
-38.37117939266486
 42
0.4142135623731
  0
LINE
  5
172
330
1F
100
AcDbEntity
  8
その他
  6
Continuous
 62
     7
370
     9
100
AcDbLine
 10
-204.4957458580802
 20
-39.62117939266484
 30
0.0
 11
-204.4957458580802
 21
-11.07889960502604
 31
0.0
  0
LINE
  5
173
330
1F
100
AcDbEntity
  8
その他
  6
Continuous
 62
     7
370
     9
100
AcDbLine
 10
-234.4957458580802
 20
-39.62117939266484
 30
0.0
 11
-234.4957458580802
 21
-11.07889960502604
 31
0.0
  0
TEXT
  5
174
330
1F
100
AcDbEntity
  8
その他
  6
Continuous
 62
     2
370
   211
100
AcDbText
 10
-230.1207458580802
 20
-32.30117939266485
 30
0.0
 40
15.24
  1
30
 41
1.0625
  7
ＭＳ ゴシック
100
AcDbText
  0
LINE
  5
175
330
1F
100
AcDbEntity
  8
その他
  6
Continuous
 62
     7
370
     9
100
AcDbLine
 10
-319.4957458580802
 20
-70.2632427242149
 30
0.0
 11
-219.4957458580802
 21
-70.2632427242149
 31
0.0
  0
LWPOLYLINE
  5
176
330
1F
100
AcDbEntity
  8
その他
  6
Continuous
 62
     7
370
     9
100
AcDbPolyline
 90
        4
 70
     1
 43
0.5
 10
-319.2457458580802
 20
-70.2632427242149
 42
0.4142135623731
 10
-319.4957458580802
 20
-70.0132427242149
 42
0.4142135623731
 10
-319.7457458580802
 20
-70.2632427242149
 42
0.4142135623731
 10
-319.4957458580802
 20
-70.5132427242149
 42
0.4142135623731
  0
LWPOLYLINE
  5
177
330
1F
100
AcDbEntity
  8
その他
  6
Continuous
 62
     7
370
     9
100
AcDbPolyline
 90
        4
 70
     1
 43
0.5
 10
-219.2457458580802
 20
-70.2632427242149
 42
0.4142135623731
 10
-219.4957458580802
 20
-70.0132427242149
 42
0.4142135623731
 10
-219.7457458580802
 20
-70.2632427242149
 42
0.4142135623731
 10
-219.4957458580802
 20
-70.5132427242149
 42
0.4142135623731
  0
LINE
  5
178
330
1F
100
AcDbEntity
  8
その他
  6
Continuous
 62
     7
370
     9
100
AcDbLine
 10
-319.4957458580802
 20
-71.76324272421489
 30
0.0
 11
-319.4957458580802
 21
10.92118340514476
 31
0.0
  0
TEXT
  5
179
330
1F
100
AcDbEntity
  8
その他
  6
Continuous
 62
     2
370
   211
100
AcDbText
 10
-285.7457458580802
 20
-64.44324272421494
 30
0.0
 40
15.24
  1
100
 41
1.083333333333333
  7
ＭＳ ゴシック
100
AcDbText
  0
LINE
  5
17A
330
1F
100
AcDbEntity
  8
その他
  6
Continuous
 62
     7
370
     9
100
AcDbLine
 10
-219.4957458580802
 20
-71.76324272421489
 30
0.0
 11
-219.4957458580802
 21
-46.13955106261212
 31
0.0
  0
LINE
  5
17B
330
1F
100
AcDbEntity
  8
その他
  6
Continuous
 62
     7
370
     9
100
AcDbLine
 10
62.50425414192364
 20
-70.2632427242149
 30
0.0
 11
162.5042541419231
 21
-70.2632427242149
 31
0.0
  0
LWPOLYLINE
  5
17C
330
1F
100
AcDbEntity
  8
その他
  6
Continuous
 62
     7
370
     9
100
AcDbPolyline
 90
        4
 70
     1
 43
0.5
 10
62.75425414192364
 20
-70.2632427242149
 42
0.4142135623731
 10
62.50425414192364
 20
-70.0132427242149
 42
0.4142135623731
 10
62.25425414192364
 20
-70.2632427242149
 42
0.4142135623731
 10
62.50425414192364
 20
-70.5132427242149
 42
0.4142135623731
  0
LWPOLYLINE
  5
17D
330
1F
100
AcDbEntity
  8
その他
  6
Continuous
 62
     7
370
     9
100
AcDbPolyline
 90
        4
 70
     1
 43
0.5
 10
162.7542541419231
 20
-70.2632427242149
 42
0.4142135623731
 10
162.5042541419231
 20
-70.0132427242149
 42
0.4142135623731
 10
162.2542541419231
 20
-70.2632427242149
 42
0.4142135623731
 10
162.5042541419231
 20
-70.5132427242149
 42
0.4142135623731
  0
LINE
  5
17E
330
1F
100
AcDbEntity
  8
その他
  6
Continuous
 62
     7
370
     9
100
AcDbLine
 10
62.50425414192364
 20
-71.76324272421489
 30
0.0
 11
62.50425414192364
 21
-15.53027012178092
 31
0.0
  0
LINE
  5
17F
330
1F
100
AcDbEntity
  8
その他
  6
Continuous
 62
     7
370
     9
100
AcDbLine
 10
162.5042541419231
 20
-71.76324272421489
 30
0.0
 11
162.5042541419231
 21
10.92118340514363
 31
0.0
  0
TEXT
  5
180
330
1F
100
AcDbEntity
  8
その他
  6
Continuous
 62
     2
370
   211
100
AcDbText
 10
96.25425414192364
 20
-64.44324272421494
 30
0.0
 40
15.24
  1
100
 41
1.083333333333333
  7
ＭＳ ゴシック
100
AcDbText
  0
LINE
  5
181
330
1F
100
AcDbEntity
  8
その他
  6
Continuous
 62
     7
370
     9
100
AcDbLine
 10
-143.9015038647096
 20
-211.746677625851
 30
0.0
 11
-143.9015038647096
 21
-195.7466776258519
 31
0.0
  0
LWPOLYLINE
  5
182
330
1F
100
AcDbEntity
  8
その他
  6
Continuous
 62
     7
370
     9
100
AcDbPolyline
 90
        4
 70
     1
 43
0.5
 10
-143.6515038647096
 20
-211.746677625851
 42
0.4142135623731
 10
-143.9015038647096
 20
-211.496677625851
 42
0.4142135623731
 10
-144.1515038647096
 20
-211.746677625851
 42
0.4142135623731
 10
-143.9015038647096
 20
-211.996677625851
 42
0.4142135623731
  0
LWPOLYLINE
  5
183
330
1F
100
AcDbEntity
  8
その他
  6
Continuous
 62
     7
370
     9
100
AcDbPolyline
 90
        4
 70
     1
 43
0.5
 10
-143.6515038647096
 20
-195.7466776258519
 42
0.4142135623731
 10
-143.9015038647096
 20
-195.4966776258519
 42
0.4142135623731
 10
-144.1515038647096
 20
-195.7466776258519
 42
0.4142135623731
 10
-143.9015038647096
 20
-195.9966776258519
 42
0.4142135623731
  0
TEXT
  5
184
330
1F
100
AcDbEntity
  8
その他
  6
Continuous
 62
     2
370
   211
100
AcDbText
 10
-149.7215038647092
 20
-187.9238610023358
 30
0.0
 40
15.24
  1
16
 50
90.0
 41
1.0625
  7
ＭＳ ゴシック
100
AcDbText
  0
LINE
  5
185
330
1F
100
AcDbEntity
  8
その他
  6
Continuous
 62
     7
370
     9
100
AcDbLine
 10
-143.9015038647096
 20
-195.7466776258519
 30
0.0
 11
-143.9015038647096
 21
-163.6443369364727
 31
0.0
  0
LINE
  5
186
330
1F
100
AcDbEntity
  8
寸法
  6
Continuous
 62
     7
370
     9
100
AcDbLine
 10
192.2973836384591
 20
-142.8193914603145
 30
0.0
 11
299.9711753493631
 21
-142.8193914603145
 31
0.0
  0
TEXT
  5
187
330
1F
100
AcDbEntity
  8
寸法
  6
Continuous
 62
     7
370
     9
100
AcDbText
 10
193.8560657487858
 20
-158.0836379387548
 30
0.0
 40
11.43
  1
SUS304 t=1.5
 50
0.0000864829737217
 41
1.152777777777777
  7
ＭＳ ゴシック
100
AcDbText
  0
TEXT
  5
188
330
1F
100
AcDbEntity
  8
寸法
  6
Continuous
 62
     7
370
     9
100
AcDbText
 10
193.8560721336013
 20
-138.3250789450582
 30
0.0
 40
11.43
  1
本体
 50
359.9999135170251
 41
1.083333333333317
  7
ＭＳ ゴシック
100
AcDbText
  0
TEXT
  5
189
330
1F
100
AcDbEntity
  8
寸法
  6
Continuous
 62
     7
370
     9
100
AcDbText
 10
-606.0449227543671
 20
-164.5081084164427
 30
0.0
 40
11.43
  1
SUS304 t=1.5
 50
0.0000864829737217
 41
1.152777777777777
  7
ＭＳ ゴシック
100
AcDbText
  0
TEXT
  5
18A
330
1F
100
AcDbEntity
  8
寸法
  6
Continuous
 62
     7
370
     9
100
AcDbText
 10
-606.0449163695516
 20
-144.749549422746
 30
0.0
 40
11.43
  1
ジョイント受プレート
 50
359.9999135170251
 41
1.149999999999999
  7
ＭＳ ゴシック
100
AcDbText
  0
LINE
  5
18B
330
1F
100
AcDbEntity
  8
寸法
  6
Continuous
 62
     7
370
     9
100
AcDbLine
 10
-607.6036048646938
 20
-149.2438619380024
 30
0.0
 11
-430.9985632544453
 21
-149.2438619380024
 31
0.0
  0
TEXT
  5
18C
330
1F
100
AcDbEntity
  8
寸法
  6
Continuous
 62
     7
370
     9
100
AcDbText
 10
215.9267098747176
 20
560.1080270434261
 30
0.0
 40
11.43
  1
SUS304 t=1.5
 50
0.0000864829737217
 41
1.152777777777777
  7
ＭＳ ゴシック
100
AcDbText
  0
TEXT
  5
18D
330
1F
100
AcDbEntity
  8
寸法
  6
Continuous
 62
     7
370
     9
100
AcDbText
 10
215.9267162595331
 20
579.8665860371227
 30
0.0
 40
11.43
  1
目皿
 50
359.9999135170251
 41
1.083333333333336
  7
ＭＳ ゴシック
100
AcDbText
  0
LINE
  5
18E
330
1F
100
AcDbEntity
  8
寸法
  6
Continuous
 62
     7
370
     9
100
AcDbLine
 10
214.3680277643909
 20
575.3722735218663
 30
0.0
 11
322.0243517598209
 21
575.3722735218663
 31
0.0
  0
LINE
  5
18F
330
1F
100
AcDbEntity
  8
寸法
  6
Continuous
 62
     7
370
     9
100
AcDbLine
 10
-22.2848047620954
 20
-71.10091073163673
 30
0.0
 11
47.50425414192023
 21
-1.078899605026269
 31
0.0
  0
TEXT
  5
190
330
1F
100
AcDbEntity
  8
寸法
  6
Continuous
 62
     7
370
     9
100
AcDbText
 10
-128.3824466471987
 20
-86.36515721007697
 30
0.0
 40
11.43
  1
SUS304 t=1.5
 50
0.0000864829737217
 41
1.152777777777771
  7
ＭＳ ゴシック
100
AcDbText
  0
LINE
  5
191
330
1F
100
AcDbEntity
  8
寸法
  6
Continuous
 62
     7
370
     9
100
AcDbLine
 10
-129.9411287575253
 20
-71.10091073163673
 30
0.0
 11
-22.2848047620954
 21
-71.10091073163673
 31
0.0
  0
TEXT
  5
192
330
1F
100
AcDbEntity
  8
寸法
  6
Continuous
 62
     7
370
     9
100
AcDbText
 10
-128.3824402623832
 20
-66.60659821638035
 30
0.0
 40
11.43
  1
アンカー
 50
359.9999135170251
 41
1.124999999999993
  7
ＭＳ ゴシック
100
AcDbText
  0
TEXT
  5
193
330
1F
100
AcDbEntity
  8
寸法
  6
Continuous
 62
     7
370
     9
100
AcDbText
 10
-248.0699610854884
 20
-536.6821671163945
 30
0.0
 40
11.43
  1
Ｒｐ３
 50
359.9999135170251
 41
1.111111111111114
  7
ＭＳ ゴシック
100
AcDbText
  0
LINE
  5
194
330
1F
100
AcDbEntity
  8
寸法
  6
Continuous
 62
     7
370
     9
100
AcDbLine
 10
-249.6286495806305
 20
-541.1764796316509
 30
0.0
 11
-197.2211525095099
 21
-541.1764796316509
 31
0.0
  0
TEXT
  5
195
330
1F
100
AcDbEntity
  8
寸法
  6
Continuous
 62
     7
370
     9
100
AcDbText
 10
-362.6524539832888
 20
-476.6465945473424
 30
0.0
 40
11.43
  1
ソケット：８０Ａ
 50
359.9999135170251
 41
1.145833333333331
  7
ＭＳ ゴシック
100
AcDbText
  0
TEXT
  5
196
330
1F
100
AcDbEntity
  8
寸法
  6
Continuous
 62
     7
370
     9
100
AcDbText
 10
-362.6524603681043
 20
-496.405153541039
 30
0.0
 40
11.43
  1
SUS304
 50
0.00008648297372
 41
1.138888888888898
  7
ＭＳ ゴシック
100
AcDbText
  0
LINE
  5
197
330
1F
100
AcDbEntity
  8
寸法
  6
Continuous
 62
     7
370
     9
100
AcDbLine
 10
-364.2111424784309
 20
-481.1409070625988
 30
0.0
 11
-224.1255441294402
 21
-481.1409070625988
 31
0.0
  0
TEXT
  5
198
330
1F
100
AcDbEntity
  8
その他
  6
Continuous
 62
     2
370
   211
100
AcDbText
 10
279.5041873509312
 20
251.9211837176771
 30
0.0
 40
15.24
  1
Ｂ
 50
90.0
 41
0.9999999999999998
  7
ＭＳ ゴシック
100
AcDbText
  0
LWPOLYLINE
  5
199
330
1F
100
AcDbEntity
  8
その他
  6
Continuous
 62
     7
370
     9
100
AcDbPolyline
 90
        4
 70
     1
 43
0.5
 10
285.5741873509313
 20
487.9211834051426
 42
0.4142135623731
 10
285.3241873509313
 20
488.1711834051426
 42
0.4142135623731
 10
285.0741873509313
 20
487.9211834051426
 42
0.4142135623731
 10
285.3241873509313
 20
487.6711834051426
 42
0.4142135623731
  0
LINE
  5
19A
330
1F
100
AcDbEntity
  8
その他
  6
Continuous
 62
     7
370
     9
100
AcDbLine
 10
286.8241873509311
 20
487.9211834051426
 30
0.0
 11
172.5042541419208
 21
487.9211834051426
 31
0.0
  0
LWPOLYLINE
  5
19B
330
1F
100
AcDbEntity
  8
その他
  6
Continuous
 62
     7
370
     9
100
AcDbPolyline
 90
        4
 70
     1
 43
0.5
 10
285.5741873509313
 20
35.92118403021155
 42
0.4142135623731
 10
285.3241873509313
 20
36.17118403021155
 42
0.4142135623731
 10
285.0741873509313
 20
35.92118403021155
 42
0.4142135623731
 10
285.3241873509313
 20
35.67118403021156
 42
0.4142135623731
  0
LINE
  5
19C
330
1F
100
AcDbEntity
  8
その他
  6
Continuous
 62
     7
370
     9
100
AcDbLine
 10
286.8241873509311
 20
35.92118403021155
 30
0.0
 11
172.5042541419208
 21
35.92118403021155
 31
0.0
  0
LINE
  5
19D
330
1F
100
AcDbEntity
  8
その他
  6
Continuous
 62
     7
370
     9
100
AcDbLine
 10
285.3241873509313
 20
35.92118403021155
 30
0.0
 11
285.3241873509313
 21
487.9211834051426
 31
0.0
  0
TEXT
  5
19E
330
1F
100
AcDbEntity
  8
その他
  6
Continuous
 62
     2
370
   211
100
AcDbText
 10
310.5041873509314
 20
251.9211834051431
 30
0.0
 40
15.24
  1
Ｃ
 50
90.0
 41
0.9999999999999998
  7
ＭＳ ゴシック
100
AcDbText
  0
LWPOLYLINE
  5
19F
330
1F
100
AcDbEntity
  8
その他
  6
Continuous
 62
     7
370
     9
100
AcDbPolyline
 90
        4
 70
     1
 43
0.5
 10
316.5741873509315
 20
502.9211834051426
 42
0.4142135623731
 10
316.3241873509315
 20
503.1711834051426
 42
0.4142135623731
 10
316.0741873509315
 20
502.9211834051426
 42
0.4142135623731
 10
316.3241873509315
 20
502.6711834051426
 42
0.4142135623731
  0
LINE
  5
1A0
330
1F
100
AcDbEntity
  8
その他
  6
Continuous
 62
     7
370
     9
100
AcDbLine
 10
317.8241873509313
 20
502.9211834051426
 30
0.0
 11
172.5042541419208
 21
502.9211834051426
 31
0.0
  0
LWPOLYLINE
  5
1A1
330
1F
100
AcDbEntity
  8
その他
  6
Continuous
 62
     7
370
     9
100
AcDbPolyline
 90
        4
 70
     1
 43
0.5
 10
316.5741873509315
 20
20.92118340514363
 42
0.4142135623731
 10
316.3241873509315
 20
21.17118340514363
 42
0.4142135623731
 10
316.0741873509315
 20
20.92118340514363
 42
0.4142135623731
 10
316.3241873509315
 20
20.67118340514363
 42
0.4142135623731
  0
LINE
  5
1A2
330
1F
100
AcDbEntity
  8
その他
  6
Continuous
 62
     7
370
     9
100
AcDbLine
 10
317.8241873509313
 20
20.92118340514363
 30
0.0
 11
172.5042541419208
 21
20.92118340514363
 31
0.0
  0
LINE
  5
1A3
330
1F
100
AcDbEntity
  8
その他
  6
Continuous
 62
     7
370
     9
100
AcDbLine
 10
316.3241873509315
 20
20.92118340514363
 30
0.0
 11
316.3241873509315
 21
502.9211834051426
 31
0.0
  0
TEXT
  5
1A4
330
1F
100
AcDbEntity
  8
その他
  6
Continuous
 62
     2
370
   211
100
AcDbText
 10
-88.49574585808
 20
600.2100918473
 30
0.0
 40
15.24
  1
Ｂ
 41
0.9999999999999998
  7
ＭＳ ゴシック
100
AcDbText
  0
LWPOLYLINE
  5
1A5
330
1F
100
AcDbEntity
  8
その他
  6
Continuous
 62
     7
370
     9
100
AcDbPolyline
 90
        4
 70
     1
 43
0.5
 10
147.7542541419208
 20
594.3900918472999
 42
0.4142135623731
 10
147.5042541419208
 20
594.6400918472999
 42
0.4142135623731
 10
147.2542541419208
 20
594.3900918472999
 42
0.4142135623731
 10
147.5042541419208
 20
594.1400918472999
 42
0.4142135623731
  0
LINE
  5
1A6
330
1F
100
AcDbEntity
  8
その他
  6
Continuous
 62
     7
370
     9
100
AcDbLine
 10
147.5042541419208
 20
595.8900918472999
 30
0.0
 11
147.5042541419208
 21
512.9211834051426
 31
0.0
  0
LWPOLYLINE
  5
1A7
330
1F
100
AcDbEntity
  8
その他
  6
Continuous
 62
     7
370
     9
100
AcDbPolyline
 90
        4
 70
     1
 43
0.5
 10
-304.2457458580802
 20
594.3900918472999
 42
0.4142135623731
 10
-304.4957458580802
 20
594.6400918472999
 42
0.4142135623731
 10
-304.7457458580802
 20
594.3900918472999
 42
0.4142135623731
 10
-304.4957458580802
 20
594.1400918472999
 42
0.4142135623731
  0
LINE
  5
1A8
330
1F
100
AcDbEntity
  8
その他
  6
Continuous
 62
     7
370
     9
100
AcDbLine
 10
-304.4957458580802
 20
595.8900918472999
 30
0.0
 11
-304.4957458580802
 21
512.9211834051426
 31
0.0
  0
LINE
  5
1A9
330
1F
100
AcDbEntity
  8
その他
  6
Continuous
 62
     7
370
     9
100
AcDbLine
 10
-304.4957458580802
 20
594.3900918472999
 30
0.0
 11
147.5042541419208
 21
594.3900918472999
 31
0.0
  0
TEXT
  5
1AA
330
1F
100
AcDbEntity
  8
その他
  6
Continuous
 62
     2
370
   211
100
AcDbText
 10
-88.49574585808
 20
631.2100918473
 30
0.0
 40
15.24
  1
Ｃ
 41
0.9999999999999998
  7
ＭＳ ゴシック
100
AcDbText
  0
LWPOLYLINE
  5
1AB
330
1F
100
AcDbEntity
  8
その他
  6
Continuous
 62
     7
370
     9
100
AcDbPolyline
 90
        4
 70
     1
 43
0.5
 10
162.7542541419208
 20
625.3900918472999
 42
0.4142135623731
 10
162.5042541419208
 20
625.6400918472999
 42
0.4142135623731
 10
162.2542541419208
 20
625.3900918472999
 42
0.4142135623731
 10
162.5042541419208
 20
625.1400918472999
 42
0.4142135623731
  0
LINE
  5
1AC
330
1F
100
AcDbEntity
  8
その他
  6
Continuous
 62
     7
370
     9
100
AcDbLine
 10
162.5042541419208
 20
626.8900918472999
 30
0.0
 11
162.5042541419208
 21
512.9211834051426
 31
0.0
  0
LWPOLYLINE
  5
1AD
330
1F
100
AcDbEntity
  8
その他
  6
Continuous
 62
     7
370
     9
100
AcDbPolyline
 90
        4
 70
     1
 43
0.5
 10
-319.2457458580802
 20
625.3900918472999
 42
0.4142135623731
 10
-319.4957458580802
 20
625.6400918472999
 42
0.4142135623731
 10
-319.7457458580802
 20
625.3900918472999
 42
0.4142135623731
 10
-319.4957458580802
 20
625.1400918472999
 42
0.4142135623731
  0
LINE
  5
1AE
330
1F
100
AcDbEntity
  8
その他
  6
Continuous
 62
     7
370
     9
100
AcDbLine
 10
-319.4957458580802
 20
626.8900918472999
 30
0.0
 11
-319.4957458580802
 21
512.9211834051426
 31
0.0
  0
LINE
  5
1AF
330
1F
100
AcDbEntity
  8
その他
  6
Continuous
 62
     7
370
     9
100
AcDbLine
 10
-319.4957458580802
 20
625.3900918472999
 30
0.0
 11
162.5042541419208
 21
625.3900918472999
 31
0.0
  0
LWPOLYLINE
  5
1B0
330
1F
100
AcDbEntity
  8
その他
  6
Continuous
 62
     7
370
     9
100
AcDbPolyline
 90
        4
 70
     1
 43
0.5
 10
-427.6159887080971
 20
-195.7466776258515
 42
0.4142135623731
 10
-427.8659887080971
 20
-195.4966776258515
 42
0.4142135623731
 10
-428.1159887080971
 20
-195.7466776258515
 42
0.4142135623731
 10
-427.8659887080971
 20
-195.9966776258515
 42
0.4142135623731
  0
LINE
  5
1B1
330
1F
100
AcDbEntity
  8
その他
  6
Continuous
 62
     7
370
     9
100
AcDbLine
 10
-429.3659887080969
 20
-195.7466776258515
 30
0.0
 11
-326.4957475665938
 21
-195.7466776258515
 31
0.0
  0
LWPOLYLINE
  5
1B2
330
1F
100
AcDbEntity
  8
その他
  6
Continuous
 62
     7
370
     9
100
AcDbPolyline
 90
        4
 70
     1
 43
0.5
 10
-427.6159887080971
 20
-355.7466776258519
 42
0.4142135623731
 10
-427.8659887080971
 20
-355.4966776258519
 42
0.4142135623731
 10
-428.1159887080971
 20
-355.7466776258519
 42
0.4142135623731
 10
-427.8659887080971
 20
-355.9966776258519
 42
0.4142135623731
  0
LINE
  5
1B3
330
1F
100
AcDbEntity
  8
その他
  6
Continuous
 62
     7
370
     9
100
AcDbLine
 10
-429.3659887080969
 20
-355.7466776258519
 30
0.0
 11
-289.9957458580798
 21
-355.7466776258519
 31
0.0
  0
LINE
  5
1B4
330
1F
100
AcDbEntity
  8
その他
  6
Continuous
 62
     7
370
     9
100
AcDbLine
 10
-427.8659887080971
 20
-355.7466776258519
 30
0.0
 11
-427.8659887080971
 21
-195.7466776258515
 31
0.0
  0
TEXT
  5
1B5
330
1F
100
AcDbEntity
  8
その他
  6
Continuous
 62
     2
370
   211
100
AcDbText
 10
-433.6859887080967
 20
-285.7466776258517
 30
0.0
 40
15.24
  1
Ｈ
 50
90.0
 41
0.9999999999999998
  7
ＭＳ ゴシック
100
AcDbText
  0
LINE
  5
1B6
330
1F
100
AcDbEntity
  8
その他
  6
Continuous
 62
     7
370
     9
100
AcDbLine
 10
-427.8659887080971
 20
-355.7466776258519
 30
0.0
 11
-427.8659887080971
 21
-425.7467882520717
 31
0.0
  0
LWPOLYLINE
  5
1B7
330
1F
100
AcDbEntity
  8
その他
  6
Continuous
 62
     7
370
     9
100
AcDbPolyline
 90
        4
 70
     1
 43
0.5
 10
-427.6159887080971
 20
-355.7466776258519
 42
0.4142135623731
 10
-427.8659887080971
 20
-355.4966776258519
 42
0.4142135623731
 10
-428.1159887080971
 20
-355.7466776258519
 42
0.4142135623731
 10
-427.8659887080971
 20
-355.9966776258519
 42
0.4142135623731
  0
LWPOLYLINE
  5
1B8
330
1F
100
AcDbEntity
  8
その他
  6
Continuous
 62
     7
370
     9
100
AcDbPolyline
 90
        4
 70
     1
 43
0.5
 10
-427.6159887080971
 20
-425.7467882520717
 42
0.4142135623731
 10
-427.8659887080971
 20
-425.4967882520717
 42
0.4142135623731
 10
-428.1159887080971
 20
-425.7467882520717
 42
0.4142135623731
 10
-427.8659887080971
 20
-425.9967882520717
 42
0.4142135623731
  0
LINE
  5
1B9
330
1F
100
AcDbEntity
  8
その他
  6
Continuous
 62
     7
370
     9
100
AcDbLine
 10
-429.3659887080969
 20
-425.7467882520717
 30
0.0
 11
-135.9958431328619
 21
-425.7467882520717
 31
0.0
  0
TEXT
  5
1BA
330
1F
100
AcDbEntity
  8
その他
  6
Continuous
 62
     2
370
   211
100
AcDbText
 10
-433.6859887080967
 20
-401.3717329389618
 30
0.0
 40
15.24
  1
70
 50
90.0
 41
1.0625
  7
ＭＳ ゴシック
100
AcDbText
  0
CIRCLE
  5
1BB
330
1F
100
AcDbEntity
  8
建具
  6
Continuous
 62
     4
370
     9
100
AcDbCircle
 10
-78.49574585807886
 20
261.9211834051436
 30
0.0
 40
45.70006180000019
  0
LINE
  5
1BC
330
1F
100
AcDbEntity
  8
建具
  6
JWW_CENTER2
 62
     4
370
     9
100
AcDbLine
 10
-78.49574585807886
 20
511.9211834051436
 30
0.0
 11
-78.49574585807886
 21
5.623201584839723
 31
0.0
  0
LINE
  5
1BD
330
1F
100
AcDbEntity
  8
建具
  6
Continuous
 62
     4
370
     9
100
AcDbLine
 10
121.5042541419211
 20
461.921183405143
 30
0.0
 11
162.5042541419208
 21
502.9211834051426
 31
0.0
  0
LINE
  5
1BE
330
1F
100
AcDbEntity
  8
建具
  6
Continuous
 62
     4
370
     9
100
AcDbLine
 10
121.5042541419217
 20
61.92118511365778
 30
0.0
 11
162.5042541419231
 21
20.92118340514363
 31
0.0
  0
LINE
  5
1BF
330
1F
100
AcDbEntity
  8
建具
  6
Continuous
 62
     4
370
     9
100
AcDbLine
 10
147.5042541419208
 20
35.92118340514362
 30
0.0
 11
147.5042541419208
 21
487.9211834051426
 31
0.0
  0
LINE
  5
1C0
330
1F
100
AcDbEntity
  8
建具
  6
Continuous
 62
     4
370
     9
100
AcDbLine
 10
162.5042541419208
 20
20.92118340514363
 30
0.0
 11
162.5042541419208
 21
502.9211834051426
 31
0.0
  0
LINE
  5
1C1
330
1F
100
AcDbEntity
  8
建具
  6
Continuous
 62
     4
370
     9
100
AcDbLine
 10
121.5042541419217
 20
61.92118340514271
 30
0.0
 11
121.5042541419217
 21
461.921183405143
 31
0.0
  0
LINE
  5
1C2
330
1F
100
AcDbEntity
  8
建具
  6
Continuous
 62
     4
370
     9
100
AcDbLine
 10
-278.4957475665931
 20
461.9211834051424
 30
0.0
 11
-319.4957458580802
 21
502.9211834051426
 31
0.0
  0
LINE
  5
1C3
330
1F
100
AcDbEntity
  8
建具
  6
Continuous
 62
     4
370
     9
100
AcDbLine
 10
-278.4957458580777
 20
61.92118169662963
 30
0.0
 11
-319.495745858078
 21
20.92118340514249
 31
0.0
  0
LINE
  5
1C4
330
1F
100
AcDbEntity
  8
建具
  6
Continuous
 62
     4
370
     9
100
AcDbLine
 10
-319.4957458580802
 20
20.92118340514476
 30
0.0
 11
-319.4957458580802
 21
502.9211834051426
 31
0.0
  0
LINE
  5
1C5
330
1F
100
AcDbEntity
  8
建具
  6
Continuous
 62
     4
370
     9
100
AcDbLine
 10
-304.4957458580802
 20
35.92118403020977
 30
0.0
 11
-304.4957458580802
 21
487.9211827800776
 31
0.0
  0
LINE
  5
1C6
330
1F
100
AcDbEntity
  8
建具
  6
Continuous
 62
     4
370
     9
100
AcDbLine
 10
-278.4957475665919
 20
61.92118340514385
 30
0.0
 11
-278.4957475665919
 21
461.921183405143
 31
0.0
  0
LINE
  5
1C7
330
1F
100
AcDbEntity
  8
建具
  6
JWW_CENTER2
 62
     4
370
     9
100
AcDbLine
 10
-358.7865285305531
 20
261.9211834051436
 30
0.0
 11
171.5042541419217
 21
261.9211834051436
 31
0.0
  0
LINE
  5
1C8
330
1F
100
AcDbEntity
  8
建具
  6
Continuous
 62
     4
370
     9
100
AcDbLine
 10
147.5042541419208
 20
487.9211834051426
 30
0.0
 11
-304.4957464831464
 21
487.9211834051426
 31
0.0
  0
LINE
  5
1C9
330
1F
100
AcDbEntity
  8
建具
  6
Continuous
 62
     4
370
     9
100
AcDbLine
 10
121.5042541419217
 20
461.921183405143
 30
0.0
 11
-278.4957475665919
 21
461.921183405143
 31
0.0
  0
LINE
  5
1CA
330
1F
100
AcDbEntity
  8
建具
  6
Continuous
 62
     4
370
     9
100
AcDbLine
 10
162.5042541419208
 20
502.9211834051426
 30
0.0
 11
-319.4957458580802
 21
502.9211834051426
 31
0.0
  0
LINE
  5
1CB
330
1F
100
AcDbEntity
  8
建具
  6
Continuous
 62
     4
370
     9
100
AcDbLine
 10
-319.4957458580802
 20
20.92118340514363
 30
0.0
 11
162.5042541419208
 21
20.92118340514363
 31
0.0
  0
LINE
  5
1CC
330
1F
100
AcDbEntity
  8
建具
  6
Continuous
 62
     4
370
     9
100
AcDbLine
 10
-304.4957464831464
 20
35.92118340514362
 30
0.0
 11
147.5042541419208
 21
35.92118340514362
 31
0.0
  0
LINE
  5
1CD
330
1F
100
AcDbEntity
  8
建具
  6
Continuous
 62
     4
370
     9
100
AcDbLine
 10
-278.4957475665931
 20
61.92118340514271
 30
0.0
 11
121.5042541419217
 21
61.92118340514271
 31
0.0
  0
LINE
  5
1CE
330
1F
100
AcDbEntity
  8
建具
  6
JWW_DASHED2
 62
     4
370
     9
100
AcDbLine
 10
-32.7956840580805
 20
-354.2467945117102
 30
0.0
 11
-32.7956840580805
 21
-355.7466776258519
 31
0.0
  0
LINE
  5
1CF
330
1F
100
AcDbEntity
  8
建具
  6
JWW_DASHED2
 62
     4
370
     9
100
AcDbLine
 10
-124.1958076580818
 20
-354.2467945117102
 30
0.0
 11
-124.1958076580818
 21
-355.7466776258519
 31
0.0
  0
LINE
  5
1D0
330
1F
100
AcDbEntity
  8
建具
  6
JWW_CENTER2
 62
     4
370
     9
100
AcDbLine
 10
-78.49574585807886
 20
-174.1170750877535
 30
0.0
 11
-78.49574585807886
 21
-446.2629778521972
 31
0.0
  0
ARC
  5
1D1
330
1F
100
AcDbEntity
  8
建具
  6
JWW_DASHED1
 62
     4
370
     9
100
AcDbCircle
 10
124.5042558504321
 20
-214.7466776258506
 30
0.0
 40
3.0
100
AcDbArc
 50
90.0
 51
149.9999999999984
  0
ARC
  5
1D2
330
1F
100
AcDbEntity
  8
建具
  6
JWW_DASHED1
 62
     4
370
     9
100
AcDbCircle
 10
124.5042558504321
 20
-214.7466776258506
 30
0.0
 40
3.0
100
AcDbArc
 50
149.9999999999984
 51
180.0
  0
ARC
  5
1D3
330
1F
100
AcDbEntity
  8
建具
  6
JWW_DASHED1
 62
     4
370
     9
100
AcDbCircle
 10
159.5042558504321
 20
-198.7466776258515
 30
0.0
 40
1.5
100
AcDbArc
 50
0.0
 51
90.0
  0
ARC
  5
1D4
330
1F
100
AcDbEntity
  8
建具
  6
JWW_DASHED1
 62
     4
370
     9
100
AcDbCircle
 10
146.004255850433
 20
-210.2466776258524
 30
0.0
 40
1.5
100
AcDbArc
 50
270.0
 51
0.0
  0
ARC
  5
1D5
330
1F
100
AcDbEntity
  8
建具
  6
Continuous
 62
     4
370
     9
100
AcDbCircle
 10
159.5042558504321
 20
-198.7466776258515
 30
0.0
 40
3.0
100
AcDbArc
 50
0.0
 51
90.0
  0
ARC
  5
1D6
330
1F
100
AcDbEntity
  8
建具
  6
Continuous
 62
     4
370
     9
100
AcDbCircle
 10
124.5042558504321
 20
-214.7466776258506
 30
0.0
 40
1.5
100
AcDbArc
 50
89.99999999999999
 51
180.0
  0
ARC
  5
1D7
330
1F
100
AcDbEntity
  8
建具
  6
Continuous
 62
     4
370
     9
100
AcDbCircle
 10
146.004255850433
 20
-210.2466776258524
 30
0.0
 40
3.0
100
AcDbArc
 50
300.0000000000016
 51
0.0
  0
ARC
  5
1D8
330
1F
100
AcDbEntity
  8
建具
  6
Continuous
 62
     4
370
     9
100
AcDbCircle
 10
146.004255850433
 20
-210.2466776258524
 30
0.0
 40
3.0
100
AcDbArc
 50
270.0
 51
300.0000000000016
  0
LINE
  5
1D9
330
1F
100
AcDbEntity
  8
建具
  6
JWW_DASHED1
 62
     4
370
     9
100
AcDbLine
 10
161.004255850433
 20
-198.7466776258515
 30
0.0
 11
161.004255850433
 21
-203.7466776258526
 31
0.0
  0
LINE
  5
1DA
330
1F
100
AcDbEntity
  8
建具
  6
JWW_DASHED1
 62
     4
370
     9
100
AcDbLine
 10
147.5042558504339
 20
-203.7466776258526
 30
0.0
 11
147.5042558504339
 21
-210.2466776258524
 31
0.0
  0
LINE
  5
1DB
330
1F
100
AcDbEntity
  8
建具
  6
Continuous
 62
     4
370
     9
100
AcDbLine
 10
149.0042558504348
 20
-210.2466776258524
 30
0.0
 11
149.0042558504348
 21
-203.7466776258526
 31
0.0
  0
LINE
  5
1DC
330
1F
100
AcDbEntity
  8
建具
  6
Continuous
 62
     4
370
     9
100
AcDbLine
 10
162.5042558504339
 20
-198.7466776258515
 30
0.0
 11
162.5042558504339
 21
-203.7466776258526
 31
0.0
  0
ARC
  5
1DD
330
1F
100
AcDbEntity
  8
建具
  6
JWW_DASHED1
 62
     4
370
     9
100
AcDbCircle
 10
-281.4957475665938
 20
-214.7466776258506
 30
0.0
 40
3.0
100
AcDbArc
 50
0.0000000000000064
 51
30.00000000000163
  0
ARC
  5
1DE
330
1F
100
AcDbEntity
  8
建具
  6
JWW_DASHED1
 62
     4
370
     9
100
AcDbCircle
 10
-281.4957475665938
 20
-214.7466776258506
 30
0.0
 40
3.0
100
AcDbArc
 50
30.00000000000163
 51
90.00000000000001
  0
ARC
  5
1DF
330
1F
100
AcDbEntity
  8
建具
  6
JWW_DASHED1
 62
     4
370
     9
100
AcDbCircle
 10
-302.9957475665947
 20
-210.2466776258524
 30
0.0
 40
1.5
100
AcDbArc
 50
180.0
 51
270.0
  0
ARC
  5
1E0
330
1F
100
AcDbEntity
  8
建具
  6
JWW_DASHED1
 62
     4
370
     9
100
AcDbCircle
 10
-316.4957475665938
 20
-198.7466776258515
 30
0.0
 40
1.5
100
AcDbArc
 50
90.0
 51
180.0
  0
ARC
  5
1E1
330
1F
100
AcDbEntity
  8
建具
  6
JWW_DASHED1
 62
     4
370
     9
100
AcDbCircle
 10
-316.4957475665938
 20
-222.7466776258524
 30
0.0
 40
3.0
100
AcDbArc
 50
180.0
 51
209.999999999966
  0
ARC
  5
1E2
330
1F
100
AcDbEntity
  8
建具
  6
Continuous
 62
     4
370
     9
100
AcDbCircle
 10
-316.4957475665938
 20
-222.7466776258524
 30
0.0
 40
3.0
100
AcDbArc
 50
209.999999999966
 51
270.0
  0
LINE
  5
1E3
330
1F
100
AcDbEntity
  8
建具
  6
Continuous
 62
     4
370
     9
100
AcDbLine
 10
-319.4957475665956
 20
-224.246677625851
 30
0.0
 11
-317.9957475665947
 21
-224.246677625851
 31
0.0
  0
ARC
  5
1E4
330
1F
100
AcDbEntity
  8
建具
  6
Continuous
 62
     4
370
     9
100
AcDbCircle
 10
-302.9957475665947
 20
-210.2466776258524
 30
0.0
 40
3.0
100
AcDbArc
 50
239.9999999999984
 51
270.0
  0
ARC
  5
1E5
330
1F
100
AcDbEntity
  8
建具
  6
Continuous
 62
     4
370
     9
100
AcDbCircle
 10
-302.9957475665947
 20
-210.2466776258524
 30
0.0
 40
3.0
100
AcDbArc
 50
180.0
 51
239.9999999999984
  0
LINE
  5
1E6
330
1F
100
AcDbEntity
  8
建具
  6
Continuous
 62
     4
370
     9
100
AcDbLine
 10
-319.4957475665956
 20
-235.7466776258519
 30
0.0
 11
-319.4957475665956
 21
-225.7466776258519
 31
0.0
  0
ARC
  5
1E7
330
1F
100
AcDbEntity
  8
建具
  6
Continuous
 62
     4
370
     9
100
AcDbCircle
 10
-316.4957475665938
 20
-222.7466776258512
 30
0.0
 40
1.5
100
AcDbArc
 50
180.0
 51
270.0
  0
LINE
  5
1E8
330
1F
100
AcDbEntity
  8
建具
  6
Continuous
 62
     4
370
     9
100
AcDbLine
 10
-316.4957475665938
 20
-224.246677625851
 30
0.0
 11
-279.9957475665929
 21
-224.246677625851
 31
0.0
  0
LINE
  5
1E9
330
1F
100
AcDbEntity
  8
建具
  6
Continuous
 62
     4
370
     9
100
AcDbLine
 10
-319.4957475665956
 20
-225.7466776258519
 30
0.0
 11
-279.9957475665929
 21
-225.7466776258519
 31
0.0
  0
LINE
  5
1EA
330
1F
100
AcDbEntity
  8
建具
  6
JWW_DASHED2
 62
     4
370
     9
100
AcDbLine
 10
-279.9957475665929
 20
-224.246677625851
 30
0.0
 11
-278.4957653586957
 21
-224.246677625851
 31
0.0
  0
LINE
  5
1EB
330
1F
100
AcDbEntity
  8
建具
  6
JWW_DASHED2
 62
     4
370
     9
100
AcDbLine
 10
-279.9957475665929
 20
-225.7466776258519
 30
0.0
 11
-278.4957653586957
 21
-225.7466776258519
 31
0.0
  0
ARC
  5
1EC
330
1F
100
AcDbEntity
  8
建具
  6
Continuous
 62
     4
370
     9
100
AcDbCircle
 10
-316.4957475665938
 20
-198.7466776258515
 30
0.0
 40
3.0
100
AcDbArc
 50
90.0
 51
180.0
  0
ARC
  5
1ED
330
1F
100
AcDbEntity
  8
建具
  6
Continuous
 62
     4
370
     9
100
AcDbCircle
 10
-281.4957475665938
 20
-214.7466776258506
 30
0.0
 40
1.5
100
AcDbArc
 50
0.0000000000000127
 51
90.00000000000003
  0
LINE
  5
1EE
330
1F
100
AcDbEntity
  8
建具
  6
Continuous
 62
     4
370
     9
100
AcDbLine
 10
-319.4957475665956
 20
-198.7466776258515
 30
0.0
 11
-319.4957475665956
 21
-224.246677625851
 31
0.0
  0
LINE
  5
1EF
330
1F
100
AcDbEntity
  8
建具
  6
JWW_DASHED1
 62
     4
370
     9
100
AcDbLine
 10
-304.4957475665956
 20
-203.7466776258526
 30
0.0
 11
-304.4957475665956
 21
-210.2466776258524
 31
0.0
  0
LINE
  5
1F0
330
1F
100
AcDbEntity
  8
建具
  6
JWW_DASHED1
 62
     4
370
     9
100
AcDbLine
 10
-317.9957475665947
 20
-198.7466776258515
 30
0.0
 11
-317.9957475665947
 21
-203.7466776258526
 31
0.0
  0
LINE
  5
1F1
330
1F
100
AcDbEntity
  8
建具
  6
Continuous
 62
     4
370
     9
100
AcDbLine
 10
-317.9957475665947
 20
-224.246677625851
 30
0.0
 11
-317.9957475665947
 21
-203.7466776258526
 31
0.0
  0
LINE
  5
1F2
330
1F
100
AcDbEntity
  8
建具
  6
Continuous
 62
     4
370
     9
100
AcDbLine
 10
-305.9957475665942
 20
-210.2466776258524
 30
0.0
 11
-305.9957475665942
 21
-203.7466776258526
 31
0.0
  0
LINE
  5
1F3
330
1F
100
AcDbEntity
  8
建具
  6
JWW_DASHED2
 62
     4
370
     9
100
AcDbLine
 10
-278.4957653586957
 20
-310.7466776258519
 30
0.0
 11
-279.9957458580798
 21
-310.7466776258519
 31
0.0
  0
LINE
  5
1F4
330
1F
100
AcDbEntity
  8
建具
  6
JWW_DASHED1
 62
     4
370
     9
100
AcDbLine
 10
-319.4957475665956
 20
-310.7466776258519
 30
0.0
 11
-319.4957475665956
 21
-235.7466776258519
 31
0.0
  0
LINE
  5
1F5
330
1F
100
AcDbEntity
  8
建具
  6
JWW_DASHED1
 62
     4
370
     9
100
AcDbLine
 10
-279.9957458580798
 20
-310.7466776258519
 30
0.0
 11
-319.4957475665956
 21
-310.7466776258519
 31
0.0
  0
LINE
  5
1F6
330
1F
100
AcDbEntity
  8
建具
  6
Continuous
 62
     4
370
     9
100
AcDbLine
 10
-279.9957475665929
 20
-310.734238743608
 30
0.0
 11
-294.4957475665956
 21
-310.7466776258519
 31
0.0
  0
LINE
  5
1F7
330
1F
100
AcDbEntity
  8
建具
  6
JWW_DASHED1
 62
     4
370
     9
100
AcDbLine
 10
-278.4957653586957
 20
-309.2466260502505
 30
0.0
 11
-319.4957475665956
 21
-309.2466260502505
 31
0.0
  0
LINE
  5
1F8
330
1F
100
AcDbEntity
  8
建具
  6
JWW_DASHED1
 62
     4
370
     9
100
AcDbLine
 10
-279.9957475665929
 20
-298.243915880347
 30
0.0
 11
-319.4957475665956
 21
-298.243915880347
 31
0.0
  0
LINE
  5
1F9
330
1F
100
AcDbEntity
  8
建具
  6
Continuous
 62
     4
370
     9
100
AcDbLine
 10
-279.9957475665929
 20
-298.243915880347
 30
0.0
 11
-294.4957475665956
 21
-298.243915880347
 31
0.0
  0
LINE
  5
1FA
330
1F
100
AcDbEntity
  8
建具
  6
JWW_DASHED1
 62
     4
370
     9
100
AcDbLine
 10
-302.9957475665947
 20
-211.746677625851
 30
0.0
 11
146.004255850433
 21
-211.746677625851
 31
0.0
  0
LINE
  5
1FB
330
1F
100
AcDbEntity
  8
建具
  6
JWW_DASHED1
 62
     4
370
     9
100
AcDbLine
 10
159.5042558504321
 20
-197.2466776258506
 30
0.0
 11
-316.4957475665938
 21
-197.2466776258506
 31
0.0
  0
LINE
  5
1FC
330
1F
100
AcDbEntity
  8
建具
  6
Continuous
 62
     4
370
     9
100
AcDbLine
 10
-302.9957475665947
 20
-213.2466776258519
 30
0.0
 11
146.004255850433
 21
-213.2466776258519
 31
0.0
  0
LINE
  5
1FD
330
1F
100
AcDbEntity
  8
建具
  6
Continuous
 62
     4
370
     9
100
AcDbLine
 10
-316.4957475665938
 20
-195.7466776258519
 30
0.0
 11
159.5042558504321
 21
-195.7466776258519
 31
0.0
  0
LINE
  5
1FE
330
1F
100
AcDbEntity
  8
建具
  6
Continuous
 62
     4
370
     9
100
AcDbLine
 10
162.5042558504339
 20
-203.7466776258526
 30
0.0
 11
-319.4957475665956
 21
-203.7466776258526
 31
0.0
  0
LINE
  5
1FF
330
1F
100
AcDbEntity
  8
建具
  6
JWW_DASHED1
 62
     4
370
     9
100
AcDbLine
 10
-541.855804300792
 20
132.9211834051438
 30
0.0
 11
-541.855804300792
 21
390.9211834051433
 31
0.0
  0
LINE
  5
200
330
1F
100
AcDbEntity
  8
建具
  6
JWW_DASHED1
 62
     4
370
     9
100
AcDbLine
 10
-552.8558043007911
 20
160.4211834051438
 30
0.0
 11
-552.8558043007911
 21
363.4211834051433
 31
0.0
  0
LINE
  5
201
330
1F
100
AcDbEntity
  8
建具
  6
Continuous
 62
     4
370
     9
100
AcDbLine
 10
-554.355804300792
 20
363.4211834051445
 30
0.0
 11
-554.355804300792
 21
160.4211834051438
 31
0.0
  0
ARC
  5
202
330
1F
100
AcDbEntity
  8
建具
  6
Continuous
 62
     4
370
     9
100
AcDbCircle
 10
-549.8558043007915
 20
135.9211834051456
 30
0.0
 40
3.0
100
AcDbArc
 50
180.0
 51
270.0
  0
LINE
  5
203
330
1F
100
AcDbEntity
  8
建具
  6
Continuous
 62
     4
370
     9
100
AcDbLine
 10
-552.8558043007911
 20
135.9211834051456
 30
0.0
 11
-552.8558043007911
 21
160.4211834051438
 31
0.0
  0
ARC
  5
204
330
1F
100
AcDbEntity
  8
建具
  6
Continuous
 62
     4
370
     9
100
AcDbCircle
 10
-549.8558043007915
 20
387.9211834051438
 30
0.0
 40
3.0
100
AcDbArc
 50
90.0
 51
180.0
  0
LINE
  5
205
330
1F
100
AcDbEntity
  8
建具
  6
Continuous
 62
     4
370
     9
100
AcDbLine
 10
-552.8558043007911
 20
387.9211834051438
 30
0.0
 11
-552.8558043007911
 21
363.4211834051433
 31
0.0
  0
LINE
  5
206
330
1F
100
AcDbEntity
  8
建具
  6
Continuous
 62
     4
370
     9
100
AcDbLine
 10
-549.8558043007915
 20
132.9211834051438
 30
0.0
 11
-532.3558043007915
 21
132.9211834051438
 31
0.0
  0
LINE
  5
207
330
1F
100
AcDbEntity
  8
建具
  6
Continuous
 62
     4
370
     9
100
AcDbLine
 10
-549.8558043007915
 20
390.9211834051433
 30
0.0
 11
-532.3558043007915
 21
390.9211834051433
 31
0.0
  0
LINE
  5
208
330
1F
100
AcDbEntity
  8
建具
  6
JWW_DASHED2
 62
     4
370
     9
100
AcDbLine
 10
-682.8558043007934
 20
307.6212452051425
 30
0.0
 11
-684.355687414934
 21
307.6212452051425
 31
0.0
  0
LINE
  5
209
330
1F
100
AcDbEntity
  8
建具
  6
JWW_DASHED2
 62
     4
370
     9
100
AcDbLine
 10
-682.8558043007934
 20
216.2211216051412
 30
0.0
 11
-684.355687414934
 21
216.2211216051412
 31
0.0
  0
LINE
  5
20A
330
1F
100
AcDbEntity
  8
建具
  6
JWW_CENTER2
 62
     4
370
     9
100
AcDbLine
 10
-504.9291338565718
 20
261.9211834051436
 30
0.0
 11
-768.525495103537
 21
261.9211834051444
 31
0.0
  0
LINE
  5
20B
330
1F
100
AcDbEntity
  8
建具
  6
Continuous
 62
     4
370
     9
100
AcDbLine
 10
-607.8715781866913
 20
161.9211834051447
 30
0.0
 11
-554.355804300792
 21
161.9211834051447
 31
0.0
  0
LINE
  5
20C
330
1F
100
AcDbEntity
  8
建具
  6
Continuous
 62
     4
370
     9
100
AcDbLine
 10
-607.8715781866913
 20
160.4211834051438
 30
0.0
 11
-552.8558043007911
 21
160.4211834051438
 31
0.0
  0
LINE
  5
20D
330
1F
100
AcDbEntity
  8
建具
  6
Continuous
 62
     4
370
     9
100
AcDbLine
 10
-607.8715781866913
 20
361.9211834051436
 30
0.0
 11
-554.355804300792
 21
361.9211834051436
 31
0.0
  0
ARC
  5
20E
330
1F
100
AcDbEntity
  8
建具
  6
Continuous
 62
     4
370
     9
100
AcDbCircle
 10
-607.8715781866913
 20
181.9211834051447
 30
0.0
 40
21.5
100
AcDbArc
 50
186.9999999964035
 51
270.0
  0
ARC
  5
20F
330
1F
100
AcDbEntity
  8
建具
  6
Continuous
 62
     4
370
     9
100
AcDbCircle
 10
-607.8715781866913
 20
181.9211834051447
 30
0.0
 40
20.0
100
AcDbArc
 50
186.9999999964037
 51
270.0
  0
ARC
  5
210
330
1F
100
AcDbEntity
  8
建具
  6
Continuous
 62
     4
370
     9
100
AcDbCircle
 10
-607.8715781866913
 20
341.9211834051458
 30
0.0
 40
21.5
100
AcDbArc
 50
90.0
 51
173.0000000035966
  0
LINE
  5
211
330
1F
100
AcDbEntity
  8
建具
  6
JWW_HOJO
 62
     4
370
     9
100
AcDbLine
 10
-607.8715781866913
 20
363.4211834051456
 30
0.0
 11
-626.8931713759821
 21
363.4211834051456
 31
0.0
  0
LINE
  5
212
330
1F
100
AcDbEntity
  8
建具
  6
JWW_HOJO
 62
     4
370
     9
100
AcDbLine
 10
-629.2113204471434
 20
344.541374287017
 30
0.0
 11
-626.8931713759821
 21
363.4211834051456
 31
0.0
  0
LINE
  5
213
330
1F
100
AcDbEntity
  8
建具
  6
JWW_HOJO
 62
     4
370
     9
100
AcDbLine
 10
-607.8715781866913
 20
160.4211834051438
 30
0.0
 11
-626.8931713759821
 21
160.4211834051438
 31
0.0
  0
LINE
  5
214
330
1F
100
AcDbEntity
  8
建具
  6
JWW_HOJO
 62
     4
370
     9
100
AcDbLine
 10
-629.2113204471434
 20
179.3009925232735
 30
0.0
 11
-626.8931713759821
 21
160.4211834051438
 31
0.0
  0
LINE
  5
215
330
1F
100
AcDbEntity
  8
建具
  6
Continuous
 62
     4
370
     9
100
AcDbLine
 10
-629.2113204471434
 20
344.541374287017
 30
0.0
 11
-639.0340853141151
 21
264.5413742883568
 31
0.0
  0
ARC
  5
216
330
1F
100
AcDbEntity
  8
建具
  6
Continuous
 62
     4
370
     9
100
AcDbCircle
 10
-607.8715781866913
 20
341.9211834051458
 30
0.0
 40
20.0
100
AcDbArc
 50
90.0
 51
173.000000003596
  0
LINE
  5
217
330
1F
100
AcDbEntity
  8
建具
  6
Continuous
 62
     4
370
     9
100
AcDbLine
 10
-629.2113204471434
 20
179.3009925232735
 30
0.0
 11
-639.0340853141151
 21
259.3009925219337
 31
0.0
  0
LINE
  5
218
330
1F
100
AcDbEntity
  8
建具
  6
Continuous
 62
     4
370
     9
100
AcDbLine
 10
-627.7225012196709
 20
179.4837965382879
 30
0.0
 11
-637.5452660866517
 21
259.4837965370414
 31
0.0
  0
LINE
  5
219
330
1F
100
AcDbEntity
  8
建具
  6
Continuous
 62
     4
370
     9
100
AcDbLine
 10
-627.7225012196709
 20
344.3585702720026
 30
0.0
 11
-637.5452660866517
 21
264.3585702732491
 31
0.0
  0
LINE
  5
21A
330
1F
100
AcDbEntity
  8
建具
  6
JWW_HOJO
 62
     4
370
     9
100
AcDbLine
 10
-639.355804300792
 20
261.9211834051441
 30
0.0
 11
-639.0340853139037
 21
264.5413742883295
 31
0.0
  0
LINE
  5
21B
330
1F
100
AcDbEntity
  8
建具
  6
JWW_HOJO
 62
     4
370
     9
100
AcDbLine
 10
-639.355804300792
 20
261.9211834051464
 30
0.0
 11
-639.0340853139037
 21
259.300992521961
 31
0.0
  0
ARC
  5
21C
330
1F
100
AcDbEntity
  8
建具
  6
Continuous
 62
     4
370
     9
100
AcDbCircle
 10
-617.6943430538267
 20
261.9211834051453
 30
0.0
 40
21.5
100
AcDbArc
 50
173.0000000000001
 51
186.9999999999999
  0
ARC
  5
21D
330
1F
100
AcDbEntity
  8
建具
  6
Continuous
 62
     4
370
     9
100
AcDbCircle
 10
-617.6943430538267
 20
261.9211834051453
 30
0.0
 40
20.0
100
AcDbArc
 50
173.0
 51
187.0
  0
LINE
  5
21E
330
1F
100
AcDbEntity
  8
建具
  6
Continuous
 62
     4
370
     9
100
AcDbLine
 10
-607.8715781866913
 20
363.4211834051445
 30
0.0
 11
-552.8558043007911
 21
363.4211834051445
 31
0.0
  0
ARC
  5
21F
330
1F
100
AcDbEntity
  8
建具
  6
JWW_DASHED1
 62
     4
370
     9
100
AcDbCircle
 10
-527.3558043007915
 20
499.9211834051431
 30
0.0
 40
1.5
100
AcDbArc
 50
0.0
 51
89.99999999999999
  0
LINE
  5
220
330
1F
100
AcDbEntity
  8
建具
  6
JWW_DASHED1
 62
     4
370
     9
100
AcDbLine
 10
-525.8558043007929
 20
490.9211834051422
 30
0.0
 11
-525.8558043007929
 21
499.9211834051431
 31
0.0
  0
ARC
  5
221
330
1F
100
AcDbEntity
  8
建具
  6
JWW_DASHED1
 62
     4
370
     9
100
AcDbCircle
 10
-527.3558043007915
 20
490.9211834051422
 30
0.0
 40
1.5
100
AcDbArc
 50
270.0
 51
0.0
  0
ARC
  5
222
330
1F
100
AcDbEntity
  8
建具
  6
JWW_DASHED1
 62
     4
370
     9
100
AcDbCircle
 10
-527.3558043007915
 20
490.9211834051422
 30
0.0
 40
3.0
100
AcDbArc
 50
270.0
 51
0.0000000000000127
  0
LINE
  5
223
330
1F
100
AcDbEntity
  8
建具
  6
JWW_DASHED1
 62
     4
370
     9
100
AcDbLine
 10
-538.8558043007924
 20
487.9211834051426
 30
0.0
 11
-527.3558043007915
 21
487.9211834051426
 31
0.0
  0
ARC
  5
224
330
1F
100
AcDbEntity
  8
建具
  6
JWW_DASHED1
 62
     4
370
     9
100
AcDbCircle
 10
-538.8558043007924
 20
486.421183405144
 30
0.0
 40
1.5
100
AcDbArc
 50
90.0
 51
180.0
  0
ARC
  5
225
330
1F
100
AcDbEntity
  8
建具
  6
JWW_DASHED1
 62
     4
370
     9
100
AcDbCircle
 10
-543.3558043007929
 20
464.9211834051431
 30
0.0
 40
3.0
100
AcDbArc
 50
300.0000000000254
 51
0.0
  0
LINE
  5
226
330
1F
100
AcDbEntity
  8
建具
  6
JWW_DASHED1
 62
     4
370
     9
100
AcDbLine
 10
-540.3558043007934
 20
390.9211834051433
 30
0.0
 11
-540.3558043007911
 21
486.421183405144
 31
0.0
  0
ARC
  5
227
330
1F
100
AcDbEntity
  8
建具
  6
Continuous
 62
     4
370
     9
100
AcDbCircle
 10
-538.8558043007924
 20
486.4211834051417
 30
0.0
 40
3.0
100
AcDbArc
 50
90.00000000000001
 51
180.0
  0
LINE
  5
228
330
1F
100
AcDbEntity
  8
建具
  6
Continuous
 62
     4
370
     9
100
AcDbLine
 10
-541.855804300792
 20
390.9211834051433
 30
0.0
 11
-541.855804300792
 21
486.4211834051417
 31
0.0
  0
ARC
  5
229
330
1F
100
AcDbEntity
  8
建具
  6
Continuous
 62
     4
370
     9
100
AcDbCircle
 10
-543.3558043007929
 20
464.9211834051431
 30
0.0
 40
1.5
100
AcDbArc
 50
270.0000000000054
 51
0.0
  0
ARC
  5
22A
330
1F
100
AcDbEntity
  8
建具
  6
Continuous
 62
     4
370
     9
100
AcDbCircle
 10
-527.3558043007915
 20
499.9211834051431
 30
0.0
 40
3.0
100
AcDbArc
 50
0.0
 51
89.99999999999999
  0
LINE
  5
22B
330
1F
100
AcDbEntity
  8
建具
  6
JWW_DASHED2
 62
     4
370
     9
100
AcDbLine
 10
-524.355804300792
 20
490.9211834051422
 30
0.0
 11
-524.355804300792
 21
499.9211834051431
 31
0.0
  0
LINE
  5
22C
330
1F
100
AcDbEntity
  8
建具
  6
JWW_DASHED1
 62
     4
370
     9
100
AcDbLine
 10
-527.3558043007915
 20
501.421183405144
 30
0.0
 11
-532.3558043007915
 21
501.421183405144
 31
0.0
  0
LINE
  5
22D
330
1F
100
AcDbEntity
  8
建具
  6
JWW_DASHED1
 62
     4
370
     9
100
AcDbLine
 10
-532.3558043007915
 20
489.4211834051436
 30
0.0
 11
-527.3558043007915
 21
489.4211834051436
 31
0.0
  0
LINE
  5
22E
330
1F
100
AcDbEntity
  8
建具
  6
Continuous
 62
     4
370
     9
100
AcDbLine
 10
-538.8558043007924
 20
489.4211834051436
 30
0.0
 11
-532.3558043007915
 21
489.4211834051436
 31
0.0
  0
LINE
  5
22F
330
1F
100
AcDbEntity
  8
建具
  6
Continuous
 62
     4
370
     9
100
AcDbLine
 10
-527.3558043007915
 20
502.9211834051426
 30
0.0
 11
-532.3558043007915
 21
502.9211834051426
 31
0.0
  0
LINE
  5
230
330
1F
100
AcDbEntity
  8
建具
  6
JWW_DASHED2
 62
     4
370
     9
100
AcDbLine
 10
-527.3558043007915
 20
502.9211834051426
 30
0.0
 11
-532.3558043007915
 21
502.9211834051426
 31
0.0
  0
LINE
  5
231
330
1F
100
AcDbEntity
  8
建具
  6
JWW_DASHED2
 62
     4
370
     9
100
AcDbLine
 10
-532.3558043007915
 20
502.9211834051426
 30
0.0
 11
-532.3558043007915
 21
501.421183405144
 31
0.0
  0
ARC
  5
232
330
1F
100
AcDbEntity
  8
建具
  6
JWW_DASHED1
 62
     4
370
     9
100
AcDbCircle
 10
-543.3558043007929
 20
464.9211834051431
 30
0.0
 40
3.0
100
AcDbArc
 50
270.0
 51
300.0000000000254
  0
ARC
  5
233
330
1F
100
AcDbEntity
  8
建具
  6
JWW_DASHED1
 62
     4
370
     9
100
AcDbCircle
 10
-543.3558043007929
 20
58.92118340514544
 30
0.0
 40
3.0
100
AcDbArc
 50
0.0
 51
59.99999999997465
  0
LINE
  5
234
330
1F
100
AcDbEntity
  8
建具
  6
JWW_DASHED1
 62
     4
370
     9
100
AcDbLine
 10
-540.3558043007911
 20
37.42118340514453
 30
0.0
 11
-540.3558043007911
 21
132.9211834051438
 31
0.0
  0
ARC
  5
235
330
1F
100
AcDbEntity
  8
建具
  6
JWW_DASHED1
 62
     4
370
     9
100
AcDbCircle
 10
-538.8558043007924
 20
37.42118340514453
 30
0.0
 40
1.5
100
AcDbArc
 50
180.0
 51
270.0
  0
ARC
  5
236
330
1F
100
AcDbEntity
  8
建具
  6
JWW_DASHED1
 62
     4
370
     9
100
AcDbCircle
 10
-527.3558043007915
 20
32.92118340514635
 30
0.0
 40
3.0
100
AcDbArc
 50
0.0
 51
90.00000000000003
  0
LINE
  5
237
330
1F
100
AcDbEntity
  8
建具
  6
JWW_DASHED1
 62
     4
370
     9
100
AcDbLine
 10
-538.8558043007924
 20
35.9211834051459
 30
0.0
 11
-527.3558043007915
 21
35.9211834051459
 31
0.0
  0
ARC
  5
238
330
1F
100
AcDbEntity
  8
建具
  6
JWW_DASHED1
 62
     4
370
     9
100
AcDbCircle
 10
-527.3558043007915
 20
32.92118340514635
 30
0.0
 40
1.5
100
AcDbArc
 50
0.0000000000000127
 51
90.00000000000003
  0
LINE
  5
239
330
1F
100
AcDbEntity
  8
建具
  6
JWW_DASHED1
 62
     4
370
     9
100
AcDbLine
 10
-525.8558043007929
 20
32.92118340514635
 30
0.0
 11
-525.8558043007929
 21
23.92118340514545
 31
0.0
  0
ARC
  5
23A
330
1F
100
AcDbEntity
  8
建具
  6
JWW_DASHED1
 62
     4
370
     9
100
AcDbCircle
 10
-527.3558043007915
 20
23.92118340514545
 30
0.0
 40
1.5
100
AcDbArc
 50
270.0
 51
0.0000000000000254
  0
LINE
  5
23B
330
1F
100
AcDbEntity
  8
建具
  6
Continuous
 62
     4
370
     9
100
AcDbLine
 10
-541.855804300792
 20
132.9211834051438
 30
0.0
 11
-541.855804300792
 21
37.42118340514681
 31
0.0
  0
ARC
  5
23C
330
1F
100
AcDbEntity
  8
建具
  6
Continuous
 62
     4
370
     9
100
AcDbCircle
 10
-538.8558043007924
 20
37.42118340514681
 30
0.0
 40
3.0
100
AcDbArc
 50
180.0
 51
270.0
  0
ARC
  5
23D
330
1F
100
AcDbEntity
  8
建具
  6
Continuous
 62
     4
370
     9
100
AcDbCircle
 10
-543.3558043007929
 20
58.92118340514544
 30
0.0
 40
1.5
100
AcDbArc
 50
0.0
 51
89.99999999999459
  0
ARC
  5
23E
330
1F
100
AcDbEntity
  8
建具
  6
Continuous
 62
     4
370
     9
100
AcDbCircle
 10
-527.3558043007915
 20
23.92118340514545
 30
0.0
 40
3.0
100
AcDbArc
 50
270.0
 51
0.0000000000000254
  0
LINE
  5
23F
330
1F
100
AcDbEntity
  8
建具
  6
JWW_DASHED2
 62
     4
370
     9
100
AcDbLine
 10
-524.355804300792
 20
32.92118340514635
 30
0.0
 11
-524.355804300792
 21
23.92118340514545
 31
0.0
  0
LINE
  5
240
330
1F
100
AcDbEntity
  8
建具
  6
JWW_DASHED1
 62
     4
370
     9
100
AcDbLine
 10
-532.3558043007915
 20
34.42118340514499
 30
0.0
 11
-527.3558043007915
 21
34.42118340514499
 31
0.0
  0
LINE
  5
241
330
1F
100
AcDbEntity
  8
建具
  6
JWW_DASHED1
 62
     4
370
     9
100
AcDbLine
 10
-527.3558043007915
 20
22.42118340514454
 30
0.0
 11
-532.3558043007915
 21
22.42118340514454
 31
0.0
  0
LINE
  5
242
330
1F
100
AcDbEntity
  8
建具
  6
Continuous
 62
     4
370
     9
100
AcDbLine
 10
-538.8558043007924
 20
34.42118340514499
 30
0.0
 11
-532.3558043007915
 21
34.42118340514499
 31
0.0
  0
LINE
  5
243
330
1F
100
AcDbEntity
  8
建具
  6
Continuous
 62
     4
370
     9
100
AcDbLine
 10
-527.3558043007915
 20
20.9211834051459
 30
0.0
 11
-532.3558043007915
 21
20.9211834051459
 31
0.0
  0
LINE
  5
244
330
1F
100
AcDbEntity
  8
建具
  6
JWW_DASHED2
 62
     4
370
     9
100
AcDbLine
 10
-527.3558043007915
 20
20.9211834051459
 30
0.0
 11
-532.3558043007915
 21
20.9211834051459
 31
0.0
  0
LINE
  5
245
330
1F
100
AcDbEntity
  8
建具
  6
JWW_DASHED2
 62
     4
370
     9
100
AcDbLine
 10
-532.3558043007915
 20
20.9211834051459
 30
0.0
 11
-532.3558043007915
 21
22.42118340514454
 31
0.0
  0
ARC
  5
246
330
1F
100
AcDbEntity
  8
建具
  6
JWW_DASHED1
 62
     4
370
     9
100
AcDbCircle
 10
-543.3558043007929
 20
58.92118340514544
 30
0.0
 40
3.0
100
AcDbArc
 50
59.99999999997464
 51
90.0
  0
LINE
  5
247
330
1F
100
AcDbEntity
  8
建具
  6
Continuous
 62
     4
370
     9
100
AcDbLine
 10
-524.355804300792
 20
23.92118340514545
 30
0.0
 11
-524.355804300792
 21
499.9211834051454
 31
0.0
  0
LINE
  5
248
330
1F
100
AcDbEntity
  8
建具
  6
Continuous
 62
     4
370
     9
100
AcDbLine
 10
-532.3558043007915
 20
20.9211834051459
 30
0.0
 11
-532.3558043007915
 21
502.9211834051449
 31
0.0
  0
LINE
  5
249
330
1F
100
AcDbEntity
  8
仕上
  6
Continuous
 62
     3
370
     9
100
AcDbLine
 10
47.50425414192023
 20
502.9211834051426
 30
0.0
 11
47.50425414192023
 21
524.9212664153117
 31
0.0
  0
LINE
  5
24A
330
1F
100
AcDbEntity
  8
仕上
  6
Continuous
 62
     3
370
     9
100
AcDbLine
 10
77.50425414192023
 20
502.9211834051426
 30
0.0
 11
77.50425414192023
 21
524.9212664153117
 31
0.0
  0
LINE
  5
24B
330
1F
100
AcDbEntity
  8
仕上
  6
Continuous
 62
     3
370
     9
100
AcDbLine
 10
47.50425414192023
 20
524.9212664153117
 30
0.0
 11
77.50425414192023
 21
524.9212664153117
 31
0.0
  0
LINE
  5
24C
330
1F
100
AcDbEntity
  8
仕上
  6
Continuous
 62
     3
370
     9
100
AcDbLine
 10
162.5042541419202
 20
387.9211834051426
 30
0.0
 11
184.5043371520899
 21
387.9211834051426
 31
0.0
  0
LINE
  5
24D
330
1F
100
AcDbEntity
  8
仕上
  6
Continuous
 62
     3
370
     9
100
AcDbLine
 10
162.5042541419202
 20
417.9211834051426
 30
0.0
 11
184.5043371520899
 21
417.9211834051426
 31
0.0
  0
LINE
  5
24E
330
1F
100
AcDbEntity
  8
仕上
  6
Continuous
 62
     3
370
     9
100
AcDbLine
 10
184.5043371520899
 20
387.9211834051426
 30
0.0
 11
184.5043371520899
 21
417.9211834051426
 31
0.0
  0
LINE
  5
24F
330
1F
100
AcDbEntity
  8
仕上
  6
JWW_DASHED1
 62
     3
370
     9
100
AcDbLine
 10
47.50425414192023
 20
464.9212664153117
 30
0.0
 11
47.50425414192023
 21
502.9211834051426
 31
0.0
  0
LINE
  5
250
330
1F
100
AcDbEntity
  8
仕上
  6
JWW_DASHED1
 62
     3
370
     9
100
AcDbLine
 10
77.50425414192023
 20
464.9212664153117
 30
0.0
 11
77.50425414192023
 21
502.9211834051426
 31
0.0
  0
LINE
  5
251
330
1F
100
AcDbEntity
  8
仕上
  6
JWW_DASHED1
 62
     3
370
     9
100
AcDbLine
 10
47.50425414192023
 20
464.9212664153117
 30
0.0
 11
77.50425414192023
 21
464.9212664153117
 31
0.0
  0
LINE
  5
252
330
1F
100
AcDbEntity
  8
仕上
  6
JWW_DASHED1
 62
     3
370
     9
100
AcDbLine
 10
124.5043371520899
 20
387.9211834051426
 30
0.0
 11
162.5042541419202
 21
387.9211834051426
 31
0.0
  0
LINE
  5
253
330
1F
100
AcDbEntity
  8
仕上
  6
JWW_DASHED1
 62
     3
370
     9
100
AcDbLine
 10
124.5043371520899
 20
417.9211834051426
 30
0.0
 11
162.5042541419202
 21
417.9211834051426
 31
0.0
  0
LINE
  5
254
330
1F
100
AcDbEntity
  8
仕上
  6
JWW_DASHED1
 62
     3
370
     9
100
AcDbLine
 10
124.5043371520899
 20
387.9211834051426
 30
0.0
 11
124.5043371520899
 21
417.9211834051426
 31
0.0
  0
LINE
  5
255
330
1F
100
AcDbEntity
  8
仕上
  6
JWW_CENTER2
 62
     3
370
     9
100
AcDbLine
 10
62.50425414192364
 20
529.3726369320677
 30
0.0
 11
62.50425414192364
 21
459.0235837773986
 31
0.0
  0
LINE
  5
256
330
1F
100
AcDbEntity
  8
仕上
  6
JWW_CENTER2
 62
     3
370
     9
100
AcDbLine
 10
188.9557076688459
 20
402.9211834051461
 30
0.0
 11
118.6066545141762
 21
402.9211834051461
 31
0.0
  0
LINE
  5
257
330
1F
100
AcDbEntity
  8
仕上
  6
Continuous
 62
     3
370
     9
100
AcDbLine
 10
47.50425414192023
 20
20.92118340514249
 30
0.0
 11
47.50425414192023
 21
-1.07889960502602
 31
0.0
  0
LINE
  5
258
330
1F
100
AcDbEntity
  8
仕上
  6
Continuous
 62
     3
370
     9
100
AcDbLine
 10
77.50425414192023
 20
20.92118340514249
 30
0.0
 11
77.50425414192023
 21
-1.07889960502602
 31
0.0
  0
LINE
  5
259
330
1F
100
AcDbEntity
  8
仕上
  6
Continuous
 62
     3
370
     9
100
AcDbLine
 10
47.50425414192023
 20
-1.07889960502602
 30
0.0
 11
77.50425414192023
 21
-1.07889960502602
 31
0.0
  0
LINE
  5
25A
330
1F
100
AcDbEntity
  8
仕上
  6
Continuous
 62
     3
370
     9
100
AcDbLine
 10
162.5042541419202
 20
135.9211834051425
 30
0.0
 11
184.5043371520899
 21
135.9211834051425
 31
0.0
  0
LINE
  5
25B
330
1F
100
AcDbEntity
  8
仕上
  6
Continuous
 62
     3
370
     9
100
AcDbLine
 10
162.5042541419202
 20
105.9211834051425
 30
0.0
 11
184.5043371520899
 21
105.9211834051425
 31
0.0
  0
LINE
  5
25C
330
1F
100
AcDbEntity
  8
仕上
  6
Continuous
 62
     3
370
     9
100
AcDbLine
 10
184.5043371520899
 20
135.9211834051425
 30
0.0
 11
184.5043371520899
 21
105.9211834051425
 31
0.0
  0
LINE
  5
25D
330
1F
100
AcDbEntity
  8
仕上
  6
JWW_DASHED1
 62
     3
370
     9
100
AcDbLine
 10
47.50425414192023
 20
58.92110039497398
 30
0.0
 11
47.50425414192023
 21
20.92118340514249
 31
0.0
  0
LINE
  5
25E
330
1F
100
AcDbEntity
  8
仕上
  6
JWW_DASHED1
 62
     3
370
     9
100
AcDbLine
 10
77.50425414192023
 20
58.92110039497398
 30
0.0
 11
77.50425414192023
 21
20.92118340514249
 31
0.0
  0
LINE
  5
25F
330
1F
100
AcDbEntity
  8
仕上
  6
JWW_DASHED1
 62
     3
370
     9
100
AcDbLine
 10
47.50425414192023
 20
58.92110039497398
 30
0.0
 11
77.50425414192023
 21
58.92110039497398
 31
0.0
  0
LINE
  5
260
330
1F
100
AcDbEntity
  8
仕上
  6
JWW_DASHED1
 62
     3
370
     9
100
AcDbLine
 10
124.5043371520899
 20
135.9211834051425
 30
0.0
 11
162.5042541419202
 21
135.9211834051425
 31
0.0
  0
LINE
  5
261
330
1F
100
AcDbEntity
  8
仕上
  6
JWW_DASHED1
 62
     3
370
     9
100
AcDbLine
 10
124.5043371520899
 20
105.9211834051425
 30
0.0
 11
162.5042541419202
 21
105.9211834051425
 31
0.0
  0
LINE
  5
262
330
1F
100
AcDbEntity
  8
仕上
  6
JWW_DASHED1
 62
     3
370
     9
100
AcDbLine
 10
124.5043371520899
 20
135.9211834051425
 30
0.0
 11
124.5043371520899
 21
105.9211834051425
 31
0.0
  0
LINE
  5
263
330
1F
100
AcDbEntity
  8
仕上
  6
JWW_CENTER2
 62
     3
370
     9
100
AcDbLine
 10
62.50425414192364
 20
-5.530270121780916
 30
0.0
 11
62.50425414192364
 21
64.81878303288882
 31
0.0
  0
LINE
  5
264
330
1F
100
AcDbEntity
  8
仕上
  6
JWW_CENTER2
 62
     3
370
     9
100
AcDbLine
 10
188.9557076688459
 20
120.9211834051425
 30
0.0
 11
118.6066545141762
 21
120.9211834051425
 31
0.0
  0
LINE
  5
265
330
1F
100
AcDbEntity
  8
仕上
  6
Continuous
 62
     3
370
     9
100
AcDbLine
 10
-204.4957458580802
 20
524.9212664153117
 30
0.0
 11
-234.4957458580802
 21
524.9212664153117
 31
0.0
  0
LINE
  5
266
330
1F
100
AcDbEntity
  8
仕上
  6
Continuous
 62
     3
370
     9
100
AcDbLine
 10
-234.4957458580802
 20
502.9211834051426
 30
0.0
 11
-234.4957458580802
 21
524.9212664153117
 31
0.0
  0
LINE
  5
267
330
1F
100
AcDbEntity
  8
仕上
  6
Continuous
 62
     3
370
     9
100
AcDbLine
 10
-204.4957458580802
 20
502.9211834051426
 30
0.0
 11
-204.4957458580802
 21
524.9212664153117
 31
0.0
  0
LINE
  5
268
330
1F
100
AcDbEntity
  8
仕上
  6
JWW_DASHED1
 62
     3
370
     9
100
AcDbLine
 10
-204.4957458580802
 20
464.9212664153117
 30
0.0
 11
-234.4957458580802
 21
464.9212664153117
 31
0.0
  0
LINE
  5
269
330
1F
100
AcDbEntity
  8
仕上
  6
JWW_DASHED1
 62
     3
370
     9
100
AcDbLine
 10
-234.4957458580802
 20
464.9212664153117
 30
0.0
 11
-234.4957458580802
 21
502.9211834051426
 31
0.0
  0
LINE
  5
26A
330
1F
100
AcDbEntity
  8
仕上
  6
JWW_DASHED1
 62
     3
370
     9
100
AcDbLine
 10
-204.4957458580802
 20
464.9212664153117
 30
0.0
 11
-204.4957458580802
 21
502.9211834051426
 31
0.0
  0
LINE
  5
26B
330
1F
100
AcDbEntity
  8
仕上
  6
JWW_CENTER2
 62
     3
370
     9
100
AcDbLine
 10
-219.4957458580802
 20
529.3726369320677
 30
0.0
 11
-219.4957458580802
 21
459.0235837773986
 31
0.0
  0
LINE
  5
26C
330
1F
100
AcDbEntity
  8
仕上
  6
Continuous
 62
     3
370
     9
100
AcDbLine
 10
-204.4957458580802
 20
-1.07889960502602
 30
0.0
 11
-234.4957458580802
 21
-1.07889960502602
 31
0.0
  0
LINE
  5
26D
330
1F
100
AcDbEntity
  8
仕上
  6
Continuous
 62
     3
370
     9
100
AcDbLine
 10
-234.4957458580802
 20
20.92118340514249
 30
0.0
 11
-234.4957458580802
 21
-1.07889960502602
 31
0.0
  0
LINE
  5
26E
330
1F
100
AcDbEntity
  8
仕上
  6
Continuous
 62
     3
370
     9
100
AcDbLine
 10
-204.4957458580802
 20
20.92118340514249
 30
0.0
 11
-204.4957458580802
 21
-1.07889960502602
 31
0.0
  0
LINE
  5
26F
330
1F
100
AcDbEntity
  8
仕上
  6
JWW_DASHED1
 62
     3
370
     9
100
AcDbLine
 10
-204.4957458580802
 20
58.92110039497398
 30
0.0
 11
-234.4957458580802
 21
58.92110039497398
 31
0.0
  0
LINE
  5
270
330
1F
100
AcDbEntity
  8
仕上
  6
JWW_DASHED1
 62
     3
370
     9
100
AcDbLine
 10
-234.4957458580802
 20
58.92110039497398
 30
0.0
 11
-234.4957458580802
 21
20.92118340514249
 31
0.0
  0
LINE
  5
271
330
1F
100
AcDbEntity
  8
仕上
  6
JWW_DASHED1
 62
     3
370
     9
100
AcDbLine
 10
-204.4957458580802
 20
58.92110039497398
 30
0.0
 11
-204.4957458580802
 21
20.92118340514249
 31
0.0
  0
LINE
  5
272
330
1F
100
AcDbEntity
  8
仕上
  6
JWW_CENTER2
 62
     3
370
     9
100
AcDbLine
 10
-219.4957458580802
 20
-5.530270121780916
 30
0.0
 11
-219.4957458580802
 21
64.81878303288882
 31
0.0
  0
LINE
  5
273
330
1F
100
AcDbEntity
  8
仕上
  6
Continuous
 62
     3
370
     9
100
AcDbLine
 10
146.0043133507344
 20
-213.246433942042
 30
0.0
 11
184.5043371520893
 21
-213.246433942042
 31
0.0
  0
LINE
  5
274
330
1F
100
AcDbEntity
  8
仕上
  6
Continuous
 62
     3
370
     9
100
AcDbLine
 10
124.5043371520893
 20
-213.2464972304382
 30
0.0
 11
124.5043371520893
 21
-214.7464972304391
 31
0.0
  0
LINE
  5
275
330
1F
100
AcDbEntity
  8
仕上
  6
Continuous
 62
     3
370
     9
100
AcDbLine
 10
124.5043371520893
 20
-214.7464972304391
 30
0.0
 11
184.5043371520893
 21
-214.7464972304391
 31
0.0
  0
LINE
  5
276
330
1F
100
AcDbEntity
  8
仕上
  6
Continuous
 62
     3
370
     9
100
AcDbLine
 10
184.5043371520893
 20
-213.246433942042
 30
0.0
 11
184.5043371520893
 21
-214.7464972304391
 31
0.0
  0
LINE
  5
277
330
1F
100
AcDbEntity
  8
仕上
  6
Continuous
 62
     3
370
     9
100
AcDbLine
 10
77.50425414192023
 20
-213.2466776258519
 30
0.0
 11
77.50425414192023
 21
-214.7464972304391
 31
0.0
  0
LINE
  5
278
330
1F
100
AcDbEntity
  8
仕上
  6
Continuous
 62
     3
370
     9
100
AcDbLine
 10
47.50425414192023
 20
-213.2466776258519
 30
0.0
 11
47.50425414192023
 21
-214.7464972304391
 31
0.0
  0
LINE
  5
279
330
1F
100
AcDbEntity
  8
仕上
  6
Continuous
 62
     3
370
     9
100
AcDbLine
 10
47.50425414192023
 20
-214.7464972304391
 30
0.0
 11
77.50425414192023
 21
-214.7464972304391
 31
0.0
  0
LINE
  5
27A
330
1F
100
AcDbEntity
  8
仕上
  6
Continuous
 62
     3
370
     9
100
AcDbLine
 10
-204.4957458580802
 20
-213.2466776258519
 30
0.0
 11
-204.4957458580802
 21
-214.7464972304391
 31
0.0
  0
LINE
  5
27B
330
1F
100
AcDbEntity
  8
仕上
  6
Continuous
 62
     3
370
     9
100
AcDbLine
 10
-234.4957458580802
 20
-213.2466776258519
 30
0.0
 11
-234.4957458580802
 21
-214.7464972304391
 31
0.0
  0
LINE
  5
27C
330
1F
100
AcDbEntity
  8
仕上
  6
Continuous
 62
     3
370
     9
100
AcDbLine
 10
-204.4957458580802
 20
-214.7464972304391
 30
0.0
 11
-234.4957458580802
 21
-214.7464972304391
 31
0.0
  0
LINE
  5
27D
330
1F
100
AcDbEntity
  8
仕上
  6
Continuous
 62
     3
370
     9
100
AcDbLine
 10
-541.855804300792
 20
464.9212664153112
 30
0.0
 11
-543.3558043007906
 21
464.9212664153112
 31
0.0
  0
LINE
  5
27E
330
1F
100
AcDbEntity
  8
仕上
  6
Continuous
 62
     3
370
     9
100
AcDbLine
 10
-541.855804300792
 20
464.9212664153112
 30
0.0
 11
-541.855804300792
 21
524.9212664153112
 31
0.0
  0
LINE
  5
27F
330
1F
100
AcDbEntity
  8
仕上
  6
Continuous
 62
     3
370
     9
100
AcDbLine
 10
-543.3558043007906
 20
464.9212664153112
 30
0.0
 11
-543.3558043007906
 21
524.9212664153112
 31
0.0
  0
LINE
  5
280
330
1F
100
AcDbEntity
  8
仕上
  6
Continuous
 62
     3
370
     9
100
AcDbLine
 10
-541.855804300792
 20
524.9212664153112
 30
0.0
 11
-543.3558043007906
 21
524.9212664153112
 31
0.0
  0
LINE
  5
281
330
1F
100
AcDbEntity
  8
仕上
  6
Continuous
 62
     3
370
     9
100
AcDbLine
 10
-541.855804300792
 20
58.92110039497739
 30
0.0
 11
-543.3558043007906
 21
58.92110039497739
 31
0.0
  0
LINE
  5
282
330
1F
100
AcDbEntity
  8
仕上
  6
Continuous
 62
     3
370
     9
100
AcDbLine
 10
-541.855804300792
 20
58.92110039497739
 30
0.0
 11
-541.855804300792
 21
-1.07889960502261
 31
0.0
  0
LINE
  5
283
330
1F
100
AcDbEntity
  8
仕上
  6
Continuous
 62
     3
370
     9
100
AcDbLine
 10
-543.3558043007906
 20
58.92110039497739
 30
0.0
 11
-543.3558043007906
 21
-1.07889960502261
 31
0.0
  0
LINE
  5
284
330
1F
100
AcDbEntity
  8
仕上
  6
Continuous
 62
     3
370
     9
100
AcDbLine
 10
-541.855804300792
 20
-1.07889960502261
 30
0.0
 11
-543.3558043007906
 21
-1.07889960502261
 31
0.0
  0
LINE
  5
285
330
1F
100
AcDbEntity
  8
建具
  6
JWW_DASHED1
 62
     4
370
     9
100
AcDbLine
 10
-278.4957458580811
 20
-334.2467945117102
 30
0.0
 11
-278.4957458580811
 21
-214.7466776258517
 31
0.0
  0
ARC
  5
286
330
1F
100
AcDbEntity
  8
建具
  6
JWW_DASHED1
 62
     4
370
     9
100
AcDbCircle
 10
-258.4957458580811
 20
-334.2467945117102
 30
0.0
 40
20.0
100
AcDbArc
 50
180.0
 51
270.0
  0
LINE
  5
287
330
1F
100
AcDbEntity
  8
建具
  6
JWW_DASHED1
 62
     4
370
     9
100
AcDbLine
 10
121.5042541419217
 20
-334.2467945117102
 30
0.0
 11
121.5042541419217
 21
-214.7466776258517
 31
0.0
  0
LINE
  5
288
330
1F
100
AcDbEntity
  8
建具
  6
JWW_DASHED1
 62
     4
370
     9
100
AcDbLine
 10
101.5042541419217
 20
-354.2467945117102
 30
0.0
 11
-258.4957458580811
 21
-354.2467945117102
 31
0.0
  0
ARC
  5
289
330
1F
100
AcDbEntity
  8
建具
  6
JWW_DASHED1
 62
     4
370
     9
100
AcDbCircle
 10
101.5042541419217
 20
-334.2467945117102
 30
0.0
 40
20.0
100
AcDbArc
 50
270.0
 51
0.0
  0
LINE
  5
28A
330
1F
100
AcDbEntity
  8
建具
  6
JWW_DASHED1
 62
     4
370
     9
100
AcDbLine
 10
-662.8558043007934
 20
461.9212029057582
 30
0.0
 11
-543.3558043007929
 21
461.9212029057582
 31
0.0
  0
ARC
  5
28B
330
1F
100
AcDbEntity
  8
建具
  6
JWW_DASHED1
 62
     4
370
     9
100
AcDbCircle
 10
-662.8558043007934
 20
441.9212029057582
 30
0.0
 40
20.0
100
AcDbArc
 50
90.0
 51
180.0
  0
LINE
  5
28C
330
1F
100
AcDbEntity
  8
建具
  6
JWW_DASHED1
 62
     4
370
     9
100
AcDbLine
 10
-682.8558043007934
 20
81.92116390453039
 30
0.0
 11
-682.8558043007934
 21
441.9212029057582
 31
0.0
  0
LINE
  5
28D
330
1F
100
AcDbEntity
  8
建具
  6
JWW_DASHED1
 62
     4
370
     9
100
AcDbLine
 10
-662.8558043007934
 20
61.92116390453039
 30
0.0
 11
-543.3558043007929
 21
61.92116390453039
 31
0.0
  0
ARC
  5
28E
330
1F
100
AcDbEntity
  8
建具
  6
JWW_DASHED1
 62
     4
370
     9
100
AcDbCircle
 10
-662.8558043007934
 20
81.92116390453039
 30
0.0
 40
20.0
100
AcDbArc
 50
180.0
 51
270.0
  0
LINE
  5
28F
330
1F
100
AcDbEntity
  8
建具
  6
Continuous
 62
     4
370
     9
100
AcDbLine
 10
-279.9957458580798
 20
-334.2466776258519
 30
0.0
 11
-279.9957458580798
 21
-214.7466776258517
 31
0.0
  0
ARC
  5
290
330
1F
100
AcDbEntity
  8
建具
  6
Continuous
 62
     4
370
     9
100
AcDbCircle
 10
-258.4957458580798
 20
-334.2466776258519
 30
0.0
 40
21.5
100
AcDbArc
 50
180.0
 51
270.0
  0
LINE
  5
291
330
1F
100
AcDbEntity
  8
建具
  6
Continuous
 62
     4
370
     9
100
AcDbLine
 10
101.5042541419203
 20
-355.7466776258519
 30
0.0
 11
-258.4957458580798
 21
-355.7466776258519
 31
0.0
  0
LINE
  5
292
330
1F
100
AcDbEntity
  8
建具
  6
Continuous
 62
     4
370
     9
100
AcDbLine
 10
123.0042541419203
 20
-334.2466776258519
 30
0.0
 11
123.0042541419203
 21
-214.7466776258517
 31
0.0
  0
ARC
  5
293
330
1F
100
AcDbEntity
  8
建具
  6
Continuous
 62
     4
370
     9
100
AcDbCircle
 10
101.5042541419203
 20
-334.2466776258519
 30
0.0
 40
21.5
100
AcDbArc
 50
270.0
 51
0.0
  0
LINE
  5
294
330
1F
100
AcDbEntity
  8
建具
  6
Continuous
 62
     4
370
     9
100
AcDbLine
 10
-662.8559211866523
 20
60.421181696631
 30
0.0
 11
-543.3558043007906
 21
60.421181696631
 31
0.0
  0
ARC
  5
295
330
1F
100
AcDbEntity
  8
建具
  6
Continuous
 62
     4
370
     9
100
AcDbCircle
 10
-662.8559211866523
 20
81.92118169663101
 30
0.0
 40
21.5
100
AcDbArc
 50
180.0
 51
270.0
  0
LINE
  5
296
330
1F
100
AcDbEntity
  8
建具
  6
Continuous
 62
     4
370
     9
100
AcDbLine
 10
-684.3559211866523
 20
441.9211851136564
 30
0.0
 11
-684.3559211866523
 21
81.92118169663101
 31
0.0
  0
LINE
  5
297
330
1F
100
AcDbEntity
  8
建具
  6
Continuous
 62
     4
370
     9
100
AcDbLine
 10
-662.8559211866523
 20
463.4211851136564
 30
0.0
 11
-543.3558043007906
 21
463.4211851136564
 31
0.0
  0
ARC
  5
298
330
1F
100
AcDbEntity
  8
建具
  6
Continuous
 62
     4
370
     9
100
AcDbCircle
 10
-662.8559211866523
 20
441.9211851136564
 30
0.0
 40
21.5
100
AcDbArc
 50
90.0
 51
180.0
  0
LINE
  5
299
330
1F
100
AcDbEntity
  8
寸法
  6
Continuous
 62
     7
370
     9
100
AcDbLine
 10
-256.4200298174752
 20
-332.1710784711042
 30
0.0
 11
-228.536465149963
 21
-332.1710784711042
 31
0.0
  0
TEXT
  5
29A
330
1F
100
AcDbEntity
  8
寸法
  6
Continuous
 62
     7
370
     9
100
AcDbText
 10
-254.8613413223331
 20
-327.6767659558478
 30
0.0
 40
11.43
  1
R20
 50
359.9999135170251
 41
1.11111111111111
  7
ＭＳ ゴシック
100
AcDbText
  0
LINE
  5
29B
330
1F
100
AcDbEntity
  8
寸法
  6
Continuous
 62
     7
370
     9
100
AcDbLine
 10
-256.4200298174752
 20
-332.1710784711042
 30
0.0
 11
-272.6378814818121
 21
-348.3889301354411
 31
0.0
  0
LINE
  5
29C
330
1F
100
AcDbEntity
  8
寸法
  6
Continuous
 62
     7
370
     9
100
AcDbLine
 10
-272.6378814818121
 20
-348.3889301354411
 30
0.0
 11
-265.028363619203
 21
-338.4720133818006
 31
0.0
  0
LINE
  5
29D
330
1F
100
AcDbEntity
  8
寸法
  6
Continuous
 62
     7
370
     9
100
AcDbLine
 10
-272.6378814818121
 20
-348.3889301354411
 30
0.0
 11
-262.7209647281716
 21
-340.779412272832
 31
0.0
  0
ENDSEC
  0
SECTION
  2
OBJECTS
  0
DICTIONARY
  5
C
330
0
100
AcDbDictionary
281
     1
  3
ACAD_GROUP
350
D
  3
ACAD_LAYOUT
350
1A
  3
ACAD_MLEADERSTYLE
350
29F
  3
ACAD_MLINESTYLE
350
17
  3
ACAD_PLOTSETTINGS
350
19
  3
ACAD_PLOTSTYLENAME
350
E
  3
ACAD_TABLESTYLE
350
29E
  3
ACAD_VISUALSTYLE
350
2A
  0
DICTIONARY
  5
D
102
{ACAD_REACTORS
330
C
102
}
330
C
100
AcDbDictionary
281
     1
  0
DICTIONARY
  5
1A
102
{ACAD_REACTORS
330
C
102
}
330
C
100
AcDbDictionary
281
     1
  3
Layout1
350
1E
  3
Layout2
350
26
  3
Model
350
22
  0
DICTIONARY
  5
29F
102
{ACAD_REACTORS
330
C
102
}
330
C
100
AcDbDictionary
281
     1
  0
DICTIONARY
  5
17
102
{ACAD_REACTORS
330
C
102
}
330
C
100
AcDbDictionary
281
     1
  3
Standard
350
18
  0
DICTIONARY
  5
19
102
{ACAD_REACTORS
330
C
102
}
330
C
100
AcDbDictionary
281
     1
  0
ACDBDICTIONARYWDFLT
  5
E
102
{ACAD_REACTORS
330
C
102
}
330
C
100
AcDbDictionary
281
     1
  3
Normal
350
F
100
AcDbDictionaryWithDefault
340
F
  0
DICTIONARY
  5
29E
102
{ACAD_REACTORS
330
C
102
}
330
C
100
AcDbDictionary
281
     1
  0
DICTIONARY
  5
2A
102
{ACAD_REACTORS
330
C
102
}
330
C
100
AcDbDictionary
281
     1
  3
2dWireframe
350
2F
  3
3D Hidden
350
31
  3
3dWireframe
350
30
  3
Basic
350
32
  3
Brighten
350
36
  3
ColorChange
350
3A
  3
Conceptual
350
34
  3
Dim
350
35
  3
Facepattern
350
39
  3
Flat
350
2B
  3
FlatWithEdges
350
2C
  3
Gouraud
350
2D
  3
GouraudWithEdges
350
2E
  3
Linepattern
350
38
  3
Realistic
350
33
  3
Thicken
350
37
  0
LAYOUT
  5
1E
102
{ACAD_REACTORS
330
1A
102
}
330
1A
100
AcDbPlotSettings
  1

  2
none_device
  4

  6

 40
0.0
 41
0.0
 42
0.0
 43
0.0
 44
0.0
 45
0.0
 46
0.0
 47
0.0
 48
0.0
 49
0.0
140
0.0
141
0.0
142
1.0
143
1.0
 70
   688
 72
     0
 73
     0
 74
     5
  7

 75
    16
 76
     0
 77
     5
 78
   300
147
1.0
148
0.0
149
0.0
100
AcDbLayout
  1
Layout1
 70
     1
 71
     1
 10
0.0
 20
0.0
 11
420.0
 21
297.0
 12
0.0
 22
0.0
 32
0.0
 14
1.000000000000000E+20
 24
1.000000000000000E+20
 34
1.000000000000000E+20
 15
-1.000000000000000E+20
 25
-1.000000000000000E+20
 35
-1.000000000000000E+20
146
0.0
 13
0.0
 23
0.0
 33
0.0
 16
1.0
 26
0.0
 36
0.0
 17
0.0
 27
1.0
 37
0.0
 76
     0
330
1B
  0
LAYOUT
  5
26
102
{ACAD_REACTORS
330
1A
102
}
330
1A
100
AcDbPlotSettings
  1

  2
none_device
  4

  6

 40
0.0
 41
0.0
 42
0.0
 43
0.0
 44
0.0
 45
0.0
 46
0.0
 47
0.0
 48
0.0
 49
0.0
140
0.0
141
0.0
142
1.0
143
1.0
 70
   688
 72
     0
 73
     0
 74
     5
  7

 75
    16
 76
     0
 77
     5
 78
   300
147
1.0
148
0.0
149
0.0
100
AcDbLayout
  1
Layout2
 70
     1
 71
     2
 10
0.0
 20
0.0
 11
0.0
 21
0.0
 12
0.0
 22
0.0
 32
0.0
 14
0.0
 24
0.0
 34
0.0
 15
0.0
 25
0.0
 35
0.0
146
0.0
 13
0.0
 23
0.0
 33
0.0
 16
1.0
 26
0.0
 36
0.0
 17
0.0
 27
1.0
 37
0.0
 76
     0
330
23
  0
LAYOUT
  5
22
102
{ACAD_REACTORS
330
1A
102
}
330
1A
100
AcDbPlotSettings
  1

  2
none_device
  4

  6

 40
0.0
 41
0.0
 42
0.0
 43
0.0
 44
0.0
 45
0.0
 46
0.0
 47
0.0
 48
0.0
 49
0.0
140
0.0
141
0.0
142
1.0
143
1.0
 70
  1712
 72
     0
 73
     0
 74
     0
  7

 75
     0
 76
     0
 77
     5
 78
   300
147
1.0
148
0.0
149
0.0
100
AcDbLayout
  1
Model
 70
     1
 71
     0
 10
-1050.0
 20
-742.5
 11
1050.0
 21
742.5
 12
0.0
 22
0.0
 32
0.0
 14
-1050.0
 24
-742.5
 34
0.0
 15
1050.0
 25
742.5
 35
0.0
146
0.0
 13
0.0
 23
0.0
 33
0.0
 16
1.0
 26
0.0
 36
0.0
 17
0.0
 27
1.0
 37
0.0
 76
     0
330
1F
331
29
  0
MLINESTYLE
  5
18
102
{ACAD_REACTORS
330
17
102
}
330
17
100
AcDbMlineStyle
  2
Standard
 70
     0
  3

 62
   256
 51
90.0
 52
90.0
 71
     2
 49
0.5
 62
   256
  6
BYLAYER
 49
-0.5
 62
   256
  6
BYLAYER
  0
ACDBPLACEHOLDER
  5
F
102
{ACAD_REACTORS
330
E
102
}
330
E
  0
VISUALSTYLE
  5
2F
102
{ACAD_REACTORS
330
2A
102
}
330
2A
100
AcDbVisualStyle
  2
2dWireframe
 70
     4
 71
     0
 72
     2
 73
     0
 90
        0
 40
-0.6
 41
-30.0
 62
     5
 63
     7
421
 16777215
 74
     1
 91
        4
 64
     7
 65
   257
 75
     1
175
     1
 42
1.0
 92
        0
 66
   257
 43
1.0
 76
     1
 77
     6
 78
     2
 67
     7
 79
     5
170
     0
171
     0
290
     0
174
     0
 93
        1
 44
0.0
173
     0
291
     0
 45
0.0
1001
ACAD
1000
AcDbSavedByObjectVersion
1070
     0
  0
VISUALSTYLE
  5
31
102
{ACAD_REACTORS
330
2A
102
}
330
2A
100
AcDbVisualStyle
  2
3D Hidden
 70
     6
 71
     1
 72
     2
 73
     2
 90
        0
 40
-0.6
 41
-30.0
 62
     5
 63
     7
421
 16777215
 74
     2
 91
        2
 64
     7
 65
   257
 75
     2
175
     1
 42
40.0
 92
        0
 66
   257
 43
1.0
 76
     1
 77
     6
 78
     2
 67
     7
 79
     3
170
     0
171
     0
290
     0
174
     0
 93
        1
 44
0.0
173
     0
291
     0
 45
0.0
1001
ACAD
1000
AcDbSavedByObjectVersion
1070
     0
  0
VISUALSTYLE
  5
30
102
{ACAD_REACTORS
330
2A
102
}
330
2A
100
AcDbVisualStyle
  2
3dWireframe
 70
     5
 71
     0
 72
     2
 73
     0
 90
        0
 40
-0.6
 41
-30.0
 62
     5
 63
     7
421
 16777215
 74
     1
 91
        4
 64
     7
 65
   257
 75
     1
175
     1
 42
1.0
 92
        0
 66
   257
 43
1.0
 76
     1
 77
     6
 78
     2
 67
     7
 79
     5
170
     0
171
     0
290
     0
174
     0
 93
        1
 44
0.0
173
     0
291
     0
 45
0.0
1001
ACAD
1000
AcDbSavedByObjectVersion
1070
     0
  0
VISUALSTYLE
  5
32
102
{ACAD_REACTORS
330
2A
102
}
330
2A
100
AcDbVisualStyle
  2
Basic
 70
     7
 71
     1
 72
     0
 73
     1
 90
        0
 40
-0.6
 41
-30.0
 62
     5
 63
     7
421
 16777215
 74
     0
 91
        4
 64
     7
 65
   257
 75
     1
175
     1
 42
1.0
 92
        8
 66
     7
 43
1.0
 76
     1
 77
     6
 78
     2
 67
     7
 79
     5
170
     0
171
     0
290
     0
174
     0
 93
        1
 44
0.0
173
     0
291
     1
 45
0.0
1001
ACAD
1000
AcDbSavedByObjectVersion
1070
     0
  0
VISUALSTYLE
  5
36
102
{ACAD_REACTORS
330
2A
102
}
330
2A
100
AcDbVisualStyle
  2
Brighten
 70
    12
 71
     2
 72
     2
 73
     0
 90
        0
 40
-0.6
 41
-30.0
 62
     5
 63
     7
421
 16777215
 74
     1
 91
        4
 64
     7
 65
   257
 75
     1
175
     1
 42
1.0
 92
        8
 66
     7
 43
1.0
 76
     1
 77
     6
 78
     2
 67
     7
 79
     5
170
     0
171
     0
290
     0
174
     0
 93
        1
 44
50.0
173
     0
291
     1
 45
0.0
1001
ACAD
1000
AcDbSavedByObjectVersion
1070
     0
  0
VISUALSTYLE
  5
3A
102
{ACAD_REACTORS
330
2A
102
}
330
2A
100
AcDbVisualStyle
  2
ColorChange
 70
    16
 71
     2
 72
     2
 73
     3
 90
        0
 40
-0.6
 41
-30.0
 62
     5
 63
     8
421
  8421504
 74
     1
 91
        4
 64
     7
 65
   257
 75
     1
175
     1
 42
1.0
 92
        8
 66
     8
424
  8421504
 43
1.0
 76
     1
 77
     6
 78
     2
 67
     7
 79
     5
170
     0
171
     0
290
     0
174
     0
 93
        1
 44
0.0
173
     0
291
     1
 45
0.0
1001
ACAD
1000
AcDbSavedByObjectVersion
1070
     0
  0
VISUALSTYLE
  5
34
102
{ACAD_REACTORS
330
2A
102
}
330
2A
100
AcDbVisualStyle
  2
Conceptual
 70
     9
 71
     3
 72
     2
 73
     0
 90
        0
 40
-0.6
 41
-30.0
 62
     5
 63
     7
421
 16777215
 74
     2
 91
        2
 64
     7
 65
   257
 75
     1
175
     1
 42
40.0
 92
        8
 66
     7
 43
1.0
 76
     1
 77
     6
 78
     2
 67
     7
 79
     3
170
     0
171
     0
290
     0
174
     0
 93
        1
 44
0.0
173
     0
291
     0
 45
0.0
1001
ACAD
1000
AcDbSavedByObjectVersion
1070
     0
  0
VISUALSTYLE
  5
35
102
{ACAD_REACTORS
330
2A
102
}
330
2A
100
AcDbVisualStyle
  2
Dim
 70
    11
 71
     2
 72
     2
 73
     0
 90
        0
 40
-0.6
 41
-30.0
 62
     5
 63
     7
421
 16777215
 74
     1
 91
        4
 64
     7
 65
   257
 75
     1
175
     1
 42
1.0
 92
        8
 66
     7
 43
1.0
 76
     1
 77
     6
 78
     2
 67
     7
 79
     5
170
     0
171
     0
290
     0
174
     0
 93
        1
 44
-50.0
173
     0
291
     1
 45
0.0
1001
ACAD
1000
AcDbSavedByObjectVersion
1070
     0
  0
VISUALSTYLE
  5
39
102
{ACAD_REACTORS
330
2A
102
}
330
2A
100
AcDbVisualStyle
  2
Facepattern
 70
    15
 71
     2
 72
     2
 73
     0
 90
        0
 40
-0.6
 41
-30.0
 62
     5
 63
     7
421
 16777215
 74
     1
 91
        4
 64
     7
 65
   257
 75
     1
175
     1
 42
1.0
 92
        8
 66
     7
 43
1.0
 76
     1
 77
     6
 78
     2
 67
     7
 79
     5
170
     0
171
     0
290
     0
174
     0
 93
        1
 44
0.0
173
     0
291
     1
 45
0.0
1001
ACAD
1000
AcDbSavedByObjectVersion
1070
     0
  0
VISUALSTYLE
  5
2B
102
{ACAD_REACTORS
330
2A
102
}
330
2A
100
AcDbVisualStyle
  2
Flat
 70
     0
 71
     2
 72
     1
 73
     1
 90
        2
 40
-0.6
 41
30.0
 62
     5
 63
     7
421
 16777215
 74
     0
 91
        4
 64
     7
 65
   257
 75
     1
175
     1
 42
1.0
 92
        8
 66
     7
 43
1.0
 76
     1
 77
     6
 78
     2
 67
     7
 79
     5
170
     0
171
     0
290
     0
174
     0
 93
       13
 44
0.0
173
     0
291
     1
 45
0.0
1001
ACAD
1000
AcDbSavedByObjectVersion
1070
     0
  0
VISUALSTYLE
  5
2C
102
{ACAD_REACTORS
330
2A
102
}
330
2A
100
AcDbVisualStyle
  2
FlatWithEdges
 70
     1
 71
     2
 72
     1
 73
     1
 90
        2
 40
-0.6
 41
30.0
 62
     5
 63
     7
421
 16777215
 74
     1
 91
        4
 64
     7
 65
   257
 75
     1
175
     1
 42
1.0
 92
        0
 66
   257
 43
1.0
 76
     1
 77
     6
 78
     2
 67
     7
 79
     5
170
     0
171
     0
290
     0
174
     0
 93
       13
 44
0.0
173
     0
291
     1
 45
0.0
1001
ACAD
1000
AcDbSavedByObjectVersion
1070
     0
  0
VISUALSTYLE
  5
2D
102
{ACAD_REACTORS
330
2A
102
}
330
2A
100
AcDbVisualStyle
  2
Gouraud
 70
     2
 71
     2
 72
     2
 73
     1
 90
        2
 40
-0.6
 41
30.0
 62
     5
 63
     7
421
 16777215
 74
     0
 91
        4
 64
     7
 65
   257
 75
     1
175
     1
 42
1.0
 92
        0
 66
     7
 43
1.0
 76
     1
 77
     6
 78
     2
 67
     7
 79
     5
170
     0
171
     0
290
     0
174
     0
 93
       13
 44
0.0
173
     0
291
     1
 45
0.0
1001
ACAD
1000
AcDbSavedByObjectVersion
1070
     0
  0
VISUALSTYLE
  5
2E
102
{ACAD_REACTORS
330
2A
102
}
330
2A
100
AcDbVisualStyle
  2
GouraudWithEdges
 70
     3
 71
     2
 72
     2
 73
     1
 90
        2
 40
-0.6
 41
30.0
 62
     5
 63
     7
421
 16777215
 74
     1
 91
        4
 64
     7
 65
   257
 75
     1
175
     1
 42
1.0
 92
        0
 66
   257
 43
1.0
 76
     1
 77
     6
 78
     2
 67
     7
 79
     5
170
     0
171
     0
290
     0
174
     0
 93
       13
 44
0.0
173
     0
291
     1
 45
0.0
1001
ACAD
1000
AcDbSavedByObjectVersion
1070
     0
  0
VISUALSTYLE
  5
38
102
{ACAD_REACTORS
330
2A
102
}
330
2A
100
AcDbVisualStyle
  2
Linepattern
 70
    14
 71
     2
 72
     2
 73
     0
 90
        0
 40
-0.6
 41
-30.0
 62
     5
 63
     7
421
 16777215
 74
     1
 91
        4
 64
     7
 65
   257
 75
     7
175
     7
 42
1.0
 92
        8
 66
     7
 43
1.0
 76
     1
 77
     6
 78
     2
 67
     7
 79
     5
170
     0
171
     0
290
     0
174
     0
 93
        1
 44
0.0
173
     0
291
     1
 45
0.0
1001
ACAD
1000
AcDbSavedByObjectVersion
1070
     0
  0
VISUALSTYLE
  5
33
102
{ACAD_REACTORS
330
2A
102
}
330
2A
100
AcDbVisualStyle
  2
Realistic
 70
     8
 71
     2
 72
     2
 73
     0
 90
        0
 40
-0.6
 41
-30.0
 62
     5
 63
     7
421
 16777215
 74
     1
 91
        0
 64
     7
 65
   257
 75
     1
175
     1
 42
1.0
 92
        8
 66
     8
424
  7895160
 43
1.0
 76
     1
 77
     6
 78
     2
 67
     7
 79
     5
170
     0
171
     0
290
     0
174
     0
 93
       13
 44
0.0
173
     0
291
     0
 45
0.0
1001
ACAD
1000
AcDbSavedByObjectVersion
1070
     0
  0
VISUALSTYLE
  5
37
102
{ACAD_REACTORS
330
2A
102
}
330
2A
100
AcDbVisualStyle
  2
Thicken
 70
    13
 71
     2
 72
     2
 73
     0
 90
        0
 40
-0.6
 41
-30.0
 62
     5
 63
     7
421
 16777215
 74
     1
 91
        4
 64
     7
 65
   257
 75
     1
175
     1
 42
1.0
 92
       12
 66
     7
 43
1.0
 76
     1
 77
     6
 78
     2
 67
     7
 79
     5
170
     0
171
     0
290
     0
174
     0
 93
        1
 44
0.0
173
     0
291
     1
 45
0.0
1001
ACAD
1000
AcDbSavedByObjectVersion
1070
     0
  0
ENDSEC
  0
EOF
