  0
SECTION
  2
HEADER
  9
$ACADVER
  1
AC1018
  9
$ACADMAINTVER
 70
     0
  9
$DWGCODEPAGE
  3
ANSI_932
  9
$INSBASE
 10
0.0
 20
0.0
 30
0.0
  9
$EXTMIN
 10
-2100.0
 20
-1485.0
 30
0.0
  9
$EXTMAX
 10
2100.0
 20
1485.0
 30
0.0
  9
$LIMMIN
 10
-2100.0
 20
-1485.0
  9
$LIMMAX
 10
2100.0
 20
1485.0
  9
$ORTHOMODE
 70
     0
  9
$REGENMODE
 70
     1
  9
$FILLMODE
 70
     1
  9
$QTEXTMODE
 70
     0
  9
$MIRRTEXT
 70
     1
  9
$LTSCALE
 40
10.0
  9
$ATTMODE
 70
     1
  9
$TEXTSIZE
 40
2.5
  9
$TRACEWID
 40
1.0
  9
$TEXTSTYLE
  7
Standard
  9
$CLAYER
  8
0
  9
$CELTYPE
  6
ByLayer
  9
$CECOLOR
 62
   256
  9
$CELTSCALE
 40
1.0
  9
$DISPSILH
 70
     0
  9
$DIMSCALE
 40
1.0
  9
$DIMASZ
 40
2.5
  9
$DIMEXO
 40
0.625
  9
$DIMDLI
 40
3.75
  9
$DIMRND
 40
0.0
  9
$DIMDLE
 40
0.0
  9
$DIMEXE
 40
1.25
  9
$DIMTP
 40
0.0
  9
$DIMTM
 40
0.0
  9
$DIMTXT
 40
2.5
  9
$DIMCEN
 40
2.5
  9
$DIMTSZ
 40
0.0
  9
$DIMTOL
 70
     0
  9
$DIMLIM
 70
     0
  9
$DIMTIH
 70
     0
  9
$DIMTOH
 70
     0
  9
$DIMSE1
 70
     0
  9
$DIMSE2
 70
     0
  9
$DIMTAD
 70
     1
  9
$DIMZIN
 70
     8
  9
$DIMBLK
  1

  9
$DIMASO
 70
     1
  9
$DIMSHO
 70
     1
  9
$DIMPOST
  1

  9
$DIMAPOST
  1

  9
$DIMALT
 70
     0
  9
$DIMALTD
 70
     3
  9
$DIMALTF
 40
0.03937007874016
  9
$DIMLFAC
 40
1.0
  9
$DIMTOFL
 70
     1
  9
$DIMTVP
 40
0.0
  9
$DIMTIX
 70
     0
  9
$DIMSOXD
 70
     0
  9
$DIMSAH
 70
     0
  9
$DIMBLK1
  1

  9
$DIMBLK2
  1

  9
$DIMSTYLE
  2
ISO-25
  9
$DIMCLRD
 70
     0
  9
$DIMCLRE
 70
     0
  9
$DIMCLRT
 70
     0
  9
$DIMTFAC
 40
1.0
  9
$DIMGAP
 40
0.625
  9
$DIMJUST
 70
     0
  9
$DIMSD1
 70
     0
  9
$DIMSD2
 70
     0
  9
$DIMTOLJ
 70
     0
  9
$DIMTZIN
 70
     8
  9
$DIMALTZ
 70
     0
  9
$DIMALTTZ
 70
     0
  9
$DIMUPT
 70
     0
  9
$DIMDEC
 70
     2
  9
$DIMTDEC
 70
     2
  9
$DIMALTU
 70
     2
  9
$DIMALTTD
 70
     3
  9
$DIMTXSTY
  7
Standard
  9
$DIMAUNIT
 70
     0
  9
$DIMADEC
 70
     0
  9
$DIMALTRND
 40
0.0
  9
$DIMAZIN
 70
     0
  9
$DIMDSEP
 70
    44
  9
$DIMATFIT
 70
     3
  9
$DIMFRAC
 70
     0
  9
$DIMLDRBLK
  1

  9
$DIMLUNIT
 70
     2
  9
$DIMLWD
 70
    -2
  9
$DIMLWE
 70
    -2
  9
$DIMTMOVE
 70
     0
  9
$LUNITS
 70
     2
  9
$LUPREC
 70
     4
  9
$SKETCHINC
 40
1.0
  9
$FILLETRAD
 40
10.0
  9
$AUNITS
 70
     0
  9
$AUPREC
 70
     0
  9
$MENU
  1
.
  9
$ELEVATION
 40
0.0
  9
$PELEVATION
 40
0.0
  9
$THICKNESS
 40
0.0
  9
$LIMCHECK
 70
     0
  9
$CHAMFERA
 40
10.0
  9
$CHAMFERB
 40
10.0
  9
$CHAMFERC
 40
20.0
  9
$CHAMFERD
 40
0.0
  9
$SKPOLY
 70
     0
  9
$TDCREATE
 40
2456499.58637434
  9
$TDUCREATE
 40
2456499.21137434
  9
$TDUPDATE
 40
2456499.586374352
  9
$TDUUPDATE
 40
2456499.211374352
  9
$TDINDWG
 40
0.0000000116
  9
$TDUSRTIMER
 40
0.0000000116
  9
$USRTIMER
 70
     1
  9
$ANGBASE
 50
0.0
  9
$ANGDIR
 70
     0
  9
$PDMODE
 70
     0
  9
$PDSIZE
 40
0.0
  9
$PLINEWID
 40
0.0
  9
$SPLFRAME
 70
     0
  9
$SPLINETYPE
 70
     6
  9
$SPLINESEGS
 70
     8
  9
$HANDSEED
  5
235
  9
$SURFTAB1
 70
     6
  9
$SURFTAB2
 70
     6
  9
$SURFTYPE
 70
     6
  9
$SURFU
 70
     6
  9
$SURFV
 70
     6
  9
$UCSBASE
  2

  9
$UCSNAME
  2

  9
$UCSORG
 10
0.0
 20
0.0
 30
0.0
  9
$UCSXDIR
 10
1.0
 20
0.0
 30
0.0
  9
$UCSYDIR
 10
0.0
 20
1.0
 30
0.0
  9
$UCSORTHOREF
  2

  9
$UCSORTHOVIEW
 70
     0
  9
$UCSORGTOP
 10
0.0
 20
0.0
 30
0.0
  9
$UCSORGBOTTOM
 10
0.0
 20
0.0
 30
0.0
  9
$UCSORGLEFT
 10
0.0
 20
0.0
 30
0.0
  9
$UCSORGRIGHT
 10
0.0
 20
0.0
 30
0.0
  9
$UCSORGFRONT
 10
0.0
 20
0.0
 30
0.0
  9
$UCSORGBACK
 10
0.0
 20
0.0
 30
0.0
  9
$PUCSBASE
  2

  9
$PUCSNAME
  2

  9
$PUCSORG
 10
0.0
 20
0.0
 30
0.0
  9
$PUCSXDIR
 10
1.0
 20
0.0
 30
0.0
  9
$PUCSYDIR
 10
0.0
 20
1.0
 30
0.0
  9
$PUCSORTHOREF
  2

  9
$PUCSORTHOVIEW
 70
     0
  9
$PUCSORGTOP
 10
0.0
 20
0.0
 30
0.0
  9
$PUCSORGBOTTOM
 10
0.0
 20
0.0
 30
0.0
  9
$PUCSORGLEFT
 10
0.0
 20
0.0
 30
0.0
  9
$PUCSORGRIGHT
 10
0.0
 20
0.0
 30
0.0
  9
$PUCSORGFRONT
 10
0.0
 20
0.0
 30
0.0
  9
$PUCSORGBACK
 10
0.0
 20
0.0
 30
0.0
  9
$USERI1
 70
     0
  9
$USERI2
 70
     0
  9
$USERI3
 70
     0
  9
$USERI4
 70
     0
  9
$USERI5
 70
     0
  9
$USERR1
 40
0.0
  9
$USERR2
 40
0.0
  9
$USERR3
 40
0.0
  9
$USERR4
 40
0.0
  9
$USERR5
 40
0.0
  9
$WORLDVIEW
 70
     1
  9
$SHADEDGE
 70
     3
  9
$SHADEDIF
 70
    70
  9
$TILEMODE
 70
     1
  9
$MAXACTVP
 70
    64
  9
$PINSBASE
 10
0.0
 20
0.0
 30
0.0
  9
$PLIMCHECK
 70
     0
  9
$PEXTMIN
 10
1.000000000000000E+20
 20
1.000000000000000E+20
 30
1.000000000000000E+20
  9
$PEXTMAX
 10
-1.000000000000000E+20
 20
-1.000000000000000E+20
 30
-1.000000000000000E+20
  9
$PLIMMIN
 10
0.0
 20
0.0
  9
$PLIMMAX
 10
420.0
 20
297.0
  9
$UNITMODE
 70
     0
  9
$VISRETAIN
 70
     1
  9
$PLINEGEN
 70
     0
  9
$PSLTSCALE
 70
     1
  9
$TREEDEPTH
 70
  3020
  9
$CMLSTYLE
  2
Standard
  9
$CMLJUST
 70
     0
  9
$CMLSCALE
 40
20.0
  9
$PROXYGRAPHICS
 70
     1
  9
$MEASUREMENT
 70
     1
  9
$CELWEIGHT
370
    -1
  9
$ENDCAPS
280
     0
  9
$JOINSTYLE
280
     0
  9
$LWDISPLAY
290
     0
  9
$INSUNITS
 70
     4
  9
$HYPERLINKBASE
  1

  9
$STYLESHEET
  1

  9
$XEDIT
290
     1
  9
$CEPSNTYPE
380
     0
  9
$PSTYLEMODE
290
     1
  9
$FINGERPRINTGUID
  2
{1D459E6E-5CEB-47F2-A90F-1EE3DD6D2192}
  9
$VERSIONGUID
  2
{FAEB1C32-E019-11D5-929B-00C0DF256EC4}
  9
$EXTNAMES
290
     1
  9
$PSVPSCALE
 40
0.0
  9
$OLESTARTUP
290
     0
  9
$SORTENTS
280
   127
  9
$INDEXCTL
280
     0
  9
$HIDETEXT
280
     1
  9
$XCLIPFRAME
290
     0
  9
$HALOGAP
280
     0
  9
$OBSCOLOR
 70
   257
  9
$OBSLTYPE
280
     0
  9
$INTERSECTIONDISPLAY
280
     0
  9
$INTERSECTIONCOLOR
 70
   257
  9
$DIMASSOC
280
     2
  9
$PROJECTNAME
  1

  0
ENDSEC
  0
SECTION
  2
CLASSES
  0
CLASS
  1
ACDBDICTIONARYWDFLT
  2
AcDbDictionaryWithDefault
  3
ObjectDBX Classes
 90
        0
 91
        4
280
     0
281
     0
  0
CLASS
  1
VISUALSTYLE
  2
AcDbVisualStyle
  3
ObjectDBX Classes
 90
     4095
 91
        4
280
     0
281
     0
  0
ENDSEC
  0
SECTION
  2
TABLES
  0
TABLE
  2
VPORT
  5
8
330
0
100
AcDbSymbolTable
 70
     1
  0
VPORT
  5
29
330
8
100
AcDbSymbolTableRecord
100
AcDbViewportTableRecord
  2
*Active
 70
     0
 10
0.0
 20
0.0
 11
1.0
 21
1.0
 12
0.0
 22
0.0
 13
0.0
 23
0.0
 14
10.0
 24
10.0
 15
10.0
 25
10.0
 16
0.0
 26
0.0
 36
1.0
 17
0.0
 27
0.0
 37
0.0
 40
3267.0
 41
1.414141414141414
 42
50.0
 43
0.0
 44
0.0
 50
0.0
 51
0.0
 71
     0
 72
 10000
 73
     1
 74
     3
 75
     0
 76
     0
 77
     0
 78
     0
281
     0
 65
     1
110
0.0
120
0.0
130
0.0
111
1.0
121
0.0
131
0.0
112
0.0
122
1.0
132
0.0
 79
     0
146
0.0
  0
ENDTAB
  0
TABLE
  2
LTYPE
  5
5
330
0
100
AcDbSymbolTable
 70
     4
  0
LTYPE
  5
14
330
5
100
AcDbSymbolTableRecord
100
AcDbLinetypeTableRecord
  2
ByBlock
 70
     0
  3

 72
    65
 73
     0
 40
0.0
  0
LTYPE
  5
15
330
5
100
AcDbSymbolTableRecord
100
AcDbLinetypeTableRecord
  2
ByLayer
 70
     0
  3

 72
    65
 73
     0
 40
0.0
  0
LTYPE
  5
16
330
5
100
AcDbSymbolTableRecord
100
AcDbLinetypeTableRecord
  2
Continuous
 70
     0
  3
Solid line
 72
    65
 73
     0
 40
0.0
  0
LTYPE
  5
3C
330
5
100
AcDbSymbolTableRecord
100
AcDbLinetypeTableRecord
  2
JWW_DASHED3
 70
     0
  3
---  ------  ------  ------  ---
 72
    65
 73
     2
 40
3.386666666666667
 49
2.54
 74
     0
 49
-0.8466666666666667
 74
     0
  0
LTYPE
  5
3D
330
5
100
AcDbSymbolTableRecord
100
AcDbLinetypeTableRecord
  2
JWW_CENTER2
 70
     0
  3
-------------  --  -------------
 72
    65
 73
     4
 40
13.54666666666667
 49
11.00666666666667
 74
     0
 49
-0.8466666666666667
 74
     0
 49
0.8466666666666667
 74
     0
 49
-0.8466666666666667
 74
     0
  0
LTYPE
  5
3E
330
5
100
AcDbSymbolTableRecord
100
AcDbLinetypeTableRecord
  2
JWW_CENTER1
 70
     0
  3
-----  --  ----------  --  -----
 72
    65
 73
     4
 40
6.773333333333333
 49
4.233333333333333
 74
     0
 49
-0.8466666666666667
 74
     0
 49
0.8466666666666667
 74
     0
 49
-0.8466666666666667
 74
     0
  0
ENDTAB
  0
TABLE
  2
LAYER
  5
2
330
0
100
AcDbSymbolTable
 70
    16
  0
LAYER
  5
10
330
2
100
AcDbSymbolTableRecord
100
AcDbLayerTableRecord
  2
0
 70
     0
 62
     7
  6
Continuous
370
    -3
390
F
  0
LAYER
  5
3F
330
2
100
AcDbSymbolTableRecord
100
AcDbLayerTableRecord
  2
D-A
 70
     0
 62
     7
  6
Continuous
370
    -3
390
F
  0
LAYER
  5
40
330
2
100
AcDbSymbolTableRecord
100
AcDbLayerTableRecord
  2
D-4
 70
     0
 62
     7
  6
Continuous
370
    -3
390
F
  0
LAYER
  5
41
330
2
100
AcDbSymbolTableRecord
100
AcDbLayerTableRecord
  2
D-5
 70
     0
 62
     7
  6
Continuous
370
    -3
390
F
  0
LAYER
  5
42
330
2
100
AcDbSymbolTableRecord
100
AcDbLayerTableRecord
  2
D-6
 70
     0
 62
     7
  6
Continuous
370
    -3
390
F
  0
LAYER
  5
43
330
2
100
AcDbSymbolTableRecord
100
AcDbLayerTableRecord
  2
D-9
 70
     0
 62
     7
  6
Continuous
370
    -3
390
F
  0
LAYER
  5
44
330
2
100
AcDbSymbolTableRecord
100
AcDbLayerTableRecord
  2
D-1
 70
     0
 62
     7
  6
Continuous
370
    -3
390
F
  0
LAYER
  5
45
330
2
100
AcDbSymbolTableRecord
100
AcDbLayerTableRecord
  2
D-2
 70
     0
 62
     7
  6
Continuous
370
    -3
390
F
  0
LAYER
  5
46
330
2
100
AcDbSymbolTableRecord
100
AcDbLayerTableRecord
  2
C-2
 70
     0
 62
     7
  6
Continuous
370
    -3
390
F
  0
LAYER
  5
47
330
2
100
AcDbSymbolTableRecord
100
AcDbLayerTableRecord
  2
C-1
 70
     0
 62
     7
  6
Continuous
370
    -3
390
F
  0
LAYER
  5
48
330
2
100
AcDbSymbolTableRecord
100
AcDbLayerTableRecord
  2
C-A
 70
     0
 62
     7
  6
Continuous
370
    -3
390
F
  0
LAYER
  5
49
330
2
100
AcDbSymbolTableRecord
100
AcDbLayerTableRecord
  2
C-4
 70
     0
 62
     7
  6
Continuous
370
    -3
390
F
  0
LAYER
  5
4A
330
2
100
AcDbSymbolTableRecord
100
AcDbLayerTableRecord
  2
C-5
 70
     0
 62
     7
  6
Continuous
370
    -3
390
F
  0
LAYER
  5
4B
330
2
100
AcDbSymbolTableRecord
100
AcDbLayerTableRecord
  2
C-0
 70
     0
 62
     7
  6
Continuous
370
    -3
390
F
  0
LAYER
  5
4C
330
2
100
AcDbSymbolTableRecord
100
AcDbLayerTableRecord
  2
C-3
 70
     0
 62
     7
  6
Continuous
370
    -3
390
F
  0
LAYER
  5
4D
330
2
100
AcDbSymbolTableRecord
100
AcDbLayerTableRecord
  2
F-4
 70
     0
 62
     7
  6
Continuous
370
    -3
390
F
  0
ENDTAB
  0
TABLE
  2
STYLE
  5
3
330
0
100
AcDbSymbolTable
 70
     2
  0
STYLE
  5
11
330
3
100
AcDbSymbolTableRecord
100
AcDbTextStyleTableRecord
  2
Standard
 70
     0
 40
0.0
 41
1.0
 50
0.0
 71
     0
 42
2.5
  3
txt
  4

1001
ACAD
1000

1071
        0
  0
STYLE
  5
3B
330
3
100
AcDbSymbolTableRecord
100
AcDbTextStyleTableRecord
  2
ＭＳ ゴシック
 70
     0
 40
1.0
 41
1.0
 50
0.0
 71
     0
 42
10.0
  3

  4

1001
ACAD
1000
MS Gothic
1071
    32817
  0
ENDTAB
  0
TABLE
  2
VIEW
  5
6
330
0
100
AcDbSymbolTable
 70
     0
  0
ENDTAB
  0
TABLE
  2
UCS
  5
7
330
0
100
AcDbSymbolTable
 70
     0
  0
ENDTAB
  0
TABLE
  2
APPID
  5
9
330
0
100
AcDbSymbolTable
 70
     1
  0
APPID
  5
12
330
9
100
AcDbSymbolTableRecord
100
AcDbRegAppTableRecord
  2
ACAD
 70
     0
  0
ENDTAB
  0
TABLE
  2
DIMSTYLE
  5
A
330
0
100
AcDbSymbolTable
 70
     1
100
AcDbDimStyleTable
  0
DIMSTYLE
105
27
330
A
100
AcDbSymbolTableRecord
100
AcDbDimStyleTableRecord
  2
ISO-25
 70
     0
 41
2.5
 42
0.625
 43
3.75
 44
1.25
 73
     0
 74
     0
 77
     1
 78
     8
140
2.5
141
2.5
143
0.03937007874016
147
0.625
171
     3
172
     1
271
     2
272
     2
274
     3
278
    44
283
     0
284
     8
340
11
  0
ENDTAB
  0
TABLE
  2
BLOCK_RECORD
  5
1
330
0
100
AcDbSymbolTable
 70
     1
  0
BLOCK_RECORD
  5
1F
330
1
100
AcDbSymbolTableRecord
100
AcDbBlockTableRecord
  2
*Model_Space
340
22
  0
BLOCK_RECORD
  5
1B
330
1
100
AcDbSymbolTableRecord
100
AcDbBlockTableRecord
  2
*Paper_Space
340
1E
  0
BLOCK_RECORD
  5
23
330
1
100
AcDbSymbolTableRecord
100
AcDbBlockTableRecord
  2
*Paper_Space0
340
26
  0
ENDTAB
  0
ENDSEC
  0
SECTION
  2
BLOCKS
  0
BLOCK
  5
20
330
1F
100
AcDbEntity
  8
0
100
AcDbBlockBegin
  2
*Model_Space
 70
     0
 10
0.0
 20
0.0
 30
0.0
  3
*Model_Space
  1

  0
ENDBLK
  5
21
330
1F
100
AcDbEntity
  8
0
100
AcDbBlockEnd
  0
BLOCK
  5
1C
330
1B
100
AcDbEntity
 67
     1
  8
0
100
AcDbBlockBegin
  2
*Paper_Space
 70
     0
 10
0.0
 20
0.0
 30
0.0
  3
*Paper_Space
  1

  0
ENDBLK
  5
1D
330
1B
100
AcDbEntity
 67
     1
  8
0
100
AcDbBlockEnd
  0
BLOCK
  5
24
330
23
100
AcDbEntity
  8
0
100
AcDbBlockBegin
  2
*Paper_Space0
 70
     0
 10
0.0
 20
0.0
 30
0.0
  3
*Paper_Space0
  1

  0
ENDBLK
  5
25
330
23
100
AcDbEntity
  8
0
100
AcDbBlockEnd
  0
ENDSEC
  0
SECTION
  2
ENTITIES
  0
LINE
  5
4E
330
1F
100
AcDbEntity
  8
D-A
  6
JWW_DASHED3
 62
     3
370
    13
100
AcDbLine
 10
-456.6845597447571
 20
-363.2467816327069
 30
0.0
 11
-456.6845597447571
 21
-313.2468641126478
 31
0.0
  0
LINE
  5
4F
330
1F
100
AcDbEntity
  8
D-A
  6
Continuous
 62
     3
370
    13
100
AcDbLine
 10
-431.6848484245503
 20
-338.2469465925886
 30
0.0
 11
-431.6848484245503
 21
-322.7469449429898
 31
0.0
  0
LINE
  5
50
330
1F
100
AcDbEntity
  8
D-A
  6
Continuous
 62
     3
370
    13
100
AcDbLine
 10
-456.6845597447571
 20
-313.2468641126478
 30
0.0
 11
-456.6845597447571
 21
-283.247260016364
 31
0.0
  0
LINE
  5
51
330
1F
100
AcDbEntity
  8
D-A
  6
Continuous
 62
     3
370
    13
100
AcDbLine
 10
-306.6846834646685
 20
-401.7475519953547
 30
0.0
 11
-431.6848484245503
 21
-401.7475519953547
 31
0.0
  0
LINE
  5
52
330
1F
100
AcDbEntity
  8
D-A
  6
Continuous
 62
     3
370
    13
100
AcDbLine
 10
-434.6139173249938
 20
-385.3174240524704
 30
0.0
 11
-456.6845597447571
 21
-363.2467816327069
 31
0.0
  0
LINE
  5
53
330
1F
100
AcDbEntity
  8
D-A
  6
Continuous
 62
     3
370
    13
100
AcDbLine
 10
-431.6848484245503
 20
-413.2473177523225
 30
0.0
 11
-431.6848484245503
 21
-392.3888830236485
 31
0.0
  0
LINE
  5
54
330
1F
100
AcDbEntity
  8
D-A
  6
Continuous
 62
     3
370
    13
100
AcDbLine
 10
-306.6846834646685
 20
-413.2473177523225
 30
0.0
 11
-431.6848484245503
 21
-413.2473177523225
 31
0.0
  0
LINE
  5
55
330
1F
100
AcDbEntity
  8
D-A
  6
Continuous
 62
     3
370
    13
100
AcDbLine
 10
-306.6846834646685
 20
-373.2469383445945
 30
0.0
 11
-306.6846834646685
 21
-413.2473177523225
 31
0.0
  0
LINE
  5
56
330
1F
100
AcDbEntity
  8
D-A
  6
Continuous
 62
     3
370
    13
100
AcDbLine
 10
-396.3295330872404
 20
-363.2467816327069
 30
0.0
 11
-316.6849638964675
 21
-363.2467816327069
 31
0.0
  0
LINE
  5
57
330
1F
100
AcDbEntity
  8
D-A
  6
Continuous
 62
     3
370
    13
100
AcDbLine
 10
-456.6845597447571
 20
-313.2468641126478
 30
0.0
 11
-414.0073763357623
 21
-355.9250372809332
 31
0.0
  0
LINE
  5
58
330
1F
100
AcDbEntity
  8
D-A
  6
Continuous
 62
     3
370
    13
100
AcDbLine
 10
-468.1848203813703
 20
-283.247260016364
 30
0.0
 11
-468.1848203813703
 21
-395.7473837362753
 31
0.0
  0
LINE
  5
59
330
1F
100
AcDbEntity
  8
D-A
  6
JWW_CENTER2
 62
     3
370
    13
100
AcDbLine
 10
-413.6897873234099
 20
-340.7469548405827
 30
0.0
 11
-474.1082822954328
 21
-340.7469548405827
 31
0.0
  0
LINE
  5
5A
330
1F
100
AcDbEntity
  8
D-A
  6
JWW_DASHED3
 62
     3
370
    13
100
AcDbLine
 10
-431.6848484245503
 20
-358.746717298353
 30
0.0
 11
-431.6848484245503
 21
-338.2469465925886
 31
0.0
  0
LINE
  5
5B
330
1F
100
AcDbEntity
  8
D-A
  6
Continuous
 62
     3
370
    13
100
AcDbLine
 10
-470.4347906885917
 20
-330.746798128695
 30
0.0
 11
-471.6844855128105
 21
-331.9972352723817
 31
0.0
  0
LINE
  5
5C
330
1F
100
AcDbEntity
  8
D-A
  6
Continuous
 62
     3
370
    13
100
AcDbLine
 10
-470.4347906885917
 20
-350.7464929529138
 30
0.0
 11
-471.6844855128105
 21
-349.4971692884291
 31
0.0
  0
LINE
  5
5D
330
1F
100
AcDbEntity
  8
D-A
  6
JWW_DASHED3
 62
     3
370
    13
100
AcDbLine
 10
-470.4347906885917
 20
-330.746798128695
 30
0.0
 11
-470.4347906885917
 21
-350.7464929529138
 31
0.0
  0
LINE
  5
5E
330
1F
100
AcDbEntity
  8
D-A
  6
Continuous
 62
     3
370
    13
100
AcDbLine
 10
-468.1848203813703
 20
-331.9972352723817
 30
0.0
 11
-471.6844855128105
 21
-331.9972352723817
 31
0.0
  0
LINE
  5
5F
330
1F
100
AcDbEntity
  8
D-A
  6
Continuous
 62
     3
370
    13
100
AcDbLine
 10
-468.1848203813703
 20
-330.746798128695
 30
0.0
 11
-470.4347906885917
 21
-330.746798128695
 31
0.0
  0
LINE
  5
60
330
1F
100
AcDbEntity
  8
D-A
  6
Continuous
 62
     3
370
    13
100
AcDbLine
 10
-468.1848203813703
 20
-349.4971692884291
 30
0.0
 11
-471.6844855128105
 21
-349.4971692884291
 31
0.0
  0
LINE
  5
61
330
1F
100
AcDbEntity
  8
D-A
  6
Continuous
 62
     3
370
    13
100
AcDbLine
 10
-468.1848203813703
 20
-350.7464929529138
 30
0.0
 11
-470.4347906885917
 21
-350.7464929529138
 31
0.0
  0
LINE
  5
62
330
1F
100
AcDbEntity
  8
D-A
  6
JWW_DASHED3
 62
     3
370
    13
100
AcDbLine
 10
-431.6848484245503
 20
-350.7464929529138
 30
0.0
 11
-468.1848203813703
 21
-350.7464929529138
 31
0.0
  0
LINE
  5
63
330
1F
100
AcDbEntity
  8
D-A
  6
JWW_DASHED3
 62
     3
370
    13
100
AcDbLine
 10
-431.6848484245503
 20
-349.4971692884291
 30
0.0
 11
-468.1848203813703
 21
-349.4971692884291
 31
0.0
  0
LINE
  5
64
330
1F
100
AcDbEntity
  8
D-A
  6
JWW_DASHED3
 62
     3
370
    13
100
AcDbLine
 10
-425.1846042839253
 20
-358.746717298353
 30
0.0
 11
-431.6848484245503
 21
-358.746717298353
 31
0.0
  0
LINE
  5
65
330
1F
100
AcDbEntity
  8
D-A
  6
Continuous
 62
     3
370
    13
100
AcDbLine
 10
-425.1846042839253
 20
-322.7469449429898
 30
0.0
 11
-431.6848484245503
 21
-322.7469449429898
 31
0.0
  0
LINE
  5
66
330
1F
100
AcDbEntity
  8
D-A
  6
Continuous
 62
     3
370
    13
100
AcDbLine
 10
-418.6847313030341
 20
-329.2469416437922
 30
0.0
 11
-418.6847313030341
 21
-351.24755859375
 31
0.0
  0
LINE
  5
67
330
1F
100
AcDbEntity
  8
D-A
  6
JWW_DASHED3
 62
     3
370
    13
100
AcDbLine
 10
-418.6847313030341
 20
-352.2470917572846
 30
0.0
 11
-418.6847313030341
 21
-351.24755859375
 31
0.0
  0
LINE
  5
68
330
1F
100
AcDbEntity
  8
D-A
  6
Continuous
 62
     3
370
    13
100
AcDbLine
 10
-431.6848484245503
 20
-330.746798128695
 30
0.0
 11
-439.1851206083552
 21
-330.746798128695
 31
0.0
  0
LINE
  5
69
330
1F
100
AcDbEntity
  8
D-A
  6
Continuous
 62
     3
370
    13
100
AcDbLine
 10
-431.6848484245503
 20
-331.9972352723817
 30
0.0
 11
-437.9350546244024
 21
-331.9972352723817
 31
0.0
  0
LINE
  5
6A
330
1F
100
AcDbEntity
  8
D-A
  6
JWW_DASHED3
 62
     3
370
    13
100
AcDbLine
 10
-439.1851206083552
 20
-330.746798128695
 30
0.0
 11
-468.1848203813703
 21
-330.746798128695
 31
0.0
  0
LINE
  5
6B
330
1F
100
AcDbEntity
  8
D-A
  6
JWW_DASHED3
 62
     3
370
    13
100
AcDbLine
 10
-468.1848203813703
 20
-331.9972352723817
 30
0.0
 11
-437.9350546244024
 21
-331.9972352723817
 31
0.0
  0
LINE
  5
6C
330
1F
100
AcDbEntity
  8
D-4
  6
Continuous
 62
     7
370
    13
100
AcDbLine
 10
-1179.352975536037
 20
-157.3274849556586
 30
0.0
 11
-606.685302064225
 21
-157.3274849556586
 31
0.0
  0
LINE
  5
6D
330
1F
100
AcDbEntity
  8
D-4
  6
Continuous
 62
     7
370
    13
100
AcDbLine
 10
-606.685302064225
 20
-262.791286159206
 30
0.0
 11
-606.685302064225
 21
-154.3270296663852
 31
0.0
  0
LINE
  5
6E
330
1F
100
AcDbEntity
  8
D-4
  6
Continuous
 62
     7
370
    13
100
AcDbLine
 10
-606.685302064225
 20
-157.3274849556586
 30
0.0
 11
-481.6845185047868
 21
-157.3274849556586
 31
0.0
  0
LINE
  5
6F
330
1F
100
AcDbEntity
  8
D-4
  6
Continuous
 62
     7
370
    13
100
AcDbLine
 10
-481.6845185047868
 20
-262.791286159206
 30
0.0
 11
-481.6845185047868
 21
-45.57549553948462
 31
0.0
  0
LINE
  5
70
330
1F
100
AcDbEntity
  8
D-4
  6
Continuous
 62
     7
370
    13
100
AcDbLine
 10
-476.6842545689758
 20
-262.791286159206
 30
0.0
 11
-476.6842545689758
 21
-45.57549553948462
 31
0.0
  0
LINE
  5
71
330
1F
100
AcDbEntity
  8
D-4
  6
Continuous
 62
     7
370
    13
100
AcDbLine
 10
-451.6854092881482
 20
-262.791286159206
 30
0.0
 11
-451.6854092881482
 21
65.12091559332788
 31
0.0
  0
LINE
  5
72
330
1F
100
AcDbEntity
  8
D-5
  6
Continuous
 62
     7
370
    13
100
AcDbLine
 10
-357.1616649627683
 20
-115.335709855363
 30
0.0
 11
-97.7785406885917
 21
-115.335709855363
 31
0.0
  0
LINE
  5
73
330
1F
100
AcDbEntity
  8
D-4
  6
Continuous
 62
     7
370
    13
100
AcDbLine
 10
-206.6838586652597
 20
-598.1202491554053
 30
0.0
 11
-206.6838586652597
 21
-841.3299643026814
 31
0.0
  0
LINE
  5
74
330
1F
100
AcDbEntity
  8
D-4
  6
Continuous
 62
     7
370
    13
100
AcDbLine
 10
-606.6848071845798
 20
-683.86569461307
 30
0.0
 11
-456.6845597447571
 21
-683.86569461307
 31
0.0
  0
LINE
  5
75
330
1F
100
AcDbEntity
  8
D-4
  6
Continuous
 62
     7
370
    13
100
AcDbLine
 10
65.00011779166613
 20
-528.247078560494
 30
0.0
 11
65.00011779166613
 21
-278.2468723606418
 31
0.0
  0
LINE
  5
76
330
1F
100
AcDbEntity
  8
D-6
  6
Continuous
 62
     6
370
    13
100
AcDbLine
 10
-456.6845597447571
 20
-528.247078560494
 30
0.0
 11
-456.6845597447571
 21
-778.246789880701
 31
0.0
  0
LINE
  5
77
330
1F
100
AcDbEntity
  8
D-6
  6
JWW_DASHED3
 62
     6
370
    13
100
AcDbLine
 10
-363.1836079262393
 20
-655.7470043285473
 30
0.0
 11
-363.1836079262393
 21
-528.247078560494
 31
0.0
  0
LINE
  5
78
330
1F
100
AcDbEntity
  8
D-6
  6
JWW_DASHED3
 62
     6
370
    13
100
AcDbLine
 10
-318.1834594623459
 20
-528.247078560494
 30
0.0
 11
-318.1834594623459
 21
-655.7470043285473
 31
0.0
  0
LINE
  5
79
330
1F
100
AcDbEntity
  8
D-6
  6
Continuous
 62
     6
370
    13
100
AcDbLine
 10
-206.6849721444615
 20
-428.2472435203758
 30
0.0
 11
-41.68380917729507
 21
-428.2472435203758
 31
0.0
  0
LINE
  5
7A
330
1F
100
AcDbEntity
  8
D-6
  6
Continuous
 62
     6
370
    13
100
AcDbLine
 10
-441.6848814165266
 20
-773.3962270375844
 30
0.0
 11
-96.53379466082555
 21
-428.2472435203758
 31
0.0
  0
LINE
  5
7B
330
1F
100
AcDbEntity
  8
D-6
  6
Continuous
 62
     6
370
    13
100
AcDbLine
 10
-441.6848814165266
 20
-766.323902027027
 30
0.0
 11
-103.6080991899641
 21
-428.2472435203758
 31
0.0
  0
LINE
  5
7C
330
1F
100
AcDbEntity
  8
D-6
  6
Continuous
 62
     6
370
    13
100
AcDbLine
 10
-441.6848814165266
 20
-759.2555360536318
 30
0.0
 11
-210.6750630043643
 21
-528.247078560494
 31
0.0
  0
LINE
  5
7D
330
1F
100
AcDbEntity
  8
D-6
  6
Continuous
 62
     6
370
    13
100
AcDbLine
 10
-206.6849721444615
 20
-428.2472435203758
 30
0.0
 11
-206.6849721444615
 21
-528.247078560494
 31
0.0
  0
LINE
  5
7E
330
1F
100
AcDbEntity
  8
D-6
  6
Continuous
 62
     6
370
    13
100
AcDbLine
 10
-206.6849721444615
 20
-524.2568639806798
 30
0.0
 11
-110.6746093646896
 21
-428.2472435203758
 31
0.0
  0
LINE
  5
7F
330
1F
100
AcDbEntity
  8
D-4
  6
Continuous
 62
     7
370
    13
100
AcDbLine
 10
-150.9059738468474
 20
-528.247078560494
 30
0.0
 11
68.00057308093955
 21
-528.247078560494
 31
0.0
  0
LINE
  5
80
330
1F
100
AcDbEntity
  8
D-6
  6
Continuous
 62
     6
370
    13
100
AcDbLine
 10
-456.6845597447571
 20
-528.247078560494
 30
0.0
 11
-206.6849721444615
 21
-528.247078560494
 31
0.0
  0
LINE
  5
81
330
1F
100
AcDbEntity
  8
D-6
  6
Continuous
 62
     6
370
    13
100
AcDbLine
 10
-363.1836079262393
 20
-330.7471692884291
 30
0.0
 11
-318.1834594623459
 21
-330.7471692884291
 31
0.0
  0
LINE
  5
82
330
1F
100
AcDbEntity
  8
D-6
  6
JWW_CENTER2
 62
     6
370
    13
100
AcDbLine
 10
-340.6835336942927
 20
-326.6673814928208
 30
0.0
 11
-340.6835336942927
 21
-655.7470043285473
 31
0.0
  0
LINE
  5
83
330
1F
100
AcDbEntity
  8
D-4
  6
Continuous
 62
     7
370
    13
100
AcDbLine
 10
-451.6847906885917
 20
-468.7777627480996
 30
0.0
 11
-301.6842958089464
 21
-468.7777627480996
 31
0.0
  0
LINE
  5
84
330
1F
100
AcDbEntity
  8
D-4
  6
Continuous
 62
     7
370
    13
100
AcDbLine
 10
-451.6847906885917
 20
-416.2144923854518
 30
0.0
 11
-451.6847906885917
 21
-471.7779705975506
 31
0.0
  0
LINE
  5
85
330
1F
100
AcDbEntity
  8
D-4
  6
Continuous
 62
     7
370
    13
100
AcDbLine
 10
-306.6846834646685
 20
-416.2144923854518
 30
0.0
 11
-306.6846834646685
 21
-471.7779705975506
 31
0.0
  0
LINE
  5
86
330
1F
100
AcDbEntity
  8
D-4
  6
Continuous
 62
     7
370
    13
100
AcDbLine
 10
-294.8585445816448
 20
-413.2473177523225
 30
0.0
 11
-215.6346230893519
 21
-413.2473177523225
 31
0.0
  0
LINE
  5
87
330
1F
100
AcDbEntity
  8
D-4
  6
Continuous
 62
     7
370
    13
100
AcDbLine
 10
-294.8585445816448
 20
-363.2467816327069
 30
0.0
 11
-215.6346230893519
 21
-363.2467816327069
 31
0.0
  0
LINE
  5
88
330
1F
100
AcDbEntity
  8
D-4
  6
Continuous
 62
     7
370
    13
100
AcDbLine
 10
-218.6347072188914
 20
-363.2467816327069
 30
0.0
 11
-218.6347072188914
 21
-278.2468723606418
 31
0.0
  0
LINE
  5
89
330
1F
100
AcDbEntity
  8
D-6
  6
Continuous
 62
     6
370
    13
100
AcDbLine
 10
-363.1836079262393
 20
-528.247078560494
 30
0.0
 11
-363.1836079262393
 21
-413.2473177523225
 31
0.0
  0
LINE
  5
8A
330
1F
100
AcDbEntity
  8
D-6
  6
Continuous
 62
     6
370
    13
100
AcDbLine
 10
-318.1834594623459
 20
-528.247078560494
 30
0.0
 11
-318.1834594623459
 21
-413.2473177523225
 31
0.0
  0
LINE
  5
8B
330
1F
100
AcDbEntity
  8
D-6
  6
Continuous
 62
     6
370
    13
100
AcDbLine
 10
-363.1836079262393
 20
-363.2467816327069
 30
0.0
 11
-363.1836079262393
 21
-330.7471692884291
 31
0.0
  0
LINE
  5
8C
330
1F
100
AcDbEntity
  8
D-6
  6
Continuous
 62
     6
370
    13
100
AcDbLine
 10
-318.1834594623459
 20
-363.2467816327069
 30
0.0
 11
-318.1834594623459
 21
-330.7471692884291
 31
0.0
  0
LINE
  5
8D
330
1F
100
AcDbEntity
  8
D-4
  6
Continuous
 62
     7
370
    13
100
AcDbLine
 10
-752.1677932223754
 20
-403.2471610404349
 30
0.0
 11
-752.1677932223754
 21
-278.2468723606418
 31
0.0
  0
LINE
  5
8E
330
1F
100
AcDbEntity
  8
D-4
  6
Continuous
 62
     7
370
    13
100
AcDbLine
 10
-479.8294621544912
 20
-403.2471610404349
 30
0.0
 11
-755.1677536320038
 21
-403.2471610404349
 31
0.0
  0
LINE
  5
8F
330
1F
100
AcDbEntity
  8
D-4
  6
Continuous
 62
     7
370
    13
100
AcDbLine
 10
-479.8294621544912
 20
-278.2468723606418
 30
0.0
 11
-755.1677536320038
 21
-278.2468723606418
 31
0.0
  0
LINE
  5
90
330
1F
100
AcDbEntity
  8
D-4
  6
Continuous
 62
     7
370
    13
100
AcDbLine
 10
-1179.352975536037
 20
62.12046030405418
 30
0.0
 11
-451.6854092881482
 21
62.12046030405418
 31
0.0
  0
LINE
  5
91
330
1F
100
AcDbEntity
  8
D-4
  6
Continuous
 62
     7
370
    13
100
AcDbLine
 10
-606.6848071845798
 20
-838.3303750527871
 30
0.0
 11
-206.6838586652597
 21
-838.3303750527871
 31
0.0
  0
LINE
  5
92
330
1F
100
AcDbEntity
  8
D-4
  6
Continuous
 62
     7
370
    13
100
AcDbLine
 10
-1179.352975536037
 20
-48.57520850929035
 30
0.0
 11
-405.1476697664
 21
-48.57520850929035
 31
0.0
  0
LINE
  5
93
330
1F
100
AcDbEntity
  8
D-4
  6
Continuous
 62
     7
370
    13
100
AcDbLine
 10
-218.6347072188914
 20
-413.2473177523225
 30
0.0
 11
-218.6347072188914
 21
-363.2467816327069
 31
0.0
  0
LINE
  5
94
330
1F
100
AcDbEntity
  8
D-4
  6
Continuous
 62
     7
370
    13
100
AcDbLine
 10
-606.6848071845798
 20
-803.2471198004645
 30
0.0
 11
-606.6848071845798
 21
-841.3299643026814
 31
0.0
  0
LINE
  5
95
330
1F
100
AcDbEntity
  8
D-5
  6
Continuous
 62
     2
370
    13
100
AcDbLine
 10
-948.6796752826583
 20
-974.1891891891892
 30
0.0
 11
-948.6796752826583
 21
-909.1895933408995
 31
0.0
  0
LINE
  5
96
330
1F
100
AcDbEntity
  8
D-5
  6
Continuous
 62
     2
370
    13
100
AcDbLine
 10
-948.6796752826583
 20
-909.1895933408995
 30
0.0
 11
-373.6792628829539
 21
-909.1895933408995
 31
0.0
  0
LINE
  5
97
330
1F
100
AcDbEntity
  8
D-5
  6
Continuous
 62
     2
370
    13
100
AcDbLine
 10
-373.6792628829539
 20
-909.1895933408995
 30
0.0
 11
-373.6792628829539
 21
-974.1891891891892
 31
0.0
  0
LINE
  5
98
330
1F
100
AcDbEntity
  8
D-5
  6
Continuous
 62
     2
370
    13
100
AcDbLine
 10
-373.6792628829539
 20
-974.1891891891892
 30
0.0
 11
-948.6796752826583
 21
-974.1891891891892
 31
0.0
  0
LINE
  5
99
330
1F
100
AcDbEntity
  8
D-A
  6
Continuous
 62
     3
370
    13
100
AcDbLine
 10
-468.1848203813703
 20
-283.247260016364
 30
0.0
 11
-456.6845597447571
 21
-283.247260016364
 31
0.0
  0
LINE
  5
9A
330
1F
100
AcDbEntity
  8
D-A
  6
Continuous
 62
     3
370
    13
100
AcDbLine
 10
-456.6845597447571
 20
-395.7473837362753
 30
0.0
 11
-468.1848203813703
 21
-395.7473837362753
 31
0.0
  0
LINE
  5
9B
330
1F
100
AcDbEntity
  8
D-A
  6
Continuous
 62
     3
370
    13
100
AcDbLine
 10
-456.6845597447571
 20
-395.7473837362753
 30
0.0
 11
-456.6845597447571
 21
-363.2467816327069
 31
0.0
  0
LINE
  5
9C
330
1F
100
AcDbEntity
  8
D-5
  6
Continuous
 62
     7
370
    13
100
AcDbLine
 10
-357.1616649627683
 20
-115.335709855363
 30
0.0
 11
-520.4632875081652
 21
-302.9607906857052
 31
0.0
  0
LINE
  5
9D
330
1F
100
AcDbEntity
  8
D-5
  6
Continuous
 62
     7
370
    13
100
AcDbLine
 10
-520.4632875081652
 20
-302.9607906857052
 30
0.0
 11
-506.6520626480511
 21
-282.1211613835515
 31
0.0
  0
LINE
  5
9E
330
1F
100
AcDbEntity
  8
D-5
  6
Continuous
 62
     7
370
    13
100
AcDbLine
 10
-520.4632875081652
 20
-302.9607906857052
 30
0.0
 11
-501.729247376725
 21
-286.4059530722128
 31
0.0
  0
LINE
  5
9F
330
1F
100
AcDbEntity
  8
D-5
  6
Continuous
 62
     7
370
    13
100
AcDbLine
 10
-357.1616649627683
 20
-170.1978198902026
 30
0.0
 11
-453.6370908891828
 21
-281.0429423564188
 31
0.0
  0
LINE
  5
A0
330
1F
100
AcDbEntity
  8
D-5
  6
Continuous
 62
     7
370
    13
100
AcDbLine
 10
-453.6370908891828
 20
-281.0429423564188
 30
0.0
 11
-439.8257423091576
 21
-260.2044265334671
 31
0.0
  0
LINE
  5
A1
330
1F
100
AcDbEntity
  8
D-5
  6
Continuous
 62
     7
370
    13
100
AcDbLine
 10
-453.6370908891828
 20
-281.0429423564188
 30
0.0
 11
-434.9028033179201
 21
-264.4889707823057
 31
0.0
  0
LINE
  5
A2
330
1F
100
AcDbEntity
  8
D-5
  6
Continuous
 62
     7
370
    13
100
AcDbLine
 10
-421.66378304765
 20
-366.4235377956081
 30
0.0
 11
-300.5766314429201
 21
-227.3013635583825
 31
0.0
  0
LINE
  5
A3
330
1F
100
AcDbEntity
  8
D-5
  6
Continuous
 62
     7
370
    13
100
AcDbLine
 10
-421.66378304765
 20
-366.4235377956081
 30
0.0
 11
-407.8526819074472
 21
-345.5847745328336
 31
0.0
  0
LINE
  5
A4
330
1F
100
AcDbEntity
  8
D-5
  6
Continuous
 62
     7
370
    13
100
AcDbLine
 10
-421.66378304765
 20
-366.4235377956081
 30
0.0
 11
-402.9294954763873
 21
-349.8691950617609
 31
0.0
  0
LINE
  5
A5
330
1F
100
AcDbEntity
  8
D-5
  6
Continuous
 62
     7
370
    13
100
AcDbLine
 10
-300.5766314429201
 20
-227.3013635583825
 30
0.0
 11
86.12554008896325
 21
-227.3013635583825
 31
0.0
  0
LINE
  5
A6
330
1F
100
AcDbEntity
  8
D-6
  6
Continuous
 62
     6
370
    13
100
AcDbLine
 10
-456.6845597447571
 20
-278.2476146801098
 30
0.0
 11
-41.68380917729507
 21
-278.2476146801098
 31
0.0
  0
LINE
  5
A7
330
1F
100
AcDbEntity
  8
D-4
  6
Continuous
 62
     7
370
    13
100
AcDbLine
 10
-23.18446571762451
 20
-278.2476146801098
 30
0.0
 11
68.00057308093955
 21
-278.2476146801098
 31
0.0
  0
LINE
  5
A8
330
1F
100
AcDbEntity
  8
D-5
  6
Continuous
 62
     7
370
    13
100
AcDbLine
 10
-357.1616649627683
 20
-170.1978198902026
 30
0.0
 11
93.80557730391274
 21
-170.1978198902026
 31
0.0
  0
LINE
  5
A9
330
1F
100
AcDbEntity
  8
D-9
  6
Continuous
 62
     4
370
    13
100
AcDbLine
 10
-573.7286683675402
 20
-295.7468063766892
 30
0.0
 11
-591.2287261034987
 21
-313.2468641126478
 31
0.0
  0
LINE
  5
AA
330
1F
100
AcDbEntity
  8
D-9
  6
Continuous
 62
     4
370
    13
100
AcDbLine
 10
-545.4443171217631
 20
-295.7468063766892
 30
0.0
 11
-562.9442511378104
 21
-313.2468641126478
 31
0.0
  0
LINE
  5
AB
330
1F
100
AcDbEntity
  8
D-9
  6
Continuous
 62
     4
370
    13
100
AcDbLine
 10
-538.3729818704961
 20
-295.7468063766892
 30
0.0
 11
-555.8730396064548
 21
-313.2468641126478
 31
0.0
  0
LINE
  5
AC
330
1F
100
AcDbEntity
  8
D-9
  6
Continuous
 62
     4
370
    13
100
AcDbLine
 10
-531.302265218786
 20
-295.7468063766892
 30
0.0
 11
-548.8017043551878
 21
-313.2468641126478
 31
0.0
  0
LINE
  5
AD
330
1F
100
AcDbEntity
  8
D-9
  6
Continuous
 62
     4
370
    13
100
AcDbLine
 10
-524.2308062476076
 20
-295.7468063766892
 30
0.0
 11
-543.8540213816871
 21
-315.3696503510345
 31
0.0
  0
LINE
  5
AE
330
1F
100
AcDbEntity
  8
D-9
  6
Continuous
 62
     4
370
    13
100
AcDbLine
 10
-517.1600895958975
 20
-295.7468063766892
 30
0.0
 11
-539.8134527979666
 21
-318.4001695787583
 31
0.0
  0
LINE
  5
AF
330
1F
100
AcDbEntity
  8
D-9
  6
Continuous
 62
     4
370
    13
100
AcDbLine
 10
-510.088630624719
 20
-295.7468063766892
 30
0.0
 11
-535.7728842142461
 21
-321.4304413666595
 31
0.0
  0
LINE
  5
B0
330
1F
100
AcDbEntity
  8
D-9
  6
Continuous
 62
     4
370
    13
100
AcDbLine
 10
-503.0179139730089
 20
-295.7468063766892
 30
0.0
 11
-531.7323156305258
 21
-324.4609605943833
 31
0.0
  0
LINE
  5
B1
330
1F
100
AcDbEntity
  8
D-9
  6
Continuous
 62
     4
370
    13
100
AcDbLine
 10
-495.946578721742
 20
-295.7468063766892
 30
0.0
 11
-527.6911284472487
 21
-327.4916035420185
 31
0.0
  0
LINE
  5
B2
330
1F
100
AcDbEntity
  8
D-9
  6
Continuous
 62
     4
370
    13
100
AcDbLine
 10
-488.8756146302092
 20
-295.7468063766892
 30
0.0
 11
-521.3755981342208
 21
-328.2467898807009
 31
0.0
  0
LINE
  5
B3
330
1F
100
AcDbEntity
  8
D-9
  6
Continuous
 62
     4
370
    13
100
AcDbLine
 10
-481.8044030988534
 20
-295.7468063766892
 30
0.0
 11
-514.3041391630427
 21
-328.2467898807009
 31
0.0
  0
LINE
  5
B4
330
1F
100
AcDbEntity
  8
D-9
  6
Continuous
 62
     4
370
    13
100
AcDbLine
 10
-476.6847494486211
 20
-297.6978693781672
 30
0.0
 11
-507.2334225113323
 21
-328.2467898807009
 31
0.0
  0
LINE
  5
B5
330
1F
100
AcDbEntity
  8
D-9
  6
Continuous
 62
     4
370
    13
100
AcDbLine
 10
-476.6847494486211
 20
-318.9111328125
 30
0.0
 11
-486.0199116371768
 21
-328.2467898807009
 31
0.0
  0
LINE
  5
B6
330
1F
100
AcDbEntity
  8
D-9
  6
Continuous
 62
     4
370
    13
100
AcDbLine
 10
-476.6847494486211
 20
-311.8400450010557
 30
0.0
 11
-493.0911231685326
 21
-328.2467898807009
 31
0.0
  0
LINE
  5
B7
330
1F
100
AcDbEntity
  8
D-9
  6
Continuous
 62
     4
370
    13
100
AcDbLine
 10
-476.6847494486211
 20
-304.7689571896115
 30
0.0
 11
-500.1619635401542
 21
-328.2467898807009
 31
0.0
  0
LINE
  5
B8
330
1F
100
AcDbEntity
  8
D-9
  6
Continuous
 62
     4
370
    13
100
AcDbLine
 10
-587.8709677103399
 20
-295.7468063766892
 30
0.0
 11
-596.6847741926034
 21
-304.5603654191299
 31
0.0
  0
LINE
  5
B9
330
1F
100
AcDbEntity
  8
D-9
  6
Continuous
 62
     4
370
    13
100
AcDbLine
 10
-580.8000036188071
 20
-295.7468063766892
 30
0.0
 11
-596.6847741926034
 21
-311.6314532305742
 31
0.0
  0
LINE
  5
BA
330
1F
100
AcDbEntity
  8
D-9
  6
Continuous
 62
     4
370
    13
100
AcDbLine
 10
-591.6845102567927
 20
-295.7468063766892
 30
0.0
 11
-476.6847494486211
 21
-295.7468063766892
 31
0.0
  0
LINE
  5
BB
330
1F
100
AcDbEntity
  8
D-9
  6
Continuous
 62
     4
370
    13
100
AcDbLine
 10
-596.6847741926034
 20
-300.7469465925886
 30
0.0
 11
-596.6847741926034
 21
-313.2468641126478
 31
0.0
  0
LINE
  5
BC
330
1F
100
AcDbEntity
  8
D-6
  6
Continuous
 62
     6
370
    13
100
AcDbLine
 10
-606.6848071845798
 20
-333.2468063766892
 30
0.0
 11
-606.6848071845798
 21
-778.246789880701
 31
0.0
  0
LINE
  5
BD
330
1F
100
AcDbEntity
  8
D-1
  6
Continuous
 62
     2
370
    13
100
AcDbLine
 10
-456.6843123049344
 20
-398.2466496648015
 30
0.0
 11
-471.684361792899
 21
-398.2466496648015
 31
0.0
  0
LINE
  5
BE
330
1F
100
AcDbEntity
  8
D-1
  6
Continuous
 62
     2
370
    13
100
AcDbLine
 10
-456.6843123049344
 20
-283.2468888566299
 30
0.0
 11
-471.684361792899
 21
-283.2468888566299
 31
0.0
  0
LINE
  5
BF
330
1F
100
AcDbEntity
  8
D-1
  6
Continuous
 62
     2
370
    13
100
AcDbLine
 10
-451.6842958089464
 20
-375.746699152766
 30
0.0
 11
-456.6843123049344
 21
-375.746699152766
 31
0.0
  0
LINE
  5
C0
330
1F
100
AcDbEntity
  8
D-1
  6
Continuous
 62
     2
370
    13
100
AcDbLine
 10
-456.6843123049344
 20
-398.2466496648015
 30
0.0
 11
-456.6843123049344
 21
-375.746699152766
 31
0.0
  0
LINE
  5
C1
330
1F
100
AcDbEntity
  8
D-1
  6
Continuous
 62
     2
370
    13
100
AcDbLine
 10
-451.6842958089464
 20
-305.7467156487542
 30
0.0
 11
-456.6843123049344
 21
-305.7467156487542
 31
0.0
  0
LINE
  5
C2
330
1F
100
AcDbEntity
  8
D-1
  6
Continuous
 62
     2
370
    13
100
AcDbLine
 10
-456.6843123049344
 20
-305.7467156487542
 30
0.0
 11
-456.6843123049344
 21
-283.2468888566299
 31
0.0
  0
LINE
  5
C3
330
1F
100
AcDbEntity
  8
D-1
  6
Continuous
 62
     2
370
    13
100
AcDbLine
 10
-529.6842562185748
 20
-332.2466546135979
 30
0.0
 11
-548.3508689983466
 21
-318.2468806086359
 31
0.0
  0
LINE
  5
C4
330
1F
100
AcDbEntity
  8
D-1
  6
Continuous
 62
     2
370
    13
100
AcDbLine
 10
-476.6843782888873
 20
-328.2466661607896
 30
0.0
 11
-526.6842958089464
 21
-328.2466661607896
 31
0.0
  0
LINE
  5
C5
330
1F
100
AcDbEntity
  8
D-1
  6
Continuous
 62
     2
370
    13
100
AcDbLine
 10
-471.684361792899
 20
-338.246699152766
 30
0.0
 11
-471.684361792899
 21
-398.2466496648015
 31
0.0
  0
LINE
  5
C6
330
1F
100
AcDbEntity
  8
D-1
  6
Continuous
 62
     2
370
    13
100
AcDbLine
 10
-471.684361792899
 20
-328.2466661607896
 30
0.0
 11
-471.684361792899
 21
-283.2468888566299
 31
0.0
  0
LINE
  5
C7
330
1F
100
AcDbEntity
  8
D-1
  6
Continuous
 62
     2
370
    13
100
AcDbLine
 10
-451.6842958089464
 20
-281.2465853304475
 30
0.0
 11
-451.6842958089464
 21
-305.7467156487542
 31
0.0
  0
LINE
  5
C8
330
1F
100
AcDbEntity
  8
D-1
  6
Continuous
 62
     2
370
    13
100
AcDbLine
 10
-473.6842941593474
 20
-278.2467486407305
 30
0.0
 11
-454.6842562185748
 21
-278.2467486407305
 31
0.0
  0
LINE
  5
C9
330
1F
100
AcDbEntity
  8
D-1
  6
Continuous
 62
     2
370
    13
100
AcDbLine
 10
-476.6843782888873
 20
-281.2465853304475
 30
0.0
 11
-476.6843782888873
 21
-328.2466661607896
 31
0.0
  0
LINE
  5
CA
330
1F
100
AcDbEntity
  8
D-1
  6
Continuous
 62
     2
370
    13
100
AcDbLine
 10
-451.6842958089464
 20
-400.2467057511612
 30
0.0
 11
-451.6842958089464
 21
-375.746699152766
 31
0.0
  0
LINE
  5
CB
330
1F
100
AcDbEntity
  8
D-1
  6
Continuous
 62
     2
370
    13
100
AcDbLine
 10
-473.6842941593474
 20
-403.2466661607896
 30
0.0
 11
-454.6842562185748
 21
-403.2466661607896
 31
0.0
  0
LINE
  5
CC
330
1F
100
AcDbEntity
  8
D-1
  6
Continuous
 62
     2
370
    13
100
AcDbLine
 10
-476.6843782888873
 20
-400.2467057511612
 30
0.0
 11
-476.6843782888873
 21
-338.246699152766
 31
0.0
  0
LINE
  5
CD
330
1F
100
AcDbEntity
  8
D-1
  6
Continuous
 62
     2
370
    13
100
AcDbLine
 10
-545.3642703391406
 20
-314.2368708430109
 30
0.0
 11
-526.6842958089464
 21
-328.2466661607896
 31
0.0
  0
LINE
  5
CE
330
1F
100
AcDbEntity
  8
D-1
  6
Continuous
 62
     2
370
    13
100
AcDbLine
 10
-601.6842958089464
 20
-333.2465589368666
 30
0.0
 11
-476.6843782888873
 21
-333.2465589368666
 31
0.0
  0
LINE
  5
CF
330
1F
100
AcDbEntity
  8
D-1
  6
Continuous
 62
     2
370
    13
100
AcDbLine
 10
-601.6842958089464
 20
-333.2465589368666
 30
0.0
 11
-601.6842958089464
 21
-318.2468806086359
 31
0.0
  0
LINE
  5
D0
330
1F
100
AcDbEntity
  8
D-1
  6
Continuous
 62
     2
370
    13
100
AcDbLine
 10
-606.6843123049347
 20
-333.2465589368666
 30
0.0
 11
-606.6843123049347
 21
-318.2468806086359
 31
0.0
  0
LINE
  5
D1
330
1F
100
AcDbEntity
  8
D-1
  6
Continuous
 62
     2
370
    13
100
AcDbLine
 10
-601.6842958089464
 20
-338.246699152766
 30
0.0
 11
-476.6843782888873
 21
-338.246699152766
 31
0.0
  0
LINE
  5
D2
330
1F
100
AcDbEntity
  8
D-1
  6
Continuous
 62
     2
370
    13
100
AcDbLine
 10
-588.5145586890138
 20
-313.9166837125211
 30
0.0
 11
-576.6843370489166
 21
-320.7468888566299
 31
0.0
  0
LINE
  5
D3
330
1F
100
AcDbEntity
  8
D-1
  6
Continuous
 62
     2
370
    13
100
AcDbLine
 10
-564.8541154088196
 20
-313.9166837125211
 30
0.0
 11
-576.6843370489166
 21
-320.7468888566299
 31
0.0
  0
LINE
  5
D4
330
1F
100
AcDbEntity
  8
D-1
  6
Continuous
 62
     2
370
    13
100
AcDbLine
 10
-574.1843288009227
 20
-325.0769620328336
 30
0.0
 11
-562.3542308807371
 21
-318.2468806086359
 31
0.0
  0
LINE
  5
D5
330
1F
100
AcDbEntity
  8
D-1
  6
Continuous
 62
     2
370
    13
100
AcDbLine
 10
-579.184345296911
 20
-325.0769620328336
 30
0.0
 11
-591.0145669370081
 21
-318.2468806086359
 31
0.0
  0
LINE
  5
D6
330
1F
100
AcDbEntity
  8
D-1
  6
Continuous
 62
     2
370
    13
100
AcDbLine
 10
-548.3342905302302
 20
-313.2468641126478
 30
0.0
 11
-562.3541071608256
 21
-313.2468641126478
 31
0.0
  0
LINE
  5
D7
330
1F
100
AcDbEntity
  8
D-1
  6
Continuous
 62
     2
370
    13
100
AcDbLine
 10
-591.0145669370081
 20
-313.2468641126478
 30
0.0
 11
-601.6842958089464
 21
-313.2468641126478
 31
0.0
  0
LINE
  5
D8
330
1F
100
AcDbEntity
  8
D-1
  6
Continuous
 62
     2
370
    13
100
AcDbLine
 10
-548.3508689983466
 20
-318.2468806086359
 30
0.0
 11
-562.3542308807371
 21
-318.2468806086359
 31
0.0
  0
LINE
  5
D9
330
1F
100
AcDbEntity
  8
D-1
  6
Continuous
 62
     2
370
    13
100
AcDbLine
 10
-591.0145669370081
 20
-318.2468806086359
 30
0.0
 11
-601.6842958089464
 21
-318.2468806086359
 31
0.0
  0
LINE
  5
DA
330
1F
100
AcDbEntity
  8
D-9
  6
Continuous
 62
     4
370
    13
100
AcDbLine
 10
-552.5152812132961
 20
-295.7468063766892
 30
0.0
 11
-577.2115075910409
 21
-320.4424141548775
 31
0.0
  0
LINE
  5
DB
330
1F
100
AcDbEntity
  8
D-9
  6
Continuous
 62
     4
370
    13
100
AcDbLine
 10
-559.5864927446517
 20
-295.7468063766892
 30
0.0
 11
-581.6941274178989
 21
-317.8544410499366
 31
0.0
  0
LINE
  5
DC
330
1F
100
AcDbEntity
  8
D-9
  6
Continuous
 62
     4
370
    13
100
AcDbLine
 10
-566.6574568361847
 20
-295.7468063766892
 30
0.0
 11
-586.1771184044912
 21
-315.266220505173
 31
0.0
  0
LINE
  5
DD
330
1F
100
AcDbEntity
  8
D-2
  6
Continuous
 62
     3
370
    13
100
AcDbLine
 10
-481.6848896645206
 20
-280.7470043285473
 30
0.0
 11
-481.6848896645206
 21
-295.7468063766892
 31
0.0
  0
LINE
  5
DE
330
1F
100
AcDbEntity
  8
D-4
  6
Continuous
 62
     7
370
    13
100
AcDbLine
 10
-963.4113762829752
 20
-242.7267621014569
 30
0.0
 11
-963.4113762829752
 21
-326.9296677048142
 31
0.0
  0
LINE
  5
DF
330
1F
100
AcDbEntity
  8
D-2
  6
Continuous
 62
     3
370
    13
100
AcDbLine
 10
-1154.354130255209
 20
-435.9902541701858
 30
0.0
 11
-1154.354130255209
 21
-212.0478119721282
 31
0.0
  0
LINE
  5
E0
330
1F
100
AcDbEntity
  8
D-2
  6
Continuous
 62
     3
370
    13
100
AcDbLine
 10
-481.6848896645206
 20
-295.7468063766892
 30
0.0
 11
-1154.354130255209
 21
-295.7468063766892
 31
0.0
  0
LINE
  5
E1
330
1F
100
AcDbEntity
  8
D-2
  6
Continuous
 62
     3
370
    13
100
AcDbLine
 10
-481.6848896645206
 20
-285.7472682643581
 30
0.0
 11
-1154.354130255209
 21
-285.7472682643581
 31
0.0
  0
LINE
  5
E2
330
1F
100
AcDbEntity
  8
D-2
  6
Continuous
 62
     3
370
    13
100
AcDbLine
 10
-481.6848896645206
 20
-290.7470373205235
 30
0.0
 11
-1154.354130255209
 21
-290.7470373205235
 31
0.0
  0
LINE
  5
E3
330
1F
100
AcDbEntity
  8
D-2
  6
Continuous
 62
     3
370
    13
100
AcDbLine
 10
-481.6848896645206
 20
-280.7470043285473
 30
0.0
 11
-1154.354130255209
 21
-280.7470043285473
 31
0.0
  0
LINE
  5
E4
330
1F
100
AcDbEntity
  8
D-5
  6
Continuous
 62
     7
370
    13
100
AcDbLine
 10
-357.1626547220586
 20
-52.00101285367396
 30
0.0
 11
294.2246578835156
 21
-52.00101285367396
 31
0.0
  0
LINE
  5
E5
330
1F
100
AcDbEntity
  8
D-5
  6
Continuous
 62
     7
370
    13
100
AcDbLine
 10
-357.1626547220586
 20
-52.00101285367396
 30
0.0
 11
-554.6753071449893
 21
-280.7470043285473
 31
0.0
  0
LINE
  5
E6
330
1F
100
AcDbEntity
  8
D-5
  6
Continuous
 62
     7
370
    13
100
AcDbLine
 10
-554.6753071449893
 20
-280.7470043285473
 30
0.0
 11
-540.9469746254581
 21
-259.8540517446156
 31
0.0
  0
LINE
  5
E7
330
1F
100
AcDbEntity
  8
D-5
  6
Continuous
 62
     7
370
    13
100
AcDbLine
 10
-554.6753071449893
 20
-280.7470043285473
 30
0.0
 11
-536.0070860063704
 21
-264.1190482474661
 31
0.0
  0
LINE
  5
E8
330
1F
100
AcDbEntity
  8
D-5
  6
Continuous
 62
     2
370
    13
100
AcDbLine
 10
517.9867164508721
 20
-328.2471610404349
 30
0.0
 11
292.9874587703401
 21
-328.2471610404349
 31
0.0
  0
LINE
  5
E9
330
1F
100
AcDbEntity
  8
D-5
  6
Continuous
 62
     2
370
    13
100
AcDbLine
 10
517.9867164508721
 20
-278.2468723606418
 30
0.0
 11
517.9867164508721
 21
-328.2471610404349
 31
0.0
  0
LINE
  5
EA
330
1F
100
AcDbEntity
  8
D-5
  6
Continuous
 62
     2
370
    13
100
AcDbLine
 10
292.9874587703401
 20
-278.2468723606418
 30
0.0
 11
517.9867164508721
 21
-278.2468723606418
 31
0.0
  0
LINE
  5
EB
330
1F
100
AcDbEntity
  8
D-5
  6
Continuous
 62
     2
370
    13
100
AcDbLine
 10
292.9874587703401
 20
-328.2471610404349
 30
0.0
 11
292.9874587703401
 21
-278.2468723606418
 31
0.0
  0
LINE
  5
EC
330
1F
100
AcDbEntity
  8
C-2
  6
Continuous
 62
     3
370
    13
100
AcDbLine
 10
-652.499774984411
 20
637.7290797877959
 30
0.0
 11
-652.499774984411
 21
887.7289148279141
 31
0.0
  0
LINE
  5
ED
330
1F
100
AcDbEntity
  8
C-2
  6
Continuous
 62
     3
370
    13
100
AcDbLine
 10
-652.499774984411
 20
887.7289148279141
 30
0.0
 11
-153.4998855075315
 21
887.7289148279141
 31
0.0
  0
LINE
  5
EE
330
1F
100
AcDbEntity
  8
C-2
  6
Continuous
 62
     3
370
    13
100
AcDbLine
 10
-153.4998855075315
 20
887.7289148279141
 30
0.0
 11
-153.4998855075315
 21
637.7290797877959
 31
0.0
  0
LINE
  5
EF
330
1F
100
AcDbEntity
  8
C-2
  6
Continuous
 62
     3
370
    13
100
AcDbLine
 10
-153.4998855075315
 20
637.7290797877959
 30
0.0
 11
-652.499774984411
 21
637.7290797877959
 31
0.0
  0
LINE
  5
F0
330
1F
100
AcDbEntity
  8
C-2
  6
Continuous
 62
     3
370
    13
100
AcDbLine
 10
-653.4999267475021
 20
637.7290797877959
 30
0.0
 11
-653.4999267475021
 21
887.7289148279141
 31
0.0
  0
LINE
  5
F1
330
1F
100
AcDbEntity
  8
C-2
  6
Continuous
 62
     3
370
    13
100
AcDbLine
 10
-152.4998574643519
 20
637.7290797877959
 30
0.0
 11
-152.4998574643519
 21
887.7289148279141
 31
0.0
  0
LINE
  5
F2
330
1F
100
AcDbEntity
  8
C-2
  6
Continuous
 62
     3
370
    13
100
AcDbLine
 10
-152.4998574643519
 20
887.7289148279141
 30
0.0
 11
346.5002794523502
 21
887.7289148279141
 31
0.0
  0
LINE
  5
F3
330
1F
100
AcDbEntity
  8
C-2
  6
Continuous
 62
     3
370
    13
100
AcDbLine
 10
346.5002794523502
 20
887.7289148279141
 30
0.0
 11
346.5002794523502
 21
637.7290797877959
 31
0.0
  0
LINE
  5
F4
330
1F
100
AcDbEntity
  8
C-2
  6
Continuous
 62
     3
370
    13
100
AcDbLine
 10
346.5002794523502
 20
637.7290797877959
 30
0.0
 11
-152.4998574643519
 21
637.7290797877959
 31
0.0
  0
LINE
  5
F5
330
1F
100
AcDbEntity
  8
C-2
  6
Continuous
 62
     3
370
    13
100
AcDbLine
 10
347.5001837756187
 20
887.7289148279141
 30
0.0
 11
347.5001837756187
 21
637.7290797877959
 31
0.0
  0
LINE
  5
F6
330
1F
100
AcDbEntity
  8
C-2
  6
Continuous
 62
     3
370
    13
100
AcDbLine
 10
-653.4999267475021
 20
887.7289148279141
 30
0.0
 11
-903.4998855075316
 21
887.7289148279141
 31
0.0
  0
LINE
  5
F7
330
1F
100
AcDbEntity
  8
C-2
  6
Continuous
 62
     3
370
    13
100
AcDbLine
 10
-653.4999267475021
 20
637.7290797877959
 30
0.0
 11
-903.4998855075316
 21
637.7290797877959
 31
0.0
  0
LINE
  5
F8
330
1F
100
AcDbEntity
  8
C-2
  6
Continuous
 62
     3
370
    13
100
AcDbLine
 10
347.5001837756187
 20
887.7289148279141
 30
0.0
 11
597.5000188157372
 21
887.7289148279141
 31
0.0
  0
LINE
  5
F9
330
1F
100
AcDbEntity
  8
C-2
  6
Continuous
 62
     3
370
    13
100
AcDbLine
 10
347.5001837756187
 20
637.7290797877959
 30
0.0
 11
597.5000188157372
 21
637.7290797877959
 31
0.0
  0
LINE
  5
FA
330
1F
100
AcDbEntity
  8
C-1
  6
Continuous
 62
     2
370
    13
100
AcDbLine
 10
-903.4998855075316
 20
888.7288191511825
 30
0.0
 11
597.5000188157372
 21
888.7288191511825
 31
0.0
  0
LINE
  5
FB
330
1F
100
AcDbEntity
  8
C-1
  6
JWW_DASHED3
 62
     2
370
    13
100
AcDbLine
 10
-903.4998855075316
 20
862.7290797877959
 30
0.0
 11
597.5000188157372
 21
862.7290797877959
 31
0.0
  0
LINE
  5
FC
330
1F
100
AcDbEntity
  8
C-1
  6
JWW_DASHED3
 62
     2
370
    13
100
AcDbLine
 10
597.5000188157372
 20
662.7294097075592
 30
0.0
 11
-903.4998855075316
 21
662.7294097075592
 31
0.0
  0
LINE
  5
FD
330
1F
100
AcDbEntity
  8
C-1
  6
Continuous
 62
     2
370
    13
100
AcDbLine
 10
597.5000188157372
 20
636.7291754645271
 30
0.0
 11
-903.4998855075316
 21
636.7291754645271
 31
0.0
  0
LINE
  5
FE
330
1F
100
AcDbEntity
  8
C-1
  6
Continuous
 62
     2
370
    13
100
AcDbLine
 10
-903.4998855075316
 20
895.7291391733531
 30
0.0
 11
597.5000188157372
 21
895.7291391733531
 31
0.0
  0
LINE
  5
FF
330
1F
100
AcDbEntity
  8
C-1
  6
Continuous
 62
     2
370
    13
100
AcDbLine
 10
597.5000188157372
 20
629.7293503220019
 30
0.0
 11
-903.4998855075316
 21
629.7293503220019
 31
0.0
  0
LINE
  5
100
330
1F
100
AcDbEntity
  8
C-A
  6
Continuous
 62
     3
370
    13
100
AcDbLine
 10
-260.8439819232834
 20
887.7289148279141
 30
0.0
 11
-510.8439406833128
 21
637.7290797877959
 31
0.0
  0
LINE
  5
101
330
1F
100
AcDbEntity
  8
C-A
  6
Continuous
 62
     3
370
    13
100
AcDbLine
 10
204.8441977114294
 20
887.7289148279141
 30
0.0
 11
-45.15563732868884
 21
637.7290797877959
 31
0.0
  0
LINE
  5
102
330
1F
100
AcDbEntity
  8
C-A
  6
Continuous
 62
     3
370
    13
100
AcDbLine
 10
-282.8441039935959
 20
865.7287927576016
 30
0.0
 11
-153.4998855075315
 21
865.7287927576016
 31
0.0
  0
LINE
  5
103
330
1F
100
AcDbEntity
  8
C-A
  6
Continuous
 62
     3
370
    13
100
AcDbLine
 10
-304.8441023439969
 20
843.7289181271117
 30
0.0
 11
-153.4998855075315
 21
843.7289181271117
 31
0.0
  0
LINE
  5
104
330
1F
100
AcDbEntity
  8
C-A
  6
Continuous
 62
     3
370
    13
100
AcDbLine
 10
-328.8441567807581
 20
819.7287399704394
 30
0.0
 11
-153.4998855075315
 21
819.7287399704394
 31
0.0
  0
LINE
  5
105
330
1F
100
AcDbEntity
  8
C-A
  6
Continuous
 62
     3
370
    13
100
AcDbLine
 10
-350.8441551311591
 20
797.7288653399495
 30
0.0
 11
-153.4998855075315
 21
797.7288653399495
 31
0.0
  0
LINE
  5
106
330
1F
100
AcDbEntity
  8
C-A
  6
Continuous
 62
     3
370
    13
100
AcDbLine
 10
-374.8442095679201
 20
773.7286871832771
 30
0.0
 11
-153.4998855075315
 21
773.7286871832771
 31
0.0
  0
LINE
  5
107
330
1F
100
AcDbEntity
  8
C-A
  6
Continuous
 62
     3
370
    13
100
AcDbLine
 10
-396.8439604784987
 20
751.7290599926099
 30
0.0
 11
-153.4998855075315
 21
751.7290599926099
 31
0.0
  0
LINE
  5
108
330
1F
100
AcDbEntity
  8
C-A
  6
Continuous
 62
     3
370
    13
100
AcDbLine
 10
-420.8440149152597
 20
727.7288818359375
 30
0.0
 11
-153.4998855075315
 21
727.7288818359375
 31
0.0
  0
LINE
  5
109
330
1F
100
AcDbEntity
  8
C-A
  6
Continuous
 62
     3
370
    13
100
AcDbLine
 10
-442.8441369855722
 20
705.7290072054477
 30
0.0
 11
-153.4998855075315
 21
705.7290072054477
 31
0.0
  0
LINE
  5
10A
330
1F
100
AcDbEntity
  8
C-A
  6
Continuous
 62
     3
370
    13
100
AcDbLine
 10
-466.8440677024219
 20
681.7288290487755
 30
0.0
 11
-153.4998855075315
 21
681.7288290487755
 31
0.0
  0
LINE
  5
10B
330
1F
100
AcDbEntity
  8
C-A
  6
Continuous
 62
     3
370
    13
100
AcDbLine
 10
-488.8441897727344
 20
659.7289544182856
 30
0.0
 11
-153.4998855075315
 21
659.7289544182856
 31
0.0
  0
LINE
  5
10C
330
1F
100
AcDbEntity
  8
C-A
  6
Continuous
 62
     3
370
    13
100
AcDbLine
 10
-287.2440789196938
 20
861.3288178315033
 30
0.0
 11
-153.4998855075315
 21
861.3288178315033
 31
0.0
  0
LINE
  5
10D
330
1F
100
AcDbEntity
  8
C-A
  6
Continuous
 62
     3
370
    13
100
AcDbLine
 10
-291.6440538457917
 20
856.9288429054054
 30
0.0
 11
-153.4998855075315
 21
856.9288429054054
 31
0.0
  0
LINE
  5
10E
330
1F
100
AcDbEntity
  8
C-A
  6
Continuous
 62
     3
370
    13
100
AcDbLine
 10
-296.0441524918011
 20
852.5288679793075
 30
0.0
 11
-153.4998855075315
 21
852.5288679793075
 31
0.0
  0
LINE
  5
10F
330
1F
100
AcDbEntity
  8
C-A
  6
Continuous
 62
     3
370
    13
100
AcDbLine
 10
-300.444127417899
 20
848.1288930532096
 30
0.0
 11
-153.4998855075315
 21
848.1288930532096
 31
0.0
  0
LINE
  5
110
330
1F
100
AcDbEntity
  8
C-A
  6
Continuous
 62
     3
370
    13
100
AcDbLine
 10
-333.244131706856
 20
815.3287650443415
 30
0.0
 11
-153.4998855075315
 21
815.3287650443415
 31
0.0
  0
LINE
  5
111
330
1F
100
AcDbEntity
  8
C-A
  6
Continuous
 62
     3
370
    13
100
AcDbLine
 10
-337.6441066329539
 20
810.9287901182436
 30
0.0
 11
-153.4998855075315
 21
810.9287901182436
 31
0.0
  0
LINE
  5
112
330
1F
100
AcDbEntity
  8
C-A
  6
Continuous
 62
     3
370
    13
100
AcDbLine
 10
-342.0442052789633
 20
806.5288151921453
 30
0.0
 11
-153.4998855075315
 21
806.5288151921453
 31
0.0
  0
LINE
  5
113
330
1F
100
AcDbEntity
  8
C-A
  6
Continuous
 62
     3
370
    13
100
AcDbLine
 10
-346.4441802050612
 20
802.1288402660474
 30
0.0
 11
-153.4998855075315
 21
802.1288402660474
 31
0.0
  0
LINE
  5
114
330
1F
100
AcDbEntity
  8
C-A
  6
Continuous
 62
     3
370
    13
100
AcDbLine
 10
-379.2441844940183
 20
769.3287122571792
 30
0.0
 11
-153.4998855075315
 21
769.3287122571792
 31
0.0
  0
LINE
  5
115
330
1F
100
AcDbEntity
  8
C-A
  6
Continuous
 62
     3
370
    13
100
AcDbLine
 10
-383.6442831400274
 20
764.9287373310813
 30
0.0
 11
-153.4998855075315
 21
764.9287373310813
 31
0.0
  0
LINE
  5
116
330
1F
100
AcDbEntity
  8
C-A
  6
Continuous
 62
     3
370
    13
100
AcDbLine
 10
-388.0442580661253
 20
760.5287624049834
 30
0.0
 11
-153.4998855075315
 21
760.5287624049834
 31
0.0
  0
LINE
  5
117
330
1F
100
AcDbEntity
  8
C-A
  6
Continuous
 62
     3
370
    13
100
AcDbLine
 10
-392.4442329922235
 20
756.1287874788852
 30
0.0
 11
-153.4998855075315
 21
756.1287874788852
 31
0.0
  0
LINE
  5
118
330
1F
100
AcDbEntity
  8
C-A
  6
Continuous
 62
     3
370
    13
100
AcDbLine
 10
-425.2439898413576
 20
723.3289069098396
 30
0.0
 11
-153.4998855075315
 21
723.3289069098396
 31
0.0
  0
LINE
  5
119
330
1F
100
AcDbEntity
  8
C-A
  6
Continuous
 62
     3
370
    13
100
AcDbLine
 10
-429.644088487367
 20
718.9289319837417
 30
0.0
 11
-153.4998855075315
 21
718.9289319837417
 31
0.0
  0
LINE
  5
11A
330
1F
100
AcDbEntity
  8
C-A
  6
Continuous
 62
     3
370
    13
100
AcDbLine
 10
-434.0440634134649
 20
714.5289570576438
 30
0.0
 11
-153.4998855075315
 21
714.5289570576438
 31
0.0
  0
LINE
  5
11B
330
1F
100
AcDbEntity
  8
C-A
  6
Continuous
 62
     3
370
    13
100
AcDbLine
 10
-438.4440383395628
 20
710.1289821315459
 30
0.0
 11
-153.4998855075315
 21
710.1289821315459
 31
0.0
  0
LINE
  5
11C
330
1F
100
AcDbEntity
  8
C-A
  6
Continuous
 62
     3
370
    13
100
AcDbLine
 10
-471.2440426285198
 20
677.3288541226776
 30
0.0
 11
-153.4998855075315
 21
677.3288541226776
 31
0.0
  0
LINE
  5
11D
330
1F
100
AcDbEntity
  8
C-A
  6
Continuous
 62
     3
370
    13
100
AcDbLine
 10
-475.6441412745292
 20
672.9288791965794
 30
0.0
 11
-153.4998855075315
 21
672.9288791965794
 31
0.0
  0
LINE
  5
11E
330
1F
100
AcDbEntity
  8
C-A
  6
Continuous
 62
     3
370
    13
100
AcDbLine
 10
-480.0441162006271
 20
668.5289042704815
 30
0.0
 11
-153.4998855075315
 21
668.5289042704815
 31
0.0
  0
LINE
  5
11F
330
1F
100
AcDbEntity
  8
C-A
  6
Continuous
 62
     3
370
    13
100
AcDbLine
 10
-484.444091126725
 20
664.1289293443836
 30
0.0
 11
-153.4998855075315
 21
664.1289293443836
 31
0.0
  0
LINE
  5
120
330
1F
100
AcDbEntity
  8
C-A
  6
Continuous
 62
     3
370
    13
100
AcDbLine
 10
-219.9999564402808
 20
834.7282945787586
 30
0.0
 11
-185.9999927314547
 21
834.7282945787586
 31
0.0
  0
LINE
  5
121
330
1F
100
AcDbEntity
  8
C-A
  6
Continuous
 62
     3
370
    13
100
AcDbLine
 10
-219.9999564402808
 20
828.7288686391471
 30
0.0
 11
-185.9999927314547
 21
828.7288686391471
 31
0.0
  0
LINE
  5
122
330
1F
100
AcDbEntity
  8
C-A
  6
Continuous
 62
     3
370
    13
100
AcDbLine
 10
-299.999972936269
 20
834.7282945787586
 30
0.0
 11
-266.000009227443
 21
834.7282945787586
 31
0.0
  0
LINE
  5
123
330
1F
100
AcDbEntity
  8
C-A
  6
Continuous
 62
     3
370
    13
100
AcDbLine
 10
-299.999972936269
 20
828.7288686391471
 30
0.0
 11
-266.000009227443
 21
828.7288686391471
 31
0.0
  0
LINE
  5
124
330
1F
100
AcDbEntity
  8
C-A
  6
Continuous
 62
     3
370
    13
100
AcDbLine
 10
-299.999972936269
 20
788.7282417915964
 30
0.0
 11
-266.000009227443
 21
788.7282417915964
 31
0.0
  0
LINE
  5
125
330
1F
100
AcDbEntity
  8
C-A
  6
Continuous
 62
     3
370
    13
100
AcDbLine
 10
-299.999972936269
 20
782.7288158519849
 30
0.0
 11
-266.000009227443
 21
782.7288158519849
 31
0.0
  0
LINE
  5
126
330
1F
100
AcDbEntity
  8
C-A
  6
Continuous
 62
     3
370
    13
100
AcDbLine
 10
-219.9999564402808
 20
788.7282417915964
 30
0.0
 11
-185.9999927314547
 21
788.7282417915964
 31
0.0
  0
LINE
  5
127
330
1F
100
AcDbEntity
  8
C-A
  6
Continuous
 62
     3
370
    13
100
AcDbLine
 10
-219.9999564402808
 20
782.7288158519849
 30
0.0
 11
-185.9999927314547
 21
782.7288158519849
 31
0.0
  0
LINE
  5
128
330
1F
100
AcDbEntity
  8
C-A
  6
Continuous
 62
     3
370
    13
100
AcDbLine
 10
-219.9999564402808
 20
742.7284364442568
 30
0.0
 11
-185.9999927314547
 21
742.7284364442568
 31
0.0
  0
LINE
  5
129
330
1F
100
AcDbEntity
  8
C-A
  6
Continuous
 62
     3
370
    13
100
AcDbLine
 10
-219.9999564402808
 20
736.7287630648227
 30
0.0
 11
-185.9999927314547
 21
736.7287630648227
 31
0.0
  0
LINE
  5
12A
330
1F
100
AcDbEntity
  8
C-A
  6
Continuous
 62
     3
370
    13
100
AcDbLine
 10
-299.999972936269
 20
742.7284364442568
 30
0.0
 11
-266.000009227443
 21
742.7284364442568
 31
0.0
  0
LINE
  5
12B
330
1F
100
AcDbEntity
  8
C-A
  6
Continuous
 62
     3
370
    13
100
AcDbLine
 10
-299.999972936269
 20
736.7287630648227
 30
0.0
 11
-266.000009227443
 21
736.7287630648227
 31
0.0
  0
LINE
  5
12C
330
1F
100
AcDbEntity
  8
C-A
  6
Continuous
 62
     3
370
    13
100
AcDbLine
 10
-299.999972936269
 20
696.7283836570948
 30
0.0
 11
-266.000009227443
 21
696.7283836570948
 31
0.0
  0
LINE
  5
12D
330
1F
100
AcDbEntity
  8
C-A
  6
Continuous
 62
     3
370
    13
100
AcDbLine
 10
-299.999972936269
 20
690.7287102776606
 30
0.0
 11
-266.000009227443
 21
690.7287102776606
 31
0.0
  0
LINE
  5
12E
330
1F
100
AcDbEntity
  8
C-A
  6
Continuous
 62
     3
370
    13
100
AcDbLine
 10
-219.9999564402808
 20
696.7283836570948
 30
0.0
 11
-185.9999927314547
 21
696.7283836570948
 31
0.0
  0
LINE
  5
12F
330
1F
100
AcDbEntity
  8
C-A
  6
Continuous
 62
     3
370
    13
100
AcDbLine
 10
-219.9999564402808
 20
690.7287102776606
 30
0.0
 11
-185.9999927314547
 21
690.7287102776606
 31
0.0
  0
LINE
  5
130
330
1F
100
AcDbEntity
  8
C-A
  6
Continuous
 62
     3
370
    13
100
AcDbLine
 10
-379.9999894322571
 20
742.7284364442568
 30
0.0
 11
-346.000025723431
 21
742.7284364442568
 31
0.0
  0
LINE
  5
131
330
1F
100
AcDbEntity
  8
C-A
  6
Continuous
 62
     3
370
    13
100
AcDbLine
 10
-379.9999894322571
 20
736.7287630648227
 30
0.0
 11
-346.000025723431
 21
736.7287630648227
 31
0.0
  0
LINE
  5
132
330
1F
100
AcDbEntity
  8
C-A
  6
Continuous
 62
     3
370
    13
100
AcDbLine
 10
-379.9999894322571
 20
696.7283836570948
 30
0.0
 11
-346.000025723431
 21
696.7283836570948
 31
0.0
  0
LINE
  5
133
330
1F
100
AcDbEntity
  8
C-A
  6
Continuous
 62
     3
370
    13
100
AcDbLine
 10
-379.9999894322571
 20
690.7287102776606
 30
0.0
 11
-346.000025723431
 21
690.7287102776606
 31
0.0
  0
LINE
  5
134
330
1F
100
AcDbEntity
  8
C-A
  6
Continuous
 62
     3
370
    13
100
AcDbLine
 10
-451.8445130941026
 20
696.7283836570948
 30
0.0
 11
-426.0000422194193
 21
696.7283836570948
 31
0.0
  0
LINE
  5
135
330
1F
100
AcDbEntity
  8
C-A
  6
Continuous
 62
     3
370
    13
100
AcDbLine
 10
-457.8441864735368
 20
690.7287102776606
 30
0.0
 11
-426.0000422194193
 21
690.7287102776606
 31
0.0
  0
LINE
  5
136
330
1F
100
AcDbEntity
  8
C-A
  6
Continuous
 62
     3
370
    13
100
AcDbLine
 10
-359.8446549596008
 20
788.7282417915964
 30
0.0
 11
-346.000025723431
 21
788.7282417915964
 31
0.0
  0
LINE
  5
137
330
1F
100
AcDbEntity
  8
C-A
  6
Continuous
 62
     3
370
    13
100
AcDbLine
 10
-365.8443283390349
 20
782.7288158519849
 30
0.0
 11
-346.000025723431
 21
782.7288158519849
 31
0.0
  0
LINE
  5
138
330
1F
100
AcDbEntity
  8
C-A
  6
Continuous
 62
     3
370
    13
100
AcDbLine
 10
-23.15563897828753
 20
659.7289544182856
 30
0.0
 11
-152.4998574643519
 21
659.7289544182856
 31
0.0
  0
LINE
  5
139
330
1F
100
AcDbEntity
  8
C-A
  6
Continuous
 62
     3
370
    13
100
AcDbLine
 10
-1.155640627886498
 20
681.7290764885981
 30
0.0
 11
-152.4998574643519
 21
681.7290764885981
 31
0.0
  0
LINE
  5
13A
330
1F
100
AcDbEntity
  8
C-A
  6
Continuous
 62
     3
370
    13
100
AcDbLine
 10
22.84441380887472
 20
705.7292546452703
 30
0.0
 11
-152.4998574643519
 21
705.7292546452703
 31
0.0
  0
LINE
  5
13B
330
1F
100
AcDbEntity
  8
C-A
  6
Continuous
 62
     3
370
    13
100
AcDbLine
 10
44.84441215927575
 20
727.7291292757602
 30
0.0
 11
-152.4998574643519
 21
727.7291292757602
 31
0.0
  0
LINE
  5
13C
330
1F
100
AcDbEntity
  8
C-A
  6
Continuous
 62
     3
370
    13
100
AcDbLine
 10
68.84446659603668
 20
751.7293074324325
 30
0.0
 11
-152.4998574643519
 21
751.7293074324325
 31
0.0
  0
LINE
  5
13D
330
1F
100
AcDbEntity
  8
C-A
  6
Continuous
 62
     3
370
    13
100
AcDbLine
 10
90.84421750661534
 20
773.7289346230998
 30
0.0
 11
-152.4998574643519
 21
773.7289346230998
 31
0.0
  0
LINE
  5
13E
330
1F
100
AcDbEntity
  8
C-A
  6
Continuous
 62
     3
370
    13
100
AcDbLine
 10
114.8443956632877
 20
797.7291127797721
 30
0.0
 11
-152.4998574643519
 21
797.7291127797721
 31
0.0
  0
LINE
  5
13F
330
1F
100
AcDbEntity
  8
C-A
  6
Continuous
 62
     3
370
    13
100
AcDbLine
 10
136.8442702937776
 20
819.728987410262
 30
0.0
 11
-152.4998574643519
 21
819.728987410262
 31
0.0
  0
LINE
  5
140
330
1F
100
AcDbEntity
  8
C-A
  6
Continuous
 62
     3
370
    13
100
AcDbLine
 10
160.8444484504497
 20
843.7291655669342
 30
0.0
 11
-152.4998574643519
 21
843.7291655669342
 31
0.0
  0
LINE
  5
141
330
1F
100
AcDbEntity
  8
C-A
  6
Continuous
 62
     3
370
    13
100
AcDbLine
 10
182.8445705207622
 20
865.7290401974242
 30
0.0
 11
-152.4998574643519
 21
865.7290401974242
 31
0.0
  0
LINE
  5
142
330
1F
100
AcDbEntity
  8
C-A
  6
Continuous
 62
     3
370
    13
100
AcDbLine
 10
-18.75566405218962
 20
664.1291767842063
 30
0.0
 11
-152.4998574643519
 21
664.1291767842063
 31
0.0
  0
LINE
  5
143
330
1F
100
AcDbEntity
  8
C-A
  6
Continuous
 62
     3
370
    13
100
AcDbLine
 10
-14.35556540618023
 20
668.5291517103042
 30
0.0
 11
-152.4998574643519
 21
668.5291517103042
 31
0.0
  0
LINE
  5
144
330
1F
100
AcDbEntity
  8
C-A
  6
Continuous
 62
     3
370
    13
100
AcDbLine
 10
-9.955590480082321
 20
672.9291266364021
 30
0.0
 11
-152.4998574643519
 21
672.9291266364021
 31
0.0
  0
LINE
  5
145
330
1F
100
AcDbEntity
  8
C-A
  6
Continuous
 62
     3
370
    13
100
AcDbLine
 10
-5.55561555398441
 20
677.3291015625
 30
0.0
 11
-152.4998574643519
 21
677.3291015625
 31
0.0
  0
LINE
  5
146
330
1F
100
AcDbEntity
  8
C-A
  6
Continuous
 62
     3
370
    13
100
AcDbLine
 10
27.24451245488382
 20
710.1292295713682
 30
0.0
 11
-152.4998574643519
 21
710.1292295713682
 31
0.0
  0
LINE
  5
147
330
1F
100
AcDbEntity
  8
C-A
  6
Continuous
 62
     3
370
    13
100
AcDbLine
 10
31.64448738098201
 20
714.5292044974665
 30
0.0
 11
-152.4998574643519
 21
714.5292044974665
 31
0.0
  0
LINE
  5
148
330
1F
100
AcDbEntity
  8
C-A
  6
Continuous
 62
     3
370
    13
100
AcDbLine
 10
36.04446230707993
 20
718.9291794235644
 30
0.0
 11
-152.4998574643519
 21
718.9291794235644
 31
0.0
  0
LINE
  5
149
330
1F
100
AcDbEntity
  8
C-A
  6
Continuous
 62
     3
370
    13
100
AcDbLine
 10
40.44443723317784
 20
723.3291543496623
 30
0.0
 11
-152.4998574643519
 21
723.3291543496623
 31
0.0
  0
LINE
  5
14A
330
1F
100
AcDbEntity
  8
C-A
  6
Continuous
 62
     3
370
    13
100
AcDbLine
 10
73.24444152213488
 20
756.1292823585304
 30
0.0
 11
-152.4998574643519
 21
756.1292823585304
 31
0.0
  0
LINE
  5
14B
330
1F
100
AcDbEntity
  8
C-A
  6
Continuous
 62
     3
370
    13
100
AcDbLine
 10
77.64454016814398
 20
760.5292572846283
 30
0.0
 11
-152.4998574643519
 21
760.5292572846283
 31
0.0
  0
LINE
  5
14C
330
1F
100
AcDbEntity
  8
C-A
  6
Continuous
 62
     3
370
    13
100
AcDbLine
 10
82.04451509424189
 20
764.9292322107266
 30
0.0
 11
-152.4998574643519
 21
764.9292322107266
 31
0.0
  0
LINE
  5
14D
330
1F
100
AcDbEntity
  8
C-A
  6
Continuous
 62
     3
370
    13
100
AcDbLine
 10
86.44449002034008
 20
769.3292071368245
 30
0.0
 11
-152.4998574643519
 21
769.3292071368245
 31
0.0
  0
LINE
  5
14E
330
1F
100
AcDbEntity
  8
C-A
  6
Continuous
 62
     3
370
    13
100
AcDbLine
 10
119.2443705893857
 20
802.12908770587
 30
0.0
 11
-152.4998574643519
 21
802.12908770587
 31
0.0
  0
LINE
  5
14F
330
1F
100
AcDbEntity
  8
C-A
  6
Continuous
 62
     3
370
    13
100
AcDbLine
 10
123.6443455154836
 20
806.5290626319679
 30
0.0
 11
-152.4998574643519
 21
806.5290626319679
 31
0.0
  0
LINE
  5
150
330
1F
100
AcDbEntity
  8
C-A
  6
Continuous
 62
     3
370
    13
100
AcDbLine
 10
128.0443204415815
 20
810.9290375580658
 30
0.0
 11
-152.4998574643519
 21
810.9290375580658
 31
0.0
  0
LINE
  5
151
330
1F
100
AcDbEntity
  8
C-A
  6
Continuous
 62
     3
370
    13
100
AcDbLine
 10
132.4442953676794
 20
815.3290124841641
 30
0.0
 11
-152.4998574643519
 21
815.3290124841641
 31
0.0
  0
LINE
  5
152
330
1F
100
AcDbEntity
  8
C-A
  6
Continuous
 62
     3
370
    13
100
AcDbLine
 10
165.2444233765479
 20
848.1291404930323
 30
0.0
 11
-152.4998574643519
 21
848.1291404930323
 31
0.0
  0
LINE
  5
153
330
1F
100
AcDbEntity
  8
C-A
  6
Continuous
 62
     3
370
    13
100
AcDbLine
 10
169.6443983026458
 20
852.5291154191302
 30
0.0
 11
-152.4998574643519
 21
852.5291154191302
 31
0.0
  0
LINE
  5
154
330
1F
100
AcDbEntity
  8
C-A
  6
Continuous
 62
     3
370
    13
100
AcDbLine
 10
174.0443732287437
 20
856.9290903452281
 30
0.0
 11
-152.4998574643519
 21
856.9290903452281
 31
0.0
  0
LINE
  5
155
330
1F
100
AcDbEntity
  8
C-A
  6
Continuous
 62
     3
370
    13
100
AcDbLine
 10
178.4443481548416
 20
861.329065271326
 30
0.0
 11
-152.4998574643519
 21
861.329065271326
 31
0.0
  0
LINE
  5
156
330
1F
100
AcDbEntity
  8
C-A
  6
Continuous
 62
     3
370
    13
100
AcDbLine
 10
-85.99978653160264
 20
690.729700036951
 30
0.0
 11
-119.9997502404287
 21
690.729700036951
 31
0.0
  0
LINE
  5
157
330
1F
100
AcDbEntity
  8
C-A
  6
Continuous
 62
     3
370
    13
100
AcDbLine
 10
-85.99978653160264
 20
696.7291259765625
 30
0.0
 11
-119.9997502404287
 21
696.7291259765625
 31
0.0
  0
LINE
  5
158
330
1F
100
AcDbEntity
  8
C-A
  6
Continuous
 62
     3
370
    13
100
AcDbLine
 10
-5.999770035614347
 20
690.729700036951
 30
0.0
 11
-39.99973374444039
 21
690.729700036951
 31
0.0
  0
LINE
  5
159
330
1F
100
AcDbEntity
  8
C-A
  6
Continuous
 62
     3
370
    13
100
AcDbLine
 10
-5.999770035614347
 20
696.7291259765625
 30
0.0
 11
-39.99973374444039
 21
696.7291259765625
 31
0.0
  0
LINE
  5
15A
330
1F
100
AcDbEntity
  8
C-A
  6
Continuous
 62
     3
370
    13
100
AcDbLine
 10
-5.999770035614347
 20
736.7297528241133
 30
0.0
 11
-39.99973374444039
 21
736.7297528241133
 31
0.0
  0
LINE
  5
15B
330
1F
100
AcDbEntity
  8
C-A
  6
Continuous
 62
     3
370
    13
100
AcDbLine
 10
-5.999770035614347
 20
742.7291787637248
 30
0.0
 11
-39.99973374444039
 21
742.7291787637248
 31
0.0
  0
LINE
  5
15C
330
1F
100
AcDbEntity
  8
C-A
  6
Continuous
 62
     3
370
    13
100
AcDbLine
 10
-85.99978653160264
 20
736.7297528241133
 30
0.0
 11
-119.9997502404287
 21
736.7297528241133
 31
0.0
  0
LINE
  5
15D
330
1F
100
AcDbEntity
  8
C-A
  6
Continuous
 62
     3
370
    13
100
AcDbLine
 10
-85.99978653160264
 20
742.7291787637248
 30
0.0
 11
-119.9997502404287
 21
742.7291787637248
 31
0.0
  0
LINE
  5
15E
330
1F
100
AcDbEntity
  8
C-A
  6
Continuous
 62
     3
370
    13
100
AcDbLine
 10
-85.99978653160264
 20
782.7293107316302
 30
0.0
 11
-119.9997502404287
 21
782.7293107316302
 31
0.0
  0
LINE
  5
15F
330
1F
100
AcDbEntity
  8
C-A
  6
Continuous
 62
     3
370
    13
100
AcDbLine
 10
-85.99978653160264
 20
788.7289841110644
 30
0.0
 11
-119.9997502404287
 21
788.7289841110644
 31
0.0
  0
LINE
  5
160
330
1F
100
AcDbEntity
  8
C-A
  6
Continuous
 62
     3
370
    13
100
AcDbLine
 10
-5.999770035614347
 20
782.7293107316302
 30
0.0
 11
-39.99973374444039
 21
782.7293107316302
 31
0.0
  0
LINE
  5
161
330
1F
100
AcDbEntity
  8
C-A
  6
Continuous
 62
     3
370
    13
100
AcDbLine
 10
-5.999770035614347
 20
788.7289841110644
 30
0.0
 11
-39.99973374444039
 21
788.7289841110644
 31
0.0
  0
LINE
  5
162
330
1F
100
AcDbEntity
  8
C-A
  6
Continuous
 62
     3
370
    13
100
AcDbLine
 10
-5.999770035614347
 20
828.7296109586151
 30
0.0
 11
-39.99973374444039
 21
828.7296109586151
 31
0.0
  0
LINE
  5
163
330
1F
100
AcDbEntity
  8
C-A
  6
Continuous
 62
     3
370
    13
100
AcDbLine
 10
-5.999770035614347
 20
834.7290368982266
 30
0.0
 11
-39.99973374444039
 21
834.7290368982266
 31
0.0
  0
LINE
  5
164
330
1F
100
AcDbEntity
  8
C-A
  6
Continuous
 62
     3
370
    13
100
AcDbLine
 10
-85.99978653160264
 20
828.7296109586151
 30
0.0
 11
-119.9997502404287
 21
828.7296109586151
 31
0.0
  0
LINE
  5
165
330
1F
100
AcDbEntity
  8
C-A
  6
Continuous
 62
     3
370
    13
100
AcDbLine
 10
-85.99978653160264
 20
834.7290368982266
 30
0.0
 11
-119.9997502404287
 21
834.7290368982266
 31
0.0
  0
LINE
  5
166
330
1F
100
AcDbEntity
  8
C-A
  6
Continuous
 62
     3
370
    13
100
AcDbLine
 10
74.00024646037366
 20
782.7293107316302
 30
0.0
 11
40.0002827515479
 21
782.7293107316302
 31
0.0
  0
LINE
  5
167
330
1F
100
AcDbEntity
  8
C-A
  6
Continuous
 62
     3
370
    13
100
AcDbLine
 10
74.00024646037366
 20
788.7289841110644
 30
0.0
 11
40.0002827515479
 21
788.7289841110644
 31
0.0
  0
LINE
  5
168
330
1F
100
AcDbEntity
  8
C-A
  6
Continuous
 62
     3
370
    13
100
AcDbLine
 10
74.00024646037366
 20
828.7296109586151
 30
0.0
 11
40.0002827515479
 21
828.7296109586151
 31
0.0
  0
LINE
  5
169
330
1F
100
AcDbEntity
  8
C-A
  6
Continuous
 62
     3
370
    13
100
AcDbLine
 10
74.00024646037366
 20
834.7290368982266
 30
0.0
 11
40.0002827515479
 21
834.7290368982266
 31
0.0
  0
LINE
  5
16A
330
1F
100
AcDbEntity
  8
C-A
  6
Continuous
 62
     3
370
    13
100
AcDbLine
 10
145.8448938421304
 20
828.7296109586151
 30
0.0
 11
120.0002992475359
 21
828.7296109586151
 31
0.0
  0
LINE
  5
16B
330
1F
100
AcDbEntity
  8
C-A
  6
Continuous
 62
     3
370
    13
100
AcDbLine
 10
151.8443197817419
 20
834.7290368982266
 30
0.0
 11
120.0002992475359
 21
834.7290368982266
 31
0.0
  0
LINE
  5
16C
330
1F
100
AcDbEntity
  8
C-A
  6
Continuous
 62
     3
370
    13
100
AcDbLine
 10
53.84491198771741
 20
736.7297528241133
 30
0.0
 11
40.0002827515479
 21
736.7297528241133
 31
0.0
  0
LINE
  5
16D
330
1F
100
AcDbEntity
  8
C-A
  6
Continuous
 62
     3
370
    13
100
AcDbLine
 10
59.84446164724034
 20
742.7291787637248
 30
0.0
 11
40.0002827515479
 21
742.7291787637248
 31
0.0
  0
LINE
  5
16E
330
1F
100
AcDbEntity
  8
C-4
  6
Continuous
 62
     7
370
    13
100
AcDbLine
 10
-653.4999267475021
 20
907.7289808118667
 30
0.0
 11
-653.4999267475021
 21
990.7289577174834
 31
0.0
  0
LINE
  5
16F
330
1F
100
AcDbEntity
  8
C-4
  6
Continuous
 62
     7
370
    13
100
AcDbLine
 10
-652.499774984411
 20
907.7289808118667
 30
0.0
 11
-652.499774984411
 21
1070.728974213471
 31
0.0
  0
LINE
  5
170
330
1F
100
AcDbEntity
  8
C-4
  6
Continuous
 62
     7
370
    13
100
AcDbLine
 10
-903.4998855075316
 20
987.7287498680323
 30
0.0
 11
597.5000188157372
 21
987.7287498680323
 31
0.0
  0
LINE
  5
171
330
1F
100
AcDbEntity
  8
C-4
  6
Continuous
 62
     7
370
    13
100
AcDbLine
 10
-153.4998855075315
 20
907.7289808118667
 30
0.0
 11
-153.4998855075315
 21
990.7289577174834
 31
0.0
  0
LINE
  5
172
330
1F
100
AcDbEntity
  8
C-4
  6
Continuous
 62
     7
370
    13
100
AcDbLine
 10
-152.4998574643519
 20
907.7289808118667
 30
0.0
 11
-152.4998574643519
 21
1070.728974213471
 31
0.0
  0
LINE
  5
173
330
1F
100
AcDbEntity
  8
C-4
  6
Continuous
 62
     7
370
    13
100
AcDbLine
 10
346.5002794523502
 20
907.7289808118667
 30
0.0
 11
346.5002794523502
 21
990.7289577174834
 31
0.0
  0
LINE
  5
174
330
1F
100
AcDbEntity
  8
C-4
  6
Continuous
 62
     7
370
    13
100
AcDbLine
 10
347.5001837756187
 20
907.7289808118667
 30
0.0
 11
347.5001837756187
 21
1070.728974213471
 31
0.0
  0
LINE
  5
175
330
1F
100
AcDbEntity
  8
C-4
  6
Continuous
 62
     7
370
    13
100
AcDbLine
 10
-903.4998855075316
 20
1067.72876636402
 30
0.0
 11
597.5000188157372
 21
1067.72876636402
 31
0.0
  0
LINE
  5
176
330
1F
100
AcDbEntity
  8
C-2
  6
Continuous
 62
     3
370
    13
100
AcDbLine
 10
-923.4999514914844
 20
747.7289478198904
 30
0.0
 11
-883.4998195235789
 21
777.7295416754646
 31
0.0
  0
LINE
  5
177
330
1F
100
AcDbEntity
  8
C-2
  6
Continuous
 62
     3
370
    13
100
AcDbLine
 10
-923.4999514914844
 20
747.7289478198904
 30
0.0
 11
-903.4998855075316
 21
747.7289478198904
 31
0.0
  0
LINE
  5
178
330
1F
100
AcDbEntity
  8
C-2
  6
Continuous
 62
     3
370
    13
100
AcDbLine
 10
-903.4998855075316
 20
777.7295416754646
 30
0.0
 11
-883.4998195235789
 21
777.7295416754646
 31
0.0
  0
LINE
  5
179
330
1F
100
AcDbEntity
  8
C-2
  6
Continuous
 62
     3
370
    13
100
AcDbLine
 10
577.500200271607
 20
747.7289478198904
 30
0.0
 11
617.5003322395122
 21
777.7295416754646
 31
0.0
  0
LINE
  5
17A
330
1F
100
AcDbEntity
  8
C-2
  6
Continuous
 62
     3
370
    13
100
AcDbLine
 10
577.500200271607
 20
747.7289478198904
 30
0.0
 11
597.5000188157372
 21
747.7289478198904
 31
0.0
  0
LINE
  5
17B
330
1F
100
AcDbEntity
  8
C-2
  6
Continuous
 62
     3
370
    13
100
AcDbLine
 10
597.5000188157372
 20
777.7295416754646
 30
0.0
 11
617.5003322395122
 21
777.7295416754646
 31
0.0
  0
LINE
  5
17C
330
1F
100
AcDbEntity
  8
C-2
  6
Continuous
 62
     3
370
    13
100
AcDbLine
 10
597.5000188157372
 20
910.7294361011404
 30
0.0
 11
597.5000188157372
 21
777.7295416754646
 31
0.0
  0
LINE
  5
17D
330
1F
100
AcDbEntity
  8
C-2
  6
Continuous
 62
     3
370
    13
100
AcDbLine
 10
597.5000188157372
 20
747.7289478198904
 30
0.0
 11
597.5000188157372
 21
614.7290533942146
 31
0.0
  0
LINE
  5
17E
330
1F
100
AcDbEntity
  8
C-2
  6
Continuous
 62
     3
370
    13
100
AcDbLine
 10
-903.4998855075316
 20
614.7290533942146
 30
0.0
 11
-903.4998855075316
 21
747.7289478198904
 31
0.0
  0
LINE
  5
17F
330
1F
100
AcDbEntity
  8
C-2
  6
Continuous
 62
     3
370
    13
100
AcDbLine
 10
-903.4998855075316
 20
777.7295416754646
 30
0.0
 11
-903.4998855075316
 21
910.7294361011404
 31
0.0
  0
LINE
  5
180
330
1F
100
AcDbEntity
  8
C-5
  6
Continuous
 62
     7
370
    13
100
AcDbLine
 10
134.5002728539549
 20
429.7293090820312
 30
0.0
 11
134.5002728539549
 21
364.7297132337417
 31
0.0
  0
LINE
  5
181
330
1F
100
AcDbEntity
  8
C-5
  6
Continuous
 62
     7
370
    13
100
AcDbLine
 10
134.5002728539549
 20
364.7297132337417
 30
0.0
 11
-440.5001395457495
 21
364.7297132337417
 31
0.0
  0
LINE
  5
182
330
1F
100
AcDbEntity
  8
C-5
  6
Continuous
 62
     7
370
    13
100
AcDbLine
 10
-440.5001395457495
 20
429.7293090820312
 30
0.0
 11
134.5002728539549
 21
429.7293090820312
 31
0.0
  0
LINE
  5
183
330
1F
100
AcDbEntity
  8
C-5
  6
Continuous
 62
     7
370
    13
100
AcDbLine
 10
-440.5001395457495
 20
364.7297132337417
 30
0.0
 11
-440.5001395457495
 21
429.7293090820312
 31
0.0
  0
LINE
  5
184
330
1F
100
AcDbEntity
  8
C-0
  6
JWW_CENTER1
 62
     3
370
    13
100
AcDbLine
 10
704.3440393499429
 20
505.7668242583404
 30
0.0
 11
937.9559349369362
 21
505.7668242583404
 31
0.0
  0
LINE
  5
185
330
1F
100
AcDbEntity
  8
C-0
  6
Continuous
 62
     3
370
    13
100
AcDbLine
 10
909.6557475425107
 20
520.7667500263938
 30
0.0
 11
739.6556815585581
 21
520.7667500263938
 31
0.0
  0
LINE
  5
186
330
1F
100
AcDbEntity
  8
C-0
  6
Continuous
 62
     3
370
    13
100
AcDbLine
 10
739.6556815585581
 20
490.7670222101987
 30
0.0
 11
909.6557475425107
 21
490.7670222101987
 31
0.0
  0
LINE
  5
187
330
1F
100
AcDbEntity
  8
C-0
  6
JWW_CENTER1
 62
     3
370
    13
100
AcDbLine
 10
824.6562094301794
 20
535.3483787742823
 30
0.0
 11
824.6562094301794
 21
472.7042863175677
 31
0.0
  0
LINE
  5
188
330
1F
100
AcDbEntity
  8
C-0
  6
Continuous
 62
     7
370
    13
100
AcDbLine
 10
724.6558795104158
 20
597.9865326752533
 30
0.0
 11
924.6557970304752
 21
597.9865326752533
 31
0.0
  0
LINE
  5
189
330
1F
100
AcDbEntity
  8
C-0
  6
Continuous
 62
     7
370
    13
100
AcDbLine
 10
924.6557970304752
 20
541.9530425200592
 30
0.0
 11
924.6557970304752
 21
600.9859982052367
 31
0.0
  0
LINE
  5
18A
330
1F
100
AcDbEntity
  8
C-0
  6
Continuous
 62
     7
370
    13
100
AcDbLine
 10
724.6558795104158
 20
541.9530425200592
 30
0.0
 11
724.6558795104158
 21
600.9859982052367
 31
0.0
  0
LINE
  5
18B
330
1F
100
AcDbEntity
  8
C-0
  6
Continuous
 62
     7
370
    13
100
AcDbLine
 10
944.5477318119362
 20
490.7670222101987
 30
0.0
 11
1007.490731574394
 21
490.7670222101987
 31
0.0
  0
LINE
  5
18C
330
1F
100
AcDbEntity
  8
C-0
  6
Continuous
 62
     7
370
    13
100
AcDbLine
 10
1004.490523724943
 20
490.7670222101987
 30
0.0
 11
1004.490523724943
 21
520.7667500263938
 31
0.0
  0
LINE
  5
18D
330
1F
100
AcDbEntity
  8
C-0
  6
Continuous
 62
     7
370
    13
100
AcDbLine
 10
1007.490731574394
 20
520.7667500263938
 30
0.0
 11
944.5477318119362
 21
520.7667500263938
 31
0.0
  0
LINE
  5
18E
330
1F
100
AcDbEntity
  8
C-5
  6
Continuous
 62
     7
370
    13
100
AcDbLine
 10
544.562248281531
 20
364.7297132337417
 30
0.0
 11
544.562248281531
 21
429.7293090820312
 31
0.0
  0
LINE
  5
18F
330
1F
100
AcDbEntity
  8
C-5
  6
Continuous
 62
     7
370
    13
100
AcDbLine
 10
544.562248281531
 20
429.7293090820312
 30
0.0
 11
1119.562908121058
 21
429.7293090820312
 31
0.0
  0
LINE
  5
190
330
1F
100
AcDbEntity
  8
C-5
  6
Continuous
 62
     7
370
    13
100
AcDbLine
 10
1119.562908121058
 20
429.7293090820312
 30
0.0
 11
1119.562908121058
 21
364.7297132337417
 31
0.0
  0
LINE
  5
191
330
1F
100
AcDbEntity
  8
C-5
  6
Continuous
 62
     7
370
    13
100
AcDbLine
 10
1119.562908121058
 20
364.7297132337417
 30
0.0
 11
544.562248281531
 21
364.7297132337417
 31
0.0
  0
LINE
  5
192
330
1F
100
AcDbEntity
  8
C-3
  6
Continuous
 62
     7
370
    13
100
AcDbLine
 10
-103.4325406358045
 20
669.688902158995
 30
0.0
 11
-88.21338318489637
 21
649.8553631756758
 31
0.0
  0
LINE
  5
193
330
1F
100
AcDbEntity
  8
C-3
  6
Continuous
 62
     7
370
    13
100
AcDbLine
 10
-103.4325406358045
 20
669.688902158995
 30
0.0
 11
-93.86540361352814
 21
646.5921267947635
 31
0.0
  0
LINE
  5
194
330
1F
100
AcDbEntity
  8
C-3
  6
Continuous
 62
     7
370
    13
100
AcDbLine
 10
-11.84380376661096
 20
511.0530049092063
 30
0.0
 11
463.5690083374854
 21
511.0530049092063
 31
0.0
  0
LINE
  5
195
330
1F
100
AcDbEntity
  8
C-3
  6
Continuous
 62
     7
370
    13
100
AcDbLine
 10
-11.84380376661096
 20
511.0530049092063
 30
0.0
 11
-103.4325406358045
 21
669.688902158995
 31
0.0
  0
LINE
  5
196
330
1F
100
AcDbEntity
  8
C-4
  6
Continuous
 62
     7
370
    13
100
AcDbLine
 10
-282.999991081856
 20
574.7291688661318
 30
0.0
 11
-202.9999745858677
 21
574.7291688661318
 31
0.0
  0
LINE
  5
197
330
1F
100
AcDbEntity
  8
C-4
  6
Continuous
 62
     7
370
    13
100
AcDbLine
 10
-526.9687278850654
 20
693.7289181271117
 30
0.0
 11
-526.9687278850654
 21
739.728723474451
 31
0.0
  0
LINE
  5
198
330
1F
100
AcDbEntity
  8
C-4
  6
Continuous
 62
     7
370
    13
100
AcDbLine
 10
-446.9687113890774
 20
693.7289181271117
 30
0.0
 11
-529.9686882946937
 21
693.7289181271117
 31
0.0
  0
LINE
  5
199
330
1F
100
AcDbEntity
  8
C-4
  6
Continuous
 62
     7
370
    13
100
AcDbLine
 10
-282.999991081856
 20
693.5007786106419
 30
0.0
 11
-282.999991081856
 21
571.7292084565033
 31
0.0
  0
LINE
  5
19A
330
1F
100
AcDbEntity
  8
C-4
  6
Continuous
 62
     7
370
    13
100
AcDbLine
 10
-202.9999745858677
 20
693.5007786106419
 30
0.0
 11
-202.9999745858677
 21
571.7292084565033
 31
0.0
  0
LINE
  5
19B
330
1F
100
AcDbEntity
  8
C-4
  6
Continuous
 62
     7
370
    13
100
AcDbLine
 10
-373.6508073033508
 20
739.728723474451
 30
0.0
 11
-529.9686882946937
 21
739.728723474451
 31
0.0
  0
ARC
  5
19C
330
1F
100
AcDbEntity
  8
D-A
  6
Continuous
 62
     3
370
    13
100
AcDbCircle
 10
-441.6848814165266
 20
-392.3888830236485
 30
0.0
 40
10.00000012887491
100
AcDbArc
 50
7.016464233398438
 51
45.0
  0
ARC
  5
19D
330
1F
100
AcDbEntity
  8
D-A
  6
Continuous
 62
     3
370
    13
100
AcDbCircle
 10
-316.6849638964675
 20
-373.2469383445945
 30
0.0
 40
10.00000012887491
100
AcDbArc
 50
7.016464233398438
 51
90.0
  0
ARC
  5
19E
330
1F
100
AcDbEntity
  8
D-A
  6
Continuous
 62
     3
370
    13
100
AcDbCircle
 10
-396.3295330872404
 20
-338.2469465925886
 30
0.0
 40
25.00000128874908
100
AcDbArc
 50
225.0
 51
270.0
  0
ARC
  5
19F
330
1F
100
AcDbEntity
  8
D-A
  6
JWW_DASHED3
 62
     3
370
    13
100
AcDbCircle
 10
-425.1846042839253
 20
-352.2470917572846
 30
0.0
 40
6.50000008376869
100
AcDbArc
 50
270.0
 51
0.0
  0
ARC
  5
1A0
330
1F
100
AcDbEntity
  8
D-A
  6
Continuous
 62
     3
370
    13
100
AcDbCircle
 10
-425.1846042839253
 20
-329.2469416437922
 30
0.0
 40
6.50000008376869
100
AcDbArc
 50
0.0
 51
90.0
  0
ARC
  5
1A1
330
1F
100
AcDbEntity
  8
D-9
  6
Continuous
 62
     4
370
    13
100
AcDbCircle
 10
-591.6845102567927
 20
-300.7469465925886
 30
0.0
 40
5.000000064437454
100
AcDbArc
 50
90.0
 51
180.0
  0
ARC
  5
1A2
330
1F
100
AcDbEntity
  8
D-1
  6
Continuous
 62
     2
370
    13
100
AcDbCircle
 10
-526.6842958089464
 20
-328.2466661607896
 30
0.0
 40
5.000000064437454
100
AcDbArc
 50
233.1302490234375
 51
270.0000000000001
  0
ARC
  5
1A3
330
1F
100
AcDbEntity
  8
D-1
  6
Continuous
 62
     2
370
    13
100
AcDbCircle
 10
-601.6842958089464
 20
-318.2468806086359
 30
0.0
 40
5.000000064437454
100
AcDbArc
 50
90.0
 51
180.0
  0
ARC
  5
1A4
330
1F
100
AcDbEntity
  8
D-1
  6
Continuous
 62
     2
370
    13
100
AcDbCircle
 10
-476.6843782888873
 20
-338.246699152766
 30
0.0
 40
5.000000064437454
100
AcDbArc
 50
0.0
 51
90.0
  0
ARC
  5
1A5
330
1F
100
AcDbEntity
  8
D-1
  6
Continuous
 62
     2
370
    13
100
AcDbCircle
 10
-476.6843782888873
 20
-328.2466661607896
 30
0.0
 40
5.000000064437454
100
AcDbArc
 50
270.0
 51
0.0
  0
ARC
  5
1A6
330
1F
100
AcDbEntity
  8
D-1
  6
Continuous
 62
     2
370
    13
100
AcDbCircle
 10
-454.6842562185748
 20
-281.2465853304475
 30
0.0
 40
3.000000038662472
100
AcDbArc
 50
0.0
 51
90.0
  0
ARC
  5
1A7
330
1F
100
AcDbEntity
  8
D-1
  6
Continuous
 62
     2
370
    13
100
AcDbCircle
 10
-473.6842941593474
 20
-281.2465853304475
 30
0.0
 40
3.000000038662472
100
AcDbArc
 50
90.0
 51
180.0
  0
ARC
  5
1A8
330
1F
100
AcDbEntity
  8
D-1
  6
Continuous
 62
     2
370
    13
100
AcDbCircle
 10
-454.6842562185748
 20
-400.2467057511612
 30
0.0
 40
3.000000038662472
100
AcDbArc
 50
270.0
 51
0.0
  0
ARC
  5
1A9
330
1F
100
AcDbEntity
  8
D-1
  6
Continuous
 62
     2
370
    13
100
AcDbCircle
 10
-473.6842941593474
 20
-400.2467057511612
 30
0.0
 40
3.000000038662472
100
AcDbArc
 50
180.0
 51
270.0
  0
ARC
  5
1AA
330
1F
100
AcDbEntity
  8
D-1
  6
Continuous
 62
     2
370
    13
100
AcDbCircle
 10
-548.3346616899642
 20
-318.1967740445523
 30
0.0
 40
4.950000305433531
100
AcDbArc
 50
53.12966918945312
 51
90.0
  0
ARC
  5
1AB
330
1F
100
AcDbEntity
  8
D-1
  6
Continuous
 62
     2
370
    13
100
AcDbCircle
 10
-601.6842958089464
 20
-333.2465589368666
 30
0.0
 40
5.000000064437454
100
AcDbArc
 50
180.0
 51
270.0
  0
ARC
  5
1AC
330
1F
100
AcDbEntity
  8
D-1
  6
Continuous
 62
     2
370
    13
100
AcDbCircle
 10
-591.0145669370081
 20
-318.2468806086359
 30
0.0
 40
5.000000064437454
100
AcDbArc
 50
59.99996948242189
 51
90.00000000000003
  0
ARC
  5
1AD
330
1F
100
AcDbEntity
  8
D-1
  6
Continuous
 62
     2
370
    13
100
AcDbCircle
 10
-562.3541071608256
 20
-318.2468806086359
 30
0.0
 40
5.000000064437454
100
AcDbArc
 50
90.0
 51
120.0000305175781
  0
ARC
  5
1AE
330
1F
100
AcDbEntity
  8
D-1
  6
Continuous
 62
     2
370
    13
100
AcDbCircle
 10
-576.6843370489166
 20
-320.7468888566299
 30
0.0
 40
5.000000064437454
100
AcDbArc
 50
239.9999694824219
 51
300.0000305175781
  0
ARC
  5
1AF
330
1F
100
AcDbEntity
  8
C-A
  6
Continuous
 62
     3
370
    13
100
AcDbCircle
 10
-219.9999564402808
 20
831.7288290487755
 30
0.0
 40
2.999960167987927
100
AcDbArc
 50
90.0
 51
270.0
  0
ARC
  5
1B0
330
1F
100
AcDbEntity
  8
C-A
  6
Continuous
 62
     3
370
    13
100
AcDbCircle
 10
-185.9999927314547
 20
831.7288290487755
 30
0.0
 40
2.999960167987927
100
AcDbArc
 50
270.0
 51
90.0
  0
ARC
  5
1B1
330
1F
100
AcDbEntity
  8
C-A
  6
Continuous
 62
     3
370
    13
100
AcDbCircle
 10
-299.999972936269
 20
831.7288290487755
 30
0.0
 40
2.999960167987927
100
AcDbArc
 50
90.0
 51
270.0
  0
ARC
  5
1B2
330
1F
100
AcDbEntity
  8
C-A
  6
Continuous
 62
     3
370
    13
100
AcDbCircle
 10
-266.000009227443
 20
831.7288290487755
 30
0.0
 40
2.999960167987927
100
AcDbArc
 50
270.0
 51
90.0
  0
ARC
  5
1B3
330
1F
100
AcDbEntity
  8
C-A
  6
Continuous
 62
     3
370
    13
100
AcDbCircle
 10
-299.999972936269
 20
785.7287762616133
 30
0.0
 40
2.999960167987927
100
AcDbArc
 50
90.0
 51
270.0
  0
ARC
  5
1B4
330
1F
100
AcDbEntity
  8
C-A
  6
Continuous
 62
     3
370
    13
100
AcDbCircle
 10
-266.000009227443
 20
785.7287762616133
 30
0.0
 40
2.999960167987927
100
AcDbArc
 50
270.0
 51
90.0
  0
ARC
  5
1B5
330
1F
100
AcDbEntity
  8
C-A
  6
Continuous
 62
     3
370
    13
100
AcDbCircle
 10
-219.9999564402808
 20
785.7287762616133
 30
0.0
 40
2.999960167987927
100
AcDbArc
 50
90.0
 51
270.0
  0
ARC
  5
1B6
330
1F
100
AcDbEntity
  8
C-A
  6
Continuous
 62
     3
370
    13
100
AcDbCircle
 10
-185.9999927314547
 20
785.7287762616133
 30
0.0
 40
2.999960167987927
100
AcDbArc
 50
270.0
 51
90.0
  0
ARC
  5
1B7
330
1F
100
AcDbEntity
  8
C-A
  6
Continuous
 62
     3
370
    13
100
AcDbCircle
 10
-219.9999564402808
 20
739.7289709142738
 30
0.0
 40
2.999960167987927
100
AcDbArc
 50
90.0
 51
270.0
  0
ARC
  5
1B8
330
1F
100
AcDbEntity
  8
C-A
  6
Continuous
 62
     3
370
    13
100
AcDbCircle
 10
-185.9999927314547
 20
739.7289709142738
 30
0.0
 40
2.999960167987927
100
AcDbArc
 50
270.0
 51
90.0
  0
ARC
  5
1B9
330
1F
100
AcDbEntity
  8
C-A
  6
Continuous
 62
     3
370
    13
100
AcDbCircle
 10
-299.999972936269
 20
739.7289709142738
 30
0.0
 40
2.999960167987927
100
AcDbArc
 50
90.0
 51
270.0
  0
ARC
  5
1BA
330
1F
100
AcDbEntity
  8
C-A
  6
Continuous
 62
     3
370
    13
100
AcDbCircle
 10
-266.000009227443
 20
739.7289709142738
 30
0.0
 40
2.999960167987927
100
AcDbArc
 50
270.0
 51
90.0
  0
ARC
  5
1BB
330
1F
100
AcDbEntity
  8
C-A
  6
Continuous
 62
     3
370
    13
100
AcDbCircle
 10
-299.999972936269
 20
693.7289181271117
 30
0.0
 40
2.999960167987927
100
AcDbArc
 50
90.0
 51
270.0
  0
ARC
  5
1BC
330
1F
100
AcDbEntity
  8
C-A
  6
Continuous
 62
     3
370
    13
100
AcDbCircle
 10
-266.000009227443
 20
693.7289181271117
 30
0.0
 40
2.999960167987927
100
AcDbArc
 50
270.0
 51
90.0
  0
ARC
  5
1BD
330
1F
100
AcDbEntity
  8
C-A
  6
Continuous
 62
     3
370
    13
100
AcDbCircle
 10
-219.9999564402808
 20
693.7289181271117
 30
0.0
 40
2.999960167987927
100
AcDbArc
 50
90.0
 51
270.0
  0
ARC
  5
1BE
330
1F
100
AcDbEntity
  8
C-A
  6
Continuous
 62
     3
370
    13
100
AcDbCircle
 10
-185.9999927314547
 20
693.7289181271117
 30
0.0
 40
2.999960167987927
100
AcDbArc
 50
270.0
 51
90.0
  0
ARC
  5
1BF
330
1F
100
AcDbEntity
  8
C-A
  6
Continuous
 62
     3
370
    13
100
AcDbCircle
 10
-346.000025723431
 20
785.7287762616133
 30
0.0
 40
2.999960167987927
100
AcDbArc
 50
270.0
 51
90.0
  0
ARC
  5
1C0
330
1F
100
AcDbEntity
  8
C-A
  6
Continuous
 62
     3
370
    13
100
AcDbCircle
 10
-379.9999894322571
 20
739.7289709142738
 30
0.0
 40
2.999960167987927
100
AcDbArc
 50
90.0
 51
270.0
  0
ARC
  5
1C1
330
1F
100
AcDbEntity
  8
C-A
  6
Continuous
 62
     3
370
    13
100
AcDbCircle
 10
-346.000025723431
 20
739.7289709142738
 30
0.0
 40
2.999960167987927
100
AcDbArc
 50
270.0
 51
90.0
  0
ARC
  5
1C2
330
1F
100
AcDbEntity
  8
C-A
  6
Continuous
 62
     3
370
    13
100
AcDbCircle
 10
-379.9999894322571
 20
693.7289181271117
 30
0.0
 40
2.999960167987927
100
AcDbArc
 50
90.0
 51
270.0
  0
ARC
  5
1C3
330
1F
100
AcDbEntity
  8
C-A
  6
Continuous
 62
     3
370
    13
100
AcDbCircle
 10
-346.000025723431
 20
693.7289181271117
 30
0.0
 40
2.999960167987927
100
AcDbArc
 50
270.0
 51
90.0
  0
ARC
  5
1C4
330
1F
100
AcDbEntity
  8
C-A
  6
Continuous
 62
     3
370
    13
100
AcDbCircle
 10
-426.0000422194193
 20
693.7289181271117
 30
0.0
 40
2.999960167987927
100
AcDbArc
 50
270.0
 51
90.0
  0
ARC
  5
1C5
330
1F
100
AcDbEntity
  8
C-A
  6
Continuous
 62
     3
370
    13
100
AcDbCircle
 10
-85.99978653160264
 20
693.7291655669342
 30
0.0
 40
2.999960167987927
100
AcDbArc
 50
270.0
 51
90.0
  0
ARC
  5
1C6
330
1F
100
AcDbEntity
  8
C-A
  6
Continuous
 62
     3
370
    13
100
AcDbCircle
 10
-119.9997502404287
 20
693.7291655669342
 30
0.0
 40
2.999960167987927
100
AcDbArc
 50
90.0
 51
270.0
  0
ARC
  5
1C7
330
1F
100
AcDbEntity
  8
C-A
  6
Continuous
 62
     3
370
    13
100
AcDbCircle
 10
-5.999770035614347
 20
693.7291655669342
 30
0.0
 40
2.999960167987927
100
AcDbArc
 50
270.0
 51
90.0
  0
ARC
  5
1C8
330
1F
100
AcDbEntity
  8
C-A
  6
Continuous
 62
     3
370
    13
100
AcDbCircle
 10
-39.99973374444039
 20
693.7291655669342
 30
0.0
 40
2.999960167987927
100
AcDbArc
 50
90.0
 51
270.0
  0
ARC
  5
1C9
330
1F
100
AcDbEntity
  8
C-A
  6
Continuous
 62
     3
370
    13
100
AcDbCircle
 10
-5.999770035614347
 20
739.7292183540964
 30
0.0
 40
2.999960167987927
100
AcDbArc
 50
270.0
 51
90.0
  0
ARC
  5
1CA
330
1F
100
AcDbEntity
  8
C-A
  6
Continuous
 62
     3
370
    13
100
AcDbCircle
 10
-39.99973374444039
 20
739.7292183540964
 30
0.0
 40
2.999960167987927
100
AcDbArc
 50
90.0
 51
270.0
  0
ARC
  5
1CB
330
1F
100
AcDbEntity
  8
C-A
  6
Continuous
 62
     3
370
    13
100
AcDbCircle
 10
-85.99978653160264
 20
739.7292183540964
 30
0.0
 40
2.999960167987927
100
AcDbArc
 50
270.0
 51
90.0
  0
ARC
  5
1CC
330
1F
100
AcDbEntity
  8
C-A
  6
Continuous
 62
     3
370
    13
100
AcDbCircle
 10
-119.9997502404287
 20
739.7292183540964
 30
0.0
 40
2.999960167987927
100
AcDbArc
 50
90.0
 51
270.0
  0
ARC
  5
1CD
330
1F
100
AcDbEntity
  8
C-A
  6
Continuous
 62
     3
370
    13
100
AcDbCircle
 10
-85.99978653160264
 20
785.729023701436
 30
0.0
 40
2.999960167987927
100
AcDbArc
 50
270.0
 51
90.0
  0
ARC
  5
1CE
330
1F
100
AcDbEntity
  8
C-A
  6
Continuous
 62
     3
370
    13
100
AcDbCircle
 10
-119.9997502404287
 20
785.729023701436
 30
0.0
 40
2.999960167987927
100
AcDbArc
 50
90.0
 51
270.0
  0
ARC
  5
1CF
330
1F
100
AcDbEntity
  8
C-A
  6
Continuous
 62
     3
370
    13
100
AcDbCircle
 10
-5.999770035614347
 20
785.729023701436
 30
0.0
 40
2.999960167987927
100
AcDbArc
 50
270.0
 51
90.0
  0
ARC
  5
1D0
330
1F
100
AcDbEntity
  8
C-A
  6
Continuous
 62
     3
370
    13
100
AcDbCircle
 10
-39.99973374444039
 20
785.729023701436
 30
0.0
 40
2.999960167987927
100
AcDbArc
 50
90.0
 51
270.0
  0
ARC
  5
1D1
330
1F
100
AcDbEntity
  8
C-A
  6
Continuous
 62
     3
370
    13
100
AcDbCircle
 10
-5.999770035614347
 20
831.7290764885981
 30
0.0
 40
2.999960167987927
100
AcDbArc
 50
270.0
 51
90.0
  0
ARC
  5
1D2
330
1F
100
AcDbEntity
  8
C-A
  6
Continuous
 62
     3
370
    13
100
AcDbCircle
 10
-39.99973374444039
 20
831.7290764885981
 30
0.0
 40
2.999960167987927
100
AcDbArc
 50
90.0
 51
270.0
  0
ARC
  5
1D3
330
1F
100
AcDbEntity
  8
C-A
  6
Continuous
 62
     3
370
    13
100
AcDbCircle
 10
-85.99978653160264
 20
831.7290764885981
 30
0.0
 40
2.999960167987927
100
AcDbArc
 50
270.0
 51
90.0
  0
ARC
  5
1D4
330
1F
100
AcDbEntity
  8
C-A
  6
Continuous
 62
     3
370
    13
100
AcDbCircle
 10
-119.9997502404287
 20
831.7290764885981
 30
0.0
 40
2.999960167987927
100
AcDbArc
 50
90.0
 51
270.0
  0
ARC
  5
1D5
330
1F
100
AcDbEntity
  8
C-A
  6
Continuous
 62
     3
370
    13
100
AcDbCircle
 10
40.0002827515479
 20
739.7292183540964
 30
0.0
 40
2.999960167987927
100
AcDbArc
 50
90.0
 51
270.0
  0
ARC
  5
1D6
330
1F
100
AcDbEntity
  8
C-A
  6
Continuous
 62
     3
370
    13
100
AcDbCircle
 10
74.00024646037366
 20
785.729023701436
 30
0.0
 40
2.999960167987927
100
AcDbArc
 50
270.0
 51
90.0
  0
ARC
  5
1D7
330
1F
100
AcDbEntity
  8
C-A
  6
Continuous
 62
     3
370
    13
100
AcDbCircle
 10
40.0002827515479
 20
785.729023701436
 30
0.0
 40
2.999960167987927
100
AcDbArc
 50
90.0
 51
270.0
  0
ARC
  5
1D8
330
1F
100
AcDbEntity
  8
C-A
  6
Continuous
 62
     3
370
    13
100
AcDbCircle
 10
74.00024646037366
 20
831.7290764885981
 30
0.0
 40
2.999960167987927
100
AcDbArc
 50
270.0
 51
90.0
  0
ARC
  5
1D9
330
1F
100
AcDbEntity
  8
C-A
  6
Continuous
 62
     3
370
    13
100
AcDbCircle
 10
40.0002827515479
 20
831.7290764885981
 30
0.0
 40
2.999960167987927
100
AcDbArc
 50
90.0
 51
270.0
  0
ARC
  5
1DA
330
1F
100
AcDbEntity
  8
C-A
  6
Continuous
 62
     3
370
    13
100
AcDbCircle
 10
120.0002992475359
 20
831.7290764885981
 30
0.0
 40
2.999960167987927
100
AcDbArc
 50
90.0
 51
270.0
  0
ARC
  5
1DB
330
1F
100
AcDbEntity
  8
C-0
  6
Continuous
 62
     3
370
    13
100
AcDbCircle
 10
909.655005223043
 20
505.7668242583404
 30
0.0
 40
14.99999922675056
100
AcDbArc
 50
1.165664672851562
 51
89.9994354248047
  0
ARC
  5
1DC
330
1F
100
AcDbEntity
  8
C-0
  6
Continuous
 62
     3
370
    13
100
AcDbCircle
 10
909.6557475425107
 20
505.7668242583404
 30
0.0
 40
14.99999922675056
100
AcDbArc
 50
270.0
 51
0.0012359619140681
  0
ARC
  5
1DD
330
1F
100
AcDbEntity
  8
C-0
  6
Continuous
 62
     3
370
    13
100
AcDbCircle
 10
739.6556815585581
 20
505.7668242583404
 30
0.0
 40
14.99999922675056
100
AcDbArc
 50
179.9994049072265
 51
270.0
  0
ARC
  5
1DE
330
1F
100
AcDbEntity
  8
C-0
  6
Continuous
 62
     3
370
    13
100
AcDbCircle
 10
739.6556815585581
 20
505.7668242583404
 30
0.0
 40
14.99999922675056
100
AcDbArc
 50
89.99996948242188
 51
179.9988098144531
  0
TEXT
  5
1DF
330
1F
100
AcDbEntity
  8
D-4
  6
Continuous
 62
     2
370
    13
100
AcDbText
 10
-514.6302937172551
 20
-37.93593433277032
 30
0.0
 40
30.48
  1
1
 41
0.9999999999999998
  7
ＭＳ ゴシック
100
AcDbText
  0
TEXT
  5
1E0
330
1F
100
AcDbEntity
  8
D-4
  6
Continuous
 62
     2
370
    13
100
AcDbText
 10
-565.4346009847277
 20
-146.6872210198479
 30
0.0
 40
30.48
  1
25
 41
1.0625
  7
ＭＳ ゴシック
100
AcDbText
  0
TEXT
  5
1E1
330
1F
100
AcDbEntity
  8
D-5
  6
Continuous
 62
     7
370
    13
100
AcDbText
 10
-356.328757775796
 20
-107.5838988597971
 30
0.0
 40
22.86
  1
塩ビクッション
 41
1.142857142857143
  7
ＭＳ ゴシック
100
AcDbText
  0
TEXT
  5
1E2
330
1F
100
AcDbEntity
  8
D-4
  6
Continuous
 62
     2
370
    13
100
AcDbText
 10
-597.0810160765773
 20
-673.2259255569046
 30
0.0
 40
30.48
  1
25～30
 41
1.104166666666667
  7
ＭＳ ゴシック
100
AcDbText
  0
TEXT
  5
1E3
330
1F
100
AcDbEntity
  8
D-4
  6
Continuous
 62
     2
370
    13
100
AcDbText
 10
-474.5532698244658
 20
-827.6901111169763
 30
0.0
 40
30.48
  1
75～80
 41
1.104166666666667
  7
ＭＳ ゴシック
100
AcDbText
  0
TEXT
  5
1E4
330
1F
100
AcDbEntity
  8
D-4
  6
Continuous
 62
     2
370
    13
100
AcDbText
 10
54.36034873550049
 20
-473.760054304793
 30
0.0
 40
30.48
  1
40～50
 50
90.0
 41
1.104166666666667
  7
ＭＳ ゴシック
100
AcDbText
  0
TEXT
  5
1E5
330
1F
100
AcDbEntity
  8
D-4
  6
Continuous
 62
     2
370
    13
100
AcDbText
 10
-423.0464433155099
 20
-458.1384885722955
 30
0.0
 40
30.48
  1
29
 50
0.0010007472011468
 41
1.0625
  7
ＭＳ ゴシック
100
AcDbText
  0
TEXT
  5
1E6
330
1F
100
AcDbEntity
  8
D-4
  6
Continuous
 62
     2
370
    13
100
AcDbText
 10
-229.2749711547024
 20
-409.4968641126477
 30
0.0
 40
30.48
  1
10
 50
90.0
 41
1.0625
  7
ＭＳ ゴシック
100
AcDbText
  0
TEXT
  5
1E7
330
1F
100
AcDbEntity
  8
D-4
  6
Continuous
 62
     2
370
    13
100
AcDbText
 10
-229.2749711547024
 20
-341.9966414168073
 30
0.0
 40
30.48
  1
17
 50
90.0
 41
1.0625
  7
ＭＳ ゴシック
100
AcDbText
  0
TEXT
  5
1E8
330
1F
100
AcDbEntity
  8
D-4
  6
Continuous
 62
     2
370
    13
100
AcDbText
 10
-762.8075622785409
 20
-361.9967074007601
 30
0.0
 40
30.48
  1
25
 50
90.0
 41
1.0625
  7
ＭＳ ゴシック
100
AcDbText
  0
TEXT
  5
1E9
330
1F
100
AcDbEntity
  8
D-4
  6
Continuous
 62
     2
370
    13
100
AcDbText
 10
-440.573039441495
 20
-37.93593433277032
 30
0.0
 40
30.48
  1
5
 41
0.9999999999999998
  7
ＭＳ ゴシック
100
AcDbText
  0
TEXT
  5
1EA
330
1F
100
AcDbEntity
  8
D-5
  6
Continuous
 62
     2
370
    13
100
AcDbText
 10
-906.1794057988013
 20
-956.0492716691313
 30
0.0
 40
30.48
  1
断面詳細図　Ｓ＝１：２
 50
359.9999855334109
 41
1.113636363636364
  7
ＭＳ ゴシック
100
AcDbText
  0
TEXT
  5
1EB
330
1F
100
AcDbEntity
  8
D-5
  6
Continuous
 62
     7
370
    13
100
AcDbText
 10
-299.744483071404
 20
-220.2626741316512
 30
0.0
 40
22.86
  1
溶接用アンカ－＠５００
 41
1.151515151515152
  7
ＭＳ ゴシック
100
AcDbText
  0
TEXT
  5
1EC
330
1F
100
AcDbEntity
  8
D-5
  6
Continuous
 62
     7
370
    13
100
AcDbText
 10
-300.1346956716997
 20
-256.8311869193411
 30
0.0
 40
22.86
  1
ｔ＝２．３（ＳＰＨＣ）
 41
1.151515151515152
  7
ＭＳ ゴシック
100
AcDbText
  0
TEXT
  5
1ED
330
1F
100
AcDbEntity
  8
D-5
  6
Continuous
 62
     2
370
    13
100
AcDbText
 10
454.7890928629288
 20
-785.2900603093327
 30
0.0
 40
30.48
  1
材質：冷間圧延ステンレス鋼板（ＳＵＳ３０４－２Ｂ）
 41
1.12
  7
ＭＳ ゴシック
100
AcDbText
  0
TEXT
  5
1EE
330
1F
100
AcDbEntity
  8
D-5
  6
Continuous
 62
     2
370
    13
100
AcDbText
 10
454.7891176069111
 20
-850.2905221970016
 30
0.0
 40
30.48
  1
定尺：３０００
 41
1.107142857142857
  7
ＭＳ ゴシック
100
AcDbText
  0
TEXT
  5
1EF
330
1F
100
AcDbEntity
  8
D-5
  6
Continuous
 62
     7
370
    13
100
AcDbText
 10
-357.5221229243919
 20
-161.2093046611062
 30
0.0
 40
22.86
  1
ステンレス製受枠ＳＦ０３Ｂ
 41
1.153846153846154
  7
ＭＳ ゴシック
100
AcDbText
  0
TEXT
  5
1F0
330
1F
100
AcDbEntity
  8
D-5
  6
Continuous
 62
     2
370
    13
100
AcDbText
 10
395.0774592322277
 20
-720.2903407411318
 30
0.0
 40
30.48
  1
ステンレス製受枠　ＳＦ０３Ｂ
 41
1.116071428571428
  7
ＭＳ ゴシック
100
AcDbText
  0
TEXT
  5
1F1
330
1F
100
AcDbEntity
  8
D-4
  6
Continuous
 62
     2
370
    13
100
AcDbText
 10
-974.051640218786
 20
-262.1248358649176
 30
0.0
 40
30.48
  1
3
 50
90.0
 41
0.9999999999999998
  7
ＭＳ ゴシック
100
AcDbText
  0
TEXT
  5
1F2
330
1F
100
AcDbEntity
  8
D-5
  6
Continuous
 62
     7
370
    13
100
AcDbText
 10
-352.015271315703
 20
-8.149834974134098
 30
0.0
 40
22.86
  1
ノンスリップタイプ
 41
1.148148148148148
  7
ＭＳ ゴシック
100
AcDbText
  0
TEXT
  5
1F3
330
1F
100
AcDbEntity
  8
D-5
  6
Continuous
 62
     7
370
    13
100
AcDbText
 10
-353.2202207719953
 20
-42.77718235325155
 30
0.0
 40
22.86
  1
ステンレス製排水用蓋ＳＺ－３（ｔ＝３）
 41
1.157894736842105
  7
ＭＳ ゴシック
100
AcDbText
  0
TEXT
  5
1F4
330
1F
100
AcDbEntity
  8
D-5
  6
Continuous
 62
     2
370
    13
100
AcDbText
 10
340.4869638906948
 20
-317.6067733847128
 30
0.0
 40
30.48
  1
仕　様
 41
1.083333333333333
  7
ＭＳ ゴシック
100
AcDbText
  0
TEXT
  5
1F5
330
1F
100
AcDbEntity
  8
D-5
  6
Continuous
 62
     2
370
    13
100
AcDbText
 10
454.7893403027516
 20
-510.5274994391364
 30
0.0
 40
30.48
  1
材質：冷間圧延ステンレス鋼板（ＳＵＳ３０４－２Ｂ）
 41
1.12
  7
ＭＳ ゴシック
100
AcDbText
  0
TEXT
  5
1F6
330
1F
100
AcDbEntity
  8
D-5
  6
Continuous
 62
     2
370
    13
100
AcDbText
 10
454.7893155587693
 20
-575.5275283071156
 30
0.0
 40
30.48
  1
処理：ヘアライン
 41
1.109375
  7
ＭＳ ゴシック
100
AcDbText
  0
TEXT
  5
1F7
330
1F
100
AcDbEntity
  8
D-5
  6
Continuous
 62
     2
370
    13
100
AcDbText
 10
454.7894158512677
 20
-642.0788811431216
 30
0.0
 40
30.48
  1
定尺：５００
 50
359.9999866252354
 41
1.104166666666667
  7
ＭＳ ゴシック
100
AcDbText
  0
TEXT
  5
1F8
330
1F
100
AcDbEntity
  8
C-4
  6
Continuous
 62
     2
370
    13
100
AcDbText
 10
-684.2003092894679
 20
998.3687663640203
 30
0.0
 40
30.48
  1
1
 41
0.9999999999999998
  7
ＭＳ ゴシック
100
AcDbText
  0
TEXT
  5
1F9
330
1F
100
AcDbEntity
  8
C-4
  6
Continuous
 62
     2
370
    13
100
AcDbText
 10
-435.499892105927
 20
998.3687663640203
 30
0.0
 40
30.48
  1
499
 41
1.083333333333333
  7
ＭＳ ゴシック
100
AcDbText
  0
TEXT
  5
1FA
330
1F
100
AcDbEntity
  8
C-4
  6
Continuous
 62
     2
370
    13
100
AcDbText
 10
-184.2002680494976
 20
998.3687663640203
 30
0.0
 40
30.48
  1
1
 41
0.9999999999999998
  7
ＭＳ ゴシック
100
AcDbText
  0
TEXT
  5
1FB
330
1F
100
AcDbEntity
  8
C-4
  6
Continuous
 62
     2
370
    13
100
AcDbText
 10
64.50008727408786
 20
998.3687663640203
 30
0.0
 40
30.48
  1
499
 41
1.083333333333333
  7
ＭＳ ゴシック
100
AcDbText
  0
TEXT
  5
1FC
330
1F
100
AcDbEntity
  8
C-4
  6
Continuous
 62
     2
370
    13
100
AcDbText
 10
315.7999587703401
 20
998.3687663640203
 30
0.0
 40
30.48
  1
1
 41
0.9999999999999998
  7
ＭＳ ゴシック
100
AcDbText
  0
TEXT
  5
1FD
330
1F
100
AcDbEntity
  8
C-4
  6
Continuous
 62
     2
370
    13
100
AcDbText
 10
-434.9998162243814
 20
1078.368535420186
 30
0.0
 40
30.48
  1
500
 41
1.083333333333333
  7
ＭＳ ゴシック
100
AcDbText
  0
TEXT
  5
1FE
330
1F
100
AcDbEntity
  8
C-4
  6
Continuous
 62
     2
370
    13
100
AcDbText
 10
65.00010129567784
 20
1078.368535420186
 30
0.0
 40
30.48
  1
500
 41
1.083333333333333
  7
ＭＳ ゴシック
100
AcDbText
  0
TEXT
  5
1FF
330
1F
100
AcDbEntity
  8
C-3
  6
Continuous
 62
     7
370
    13
100
AcDbText
 10
-10.21064320126044
 20
472.3080276736698
 30
0.0
 40
22.86
  1
被膜厚さ７５μ（色：グレ－）
 41
1.154761904761905
  7
ＭＳ ゴシック
100
AcDbText
  0
TEXT
  5
200
330
1F
100
AcDbEntity
  8
C-3
  6
Continuous
 62
     7
370
    13
100
AcDbText
 10
99.19694462338057
 20
525.2825430215373
 30
0.0
 40
22.86
  1
セラミクス溶射
 41
1.142857142857143
  7
ＭＳ ゴシック
100
AcDbText
  0
TEXT
  5
201
330
1F
100
AcDbEntity
  8
C-5
  6
Continuous
 62
     2
370
    13
100
AcDbText
 10
-420.5000570658087
 20
382.8693833139781
 30
0.0
 40
30.48
  1
平面詳細図　Ｓ＝１：１０
 41
1.114583333333333
  7
ＭＳ ゴシック
100
AcDbText
  0
TEXT
  5
202
330
1F
100
AcDbEntity
  8
C-0
  6
Continuous
 62
     2
370
    13
100
AcDbText
 10
803.4055908306229
 20
608.6267966110644
 30
0.0
 40
30.48
  1
40
 41
1.0625
  7
ＭＳ ゴシック
100
AcDbText
  0
TEXT
  5
203
330
1F
100
AcDbEntity
  8
C-0
  6
Continuous
 62
     2
370
    13
100
AcDbText
 10
993.8502597891326
 20
495.7672572780301
 30
0.0
 40
30.48
  1
6
 50
90.0
 41
0.9999999999999998
  7
ＭＳ ゴシック
100
AcDbText
  0
TEXT
  5
204
330
1F
100
AcDbEntity
  8
C-5
  6
Continuous
 62
     2
370
    13
100
AcDbText
 10
587.0628256411171
 20
382.8693833139781
 30
0.0
 40
30.48
  1
排水穴詳細　Ｓ＝１：２
 41
1.113636363636364
  7
ＭＳ ゴシック
100
AcDbText
  0
TEXT
  5
205
330
1F
100
AcDbEntity
  8
C-4
  6
Continuous
 62
     2
370
    13
100
AcDbText
 10
-264.2499828338618
 20
585.3689379222974
 30
0.0
 40
30.48
  1
80
 41
1.0625
  7
ＭＳ ゴシック
100
AcDbText
  0
TEXT
  5
206
330
1F
100
AcDbEntity
  8
C-4
  6
Continuous
 62
     2
370
    13
100
AcDbText
 10
-537.6087443810537
 20
695.4788208007814
 30
0.0
 40
30.48
  1
46
 50
90.0
 41
1.0625
  7
ＭＳ ゴシック
100
AcDbText
  0
TEXT
  5
207
330
1F
100
AcDbEntity
  8
D-4
  6
Continuous
 62
     2
370
    13
100
AcDbText
 10
-1147.804878595713
 20
-140.4882348632813
 30
0.0
 40
30.48
  1
200
 41
1.083333333333333
  7
ＭＳ ゴシック
100
AcDbText
  0
TEXT
  5
208
330
1F
100
AcDbEntity
  8
D-4
  6
Continuous
 62
     2
370
    13
100
AcDbText
 10
-1149.763859671515
 20
-34.70189585092889
 30
0.0
 40
30.48
  1
250
 41
1.083333333333333
  7
ＭＳ ゴシック
100
AcDbText
  0
TEXT
  5
209
330
1F
100
AcDbEntity
  8
D-4
  6
Continuous
 62
     2
370
    13
100
AcDbText
 10
-1149.763859671515
 20
76.96151010874168
 30
0.0
 40
30.48
  1
262
 41
1.083333333333333
  7
ＭＳ ゴシック
100
AcDbText
  0
TEXT
  5
20A
330
1F
100
AcDbEntity
  8
D-5
  6
Continuous
 62
     2
370
    13
100
AcDbText
 10
395.0774344882454
 20
-445.5274087112015
 30
0.0
 40
30.48
  1
ＳＺ－３　２５０×５００
 41
1.114583333333333
  7
ＭＳ ゴシック
100
AcDbText
  0
TEXT
  5
20B
330
1F
100
AcDbEntity
  8
D-5
  6
Continuous
 62
     2
370
    13
100
AcDbText
 10
395.0774592322277
 20
-380.5273798432221
 30
0.0
 40
30.48
  1
ノンスリップタイプステンレス製排水用蓋
 41
1.118421052631579
  7
ＭＳ ゴシック
100
AcDbText
  0
TEXT
  5
20C
330
1F
100
AcDbEntity
  8
F-4
  6
Continuous
 62
     2
370
    13
100
AcDbText
 10
-893.5002327480828
 20
-1359.359882466084
 30
0.0
 40
30.48
  1
ノンスリップタイプステンレス製排水用蓋　ＳＺ－３　２５０×５００＋ＳＦ０３Ｂ
 41
0.8993421052631579
  7
ＭＳ ゴシック
100
AcDbText
  0
LWPOLYLINE
  5
20D
330
1F
100
AcDbEntity
  8
D-4
  6
Continuous
 62
     7
370
    13
100
AcDbPolyline
 90
        4
 70
     1
 43
1.0
 10
-451.1854092881482
 20
62.12046030405418
 42
0.4142135623731
 10
-451.6854092881482
 20
62.62046030405418
 42
0.4142135623731
 10
-452.1854092881482
 20
62.12046030405418
 42
0.4142135623731
 10
-451.6854092881482
 20
61.62046030405418
 42
0.4142135623731
  0
LWPOLYLINE
  5
20E
330
1F
100
AcDbEntity
  8
D-4
  6
Continuous
 62
     7
370
    13
100
AcDbPolyline
 90
        4
 70
     1
 43
1.0
 10
-481.1845185047868
 20
-48.57520850929035
 42
0.4142135623731
 10
-481.6845185047868
 20
-48.07520850929035
 42
0.4142135623731
 10
-482.1845185047868
 20
-48.57520850929035
 42
0.4142135623731
 10
-481.6845185047868
 20
-49.07520850929035
 42
0.4142135623731
  0
LWPOLYLINE
  5
20F
330
1F
100
AcDbEntity
  8
D-4
  6
Continuous
 62
     7
370
    13
100
AcDbPolyline
 90
        4
 70
     1
 43
1.0
 10
-476.1842545689758
 20
-48.57520850929035
 42
0.4142135623731
 10
-476.6842545689758
 20
-48.07520850929035
 42
0.4142135623731
 10
-477.1842545689758
 20
-48.57520850929035
 42
0.4142135623731
 10
-476.6842545689758
 20
-49.07520850929035
 42
0.4142135623731
  0
LWPOLYLINE
  5
210
330
1F
100
AcDbEntity
  8
D-4
  6
Continuous
 62
     7
370
    13
100
AcDbPolyline
 90
        4
 70
     1
 43
1.0
 10
-451.1854092881482
 20
-48.57520850929035
 42
0.4142135623731
 10
-451.6854092881482
 20
-48.07520850929035
 42
0.4142135623731
 10
-452.1854092881482
 20
-48.57520850929035
 42
0.4142135623731
 10
-451.6854092881482
 20
-49.07520850929035
 42
0.4142135623731
  0
LWPOLYLINE
  5
211
330
1F
100
AcDbEntity
  8
D-4
  6
Continuous
 62
     7
370
    13
100
AcDbPolyline
 90
        4
 70
     1
 43
1.0
 10
-606.1853020642251
 20
-157.3274849556586
 42
0.4142135623731
 10
-606.685302064225
 20
-156.8274849556586
 42
0.4142135623731
 10
-607.185302064225
 20
-157.3274849556586
 42
0.4142135623731
 10
-606.685302064225
 20
-157.8274849556586
 42
0.4142135623731
  0
LWPOLYLINE
  5
212
330
1F
100
AcDbEntity
  8
D-4
  6
Continuous
 62
     7
370
    13
100
AcDbPolyline
 90
        4
 70
     1
 43
1.0
 10
-481.1845185047868
 20
-157.3274849556586
 42
0.4142135623731
 10
-481.6845185047868
 20
-156.8274849556586
 42
0.4142135623731
 10
-482.1845185047868
 20
-157.3274849556586
 42
0.4142135623731
 10
-481.6845185047868
 20
-157.8274849556586
 42
0.4142135623731
  0
LWPOLYLINE
  5
213
330
1F
100
AcDbEntity
  8
D-4
  6
Continuous
 62
     7
370
    13
100
AcDbPolyline
 90
        4
 70
     1
 43
1.0
 10
-751.6677932223754
 20
-278.2468723606418
 42
0.4142135623731
 10
-752.1677932223754
 20
-277.7468723606418
 42
0.4142135623731
 10
-752.6677932223754
 20
-278.2468723606418
 42
0.4142135623731
 10
-752.1677932223754
 20
-278.7468723606418
 42
0.4142135623731
  0
LWPOLYLINE
  5
214
330
1F
100
AcDbEntity
  8
D-4
  6
Continuous
 62
     7
370
    13
100
AcDbPolyline
 90
        4
 70
     1
 43
1.0
 10
-751.6677932223754
 20
-403.2471610404349
 42
0.4142135623731
 10
-752.1677932223754
 20
-402.7471610404349
 42
0.4142135623731
 10
-752.6677932223754
 20
-403.2471610404349
 42
0.4142135623731
 10
-752.1677932223754
 20
-403.7471610404349
 42
0.4142135623731
  0
LWPOLYLINE
  5
215
330
1F
100
AcDbEntity
  8
D-4
  6
Continuous
 62
     7
370
    13
100
AcDbPolyline
 90
        4
 70
     1
 43
1.0
 10
65.50011779166613
 20
-278.2468723606418
 42
0.4142135623731
 10
65.00011779166613
 20
-277.7468723606418
 42
0.4142135623731
 10
64.50011779166613
 20
-278.2468723606418
 42
0.4142135623731
 10
65.00011779166613
 20
-278.7468723606418
 42
0.4142135623731
  0
LWPOLYLINE
  5
216
330
1F
100
AcDbEntity
  8
D-4
  6
Continuous
 62
     7
370
    13
100
AcDbPolyline
 90
        4
 70
     1
 43
1.0
 10
65.50011779166613
 20
-528.247078560494
 42
0.4142135623731
 10
65.00011779166613
 20
-527.7470785604941
 42
0.4142135623731
 10
64.50011779166613
 20
-528.247078560494
 42
0.4142135623731
 10
65.00011779166613
 20
-528.747078560494
 42
0.4142135623731
  0
LWPOLYLINE
  5
217
330
1F
100
AcDbEntity
  8
D-4
  6
Continuous
 62
     7
370
    13
100
AcDbPolyline
 90
        4
 70
     1
 43
1.0
 10
-218.1347072188914
 20
-278.2468723606418
 42
0.4142135623731
 10
-218.6347072188914
 20
-277.7468723606418
 42
0.4142135623731
 10
-219.1347072188914
 20
-278.2468723606418
 42
0.4142135623731
 10
-218.6347072188914
 20
-278.7468723606418
 42
0.4142135623731
  0
LWPOLYLINE
  5
218
330
1F
100
AcDbEntity
  8
D-4
  6
Continuous
 62
     7
370
    13
100
AcDbPolyline
 90
        4
 70
     1
 43
1.0
 10
-218.1347072188914
 20
-363.2467816327069
 42
0.4142135623731
 10
-218.6347072188914
 20
-362.7467816327069
 42
0.4142135623731
 10
-219.1347072188914
 20
-363.2467816327069
 42
0.4142135623731
 10
-218.6347072188914
 20
-363.7467816327069
 42
0.4142135623731
  0
LWPOLYLINE
  5
219
330
1F
100
AcDbEntity
  8
D-4
  6
Continuous
 62
     7
370
    13
100
AcDbPolyline
 90
        4
 70
     1
 43
1.0
 10
-218.1347072188914
 20
-413.2473177523225
 42
0.4142135623731
 10
-218.6347072188914
 20
-412.7473177523225
 42
0.4142135623731
 10
-219.1347072188914
 20
-413.2473177523225
 42
0.4142135623731
 10
-218.6347072188914
 20
-413.7473177523225
 42
0.4142135623731
  0
LWPOLYLINE
  5
21A
330
1F
100
AcDbEntity
  8
D-4
  6
Continuous
 62
     7
370
    13
100
AcDbPolyline
 90
        4
 70
     1
 43
1.0
 10
-451.1847906885918
 20
-468.7777627480996
 42
0.4142135623731
 10
-451.6847906885917
 20
-468.2777627480996
 42
0.4142135623731
 10
-452.1847906885916
 20
-468.7777627480996
 42
0.4142135623731
 10
-451.6847906885917
 20
-469.2777627480996
 42
0.4142135623731
  0
LWPOLYLINE
  5
21B
330
1F
100
AcDbEntity
  8
D-4
  6
Continuous
 62
     7
370
    13
100
AcDbPolyline
 90
        4
 70
     1
 43
1.0
 10
-306.1846834646685
 20
-468.7777627480996
 42
0.4142135623731
 10
-306.6846834646685
 20
-468.2777627480996
 42
0.4142135623731
 10
-307.1846834646685
 20
-468.7777627480996
 42
0.4142135623731
 10
-306.6846834646685
 20
-469.2777627480996
 42
0.4142135623731
  0
LWPOLYLINE
  5
21C
330
1F
100
AcDbEntity
  8
D-4
  6
Continuous
 62
     7
370
    13
100
AcDbPolyline
 90
        4
 70
     1
 43
1.0
 10
-606.1848071845798
 20
-683.86569461307
 42
0.4142135623731
 10
-606.6848071845798
 20
-683.3656946130701
 42
0.4142135623731
 10
-607.1848071845797
 20
-683.86569461307
 42
0.4142135623731
 10
-606.6848071845798
 20
-684.36569461307
 42
0.4142135623731
  0
LWPOLYLINE
  5
21D
330
1F
100
AcDbEntity
  8
D-4
  6
Continuous
 62
     7
370
    13
100
AcDbPolyline
 90
        4
 70
     1
 43
1.0
 10
-456.1845597447571
 20
-683.86569461307
 42
0.4142135623731
 10
-456.6845597447571
 20
-683.3656946130701
 42
0.4142135623731
 10
-457.1845597447571
 20
-683.86569461307
 42
0.4142135623731
 10
-456.6845597447571
 20
-684.36569461307
 42
0.4142135623731
  0
LWPOLYLINE
  5
21E
330
1F
100
AcDbEntity
  8
D-4
  6
Continuous
 62
     7
370
    13
100
AcDbPolyline
 90
        4
 70
     1
 43
1.0
 10
-606.1848071845798
 20
-838.3303750527871
 42
0.4142135623731
 10
-606.6848071845798
 20
-837.8303750527871
 42
0.4142135623731
 10
-607.1848071845797
 20
-838.3303750527871
 42
0.4142135623731
 10
-606.6848071845798
 20
-838.8303750527871
 42
0.4142135623731
  0
LWPOLYLINE
  5
21F
330
1F
100
AcDbEntity
  8
D-4
  6
Continuous
 62
     7
370
    13
100
AcDbPolyline
 90
        4
 70
     1
 43
1.0
 10
-206.1838586652597
 20
-838.3303750527871
 42
0.4142135623731
 10
-206.6838586652597
 20
-837.8303750527871
 42
0.4142135623731
 10
-207.1838586652597
 20
-838.3303750527871
 42
0.4142135623731
 10
-206.6838586652597
 20
-838.8303750527871
 42
0.4142135623731
  0
LWPOLYLINE
  5
220
330
1F
100
AcDbEntity
  8
D-4
  6
Continuous
 62
     7
370
    13
100
AcDbPolyline
 90
        4
 70
     1
 43
1.0
 10
-962.9113762829752
 20
-280.7470043285473
 42
0.4142135623731
 10
-963.4113762829752
 20
-280.2470043285472
 42
0.4142135623731
 10
-963.9113762829752
 20
-280.7470043285473
 42
0.4142135623731
 10
-963.4113762829752
 20
-281.2470043285473
 42
0.4142135623731
  0
LWPOLYLINE
  5
221
330
1F
100
AcDbEntity
  8
D-4
  6
Continuous
 62
     7
370
    13
100
AcDbPolyline
 90
        4
 70
     1
 43
1.0
 10
-962.9113762829752
 20
-295.7468063766892
 42
0.4142135623731
 10
-963.4113762829752
 20
-295.2468063766892
 42
0.4142135623731
 10
-963.9113762829752
 20
-295.7468063766892
 42
0.4142135623731
 10
-963.4113762829752
 20
-296.2468063766892
 42
0.4142135623731
  0
LWPOLYLINE
  5
222
330
1F
100
AcDbEntity
  8
C-4
  6
Continuous
 62
     7
370
    13
100
AcDbPolyline
 90
        4
 70
     1
 43
1.0
 10
-652.9999267475022
 20
987.7287498680323
 42
0.4142135623731
 10
-653.4999267475021
 20
988.2287498680323
 42
0.4142135623731
 10
-653.9999267475021
 20
987.7287498680323
 42
0.4142135623731
 10
-653.4999267475021
 20
987.2287498680323
 42
0.4142135623731
  0
LWPOLYLINE
  5
223
330
1F
100
AcDbEntity
  8
C-4
  6
Continuous
 62
     7
370
    13
100
AcDbPolyline
 90
        4
 70
     1
 43
1.0
 10
-651.999774984411
 20
987.7287498680323
 42
0.4142135623731
 10
-652.499774984411
 20
988.2287498680323
 42
0.4142135623731
 10
-652.9997749844109
 20
987.7287498680323
 42
0.4142135623731
 10
-652.499774984411
 20
987.2287498680323
 42
0.4142135623731
  0
LWPOLYLINE
  5
224
330
1F
100
AcDbEntity
  8
C-4
  6
Continuous
 62
     7
370
    13
100
AcDbPolyline
 90
        4
 70
     1
 43
1.0
 10
-152.9998855075315
 20
987.7287498680323
 42
0.4142135623731
 10
-153.4998855075315
 20
988.2287498680323
 42
0.4142135623731
 10
-153.9998855075315
 20
987.7287498680323
 42
0.4142135623731
 10
-153.4998855075315
 20
987.2287498680323
 42
0.4142135623731
  0
LWPOLYLINE
  5
225
330
1F
100
AcDbEntity
  8
C-4
  6
Continuous
 62
     7
370
    13
100
AcDbPolyline
 90
        4
 70
     1
 43
1.0
 10
-151.9998574643519
 20
987.7287498680323
 42
0.4142135623731
 10
-152.4998574643519
 20
988.2287498680323
 42
0.4142135623731
 10
-152.9998574643519
 20
987.7287498680323
 42
0.4142135623731
 10
-152.4998574643519
 20
987.2287498680323
 42
0.4142135623731
  0
LWPOLYLINE
  5
226
330
1F
100
AcDbEntity
  8
C-4
  6
Continuous
 62
     7
370
    13
100
AcDbPolyline
 90
        4
 70
     1
 43
1.0
 10
347.0002794523502
 20
987.7287498680323
 42
0.4142135623731
 10
346.5002794523502
 20
988.2287498680323
 42
0.4142135623731
 10
346.0002794523502
 20
987.7287498680323
 42
0.4142135623731
 10
346.5002794523502
 20
987.2287498680323
 42
0.4142135623731
  0
LWPOLYLINE
  5
227
330
1F
100
AcDbEntity
  8
C-4
  6
Continuous
 62
     7
370
    13
100
AcDbPolyline
 90
        4
 70
     1
 43
1.0
 10
348.0001837756187
 20
987.7287498680323
 42
0.4142135623731
 10
347.5001837756187
 20
988.2287498680323
 42
0.4142135623731
 10
347.0001837756188
 20
987.7287498680323
 42
0.4142135623731
 10
347.5001837756187
 20
987.2287498680323
 42
0.4142135623731
  0
LWPOLYLINE
  5
228
330
1F
100
AcDbEntity
  8
C-4
  6
Continuous
 62
     7
370
    13
100
AcDbPolyline
 90
        4
 70
     1
 43
1.0
 10
-651.999774984411
 20
1067.72876636402
 42
0.4142135623731
 10
-652.499774984411
 20
1068.22876636402
 42
0.4142135623731
 10
-652.9997749844109
 20
1067.72876636402
 42
0.4142135623731
 10
-652.499774984411
 20
1067.22876636402
 42
0.4142135623731
  0
LWPOLYLINE
  5
229
330
1F
100
AcDbEntity
  8
C-4
  6
Continuous
 62
     7
370
    13
100
AcDbPolyline
 90
        4
 70
     1
 43
1.0
 10
-151.9998574643519
 20
1067.72876636402
 42
0.4142135623731
 10
-152.4998574643519
 20
1068.22876636402
 42
0.4142135623731
 10
-152.9998574643519
 20
1067.72876636402
 42
0.4142135623731
 10
-152.4998574643519
 20
1067.22876636402
 42
0.4142135623731
  0
LWPOLYLINE
  5
22A
330
1F
100
AcDbEntity
  8
C-4
  6
Continuous
 62
     7
370
    13
100
AcDbPolyline
 90
        4
 70
     1
 43
1.0
 10
348.0001837756187
 20
1067.72876636402
 42
0.4142135623731
 10
347.5001837756187
 20
1068.22876636402
 42
0.4142135623731
 10
347.0001837756188
 20
1067.72876636402
 42
0.4142135623731
 10
347.5001837756187
 20
1067.22876636402
 42
0.4142135623731
  0
LWPOLYLINE
  5
22B
330
1F
100
AcDbEntity
  8
C-4
  6
Continuous
 62
     7
370
    13
100
AcDbPolyline
 90
        4
 70
     1
 43
1.0
 10
725.1558795104158
 20
597.9865326752533
 42
0.4142135623731
 10
724.6558795104158
 20
598.4865326752533
 42
0.4142135623731
 10
724.1558795104158
 20
597.9865326752533
 42
0.4142135623731
 10
724.6558795104158
 20
597.4865326752534
 42
0.4142135623731
  0
LWPOLYLINE
  5
22C
330
1F
100
AcDbEntity
  8
C-4
  6
Continuous
 62
     7
370
    13
100
AcDbPolyline
 90
        4
 70
     1
 43
1.0
 10
925.1557970304752
 20
597.9865326752533
 42
0.4142135623731
 10
924.6557970304752
 20
598.4865326752533
 42
0.4142135623731
 10
924.1557970304752
 20
597.9865326752533
 42
0.4142135623731
 10
924.6557970304752
 20
597.4865326752534
 42
0.4142135623731
  0
LWPOLYLINE
  5
22D
330
1F
100
AcDbEntity
  8
C-4
  6
Continuous
 62
     7
370
    13
100
AcDbPolyline
 90
        4
 70
     1
 43
1.0
 10
1004.990523724943
 20
490.7670222101987
 42
0.4142135623731
 10
1004.490523724943
 20
491.2670222101987
 42
0.4142135623731
 10
1003.990523724943
 20
490.7670222101987
 42
0.4142135623731
 10
1004.490523724943
 20
490.2670222101988
 42
0.4142135623731
  0
LWPOLYLINE
  5
22E
330
1F
100
AcDbEntity
  8
C-4
  6
Continuous
 62
     7
370
    13
100
AcDbPolyline
 90
        4
 70
     1
 43
1.0
 10
1004.990523724943
 20
520.7667500263938
 42
0.4142135623731
 10
1004.490523724943
 20
521.2667500263938
 42
0.4142135623731
 10
1003.990523724943
 20
520.7667500263938
 42
0.4142135623731
 10
1004.490523724943
 20
520.2667500263938
 42
0.4142135623731
  0
LWPOLYLINE
  5
22F
330
1F
100
AcDbEntity
  8
C-4
  6
Continuous
 62
     7
370
    13
100
AcDbPolyline
 90
        4
 70
     1
 43
1.0
 10
-282.499991081856
 20
574.7291688661318
 42
0.4142135623731
 10
-282.999991081856
 20
575.2291688661318
 42
0.4142135623731
 10
-283.499991081856
 20
574.7291688661318
 42
0.4142135623731
 10
-282.999991081856
 20
574.2291688661318
 42
0.4142135623731
  0
LWPOLYLINE
  5
230
330
1F
100
AcDbEntity
  8
C-4
  6
Continuous
 62
     7
370
    13
100
AcDbPolyline
 90
        4
 70
     1
 43
1.0
 10
-202.4999745858677
 20
574.7291688661318
 42
0.4142135623731
 10
-202.9999745858677
 20
575.2291688661318
 42
0.4142135623731
 10
-203.4999745858677
 20
574.7291688661318
 42
0.4142135623731
 10
-202.9999745858677
 20
574.2291688661318
 42
0.4142135623731
  0
LWPOLYLINE
  5
231
330
1F
100
AcDbEntity
  8
C-4
  6
Continuous
 62
     7
370
    13
100
AcDbPolyline
 90
        4
 70
     1
 43
1.0
 10
-526.4687278850654
 20
693.7289181271117
 42
0.4142135623731
 10
-526.9687278850654
 20
694.2289181271117
 42
0.4142135623731
 10
-527.4687278850654
 20
693.7289181271117
 42
0.4142135623731
 10
-526.9687278850654
 20
693.2289181271118
 42
0.4142135623731
  0
LWPOLYLINE
  5
232
330
1F
100
AcDbEntity
  8
C-4
  6
Continuous
 62
     7
370
    13
100
AcDbPolyline
 90
        4
 70
     1
 43
1.0
 10
-526.4687278850654
 20
739.728723474451
 42
0.4142135623731
 10
-526.9687278850654
 20
740.228723474451
 42
0.4142135623731
 10
-527.4687278850654
 20
739.728723474451
 42
0.4142135623731
 10
-526.9687278850654
 20
739.228723474451
 42
0.4142135623731
  0
ENDSEC
  0
SECTION
  2
OBJECTS
  0
DICTIONARY
  5
C
330
0
100
AcDbDictionary
281
     1
  3
ACAD_GROUP
350
D
  3
ACAD_LAYOUT
350
1A
  3
ACAD_MLEADERSTYLE
350
234
  3
ACAD_MLINESTYLE
350
17
  3
ACAD_PLOTSETTINGS
350
19
  3
ACAD_PLOTSTYLENAME
350
E
  3
ACAD_TABLESTYLE
350
233
  3
ACAD_VISUALSTYLE
350
2A
  0
DICTIONARY
  5
D
102
{ACAD_REACTORS
330
C
102
}
330
C
100
AcDbDictionary
281
     1
  0
DICTIONARY
  5
1A
102
{ACAD_REACTORS
330
C
102
}
330
C
100
AcDbDictionary
281
     1
  3
Layout1
350
1E
  3
Layout2
350
26
  3
Model
350
22
  0
DICTIONARY
  5
234
102
{ACAD_REACTORS
330
C
102
}
330
C
100
AcDbDictionary
281
     1
  0
DICTIONARY
  5
17
102
{ACAD_REACTORS
330
C
102
}
330
C
100
AcDbDictionary
281
     1
  3
Standard
350
18
  0
DICTIONARY
  5
19
102
{ACAD_REACTORS
330
C
102
}
330
C
100
AcDbDictionary
281
     1
  0
ACDBDICTIONARYWDFLT
  5
E
102
{ACAD_REACTORS
330
C
102
}
330
C
100
AcDbDictionary
281
     1
  3
Normal
350
F
100
AcDbDictionaryWithDefault
340
F
  0
DICTIONARY
  5
233
102
{ACAD_REACTORS
330
C
102
}
330
C
100
AcDbDictionary
281
     1
  0
DICTIONARY
  5
2A
102
{ACAD_REACTORS
330
C
102
}
330
C
100
AcDbDictionary
281
     1
  3
2dWireframe
350
2F
  3
3D Hidden
350
31
  3
3dWireframe
350
30
  3
Basic
350
32
  3
Brighten
350
36
  3
ColorChange
350
3A
  3
Conceptual
350
34
  3
Dim
350
35
  3
Facepattern
350
39
  3
Flat
350
2B
  3
FlatWithEdges
350
2C
  3
Gouraud
350
2D
  3
GouraudWithEdges
350
2E
  3
Linepattern
350
38
  3
Realistic
350
33
  3
Thicken
350
37
  0
LAYOUT
  5
1E
102
{ACAD_REACTORS
330
1A
102
}
330
1A
100
AcDbPlotSettings
  1

  2
none_device
  4

  6

 40
0.0
 41
0.0
 42
0.0
 43
0.0
 44
0.0
 45
0.0
 46
0.0
 47
0.0
 48
0.0
 49
0.0
140
0.0
141
0.0
142
1.0
143
1.0
 70
   688
 72
     0
 73
     0
 74
     5
  7

 75
    16
 76
     0
 77
     5
 78
   300
147
1.0
148
0.0
149
0.0
100
AcDbLayout
  1
Layout1
 70
     1
 71
     1
 10
0.0
 20
0.0
 11
420.0
 21
297.0
 12
0.0
 22
0.0
 32
0.0
 14
1.000000000000000E+20
 24
1.000000000000000E+20
 34
1.000000000000000E+20
 15
-1.000000000000000E+20
 25
-1.000000000000000E+20
 35
-1.000000000000000E+20
146
0.0
 13
0.0
 23
0.0
 33
0.0
 16
1.0
 26
0.0
 36
0.0
 17
0.0
 27
1.0
 37
0.0
 76
     0
330
1B
  0
LAYOUT
  5
26
102
{ACAD_REACTORS
330
1A
102
}
330
1A
100
AcDbPlotSettings
  1

  2
none_device
  4

  6

 40
0.0
 41
0.0
 42
0.0
 43
0.0
 44
0.0
 45
0.0
 46
0.0
 47
0.0
 48
0.0
 49
0.0
140
0.0
141
0.0
142
1.0
143
1.0
 70
   688
 72
     0
 73
     0
 74
     5
  7

 75
    16
 76
     0
 77
     5
 78
   300
147
1.0
148
0.0
149
0.0
100
AcDbLayout
  1
Layout2
 70
     1
 71
     2
 10
0.0
 20
0.0
 11
0.0
 21
0.0
 12
0.0
 22
0.0
 32
0.0
 14
0.0
 24
0.0
 34
0.0
 15
0.0
 25
0.0
 35
0.0
146
0.0
 13
0.0
 23
0.0
 33
0.0
 16
1.0
 26
0.0
 36
0.0
 17
0.0
 27
1.0
 37
0.0
 76
     0
330
23
  0
LAYOUT
  5
22
102
{ACAD_REACTORS
330
1A
102
}
330
1A
100
AcDbPlotSettings
  1

  2
none_device
  4

  6

 40
0.0
 41
0.0
 42
0.0
 43
0.0
 44
0.0
 45
0.0
 46
0.0
 47
0.0
 48
0.0
 49
0.0
140
0.0
141
0.0
142
1.0
143
1.0
 70
  1712
 72
     0
 73
     0
 74
     0
  7

 75
     0
 76
     0
 77
     5
 78
   300
147
1.0
148
0.0
149
0.0
100
AcDbLayout
  1
Model
 70
     1
 71
     0
 10
-2100.0
 20
-1485.0
 11
2100.0
 21
1485.0
 12
0.0
 22
0.0
 32
0.0
 14
-2100.0
 24
-1485.0
 34
0.0
 15
2100.0
 25
1485.0
 35
0.0
146
0.0
 13
0.0
 23
0.0
 33
0.0
 16
1.0
 26
0.0
 36
0.0
 17
0.0
 27
1.0
 37
0.0
 76
     0
330
1F
331
29
  0
MLINESTYLE
  5
18
102
{ACAD_REACTORS
330
17
102
}
330
17
100
AcDbMlineStyle
  2
Standard
 70
     0
  3

 62
   256
 51
90.0
 52
90.0
 71
     2
 49
0.5
 62
   256
  6
BYLAYER
 49
-0.5
 62
   256
  6
BYLAYER
  0
ACDBPLACEHOLDER
  5
F
102
{ACAD_REACTORS
330
E
102
}
330
E
  0
VISUALSTYLE
  5
2F
102
{ACAD_REACTORS
330
2A
102
}
330
2A
100
AcDbVisualStyle
  2
2dWireframe
 70
     4
 71
     0
 72
     2
 73
     0
 90
        0
 40
-0.6
 41
-30.0
 62
     5
 63
     7
421
 16777215
 74
     1
 91
        4
 64
     7
 65
   257
 75
     1
175
     1
 42
1.0
 92
        0
 66
   257
 43
1.0
 76
     1
 77
     6
 78
     2
 67
     7
 79
     5
170
     0
171
     0
290
     0
174
     0
 93
        1
 44
0.0
173
     0
291
     0
 45
0.0
1001
ACAD
1000
AcDbSavedByObjectVersion
1070
     0
  0
VISUALSTYLE
  5
31
102
{ACAD_REACTORS
330
2A
102
}
330
2A
100
AcDbVisualStyle
  2
3D Hidden
 70
     6
 71
     1
 72
     2
 73
     2
 90
        0
 40
-0.6
 41
-30.0
 62
     5
 63
     7
421
 16777215
 74
     2
 91
        2
 64
     7
 65
   257
 75
     2
175
     1
 42
40.0
 92
        0
 66
   257
 43
1.0
 76
     1
 77
     6
 78
     2
 67
     7
 79
     3
170
     0
171
     0
290
     0
174
     0
 93
        1
 44
0.0
173
     0
291
     0
 45
0.0
1001
ACAD
1000
AcDbSavedByObjectVersion
1070
     0
  0
VISUALSTYLE
  5
30
102
{ACAD_REACTORS
330
2A
102
}
330
2A
100
AcDbVisualStyle
  2
3dWireframe
 70
     5
 71
     0
 72
     2
 73
     0
 90
        0
 40
-0.6
 41
-30.0
 62
     5
 63
     7
421
 16777215
 74
     1
 91
        4
 64
     7
 65
   257
 75
     1
175
     1
 42
1.0
 92
        0
 66
   257
 43
1.0
 76
     1
 77
     6
 78
     2
 67
     7
 79
     5
170
     0
171
     0
290
     0
174
     0
 93
        1
 44
0.0
173
     0
291
     0
 45
0.0
1001
ACAD
1000
AcDbSavedByObjectVersion
1070
     0
  0
VISUALSTYLE
  5
32
102
{ACAD_REACTORS
330
2A
102
}
330
2A
100
AcDbVisualStyle
  2
Basic
 70
     7
 71
     1
 72
     0
 73
     1
 90
        0
 40
-0.6
 41
-30.0
 62
     5
 63
     7
421
 16777215
 74
     0
 91
        4
 64
     7
 65
   257
 75
     1
175
     1
 42
1.0
 92
        8
 66
     7
 43
1.0
 76
     1
 77
     6
 78
     2
 67
     7
 79
     5
170
     0
171
     0
290
     0
174
     0
 93
        1
 44
0.0
173
     0
291
     1
 45
0.0
1001
ACAD
1000
AcDbSavedByObjectVersion
1070
     0
  0
VISUALSTYLE
  5
36
102
{ACAD_REACTORS
330
2A
102
}
330
2A
100
AcDbVisualStyle
  2
Brighten
 70
    12
 71
     2
 72
     2
 73
     0
 90
        0
 40
-0.6
 41
-30.0
 62
     5
 63
     7
421
 16777215
 74
     1
 91
        4
 64
     7
 65
   257
 75
     1
175
     1
 42
1.0
 92
        8
 66
     7
 43
1.0
 76
     1
 77
     6
 78
     2
 67
     7
 79
     5
170
     0
171
     0
290
     0
174
     0
 93
        1
 44
50.0
173
     0
291
     1
 45
0.0
1001
ACAD
1000
AcDbSavedByObjectVersion
1070
     0
  0
VISUALSTYLE
  5
3A
102
{ACAD_REACTORS
330
2A
102
}
330
2A
100
AcDbVisualStyle
  2
ColorChange
 70
    16
 71
     2
 72
     2
 73
     3
 90
        0
 40
-0.6
 41
-30.0
 62
     5
 63
     8
421
  8421504
 74
     1
 91
        4
 64
     7
 65
   257
 75
     1
175
     1
 42
1.0
 92
        8
 66
     8
424
  8421504
 43
1.0
 76
     1
 77
     6
 78
     2
 67
     7
 79
     5
170
     0
171
     0
290
     0
174
     0
 93
        1
 44
0.0
173
     0
291
     1
 45
0.0
1001
ACAD
1000
AcDbSavedByObjectVersion
1070
     0
  0
VISUALSTYLE
  5
34
102
{ACAD_REACTORS
330
2A
102
}
330
2A
100
AcDbVisualStyle
  2
Conceptual
 70
     9
 71
     3
 72
     2
 73
     0
 90
        0
 40
-0.6
 41
-30.0
 62
     5
 63
     7
421
 16777215
 74
     2
 91
        2
 64
     7
 65
   257
 75
     1
175
     1
 42
40.0
 92
        8
 66
     7
 43
1.0
 76
     1
 77
     6
 78
     2
 67
     7
 79
     3
170
     0
171
     0
290
     0
174
     0
 93
        1
 44
0.0
173
     0
291
     0
 45
0.0
1001
ACAD
1000
AcDbSavedByObjectVersion
1070
     0
  0
VISUALSTYLE
  5
35
102
{ACAD_REACTORS
330
2A
102
}
330
2A
100
AcDbVisualStyle
  2
Dim
 70
    11
 71
     2
 72
     2
 73
     0
 90
        0
 40
-0.6
 41
-30.0
 62
     5
 63
     7
421
 16777215
 74
     1
 91
        4
 64
     7
 65
   257
 75
     1
175
     1
 42
1.0
 92
        8
 66
     7
 43
1.0
 76
     1
 77
     6
 78
     2
 67
     7
 79
     5
170
     0
171
     0
290
     0
174
     0
 93
        1
 44
-50.0
173
     0
291
     1
 45
0.0
1001
ACAD
1000
AcDbSavedByObjectVersion
1070
     0
  0
VISUALSTYLE
  5
39
102
{ACAD_REACTORS
330
2A
102
}
330
2A
100
AcDbVisualStyle
  2
Facepattern
 70
    15
 71
     2
 72
     2
 73
     0
 90
        0
 40
-0.6
 41
-30.0
 62
     5
 63
     7
421
 16777215
 74
     1
 91
        4
 64
     7
 65
   257
 75
     1
175
     1
 42
1.0
 92
        8
 66
     7
 43
1.0
 76
     1
 77
     6
 78
     2
 67
     7
 79
     5
170
     0
171
     0
290
     0
174
     0
 93
        1
 44
0.0
173
     0
291
     1
 45
0.0
1001
ACAD
1000
AcDbSavedByObjectVersion
1070
     0
  0
VISUALSTYLE
  5
2B
102
{ACAD_REACTORS
330
2A
102
}
330
2A
100
AcDbVisualStyle
  2
Flat
 70
     0
 71
     2
 72
     1
 73
     1
 90
        2
 40
-0.6
 41
30.0
 62
     5
 63
     7
421
 16777215
 74
     0
 91
        4
 64
     7
 65
   257
 75
     1
175
     1
 42
1.0
 92
        8
 66
     7
 43
1.0
 76
     1
 77
     6
 78
     2
 67
     7
 79
     5
170
     0
171
     0
290
     0
174
     0
 93
       13
 44
0.0
173
     0
291
     1
 45
0.0
1001
ACAD
1000
AcDbSavedByObjectVersion
1070
     0
  0
VISUALSTYLE
  5
2C
102
{ACAD_REACTORS
330
2A
102
}
330
2A
100
AcDbVisualStyle
  2
FlatWithEdges
 70
     1
 71
     2
 72
     1
 73
     1
 90
        2
 40
-0.6
 41
30.0
 62
     5
 63
     7
421
 16777215
 74
     1
 91
        4
 64
     7
 65
   257
 75
     1
175
     1
 42
1.0
 92
        0
 66
   257
 43
1.0
 76
     1
 77
     6
 78
     2
 67
     7
 79
     5
170
     0
171
     0
290
     0
174
     0
 93
       13
 44
0.0
173
     0
291
     1
 45
0.0
1001
ACAD
1000
AcDbSavedByObjectVersion
1070
     0
  0
VISUALSTYLE
  5
2D
102
{ACAD_REACTORS
330
2A
102
}
330
2A
100
AcDbVisualStyle
  2
Gouraud
 70
     2
 71
     2
 72
     2
 73
     1
 90
        2
 40
-0.6
 41
30.0
 62
     5
 63
     7
421
 16777215
 74
     0
 91
        4
 64
     7
 65
   257
 75
     1
175
     1
 42
1.0
 92
        0
 66
     7
 43
1.0
 76
     1
 77
     6
 78
     2
 67
     7
 79
     5
170
     0
171
     0
290
     0
174
     0
 93
       13
 44
0.0
173
     0
291
     1
 45
0.0
1001
ACAD
1000
AcDbSavedByObjectVersion
1070
     0
  0
VISUALSTYLE
  5
2E
102
{ACAD_REACTORS
330
2A
102
}
330
2A
100
AcDbVisualStyle
  2
GouraudWithEdges
 70
     3
 71
     2
 72
     2
 73
     1
 90
        2
 40
-0.6
 41
30.0
 62
     5
 63
     7
421
 16777215
 74
     1
 91
        4
 64
     7
 65
   257
 75
     1
175
     1
 42
1.0
 92
        0
 66
   257
 43
1.0
 76
     1
 77
     6
 78
     2
 67
     7
 79
     5
170
     0
171
     0
290
     0
174
     0
 93
       13
 44
0.0
173
     0
291
     1
 45
0.0
1001
ACAD
1000
AcDbSavedByObjectVersion
1070
     0
  0
VISUALSTYLE
  5
38
102
{ACAD_REACTORS
330
2A
102
}
330
2A
100
AcDbVisualStyle
  2
Linepattern
 70
    14
 71
     2
 72
     2
 73
     0
 90
        0
 40
-0.6
 41
-30.0
 62
     5
 63
     7
421
 16777215
 74
     1
 91
        4
 64
     7
 65
   257
 75
     7
175
     7
 42
1.0
 92
        8
 66
     7
 43
1.0
 76
     1
 77
     6
 78
     2
 67
     7
 79
     5
170
     0
171
     0
290
     0
174
     0
 93
        1
 44
0.0
173
     0
291
     1
 45
0.0
1001
ACAD
1000
AcDbSavedByObjectVersion
1070
     0
  0
VISUALSTYLE
  5
33
102
{ACAD_REACTORS
330
2A
102
}
330
2A
100
AcDbVisualStyle
  2
Realistic
 70
     8
 71
     2
 72
     2
 73
     0
 90
        0
 40
-0.6
 41
-30.0
 62
     5
 63
     7
421
 16777215
 74
     1
 91
        0
 64
     7
 65
   257
 75
     1
175
     1
 42
1.0
 92
        8
 66
     8
424
  7895160
 43
1.0
 76
     1
 77
     6
 78
     2
 67
     7
 79
     5
170
     0
171
     0
290
     0
174
     0
 93
       13
 44
0.0
173
     0
291
     0
 45
0.0
1001
ACAD
1000
AcDbSavedByObjectVersion
1070
     0
  0
VISUALSTYLE
  5
37
102
{ACAD_REACTORS
330
2A
102
}
330
2A
100
AcDbVisualStyle
  2
Thicken
 70
    13
 71
     2
 72
     2
 73
     0
 90
        0
 40
-0.6
 41
-30.0
 62
     5
 63
     7
421
 16777215
 74
     1
 91
        4
 64
     7
 65
   257
 75
     1
175
     1
 42
1.0
 92
       12
 66
     7
 43
1.0
 76
     1
 77
     6
 78
     2
 67
     7
 79
     5
170
     0
171
     0
290
     0
174
     0
 93
        1
 44
0.0
173
     0
291
     1
 45
0.0
1001
ACAD
1000
AcDbSavedByObjectVersion
1070
     0
  0
ENDSEC
  0
EOF
