  0
SECTION
  2
HEADER
  9
$ACADVER
  1
AC1018
  9
$ACADMAINTVER
 70
     0
  9
$DWGCODEPAGE
  3
ANSI_932
  9
$INSBASE
 10
0.0
 20
0.0
 30
0.0
  9
$EXTMIN
 10
-2100.0
 20
-1485.0
 30
0.0
  9
$EXTMAX
 10
2100.0
 20
1485.0
 30
0.0
  9
$LIMMIN
 10
-2100.0
 20
-1485.0
  9
$LIMMAX
 10
2100.0
 20
1485.0
  9
$ORTHOMODE
 70
     0
  9
$REGENMODE
 70
     1
  9
$FILLMODE
 70
     1
  9
$QTEXTMODE
 70
     0
  9
$MIRRTEXT
 70
     1
  9
$LTSCALE
 40
10.0
  9
$ATTMODE
 70
     1
  9
$TEXTSIZE
 40
2.5
  9
$TRACEWID
 40
1.0
  9
$TEXTSTYLE
  7
Standard
  9
$CLAYER
  8
0
  9
$CELTYPE
  6
ByLayer
  9
$CECOLOR
 62
   256
  9
$CELTSCALE
 40
1.0
  9
$DISPSILH
 70
     0
  9
$DIMSCALE
 40
1.0
  9
$DIMASZ
 40
2.5
  9
$DIMEXO
 40
0.625
  9
$DIMDLI
 40
3.75
  9
$DIMRND
 40
0.0
  9
$DIMDLE
 40
0.0
  9
$DIMEXE
 40
1.25
  9
$DIMTP
 40
0.0
  9
$DIMTM
 40
0.0
  9
$DIMTXT
 40
2.5
  9
$DIMCEN
 40
2.5
  9
$DIMTSZ
 40
0.0
  9
$DIMTOL
 70
     0
  9
$DIMLIM
 70
     0
  9
$DIMTIH
 70
     0
  9
$DIMTOH
 70
     0
  9
$DIMSE1
 70
     0
  9
$DIMSE2
 70
     0
  9
$DIMTAD
 70
     1
  9
$DIMZIN
 70
     8
  9
$DIMBLK
  1

  9
$DIMASO
 70
     1
  9
$DIMSHO
 70
     1
  9
$DIMPOST
  1

  9
$DIMAPOST
  1

  9
$DIMALT
 70
     0
  9
$DIMALTD
 70
     3
  9
$DIMALTF
 40
0.03937007874016
  9
$DIMLFAC
 40
1.0
  9
$DIMTOFL
 70
     1
  9
$DIMTVP
 40
0.0
  9
$DIMTIX
 70
     0
  9
$DIMSOXD
 70
     0
  9
$DIMSAH
 70
     0
  9
$DIMBLK1
  1

  9
$DIMBLK2
  1

  9
$DIMSTYLE
  2
ISO-25
  9
$DIMCLRD
 70
     0
  9
$DIMCLRE
 70
     0
  9
$DIMCLRT
 70
     0
  9
$DIMTFAC
 40
1.0
  9
$DIMGAP
 40
0.625
  9
$DIMJUST
 70
     0
  9
$DIMSD1
 70
     0
  9
$DIMSD2
 70
     0
  9
$DIMTOLJ
 70
     0
  9
$DIMTZIN
 70
     8
  9
$DIMALTZ
 70
     0
  9
$DIMALTTZ
 70
     0
  9
$DIMUPT
 70
     0
  9
$DIMDEC
 70
     2
  9
$DIMTDEC
 70
     2
  9
$DIMALTU
 70
     2
  9
$DIMALTTD
 70
     3
  9
$DIMTXSTY
  7
Standard
  9
$DIMAUNIT
 70
     0
  9
$DIMADEC
 70
     0
  9
$DIMALTRND
 40
0.0
  9
$DIMAZIN
 70
     0
  9
$DIMDSEP
 70
    44
  9
$DIMATFIT
 70
     3
  9
$DIMFRAC
 70
     0
  9
$DIMLDRBLK
  1

  9
$DIMLUNIT
 70
     2
  9
$DIMLWD
 70
    -2
  9
$DIMLWE
 70
    -2
  9
$DIMTMOVE
 70
     0
  9
$LUNITS
 70
     2
  9
$LUPREC
 70
     4
  9
$SKETCHINC
 40
1.0
  9
$FILLETRAD
 40
10.0
  9
$AUNITS
 70
     0
  9
$AUPREC
 70
     0
  9
$MENU
  1
.
  9
$ELEVATION
 40
0.0
  9
$PELEVATION
 40
0.0
  9
$THICKNESS
 40
0.0
  9
$LIMCHECK
 70
     0
  9
$CHAMFERA
 40
10.0
  9
$CHAMFERB
 40
10.0
  9
$CHAMFERC
 40
20.0
  9
$CHAMFERD
 40
0.0
  9
$SKPOLY
 70
     0
  9
$TDCREATE
 40
2456499.586378495
  9
$TDUCREATE
 40
2456499.211378495
  9
$TDUPDATE
 40
2456499.586378507
  9
$TDUUPDATE
 40
2456499.211378507
  9
$TDINDWG
 40
0.0000000116
  9
$TDUSRTIMER
 40
0.0000000116
  9
$USRTIMER
 70
     1
  9
$ANGBASE
 50
0.0
  9
$ANGDIR
 70
     0
  9
$PDMODE
 70
     0
  9
$PDSIZE
 40
0.0
  9
$PLINEWID
 40
0.0
  9
$SPLFRAME
 70
     0
  9
$SPLINETYPE
 70
     6
  9
$SPLINESEGS
 70
     8
  9
$HANDSEED
  5
279
  9
$SURFTAB1
 70
     6
  9
$SURFTAB2
 70
     6
  9
$SURFTYPE
 70
     6
  9
$SURFU
 70
     6
  9
$SURFV
 70
     6
  9
$UCSBASE
  2

  9
$UCSNAME
  2

  9
$UCSORG
 10
0.0
 20
0.0
 30
0.0
  9
$UCSXDIR
 10
1.0
 20
0.0
 30
0.0
  9
$UCSYDIR
 10
0.0
 20
1.0
 30
0.0
  9
$UCSORTHOREF
  2

  9
$UCSORTHOVIEW
 70
     0
  9
$UCSORGTOP
 10
0.0
 20
0.0
 30
0.0
  9
$UCSORGBOTTOM
 10
0.0
 20
0.0
 30
0.0
  9
$UCSORGLEFT
 10
0.0
 20
0.0
 30
0.0
  9
$UCSORGRIGHT
 10
0.0
 20
0.0
 30
0.0
  9
$UCSORGFRONT
 10
0.0
 20
0.0
 30
0.0
  9
$UCSORGBACK
 10
0.0
 20
0.0
 30
0.0
  9
$PUCSBASE
  2

  9
$PUCSNAME
  2

  9
$PUCSORG
 10
0.0
 20
0.0
 30
0.0
  9
$PUCSXDIR
 10
1.0
 20
0.0
 30
0.0
  9
$PUCSYDIR
 10
0.0
 20
1.0
 30
0.0
  9
$PUCSORTHOREF
  2

  9
$PUCSORTHOVIEW
 70
     0
  9
$PUCSORGTOP
 10
0.0
 20
0.0
 30
0.0
  9
$PUCSORGBOTTOM
 10
0.0
 20
0.0
 30
0.0
  9
$PUCSORGLEFT
 10
0.0
 20
0.0
 30
0.0
  9
$PUCSORGRIGHT
 10
0.0
 20
0.0
 30
0.0
  9
$PUCSORGFRONT
 10
0.0
 20
0.0
 30
0.0
  9
$PUCSORGBACK
 10
0.0
 20
0.0
 30
0.0
  9
$USERI1
 70
     0
  9
$USERI2
 70
     0
  9
$USERI3
 70
     0
  9
$USERI4
 70
     0
  9
$USERI5
 70
     0
  9
$USERR1
 40
0.0
  9
$USERR2
 40
0.0
  9
$USERR3
 40
0.0
  9
$USERR4
 40
0.0
  9
$USERR5
 40
0.0
  9
$WORLDVIEW
 70
     1
  9
$SHADEDGE
 70
     3
  9
$SHADEDIF
 70
    70
  9
$TILEMODE
 70
     1
  9
$MAXACTVP
 70
    64
  9
$PINSBASE
 10
0.0
 20
0.0
 30
0.0
  9
$PLIMCHECK
 70
     0
  9
$PEXTMIN
 10
1.000000000000000E+20
 20
1.000000000000000E+20
 30
1.000000000000000E+20
  9
$PEXTMAX
 10
-1.000000000000000E+20
 20
-1.000000000000000E+20
 30
-1.000000000000000E+20
  9
$PLIMMIN
 10
0.0
 20
0.0
  9
$PLIMMAX
 10
420.0
 20
297.0
  9
$UNITMODE
 70
     0
  9
$VISRETAIN
 70
     1
  9
$PLINEGEN
 70
     0
  9
$PSLTSCALE
 70
     1
  9
$TREEDEPTH
 70
  3020
  9
$CMLSTYLE
  2
Standard
  9
$CMLJUST
 70
     0
  9
$CMLSCALE
 40
20.0
  9
$PROXYGRAPHICS
 70
     1
  9
$MEASUREMENT
 70
     1
  9
$CELWEIGHT
370
    -1
  9
$ENDCAPS
280
     0
  9
$JOINSTYLE
280
     0
  9
$LWDISPLAY
290
     0
  9
$INSUNITS
 70
     4
  9
$HYPERLINKBASE
  1

  9
$STYLESHEET
  1

  9
$XEDIT
290
     1
  9
$CEPSNTYPE
380
     0
  9
$PSTYLEMODE
290
     1
  9
$FINGERPRINTGUID
  2
{0985E361-904E-42DC-ACDB-AF41A4DA90E0}
  9
$VERSIONGUID
  2
{FAEB1C32-E019-11D5-929B-00C0DF256EC4}
  9
$EXTNAMES
290
     1
  9
$PSVPSCALE
 40
0.0
  9
$OLESTARTUP
290
     0
  9
$SORTENTS
280
   127
  9
$INDEXCTL
280
     0
  9
$HIDETEXT
280
     1
  9
$XCLIPFRAME
290
     0
  9
$HALOGAP
280
     0
  9
$OBSCOLOR
 70
   257
  9
$OBSLTYPE
280
     0
  9
$INTERSECTIONDISPLAY
280
     0
  9
$INTERSECTIONCOLOR
 70
   257
  9
$DIMASSOC
280
     2
  9
$PROJECTNAME
  1

  0
ENDSEC
  0
SECTION
  2
CLASSES
  0
CLASS
  1
ACDBDICTIONARYWDFLT
  2
AcDbDictionaryWithDefault
  3
ObjectDBX Classes
 90
        0
 91
        4
280
     0
281
     0
  0
CLASS
  1
VISUALSTYLE
  2
AcDbVisualStyle
  3
ObjectDBX Classes
 90
     4095
 91
        4
280
     0
281
     0
  0
ENDSEC
  0
SECTION
  2
TABLES
  0
TABLE
  2
VPORT
  5
8
330
0
100
AcDbSymbolTable
 70
     1
  0
VPORT
  5
29
330
8
100
AcDbSymbolTableRecord
100
AcDbViewportTableRecord
  2
*Active
 70
     0
 10
0.0
 20
0.0
 11
1.0
 21
1.0
 12
0.0
 22
0.0
 13
0.0
 23
0.0
 14
10.0
 24
10.0
 15
10.0
 25
10.0
 16
0.0
 26
0.0
 36
1.0
 17
0.0
 27
0.0
 37
0.0
 40
3267.0
 41
1.414141414141414
 42
50.0
 43
0.0
 44
0.0
 50
0.0
 51
0.0
 71
     0
 72
 10000
 73
     1
 74
     3
 75
     0
 76
     0
 77
     0
 78
     0
281
     0
 65
     1
110
0.0
120
0.0
130
0.0
111
1.0
121
0.0
131
0.0
112
0.0
122
1.0
132
0.0
 79
     0
146
0.0
  0
ENDTAB
  0
TABLE
  2
LTYPE
  5
5
330
0
100
AcDbSymbolTable
 70
     4
  0
LTYPE
  5
14
330
5
100
AcDbSymbolTableRecord
100
AcDbLinetypeTableRecord
  2
ByBlock
 70
     0
  3

 72
    65
 73
     0
 40
0.0
  0
LTYPE
  5
15
330
5
100
AcDbSymbolTableRecord
100
AcDbLinetypeTableRecord
  2
ByLayer
 70
     0
  3

 72
    65
 73
     0
 40
0.0
  0
LTYPE
  5
16
330
5
100
AcDbSymbolTableRecord
100
AcDbLinetypeTableRecord
  2
Continuous
 70
     0
  3
Solid line
 72
    65
 73
     0
 40
0.0
  0
LTYPE
  5
3C
330
5
100
AcDbSymbolTableRecord
100
AcDbLinetypeTableRecord
  2
JWW_DASHED3
 70
     0
  3
---  ------  ------  ------  ---
 72
    65
 73
     2
 40
3.386666666666667
 49
2.54
 74
     0
 49
-0.8466666666666667
 74
     0
  0
LTYPE
  5
3D
330
5
100
AcDbSymbolTableRecord
100
AcDbLinetypeTableRecord
  2
JWW_CENTER2
 70
     0
  3
-------------  --  -------------
 72
    65
 73
     4
 40
13.54666666666667
 49
11.00666666666667
 74
     0
 49
-0.8466666666666667
 74
     0
 49
0.8466666666666667
 74
     0
 49
-0.8466666666666667
 74
     0
  0
LTYPE
  5
3E
330
5
100
AcDbSymbolTableRecord
100
AcDbLinetypeTableRecord
  2
JWW_CENTER1
 70
     0
  3
-----  --  ----------  --  -----
 72
    65
 73
     4
 40
6.773333333333333
 49
4.233333333333333
 74
     0
 49
-0.8466666666666667
 74
     0
 49
0.8466666666666667
 74
     0
 49
-0.8466666666666667
 74
     0
  0
ENDTAB
  0
TABLE
  2
LAYER
  5
2
330
0
100
AcDbSymbolTable
 70
    17
  0
LAYER
  5
10
330
2
100
AcDbSymbolTableRecord
100
AcDbLayerTableRecord
  2
0
 70
     0
 62
     7
  6
Continuous
370
    -3
390
F
  0
LAYER
  5
3F
330
2
100
AcDbSymbolTableRecord
100
AcDbLayerTableRecord
  2
D-A
 70
     0
 62
     7
  6
Continuous
370
    -3
390
F
  0
LAYER
  5
40
330
2
100
AcDbSymbolTableRecord
100
AcDbLayerTableRecord
  2
D-4
 70
     0
 62
     7
  6
Continuous
370
    -3
390
F
  0
LAYER
  5
41
330
2
100
AcDbSymbolTableRecord
100
AcDbLayerTableRecord
  2
D-5
 70
     0
 62
     7
  6
Continuous
370
    -3
390
F
  0
LAYER
  5
42
330
2
100
AcDbSymbolTableRecord
100
AcDbLayerTableRecord
  2
D-6
 70
     0
 62
     7
  6
Continuous
370
    -3
390
F
  0
LAYER
  5
43
330
2
100
AcDbSymbolTableRecord
100
AcDbLayerTableRecord
  2
D-9
 70
     0
 62
     7
  6
Continuous
370
    -3
390
F
  0
LAYER
  5
44
330
2
100
AcDbSymbolTableRecord
100
AcDbLayerTableRecord
  2
D-1
 70
     0
 62
     7
  6
Continuous
370
    -3
390
F
  0
LAYER
  5
45
330
2
100
AcDbSymbolTableRecord
100
AcDbLayerTableRecord
  2
D-2
 70
     0
 62
     7
  6
Continuous
370
    -3
390
F
  0
LAYER
  5
46
330
2
100
AcDbSymbolTableRecord
100
AcDbLayerTableRecord
  2
C-2
 70
     0
 62
     7
  6
Continuous
370
    -3
390
F
  0
LAYER
  5
47
330
2
100
AcDbSymbolTableRecord
100
AcDbLayerTableRecord
  2
C-1
 70
     0
 62
     7
  6
Continuous
370
    -3
390
F
  0
LAYER
  5
48
330
2
100
AcDbSymbolTableRecord
100
AcDbLayerTableRecord
  2
C-A
 70
     0
 62
     7
  6
Continuous
370
    -3
390
F
  0
LAYER
  5
49
330
2
100
AcDbSymbolTableRecord
100
AcDbLayerTableRecord
  2
C-4
 70
     0
 62
     7
  6
Continuous
370
    -3
390
F
  0
LAYER
  5
4A
330
2
100
AcDbSymbolTableRecord
100
AcDbLayerTableRecord
  2
C-5
 70
     0
 62
     7
  6
Continuous
370
    -3
390
F
  0
LAYER
  5
4B
330
2
100
AcDbSymbolTableRecord
100
AcDbLayerTableRecord
  2
C-0
 70
     0
 62
     7
  6
Continuous
370
    -3
390
F
  0
LAYER
  5
4C
330
2
100
AcDbSymbolTableRecord
100
AcDbLayerTableRecord
  2
C-3
 70
     0
 62
     7
  6
Continuous
370
    -3
390
F
  0
LAYER
  5
4D
330
2
100
AcDbSymbolTableRecord
100
AcDbLayerTableRecord
  2
F-4
 70
     0
 62
     7
  6
Continuous
370
    -3
390
F
  0
LAYER
  5
4E
330
2
100
AcDbSymbolTableRecord
100
AcDbLayerTableRecord
  2
C-B
 70
     0
 62
     7
  6
Continuous
370
    -3
390
F
  0
ENDTAB
  0
TABLE
  2
STYLE
  5
3
330
0
100
AcDbSymbolTable
 70
     2
  0
STYLE
  5
11
330
3
100
AcDbSymbolTableRecord
100
AcDbTextStyleTableRecord
  2
Standard
 70
     0
 40
0.0
 41
1.0
 50
0.0
 71
     0
 42
2.5
  3
txt
  4

1001
ACAD
1000

1071
        0
  0
STYLE
  5
3B
330
3
100
AcDbSymbolTableRecord
100
AcDbTextStyleTableRecord
  2
ＭＳ ゴシック
 70
     0
 40
1.0
 41
1.0
 50
0.0
 71
     0
 42
10.0
  3

  4

1001
ACAD
1000
MS Gothic
1071
    32817
  0
ENDTAB
  0
TABLE
  2
VIEW
  5
6
330
0
100
AcDbSymbolTable
 70
     0
  0
ENDTAB
  0
TABLE
  2
UCS
  5
7
330
0
100
AcDbSymbolTable
 70
     0
  0
ENDTAB
  0
TABLE
  2
APPID
  5
9
330
0
100
AcDbSymbolTable
 70
     1
  0
APPID
  5
12
330
9
100
AcDbSymbolTableRecord
100
AcDbRegAppTableRecord
  2
ACAD
 70
     0
  0
ENDTAB
  0
TABLE
  2
DIMSTYLE
  5
A
330
0
100
AcDbSymbolTable
 70
     1
100
AcDbDimStyleTable
  0
DIMSTYLE
105
27
330
A
100
AcDbSymbolTableRecord
100
AcDbDimStyleTableRecord
  2
ISO-25
 70
     0
 41
2.5
 42
0.625
 43
3.75
 44
1.25
 73
     0
 74
     0
 77
     1
 78
     8
140
2.5
141
2.5
143
0.03937007874016
147
0.625
171
     3
172
     1
271
     2
272
     2
274
     3
278
    44
283
     0
284
     8
340
11
  0
ENDTAB
  0
TABLE
  2
BLOCK_RECORD
  5
1
330
0
100
AcDbSymbolTable
 70
     1
  0
BLOCK_RECORD
  5
1F
330
1
100
AcDbSymbolTableRecord
100
AcDbBlockTableRecord
  2
*Model_Space
340
22
  0
BLOCK_RECORD
  5
1B
330
1
100
AcDbSymbolTableRecord
100
AcDbBlockTableRecord
  2
*Paper_Space
340
1E
  0
BLOCK_RECORD
  5
23
330
1
100
AcDbSymbolTableRecord
100
AcDbBlockTableRecord
  2
*Paper_Space0
340
26
  0
ENDTAB
  0
ENDSEC
  0
SECTION
  2
BLOCKS
  0
BLOCK
  5
20
330
1F
100
AcDbEntity
  8
0
100
AcDbBlockBegin
  2
*Model_Space
 70
     0
 10
0.0
 20
0.0
 30
0.0
  3
*Model_Space
  1

  0
ENDBLK
  5
21
330
1F
100
AcDbEntity
  8
0
100
AcDbBlockEnd
  0
BLOCK
  5
1C
330
1B
100
AcDbEntity
 67
     1
  8
0
100
AcDbBlockBegin
  2
*Paper_Space
 70
     0
 10
0.0
 20
0.0
 30
0.0
  3
*Paper_Space
  1

  0
ENDBLK
  5
1D
330
1B
100
AcDbEntity
 67
     1
  8
0
100
AcDbBlockEnd
  0
BLOCK
  5
24
330
23
100
AcDbEntity
  8
0
100
AcDbBlockBegin
  2
*Paper_Space0
 70
     0
 10
0.0
 20
0.0
 30
0.0
  3
*Paper_Space0
  1

  0
ENDBLK
  5
25
330
23
100
AcDbEntity
  8
0
100
AcDbBlockEnd
  0
ENDSEC
  0
SECTION
  2
ENTITIES
  0
LINE
  5
4F
330
1F
100
AcDbEntity
  8
D-A
  6
JWW_DASHED3
 62
     3
370
     9
100
AcDbLine
 10
-729.088214925817
 20
-369.8267013962204
 30
0.0
 11
-729.088214925817
 21
-319.8267838761612
 31
0.0
  0
LINE
  5
50
330
1F
100
AcDbEntity
  8
D-A
  6
Continuous
 62
     3
370
     9
100
AcDbLine
 10
-704.0886273255217
 20
-344.8268663561021
 30
0.0
 11
-704.0886273255217
 21
-329.3268647065032
 31
0.0
  0
LINE
  5
51
330
1F
100
AcDbEntity
  8
D-A
  6
Continuous
 62
     3
370
     9
100
AcDbLine
 10
-729.088214925817
 20
-319.8267838761612
 30
0.0
 11
-729.088214925817
 21
-289.8271797798775
 31
0.0
  0
LINE
  5
52
330
1F
100
AcDbEntity
  8
D-A
  6
Continuous
 62
     3
370
     9
100
AcDbLine
 10
-579.0884623656399
 20
-408.3274717588682
 30
0.0
 11
-704.0886273255217
 21
-408.3274717588682
 31
0.0
  0
LINE
  5
53
330
1F
100
AcDbEntity
  8
D-A
  6
Continuous
 62
     3
370
     9
100
AcDbLine
 10
-707.0175725060537
 20
-391.8973438159838
 30
0.0
 11
-729.088214925817
 21
-369.8267013962204
 31
0.0
  0
LINE
  5
54
330
1F
100
AcDbEntity
  8
D-A
  6
Continuous
 62
     3
370
     9
100
AcDbLine
 10
-704.0886273255217
 20
-419.827237515836
 30
0.0
 11
-704.0886273255217
 21
-398.9688027871621
 31
0.0
  0
LINE
  5
55
330
1F
100
AcDbEntity
  8
D-A
  6
Continuous
 62
     3
370
     9
100
AcDbLine
 10
-579.0884623656399
 20
-419.827237515836
 30
0.0
 11
-704.0886273255217
 21
-419.827237515836
 31
0.0
  0
LINE
  5
56
330
1F
100
AcDbEntity
  8
D-A
  6
Continuous
 62
     3
370
     9
100
AcDbLine
 10
-579.0884623656399
 20
-379.8268581081081
 30
0.0
 11
-579.0884623656399
 21
-419.827237515836
 31
0.0
  0
LINE
  5
57
330
1F
100
AcDbEntity
  8
D-A
  6
Continuous
 62
     3
370
     9
100
AcDbLine
 10
-668.7331882683003
 20
-369.8267013962204
 30
0.0
 11
-589.0887427974388
 21
-369.8267013962204
 31
0.0
  0
LINE
  5
58
330
1F
100
AcDbEntity
  8
D-A
  6
Continuous
 62
     3
370
     9
100
AcDbLine
 10
-729.088214925817
 20
-319.8267838761612
 30
0.0
 11
-686.4110315168222
 21
-362.5049570444468
 31
0.0
  0
LINE
  5
59
330
1F
100
AcDbEntity
  8
D-A
  6
Continuous
 62
     3
370
     9
100
AcDbLine
 10
-740.5884755624304
 20
-289.8271797798775
 30
0.0
 11
-740.5884755624304
 21
-402.3273034997888
 31
0.0
  0
LINE
  5
5A
330
1F
100
AcDbEntity
  8
D-A
  6
JWW_CENTER2
 62
     3
370
     9
100
AcDbLine
 10
-686.0935662243812
 20
-347.3268746040962
 30
0.0
 11
-746.5119374764929
 21
-347.3268746040962
 31
0.0
  0
LINE
  5
5B
330
1F
100
AcDbEntity
  8
D-A
  6
JWW_DASHED3
 62
     3
370
     9
100
AcDbLine
 10
-704.0886273255217
 20
-365.3266370618666
 30
0.0
 11
-704.0886273255217
 21
-344.8268663561021
 31
0.0
  0
LINE
  5
5C
330
1F
100
AcDbEntity
  8
D-A
  6
Continuous
 62
     3
370
     9
100
AcDbLine
 10
-742.8384458696517
 20
-337.3267178922086
 30
0.0
 11
-744.0882644137816
 21
-338.5771550358952
 31
0.0
  0
LINE
  5
5D
330
1F
100
AcDbEntity
  8
D-A
  6
Continuous
 62
     3
370
     9
100
AcDbLine
 10
-742.8384458696517
 20
-357.3264127164273
 30
0.0
 11
-744.0882644137816
 21
-356.0770890519424
 31
0.0
  0
LINE
  5
5E
330
1F
100
AcDbEntity
  8
D-A
  6
JWW_DASHED3
 62
     3
370
     9
100
AcDbLine
 10
-742.8384458696517
 20
-337.3267178922086
 30
0.0
 11
-742.8384458696517
 21
-357.3264127164273
 31
0.0
  0
LINE
  5
5F
330
1F
100
AcDbEntity
  8
D-A
  6
Continuous
 62
     3
370
     9
100
AcDbLine
 10
-740.5884755624304
 20
-338.5771550358952
 30
0.0
 11
-744.0882644137816
 21
-338.5771550358952
 31
0.0
  0
LINE
  5
60
330
1F
100
AcDbEntity
  8
D-A
  6
Continuous
 62
     3
370
     9
100
AcDbLine
 10
-740.5884755624304
 20
-337.3267178922086
 30
0.0
 11
-742.8384458696517
 21
-337.3267178922086
 31
0.0
  0
LINE
  5
61
330
1F
100
AcDbEntity
  8
D-A
  6
Continuous
 62
     3
370
     9
100
AcDbLine
 10
-740.5884755624304
 20
-356.0770890519424
 30
0.0
 11
-744.0882644137816
 21
-356.0770890519424
 31
0.0
  0
LINE
  5
62
330
1F
100
AcDbEntity
  8
D-A
  6
Continuous
 62
     3
370
     9
100
AcDbLine
 10
-740.5884755624304
 20
-357.3264127164273
 30
0.0
 11
-742.8384458696517
 21
-357.3264127164273
 31
0.0
  0
LINE
  5
63
330
1F
100
AcDbEntity
  8
D-A
  6
JWW_DASHED3
 62
     3
370
     9
100
AcDbLine
 10
-704.0886273255217
 20
-357.3264127164273
 30
0.0
 11
-740.5884755624304
 21
-357.3264127164273
 31
0.0
  0
LINE
  5
64
330
1F
100
AcDbEntity
  8
D-A
  6
JWW_DASHED3
 62
     3
370
     9
100
AcDbLine
 10
-704.0886273255217
 20
-356.0770890519424
 30
0.0
 11
-740.5884755624304
 21
-356.0770890519424
 31
0.0
  0
LINE
  5
65
330
1F
100
AcDbEntity
  8
D-A
  6
JWW_DASHED3
 62
     3
370
     9
100
AcDbLine
 10
-697.5883831848967
 20
-365.3266370618666
 30
0.0
 11
-704.0886273255217
 21
-365.3266370618666
 31
0.0
  0
LINE
  5
66
330
1F
100
AcDbEntity
  8
D-A
  6
Continuous
 62
     3
370
     9
100
AcDbLine
 10
-697.5883831848967
 20
-329.3268647065032
 30
0.0
 11
-704.0886273255217
 21
-329.3268647065032
 31
0.0
  0
LINE
  5
67
330
1F
100
AcDbEntity
  8
D-A
  6
Continuous
 62
     3
370
     9
100
AcDbLine
 10
-691.0883864840944
 20
-335.8268614073057
 30
0.0
 11
-691.0883864840944
 21
-357.8274783572634
 31
0.0
  0
LINE
  5
68
330
1F
100
AcDbEntity
  8
D-A
  6
JWW_DASHED3
 62
     3
370
     9
100
AcDbLine
 10
-691.0883864840944
 20
-358.827011520798
 30
0.0
 11
-691.0883864840944
 21
-357.8274783572634
 31
0.0
  0
LINE
  5
69
330
1F
100
AcDbEntity
  8
D-A
  6
Continuous
 62
     3
370
     9
100
AcDbLine
 10
-704.0886273255217
 20
-337.3267178922086
 30
0.0
 11
-711.5887757894152
 21
-337.3267178922086
 31
0.0
  0
LINE
  5
6A
330
1F
100
AcDbEntity
  8
D-A
  6
Continuous
 62
     3
370
     9
100
AcDbLine
 10
-704.0886273255217
 20
-338.5771550358952
 30
0.0
 11
-710.3387098054625
 21
-338.5771550358952
 31
0.0
  0
LINE
  5
6B
330
1F
100
AcDbEntity
  8
D-A
  6
JWW_DASHED3
 62
     3
370
     9
100
AcDbLine
 10
-711.5887757894152
 20
-337.3267178922086
 30
0.0
 11
-740.5884755624304
 21
-337.3267178922086
 31
0.0
  0
LINE
  5
6C
330
1F
100
AcDbEntity
  8
D-A
  6
JWW_DASHED3
 62
     3
370
     9
100
AcDbLine
 10
-740.5884755624304
 20
-338.5771550358952
 30
0.0
 11
-710.3387098054625
 21
-338.5771550358952
 31
0.0
  0
LINE
  5
6D
330
1F
100
AcDbEntity
  8
D-4
  6
Continuous
 62
     7
370
     9
100
AcDbLine
 10
-1451.756754437008
 20
-163.9074047191721
 30
0.0
 11
-879.0889572452851
 21
-163.9074047191721
 31
0.0
  0
LINE
  5
6E
330
1F
100
AcDbEntity
  8
D-4
  6
Continuous
 62
     7
370
     9
100
AcDbLine
 10
-879.0889572452851
 20
-269.3712059227195
 30
0.0
 11
-879.0889572452851
 21
-160.9069494298987
 31
0.0
  0
LINE
  5
6F
330
1F
100
AcDbEntity
  8
D-4
  6
Continuous
 62
     7
370
     9
100
AcDbLine
 10
-879.0889572452851
 20
-163.9074047191721
 30
0.0
 11
-754.088297405758
 21
-163.9074047191721
 31
0.0
  0
LINE
  5
70
330
1F
100
AcDbEntity
  8
D-4
  6
Continuous
 62
     7
370
     9
100
AcDbLine
 10
-754.088297405758
 20
-269.3712059227195
 30
0.0
 11
-754.088297405758
 21
-52.15541530299816
 31
0.0
  0
LINE
  5
71
330
1F
100
AcDbEntity
  8
D-4
  6
Continuous
 62
     7
370
     9
100
AcDbLine
 10
-749.0880334699472
 20
-269.3712059227195
 30
0.0
 11
-749.0880334699472
 21
-52.15541530299816
 31
0.0
  0
LINE
  5
72
330
1F
100
AcDbEntity
  8
D-4
  6
Continuous
 62
     7
370
     9
100
AcDbLine
 10
-724.0891881891196
 20
-269.3712059227195
 30
0.0
 11
-724.0891881891196
 21
58.54099582981434
 31
0.0
  0
LINE
  5
73
330
1F
100
AcDbEntity
  8
D-5
  6
Continuous
 62
     7
370
     9
100
AcDbLine
 10
-629.5654438637393
 20
-121.9156296188766
 30
0.0
 11
-370.1821958696516
 21
-121.9156296188766
 31
0.0
  0
LINE
  5
74
330
1F
100
AcDbEntity
  8
D-4
  6
Continuous
 62
     7
370
     9
100
AcDbLine
 10
-479.087637566231
 20
-604.7001689189188
 30
0.0
 11
-479.087637566231
 21
-847.909884066195
 31
0.0
  0
LINE
  5
75
330
1F
100
AcDbEntity
  8
D-4
  6
Continuous
 62
     7
370
     9
100
AcDbLine
 10
-879.0884623656398
 20
-690.4456143765835
 30
0.0
 11
-729.088214925817
 21
-690.4456143765835
 31
0.0
  0
LINE
  5
76
330
1F
100
AcDbEntity
  8
D-4
  6
Continuous
 62
     7
370
     9
100
AcDbLine
 10
-207.4036611093052
 20
-534.8269983240075
 30
0.0
 11
-207.4036611093052
 21
-284.8267921241553
 31
0.0
  0
LINE
  5
77
330
1F
100
AcDbEntity
  8
D-6
  6
Continuous
 62
     6
370
     5
100
AcDbLine
 10
-729.088214925817
 20
-534.8269983240075
 30
0.0
 11
-729.088214925817
 21
-784.8267096442145
 31
0.0
  0
LINE
  5
78
330
1F
100
AcDbEntity
  8
D-6
  6
JWW_DASHED3
 62
     6
370
     5
100
AcDbLine
 10
-635.5873868272107
 20
-662.3269240920608
 30
0.0
 11
-635.5873868272107
 21
-534.8269983240075
 31
0.0
  0
LINE
  5
79
330
1F
100
AcDbEntity
  8
D-6
  6
JWW_DASHED3
 62
     6
370
     5
100
AcDbLine
 10
-590.5872383633173
 20
-534.8269983240075
 30
0.0
 11
-590.5872383633173
 21
-662.3269240920608
 31
0.0
  0
LINE
  5
7A
330
1F
100
AcDbEntity
  8
D-6
  6
Continuous
 62
     6
370
     5
100
AcDbLine
 10
-479.0886273255217
 20
-434.8271632838893
 30
0.0
 11
-314.0875880782664
 21
-434.8271632838893
 31
0.0
  0
LINE
  5
7B
330
1F
100
AcDbEntity
  8
D-6
  6
Continuous
 62
     6
370
     5
100
AcDbLine
 10
-714.0886603174979
 20
-779.9761468010979
 30
0.0
 11
-368.9375735617969
 21
-434.8271632838893
 31
0.0
  0
LINE
  5
7C
330
1F
100
AcDbEntity
  8
D-6
  6
Continuous
 62
     6
370
     5
100
AcDbLine
 10
-714.0886603174979
 20
-772.9038217905405
 30
0.0
 11
-376.0118780909355
 21
-434.8271632838893
 31
0.0
  0
LINE
  5
7D
330
1F
100
AcDbEntity
  8
D-6
  6
Continuous
 62
     6
370
     5
100
AcDbLine
 10
-714.0886603174979
 20
-765.8354558171452
 30
0.0
 11
-483.0788419053357
 21
-534.8269983240075
 31
0.0
  0
LINE
  5
7E
330
1F
100
AcDbEntity
  8
D-6
  6
Continuous
 62
     6
370
     5
100
AcDbLine
 10
-479.0886273255217
 20
-434.8271632838893
 30
0.0
 11
-479.0886273255217
 21
-534.8269983240075
 31
0.0
  0
LINE
  5
7F
330
1F
100
AcDbEntity
  8
D-6
  6
Continuous
 62
     6
370
     5
100
AcDbLine
 10
-479.0886273255217
 20
-530.8367837441933
 30
0.0
 11
-383.0782645457495
 21
-434.8271632838893
 31
0.0
  0
LINE
  5
80
330
1F
100
AcDbEntity
  8
D-4
  6
Continuous
 62
     7
370
     9
100
AcDbLine
 10
-423.3097527478188
 20
-534.8269983240075
 30
0.0
 11
-204.4032058200315
 21
-534.8269983240075
 31
0.0
  0
LINE
  5
81
330
1F
100
AcDbEntity
  8
D-6
  6
Continuous
 62
     6
370
     5
100
AcDbLine
 10
-729.088214925817
 20
-534.8269983240075
 30
0.0
 11
-479.0886273255217
 21
-534.8269983240075
 31
0.0
  0
LINE
  5
82
330
1F
100
AcDbEntity
  8
D-6
  6
Continuous
 62
     6
370
     5
100
AcDbLine
 10
-635.5873868272107
 20
-337.3270890519424
 30
0.0
 11
-590.5872383633173
 21
-337.3270890519424
 31
0.0
  0
LINE
  5
83
330
1F
100
AcDbEntity
  8
D-6
  6
JWW_CENTER2
 62
     6
370
     5
100
AcDbLine
 10
-613.0871888753527
 20
-333.2473012563344
 30
0.0
 11
-613.0871888753527
 21
-662.3269240920608
 31
0.0
  0
LINE
  5
84
330
1F
100
AcDbEntity
  8
D-4
  6
Continuous
 62
     7
370
     9
100
AcDbLine
 10
-724.0884458696517
 20
-475.3576825116131
 30
0.0
 11
-574.0879509900062
 21
-475.3576825116131
 31
0.0
  0
LINE
  5
85
330
1F
100
AcDbEntity
  8
D-4
  6
Continuous
 62
     7
370
     9
100
AcDbLine
 10
-724.0884458696517
 20
-422.7944121489654
 30
0.0
 11
-724.0884458696517
 21
-478.3578903610642
 31
0.0
  0
LINE
  5
86
330
1F
100
AcDbEntity
  8
D-4
  6
Continuous
 62
     7
370
     9
100
AcDbLine
 10
-579.0884623656399
 20
-422.7944121489654
 30
0.0
 11
-579.0884623656399
 21
-478.3578903610642
 31
0.0
  0
LINE
  5
87
330
1F
100
AcDbEntity
  8
D-4
  6
Continuous
 62
     7
370
     9
100
AcDbLine
 10
-567.2623234826162
 20
-419.827237515836
 30
0.0
 11
-488.0382782704118
 21
-419.827237515836
 31
0.0
  0
LINE
  5
88
330
1F
100
AcDbEntity
  8
D-4
  6
Continuous
 62
     7
370
     9
100
AcDbLine
 10
-567.2623234826162
 20
-369.8267013962204
 30
0.0
 11
-488.0382782704118
 21
-369.8267013962204
 31
0.0
  0
LINE
  5
89
330
1F
100
AcDbEntity
  8
D-4
  6
Continuous
 62
     7
370
     9
100
AcDbLine
 10
-491.0384861198628
 20
-369.8267013962204
 30
0.0
 11
-491.0384861198628
 21
-284.8267921241553
 31
0.0
  0
LINE
  5
8A
330
1F
100
AcDbEntity
  8
D-6
  6
Continuous
 62
     6
370
     5
100
AcDbLine
 10
-635.5873868272107
 20
-534.8269983240075
 30
0.0
 11
-635.5873868272107
 21
-419.827237515836
 31
0.0
  0
LINE
  5
8B
330
1F
100
AcDbEntity
  8
D-6
  6
Continuous
 62
     6
370
     5
100
AcDbLine
 10
-590.5872383633173
 20
-534.8269983240075
 30
0.0
 11
-590.5872383633173
 21
-419.827237515836
 31
0.0
  0
LINE
  5
8C
330
1F
100
AcDbEntity
  8
D-6
  6
Continuous
 62
     6
370
     5
100
AcDbLine
 10
-635.5873868272107
 20
-369.8267013962204
 30
0.0
 11
-635.5873868272107
 21
-337.3270890519424
 31
0.0
  0
LINE
  5
8D
330
1F
100
AcDbEntity
  8
D-6
  6
Continuous
 62
     6
370
     5
100
AcDbLine
 10
-590.5872383633173
 20
-369.8267013962204
 30
0.0
 11
-590.5872383633173
 21
-337.3270890519424
 31
0.0
  0
LINE
  5
8E
330
1F
100
AcDbEntity
  8
D-4
  6
Continuous
 62
     7
370
     9
100
AcDbLine
 10
-1024.571510263391
 20
-409.8270808039484
 30
0.0
 11
-1024.571510263391
 21
-284.8267921241553
 31
0.0
  0
LINE
  5
8F
330
1F
100
AcDbEntity
  8
D-4
  6
Continuous
 62
     7
370
     9
100
AcDbLine
 10
-752.2332410554624
 20
-409.8270808039484
 30
0.0
 11
-1027.571470673019
 21
-409.8270808039484
 31
0.0
  0
LINE
  5
90
330
1F
100
AcDbEntity
  8
D-4
  6
Continuous
 62
     7
370
     9
100
AcDbLine
 10
-752.2332410554624
 20
-284.8267921241553
 30
0.0
 11
-1027.571470673019
 21
-284.8267921241553
 31
0.0
  0
LINE
  5
91
330
1F
100
AcDbEntity
  8
D-4
  6
Continuous
 62
     7
370
     9
100
AcDbLine
 10
-1451.756754437008
 20
55.54054054054063
 30
0.0
 11
-724.0891881891196
 21
55.54054054054063
 31
0.0
  0
LINE
  5
92
330
1F
100
AcDbEntity
  8
D-4
  6
Continuous
 62
     7
370
     9
100
AcDbLine
 10
-879.0884623656398
 20
-844.9102948163006
 30
0.0
 11
-479.087637566231
 21
-844.9102948163006
 31
0.0
  0
LINE
  5
93
330
1F
100
AcDbEntity
  8
D-4
  6
Continuous
 62
     7
370
     9
100
AcDbLine
 10
-1451.756754437008
 20
-55.15512827280389
 30
0.0
 11
-677.5514486673711
 21
-55.15512827280389
 31
0.0
  0
LINE
  5
94
330
1F
100
AcDbEntity
  8
D-4
  6
Continuous
 62
     7
370
     9
100
AcDbLine
 10
-491.0384861198628
 20
-419.827237515836
 30
0.0
 11
-491.0384861198628
 21
-369.8267013962204
 31
0.0
  0
LINE
  5
95
330
1F
100
AcDbEntity
  8
D-4
  6
Continuous
 62
     7
370
     9
100
AcDbLine
 10
-879.0884623656398
 20
-809.827039563978
 30
0.0
 11
-879.0884623656398
 21
-847.909884066195
 31
0.0
  0
LINE
  5
96
330
1F
100
AcDbEntity
  8
D-5
  6
Continuous
 62
     2
370
     9
100
AcDbLine
 10
-1221.083392323674
 20
-980.7691089527026
 30
0.0
 11
-1221.083392323674
 21
-915.769513104413
 31
0.0
  0
LINE
  5
97
330
1F
100
AcDbEntity
  8
D-5
  6
Continuous
 62
     2
370
     9
100
AcDbLine
 10
-1221.083392323674
 20
-915.769513104413
 30
0.0
 11
-646.0830417839253
 21
-915.769513104413
 31
0.0
  0
LINE
  5
98
330
1F
100
AcDbEntity
  8
D-5
  6
Continuous
 62
     2
370
     9
100
AcDbLine
 10
-646.0830417839253
 20
-915.769513104413
 30
0.0
 11
-646.0830417839253
 21
-980.7691089527026
 31
0.0
  0
LINE
  5
99
330
1F
100
AcDbEntity
  8
D-5
  6
Continuous
 62
     2
370
     9
100
AcDbLine
 10
-646.0830417839253
 20
-980.7691089527026
 30
0.0
 11
-1221.083392323674
 21
-980.7691089527026
 31
0.0
  0
LINE
  5
9A
330
1F
100
AcDbEntity
  8
D-A
  6
Continuous
 62
     3
370
     9
100
AcDbLine
 10
-740.5884755624304
 20
-289.8271797798775
 30
0.0
 11
-729.088214925817
 21
-289.8271797798775
 31
0.0
  0
LINE
  5
9B
330
1F
100
AcDbEntity
  8
D-A
  6
Continuous
 62
     3
370
     9
100
AcDbLine
 10
-729.088214925817
 20
-402.3273034997888
 30
0.0
 11
-740.5884755624304
 21
-402.3273034997888
 31
0.0
  0
LINE
  5
9C
330
1F
100
AcDbEntity
  8
D-A
  6
Continuous
 62
     3
370
     9
100
AcDbLine
 10
-729.088214925817
 20
-402.3273034997888
 30
0.0
 11
-729.088214925817
 21
-369.8267013962204
 31
0.0
  0
LINE
  5
9D
330
1F
100
AcDbEntity
  8
D-5
  6
Continuous
 62
     7
370
     9
100
AcDbLine
 10
-629.5654438637393
 20
-121.9156296188766
 30
0.0
 11
-792.8670664091363
 21
-309.5407104492188
 31
0.0
  0
LINE
  5
9E
330
1F
100
AcDbEntity
  8
D-5
  6
Continuous
 62
     7
370
     9
100
AcDbLine
 10
-792.8670664091363
 20
-309.5407104492188
 30
0.0
 11
-779.0557178291111
 21
-288.701081147065
 31
0.0
  0
LINE
  5
9F
330
1F
100
AcDbEntity
  8
D-5
  6
Continuous
 62
     7
370
     9
100
AcDbLine
 10
-792.8670664091363
 20
-309.5407104492188
 30
0.0
 11
-774.1329025577851
 21
-292.9858728357263
 31
0.0
  0
LINE
  5
A0
330
1F
100
AcDbEntity
  8
D-5
  6
Continuous
 62
     7
370
     9
100
AcDbLine
 10
-629.5654438637393
 20
-176.7777396537161
 30
0.0
 11
-726.0407460702429
 21
-287.6228621199324
 31
0.0
  0
LINE
  5
A1
330
1F
100
AcDbEntity
  8
D-5
  6
Continuous
 62
     7
370
     9
100
AcDbLine
 10
-726.0407460702429
 20
-287.6228621199324
 30
0.0
 11
-712.2293974902175
 21
-266.7843462969805
 31
0.0
  0
LINE
  5
A2
330
1F
100
AcDbEntity
  8
D-5
  6
Continuous
 62
     7
370
     9
100
AcDbLine
 10
-726.0407460702429
 20
-287.6228621199324
 30
0.0
 11
-707.3065822188914
 21
-271.0688905458192
 31
0.0
  0
LINE
  5
A3
330
1F
100
AcDbEntity
  8
D-5
  6
Continuous
 62
     7
370
     9
100
AcDbLine
 10
-694.0675619486211
 20
-373.0034575591216
 30
0.0
 11
-572.9804103438914
 21
-233.8812833218961
 31
0.0
  0
LINE
  5
A4
330
1F
100
AcDbEntity
  8
D-5
  6
Continuous
 62
     7
370
     9
100
AcDbLine
 10
-694.0675619486211
 20
-373.0034575591216
 30
0.0
 11
-680.2564608084185
 21
-352.1646942963471
 31
0.0
  0
LINE
  5
A5
330
1F
100
AcDbEntity
  8
D-5
  6
Continuous
 62
     7
370
     9
100
AcDbLine
 10
-694.0675619486211
 20
-373.0034575591216
 30
0.0
 11
-675.3331506574472
 21
-356.4491148252745
 31
0.0
  0
LINE
  5
A6
330
1F
100
AcDbEntity
  8
D-5
  6
Continuous
 62
     7
370
     9
100
AcDbLine
 10
-572.9804103438914
 20
-233.8812833218961
 30
0.0
 11
-186.2782388120081
 21
-233.8812833218961
 31
0.0
  0
LINE
  5
A7
330
1F
100
AcDbEntity
  8
D-6
  6
Continuous
 62
     6
370
     5
100
AcDbLine
 10
-729.088214925817
 20
-284.8275344436233
 30
0.0
 11
-314.0875880782664
 21
-284.8275344436233
 31
0.0
  0
LINE
  5
A8
330
1F
100
AcDbEntity
  8
D-4
  6
Continuous
 62
     7
370
     9
100
AcDbLine
 10
-295.5882446185959
 20
-284.8275344436233
 30
0.0
 11
-204.4032058200315
 21
-284.8275344436233
 31
0.0
  0
LINE
  5
A9
330
1F
100
AcDbEntity
  8
D-5
  6
Continuous
 62
     7
370
     9
100
AcDbLine
 10
-629.5654438637393
 20
-176.7777396537161
 30
0.0
 11
-178.5982015970586
 21
-176.7777396537161
 31
0.0
  0
LINE
  5
AA
330
1F
100
AcDbEntity
  8
D-9
  6
Continuous
 62
     4
370
     9
100
AcDbLine
 10
-846.1324472685113
 20
-302.3267261402026
 30
0.0
 11
-863.6323812845587
 21
-319.8267838761612
 31
0.0
  0
LINE
  5
AB
330
1F
100
AcDbEntity
  8
D-9
  6
Continuous
 62
     4
370
     9
100
AcDbLine
 10
-817.8480960227344
 20
-302.3267261402026
 30
0.0
 11
-835.3480300387816
 21
-319.8267838761612
 31
0.0
  0
LINE
  5
AC
330
1F
100
AcDbEntity
  8
D-9
  6
Continuous
 62
     4
370
     9
100
AcDbLine
 10
-810.7767607714675
 20
-302.3267261402026
 30
0.0
 11
-828.2766947875148
 21
-319.8267838761612
 31
0.0
  0
LINE
  5
AD
330
1F
100
AcDbEntity
  8
D-9
  6
Continuous
 62
     4
370
     9
100
AcDbLine
 10
-803.7059203998458
 20
-302.3267261402026
 30
0.0
 11
-821.2053595362479
 21
-319.8267838761612
 31
0.0
  0
LINE
  5
AE
330
1F
100
AcDbEntity
  8
D-9
  6
Continuous
 62
     4
370
     9
100
AcDbLine
 10
-796.6345851485789
 20
-302.3267261402026
 30
0.0
 11
-816.2578002826583
 21
-321.949570114548
 31
0.0
  0
LINE
  5
AF
330
1F
100
AcDbEntity
  8
D-9
  6
Continuous
 62
     4
370
     9
100
AcDbLine
 10
-789.5637447769573
 20
-302.3267261402026
 30
0.0
 11
-812.2171079790267
 21
-324.9800893422719
 31
0.0
  0
LINE
  5
B0
330
1F
100
AcDbEntity
  8
D-9
  6
Continuous
 62
     4
370
     9
100
AcDbLine
 10
-782.4924095256904
 20
-302.3267261402026
 30
0.0
 11
-808.1766631152175
 21
-328.010361130173
 31
0.0
  0
LINE
  5
B1
330
1F
100
AcDbEntity
  8
D-9
  6
Continuous
 62
     4
370
     9
100
AcDbLine
 10
-775.4215691540687
 20
-302.3267261402026
 30
0.0
 11
-804.1359708115857
 21
-331.0408803578969
 31
0.0
  0
LINE
  5
B2
330
1F
100
AcDbEntity
  8
D-9
  6
Continuous
 62
     4
370
     9
100
AcDbLine
 10
-768.350233902802
 20
-302.3267261402026
 30
0.0
 11
-800.0947836283087
 21
-334.071523305532
 31
0.0
  0
LINE
  5
B3
330
1F
100
AcDbEntity
  8
D-9
  6
Continuous
 62
     4
370
     9
100
AcDbLine
 10
-761.2793935311804
 20
-302.3267261402026
 30
0.0
 11
-793.779377035192
 21
-334.8267096442145
 31
0.0
  0
LINE
  5
B4
330
1F
100
AcDbEntity
  8
D-9
  6
Continuous
 62
     4
370
     9
100
AcDbLine
 10
-754.2080582799134
 20
-302.3267261402026
 30
0.0
 11
-786.7077943441027
 21
-334.8267096442145
 31
0.0
  0
LINE
  5
B5
330
1F
100
AcDbEntity
  8
D-9
  6
Continuous
 62
     4
370
     9
100
AcDbLine
 10
-749.0885283495925
 20
-304.2777891416807
 30
0.0
 11
-779.6372014123037
 21
-334.8267096442145
 31
0.0
  0
LINE
  5
B6
330
1F
100
AcDbEntity
  8
D-9
  6
Continuous
 62
     4
370
     9
100
AcDbLine
 10
-749.0885283495925
 20
-325.4910525760134
 30
0.0
 11
-758.4236905381482
 21
-334.8267096442145
 31
0.0
  0
LINE
  5
B7
330
1F
100
AcDbEntity
  8
D-9
  6
Continuous
 62
     4
370
     9
100
AcDbLine
 10
-749.0885283495925
 20
-318.4199647645692
 30
0.0
 11
-765.4947783495925
 21
-334.8267096442145
 31
0.0
  0
LINE
  5
B8
330
1F
100
AcDbEntity
  8
D-9
  6
Continuous
 62
     4
370
     9
100
AcDbLine
 10
-749.0885283495925
 20
-311.348876953125
 30
0.0
 11
-772.5656187212142
 21
-334.8267096442145
 31
0.0
  0
LINE
  5
B9
330
1F
100
AcDbEntity
  8
D-9
  6
Continuous
 62
     4
370
     9
100
AcDbLine
 10
-860.2746228913999
 20
-302.3267261402026
 30
0.0
 11
-869.0884293736634
 21
-311.1402851826435
 31
0.0
  0
LINE
  5
BA
330
1F
100
AcDbEntity
  8
D-9
  6
Continuous
 62
     4
370
     9
100
AcDbLine
 10
-853.2037825197783
 20
-302.3267261402026
 30
0.0
 11
-869.0884293736634
 21
-318.2113729940878
 31
0.0
  0
LINE
  5
BB
330
1F
100
AcDbEntity
  8
D-9
  6
Continuous
 62
     4
370
     9
100
AcDbLine
 10
-864.0881654378527
 20
-302.3267261402026
 30
0.0
 11
-749.0885283495925
 21
-302.3267261402026
 31
0.0
  0
LINE
  5
BC
330
1F
100
AcDbEntity
  8
D-9
  6
Continuous
 62
     4
370
     9
100
AcDbLine
 10
-869.0884293736634
 20
-307.3268663561021
 30
0.0
 11
-869.0884293736634
 21
-319.8267838761612
 31
0.0
  0
LINE
  5
BD
330
1F
100
AcDbEntity
  8
D-6
  6
Continuous
 62
     6
370
     5
100
AcDbLine
 10
-879.0884623656398
 20
-339.8267261402026
 30
0.0
 11
-879.0884623656398
 21
-784.8267096442145
 31
0.0
  0
LINE
  5
BE
330
1F
100
AcDbEntity
  8
D-1
  6
Continuous
 62
     2
370
     9
100
AcDbLine
 10
-729.0879674859946
 20
-404.826569428315
 30
0.0
 11
-744.088016973959
 21
-404.826569428315
 31
0.0
  0
LINE
  5
BF
330
1F
100
AcDbEntity
  8
D-1
  6
Continuous
 62
     2
370
     9
100
AcDbLine
 10
-729.0879674859946
 20
-289.8268086201435
 30
0.0
 11
-744.088016973959
 21
-289.8268086201435
 31
0.0
  0
LINE
  5
C0
330
1F
100
AcDbEntity
  8
D-1
  6
Continuous
 62
     2
370
     9
100
AcDbLine
 10
-724.0879509900062
 20
-382.3266189162796
 30
0.0
 11
-729.0879674859946
 21
-382.3266189162796
 31
0.0
  0
LINE
  5
C1
330
1F
100
AcDbEntity
  8
D-1
  6
Continuous
 62
     2
370
     9
100
AcDbLine
 10
-729.0879674859946
 20
-404.826569428315
 30
0.0
 11
-729.0879674859946
 21
-382.3266189162796
 31
0.0
  0
LINE
  5
C2
330
1F
100
AcDbEntity
  8
D-1
  6
Continuous
 62
     2
370
     9
100
AcDbLine
 10
-724.0879509900062
 20
-312.3266354122677
 30
0.0
 11
-729.0879674859946
 21
-312.3266354122677
 31
0.0
  0
LINE
  5
C3
330
1F
100
AcDbEntity
  8
D-1
  6
Continuous
 62
     2
370
     9
100
AcDbLine
 10
-729.0879674859946
 20
-312.3266354122677
 30
0.0
 11
-729.0879674859946
 21
-289.8268086201435
 31
0.0
  0
LINE
  5
C4
330
1F
100
AcDbEntity
  8
D-1
  6
Continuous
 62
     2
370
     9
100
AcDbLine
 10
-802.0879113996347
 20
-338.8265743771115
 30
0.0
 11
-820.7545241794066
 21
-324.8268003721495
 31
0.0
  0
LINE
  5
C5
330
1F
100
AcDbEntity
  8
D-1
  6
Continuous
 62
     2
370
     9
100
AcDbLine
 10
-749.0880334699472
 20
-334.8265859243031
 30
0.0
 11
-799.0879509900062
 21
-334.8265859243031
 31
0.0
  0
LINE
  5
C6
330
1F
100
AcDbEntity
  8
D-1
  6
Continuous
 62
     2
370
     9
100
AcDbLine
 10
-744.088016973959
 20
-344.8266189162796
 30
0.0
 11
-744.088016973959
 21
-404.826569428315
 31
0.0
  0
LINE
  5
C7
330
1F
100
AcDbEntity
  8
D-1
  6
Continuous
 62
     2
370
     9
100
AcDbLine
 10
-744.088016973959
 20
-334.8265859243031
 30
0.0
 11
-744.088016973959
 21
-289.8268086201435
 31
0.0
  0
LINE
  5
C8
330
1F
100
AcDbEntity
  8
D-1
  6
Continuous
 62
     2
370
     9
100
AcDbLine
 10
-724.0879509900062
 20
-287.826505093961
 30
0.0
 11
-724.0879509900062
 21
-312.3266354122677
 31
0.0
  0
LINE
  5
C9
330
1F
100
AcDbEntity
  8
D-1
  6
Continuous
 62
     2
370
     9
100
AcDbLine
 10
-746.0880730603187
 20
-284.826668404244
 30
0.0
 11
-727.0879113996347
 21
-284.826668404244
 31
0.0
  0
LINE
  5
CA
330
1F
100
AcDbEntity
  8
D-1
  6
Continuous
 62
     2
370
     9
100
AcDbLine
 10
-749.0880334699472
 20
-287.826505093961
 30
0.0
 11
-749.0880334699472
 21
-334.8265859243031
 31
0.0
  0
LINE
  5
CB
330
1F
100
AcDbEntity
  8
D-1
  6
Continuous
 62
     2
370
     9
100
AcDbLine
 10
-724.0879509900062
 20
-406.8266255146747
 30
0.0
 11
-724.0879509900062
 21
-382.3266189162796
 31
0.0
  0
LINE
  5
CC
330
1F
100
AcDbEntity
  8
D-1
  6
Continuous
 62
     2
370
     9
100
AcDbLine
 10
-746.0880730603187
 20
-409.8265859243031
 30
0.0
 11
-727.0879113996347
 21
-409.8265859243031
 31
0.0
  0
LINE
  5
CD
330
1F
100
AcDbEntity
  8
D-1
  6
Continuous
 62
     2
370
     9
100
AcDbLine
 10
-749.0880334699472
 20
-406.8266255146747
 30
0.0
 11
-749.0880334699472
 21
-344.8266189162796
 31
0.0
  0
LINE
  5
CE
330
1F
100
AcDbEntity
  8
D-1
  6
Continuous
 62
     2
370
     9
100
AcDbLine
 10
-817.7679255202006
 20
-320.8167906065245
 30
0.0
 11
-799.0879509900062
 21
-334.8265859243031
 31
0.0
  0
LINE
  5
CF
330
1F
100
AcDbEntity
  8
D-1
  6
Continuous
 62
     2
370
     9
100
AcDbLine
 10
-874.0879509900062
 20
-339.8264787003799
 30
0.0
 11
-749.0880334699472
 21
-339.8264787003799
 31
0.0
  0
LINE
  5
D0
330
1F
100
AcDbEntity
  8
D-1
  6
Continuous
 62
     2
370
     9
100
AcDbLine
 10
-874.0879509900062
 20
-339.8264787003799
 30
0.0
 11
-874.0879509900062
 21
-324.8268003721495
 31
0.0
  0
LINE
  5
D1
330
1F
100
AcDbEntity
  8
D-1
  6
Continuous
 62
     2
370
     9
100
AcDbLine
 10
-879.0879674859946
 20
-339.8264787003799
 30
0.0
 11
-879.0879674859946
 21
-324.8268003721495
 31
0.0
  0
LINE
  5
D2
330
1F
100
AcDbEntity
  8
D-1
  6
Continuous
 62
     2
370
     9
100
AcDbLine
 10
-874.0879509900062
 20
-344.8266189162796
 30
0.0
 11
-749.0880334699472
 21
-344.8266189162796
 31
0.0
  0
LINE
  5
D3
330
1F
100
AcDbEntity
  8
D-1
  6
Continuous
 62
     2
370
     9
100
AcDbLine
 10
-860.9182138700738
 20
-320.4966034760345
 30
0.0
 11
-849.0881159498881
 21
-327.3268086201435
 31
0.0
  0
LINE
  5
D4
330
1F
100
AcDbEntity
  8
D-1
  6
Continuous
 62
     2
370
     9
100
AcDbLine
 10
-837.2577705898796
 20
-320.4966034760345
 30
0.0
 11
-849.0881159498881
 21
-327.3268086201435
 31
0.0
  0
LINE
  5
D5
330
1F
100
AcDbEntity
  8
D-1
  6
Continuous
 62
     2
370
     9
100
AcDbLine
 10
-846.5879839819827
 20
-331.656881796347
 30
0.0
 11
-834.7578860617969
 21
-324.8268003721495
 31
0.0
  0
LINE
  5
D6
330
1F
100
AcDbEntity
  8
D-1
  6
Continuous
 62
     2
370
     9
100
AcDbLine
 10
-851.5880004779708
 20
-331.656881796347
 30
0.0
 11
-863.4183458379794
 21
-324.8268003721495
 31
0.0
  0
LINE
  5
D7
330
1F
100
AcDbEntity
  8
D-1
  6
Continuous
 62
     2
370
     9
100
AcDbLine
 10
-820.7379457112902
 20
-319.8267838761612
 30
0.0
 11
-834.7578860617969
 21
-319.8267838761612
 31
0.0
  0
LINE
  5
D8
330
1F
100
AcDbEntity
  8
D-1
  6
Continuous
 62
     2
370
     9
100
AcDbLine
 10
-863.4183458379794
 20
-319.8267838761612
 30
0.0
 11
-874.0879509900062
 21
-319.8267838761612
 31
0.0
  0
LINE
  5
D9
330
1F
100
AcDbEntity
  8
D-1
  6
Continuous
 62
     2
370
     9
100
AcDbLine
 10
-820.7545241794066
 20
-324.8268003721495
 30
0.0
 11
-834.7578860617969
 21
-324.8268003721495
 31
0.0
  0
LINE
  5
DA
330
1F
100
AcDbEntity
  8
D-1
  6
Continuous
 62
     2
370
     9
100
AcDbLine
 10
-863.4183458379794
 20
-324.8268003721495
 30
0.0
 11
-874.0879509900062
 21
-324.8268003721495
 31
0.0
  0
LINE
  5
DB
330
1F
100
AcDbEntity
  8
D-9
  6
Continuous
 62
     4
370
     9
100
AcDbLine
 10
-824.918936394356
 20
-302.3267261402026
 30
0.0
 11
-849.6151627721009
 21
-327.022333918391
 31
0.0
  0
LINE
  5
DC
330
1F
100
AcDbEntity
  8
D-9
  6
Continuous
 62
     4
370
     9
100
AcDbLine
 10
-831.9902716456229
 20
-302.3267261402026
 30
0.0
 11
-854.097782598959
 21
-324.4343608134501
 31
0.0
  0
LINE
  5
DD
330
1F
100
AcDbEntity
  8
D-9
  6
Continuous
 62
     4
370
     9
100
AcDbLine
 10
-839.0611120172446
 20
-302.3267261402026
 30
0.0
 11
-858.5808973054624
 21
-321.8461402686866
 31
0.0
  0
LINE
  5
DE
330
1F
100
AcDbEntity
  8
D-2
  6
Continuous
 62
     3
370
     9
100
AcDbLine
 10
-754.0885448455806
 20
-287.3269240920608
 30
0.0
 11
-754.0885448455806
 21
-302.3267261402026
 31
0.0
  0
LINE
  5
DF
330
1F
100
AcDbEntity
  8
D-4
  6
Continuous
 62
     7
370
     9
100
AcDbLine
 10
-1235.815093323991
 20
-249.3066818649703
 30
0.0
 11
-1235.815093323991
 21
-333.5095874683276
 31
0.0
  0
LINE
  5
E0
330
1F
100
AcDbEntity
  8
D-2
  6
Continuous
 62
     3
370
     9
100
AcDbLine
 10
-754.0885448455806
 20
-302.3267261402026
 30
0.0
 11
-1426.757847296225
 21
-302.3267261402026
 31
0.0
  0
LINE
  5
E1
330
1F
100
AcDbEntity
  8
D-2
  6
Continuous
 62
     3
370
     9
100
AcDbLine
 10
-754.0885448455806
 20
-292.3271880278716
 30
0.0
 11
-1426.757847296225
 21
-292.3271880278716
 31
0.0
  0
LINE
  5
E2
330
1F
100
AcDbEntity
  8
D-2
  6
Continuous
 62
     3
370
     9
100
AcDbLine
 10
-754.0885448455806
 20
-297.3269570840371
 30
0.0
 11
-1426.757847296225
 21
-297.3269570840371
 31
0.0
  0
LINE
  5
E3
330
1F
100
AcDbEntity
  8
D-2
  6
Continuous
 62
     3
370
     9
100
AcDbLine
 10
-754.0885448455806
 20
-287.3269240920608
 30
0.0
 11
-1426.757847296225
 21
-287.3269240920608
 31
0.0
  0
LINE
  5
E4
330
1F
100
AcDbEntity
  8
D-5
  6
Continuous
 62
     7
370
     9
100
AcDbLine
 10
-629.56643362303
 20
-58.5809326171875
 30
0.0
 11
21.82087898254451
 21
-58.5809326171875
 31
0.0
  0
LINE
  5
E5
330
1F
100
AcDbEntity
  8
D-5
  6
Continuous
 62
     7
370
     9
100
AcDbLine
 10
-629.56643362303
 20
-58.5809326171875
 30
0.0
 11
-827.0790860459607
 21
-287.3269240920608
 31
0.0
  0
LINE
  5
E6
330
1F
100
AcDbEntity
  8
D-5
  6
Continuous
 62
     7
370
     9
100
AcDbLine
 10
-827.0790860459607
 20
-287.3269240920608
 30
0.0
 11
-813.3506298065181
 21
-266.4339715081292
 31
0.0
  0
LINE
  5
E7
330
1F
100
AcDbEntity
  8
D-5
  6
Continuous
 62
     7
370
     9
100
AcDbLine
 10
-827.0790860459607
 20
-287.3269240920608
 30
0.0
 11
-808.4107411874304
 21
-270.6989680109797
 31
0.0
  0
LINE
  5
E8
330
1F
100
AcDbEntity
  8
D-5
  6
Continuous
 62
     2
370
     9
100
AcDbLine
 10
245.5829375499007
 20
-334.8270808039484
 30
0.0
 11
20.58367986936872
 21
-334.8270808039484
 31
0.0
  0
LINE
  5
E9
330
1F
100
AcDbEntity
  8
D-5
  6
Continuous
 62
     2
370
     9
100
AcDbLine
 10
245.5829375499007
 20
-284.8267921241553
 30
0.0
 11
245.5829375499007
 21
-334.8270808039484
 31
0.0
  0
LINE
  5
EA
330
1F
100
AcDbEntity
  8
D-5
  6
Continuous
 62
     2
370
     9
100
AcDbLine
 10
20.58367986936872
 20
-284.8267921241553
 30
0.0
 11
245.5829375499007
 21
-284.8267921241553
 31
0.0
  0
LINE
  5
EB
330
1F
100
AcDbEntity
  8
D-5
  6
Continuous
 62
     2
370
     9
100
AcDbLine
 10
20.58367986936872
 20
-334.8270808039484
 30
0.0
 11
20.58367986936872
 21
-284.8267921241553
 31
0.0
  0
LINE
  5
EC
330
1F
100
AcDbEntity
  8
D-2
  6
Continuous
 62
     3
370
     9
100
AcDbLine
 10
-929.0894933649008
 20
-427.326767380173
 30
0.0
 11
-1426.757847296225
 21
-427.326767380173
 31
0.0
  0
LINE
  5
ED
330
1F
100
AcDbEntity
  8
D-2
  6
Continuous
 62
     3
370
     9
100
AcDbLine
 10
-929.0894933649008
 20
-302.3267261402026
 30
0.0
 11
-929.0894933649008
 21
-427.326767380173
 31
0.0
  0
LINE
  5
EE
330
1F
100
AcDbEntity
  8
D-5
  6
Continuous
 62
     7
370
     9
100
AcDbLine
 10
-1218.637140377147
 20
-666.6694311193517
 30
0.0
 11
-1109.056187964774
 21
-379.1510999524916
 31
0.0
  0
LINE
  5
EF
330
1F
100
AcDbEntity
  8
D-5
  6
Continuous
 62
     7
370
     9
100
AcDbLine
 10
-1109.056187964774
 20
-379.1510999524916
 30
0.0
 11
-1114.83440270295
 21
-403.4741870777026
 31
0.0
  0
LINE
  5
F0
330
1F
100
AcDbEntity
  8
D-5
  6
Continuous
 62
     7
370
     9
100
AcDbLine
 10
-1109.056187964774
 20
-379.1510999524916
 30
0.0
 11
-1120.932804571615
 21
-401.1498611037796
 31
0.0
  0
LINE
  5
F1
330
1F
100
AcDbEntity
  8
D-2
  6
Continuous
 62
     3
370
     9
100
AcDbLine
 10
-1426.757847296225
 20
-515.5535393792229
 30
0.0
 11
-1426.757847296225
 21
-218.6277317356418
 31
0.0
  0
LINE
  5
F2
330
1F
100
AcDbEntity
  8
C-2
  6
Continuous
 62
     3
370
     9
100
AcDbLine
 10
-629.224842947882
 20
660.9723395270271
 30
0.0
 11
-629.224842947882
 21
960.9723395270271
 31
0.0
  0
LINE
  5
F3
330
1F
100
AcDbEntity
  8
C-2
  6
Continuous
 62
     3
370
     9
100
AcDbLine
 10
-629.224842947882
 20
960.9723395270271
 30
0.0
 11
-130.2249534710029
 21
960.9723395270271
 31
0.0
  0
LINE
  5
F4
330
1F
100
AcDbEntity
  8
C-2
  6
Continuous
 62
     3
370
     9
100
AcDbLine
 10
-130.2249534710029
 20
960.9723395270271
 30
0.0
 11
-130.2249534710029
 21
660.9723395270271
 31
0.0
  0
LINE
  5
F5
330
1F
100
AcDbEntity
  8
C-2
  6
Continuous
 62
     3
370
     9
100
AcDbLine
 10
-130.2249534710029
 20
660.9723395270271
 30
0.0
 11
-629.224842947882
 21
660.9723395270271
 31
0.0
  0
LINE
  5
F6
330
1F
100
AcDbEntity
  8
C-2
  6
Continuous
 62
     3
370
     9
100
AcDbLine
 10
-630.2249947109735
 20
660.9723395270271
 30
0.0
 11
-630.2249947109735
 21
960.9723395270271
 31
0.0
  0
LINE
  5
F7
330
1F
100
AcDbEntity
  8
C-2
  6
Continuous
 62
     3
370
     9
100
AcDbLine
 10
-129.2249254278229
 20
660.9723395270271
 30
0.0
 11
-129.2249254278229
 21
960.9723395270271
 31
0.0
  0
LINE
  5
F8
330
1F
100
AcDbEntity
  8
C-2
  6
Continuous
 62
     3
370
     9
100
AcDbLine
 10
-129.2249254278229
 20
960.9723395270271
 30
0.0
 11
369.7752114888789
 21
960.9723395270271
 31
0.0
  0
LINE
  5
F9
330
1F
100
AcDbEntity
  8
C-2
  6
Continuous
 62
     3
370
     9
100
AcDbLine
 10
369.7752114888789
 20
960.9723395270271
 30
0.0
 11
369.7752114888789
 21
660.9723395270271
 31
0.0
  0
LINE
  5
FA
330
1F
100
AcDbEntity
  8
C-2
  6
Continuous
 62
     3
370
     9
100
AcDbLine
 10
369.7752114888789
 20
660.9723395270271
 30
0.0
 11
-129.2249254278229
 21
660.9723395270271
 31
0.0
  0
LINE
  5
FB
330
1F
100
AcDbEntity
  8
C-2
  6
Continuous
 62
     3
370
     9
100
AcDbLine
 10
370.7751158121474
 20
960.9723395270271
 30
0.0
 11
370.7751158121474
 21
660.9723395270271
 31
0.0
  0
LINE
  5
FC
330
1F
100
AcDbEntity
  8
C-2
  6
Continuous
 62
     3
370
     9
100
AcDbLine
 10
-630.2249947109735
 20
960.9723395270271
 30
0.0
 11
-880.224953471003
 21
960.9723395270271
 31
0.0
  0
LINE
  5
FD
330
1F
100
AcDbEntity
  8
C-2
  6
Continuous
 62
     3
370
     9
100
AcDbLine
 10
-630.2249947109735
 20
660.9723395270271
 30
0.0
 11
-880.224953471003
 21
660.9723395270271
 31
0.0
  0
LINE
  5
FE
330
1F
100
AcDbEntity
  8
C-2
  6
Continuous
 62
     3
370
     9
100
AcDbLine
 10
370.7751158121474
 20
960.9723395270271
 30
0.0
 11
620.7749508522659
 21
960.9723395270271
 31
0.0
  0
LINE
  5
FF
330
1F
100
AcDbEntity
  8
C-2
  6
Continuous
 62
     3
370
     9
100
AcDbLine
 10
370.7751158121474
 20
660.9723395270271
 30
0.0
 11
620.7749508522659
 21
660.9723395270271
 31
0.0
  0
LINE
  5
100
330
1F
100
AcDbEntity
  8
C-1
  6
Continuous
 62
     2
370
     9
100
AcDbLine
 10
-880.224953471003
 20
961.9719964104731
 30
0.0
 11
620.7749508522659
 21
961.9719964104731
 31
0.0
  0
LINE
  5
101
330
1F
100
AcDbEntity
  8
C-1
  6
JWW_DASHED3
 62
     2
370
     9
100
AcDbLine
 10
-880.224953471003
 20
935.9722570470863
 30
0.0
 11
620.7749508522659
 21
935.9722570470863
 31
0.0
  0
LINE
  5
102
330
1F
100
AcDbEntity
  8
C-1
  6
JWW_DASHED3
 62
     2
370
     9
100
AcDbLine
 10
620.7749508522659
 20
685.9726694467906
 30
0.0
 11
-880.224953471003
 21
685.9726694467906
 31
0.0
  0
LINE
  5
103
330
1F
100
AcDbEntity
  8
C-1
  6
Continuous
 62
     2
370
     9
100
AcDbLine
 10
620.7749508522659
 20
659.9724352037586
 30
0.0
 11
-880.224953471003
 21
659.9724352037586
 31
0.0
  0
LINE
  5
104
330
1F
100
AcDbEntity
  8
C-1
  6
Continuous
 62
     2
370
     9
100
AcDbLine
 10
-880.224953471003
 20
968.9725638724665
 30
0.0
 11
620.7749508522659
 21
968.9725638724665
 31
0.0
  0
LINE
  5
105
330
1F
100
AcDbEntity
  8
C-1
  6
Continuous
 62
     2
370
     9
100
AcDbLine
 10
620.7749508522659
 20
652.9726100612334
 30
0.0
 11
-880.224953471003
 21
652.9726100612334
 31
0.0
  0
LINE
  5
106
330
1F
100
AcDbEntity
  8
C-A
  6
Continuous
 62
     3
370
     9
100
AcDbLine
 10
-212.569091126725
 20
960.9723395270271
 30
0.0
 11
-512.5689674068138
 21
660.9723395270271
 31
0.0
  0
LINE
  5
107
330
1F
100
AcDbEntity
  8
C-A
  6
Continuous
 62
     3
370
     9
100
AcDbLine
 10
-236.569145563486
 20
936.972161370355
 30
0.0
 11
-130.2249534710029
 21
936.972161370355
 31
0.0
  0
LINE
  5
108
330
1F
100
AcDbEntity
  8
C-A
  6
Continuous
 62
     3
370
     9
100
AcDbLine
 10
-258.5691439138873
 20
914.9722867398651
 30
0.0
 11
-130.2249534710029
 21
914.9722867398651
 31
0.0
  0
LINE
  5
109
330
1F
100
AcDbEntity
  8
C-A
  6
Continuous
 62
     3
370
     9
100
AcDbLine
 10
-282.569074630737
 20
890.9721085831927
 30
0.0
 11
-130.2249534710029
 21
890.9721085831927
 31
0.0
  0
LINE
  5
10A
330
1F
100
AcDbEntity
  8
C-A
  6
Continuous
 62
     3
370
     9
100
AcDbLine
 10
-304.569072981138
 20
868.9722339527029
 30
0.0
 11
-130.2249534710029
 21
868.9722339527029
 31
0.0
  0
LINE
  5
10B
330
1F
100
AcDbEntity
  8
C-A
  6
Continuous
 62
     3
370
     9
100
AcDbLine
 10
-328.569127417899
 20
844.9720557960304
 30
0.0
 11
-130.2249534710029
 21
844.9720557960304
 31
0.0
  0
LINE
  5
10C
330
1F
100
AcDbEntity
  8
C-A
  6
Continuous
 62
     3
370
     9
100
AcDbLine
 10
-350.5691257683003
 20
822.9721811655406
 30
0.0
 11
-130.2249534710029
 21
822.9721811655406
 31
0.0
  0
LINE
  5
10D
330
1F
100
AcDbEntity
  8
C-A
  6
Continuous
 62
     3
370
     9
100
AcDbLine
 10
-374.5690564851498
 20
798.9722504486908
 30
0.0
 11
-130.2249534710029
 21
798.9722504486908
 31
0.0
  0
LINE
  5
10E
330
1F
100
AcDbEntity
  8
C-A
  6
Continuous
 62
     3
370
     9
100
AcDbLine
 10
-396.5690548355511
 20
776.9721283783783
 30
0.0
 11
-130.2249534710029
 21
776.9721283783783
 31
0.0
  0
LINE
  5
10F
330
1F
100
AcDbEntity
  8
C-A
  6
Continuous
 62
     3
370
     9
100
AcDbLine
 10
-420.569109272312
 20
752.972197661529
 30
0.0
 11
-130.2249534710029
 21
752.972197661529
 31
0.0
  0
LINE
  5
110
330
1F
100
AcDbEntity
  8
C-A
  6
Continuous
 62
     3
370
     9
100
AcDbLine
 10
-442.5692313426245
 20
730.9720755912165
 30
0.0
 11
-130.2249534710029
 21
730.9720755912165
 31
0.0
  0
LINE
  5
111
330
1F
100
AcDbEntity
  8
C-A
  6
Continuous
 62
     3
370
     9
100
AcDbLine
 10
-466.5690383395628
 20
706.9721448743667
 30
0.0
 11
-130.2249534710029
 21
706.9721448743667
 31
0.0
  0
LINE
  5
112
330
1F
100
AcDbEntity
  8
C-A
  6
Continuous
 62
     3
370
     9
100
AcDbLine
 10
-488.5691604098753
 20
684.9722702438769
 30
0.0
 11
-130.2249534710029
 21
684.9722702438769
 31
0.0
  0
LINE
  5
113
330
1F
100
AcDbEntity
  8
C-A
  6
Continuous
 62
     3
370
     9
100
AcDbLine
 10
-240.9691204895839
 20
932.5721864442568
 30
0.0
 11
-130.2249534710029
 21
932.5721864442568
 31
0.0
  0
LINE
  5
114
330
1F
100
AcDbEntity
  8
C-A
  6
Continuous
 62
     3
370
     9
100
AcDbLine
 10
-245.3690954156821
 20
928.1722115181589
 30
0.0
 11
-130.2249534710029
 21
928.1722115181589
 31
0.0
  0
LINE
  5
115
330
1F
100
AcDbEntity
  8
C-A
  6
Continuous
 62
     3
370
     9
100
AcDbLine
 10
-249.7691940616912
 20
923.772236592061
 30
0.0
 11
-130.2249534710029
 21
923.772236592061
 31
0.0
  0
LINE
  5
116
330
1F
100
AcDbEntity
  8
C-A
  6
Continuous
 62
     3
370
     9
100
AcDbLine
 10
-254.1691689877894
 20
919.372261665963
 30
0.0
 11
-130.2249534710029
 21
919.372261665963
 31
0.0
  0
LINE
  5
117
330
1F
100
AcDbEntity
  8
C-A
  6
Continuous
 62
     3
370
     9
100
AcDbLine
 10
-286.9690495568349
 20
886.5721336570948
 30
0.0
 11
-130.2249534710029
 21
886.5721336570948
 31
0.0
  0
LINE
  5
118
330
1F
100
AcDbEntity
  8
C-A
  6
Continuous
 62
     3
370
     9
100
AcDbLine
 10
-291.3690244829328
 20
882.1721587309967
 30
0.0
 11
-130.2249534710029
 21
882.1721587309967
 31
0.0
  0
LINE
  5
119
330
1F
100
AcDbEntity
  8
C-A
  6
Continuous
 62
     3
370
     9
100
AcDbLine
 10
-295.7691231289422
 20
877.7721838048988
 30
0.0
 11
-130.2249534710029
 21
877.7721838048988
 31
0.0
  0
LINE
  5
11A
330
1F
100
AcDbEntity
  8
C-A
  6
Continuous
 62
     3
370
     9
100
AcDbLine
 10
-300.1690980550401
 20
873.3722088788008
 30
0.0
 11
-130.2249534710029
 21
873.3722088788008
 31
0.0
  0
LINE
  5
11B
330
1F
100
AcDbEntity
  8
C-A
  6
Continuous
 62
     3
370
     9
100
AcDbLine
 10
-332.9691023439969
 20
840.5720808699325
 30
0.0
 11
-130.2249534710029
 21
840.5720808699325
 31
0.0
  0
LINE
  5
11C
330
1F
100
AcDbEntity
  8
C-A
  6
Continuous
 62
     3
370
     9
100
AcDbLine
 10
-337.3692009900063
 20
836.1721059438346
 30
0.0
 11
-130.2249534710029
 21
836.1721059438346
 31
0.0
  0
LINE
  5
11D
330
1F
100
AcDbEntity
  8
C-A
  6
Continuous
 62
     3
370
     9
100
AcDbLine
 10
-341.7691759161042
 20
831.7721310177367
 30
0.0
 11
-130.2249534710029
 21
831.7721310177367
 31
0.0
  0
LINE
  5
11E
330
1F
100
AcDbEntity
  8
C-A
  6
Continuous
 62
     3
370
     9
100
AcDbLine
 10
-346.1691508422024
 20
827.3721560916385
 30
0.0
 11
-130.2249534710029
 21
827.3721560916385
 31
0.0
  0
LINE
  5
11F
330
1F
100
AcDbEntity
  8
C-A
  6
Continuous
 62
     3
370
     9
100
AcDbLine
 10
-378.9691551311591
 20
794.5722755225929
 30
0.0
 11
-130.2249534710029
 21
794.5722755225929
 31
0.0
  0
LINE
  5
120
330
1F
100
AcDbEntity
  8
C-A
  6
Continuous
 62
     3
370
     9
100
AcDbLine
 10
-383.3691300572571
 20
790.172300596495
 30
0.0
 11
-130.2249534710029
 21
790.172300596495
 31
0.0
  0
LINE
  5
121
330
1F
100
AcDbEntity
  8
C-A
  6
Continuous
 62
     3
370
     9
100
AcDbLine
 10
-387.7691049833552
 20
785.7720782305745
 30
0.0
 11
-130.2249534710029
 21
785.7720782305745
 31
0.0
  0
LINE
  5
122
330
1F
100
AcDbEntity
  8
C-A
  6
Continuous
 62
     3
370
     9
100
AcDbLine
 10
-392.1690799094532
 20
781.3721033044766
 30
0.0
 11
-130.2249534710029
 21
781.3721033044766
 31
0.0
  0
LINE
  5
123
330
1F
100
AcDbEntity
  8
C-A
  6
Continuous
 62
     3
370
     9
100
AcDbLine
 10
-424.9690841984099
 20
748.5722227354307
 30
0.0
 11
-130.2249534710029
 21
748.5722227354307
 31
0.0
  0
LINE
  5
124
330
1F
100
AcDbEntity
  8
C-A
  6
Continuous
 62
     3
370
     9
100
AcDbLine
 10
-429.3691828444193
 20
744.1722478093328
 30
0.0
 11
-130.2249534710029
 21
744.1722478093328
 31
0.0
  0
LINE
  5
125
330
1F
100
AcDbEntity
  8
C-A
  6
Continuous
 62
     3
370
     9
100
AcDbLine
 10
-433.7691577705172
 20
739.7720254434123
 30
0.0
 11
-130.2249534710029
 21
739.7720254434123
 31
0.0
  0
LINE
  5
126
330
1F
100
AcDbEntity
  8
C-A
  6
Continuous
 62
     3
370
     9
100
AcDbLine
 10
-438.1691326966154
 20
735.3720505173144
 30
0.0
 11
-130.2249534710029
 21
735.3720505173144
 31
0.0
  0
LINE
  5
127
330
1F
100
AcDbEntity
  8
C-A
  6
Continuous
 62
     3
370
     9
100
AcDbLine
 10
-470.9691369855722
 20
702.5721699482688
 30
0.0
 11
-130.2249534710029
 21
702.5721699482688
 31
0.0
  0
LINE
  5
128
330
1F
100
AcDbEntity
  8
C-A
  6
Continuous
 62
     3
370
     9
100
AcDbLine
 10
-475.3691119116701
 20
698.1721950221709
 30
0.0
 11
-130.2249534710029
 21
698.1721950221709
 31
0.0
  0
LINE
  5
129
330
1F
100
AcDbEntity
  8
C-A
  6
Continuous
 62
     3
370
     9
100
AcDbLine
 10
-479.7690868377683
 20
693.7722200960727
 30
0.0
 11
-130.2249534710029
 21
693.7722200960727
 31
0.0
  0
LINE
  5
12A
330
1F
100
AcDbEntity
  8
C-A
  6
Continuous
 62
     3
370
     9
100
AcDbLine
 10
-484.1690617638662
 20
689.3722451699748
 30
0.0
 11
-130.2249534710029
 21
689.3722451699748
 31
0.0
  0
LINE
  5
12B
330
1F
100
AcDbEntity
  8
C-A
  6
Continuous
 62
     3
370
     9
100
AcDbLine
 10
-196.7250244037521
 20
905.971663191512
 30
0.0
 11
-162.7250606949261
 21
905.971663191512
 31
0.0
  0
LINE
  5
12C
330
1F
100
AcDbEntity
  8
C-A
  6
Continuous
 62
     3
370
     9
100
AcDbLine
 10
-196.7250244037521
 20
899.9719898120779
 30
0.0
 11
-162.7250606949261
 21
899.9719898120779
 31
0.0
  0
LINE
  5
12D
330
1F
100
AcDbEntity
  8
C-A
  6
Continuous
 62
     3
370
     9
100
AcDbLine
 10
-196.7250244037521
 20
859.9716104043498
 30
0.0
 11
-162.7250606949261
 21
859.9716104043498
 31
0.0
  0
LINE
  5
12E
330
1F
100
AcDbEntity
  8
C-A
  6
Continuous
 62
     3
370
     9
100
AcDbLine
 10
-196.7250244037521
 20
853.9719370249156
 30
0.0
 11
-162.7250606949261
 21
853.9719370249156
 31
0.0
  0
LINE
  5
12F
330
1F
100
AcDbEntity
  8
C-A
  6
Continuous
 62
     3
370
     9
100
AcDbLine
 10
-276.7250408997404
 20
859.9716104043498
 30
0.0
 11
-242.7250771909144
 21
859.9716104043498
 31
0.0
  0
LINE
  5
130
330
1F
100
AcDbEntity
  8
C-A
  6
Continuous
 62
     3
370
     9
100
AcDbLine
 10
-276.7250408997404
 20
853.9719370249156
 30
0.0
 11
-242.7250771909144
 21
853.9719370249156
 31
0.0
  0
LINE
  5
131
330
1F
100
AcDbEntity
  8
C-A
  6
Continuous
 62
     3
370
     9
100
AcDbLine
 10
-196.7250244037521
 20
813.9718050570102
 30
0.0
 11
-162.7250606949261
 21
813.9718050570102
 31
0.0
  0
LINE
  5
132
330
1F
100
AcDbEntity
  8
C-A
  6
Continuous
 62
     3
370
     9
100
AcDbLine
 10
-196.7250244037521
 20
807.972131677576
 30
0.0
 11
-162.7250606949261
 21
807.972131677576
 31
0.0
  0
LINE
  5
133
330
1F
100
AcDbEntity
  8
C-A
  6
Continuous
 62
     3
370
     9
100
AcDbLine
 10
-276.7250408997404
 20
813.9718050570102
 30
0.0
 11
-242.7250771909144
 21
813.9718050570102
 31
0.0
  0
LINE
  5
134
330
1F
100
AcDbEntity
  8
C-A
  6
Continuous
 62
     3
370
     9
100
AcDbLine
 10
-276.7250408997404
 20
807.972131677576
 30
0.0
 11
-242.7250771909144
 21
807.972131677576
 31
0.0
  0
LINE
  5
135
330
1F
100
AcDbEntity
  8
C-A
  6
Continuous
 62
     3
370
     9
100
AcDbLine
 10
-356.7250573957284
 20
813.9718050570102
 30
0.0
 11
-322.7250936869024
 21
813.9718050570102
 31
0.0
  0
LINE
  5
136
330
1F
100
AcDbEntity
  8
C-A
  6
Continuous
 62
     3
370
     9
100
AcDbLine
 10
-356.7250573957284
 20
807.972131677576
 30
0.0
 11
-322.7250936869024
 21
807.972131677576
 31
0.0
  0
LINE
  5
137
330
1F
100
AcDbEntity
  8
C-A
  6
Continuous
 62
     3
370
     9
100
AcDbLine
 10
-356.7250573957284
 20
767.9717522698481
 30
0.0
 11
-322.7250936869024
 21
767.9717522698481
 31
0.0
  0
LINE
  5
138
330
1F
100
AcDbEntity
  8
C-A
  6
Continuous
 62
     3
370
     9
100
AcDbLine
 10
-356.7250573957284
 20
761.9720788904141
 30
0.0
 11
-322.7250936869024
 21
761.9720788904141
 31
0.0
  0
LINE
  5
139
330
1F
100
AcDbEntity
  8
C-A
  6
Continuous
 62
     3
370
     9
100
AcDbLine
 10
-276.7250408997404
 20
767.9717522698481
 30
0.0
 11
-242.7250771909144
 21
767.9717522698481
 31
0.0
  0
LINE
  5
13A
330
1F
100
AcDbEntity
  8
C-A
  6
Continuous
 62
     3
370
     9
100
AcDbLine
 10
-276.7250408997404
 20
761.9720788904141
 30
0.0
 11
-242.7250771909144
 21
761.9720788904141
 31
0.0
  0
LINE
  5
13B
330
1F
100
AcDbEntity
  8
C-A
  6
Continuous
 62
     3
370
     9
100
AcDbLine
 10
-196.7250244037521
 20
767.9717522698481
 30
0.0
 11
-162.7250606949261
 21
767.9717522698481
 31
0.0
  0
LINE
  5
13C
330
1F
100
AcDbEntity
  8
C-A
  6
Continuous
 62
     3
370
     9
100
AcDbLine
 10
-196.7250244037521
 20
761.9720788904141
 30
0.0
 11
-162.7250606949261
 21
761.9720788904141
 31
0.0
  0
LINE
  5
13D
330
1F
100
AcDbEntity
  8
C-A
  6
Continuous
 62
     3
370
     9
100
AcDbLine
 10
-196.7250244037521
 20
721.971699482686
 30
0.0
 11
-162.7250606949261
 21
721.971699482686
 31
0.0
  0
LINE
  5
13E
330
1F
100
AcDbEntity
  8
C-A
  6
Continuous
 62
     3
370
     9
100
AcDbLine
 10
-196.7250244037521
 20
715.9720261032519
 30
0.0
 11
-162.7250606949261
 21
715.9720261032519
 31
0.0
  0
LINE
  5
13F
330
1F
100
AcDbEntity
  8
C-A
  6
Continuous
 62
     3
370
     9
100
AcDbLine
 10
-276.7250408997404
 20
721.971699482686
 30
0.0
 11
-242.7250771909144
 21
721.971699482686
 31
0.0
  0
LINE
  5
140
330
1F
100
AcDbEntity
  8
C-A
  6
Continuous
 62
     3
370
     9
100
AcDbLine
 10
-276.7250408997404
 20
715.9720261032519
 30
0.0
 11
-242.7250771909144
 21
715.9720261032519
 31
0.0
  0
LINE
  5
141
330
1F
100
AcDbEntity
  8
C-A
  6
Continuous
 62
     3
370
     9
100
AcDbLine
 10
-356.7250573957284
 20
721.971699482686
 30
0.0
 11
-322.7250936869024
 21
721.971699482686
 31
0.0
  0
LINE
  5
142
330
1F
100
AcDbEntity
  8
C-A
  6
Continuous
 62
     3
370
     9
100
AcDbLine
 10
-356.7250573957284
 20
715.9720261032519
 30
0.0
 11
-322.7250936869024
 21
715.9720261032519
 31
0.0
  0
LINE
  5
143
330
1F
100
AcDbEntity
  8
C-A
  6
Continuous
 62
     3
370
     9
100
AcDbLine
 10
-436.7249501718052
 20
721.971699482686
 30
0.0
 11
-402.7251101828907
 21
721.971699482686
 31
0.0
  0
LINE
  5
144
330
1F
100
AcDbEntity
  8
C-A
  6
Continuous
 62
     3
370
     9
100
AcDbLine
 10
-436.7249501718052
 20
715.9720261032519
 30
0.0
 11
-402.7251101828907
 21
715.9720261032519
 31
0.0
  0
LINE
  5
145
330
1F
100
AcDbEntity
  8
C-A
  6
Continuous
 62
     3
370
     9
100
AcDbLine
 10
-411.5692280434268
 20
761.9720788904141
 30
0.0
 11
-402.7251101828907
 21
761.9720788904141
 31
0.0
  0
LINE
  5
146
330
1F
100
AcDbEntity
  8
C-A
  6
Continuous
 62
     3
370
     9
100
AcDbLine
 10
-405.5695546639927
 20
767.9717522698481
 30
0.0
 11
-402.7251101828907
 21
767.9717522698481
 31
0.0
  0
LINE
  5
147
330
1F
100
AcDbEntity
  8
C-A
  6
Continuous
 62
     3
370
     9
100
AcDbLine
 10
-273.5691934018519
 20
899.9719898120779
 30
0.0
 11
-242.7250771909144
 21
899.9719898120779
 31
0.0
  0
LINE
  5
148
330
1F
100
AcDbEntity
  8
C-A
  6
Continuous
 62
     3
370
     9
100
AcDbLine
 10
-267.5696437423289
 20
905.971663191512
 30
0.0
 11
-242.7250771909144
 21
905.971663191512
 31
0.0
  0
LINE
  5
149
330
1F
100
AcDbEntity
  8
C-A
  6
Continuous
 62
     3
370
     9
100
AcDbLine
 10
-46.8807877721008
 20
660.9723395270271
 30
0.0
 11
253.1192122278992
 21
960.9723395270271
 31
0.0
  0
LINE
  5
14A
330
1F
100
AcDbEntity
  8
C-A
  6
Continuous
 62
     3
370
     9
100
AcDbLine
 10
-22.88073333533987
 20
684.9722702438769
 30
0.0
 11
-129.2249254278229
 21
684.9722702438769
 31
0.0
  0
LINE
  5
14B
330
1F
100
AcDbEntity
  8
C-A
  6
Continuous
 62
     3
370
     9
100
AcDbLine
 10
-0.8807349849388402
 20
706.9723923141894
 30
0.0
 11
-129.2249254278229
 21
706.9723923141894
 31
0.0
  0
LINE
  5
14C
330
1F
100
AcDbEntity
  8
C-A
  6
Continuous
 62
     3
370
     9
100
AcDbLine
 10
23.11919573191091
 20
730.9723230310391
 30
0.0
 11
-129.2249254278229
 21
730.9723230310391
 31
0.0
  0
LINE
  5
14D
330
1F
100
AcDbEntity
  8
C-A
  6
Continuous
 62
     3
370
     9
100
AcDbLine
 10
45.11931780222341
 20
752.9724451013516
 30
0.0
 11
-129.2249254278229
 21
752.9724451013516
 31
0.0
  0
LINE
  5
14E
330
1F
100
AcDbEntity
  8
C-A
  6
Continuous
 62
     3
370
     9
100
AcDbLine
 10
69.11924851907315
 20
776.972375818201
 30
0.0
 11
-129.2249254278229
 21
776.972375818201
 31
0.0
  0
LINE
  5
14F
330
1F
100
AcDbEntity
  8
C-A
  6
Continuous
 62
     3
370
     9
100
AcDbLine
 10
91.11937058938565
 20
798.9724978885135
 30
0.0
 11
-129.2249254278229
 21
798.9724978885135
 31
0.0
  0
LINE
  5
150
330
1F
100
AcDbEntity
  8
C-A
  6
Continuous
 62
     3
370
     9
100
AcDbLine
 10
115.1190538664127
 20
822.9721811655406
 30
0.0
 11
-129.2249254278229
 21
822.9721811655406
 31
0.0
  0
LINE
  5
151
330
1F
100
AcDbEntity
  8
C-A
  6
Continuous
 62
     3
370
     9
100
AcDbLine
 10
137.1191759367252
 20
844.9723032358531
 30
0.0
 11
-129.2249254278229
 21
844.9723032358531
 31
0.0
  0
LINE
  5
152
330
1F
100
AcDbEntity
  8
C-A
  6
Continuous
 62
     3
370
     9
100
AcDbLine
 10
161.1191066535747
 20
868.9722339527029
 30
0.0
 11
-129.2249254278229
 21
868.9722339527029
 31
0.0
  0
LINE
  5
153
330
1F
100
AcDbEntity
  8
C-A
  6
Continuous
 62
     3
370
     9
100
AcDbLine
 10
183.1192287238872
 20
890.9723560230154
 30
0.0
 11
-129.2249254278229
 21
890.9723560230154
 31
0.0
  0
LINE
  5
154
330
1F
100
AcDbEntity
  8
C-A
  6
Continuous
 62
     3
370
     9
100
AcDbLine
 10
207.119159440737
 20
914.9722867398651
 30
0.0
 11
-129.2249254278229
 21
914.9722867398651
 31
0.0
  0
LINE
  5
155
330
1F
100
AcDbEntity
  8
C-A
  6
Continuous
 62
     3
370
     9
100
AcDbLine
 10
229.1192815110495
 20
936.9724088101776
 30
0.0
 11
-129.2249254278229
 21
936.9724088101776
 31
0.0
  0
LINE
  5
156
330
1F
100
AcDbEntity
  8
C-A
  6
Continuous
 62
     3
370
     9
100
AcDbLine
 10
-18.48075840924196
 20
689.3722451699748
 30
0.0
 11
-129.2249254278229
 21
689.3722451699748
 31
0.0
  0
LINE
  5
157
330
1F
100
AcDbEntity
  8
C-A
  6
Continuous
 62
     3
370
     9
100
AcDbLine
 10
-14.08065976323257
 20
693.7724675358953
 30
0.0
 11
-129.2249254278229
 21
693.7724675358953
 31
0.0
  0
LINE
  5
158
330
1F
100
AcDbEntity
  8
C-A
  6
Continuous
 62
     3
370
     9
100
AcDbLine
 10
-9.680684837134663
 20
698.1724424619932
 30
0.0
 11
-129.2249254278229
 21
698.1724424619932
 31
0.0
  0
LINE
  5
159
330
1F
100
AcDbEntity
  8
C-A
  6
Continuous
 62
     3
370
     9
100
AcDbLine
 10
-5.280709911036752
 20
702.5724173880915
 30
0.0
 11
-129.2249254278229
 21
702.5724173880915
 31
0.0
  0
LINE
  5
15A
330
1F
100
AcDbEntity
  8
C-A
  6
Continuous
 62
     3
370
     9
100
AcDbLine
 10
27.51917065800882
 20
735.372297957137
 30
0.0
 11
-129.2249254278229
 21
735.372297957137
 31
0.0
  0
LINE
  5
15B
330
1F
100
AcDbEntity
  8
C-A
  6
Continuous
 62
     3
370
     9
100
AcDbLine
 10
31.91914558410701
 20
739.7722728832349
 30
0.0
 11
-129.2249254278229
 21
739.7722728832349
 31
0.0
  0
LINE
  5
15C
330
1F
100
AcDbEntity
  8
C-A
  6
Continuous
 62
     3
370
     9
100
AcDbLine
 10
36.31924423011611
 20
744.1722478093328
 30
0.0
 11
-129.2249254278229
 21
744.1722478093328
 31
0.0
  0
LINE
  5
15D
330
1F
100
AcDbEntity
  8
C-A
  6
Continuous
 62
     3
370
     9
100
AcDbLine
 10
40.71921915621402
 20
748.5722227354307
 30
0.0
 11
-129.2249254278229
 21
748.5722227354307
 31
0.0
  0
LINE
  5
15E
330
1F
100
AcDbEntity
  8
C-A
  6
Continuous
 62
     3
370
     9
100
AcDbLine
 10
73.51922344517106
 20
781.3723507442992
 30
0.0
 11
-129.2249254278229
 21
781.3723507442992
 31
0.0
  0
LINE
  5
15F
330
1F
100
AcDbEntity
  8
C-A
  6
Continuous
 62
     3
370
     9
100
AcDbLine
 10
77.91919837126898
 20
785.7723256703971
 30
0.0
 11
-129.2249254278229
 21
785.7723256703971
 31
0.0
  0
LINE
  5
160
330
1F
100
AcDbEntity
  8
C-A
  6
Continuous
 62
     3
370
     9
100
AcDbLine
 10
82.31917329736689
 20
790.172300596495
 30
0.0
 11
-129.2249254278229
 21
790.172300596495
 31
0.0
  0
LINE
  5
161
330
1F
100
AcDbEntity
  8
C-A
  6
Continuous
 62
     3
370
     9
100
AcDbLine
 10
86.71914822346508
 20
794.5722755225929
 30
0.0
 11
-129.2249254278229
 21
794.5722755225929
 31
0.0
  0
LINE
  5
162
330
1F
100
AcDbEntity
  8
C-A
  6
Continuous
 62
     3
370
     9
100
AcDbLine
 10
119.5192762323333
 20
827.3721560916385
 30
0.0
 11
-129.2249254278229
 21
827.3721560916385
 31
0.0
  0
LINE
  5
163
330
1F
100
AcDbEntity
  8
C-A
  6
Continuous
 62
     3
370
     9
100
AcDbLine
 10
123.9192511584312
 20
831.7721310177367
 30
0.0
 11
-129.2249254278229
 21
831.7721310177367
 31
0.0
  0
LINE
  5
164
330
1F
100
AcDbEntity
  8
C-A
  6
Continuous
 62
     3
370
     9
100
AcDbLine
 10
128.3192260845291
 20
836.1723533836573
 30
0.0
 11
-129.2249254278229
 21
836.1723533836573
 31
0.0
  0
LINE
  5
165
330
1F
100
AcDbEntity
  8
C-A
  6
Continuous
 62
     3
370
     9
100
AcDbLine
 10
132.719201010627
 20
840.5723283097552
 30
0.0
 11
-129.2249254278229
 21
840.5723283097552
 31
0.0
  0
LINE
  5
166
330
1F
100
AcDbEntity
  8
C-A
  6
Continuous
 62
     3
370
     9
100
AcDbLine
 10
165.5193290194953
 20
873.3722088788008
 30
0.0
 11
-129.2249254278229
 21
873.3722088788008
 31
0.0
  0
LINE
  5
167
330
1F
100
AcDbEntity
  8
C-A
  6
Continuous
 62
     3
370
     9
100
AcDbLine
 10
169.9193039455935
 20
877.7724312447214
 30
0.0
 11
-129.2249254278229
 21
877.7724312447214
 31
0.0
  0
LINE
  5
168
330
1F
100
AcDbEntity
  8
C-A
  6
Continuous
 62
     3
370
     9
100
AcDbLine
 10
174.3192788716914
 20
882.1724061708193
 30
0.0
 11
-129.2249254278229
 21
882.1724061708193
 31
0.0
  0
LINE
  5
169
330
1F
100
AcDbEntity
  8
C-A
  6
Continuous
 62
     3
370
     9
100
AcDbLine
 10
178.7192537977893
 20
886.5723810969175
 30
0.0
 11
-129.2249254278229
 21
886.5723810969175
 31
0.0
  0
LINE
  5
16A
330
1F
100
AcDbEntity
  8
C-A
  6
Continuous
 62
     3
370
     9
100
AcDbLine
 10
211.5191343668349
 20
919.372261665963
 30
0.0
 11
-129.2249254278229
 21
919.372261665963
 31
0.0
  0
LINE
  5
16B
330
1F
100
AcDbEntity
  8
C-A
  6
Continuous
 62
     3
370
     9
100
AcDbLine
 10
215.9193567327554
 20
923.772236592061
 30
0.0
 11
-129.2249254278229
 21
923.772236592061
 31
0.0
  0
LINE
  5
16C
330
1F
100
AcDbEntity
  8
C-A
  6
Continuous
 62
     3
370
     9
100
AcDbLine
 10
220.3193316588536
 20
928.1722115181589
 30
0.0
 11
-129.2249254278229
 21
928.1722115181589
 31
0.0
  0
LINE
  5
16D
330
1F
100
AcDbEntity
  8
C-A
  6
Continuous
 62
     3
370
     9
100
AcDbLine
 10
224.7193065849515
 20
932.5721864442568
 30
0.0
 11
-129.2249254278229
 21
932.5721864442568
 31
0.0
  0
LINE
  5
16E
330
1F
100
AcDbEntity
  8
C-A
  6
Continuous
 62
     3
370
     9
100
AcDbLine
 10
-62.724854495074
 20
715.9727684227198
 30
0.0
 11
-96.72481820389976
 21
715.9727684227198
 31
0.0
  0
LINE
  5
16F
330
1F
100
AcDbEntity
  8
C-A
  6
Continuous
 62
     3
370
     9
100
AcDbLine
 10
-62.724854495074
 20
721.972441802154
 30
0.0
 11
-96.72481820389976
 21
721.972441802154
 31
0.0
  0
LINE
  5
170
330
1F
100
AcDbEntity
  8
C-A
  6
Continuous
 62
     3
370
     9
100
AcDbLine
 10
-62.724854495074
 20
761.9728212098818
 30
0.0
 11
-96.72481820389976
 21
761.9728212098818
 31
0.0
  0
LINE
  5
171
330
1F
100
AcDbEntity
  8
C-A
  6
Continuous
 62
     3
370
     9
100
AcDbLine
 10
-62.724854495074
 20
767.9724945893158
 30
0.0
 11
-96.72481820389976
 21
767.9724945893158
 31
0.0
  0
LINE
  5
172
330
1F
100
AcDbEntity
  8
C-A
  6
Continuous
 62
     3
370
     9
100
AcDbLine
 10
17.27516200091429
 20
761.9728212098818
 30
0.0
 11
-16.72480170791175
 21
761.9728212098818
 31
0.0
  0
LINE
  5
173
330
1F
100
AcDbEntity
  8
C-A
  6
Continuous
 62
     3
370
     9
100
AcDbLine
 10
17.27516200091429
 20
767.9724945893158
 30
0.0
 11
-16.72480170791175
 21
767.9724945893158
 31
0.0
  0
LINE
  5
174
330
1F
100
AcDbEntity
  8
C-A
  6
Continuous
 62
     3
370
     9
100
AcDbLine
 10
-62.724854495074
 20
807.9726265572214
 30
0.0
 11
-96.72481820389976
 21
807.9726265572214
 31
0.0
  0
LINE
  5
175
330
1F
100
AcDbEntity
  8
C-A
  6
Continuous
 62
     3
370
     9
100
AcDbLine
 10
-62.724854495074
 20
813.9722999366554
 30
0.0
 11
-96.72481820389976
 21
813.9722999366554
 31
0.0
  0
LINE
  5
176
330
1F
100
AcDbEntity
  8
C-A
  6
Continuous
 62
     3
370
     9
100
AcDbLine
 10
17.27516200091429
 20
807.9726265572214
 30
0.0
 11
-16.72480170791175
 21
807.9726265572214
 31
0.0
  0
LINE
  5
177
330
1F
100
AcDbEntity
  8
C-A
  6
Continuous
 62
     3
370
     9
100
AcDbLine
 10
17.27516200091429
 20
813.9722999366554
 30
0.0
 11
-16.72480170791175
 21
813.9722999366554
 31
0.0
  0
LINE
  5
178
330
1F
100
AcDbEntity
  8
C-A
  6
Continuous
 62
     3
370
     9
100
AcDbLine
 10
97.27517849690258
 20
807.9726265572214
 30
0.0
 11
63.27521478807654
 21
807.9726265572214
 31
0.0
  0
LINE
  5
179
330
1F
100
AcDbEntity
  8
C-A
  6
Continuous
 62
     3
370
     9
100
AcDbLine
 10
97.27517849690258
 20
813.9722999366554
 30
0.0
 11
63.27521478807654
 21
813.9722999366554
 31
0.0
  0
LINE
  5
17A
330
1F
100
AcDbEntity
  8
C-A
  6
Continuous
 62
     3
370
     9
100
AcDbLine
 10
97.27517849690258
 20
853.9726793443836
 30
0.0
 11
63.27521478807654
 21
853.9726793443836
 31
0.0
  0
LINE
  5
17B
330
1F
100
AcDbEntity
  8
C-A
  6
Continuous
 62
     3
370
     9
100
AcDbLine
 10
97.27517849690258
 20
859.9723527238177
 30
0.0
 11
63.27521478807654
 21
859.9723527238177
 31
0.0
  0
LINE
  5
17C
330
1F
100
AcDbEntity
  8
C-A
  6
Continuous
 62
     3
370
     9
100
AcDbLine
 10
17.27516200091429
 20
853.9726793443836
 30
0.0
 11
-16.72480170791175
 21
853.9726793443836
 31
0.0
  0
LINE
  5
17D
330
1F
100
AcDbEntity
  8
C-A
  6
Continuous
 62
     3
370
     9
100
AcDbLine
 10
17.27516200091429
 20
859.9723527238177
 30
0.0
 11
-16.72480170791175
 21
859.9723527238177
 31
0.0
  0
LINE
  5
17E
330
1F
100
AcDbEntity
  8
C-A
  6
Continuous
 62
     3
370
     9
100
AcDbLine
 10
-62.724854495074
 20
853.9726793443836
 30
0.0
 11
-96.72481820389976
 21
853.9726793443836
 31
0.0
  0
LINE
  5
17F
330
1F
100
AcDbEntity
  8
C-A
  6
Continuous
 62
     3
370
     9
100
AcDbLine
 10
-62.724854495074
 20
859.9723527238177
 30
0.0
 11
-96.72481820389976
 21
859.9723527238177
 31
0.0
  0
LINE
  5
180
330
1F
100
AcDbEntity
  8
C-A
  6
Continuous
 62
     3
370
     9
100
AcDbLine
 10
-62.724854495074
 20
899.9727321315459
 30
0.0
 11
-96.72481820389976
 21
899.9727321315459
 31
0.0
  0
LINE
  5
181
330
1F
100
AcDbEntity
  8
C-A
  6
Continuous
 62
     3
370
     9
100
AcDbLine
 10
-62.724854495074
 20
905.97240551098
 30
0.0
 11
-96.72481820389976
 21
905.97240551098
 31
0.0
  0
LINE
  5
182
330
1F
100
AcDbEntity
  8
C-A
  6
Continuous
 62
     3
370
     9
100
AcDbLine
 10
17.27516200091429
 20
899.9727321315459
 30
0.0
 11
-16.72480170791175
 21
899.9727321315459
 31
0.0
  0
LINE
  5
183
330
1F
100
AcDbEntity
  8
C-A
  6
Continuous
 62
     3
370
     9
100
AcDbLine
 10
17.27516200091429
 20
905.97240551098
 30
0.0
 11
-16.72480170791175
 21
905.97240551098
 31
0.0
  0
LINE
  5
184
330
1F
100
AcDbEntity
  8
C-A
  6
Continuous
 62
     3
370
     9
100
AcDbLine
 10
97.27517849690258
 20
899.9727321315459
 30
0.0
 11
63.27521478807654
 21
899.9727321315459
 31
0.0
  0
LINE
  5
185
330
1F
100
AcDbEntity
  8
C-A
  6
Continuous
 62
     3
370
     9
100
AcDbLine
 10
97.27517849690258
 20
905.97240551098
 30
0.0
 11
63.27521478807654
 21
905.97240551098
 31
0.0
  0
LINE
  5
186
330
1F
100
AcDbEntity
  8
C-A
  6
Continuous
 62
     3
370
     9
100
AcDbLine
 10
177.2751949928906
 20
899.9727321315459
 30
0.0
 11
143.2752312840645
 21
899.9727321315459
 31
0.0
  0
LINE
  5
187
330
1F
100
AcDbEntity
  8
C-A
  6
Continuous
 62
     3
370
     9
100
AcDbLine
 10
177.2751949928906
 20
905.97240551098
 30
0.0
 11
143.2752312840645
 21
905.97240551098
 31
0.0
  0
LINE
  5
188
330
1F
100
AcDbEntity
  8
C-A
  6
Continuous
 62
     3
370
     9
100
AcDbLine
 10
152.1192254246895
 20
859.9723527238177
 30
0.0
 11
143.2752312840645
 21
859.9723527238177
 31
0.0
  0
LINE
  5
189
330
1F
100
AcDbEntity
  8
C-A
  6
Continuous
 62
     3
370
     9
100
AcDbLine
 10
146.1195520452554
 20
853.9726793443836
 30
0.0
 11
143.2752312840645
 21
853.9726793443836
 31
0.0
  0
LINE
  5
18A
330
1F
100
AcDbEntity
  8
C-A
  6
Continuous
 62
     3
370
     9
100
AcDbLine
 10
14.11931450302575
 20
721.972441802154
 30
0.0
 11
-16.72480170791175
 21
721.972441802154
 31
0.0
  0
LINE
  5
18B
330
1F
100
AcDbEntity
  8
C-A
  6
Continuous
 62
     3
370
     9
100
AcDbLine
 10
8.119764843503106
 20
715.9727684227198
 30
0.0
 11
-16.72480170791175
 21
715.9727684227198
 31
0.0
  0
LINE
  5
18C
330
1F
100
AcDbEntity
  8
C-4
  6
Continuous
 62
     7
370
     9
100
AcDbLine
 10
-630.2249947109735
 20
980.97240551098
 30
0.0
 11
-630.2249947109735
 21
1063.972134976774
 31
0.0
  0
LINE
  5
18D
330
1F
100
AcDbEntity
  8
C-4
  6
Continuous
 62
     7
370
     9
100
AcDbLine
 10
-629.224842947882
 20
980.97240551098
 30
0.0
 11
-629.224842947882
 21
1143.972151472762
 31
0.0
  0
LINE
  5
18E
330
1F
100
AcDbEntity
  8
C-4
  6
Continuous
 62
     7
370
     9
100
AcDbLine
 10
-880.224953471003
 20
1060.972174567145
 30
0.0
 11
620.7749508522659
 21
1060.972174567145
 31
0.0
  0
LINE
  5
18F
330
1F
100
AcDbEntity
  8
C-4
  6
Continuous
 62
     7
370
     9
100
AcDbLine
 10
-130.2249534710029
 20
980.97240551098
 30
0.0
 11
-130.2249534710029
 21
1063.972134976774
 31
0.0
  0
LINE
  5
190
330
1F
100
AcDbEntity
  8
C-4
  6
Continuous
 62
     7
370
     9
100
AcDbLine
 10
-129.2249254278229
 20
980.97240551098
 30
0.0
 11
-129.2249254278229
 21
1143.972151472762
 31
0.0
  0
LINE
  5
191
330
1F
100
AcDbEntity
  8
C-4
  6
Continuous
 62
     7
370
     9
100
AcDbLine
 10
369.7752114888789
 20
980.97240551098
 30
0.0
 11
369.7752114888789
 21
1063.972134976774
 31
0.0
  0
LINE
  5
192
330
1F
100
AcDbEntity
  8
C-4
  6
Continuous
 62
     7
370
     9
100
AcDbLine
 10
370.7751158121474
 20
980.97240551098
 30
0.0
 11
370.7751158121474
 21
1143.972151472762
 31
0.0
  0
LINE
  5
193
330
1F
100
AcDbEntity
  8
C-4
  6
Continuous
 62
     7
370
     9
100
AcDbLine
 10
-880.224953471003
 20
1140.971943623311
 30
0.0
 11
620.7749508522659
 21
1140.971943623311
 31
0.0
  0
LINE
  5
194
330
1F
100
AcDbEntity
  8
C-2
  6
Continuous
 62
     3
370
     9
100
AcDbLine
 10
600.7751323081357
 20
795.9722900390625
 30
0.0
 11
640.7752642760408
 21
825.972883894637
 31
0.0
  0
LINE
  5
195
330
1F
100
AcDbEntity
  8
C-2
  6
Continuous
 62
     3
370
     9
100
AcDbLine
 10
600.7751323081357
 20
795.9722900390625
 30
0.0
 11
620.7749508522659
 21
795.9722900390625
 31
0.0
  0
LINE
  5
196
330
1F
100
AcDbEntity
  8
C-2
  6
Continuous
 62
     3
370
     9
100
AcDbLine
 10
620.7749508522659
 20
825.972883894637
 30
0.0
 11
640.7752642760408
 21
825.972883894637
 31
0.0
  0
LINE
  5
197
330
1F
100
AcDbEntity
  8
C-2
  6
Continuous
 62
     3
370
     9
100
AcDbLine
 10
-900.2250194549556
 20
795.9722900390625
 30
0.0
 11
-860.2248874870503
 21
825.972883894637
 31
0.0
  0
LINE
  5
198
330
1F
100
AcDbEntity
  8
C-2
  6
Continuous
 62
     3
370
     9
100
AcDbLine
 10
-900.2250194549556
 20
795.9722900390625
 30
0.0
 11
-880.224953471003
 21
795.9722900390625
 31
0.0
  0
LINE
  5
199
330
1F
100
AcDbEntity
  8
C-2
  6
Continuous
 62
     3
370
     9
100
AcDbLine
 10
-880.224953471003
 20
825.972883894637
 30
0.0
 11
-860.2248874870503
 21
825.972883894637
 31
0.0
  0
LINE
  5
19A
330
1F
100
AcDbEntity
  8
C-2
  6
Continuous
 62
     3
370
     9
100
AcDbLine
 10
-880.224953471003
 20
637.9725605732688
 30
0.0
 11
-880.224953471003
 21
795.9722900390625
 31
0.0
  0
LINE
  5
19B
330
1F
100
AcDbEntity
  8
C-2
  6
Continuous
 62
     3
370
     9
100
AcDbLine
 10
-880.224953471003
 20
825.972883894637
 30
0.0
 11
-880.224953471003
 21
983.9723659206084
 31
0.0
  0
LINE
  5
19C
330
1F
100
AcDbEntity
  8
C-2
  6
Continuous
 62
     3
370
     9
100
AcDbLine
 10
620.7749508522659
 20
983.9723659206084
 30
0.0
 11
620.7749508522659
 21
825.972883894637
 31
0.0
  0
LINE
  5
19D
330
1F
100
AcDbEntity
  8
C-2
  6
Continuous
 62
     3
370
     9
100
AcDbLine
 10
620.7749508522659
 20
795.9722900390625
 30
0.0
 11
620.7749508522659
 21
637.9725605732688
 31
0.0
  0
LINE
  5
19E
330
1F
100
AcDbEntity
  8
C-5
  6
Continuous
 62
     7
370
     9
100
AcDbLine
 10
157.7752048904836
 20
452.9725688212628
 30
0.0
 11
157.7752048904836
 21
387.9729729729732
 31
0.0
  0
LINE
  5
19F
330
1F
100
AcDbEntity
  8
C-5
  6
Continuous
 62
     7
370
     9
100
AcDbLine
 10
157.7752048904836
 20
387.9729729729732
 30
0.0
 11
-417.2252075092209
 21
387.9729729729732
 31
0.0
  0
LINE
  5
1A0
330
1F
100
AcDbEntity
  8
C-5
  6
Continuous
 62
     7
370
     9
100
AcDbLine
 10
-417.2252075092209
 20
452.9725688212628
 30
0.0
 11
157.7752048904836
 21
452.9725688212628
 31
0.0
  0
LINE
  5
1A1
330
1F
100
AcDbEntity
  8
C-5
  6
Continuous
 62
     7
370
     9
100
AcDbLine
 10
-417.2252075092209
 20
387.9729729729732
 30
0.0
 11
-417.2252075092209
 21
452.9725688212628
 31
0.0
  0
LINE
  5
1A2
330
1F
100
AcDbEntity
  8
C-0
  6
JWW_CENTER1
 62
     3
370
     9
100
AcDbLine
 10
727.6189713864716
 20
529.0100839975719
 30
0.0
 11
961.2308669734648
 21
529.0100839975719
 31
0.0
  0
LINE
  5
1A3
330
1F
100
AcDbEntity
  8
C-0
  6
Continuous
 62
     3
370
     9
100
AcDbLine
 10
932.9306795790393
 20
544.010009765625
 30
0.0
 11
762.9306135950867
 21
544.010009765625
 31
0.0
  0
LINE
  5
1A4
330
1F
100
AcDbEntity
  8
C-0
  6
Continuous
 62
     3
370
     9
100
AcDbLine
 10
762.9306135950867
 20
514.01028194943
 30
0.0
 11
932.9306795790393
 21
514.01028194943
 31
0.0
  0
LINE
  5
1A5
330
1F
100
AcDbEntity
  8
C-0
  6
JWW_CENTER1
 62
     3
370
     9
100
AcDbLine
 10
847.931141466708
 20
558.5916385135135
 30
0.0
 11
847.931141466708
 21
495.947546056799
 31
0.0
  0
LINE
  5
1A6
330
1F
100
AcDbEntity
  8
C-0
  6
Continuous
 62
     7
370
     9
100
AcDbLine
 10
747.9308115469445
 20
621.2297924144849
 30
0.0
 11
947.9307290670039
 21
621.2297924144849
 31
0.0
  0
LINE
  5
1A7
330
1F
100
AcDbEntity
  8
C-0
  6
Continuous
 62
     7
370
     9
100
AcDbLine
 10
947.9307290670039
 20
565.1961785393794
 30
0.0
 11
947.9307290670039
 21
624.2292579444679
 31
0.0
  0
LINE
  5
1A8
330
1F
100
AcDbEntity
  8
C-0
  6
Continuous
 62
     7
370
     9
100
AcDbLine
 10
747.9308115469445
 20
565.1961785393794
 30
0.0
 11
747.9308115469445
 21
624.2292579444679
 31
0.0
  0
LINE
  5
1A9
330
1F
100
AcDbEntity
  8
C-0
  6
Continuous
 62
     7
370
     9
100
AcDbLine
 10
967.8226638484648
 20
514.01028194943
 30
0.0
 11
1030.765663610923
 21
514.01028194943
 31
0.0
  0
LINE
  5
1AA
330
1F
100
AcDbEntity
  8
C-0
  6
Continuous
 62
     7
370
     9
100
AcDbLine
 10
1027.765455761471
 20
514.01028194943
 30
0.0
 11
1027.765455761471
 21
544.010009765625
 31
0.0
  0
LINE
  5
1AB
330
1F
100
AcDbEntity
  8
C-0
  6
Continuous
 62
     7
370
     9
100
AcDbLine
 10
1030.765663610923
 20
544.010009765625
 30
0.0
 11
967.8226638484648
 21
544.010009765625
 31
0.0
  0
LINE
  5
1AC
330
1F
100
AcDbEntity
  8
C-5
  6
Continuous
 62
     7
370
     9
100
AcDbLine
 10
567.8371803180596
 20
387.9729729729732
 30
0.0
 11
567.8371803180596
 21
452.9725688212628
 31
0.0
  0
LINE
  5
1AD
330
1F
100
AcDbEntity
  8
C-5
  6
Continuous
 62
     7
370
     9
100
AcDbLine
 10
567.8371803180596
 20
452.9725688212628
 30
0.0
 11
1142.837840157587
 21
452.9725688212628
 31
0.0
  0
LINE
  5
1AE
330
1F
100
AcDbEntity
  8
C-5
  6
Continuous
 62
     7
370
     9
100
AcDbLine
 10
1142.837840157587
 20
452.9725688212628
 30
0.0
 11
1142.837840157587
 21
387.9729729729732
 31
0.0
  0
LINE
  5
1AF
330
1F
100
AcDbEntity
  8
C-5
  6
Continuous
 62
     7
370
     9
100
AcDbLine
 10
1142.837840157587
 20
387.9729729729732
 30
0.0
 11
567.8371803180596
 21
387.9729729729732
 31
0.0
  0
LINE
  5
1B0
330
1F
100
AcDbEntity
  8
C-3
  6
Continuous
 62
     7
370
     9
100
AcDbLine
 10
-81.27616031749795
 20
694.8698631492823
 30
0.0
 11
-66.05712658650134
 21
675.036324165963
 31
0.0
  0
LINE
  5
1B1
330
1F
100
AcDbEntity
  8
C-3
  6
Continuous
 62
     7
370
     9
100
AcDbLine
 10
-81.27616031749795
 20
694.8698631492823
 30
0.0
 11
-71.70914701513311
 21
671.7730877850508
 31
0.0
  0
LINE
  5
1B2
330
1F
100
AcDbEntity
  8
C-3
  6
Continuous
 62
     7
370
     9
100
AcDbLine
 10
11.43112826991768
 20
534.2962646484375
 30
0.0
 11
486.843940374014
 21
534.2962646484375
 31
0.0
  0
LINE
  5
1B3
330
1F
100
AcDbEntity
  8
C-3
  6
Continuous
 62
     7
370
     9
100
AcDbLine
 10
11.43112826991768
 20
534.2962646484375
 30
0.0
 11
-81.27616031749795
 21
694.8698631492823
 31
0.0
  0
LINE
  5
1B4
330
1F
100
AcDbEntity
  8
C-4
  6
Continuous
 62
     7
370
     9
100
AcDbLine
 10
-259.7250590453274
 20
597.9724286053633
 30
0.0
 11
-179.7250425493391
 21
597.9724286053633
 31
0.0
  0
LINE
  5
1B5
330
1F
100
AcDbEntity
  8
C-4
  6
Continuous
 62
     7
370
     9
100
AcDbLine
 10
-465.0137553343899
 20
718.9722339527029
 30
0.0
 11
-465.0137553343899
 21
764.9720393000425
 31
0.0
  0
LINE
  5
1B6
330
1F
100
AcDbEntity
  8
C-4
  6
Continuous
 62
     7
370
     9
100
AcDbLine
 10
-259.7250590453274
 20
718.5750930373734
 30
0.0
 11
-259.7250590453274
 21
594.9724681957349
 31
0.0
  0
LINE
  5
1B7
330
1F
100
AcDbEntity
  8
C-4
  6
Continuous
 62
     7
370
     9
100
AcDbLine
 10
-179.7250425493391
 20
718.5750930373734
 30
0.0
 11
-179.7250425493391
 21
594.9724681957349
 31
0.0
  0
LINE
  5
1B8
330
1F
100
AcDbEntity
  8
C-4
  6
Continuous
 62
     7
370
     9
100
AcDbLine
 10
-429.9687295346644
 20
718.9722339527029
 30
0.0
 11
-468.0137157440183
 21
718.9722339527029
 31
0.0
  0
LINE
  5
1B9
330
1F
100
AcDbEntity
  8
C-4
  6
Continuous
 62
     7
370
     9
100
AcDbLine
 10
-403.6939608084185
 20
764.9720393000425
 30
0.0
 11
-468.0137157440183
 21
764.9720393000425
 31
0.0
  0
ARC
  5
1BA
330
1F
100
AcDbEntity
  8
D-A
  6
Continuous
 62
     3
370
     9
100
AcDbCircle
 10
-714.0886603174979
 20
-398.9688027871621
 30
0.0
 40
10.00000012887491
100
AcDbArc
 50
7.016464233398438
 51
45.0
  0
ARC
  5
1BB
330
1F
100
AcDbEntity
  8
D-A
  6
Continuous
 62
     3
370
     9
100
AcDbCircle
 10
-589.0887427974388
 20
-379.8268581081081
 30
0.0
 40
10.00000012887491
100
AcDbArc
 50
7.016464233398438
 51
90.0
  0
ARC
  5
1BC
330
1F
100
AcDbEntity
  8
D-A
  6
Continuous
 62
     3
370
     9
100
AcDbCircle
 10
-668.7331882683003
 20
-344.8268663561021
 30
0.0
 40
25.00000128874908
100
AcDbArc
 50
225.0
 51
270.0
  0
ARC
  5
1BD
330
1F
100
AcDbEntity
  8
D-A
  6
JWW_DASHED3
 62
     3
370
     9
100
AcDbCircle
 10
-697.5883831848967
 20
-358.827011520798
 30
0.0
 40
6.50000008376869
100
AcDbArc
 50
270.0
 51
0.0
  0
ARC
  5
1BE
330
1F
100
AcDbEntity
  8
D-A
  6
Continuous
 62
     3
370
     9
100
AcDbCircle
 10
-697.5883831848967
 20
-335.8268614073057
 30
0.0
 40
6.50000008376869
100
AcDbArc
 50
0.0
 51
90.0
  0
ARC
  5
1BF
330
1F
100
AcDbEntity
  8
D-9
  6
Continuous
 62
     4
370
     9
100
AcDbCircle
 10
-864.0881654378527
 20
-307.3268663561021
 30
0.0
 40
5.000000064437454
100
AcDbArc
 50
90.0
 51
180.0
  0
ARC
  5
1C0
330
1F
100
AcDbEntity
  8
D-1
  6
Continuous
 62
     2
370
     9
100
AcDbCircle
 10
-799.0879509900062
 20
-334.8265859243031
 30
0.0
 40
5.000000064437454
100
AcDbArc
 50
233.1302490234375
 51
270.0000000000001
  0
ARC
  5
1C1
330
1F
100
AcDbEntity
  8
D-1
  6
Continuous
 62
     2
370
     9
100
AcDbCircle
 10
-874.0879509900062
 20
-324.8268003721495
 30
0.0
 40
5.000000064437454
100
AcDbArc
 50
90.0
 51
180.0
  0
ARC
  5
1C2
330
1F
100
AcDbEntity
  8
D-1
  6
Continuous
 62
     2
370
     9
100
AcDbCircle
 10
-749.0880334699472
 20
-344.8266189162796
 30
0.0
 40
5.000000064437454
100
AcDbArc
 50
0.0
 51
90.0
  0
ARC
  5
1C3
330
1F
100
AcDbEntity
  8
D-1
  6
Continuous
 62
     2
370
     9
100
AcDbCircle
 10
-749.0880334699472
 20
-334.8265859243031
 30
0.0
 40
5.000000064437454
100
AcDbArc
 50
270.0
 51
0.0
  0
ARC
  5
1C4
330
1F
100
AcDbEntity
  8
D-1
  6
Continuous
 62
     2
370
     9
100
AcDbCircle
 10
-727.0879113996347
 20
-287.826505093961
 30
0.0
 40
3.000000038662472
100
AcDbArc
 50
0.0
 51
90.0
  0
ARC
  5
1C5
330
1F
100
AcDbEntity
  8
D-1
  6
Continuous
 62
     2
370
     9
100
AcDbCircle
 10
-746.0880730603187
 20
-287.826505093961
 30
0.0
 40
3.000000038662472
100
AcDbArc
 50
90.0
 51
180.0
  0
ARC
  5
1C6
330
1F
100
AcDbEntity
  8
D-1
  6
Continuous
 62
     2
370
     9
100
AcDbCircle
 10
-727.0879113996347
 20
-406.8266255146747
 30
0.0
 40
3.000000038662472
100
AcDbArc
 50
270.0
 51
0.0
  0
ARC
  5
1C7
330
1F
100
AcDbEntity
  8
D-1
  6
Continuous
 62
     2
370
     9
100
AcDbCircle
 10
-746.0880730603187
 20
-406.8266255146747
 30
0.0
 40
3.000000038662472
100
AcDbArc
 50
180.0
 51
270.0
  0
ARC
  5
1C8
330
1F
100
AcDbEntity
  8
D-1
  6
Continuous
 62
     2
370
     9
100
AcDbCircle
 10
-820.7384405909354
 20
-324.7766938080657
 30
0.0
 40
4.950000305433531
100
AcDbArc
 50
53.12966918945312
 51
90.0
  0
ARC
  5
1C9
330
1F
100
AcDbEntity
  8
D-1
  6
Continuous
 62
     2
370
     9
100
AcDbCircle
 10
-874.0879509900062
 20
-339.8264787003799
 30
0.0
 40
5.000000064437454
100
AcDbArc
 50
180.0
 51
270.0
  0
ARC
  5
1CA
330
1F
100
AcDbEntity
  8
D-1
  6
Continuous
 62
     2
370
     9
100
AcDbCircle
 10
-863.4183458379794
 20
-324.8268003721495
 30
0.0
 40
5.000000064437454
100
AcDbArc
 50
59.99996948242189
 51
90.00000000000003
  0
ARC
  5
1CB
330
1F
100
AcDbEntity
  8
D-1
  6
Continuous
 62
     2
370
     9
100
AcDbCircle
 10
-834.7578860617969
 20
-324.8268003721495
 30
0.0
 40
5.000000064437454
100
AcDbArc
 50
90.0
 51
120.0000305175781
  0
ARC
  5
1CC
330
1F
100
AcDbEntity
  8
D-1
  6
Continuous
 62
     2
370
     9
100
AcDbCircle
 10
-849.0881159498881
 20
-327.3268086201435
 30
0.0
 40
5.000000064437454
100
AcDbArc
 50
239.9999694824219
 51
300.0000305175781
  0
ARC
  5
1CD
330
1F
100
AcDbEntity
  8
C-A
  6
Continuous
 62
     3
370
     9
100
AcDbCircle
 10
-196.7250244037521
 20
902.972197661529
 30
0.0
 40
2.999960167987927
100
AcDbArc
 50
90.0
 51
270.0
  0
ARC
  5
1CE
330
1F
100
AcDbEntity
  8
C-A
  6
Continuous
 62
     3
370
     9
100
AcDbCircle
 10
-162.7250606949261
 20
902.972197661529
 30
0.0
 40
2.999960167987927
100
AcDbArc
 50
270.0
 51
90.0
  0
ARC
  5
1CF
330
1F
100
AcDbEntity
  8
C-A
  6
Continuous
 62
     3
370
     9
100
AcDbCircle
 10
-196.7250244037521
 20
856.9721448743667
 30
0.0
 40
2.999960167987927
100
AcDbArc
 50
90.0
 51
270.0
  0
ARC
  5
1D0
330
1F
100
AcDbEntity
  8
C-A
  6
Continuous
 62
     3
370
     9
100
AcDbCircle
 10
-162.7250606949261
 20
856.9721448743667
 30
0.0
 40
2.999960167987927
100
AcDbArc
 50
270.0
 51
90.0
  0
ARC
  5
1D1
330
1F
100
AcDbEntity
  8
C-A
  6
Continuous
 62
     3
370
     9
100
AcDbCircle
 10
-242.7250771909144
 20
902.972197661529
 30
0.0
 40
2.999960167987927
100
AcDbArc
 50
270.0
 51
90.0
  0
ARC
  5
1D2
330
1F
100
AcDbEntity
  8
C-A
  6
Continuous
 62
     3
370
     9
100
AcDbCircle
 10
-276.7250408997404
 20
856.9721448743667
 30
0.0
 40
2.999960167987927
100
AcDbArc
 50
90.0
 51
270.0
  0
ARC
  5
1D3
330
1F
100
AcDbEntity
  8
C-A
  6
Continuous
 62
     3
370
     9
100
AcDbCircle
 10
-242.7250771909144
 20
856.9721448743667
 30
0.0
 40
2.999960167987927
100
AcDbArc
 50
270.0
 51
90.0
  0
ARC
  5
1D4
330
1F
100
AcDbEntity
  8
C-A
  6
Continuous
 62
     3
370
     9
100
AcDbCircle
 10
-196.7250244037521
 20
810.9723395270271
 30
0.0
 40
2.999960167987927
100
AcDbArc
 50
90.0
 51
270.0
  0
ARC
  5
1D5
330
1F
100
AcDbEntity
  8
C-A
  6
Continuous
 62
     3
370
     9
100
AcDbCircle
 10
-162.7250606949261
 20
810.9723395270271
 30
0.0
 40
2.999960167987927
100
AcDbArc
 50
270.0
 51
90.0
  0
ARC
  5
1D6
330
1F
100
AcDbEntity
  8
C-A
  6
Continuous
 62
     3
370
     9
100
AcDbCircle
 10
-276.7250408997404
 20
810.9723395270271
 30
0.0
 40
2.999960167987927
100
AcDbArc
 50
90.0
 51
270.0
  0
ARC
  5
1D7
330
1F
100
AcDbEntity
  8
C-A
  6
Continuous
 62
     3
370
     9
100
AcDbCircle
 10
-242.7250771909144
 20
810.9723395270271
 30
0.0
 40
2.999960167987927
100
AcDbArc
 50
270.0
 51
90.0
  0
ARC
  5
1D8
330
1F
100
AcDbEntity
  8
C-A
  6
Continuous
 62
     3
370
     9
100
AcDbCircle
 10
-356.7250573957284
 20
810.9723395270271
 30
0.0
 40
2.999960167987927
100
AcDbArc
 50
90.0
 51
270.0
  0
ARC
  5
1D9
330
1F
100
AcDbEntity
  8
C-A
  6
Continuous
 62
     3
370
     9
100
AcDbCircle
 10
-322.7250936869024
 20
810.9723395270271
 30
0.0
 40
2.999960167987927
100
AcDbArc
 50
270.0
 51
90.0
  0
ARC
  5
1DA
330
1F
100
AcDbEntity
  8
C-A
  6
Continuous
 62
     3
370
     9
100
AcDbCircle
 10
-356.7250573957284
 20
764.9722867398651
 30
0.0
 40
2.999960167987927
100
AcDbArc
 50
90.0
 51
270.0
  0
ARC
  5
1DB
330
1F
100
AcDbEntity
  8
C-A
  6
Continuous
 62
     3
370
     9
100
AcDbCircle
 10
-322.7250936869024
 20
764.9722867398651
 30
0.0
 40
2.999960167987927
100
AcDbArc
 50
270.0
 51
90.0
  0
ARC
  5
1DC
330
1F
100
AcDbEntity
  8
C-A
  6
Continuous
 62
     3
370
     9
100
AcDbCircle
 10
-276.7250408997404
 20
764.9722867398651
 30
0.0
 40
2.999960167987927
100
AcDbArc
 50
90.0
 51
270.0
  0
ARC
  5
1DD
330
1F
100
AcDbEntity
  8
C-A
  6
Continuous
 62
     3
370
     9
100
AcDbCircle
 10
-242.7250771909144
 20
764.9722867398651
 30
0.0
 40
2.999960167987927
100
AcDbArc
 50
270.0
 51
90.0
  0
ARC
  5
1DE
330
1F
100
AcDbEntity
  8
C-A
  6
Continuous
 62
     3
370
     9
100
AcDbCircle
 10
-196.7250244037521
 20
764.9722867398651
 30
0.0
 40
2.999960167987927
100
AcDbArc
 50
90.0
 51
270.0
  0
ARC
  5
1DF
330
1F
100
AcDbEntity
  8
C-A
  6
Continuous
 62
     3
370
     9
100
AcDbCircle
 10
-162.7250606949261
 20
764.9722867398651
 30
0.0
 40
2.999960167987927
100
AcDbArc
 50
270.0
 51
90.0
  0
ARC
  5
1E0
330
1F
100
AcDbEntity
  8
C-A
  6
Continuous
 62
     3
370
     9
100
AcDbCircle
 10
-196.7250244037521
 20
718.9722339527029
 30
0.0
 40
2.999960167987927
100
AcDbArc
 50
90.0
 51
270.0
  0
ARC
  5
1E1
330
1F
100
AcDbEntity
  8
C-A
  6
Continuous
 62
     3
370
     9
100
AcDbCircle
 10
-162.7250606949261
 20
718.9722339527029
 30
0.0
 40
2.999960167987927
100
AcDbArc
 50
270.0
 51
90.0
  0
ARC
  5
1E2
330
1F
100
AcDbEntity
  8
C-A
  6
Continuous
 62
     3
370
     9
100
AcDbCircle
 10
-276.7250408997404
 20
718.9722339527029
 30
0.0
 40
2.999960167987927
100
AcDbArc
 50
90.0
 51
270.0
  0
ARC
  5
1E3
330
1F
100
AcDbEntity
  8
C-A
  6
Continuous
 62
     3
370
     9
100
AcDbCircle
 10
-242.7250771909144
 20
718.9722339527029
 30
0.0
 40
2.999960167987927
100
AcDbArc
 50
270.0
 51
90.0
  0
ARC
  5
1E4
330
1F
100
AcDbEntity
  8
C-A
  6
Continuous
 62
     3
370
     9
100
AcDbCircle
 10
-356.7250573957284
 20
718.9722339527029
 30
0.0
 40
2.999960167987927
100
AcDbArc
 50
90.0
 51
270.0
  0
ARC
  5
1E5
330
1F
100
AcDbEntity
  8
C-A
  6
Continuous
 62
     3
370
     9
100
AcDbCircle
 10
-322.7250936869024
 20
718.9722339527029
 30
0.0
 40
2.999960167987927
100
AcDbArc
 50
270.0
 51
90.0
  0
ARC
  5
1E6
330
1F
100
AcDbEntity
  8
C-A
  6
Continuous
 62
     3
370
     9
100
AcDbCircle
 10
-436.7249501718052
 20
718.9722339527029
 30
0.0
 40
2.999960167987927
100
AcDbArc
 50
90.0
 51
270.0
  0
ARC
  5
1E7
330
1F
100
AcDbEntity
  8
C-A
  6
Continuous
 62
     3
370
     9
100
AcDbCircle
 10
-402.7251101828907
 20
718.9722339527029
 30
0.0
 40
2.999960167987927
100
AcDbArc
 50
270.0
 51
90.0
  0
ARC
  5
1E8
330
1F
100
AcDbEntity
  8
C-A
  6
Continuous
 62
     3
370
     9
100
AcDbCircle
 10
-402.7251101828907
 20
764.9722867398651
 30
0.0
 40
2.999960167987927
100
AcDbArc
 50
270.0
 51
90.0
  0
ARC
  5
1E9
330
1F
100
AcDbEntity
  8
C-A
  6
Continuous
 62
     3
370
     9
100
AcDbCircle
 10
-62.724854495074
 20
718.9724813925255
 30
0.0
 40
2.999960167987927
100
AcDbArc
 50
270.0
 51
90.0
  0
ARC
  5
1EA
330
1F
100
AcDbEntity
  8
C-A
  6
Continuous
 62
     3
370
     9
100
AcDbCircle
 10
-96.72481820389976
 20
718.9724813925255
 30
0.0
 40
2.999960167987927
100
AcDbArc
 50
90.0
 51
270.0
  0
ARC
  5
1EB
330
1F
100
AcDbEntity
  8
C-A
  6
Continuous
 62
     3
370
     9
100
AcDbCircle
 10
-62.724854495074
 20
764.9725341796875
 30
0.0
 40
2.999960167987927
100
AcDbArc
 50
270.0
 51
90.0
  0
ARC
  5
1EC
330
1F
100
AcDbEntity
  8
C-A
  6
Continuous
 62
     3
370
     9
100
AcDbCircle
 10
-96.72481820389976
 20
764.9725341796875
 30
0.0
 40
2.999960167987927
100
AcDbArc
 50
90.0
 51
270.0
  0
ARC
  5
1ED
330
1F
100
AcDbEntity
  8
C-A
  6
Continuous
 62
     3
370
     9
100
AcDbCircle
 10
-16.72480170791175
 20
718.9724813925255
 30
0.0
 40
2.999960167987927
100
AcDbArc
 50
90.0
 51
270.0
  0
ARC
  5
1EE
330
1F
100
AcDbEntity
  8
C-A
  6
Continuous
 62
     3
370
     9
100
AcDbCircle
 10
17.27516200091429
 20
764.9725341796875
 30
0.0
 40
2.999960167987927
100
AcDbArc
 50
270.0
 51
90.0
  0
ARC
  5
1EF
330
1F
100
AcDbEntity
  8
C-A
  6
Continuous
 62
     3
370
     9
100
AcDbCircle
 10
-16.72480170791175
 20
764.9725341796875
 30
0.0
 40
2.999960167987927
100
AcDbArc
 50
90.0
 51
270.0
  0
ARC
  5
1F0
330
1F
100
AcDbEntity
  8
C-A
  6
Continuous
 62
     3
370
     9
100
AcDbCircle
 10
-62.724854495074
 20
810.9723395270271
 30
0.0
 40
2.999960167987927
100
AcDbArc
 50
270.0
 51
90.0
  0
ARC
  5
1F1
330
1F
100
AcDbEntity
  8
C-A
  6
Continuous
 62
     3
370
     9
100
AcDbCircle
 10
-96.72481820389976
 20
810.9723395270271
 30
0.0
 40
2.999960167987927
100
AcDbArc
 50
90.0
 51
270.0
  0
ARC
  5
1F2
330
1F
100
AcDbEntity
  8
C-A
  6
Continuous
 62
     3
370
     9
100
AcDbCircle
 10
17.27516200091429
 20
810.9723395270271
 30
0.0
 40
2.999960167987927
100
AcDbArc
 50
270.0
 51
90.0
  0
ARC
  5
1F3
330
1F
100
AcDbEntity
  8
C-A
  6
Continuous
 62
     3
370
     9
100
AcDbCircle
 10
-16.72480170791175
 20
810.9723395270271
 30
0.0
 40
2.999960167987927
100
AcDbArc
 50
90.0
 51
270.0
  0
ARC
  5
1F4
330
1F
100
AcDbEntity
  8
C-A
  6
Continuous
 62
     3
370
     9
100
AcDbCircle
 10
97.27517849690258
 20
810.9723395270271
 30
0.0
 40
2.999960167987927
100
AcDbArc
 50
270.0
 51
90.0
  0
ARC
  5
1F5
330
1F
100
AcDbEntity
  8
C-A
  6
Continuous
 62
     3
370
     9
100
AcDbCircle
 10
63.27521478807654
 20
810.9723395270271
 30
0.0
 40
2.999960167987927
100
AcDbArc
 50
90.0
 51
270.0
  0
ARC
  5
1F6
330
1F
100
AcDbEntity
  8
C-A
  6
Continuous
 62
     3
370
     9
100
AcDbCircle
 10
97.27517849690258
 20
856.9723923141894
 30
0.0
 40
2.999960167987927
100
AcDbArc
 50
270.0
 51
90.0
  0
ARC
  5
1F7
330
1F
100
AcDbEntity
  8
C-A
  6
Continuous
 62
     3
370
     9
100
AcDbCircle
 10
63.27521478807654
 20
856.9723923141894
 30
0.0
 40
2.999960167987927
100
AcDbArc
 50
90.0
 51
270.0
  0
ARC
  5
1F8
330
1F
100
AcDbEntity
  8
C-A
  6
Continuous
 62
     3
370
     9
100
AcDbCircle
 10
17.27516200091429
 20
856.9723923141894
 30
0.0
 40
2.999960167987927
100
AcDbArc
 50
270.0
 51
90.0
  0
ARC
  5
1F9
330
1F
100
AcDbEntity
  8
C-A
  6
Continuous
 62
     3
370
     9
100
AcDbCircle
 10
-16.72480170791175
 20
856.9723923141894
 30
0.0
 40
2.999960167987927
100
AcDbArc
 50
90.0
 51
270.0
  0
ARC
  5
1FA
330
1F
100
AcDbEntity
  8
C-A
  6
Continuous
 62
     3
370
     9
100
AcDbCircle
 10
-62.724854495074
 20
856.9723923141894
 30
0.0
 40
2.999960167987927
100
AcDbArc
 50
270.0
 51
90.0
  0
ARC
  5
1FB
330
1F
100
AcDbEntity
  8
C-A
  6
Continuous
 62
     3
370
     9
100
AcDbCircle
 10
-96.72481820389976
 20
856.9723923141894
 30
0.0
 40
2.999960167987927
100
AcDbArc
 50
90.0
 51
270.0
  0
ARC
  5
1FC
330
1F
100
AcDbEntity
  8
C-A
  6
Continuous
 62
     3
370
     9
100
AcDbCircle
 10
-62.724854495074
 20
902.9724451013516
 30
0.0
 40
2.999960167987927
100
AcDbArc
 50
270.0
 51
90.0
  0
ARC
  5
1FD
330
1F
100
AcDbEntity
  8
C-A
  6
Continuous
 62
     3
370
     9
100
AcDbCircle
 10
-96.72481820389976
 20
902.9724451013516
 30
0.0
 40
2.999960167987927
100
AcDbArc
 50
90.0
 51
270.0
  0
ARC
  5
1FE
330
1F
100
AcDbEntity
  8
C-A
  6
Continuous
 62
     3
370
     9
100
AcDbCircle
 10
17.27516200091429
 20
902.9724451013516
 30
0.0
 40
2.999960167987927
100
AcDbArc
 50
270.0
 51
90.0
  0
ARC
  5
1FF
330
1F
100
AcDbEntity
  8
C-A
  6
Continuous
 62
     3
370
     9
100
AcDbCircle
 10
-16.72480170791175
 20
902.9724451013516
 30
0.0
 40
2.999960167987927
100
AcDbArc
 50
90.0
 51
270.0
  0
ARC
  5
200
330
1F
100
AcDbEntity
  8
C-A
  6
Continuous
 62
     3
370
     9
100
AcDbCircle
 10
97.27517849690258
 20
902.9724451013516
 30
0.0
 40
2.999960167987927
100
AcDbArc
 50
270.0
 51
90.0
  0
ARC
  5
201
330
1F
100
AcDbEntity
  8
C-A
  6
Continuous
 62
     3
370
     9
100
AcDbCircle
 10
63.27521478807654
 20
902.9724451013516
 30
0.0
 40
2.999960167987927
100
AcDbArc
 50
90.0
 51
270.0
  0
ARC
  5
202
330
1F
100
AcDbEntity
  8
C-A
  6
Continuous
 62
     3
370
     9
100
AcDbCircle
 10
177.2751949928906
 20
902.9724451013516
 30
0.0
 40
2.999960167987927
100
AcDbArc
 50
270.0
 51
90.0
  0
ARC
  5
203
330
1F
100
AcDbEntity
  8
C-A
  6
Continuous
 62
     3
370
     9
100
AcDbCircle
 10
143.2752312840645
 20
902.9724451013516
 30
0.0
 40
2.999960167987927
100
AcDbArc
 50
90.0
 51
270.0
  0
ARC
  5
204
330
1F
100
AcDbEntity
  8
C-A
  6
Continuous
 62
     3
370
     9
100
AcDbCircle
 10
143.2752312840645
 20
856.9723923141894
 30
0.0
 40
2.999960167987927
100
AcDbArc
 50
90.0
 51
270.0
  0
ARC
  5
205
330
1F
100
AcDbEntity
  8
C-0
  6
Continuous
 62
     3
370
     9
100
AcDbCircle
 10
932.9299372595716
 20
529.0100839975719
 30
0.0
 40
14.99999922675056
100
AcDbArc
 50
1.165664672851562
 51
89.9994354248047
  0
ARC
  5
206
330
1F
100
AcDbEntity
  8
C-0
  6
Continuous
 62
     3
370
     9
100
AcDbCircle
 10
932.9306795790393
 20
529.0100839975719
 30
0.0
 40
14.99999922675056
100
AcDbArc
 50
270.0
 51
0.0012359619140681
  0
ARC
  5
207
330
1F
100
AcDbEntity
  8
C-0
  6
Continuous
 62
     3
370
     9
100
AcDbCircle
 10
762.9306135950867
 20
529.0100839975719
 30
0.0
 40
14.99999922675056
100
AcDbArc
 50
179.9994049072265
 51
270.0
  0
ARC
  5
208
330
1F
100
AcDbEntity
  8
C-0
  6
Continuous
 62
     3
370
     9
100
AcDbCircle
 10
762.9306135950867
 20
529.0100839975719
 30
0.0
 40
14.99999922675056
100
AcDbArc
 50
89.99996948242188
 51
179.9988098144531
  0
TEXT
  5
209
330
1F
100
AcDbEntity
  8
D-4
  6
Continuous
 62
     2
370
     9
100
AcDbText
 10
-787.033948898315
 20
-44.51585409628358
 30
0.0
 40
30.48
  1
1
 41
0.9999999999999998
  7
ＭＳ ゴシック
100
AcDbText
  0
TEXT
  5
20A
330
1F
100
AcDbEntity
  8
D-4
  6
Continuous
 62
     2
370
     9
100
AcDbText
 10
-837.8382561657875
 20
-153.2671407833615
 30
0.0
 40
30.48
  1
25
 41
1.0625
  7
ＭＳ ゴシック
100
AcDbText
  0
TEXT
  5
20B
330
1F
100
AcDbEntity
  8
D-5
  6
Continuous
 62
     7
370
     9
100
AcDbText
 10
-628.7325366767673
 20
-114.1638186233107
 30
0.0
 40
22.86
  1
塩ビクッション
 41
1.142857142857143
  7
ＭＳ ゴシック
100
AcDbText
  0
TEXT
  5
20C
330
1F
100
AcDbEntity
  8
D-4
  6
Continuous
 62
     2
370
     9
100
AcDbText
 10
-869.4847949775485
 20
-679.8058453204179
 30
0.0
 40
30.48
  1
25～30
 41
1.104166666666667
  7
ＭＳ ゴシック
100
AcDbText
  0
TEXT
  5
20D
330
1F
100
AcDbEntity
  8
D-4
  6
Continuous
 62
     2
370
     9
100
AcDbText
 10
-746.9570487254371
 20
-834.2700308804898
 30
0.0
 40
30.48
  1
75～80
 41
1.104166666666667
  7
ＭＳ ゴシック
100
AcDbText
  0
TEXT
  5
20E
330
1F
100
AcDbEntity
  8
D-4
  6
Continuous
 62
     2
370
     9
100
AcDbText
 10
-218.0434301654709
 20
-480.3399740683066
 30
0.0
 40
30.48
  1
40～50
 50
90.0
 41
1.104166666666667
  7
ＭＳ ゴシック
100
AcDbText
  0
TEXT
  5
20F
330
1F
100
AcDbEntity
  8
D-4
  6
Continuous
 62
     2
370
     9
100
AcDbText
 10
-695.4500984965699
 20
-464.718408335809
 30
0.0
 40
30.48
  1
29
 50
0.0010007472011468
 41
1.062499999999998
  7
ＭＳ ゴシック
100
AcDbText
  0
TEXT
  5
210
330
1F
100
AcDbEntity
  8
D-4
  6
Continuous
 62
     2
370
     9
100
AcDbText
 10
-501.6787500556734
 20
-416.0767838761612
 30
0.0
 40
30.48
  1
10
 50
90.0
 41
1.0625
  7
ＭＳ ゴシック
100
AcDbText
  0
TEXT
  5
211
330
1F
100
AcDbEntity
  8
D-4
  6
Continuous
 62
     2
370
     9
100
AcDbText
 10
-501.6787500556734
 20
-348.5765611803209
 30
0.0
 40
30.48
  1
17
 50
90.0
 41
1.0625
  7
ＭＳ ゴシック
100
AcDbText
  0
TEXT
  5
212
330
1F
100
AcDbEntity
  8
D-4
  6
Continuous
 62
     2
370
     9
100
AcDbText
 10
-1035.211279319557
 20
-378.5743094779349
 30
0.0
 40
30.48
  1
25
 50
90.0
 41
1.0625
  7
ＭＳ ゴシック
100
AcDbText
  0
TEXT
  5
213
330
1F
100
AcDbEntity
  8
D-4
  6
Continuous
 62
     2
370
     9
100
AcDbText
 10
-712.9766946225549
 20
-44.51585409628358
 30
0.0
 40
30.48
  1
5
 41
0.9999999999999998
  7
ＭＳ ゴシック
100
AcDbText
  0
TEXT
  5
214
330
1F
100
AcDbEntity
  8
D-5
  6
Continuous
 62
     2
370
     9
100
AcDbText
 10
-1178.583091909839
 20
-962.6291914326525
 30
0.0
 40
30.48
  1
断面詳細図　Ｓ＝１：２
 50
359.9999855334128
 41
1.113636363636364
  7
ＭＳ ゴシック
100
AcDbText
  0
TEXT
  5
215
330
1F
100
AcDbEntity
  8
D-5
  6
Continuous
 62
     7
370
     9
100
AcDbText
 10
-572.1482619723754
 20
-226.8425938951646
 30
0.0
 40
22.86
  1
溶接用アンカ－＠５００
 41
1.151515151515152
  7
ＭＳ ゴシック
100
AcDbText
  0
TEXT
  5
216
330
1F
100
AcDbEntity
  8
D-5
  6
Continuous
 62
     7
370
     9
100
AcDbText
 10
-572.538474572671
 20
-263.4111066828547
 30
0.0
 40
22.86
  1
ｔ＝２．３（ＳＰＨＣ）
 41
1.151515151515152
  7
ＭＳ ゴシック
100
AcDbText
  0
TEXT
  5
217
330
1F
100
AcDbEntity
  8
D-5
  6
Continuous
 62
     2
370
     9
100
AcDbText
 10
182.3853139619574
 20
-791.8699800728463
 30
0.0
 40
30.48
  1
材質：冷間圧延ステンレス鋼板（ＳＵＳ３０４－２Ｂ）
 41
1.12
  7
ＭＳ ゴシック
100
AcDbText
  0
TEXT
  5
218
330
1F
100
AcDbEntity
  8
D-5
  6
Continuous
 62
     2
370
     9
100
AcDbText
 10
182.3853387059397
 20
-856.8704419605151
 30
0.0
 40
30.48
  1
定尺：３０００
 41
1.107142857142857
  7
ＭＳ ゴシック
100
AcDbText
  0
TEXT
  5
219
330
1F
100
AcDbEntity
  8
D-5
  6
Continuous
 62
     7
370
     9
100
AcDbText
 10
-629.9257162454961
 20
-167.7892244246198
 30
0.0
 40
22.86
  1
ステンレス製受枠ＳＦ０３Ｂ
 41
1.153846153846154
  7
ＭＳ ゴシック
100
AcDbText
  0
TEXT
  5
21A
330
1F
100
AcDbEntity
  8
D-5
  6
Continuous
 62
     2
370
     9
100
AcDbText
 10
122.6736803312563
 20
-726.8702605046452
 30
0.0
 40
30.48
  1
ステンレス製受枠　ＳＦ０３Ｂ
 41
1.116071428571428
  7
ＭＳ ゴシック
100
AcDbText
  0
TEXT
  5
21B
330
1F
100
AcDbEntity
  8
D-4
  6
Continuous
 62
     2
370
     9
100
AcDbText
 10
-1246.455357259802
 20
-268.7047556284311
 30
0.0
 40
30.48
  1
3
 50
90.0
 41
0.9999999999999998
  7
ＭＳ ゴシック
100
AcDbText
  0
TEXT
  5
21C
330
1F
100
AcDbEntity
  8
D-5
  6
Continuous
 62
     7
370
     9
100
AcDbText
 10
-624.4189264967631
 20
-14.72975473764764
 30
0.0
 40
22.86
  1
ノンスリップタイプ
 41
1.148148148148148
  7
ＭＳ ゴシック
100
AcDbText
  0
TEXT
  5
21D
330
1F
100
AcDbEntity
  8
D-5
  6
Continuous
 62
     7
370
     9
100
AcDbText
 10
-625.6239996729666
 20
-49.35710211676509
 30
0.0
 40
22.86
  1
ステンレス製排水用蓋ＳＺ－３（ｔ＝３）
 41
1.157894736842105
  7
ＭＳ ゴシック
100
AcDbText
  0
TEXT
  5
21E
330
1F
100
AcDbEntity
  8
D-5
  6
Continuous
 62
     2
370
     9
100
AcDbText
 10
68.0831849897234
 20
-324.1866931482263
 30
0.0
 40
30.48
  1
仕　様
 41
1.083333333333333
  7
ＭＳ ゴシック
100
AcDbText
  0
TEXT
  5
21F
330
1F
100
AcDbEntity
  8
D-5
  6
Continuous
 62
     2
370
     9
100
AcDbText
 10
182.3855614017802
 20
-452.1073903346706
 30
0.0
 40
30.48
  1
材質：冷間圧延ステンレス鋼板（ＳＵＳ３０４－２Ｂ）
 41
1.12
  7
ＭＳ ゴシック
100
AcDbText
  0
TEXT
  5
220
330
1F
100
AcDbEntity
  8
D-5
  6
Continuous
 62
     2
370
     9
100
AcDbText
 10
182.3855366577978
 20
-517.1074192026499
 30
0.0
 40
30.48
  1
処理：ヘアライン
 41
1.109375
  7
ＭＳ ゴシック
100
AcDbText
  0
TEXT
  5
221
330
1F
100
AcDbEntity
  8
D-5
  6
Continuous
 62
     2
370
     9
100
AcDbText
 10
182.3856369502965
 20
-583.6587720386557
 30
0.0
 40
30.48
  1
定尺：５００
 50
359.9999866252354
 41
1.104166666666666
  7
ＭＳ ゴシック
100
AcDbText
  0
TEXT
  5
222
330
1F
100
AcDbEntity
  8
D-5
  6
Continuous
 62
     2
370
     9
100
AcDbText
 10
122.6736803312563
 20
-387.1072996067355
 30
0.0
 40
30.48
  1
ノンスリップタイプステンレス製排水用蓋　ＳＺ－３　３００×５００Ｓ（補強材付）
 41
1.121794871794872
  7
ＭＳ ゴシック
100
AcDbText
  0
TEXT
  5
223
330
1F
100
AcDbEntity
  8
D-5
  6
Continuous
 62
     7
370
     9
100
AcDbText
 10
-1684.388656358461
 20
-650.7748704405088
 30
0.0
 40
22.86
  1
補強材：定尺１枚に２本
 41
1.151515151515152
  7
ＭＳ ゴシック
100
AcDbText
  0
TEXT
  5
224
330
1F
100
AcDbEntity
  8
C-4
  6
Continuous
 62
     2
370
     9
100
AcDbText
 10
-660.9253772529393
 20
1071.611943623311
 30
0.0
 40
30.48
  1
1
 41
0.9999999999999998
  7
ＭＳ ゴシック
100
AcDbText
  0
TEXT
  5
225
330
1F
100
AcDbEntity
  8
C-4
  6
Continuous
 62
     2
370
     9
100
AcDbText
 10
-412.2249600693982
 20
1071.611943623311
 30
0.0
 40
30.48
  1
499
 41
1.083333333333333
  7
ＭＳ ゴシック
100
AcDbText
  0
TEXT
  5
226
330
1F
100
AcDbEntity
  8
C-4
  6
Continuous
 62
     2
370
     9
100
AcDbText
 10
-160.9253360129686
 20
1071.611943623311
 30
0.0
 40
30.48
  1
1
 41
0.9999999999999998
  7
ＭＳ ゴシック
100
AcDbText
  0
TEXT
  5
227
330
1F
100
AcDbEntity
  8
C-4
  6
Continuous
 62
     2
370
     9
100
AcDbText
 10
87.77520489048356
 20
1071.611943623311
 30
0.0
 40
30.48
  1
499
 41
1.083333333333333
  7
ＭＳ ゴシック
100
AcDbText
  0
TEXT
  5
228
330
1F
100
AcDbEntity
  8
C-4
  6
Continuous
 62
     2
370
     9
100
AcDbText
 10
339.0748908068687
 20
1071.611943623311
 30
0.0
 40
30.48
  1
1
 41
0.9999999999999998
  7
ＭＳ ゴシック
100
AcDbText
  0
TEXT
  5
229
330
1F
100
AcDbEntity
  8
C-4
  6
Continuous
 62
     2
370
     9
100
AcDbText
 10
-411.7248841878525
 20
1151.611712679477
 30
0.0
 40
30.48
  1
500
 41
1.083333333333333
  7
ＭＳ ゴシック
100
AcDbText
  0
TEXT
  5
22A
330
1F
100
AcDbEntity
  8
C-4
  6
Continuous
 62
     2
370
     9
100
AcDbText
 10
88.27503333220662
 20
1151.611712679477
 30
0.0
 40
30.48
  1
500
 41
1.083333333333333
  7
ＭＳ ゴシック
100
AcDbText
  0
TEXT
  5
22B
330
1F
100
AcDbEntity
  8
C-3
  6
Continuous
 62
     7
370
     9
100
AcDbText
 10
13.0642888352682
 20
495.5512874129013
 30
0.0
 40
22.86
  1
被膜厚さ７５μ（色：グレ－）
 41
1.154761904761905
  7
ＭＳ ゴシック
100
AcDbText
  0
TEXT
  5
22C
330
1F
100
AcDbEntity
  8
C-3
  6
Continuous
 62
     7
370
     9
100
AcDbText
 10
122.4717529399979
 20
548.5258027607688
 30
0.0
 40
22.86
  1
セラミクス溶射
 41
1.142857142857143
  7
ＭＳ ゴシック
100
AcDbText
  0
TEXT
  5
22D
330
1F
100
AcDbEntity
  8
C-5
  6
Continuous
 62
     2
370
     9
100
AcDbText
 10
-397.22512502928
 20
406.1126430532096
 30
0.0
 40
30.48
  1
平面詳細図　Ｓ＝１：１０
 41
1.114583333333333
  7
ＭＳ ゴシック
100
AcDbText
  0
TEXT
  5
22E
330
1F
100
AcDbEntity
  8
C-0
  6
Continuous
 62
     2
370
     9
100
AcDbText
 10
826.6805228671515
 20
631.8700563502958
 30
0.0
 40
30.48
  1
40
 41
1.0625
  7
ＭＳ ゴシック
100
AcDbText
  0
TEXT
  5
22F
330
1F
100
AcDbEntity
  8
C-0
  6
Continuous
 62
     2
370
     9
100
AcDbText
 10
1017.125191825661
 20
519.0105170172616
 30
0.0
 40
30.48
  1
6
 50
90.0
 41
0.9999999999999998
  7
ＭＳ ゴシック
100
AcDbText
  0
TEXT
  5
230
330
1F
100
AcDbEntity
  8
C-5
  6
Continuous
 62
     2
370
     9
100
AcDbText
 10
610.3377576776459
 20
406.1126430532096
 30
0.0
 40
30.48
  1
排水穴詳細　Ｓ＝１：２
 41
1.113636363636364
  7
ＭＳ ゴシック
100
AcDbText
  0
TEXT
  5
231
330
1F
100
AcDbEntity
  8
C-4
  6
Continuous
 62
     2
370
     9
100
AcDbText
 10
-240.9750507973332
 20
608.612197661529
 30
0.0
 40
30.48
  1
80
 41
1.0625
  7
ＭＳ ゴシック
100
AcDbText
  0
TEXT
  5
232
330
1F
100
AcDbEntity
  8
C-4
  6
Continuous
 62
     2
370
     9
100
AcDbText
 10
-475.6537718303779
 20
720.7221366263725
 30
0.0
 40
30.48
  1
46
 50
90.0
 41
1.0625
  7
ＭＳ ゴシック
100
AcDbText
  0
TEXT
  5
233
330
1F
100
AcDbEntity
  8
D-4
  6
Continuous
 62
     2
370
     9
100
AcDbText
 10
-1454.667622076498
 20
70.38159034522813
 30
0.0
 40
30.48
  1
312
 41
1.083333333333333
  7
ＭＳ ゴシック
100
AcDbText
  0
TEXT
  5
234
330
1F
100
AcDbEntity
  8
D-4
  6
Continuous
 62
     2
370
     9
100
AcDbText
 10
-1454.667622076498
 20
-41.28181561444244
 30
0.0
 40
30.48
  1
300
 41
1.083333333333333
  7
ＭＳ ゴシック
100
AcDbText
  0
TEXT
  5
235
330
1F
100
AcDbEntity
  8
D-4
  6
Continuous
 62
     2
370
     9
100
AcDbText
 10
-1452.70857914074
 20
-147.0681546267948
 30
0.0
 40
30.48
  1
250
 41
1.083333333333333
  7
ＭＳ ゴシック
100
AcDbText
  0
TEXT
  5
236
330
1F
100
AcDbEntity
  8
F-4
  6
Continuous
 62
     2
370
     9
100
AcDbText
 10
-814.0001708881272
 20
-1349.359880404086
 30
0.0
 40
30.48
  1
ノンスリップタイプステンレス製排水用蓋　ＳＺ－３　３００×５００Ｓ＋ＳＦ０３Ｂ
 41
0.7743589743589743
  7
ＭＳ ゴシック
100
AcDbText
  0
LWPOLYLINE
  5
237
330
1F
100
AcDbEntity
  8
D-4
  6
Continuous
 62
     7
370
     9
100
AcDbPolyline
 90
        4
 70
     1
 43
1.0
 10
-723.5891881891196
 20
55.54054054054063
 42
0.4142135623731
 10
-724.0891881891196
 20
56.04054054054063
 42
0.4142135623731
 10
-724.5891881891196
 20
55.54054054054063
 42
0.4142135623731
 10
-724.0891881891196
 20
55.04054054054063
 42
0.4142135623731
  0
LWPOLYLINE
  5
238
330
1F
100
AcDbEntity
  8
D-4
  6
Continuous
 62
     7
370
     9
100
AcDbPolyline
 90
        4
 70
     1
 43
1.0
 10
-753.588297405758
 20
-55.15512827280389
 42
0.4142135623731
 10
-754.088297405758
 20
-54.65512827280389
 42
0.4142135623731
 10
-754.5882974057579
 20
-55.15512827280389
 42
0.4142135623731
 10
-754.088297405758
 20
-55.65512827280389
 42
0.4142135623731
  0
LWPOLYLINE
  5
239
330
1F
100
AcDbEntity
  8
D-4
  6
Continuous
 62
     7
370
     9
100
AcDbPolyline
 90
        4
 70
     1
 43
1.0
 10
-748.5880334699472
 20
-55.15512827280389
 42
0.4142135623731
 10
-749.0880334699472
 20
-54.65512827280389
 42
0.4142135623731
 10
-749.5880334699472
 20
-55.15512827280389
 42
0.4142135623731
 10
-749.0880334699472
 20
-55.65512827280389
 42
0.4142135623731
  0
LWPOLYLINE
  5
23A
330
1F
100
AcDbEntity
  8
D-4
  6
Continuous
 62
     7
370
     9
100
AcDbPolyline
 90
        4
 70
     1
 43
1.0
 10
-723.5891881891196
 20
-55.15512827280389
 42
0.4142135623731
 10
-724.0891881891196
 20
-54.65512827280389
 42
0.4142135623731
 10
-724.5891881891196
 20
-55.15512827280389
 42
0.4142135623731
 10
-724.0891881891196
 20
-55.65512827280389
 42
0.4142135623731
  0
LWPOLYLINE
  5
23B
330
1F
100
AcDbEntity
  8
D-4
  6
Continuous
 62
     7
370
     9
100
AcDbPolyline
 90
        4
 70
     1
 43
1.0
 10
-878.5889572452851
 20
-163.9074047191721
 42
0.4142135623731
 10
-879.0889572452851
 20
-163.4074047191721
 42
0.4142135623731
 10
-879.588957245285
 20
-163.9074047191721
 42
0.4142135623731
 10
-879.0889572452851
 20
-164.4074047191721
 42
0.4142135623731
  0
LWPOLYLINE
  5
23C
330
1F
100
AcDbEntity
  8
D-4
  6
Continuous
 62
     7
370
     9
100
AcDbPolyline
 90
        4
 70
     1
 43
1.0
 10
-753.588297405758
 20
-163.9074047191721
 42
0.4142135623731
 10
-754.088297405758
 20
-163.4074047191721
 42
0.4142135623731
 10
-754.5882974057579
 20
-163.9074047191721
 42
0.4142135623731
 10
-754.088297405758
 20
-164.4074047191721
 42
0.4142135623731
  0
LWPOLYLINE
  5
23D
330
1F
100
AcDbEntity
  8
D-4
  6
Continuous
 62
     7
370
     9
100
AcDbPolyline
 90
        4
 70
     1
 43
1.0
 10
-1024.071510263391
 20
-284.8267921241553
 42
0.4142135623731
 10
-1024.571510263391
 20
-284.3267921241553
 42
0.4142135623731
 10
-1025.071510263391
 20
-284.8267921241553
 42
0.4142135623731
 10
-1024.571510263391
 20
-285.3267921241554
 42
0.4142135623731
  0
LWPOLYLINE
  5
23E
330
1F
100
AcDbEntity
  8
D-4
  6
Continuous
 62
     7
370
     9
100
AcDbPolyline
 90
        4
 70
     1
 43
1.0
 10
-1024.071510263391
 20
-409.8270808039484
 42
0.4142135623731
 10
-1024.571510263391
 20
-409.3270808039484
 42
0.4142135623731
 10
-1025.071510263391
 20
-409.8270808039484
 42
0.4142135623731
 10
-1024.571510263391
 20
-410.3270808039484
 42
0.4142135623731
  0
LWPOLYLINE
  5
23F
330
1F
100
AcDbEntity
  8
D-4
  6
Continuous
 62
     7
370
     9
100
AcDbPolyline
 90
        4
 70
     1
 43
1.0
 10
-206.9036611093052
 20
-284.8267921241553
 42
0.4142135623731
 10
-207.4036611093052
 20
-284.3267921241553
 42
0.4142135623731
 10
-207.9036611093052
 20
-284.8267921241553
 42
0.4142135623731
 10
-207.4036611093052
 20
-285.3267921241554
 42
0.4142135623731
  0
LWPOLYLINE
  5
240
330
1F
100
AcDbEntity
  8
D-4
  6
Continuous
 62
     7
370
     9
100
AcDbPolyline
 90
        4
 70
     1
 43
1.0
 10
-206.9036611093052
 20
-534.8269983240075
 42
0.4142135623731
 10
-207.4036611093052
 20
-534.3269983240076
 42
0.4142135623731
 10
-207.9036611093052
 20
-534.8269983240075
 42
0.4142135623731
 10
-207.4036611093052
 20
-535.3269983240075
 42
0.4142135623731
  0
LWPOLYLINE
  5
241
330
1F
100
AcDbEntity
  8
D-4
  6
Continuous
 62
     7
370
     9
100
AcDbPolyline
 90
        4
 70
     1
 43
1.0
 10
-490.5384861198628
 20
-284.8267921241553
 42
0.4142135623731
 10
-491.0384861198628
 20
-284.3267921241553
 42
0.4142135623731
 10
-491.5384861198628
 20
-284.8267921241553
 42
0.4142135623731
 10
-491.0384861198628
 20
-285.3267921241554
 42
0.4142135623731
  0
LWPOLYLINE
  5
242
330
1F
100
AcDbEntity
  8
D-4
  6
Continuous
 62
     7
370
     9
100
AcDbPolyline
 90
        4
 70
     1
 43
1.0
 10
-490.5384861198628
 20
-369.8267013962204
 42
0.4142135623731
 10
-491.0384861198628
 20
-369.3267013962205
 42
0.4142135623731
 10
-491.5384861198628
 20
-369.8267013962204
 42
0.4142135623731
 10
-491.0384861198628
 20
-370.3267013962204
 42
0.4142135623731
  0
LWPOLYLINE
  5
243
330
1F
100
AcDbEntity
  8
D-4
  6
Continuous
 62
     7
370
     9
100
AcDbPolyline
 90
        4
 70
     1
 43
1.0
 10
-490.5384861198628
 20
-419.827237515836
 42
0.4142135623731
 10
-491.0384861198628
 20
-419.3272375158361
 42
0.4142135623731
 10
-491.5384861198628
 20
-419.827237515836
 42
0.4142135623731
 10
-491.0384861198628
 20
-420.327237515836
 42
0.4142135623731
  0
LWPOLYLINE
  5
244
330
1F
100
AcDbEntity
  8
D-4
  6
Continuous
 62
     7
370
     9
100
AcDbPolyline
 90
        4
 70
     1
 43
1.0
 10
-723.5884458696517
 20
-475.3576825116131
 42
0.4142135623731
 10
-724.0884458696517
 20
-474.8576825116132
 42
0.4142135623731
 10
-724.5884458696515
 20
-475.3576825116131
 42
0.4142135623731
 10
-724.0884458696517
 20
-475.8576825116131
 42
0.4142135623731
  0
LWPOLYLINE
  5
245
330
1F
100
AcDbEntity
  8
D-4
  6
Continuous
 62
     7
370
     9
100
AcDbPolyline
 90
        4
 70
     1
 43
1.0
 10
-578.5884623656399
 20
-475.3576825116131
 42
0.4142135623731
 10
-579.0884623656399
 20
-474.8576825116132
 42
0.4142135623731
 10
-579.5884623656399
 20
-475.3576825116131
 42
0.4142135623731
 10
-579.0884623656399
 20
-475.8576825116131
 42
0.4142135623731
  0
LWPOLYLINE
  5
246
330
1F
100
AcDbEntity
  8
D-4
  6
Continuous
 62
     7
370
     9
100
AcDbPolyline
 90
        4
 70
     1
 43
1.0
 10
-878.5884623656398
 20
-690.4456143765835
 42
0.4142135623731
 10
-879.0884623656398
 20
-689.9456143765836
 42
0.4142135623731
 10
-879.5884623656398
 20
-690.4456143765835
 42
0.4142135623731
 10
-879.0884623656398
 20
-690.9456143765835
 42
0.4142135623731
  0
LWPOLYLINE
  5
247
330
1F
100
AcDbEntity
  8
D-4
  6
Continuous
 62
     7
370
     9
100
AcDbPolyline
 90
        4
 70
     1
 43
1.0
 10
-728.588214925817
 20
-690.4456143765835
 42
0.4142135623731
 10
-729.088214925817
 20
-689.9456143765836
 42
0.4142135623731
 10
-729.588214925817
 20
-690.4456143765835
 42
0.4142135623731
 10
-729.088214925817
 20
-690.9456143765835
 42
0.4142135623731
  0
LWPOLYLINE
  5
248
330
1F
100
AcDbEntity
  8
D-4
  6
Continuous
 62
     7
370
     9
100
AcDbPolyline
 90
        4
 70
     1
 43
1.0
 10
-878.5884623656398
 20
-844.9102948163006
 42
0.4142135623731
 10
-879.0884623656398
 20
-844.4102948163006
 42
0.4142135623731
 10
-879.5884623656398
 20
-844.9102948163006
 42
0.4142135623731
 10
-879.0884623656398
 20
-845.4102948163006
 42
0.4142135623731
  0
LWPOLYLINE
  5
249
330
1F
100
AcDbEntity
  8
D-4
  6
Continuous
 62
     7
370
     9
100
AcDbPolyline
 90
        4
 70
     1
 43
1.0
 10
-478.587637566231
 20
-844.9102948163006
 42
0.4142135623731
 10
-479.087637566231
 20
-844.4102948163006
 42
0.4142135623731
 10
-479.587637566231
 20
-844.9102948163006
 42
0.4142135623731
 10
-479.087637566231
 20
-845.4102948163006
 42
0.4142135623731
  0
LWPOLYLINE
  5
24A
330
1F
100
AcDbEntity
  8
D-4
  6
Continuous
 62
     7
370
     9
100
AcDbPolyline
 90
        4
 70
     1
 43
1.0
 10
-1235.315093323991
 20
-287.3269240920608
 42
0.4142135623731
 10
-1235.815093323991
 20
-286.8269240920608
 42
0.4142135623731
 10
-1236.315093323991
 20
-287.3269240920608
 42
0.4142135623731
 10
-1235.815093323991
 20
-287.8269240920608
 42
0.4142135623731
  0
LWPOLYLINE
  5
24B
330
1F
100
AcDbEntity
  8
D-4
  6
Continuous
 62
     7
370
     9
100
AcDbPolyline
 90
        4
 70
     1
 43
1.0
 10
-1235.315093323991
 20
-302.3267261402026
 42
0.4142135623731
 10
-1235.815093323991
 20
-301.8267261402026
 42
0.4142135623731
 10
-1236.315093323991
 20
-302.3267261402026
 42
0.4142135623731
 10
-1235.815093323991
 20
-302.8267261402026
 42
0.4142135623731
  0
LWPOLYLINE
  5
24C
330
1F
100
AcDbEntity
  8
C-4
  6
Continuous
 62
     7
370
     9
100
AcDbPolyline
 90
        4
 70
     1
 43
1.0
 10
-629.7249947109735
 20
1060.972174567145
 42
0.4142135623731
 10
-630.2249947109735
 20
1061.472174567145
 42
0.4142135623731
 10
-630.7249947109734
 20
1060.972174567145
 42
0.4142135623731
 10
-630.2249947109735
 20
1060.472174567145
 42
0.4142135623731
  0
LWPOLYLINE
  5
24D
330
1F
100
AcDbEntity
  8
C-4
  6
Continuous
 62
     7
370
     9
100
AcDbPolyline
 90
        4
 70
     1
 43
1.0
 10
-628.724842947882
 20
1060.972174567145
 42
0.4142135623731
 10
-629.224842947882
 20
1061.472174567145
 42
0.4142135623731
 10
-629.724842947882
 20
1060.972174567145
 42
0.4142135623731
 10
-629.224842947882
 20
1060.472174567145
 42
0.4142135623731
  0
LWPOLYLINE
  5
24E
330
1F
100
AcDbEntity
  8
C-4
  6
Continuous
 62
     7
370
     9
100
AcDbPolyline
 90
        4
 70
     1
 43
1.0
 10
-129.7249534710029
 20
1060.972174567145
 42
0.4142135623731
 10
-130.2249534710029
 20
1061.472174567145
 42
0.4142135623731
 10
-130.7249534710029
 20
1060.972174567145
 42
0.4142135623731
 10
-130.2249534710029
 20
1060.472174567145
 42
0.4142135623731
  0
LWPOLYLINE
  5
24F
330
1F
100
AcDbEntity
  8
C-4
  6
Continuous
 62
     7
370
     9
100
AcDbPolyline
 90
        4
 70
     1
 43
1.0
 10
-128.7249254278229
 20
1060.972174567145
 42
0.4142135623731
 10
-129.2249254278229
 20
1061.472174567145
 42
0.4142135623731
 10
-129.7249254278229
 20
1060.972174567145
 42
0.4142135623731
 10
-129.2249254278229
 20
1060.472174567145
 42
0.4142135623731
  0
LWPOLYLINE
  5
250
330
1F
100
AcDbEntity
  8
C-4
  6
Continuous
 62
     7
370
     9
100
AcDbPolyline
 90
        4
 70
     1
 43
1.0
 10
370.2752114888789
 20
1060.972174567145
 42
0.4142135623731
 10
369.7752114888789
 20
1061.472174567145
 42
0.4142135623731
 10
369.2752114888789
 20
1060.972174567145
 42
0.4142135623731
 10
369.7752114888789
 20
1060.472174567145
 42
0.4142135623731
  0
LWPOLYLINE
  5
251
330
1F
100
AcDbEntity
  8
C-4
  6
Continuous
 62
     7
370
     9
100
AcDbPolyline
 90
        4
 70
     1
 43
1.0
 10
371.2751158121473
 20
1060.972174567145
 42
0.4142135623731
 10
370.7751158121474
 20
1061.472174567145
 42
0.4142135623731
 10
370.2751158121474
 20
1060.972174567145
 42
0.4142135623731
 10
370.7751158121474
 20
1060.472174567145
 42
0.4142135623731
  0
LWPOLYLINE
  5
252
330
1F
100
AcDbEntity
  8
C-4
  6
Continuous
 62
     7
370
     9
100
AcDbPolyline
 90
        4
 70
     1
 43
1.0
 10
-628.724842947882
 20
1140.971943623311
 42
0.4142135623731
 10
-629.224842947882
 20
1141.471943623311
 42
0.4142135623731
 10
-629.724842947882
 20
1140.971943623311
 42
0.4142135623731
 10
-629.224842947882
 20
1140.471943623311
 42
0.4142135623731
  0
LWPOLYLINE
  5
253
330
1F
100
AcDbEntity
  8
C-4
  6
Continuous
 62
     7
370
     9
100
AcDbPolyline
 90
        4
 70
     1
 43
1.0
 10
-128.7249254278229
 20
1140.971943623311
 42
0.4142135623731
 10
-129.2249254278229
 20
1141.471943623311
 42
0.4142135623731
 10
-129.7249254278229
 20
1140.971943623311
 42
0.4142135623731
 10
-129.2249254278229
 20
1140.471943623311
 42
0.4142135623731
  0
LWPOLYLINE
  5
254
330
1F
100
AcDbEntity
  8
C-4
  6
Continuous
 62
     7
370
     9
100
AcDbPolyline
 90
        4
 70
     1
 43
1.0
 10
371.2751158121473
 20
1140.971943623311
 42
0.4142135623731
 10
370.7751158121474
 20
1141.471943623311
 42
0.4142135623731
 10
370.2751158121474
 20
1140.971943623311
 42
0.4142135623731
 10
370.7751158121474
 20
1140.471943623311
 42
0.4142135623731
  0
LWPOLYLINE
  5
255
330
1F
100
AcDbEntity
  8
C-4
  6
Continuous
 62
     7
370
     9
100
AcDbPolyline
 90
        4
 70
     1
 43
1.0
 10
748.4308115469445
 20
621.2297924144849
 42
0.4142135623731
 10
747.9308115469445
 20
621.7297924144849
 42
0.4142135623731
 10
747.4308115469445
 20
621.2297924144849
 42
0.4142135623731
 10
747.9308115469445
 20
620.7297924144849
 42
0.4142135623731
  0
LWPOLYLINE
  5
256
330
1F
100
AcDbEntity
  8
C-4
  6
Continuous
 62
     7
370
     9
100
AcDbPolyline
 90
        4
 70
     1
 43
1.0
 10
948.4307290670039
 20
621.2297924144849
 42
0.4142135623731
 10
947.9307290670039
 20
621.7297924144849
 42
0.4142135623731
 10
947.4307290670039
 20
621.2297924144849
 42
0.4142135623731
 10
947.9307290670039
 20
620.7297924144849
 42
0.4142135623731
  0
LWPOLYLINE
  5
257
330
1F
100
AcDbEntity
  8
C-4
  6
Continuous
 62
     7
370
     9
100
AcDbPolyline
 90
        4
 70
     1
 43
1.0
 10
1028.265455761471
 20
514.01028194943
 42
0.4142135623731
 10
1027.765455761471
 20
514.5102819494299
 42
0.4142135623731
 10
1027.265455761472
 20
514.01028194943
 42
0.4142135623731
 10
1027.765455761471
 20
513.51028194943
 42
0.4142135623731
  0
LWPOLYLINE
  5
258
330
1F
100
AcDbEntity
  8
C-4
  6
Continuous
 62
     7
370
     9
100
AcDbPolyline
 90
        4
 70
     1
 43
1.0
 10
1028.265455761471
 20
544.010009765625
 42
0.4142135623731
 10
1027.765455761471
 20
544.510009765625
 42
0.4142135623731
 10
1027.265455761472
 20
544.010009765625
 42
0.4142135623731
 10
1027.765455761471
 20
543.510009765625
 42
0.4142135623731
  0
LWPOLYLINE
  5
259
330
1F
100
AcDbEntity
  8
C-4
  6
Continuous
 62
     7
370
     9
100
AcDbPolyline
 90
        4
 70
     1
 43
1.0
 10
-259.2250590453274
 20
597.9724286053633
 42
0.4142135623731
 10
-259.7250590453274
 20
598.4724286053632
 42
0.4142135623731
 10
-260.2250590453274
 20
597.9724286053633
 42
0.4142135623731
 10
-259.7250590453274
 20
597.4724286053633
 42
0.4142135623731
  0
LWPOLYLINE
  5
25A
330
1F
100
AcDbEntity
  8
C-4
  6
Continuous
 62
     7
370
     9
100
AcDbPolyline
 90
        4
 70
     1
 43
1.0
 10
-179.2250425493391
 20
597.9724286053633
 42
0.4142135623731
 10
-179.7250425493391
 20
598.4724286053632
 42
0.4142135623731
 10
-180.2250425493391
 20
597.9724286053633
 42
0.4142135623731
 10
-179.7250425493391
 20
597.4724286053633
 42
0.4142135623731
  0
LWPOLYLINE
  5
25B
330
1F
100
AcDbEntity
  8
C-4
  6
Continuous
 62
     7
370
     9
100
AcDbPolyline
 90
        4
 70
     1
 43
1.0
 10
-464.5137553343899
 20
718.9722339527029
 42
0.4142135623731
 10
-465.0137553343899
 20
719.4722339527028
 42
0.4142135623731
 10
-465.5137553343899
 20
718.9722339527029
 42
0.4142135623731
 10
-465.0137553343899
 20
718.4722339527029
 42
0.4142135623731
  0
LWPOLYLINE
  5
25C
330
1F
100
AcDbEntity
  8
C-4
  6
Continuous
 62
     7
370
     9
100
AcDbPolyline
 90
        4
 70
     1
 43
1.0
 10
-464.5137553343899
 20
764.9720393000425
 42
0.4142135623731
 10
-465.0137553343899
 20
765.4720393000424
 42
0.4142135623731
 10
-465.5137553343899
 20
764.9720393000425
 42
0.4142135623731
 10
-465.0137553343899
 20
764.4720393000425
 42
0.4142135623731
  0
TEXT
  5
25D
330
1F
100
AcDbEntity
  8
D-5
  6
Continuous
 62
     7
370
     9
100
AcDbText
 10
-1713.064467085218
 20
-701.5239120235958
 30
0.0
 40
22.86
  1
ＦＢ４×２５（ＳＵＳ３０４）
 41
1.154761904761905
  7
ＭＳ ゴシック
100
AcDbText
  0
LINE
  5
25E
330
1F
100
AcDbEntity
  8
D-5
  6
Continuous
 62
     7
370
     9
100
AcDbLine
 10
-1723.5723788447
 20
-666.6694311193517
 30
0.0
 11
-1218.637140377147
 21
-666.6694311193517
 31
0.0
  0
LINE
  5
25F
330
1F
100
AcDbEntity
  8
C-B
  6
JWW_DASHED3
 62
     6
370
     5
100
AcDbLine
 10
-217.7250507973332
 20
925.9724714949325
 30
0.0
 11
-217.7250507973332
 21
695.9727024387669
 31
0.0
  0
LINE
  5
260
330
1F
100
AcDbEntity
  8
C-B
  6
JWW_DASHED3
 62
     6
370
     5
100
AcDbLine
 10
-221.7250507973332
 20
925.9724714949325
 30
0.0
 11
-217.7250507973332
 21
925.9724714949325
 31
0.0
  0
LINE
  5
261
330
1F
100
AcDbEntity
  8
C-B
  6
JWW_DASHED3
 62
     6
370
     5
100
AcDbLine
 10
-221.7250507973332
 20
925.9724714949325
 30
0.0
 11
-221.7250507973332
 21
695.9727024387669
 31
0.0
  0
LINE
  5
262
330
1F
100
AcDbEntity
  8
C-B
  6
JWW_DASHED3
 62
     6
370
     5
100
AcDbLine
 10
-221.7250507973332
 20
695.9727024387669
 30
0.0
 11
-217.7250507973332
 21
695.9727024387669
 31
0.0
  0
LINE
  5
263
330
1F
100
AcDbEntity
  8
C-B
  6
JWW_DASHED3
 62
     6
370
     5
100
AcDbLine
 10
-541.7247456215517
 20
925.9724714949325
 30
0.0
 11
-541.7247456215517
 21
695.9727024387669
 31
0.0
  0
LINE
  5
264
330
1F
100
AcDbEntity
  8
C-B
  6
JWW_DASHED3
 62
     6
370
     5
100
AcDbLine
 10
-537.7247456215516
 20
925.9724714949325
 30
0.0
 11
-541.7247456215517
 21
925.9724714949325
 31
0.0
  0
LINE
  5
265
330
1F
100
AcDbEntity
  8
C-B
  6
JWW_DASHED3
 62
     6
370
     5
100
AcDbLine
 10
-537.7247456215516
 20
925.9724714949325
 30
0.0
 11
-537.7247456215516
 21
695.9727024387669
 31
0.0
  0
LINE
  5
266
330
1F
100
AcDbEntity
  8
C-B
  6
JWW_DASHED3
 62
     6
370
     5
100
AcDbLine
 10
-537.7247456215516
 20
695.9727024387669
 30
0.0
 11
-541.7247456215517
 21
695.9727024387669
 31
0.0
  0
LINE
  5
267
330
1F
100
AcDbEntity
  8
C-B
  6
JWW_DASHED3
 62
     6
370
     5
100
AcDbLine
 10
-41.72482810149262
 20
925.9724714949325
 30
0.0
 11
-41.72482810149262
 21
695.9727024387669
 31
0.0
  0
LINE
  5
268
330
1F
100
AcDbEntity
  8
C-B
  6
JWW_DASHED3
 62
     6
370
     5
100
AcDbLine
 10
-37.72482810149256
 20
925.9724714949325
 30
0.0
 11
-41.72482810149262
 21
925.9724714949325
 31
0.0
  0
LINE
  5
269
330
1F
100
AcDbEntity
  8
C-B
  6
JWW_DASHED3
 62
     6
370
     5
100
AcDbLine
 10
-37.72482810149256
 20
925.9724714949325
 30
0.0
 11
-37.72482810149256
 21
695.9727024387669
 31
0.0
  0
LINE
  5
26A
330
1F
100
AcDbEntity
  8
C-B
  6
JWW_DASHED3
 62
     6
370
     5
100
AcDbLine
 10
-37.72482810149256
 20
695.9727024387669
 30
0.0
 11
-41.72482810149262
 21
695.9727024387669
 31
0.0
  0
LINE
  5
26B
330
1F
100
AcDbEntity
  8
C-B
  6
JWW_DASHED3
 62
     6
370
     5
100
AcDbLine
 10
458.2752131384777
 20
925.9724714949325
 30
0.0
 11
458.2752131384777
 21
695.9727024387669
 31
0.0
  0
LINE
  5
26C
330
1F
100
AcDbEntity
  8
C-B
  6
JWW_DASHED3
 62
     6
370
     5
100
AcDbLine
 10
462.2752131384777
 20
925.9724714949325
 30
0.0
 11
458.2752131384777
 21
925.9724714949325
 31
0.0
  0
LINE
  5
26D
330
1F
100
AcDbEntity
  8
C-B
  6
JWW_DASHED3
 62
     6
370
     5
100
AcDbLine
 10
462.2752131384777
 20
925.9724714949325
 30
0.0
 11
462.2752131384777
 21
695.9727024387669
 31
0.0
  0
LINE
  5
26E
330
1F
100
AcDbEntity
  8
C-B
  6
JWW_DASHED3
 62
     6
370
     5
100
AcDbLine
 10
462.2752131384777
 20
695.9727024387669
 30
0.0
 11
458.2752131384777
 21
695.9727024387669
 31
0.0
  0
LINE
  5
26F
330
1F
100
AcDbEntity
  8
C-B
  6
JWW_DASHED3
 62
     6
370
     5
100
AcDbLine
 10
282.2751141625485
 20
925.9724714949325
 30
0.0
 11
282.2751141625485
 21
695.9727024387669
 31
0.0
  0
LINE
  5
270
330
1F
100
AcDbEntity
  8
C-B
  6
JWW_DASHED3
 62
     6
370
     5
100
AcDbLine
 10
278.2751141625486
 20
925.9724714949325
 30
0.0
 11
282.2751141625485
 21
925.9724714949325
 31
0.0
  0
LINE
  5
271
330
1F
100
AcDbEntity
  8
C-B
  6
JWW_DASHED3
 62
     6
370
     5
100
AcDbLine
 10
278.2751141625486
 20
925.9724714949325
 30
0.0
 11
278.2751141625486
 21
695.9727024387669
 31
0.0
  0
LINE
  5
272
330
1F
100
AcDbEntity
  8
C-B
  6
JWW_DASHED3
 62
     6
370
     5
100
AcDbLine
 10
278.2751141625486
 20
695.9727024387669
 30
0.0
 11
282.2751141625485
 21
695.9727024387669
 31
0.0
  0
LINE
  5
273
330
1F
100
AcDbEntity
  8
C-B
  6
JWW_DASHED3
 62
     6
370
     5
100
AcDbLine
 10
-717.7250920373037
 20
925.9724714949325
 30
0.0
 11
-717.7250920373037
 21
695.9727024387669
 31
0.0
  0
LINE
  5
274
330
1F
100
AcDbEntity
  8
C-B
  6
JWW_DASHED3
 62
     6
370
     5
100
AcDbLine
 10
-721.7250920373039
 20
925.9724714949325
 30
0.0
 11
-717.7250920373037
 21
925.9724714949325
 31
0.0
  0
LINE
  5
275
330
1F
100
AcDbEntity
  8
C-B
  6
JWW_DASHED3
 62
     6
370
     5
100
AcDbLine
 10
-721.7250920373039
 20
925.9724714949325
 30
0.0
 11
-721.7250920373039
 21
695.9727024387669
 31
0.0
  0
LINE
  5
276
330
1F
100
AcDbEntity
  8
C-B
  6
JWW_DASHED3
 62
     6
370
     5
100
AcDbLine
 10
-721.7250920373039
 20
695.9727024387669
 30
0.0
 11
-717.7250920373037
 21
695.9727024387669
 31
0.0
  0
ENDSEC
  0
SECTION
  2
OBJECTS
  0
DICTIONARY
  5
C
330
0
100
AcDbDictionary
281
     1
  3
ACAD_GROUP
350
D
  3
ACAD_LAYOUT
350
1A
  3
ACAD_MLEADERSTYLE
350
278
  3
ACAD_MLINESTYLE
350
17
  3
ACAD_PLOTSETTINGS
350
19
  3
ACAD_PLOTSTYLENAME
350
E
  3
ACAD_TABLESTYLE
350
277
  3
ACAD_VISUALSTYLE
350
2A
  0
DICTIONARY
  5
D
102
{ACAD_REACTORS
330
C
102
}
330
C
100
AcDbDictionary
281
     1
  0
DICTIONARY
  5
1A
102
{ACAD_REACTORS
330
C
102
}
330
C
100
AcDbDictionary
281
     1
  3
Layout1
350
1E
  3
Layout2
350
26
  3
Model
350
22
  0
DICTIONARY
  5
278
102
{ACAD_REACTORS
330
C
102
}
330
C
100
AcDbDictionary
281
     1
  0
DICTIONARY
  5
17
102
{ACAD_REACTORS
330
C
102
}
330
C
100
AcDbDictionary
281
     1
  3
Standard
350
18
  0
DICTIONARY
  5
19
102
{ACAD_REACTORS
330
C
102
}
330
C
100
AcDbDictionary
281
     1
  0
ACDBDICTIONARYWDFLT
  5
E
102
{ACAD_REACTORS
330
C
102
}
330
C
100
AcDbDictionary
281
     1
  3
Normal
350
F
100
AcDbDictionaryWithDefault
340
F
  0
DICTIONARY
  5
277
102
{ACAD_REACTORS
330
C
102
}
330
C
100
AcDbDictionary
281
     1
  0
DICTIONARY
  5
2A
102
{ACAD_REACTORS
330
C
102
}
330
C
100
AcDbDictionary
281
     1
  3
2dWireframe
350
2F
  3
3D Hidden
350
31
  3
3dWireframe
350
30
  3
Basic
350
32
  3
Brighten
350
36
  3
ColorChange
350
3A
  3
Conceptual
350
34
  3
Dim
350
35
  3
Facepattern
350
39
  3
Flat
350
2B
  3
FlatWithEdges
350
2C
  3
Gouraud
350
2D
  3
GouraudWithEdges
350
2E
  3
Linepattern
350
38
  3
Realistic
350
33
  3
Thicken
350
37
  0
LAYOUT
  5
1E
102
{ACAD_REACTORS
330
1A
102
}
330
1A
100
AcDbPlotSettings
  1

  2
none_device
  4

  6

 40
0.0
 41
0.0
 42
0.0
 43
0.0
 44
0.0
 45
0.0
 46
0.0
 47
0.0
 48
0.0
 49
0.0
140
0.0
141
0.0
142
1.0
143
1.0
 70
   688
 72
     0
 73
     0
 74
     5
  7

 75
    16
 76
     0
 77
     5
 78
   300
147
1.0
148
0.0
149
0.0
100
AcDbLayout
  1
Layout1
 70
     1
 71
     1
 10
0.0
 20
0.0
 11
420.0
 21
297.0
 12
0.0
 22
0.0
 32
0.0
 14
1.000000000000000E+20
 24
1.000000000000000E+20
 34
1.000000000000000E+20
 15
-1.000000000000000E+20
 25
-1.000000000000000E+20
 35
-1.000000000000000E+20
146
0.0
 13
0.0
 23
0.0
 33
0.0
 16
1.0
 26
0.0
 36
0.0
 17
0.0
 27
1.0
 37
0.0
 76
     0
330
1B
  0
LAYOUT
  5
26
102
{ACAD_REACTORS
330
1A
102
}
330
1A
100
AcDbPlotSettings
  1

  2
none_device
  4

  6

 40
0.0
 41
0.0
 42
0.0
 43
0.0
 44
0.0
 45
0.0
 46
0.0
 47
0.0
 48
0.0
 49
0.0
140
0.0
141
0.0
142
1.0
143
1.0
 70
   688
 72
     0
 73
     0
 74
     5
  7

 75
    16
 76
     0
 77
     5
 78
   300
147
1.0
148
0.0
149
0.0
100
AcDbLayout
  1
Layout2
 70
     1
 71
     2
 10
0.0
 20
0.0
 11
0.0
 21
0.0
 12
0.0
 22
0.0
 32
0.0
 14
0.0
 24
0.0
 34
0.0
 15
0.0
 25
0.0
 35
0.0
146
0.0
 13
0.0
 23
0.0
 33
0.0
 16
1.0
 26
0.0
 36
0.0
 17
0.0
 27
1.0
 37
0.0
 76
     0
330
23
  0
LAYOUT
  5
22
102
{ACAD_REACTORS
330
1A
102
}
330
1A
100
AcDbPlotSettings
  1

  2
none_device
  4

  6

 40
0.0
 41
0.0
 42
0.0
 43
0.0
 44
0.0
 45
0.0
 46
0.0
 47
0.0
 48
0.0
 49
0.0
140
0.0
141
0.0
142
1.0
143
1.0
 70
  1712
 72
     0
 73
     0
 74
     0
  7

 75
     0
 76
     0
 77
     5
 78
   300
147
1.0
148
0.0
149
0.0
100
AcDbLayout
  1
Model
 70
     1
 71
     0
 10
-2100.0
 20
-1485.0
 11
2100.0
 21
1485.0
 12
0.0
 22
0.0
 32
0.0
 14
-2100.0
 24
-1485.0
 34
0.0
 15
2100.0
 25
1485.0
 35
0.0
146
0.0
 13
0.0
 23
0.0
 33
0.0
 16
1.0
 26
0.0
 36
0.0
 17
0.0
 27
1.0
 37
0.0
 76
     0
330
1F
331
29
  0
MLINESTYLE
  5
18
102
{ACAD_REACTORS
330
17
102
}
330
17
100
AcDbMlineStyle
  2
Standard
 70
     0
  3

 62
   256
 51
90.0
 52
90.0
 71
     2
 49
0.5
 62
   256
  6
BYLAYER
 49
-0.5
 62
   256
  6
BYLAYER
  0
ACDBPLACEHOLDER
  5
F
102
{ACAD_REACTORS
330
E
102
}
330
E
  0
VISUALSTYLE
  5
2F
102
{ACAD_REACTORS
330
2A
102
}
330
2A
100
AcDbVisualStyle
  2
2dWireframe
 70
     4
 71
     0
 72
     2
 73
     0
 90
        0
 40
-0.6
 41
-30.0
 62
     5
 63
     7
421
 16777215
 74
     1
 91
        4
 64
     7
 65
   257
 75
     1
175
     1
 42
1.0
 92
        0
 66
   257
 43
1.0
 76
     1
 77
     6
 78
     2
 67
     7
 79
     5
170
     0
171
     0
290
     0
174
     0
 93
        1
 44
0.0
173
     0
291
     0
 45
0.0
1001
ACAD
1000
AcDbSavedByObjectVersion
1070
     0
  0
VISUALSTYLE
  5
31
102
{ACAD_REACTORS
330
2A
102
}
330
2A
100
AcDbVisualStyle
  2
3D Hidden
 70
     6
 71
     1
 72
     2
 73
     2
 90
        0
 40
-0.6
 41
-30.0
 62
     5
 63
     7
421
 16777215
 74
     2
 91
        2
 64
     7
 65
   257
 75
     2
175
     1
 42
40.0
 92
        0
 66
   257
 43
1.0
 76
     1
 77
     6
 78
     2
 67
     7
 79
     3
170
     0
171
     0
290
     0
174
     0
 93
        1
 44
0.0
173
     0
291
     0
 45
0.0
1001
ACAD
1000
AcDbSavedByObjectVersion
1070
     0
  0
VISUALSTYLE
  5
30
102
{ACAD_REACTORS
330
2A
102
}
330
2A
100
AcDbVisualStyle
  2
3dWireframe
 70
     5
 71
     0
 72
     2
 73
     0
 90
        0
 40
-0.6
 41
-30.0
 62
     5
 63
     7
421
 16777215
 74
     1
 91
        4
 64
     7
 65
   257
 75
     1
175
     1
 42
1.0
 92
        0
 66
   257
 43
1.0
 76
     1
 77
     6
 78
     2
 67
     7
 79
     5
170
     0
171
     0
290
     0
174
     0
 93
        1
 44
0.0
173
     0
291
     0
 45
0.0
1001
ACAD
1000
AcDbSavedByObjectVersion
1070
     0
  0
VISUALSTYLE
  5
32
102
{ACAD_REACTORS
330
2A
102
}
330
2A
100
AcDbVisualStyle
  2
Basic
 70
     7
 71
     1
 72
     0
 73
     1
 90
        0
 40
-0.6
 41
-30.0
 62
     5
 63
     7
421
 16777215
 74
     0
 91
        4
 64
     7
 65
   257
 75
     1
175
     1
 42
1.0
 92
        8
 66
     7
 43
1.0
 76
     1
 77
     6
 78
     2
 67
     7
 79
     5
170
     0
171
     0
290
     0
174
     0
 93
        1
 44
0.0
173
     0
291
     1
 45
0.0
1001
ACAD
1000
AcDbSavedByObjectVersion
1070
     0
  0
VISUALSTYLE
  5
36
102
{ACAD_REACTORS
330
2A
102
}
330
2A
100
AcDbVisualStyle
  2
Brighten
 70
    12
 71
     2
 72
     2
 73
     0
 90
        0
 40
-0.6
 41
-30.0
 62
     5
 63
     7
421
 16777215
 74
     1
 91
        4
 64
     7
 65
   257
 75
     1
175
     1
 42
1.0
 92
        8
 66
     7
 43
1.0
 76
     1
 77
     6
 78
     2
 67
     7
 79
     5
170
     0
171
     0
290
     0
174
     0
 93
        1
 44
50.0
173
     0
291
     1
 45
0.0
1001
ACAD
1000
AcDbSavedByObjectVersion
1070
     0
  0
VISUALSTYLE
  5
3A
102
{ACAD_REACTORS
330
2A
102
}
330
2A
100
AcDbVisualStyle
  2
ColorChange
 70
    16
 71
     2
 72
     2
 73
     3
 90
        0
 40
-0.6
 41
-30.0
 62
     5
 63
     8
421
  8421504
 74
     1
 91
        4
 64
     7
 65
   257
 75
     1
175
     1
 42
1.0
 92
        8
 66
     8
424
  8421504
 43
1.0
 76
     1
 77
     6
 78
     2
 67
     7
 79
     5
170
     0
171
     0
290
     0
174
     0
 93
        1
 44
0.0
173
     0
291
     1
 45
0.0
1001
ACAD
1000
AcDbSavedByObjectVersion
1070
     0
  0
VISUALSTYLE
  5
34
102
{ACAD_REACTORS
330
2A
102
}
330
2A
100
AcDbVisualStyle
  2
Conceptual
 70
     9
 71
     3
 72
     2
 73
     0
 90
        0
 40
-0.6
 41
-30.0
 62
     5
 63
     7
421
 16777215
 74
     2
 91
        2
 64
     7
 65
   257
 75
     1
175
     1
 42
40.0
 92
        8
 66
     7
 43
1.0
 76
     1
 77
     6
 78
     2
 67
     7
 79
     3
170
     0
171
     0
290
     0
174
     0
 93
        1
 44
0.0
173
     0
291
     0
 45
0.0
1001
ACAD
1000
AcDbSavedByObjectVersion
1070
     0
  0
VISUALSTYLE
  5
35
102
{ACAD_REACTORS
330
2A
102
}
330
2A
100
AcDbVisualStyle
  2
Dim
 70
    11
 71
     2
 72
     2
 73
     0
 90
        0
 40
-0.6
 41
-30.0
 62
     5
 63
     7
421
 16777215
 74
     1
 91
        4
 64
     7
 65
   257
 75
     1
175
     1
 42
1.0
 92
        8
 66
     7
 43
1.0
 76
     1
 77
     6
 78
     2
 67
     7
 79
     5
170
     0
171
     0
290
     0
174
     0
 93
        1
 44
-50.0
173
     0
291
     1
 45
0.0
1001
ACAD
1000
AcDbSavedByObjectVersion
1070
     0
  0
VISUALSTYLE
  5
39
102
{ACAD_REACTORS
330
2A
102
}
330
2A
100
AcDbVisualStyle
  2
Facepattern
 70
    15
 71
     2
 72
     2
 73
     0
 90
        0
 40
-0.6
 41
-30.0
 62
     5
 63
     7
421
 16777215
 74
     1
 91
        4
 64
     7
 65
   257
 75
     1
175
     1
 42
1.0
 92
        8
 66
     7
 43
1.0
 76
     1
 77
     6
 78
     2
 67
     7
 79
     5
170
     0
171
     0
290
     0
174
     0
 93
        1
 44
0.0
173
     0
291
     1
 45
0.0
1001
ACAD
1000
AcDbSavedByObjectVersion
1070
     0
  0
VISUALSTYLE
  5
2B
102
{ACAD_REACTORS
330
2A
102
}
330
2A
100
AcDbVisualStyle
  2
Flat
 70
     0
 71
     2
 72
     1
 73
     1
 90
        2
 40
-0.6
 41
30.0
 62
     5
 63
     7
421
 16777215
 74
     0
 91
        4
 64
     7
 65
   257
 75
     1
175
     1
 42
1.0
 92
        8
 66
     7
 43
1.0
 76
     1
 77
     6
 78
     2
 67
     7
 79
     5
170
     0
171
     0
290
     0
174
     0
 93
       13
 44
0.0
173
     0
291
     1
 45
0.0
1001
ACAD
1000
AcDbSavedByObjectVersion
1070
     0
  0
VISUALSTYLE
  5
2C
102
{ACAD_REACTORS
330
2A
102
}
330
2A
100
AcDbVisualStyle
  2
FlatWithEdges
 70
     1
 71
     2
 72
     1
 73
     1
 90
        2
 40
-0.6
 41
30.0
 62
     5
 63
     7
421
 16777215
 74
     1
 91
        4
 64
     7
 65
   257
 75
     1
175
     1
 42
1.0
 92
        0
 66
   257
 43
1.0
 76
     1
 77
     6
 78
     2
 67
     7
 79
     5
170
     0
171
     0
290
     0
174
     0
 93
       13
 44
0.0
173
     0
291
     1
 45
0.0
1001
ACAD
1000
AcDbSavedByObjectVersion
1070
     0
  0
VISUALSTYLE
  5
2D
102
{ACAD_REACTORS
330
2A
102
}
330
2A
100
AcDbVisualStyle
  2
Gouraud
 70
     2
 71
     2
 72
     2
 73
     1
 90
        2
 40
-0.6
 41
30.0
 62
     5
 63
     7
421
 16777215
 74
     0
 91
        4
 64
     7
 65
   257
 75
     1
175
     1
 42
1.0
 92
        0
 66
     7
 43
1.0
 76
     1
 77
     6
 78
     2
 67
     7
 79
     5
170
     0
171
     0
290
     0
174
     0
 93
       13
 44
0.0
173
     0
291
     1
 45
0.0
1001
ACAD
1000
AcDbSavedByObjectVersion
1070
     0
  0
VISUALSTYLE
  5
2E
102
{ACAD_REACTORS
330
2A
102
}
330
2A
100
AcDbVisualStyle
  2
GouraudWithEdges
 70
     3
 71
     2
 72
     2
 73
     1
 90
        2
 40
-0.6
 41
30.0
 62
     5
 63
     7
421
 16777215
 74
     1
 91
        4
 64
     7
 65
   257
 75
     1
175
     1
 42
1.0
 92
        0
 66
   257
 43
1.0
 76
     1
 77
     6
 78
     2
 67
     7
 79
     5
170
     0
171
     0
290
     0
174
     0
 93
       13
 44
0.0
173
     0
291
     1
 45
0.0
1001
ACAD
1000
AcDbSavedByObjectVersion
1070
     0
  0
VISUALSTYLE
  5
38
102
{ACAD_REACTORS
330
2A
102
}
330
2A
100
AcDbVisualStyle
  2
Linepattern
 70
    14
 71
     2
 72
     2
 73
     0
 90
        0
 40
-0.6
 41
-30.0
 62
     5
 63
     7
421
 16777215
 74
     1
 91
        4
 64
     7
 65
   257
 75
     7
175
     7
 42
1.0
 92
        8
 66
     7
 43
1.0
 76
     1
 77
     6
 78
     2
 67
     7
 79
     5
170
     0
171
     0
290
     0
174
     0
 93
        1
 44
0.0
173
     0
291
     1
 45
0.0
1001
ACAD
1000
AcDbSavedByObjectVersion
1070
     0
  0
VISUALSTYLE
  5
33
102
{ACAD_REACTORS
330
2A
102
}
330
2A
100
AcDbVisualStyle
  2
Realistic
 70
     8
 71
     2
 72
     2
 73
     0
 90
        0
 40
-0.6
 41
-30.0
 62
     5
 63
     7
421
 16777215
 74
     1
 91
        0
 64
     7
 65
   257
 75
     1
175
     1
 42
1.0
 92
        8
 66
     8
424
  7895160
 43
1.0
 76
     1
 77
     6
 78
     2
 67
     7
 79
     5
170
     0
171
     0
290
     0
174
     0
 93
       13
 44
0.0
173
     0
291
     0
 45
0.0
1001
ACAD
1000
AcDbSavedByObjectVersion
1070
     0
  0
VISUALSTYLE
  5
37
102
{ACAD_REACTORS
330
2A
102
}
330
2A
100
AcDbVisualStyle
  2
Thicken
 70
    13
 71
     2
 72
     2
 73
     0
 90
        0
 40
-0.6
 41
-30.0
 62
     5
 63
     7
421
 16777215
 74
     1
 91
        4
 64
     7
 65
   257
 75
     1
175
     1
 42
1.0
 92
       12
 66
     7
 43
1.0
 76
     1
 77
     6
 78
     2
 67
     7
 79
     5
170
     0
171
     0
290
     0
174
     0
 93
        1
 44
0.0
173
     0
291
     1
 45
0.0
1001
ACAD
1000
AcDbSavedByObjectVersion
1070
     0
  0
ENDSEC
  0
EOF
