  0
SECTION
  2
HEADER
  9
$ACADVER
  1
AC1018
  9
$ACADMAINTVER
 70
     0
  9
$DWGCODEPAGE
  3
ANSI_932
  9
$INSBASE
 10
0.0
 20
0.0
 30
0.0
  9
$EXTMIN
 10
-2100.0
 20
-1485.0
 30
0.0
  9
$EXTMAX
 10
2100.0
 20
1485.0
 30
0.0
  9
$LIMMIN
 10
-2100.0
 20
-1485.0
  9
$LIMMAX
 10
2100.0
 20
1485.0
  9
$ORTHOMODE
 70
     0
  9
$REGENMODE
 70
     1
  9
$FILLMODE
 70
     1
  9
$QTEXTMODE
 70
     0
  9
$MIRRTEXT
 70
     1
  9
$LTSCALE
 40
10.0
  9
$ATTMODE
 70
     1
  9
$TEXTSIZE
 40
2.5
  9
$TRACEWID
 40
1.0
  9
$TEXTSTYLE
  7
Standard
  9
$CLAYER
  8
0
  9
$CELTYPE
  6
ByLayer
  9
$CECOLOR
 62
   256
  9
$CELTSCALE
 40
1.0
  9
$DISPSILH
 70
     0
  9
$DIMSCALE
 40
1.0
  9
$DIMASZ
 40
2.5
  9
$DIMEXO
 40
0.625
  9
$DIMDLI
 40
3.75
  9
$DIMRND
 40
0.0
  9
$DIMDLE
 40
0.0
  9
$DIMEXE
 40
1.25
  9
$DIMTP
 40
0.0
  9
$DIMTM
 40
0.0
  9
$DIMTXT
 40
2.5
  9
$DIMCEN
 40
2.5
  9
$DIMTSZ
 40
0.0
  9
$DIMTOL
 70
     0
  9
$DIMLIM
 70
     0
  9
$DIMTIH
 70
     0
  9
$DIMTOH
 70
     0
  9
$DIMSE1
 70
     0
  9
$DIMSE2
 70
     0
  9
$DIMTAD
 70
     1
  9
$DIMZIN
 70
     8
  9
$DIMBLK
  1

  9
$DIMASO
 70
     1
  9
$DIMSHO
 70
     1
  9
$DIMPOST
  1

  9
$DIMAPOST
  1

  9
$DIMALT
 70
     0
  9
$DIMALTD
 70
     3
  9
$DIMALTF
 40
0.03937007874016
  9
$DIMLFAC
 40
1.0
  9
$DIMTOFL
 70
     1
  9
$DIMTVP
 40
0.0
  9
$DIMTIX
 70
     0
  9
$DIMSOXD
 70
     0
  9
$DIMSAH
 70
     0
  9
$DIMBLK1
  1

  9
$DIMBLK2
  1

  9
$DIMSTYLE
  2
ISO-25
  9
$DIMCLRD
 70
     0
  9
$DIMCLRE
 70
     0
  9
$DIMCLRT
 70
     0
  9
$DIMTFAC
 40
1.0
  9
$DIMGAP
 40
0.625
  9
$DIMJUST
 70
     0
  9
$DIMSD1
 70
     0
  9
$DIMSD2
 70
     0
  9
$DIMTOLJ
 70
     0
  9
$DIMTZIN
 70
     8
  9
$DIMALTZ
 70
     0
  9
$DIMALTTZ
 70
     0
  9
$DIMUPT
 70
     0
  9
$DIMDEC
 70
     2
  9
$DIMTDEC
 70
     2
  9
$DIMALTU
 70
     2
  9
$DIMALTTD
 70
     3
  9
$DIMTXSTY
  7
Standard
  9
$DIMAUNIT
 70
     0
  9
$DIMADEC
 70
     0
  9
$DIMALTRND
 40
0.0
  9
$DIMAZIN
 70
     0
  9
$DIMDSEP
 70
    44
  9
$DIMATFIT
 70
     3
  9
$DIMFRAC
 70
     0
  9
$DIMLDRBLK
  1

  9
$DIMLUNIT
 70
     2
  9
$DIMLWD
 70
    -2
  9
$DIMLWE
 70
    -2
  9
$DIMTMOVE
 70
     0
  9
$LUNITS
 70
     2
  9
$LUPREC
 70
     4
  9
$SKETCHINC
 40
1.0
  9
$FILLETRAD
 40
10.0
  9
$AUNITS
 70
     0
  9
$AUPREC
 70
     0
  9
$MENU
  1
.
  9
$ELEVATION
 40
0.0
  9
$PELEVATION
 40
0.0
  9
$THICKNESS
 40
0.0
  9
$LIMCHECK
 70
     0
  9
$CHAMFERA
 40
10.0
  9
$CHAMFERB
 40
10.0
  9
$CHAMFERC
 40
20.0
  9
$CHAMFERD
 40
0.0
  9
$SKPOLY
 70
     0
  9
$TDCREATE
 40
2456499.586382465
  9
$TDUCREATE
 40
2456499.211382465
  9
$TDUPDATE
 40
2456499.586382477
  9
$TDUUPDATE
 40
2456499.211382477
  9
$TDINDWG
 40
0.0000000116
  9
$TDUSRTIMER
 40
0.0000000116
  9
$USRTIMER
 70
     1
  9
$ANGBASE
 50
0.0
  9
$ANGDIR
 70
     0
  9
$PDMODE
 70
     0
  9
$PDSIZE
 40
0.0
  9
$PLINEWID
 40
0.0
  9
$SPLFRAME
 70
     0
  9
$SPLINETYPE
 70
     6
  9
$SPLINESEGS
 70
     8
  9
$HANDSEED
  5
246
  9
$SURFTAB1
 70
     6
  9
$SURFTAB2
 70
     6
  9
$SURFTYPE
 70
     6
  9
$SURFU
 70
     6
  9
$SURFV
 70
     6
  9
$UCSBASE
  2

  9
$UCSNAME
  2

  9
$UCSORG
 10
0.0
 20
0.0
 30
0.0
  9
$UCSXDIR
 10
1.0
 20
0.0
 30
0.0
  9
$UCSYDIR
 10
0.0
 20
1.0
 30
0.0
  9
$UCSORTHOREF
  2

  9
$UCSORTHOVIEW
 70
     0
  9
$UCSORGTOP
 10
0.0
 20
0.0
 30
0.0
  9
$UCSORGBOTTOM
 10
0.0
 20
0.0
 30
0.0
  9
$UCSORGLEFT
 10
0.0
 20
0.0
 30
0.0
  9
$UCSORGRIGHT
 10
0.0
 20
0.0
 30
0.0
  9
$UCSORGFRONT
 10
0.0
 20
0.0
 30
0.0
  9
$UCSORGBACK
 10
0.0
 20
0.0
 30
0.0
  9
$PUCSBASE
  2

  9
$PUCSNAME
  2

  9
$PUCSORG
 10
0.0
 20
0.0
 30
0.0
  9
$PUCSXDIR
 10
1.0
 20
0.0
 30
0.0
  9
$PUCSYDIR
 10
0.0
 20
1.0
 30
0.0
  9
$PUCSORTHOREF
  2

  9
$PUCSORTHOVIEW
 70
     0
  9
$PUCSORGTOP
 10
0.0
 20
0.0
 30
0.0
  9
$PUCSORGBOTTOM
 10
0.0
 20
0.0
 30
0.0
  9
$PUCSORGLEFT
 10
0.0
 20
0.0
 30
0.0
  9
$PUCSORGRIGHT
 10
0.0
 20
0.0
 30
0.0
  9
$PUCSORGFRONT
 10
0.0
 20
0.0
 30
0.0
  9
$PUCSORGBACK
 10
0.0
 20
0.0
 30
0.0
  9
$USERI1
 70
     0
  9
$USERI2
 70
     0
  9
$USERI3
 70
     0
  9
$USERI4
 70
     0
  9
$USERI5
 70
     0
  9
$USERR1
 40
0.0
  9
$USERR2
 40
0.0
  9
$USERR3
 40
0.0
  9
$USERR4
 40
0.0
  9
$USERR5
 40
0.0
  9
$WORLDVIEW
 70
     1
  9
$SHADEDGE
 70
     3
  9
$SHADEDIF
 70
    70
  9
$TILEMODE
 70
     1
  9
$MAXACTVP
 70
    64
  9
$PINSBASE
 10
0.0
 20
0.0
 30
0.0
  9
$PLIMCHECK
 70
     0
  9
$PEXTMIN
 10
1.000000000000000E+20
 20
1.000000000000000E+20
 30
1.000000000000000E+20
  9
$PEXTMAX
 10
-1.000000000000000E+20
 20
-1.000000000000000E+20
 30
-1.000000000000000E+20
  9
$PLIMMIN
 10
0.0
 20
0.0
  9
$PLIMMAX
 10
420.0
 20
297.0
  9
$UNITMODE
 70
     0
  9
$VISRETAIN
 70
     1
  9
$PLINEGEN
 70
     0
  9
$PSLTSCALE
 70
     1
  9
$TREEDEPTH
 70
  3020
  9
$CMLSTYLE
  2
Standard
  9
$CMLJUST
 70
     0
  9
$CMLSCALE
 40
20.0
  9
$PROXYGRAPHICS
 70
     1
  9
$MEASUREMENT
 70
     1
  9
$CELWEIGHT
370
    -1
  9
$ENDCAPS
280
     0
  9
$JOINSTYLE
280
     0
  9
$LWDISPLAY
290
     0
  9
$INSUNITS
 70
     4
  9
$HYPERLINKBASE
  1

  9
$STYLESHEET
  1

  9
$XEDIT
290
     1
  9
$CEPSNTYPE
380
     0
  9
$PSTYLEMODE
290
     1
  9
$FINGERPRINTGUID
  2
{D5E2EAFA-214E-423B-BA06-34A7751EE63B}
  9
$VERSIONGUID
  2
{FAEB1C32-E019-11D5-929B-00C0DF256EC4}
  9
$EXTNAMES
290
     1
  9
$PSVPSCALE
 40
0.0
  9
$OLESTARTUP
290
     0
  9
$SORTENTS
280
   127
  9
$INDEXCTL
280
     0
  9
$HIDETEXT
280
     1
  9
$XCLIPFRAME
290
     0
  9
$HALOGAP
280
     0
  9
$OBSCOLOR
 70
   257
  9
$OBSLTYPE
280
     0
  9
$INTERSECTIONDISPLAY
280
     0
  9
$INTERSECTIONCOLOR
 70
   257
  9
$DIMASSOC
280
     2
  9
$PROJECTNAME
  1

  0
ENDSEC
  0
SECTION
  2
CLASSES
  0
CLASS
  1
ACDBDICTIONARYWDFLT
  2
AcDbDictionaryWithDefault
  3
ObjectDBX Classes
 90
        0
 91
        4
280
     0
281
     0
  0
CLASS
  1
VISUALSTYLE
  2
AcDbVisualStyle
  3
ObjectDBX Classes
 90
     4095
 91
        4
280
     0
281
     0
  0
ENDSEC
  0
SECTION
  2
TABLES
  0
TABLE
  2
VPORT
  5
8
330
0
100
AcDbSymbolTable
 70
     1
  0
VPORT
  5
29
330
8
100
AcDbSymbolTableRecord
100
AcDbViewportTableRecord
  2
*Active
 70
     0
 10
0.0
 20
0.0
 11
1.0
 21
1.0
 12
0.0
 22
0.0
 13
0.0
 23
0.0
 14
10.0
 24
10.0
 15
10.0
 25
10.0
 16
0.0
 26
0.0
 36
1.0
 17
0.0
 27
0.0
 37
0.0
 40
3267.0
 41
1.414141414141414
 42
50.0
 43
0.0
 44
0.0
 50
0.0
 51
0.0
 71
     0
 72
 10000
 73
     1
 74
     3
 75
     0
 76
     0
 77
     0
 78
     0
281
     0
 65
     1
110
0.0
120
0.0
130
0.0
111
1.0
121
0.0
131
0.0
112
0.0
122
1.0
132
0.0
 79
     0
146
0.0
  0
ENDTAB
  0
TABLE
  2
LTYPE
  5
5
330
0
100
AcDbSymbolTable
 70
     4
  0
LTYPE
  5
14
330
5
100
AcDbSymbolTableRecord
100
AcDbLinetypeTableRecord
  2
ByBlock
 70
     0
  3

 72
    65
 73
     0
 40
0.0
  0
LTYPE
  5
15
330
5
100
AcDbSymbolTableRecord
100
AcDbLinetypeTableRecord
  2
ByLayer
 70
     0
  3

 72
    65
 73
     0
 40
0.0
  0
LTYPE
  5
16
330
5
100
AcDbSymbolTableRecord
100
AcDbLinetypeTableRecord
  2
Continuous
 70
     0
  3
Solid line
 72
    65
 73
     0
 40
0.0
  0
LTYPE
  5
3C
330
5
100
AcDbSymbolTableRecord
100
AcDbLinetypeTableRecord
  2
JWW_DASHED3
 70
     0
  3
---  ------  ------  ------  ---
 72
    65
 73
     2
 40
3.386666666666667
 49
2.54
 74
     0
 49
-0.8466666666666667
 74
     0
  0
LTYPE
  5
3D
330
5
100
AcDbSymbolTableRecord
100
AcDbLinetypeTableRecord
  2
JWW_CENTER1
 70
     0
  3
-----  --  ----------  --  -----
 72
    65
 73
     4
 40
6.773333333333333
 49
4.233333333333333
 74
     0
 49
-0.8466666666666667
 74
     0
 49
0.8466666666666667
 74
     0
 49
-0.8466666666666667
 74
     0
  0
LTYPE
  5
3E
330
5
100
AcDbSymbolTableRecord
100
AcDbLinetypeTableRecord
  2
JWW_CENTER2
 70
     0
  3
-------------  --  -------------
 72
    65
 73
     4
 40
13.54666666666667
 49
11.00666666666667
 74
     0
 49
-0.8466666666666667
 74
     0
 49
0.8466666666666667
 74
     0
 49
-0.8466666666666667
 74
     0
  0
ENDTAB
  0
TABLE
  2
LAYER
  5
2
330
0
100
AcDbSymbolTable
 70
    17
  0
LAYER
  5
10
330
2
100
AcDbSymbolTableRecord
100
AcDbLayerTableRecord
  2
0
 70
     0
 62
     7
  6
Continuous
370
    -3
390
F
  0
LAYER
  5
3F
330
2
100
AcDbSymbolTableRecord
100
AcDbLayerTableRecord
  2
C-A
 70
     0
 62
     7
  6
Continuous
370
    -3
390
F
  0
LAYER
  5
40
330
2
100
AcDbSymbolTableRecord
100
AcDbLayerTableRecord
  2
C-1
 70
     0
 62
     7
  6
Continuous
370
    -3
390
F
  0
LAYER
  5
41
330
2
100
AcDbSymbolTableRecord
100
AcDbLayerTableRecord
  2
C-2
 70
     0
 62
     7
  6
Continuous
370
    -3
390
F
  0
LAYER
  5
42
330
2
100
AcDbSymbolTableRecord
100
AcDbLayerTableRecord
  2
C-4
 70
     0
 62
     7
  6
Continuous
370
    -3
390
F
  0
LAYER
  5
43
330
2
100
AcDbSymbolTableRecord
100
AcDbLayerTableRecord
  2
C-3
 70
     0
 62
     7
  6
Continuous
370
    -3
390
F
  0
LAYER
  5
44
330
2
100
AcDbSymbolTableRecord
100
AcDbLayerTableRecord
  2
C-0
 70
     0
 62
     7
  6
Continuous
370
    -3
390
F
  0
LAYER
  5
45
330
2
100
AcDbSymbolTableRecord
100
AcDbLayerTableRecord
  2
C-5
 70
     0
 62
     7
  6
Continuous
370
    -3
390
F
  0
LAYER
  5
46
330
2
100
AcDbSymbolTableRecord
100
AcDbLayerTableRecord
  2
C-B
 70
     0
 62
     7
  6
Continuous
370
    -3
390
F
  0
LAYER
  5
47
330
2
100
AcDbSymbolTableRecord
100
AcDbLayerTableRecord
  2
D-A
 70
     0
 62
     7
  6
Continuous
370
    -3
390
F
  0
LAYER
  5
48
330
2
100
AcDbSymbolTableRecord
100
AcDbLayerTableRecord
  2
D-4
 70
     0
 62
     7
  6
Continuous
370
    -3
390
F
  0
LAYER
  5
49
330
2
100
AcDbSymbolTableRecord
100
AcDbLayerTableRecord
  2
D-5
 70
     0
 62
     7
  6
Continuous
370
    -3
390
F
  0
LAYER
  5
4A
330
2
100
AcDbSymbolTableRecord
100
AcDbLayerTableRecord
  2
D-6
 70
     0
 62
     7
  6
Continuous
370
    -3
390
F
  0
LAYER
  5
4B
330
2
100
AcDbSymbolTableRecord
100
AcDbLayerTableRecord
  2
D-9
 70
     0
 62
     7
  6
Continuous
370
    -3
390
F
  0
LAYER
  5
4C
330
2
100
AcDbSymbolTableRecord
100
AcDbLayerTableRecord
  2
D-1
 70
     0
 62
     7
  6
Continuous
370
    -3
390
F
  0
LAYER
  5
4D
330
2
100
AcDbSymbolTableRecord
100
AcDbLayerTableRecord
  2
D-2
 70
     0
 62
     7
  6
Continuous
370
    -3
390
F
  0
LAYER
  5
4E
330
2
100
AcDbSymbolTableRecord
100
AcDbLayerTableRecord
  2
F-4
 70
     0
 62
     7
  6
Continuous
370
    -3
390
F
  0
ENDTAB
  0
TABLE
  2
STYLE
  5
3
330
0
100
AcDbSymbolTable
 70
     2
  0
STYLE
  5
11
330
3
100
AcDbSymbolTableRecord
100
AcDbTextStyleTableRecord
  2
Standard
 70
     0
 40
0.0
 41
1.0
 50
0.0
 71
     0
 42
2.5
  3
txt
  4

1001
ACAD
1000

1071
        0
  0
STYLE
  5
3B
330
3
100
AcDbSymbolTableRecord
100
AcDbTextStyleTableRecord
  2
ＭＳ ゴシック
 70
     0
 40
1.0
 41
1.0
 50
0.0
 71
     0
 42
10.0
  3

  4

1001
ACAD
1000
MS Gothic
1071
    32817
  0
ENDTAB
  0
TABLE
  2
VIEW
  5
6
330
0
100
AcDbSymbolTable
 70
     0
  0
ENDTAB
  0
TABLE
  2
UCS
  5
7
330
0
100
AcDbSymbolTable
 70
     0
  0
ENDTAB
  0
TABLE
  2
APPID
  5
9
330
0
100
AcDbSymbolTable
 70
     1
  0
APPID
  5
12
330
9
100
AcDbSymbolTableRecord
100
AcDbRegAppTableRecord
  2
ACAD
 70
     0
  0
ENDTAB
  0
TABLE
  2
DIMSTYLE
  5
A
330
0
100
AcDbSymbolTable
 70
     1
100
AcDbDimStyleTable
  0
DIMSTYLE
105
27
330
A
100
AcDbSymbolTableRecord
100
AcDbDimStyleTableRecord
  2
ISO-25
 70
     0
 41
2.5
 42
0.625
 43
3.75
 44
1.25
 73
     0
 74
     0
 77
     1
 78
     8
140
2.5
141
2.5
143
0.03937007874016
147
0.625
171
     3
172
     1
271
     2
272
     2
274
     3
278
    44
283
     0
284
     8
340
11
  0
ENDTAB
  0
TABLE
  2
BLOCK_RECORD
  5
1
330
0
100
AcDbSymbolTable
 70
     1
  0
BLOCK_RECORD
  5
1F
330
1
100
AcDbSymbolTableRecord
100
AcDbBlockTableRecord
  2
*Model_Space
340
22
  0
BLOCK_RECORD
  5
1B
330
1
100
AcDbSymbolTableRecord
100
AcDbBlockTableRecord
  2
*Paper_Space
340
1E
  0
BLOCK_RECORD
  5
23
330
1
100
AcDbSymbolTableRecord
100
AcDbBlockTableRecord
  2
*Paper_Space0
340
26
  0
ENDTAB
  0
ENDSEC
  0
SECTION
  2
BLOCKS
  0
BLOCK
  5
20
330
1F
100
AcDbEntity
  8
0
100
AcDbBlockBegin
  2
*Model_Space
 70
     0
 10
0.0
 20
0.0
 30
0.0
  3
*Model_Space
  1

  0
ENDBLK
  5
21
330
1F
100
AcDbEntity
  8
0
100
AcDbBlockEnd
  0
BLOCK
  5
1C
330
1B
100
AcDbEntity
 67
     1
  8
0
100
AcDbBlockBegin
  2
*Paper_Space
 70
     0
 10
0.0
 20
0.0
 30
0.0
  3
*Paper_Space
  1

  0
ENDBLK
  5
1D
330
1B
100
AcDbEntity
 67
     1
  8
0
100
AcDbBlockEnd
  0
BLOCK
  5
24
330
23
100
AcDbEntity
  8
0
100
AcDbBlockBegin
  2
*Paper_Space0
 70
     0
 10
0.0
 20
0.0
 30
0.0
  3
*Paper_Space0
  1

  0
ENDBLK
  5
25
330
23
100
AcDbEntity
  8
0
100
AcDbBlockEnd
  0
ENDSEC
  0
SECTION
  2
ENTITIES
  0
LINE
  5
4F
330
1F
100
AcDbEntity
  8
C-A
  6
Continuous
 62
     3
370
    13
100
AcDbLine
 10
-966.9591684599176
 20
1025.080533414274
 30
0.0
 11
-566.9593334197996
 21
1025.080533414274
 31
0.0
  0
LINE
  5
50
330
1F
100
AcDbEntity
  8
C-A
  6
Continuous
 62
     3
370
    13
100
AcDbLine
 10
-966.9591684599176
 20
1003.080411343961
 30
0.0
 11
-566.9593334197996
 21
1003.080411343961
 31
0.0
  0
LINE
  5
51
330
1F
100
AcDbEntity
  8
C-A
  6
Continuous
 62
     3
370
    13
100
AcDbLine
 10
-966.9591684599176
 20
975.0803684543919
 30
0.0
 11
-566.9593334197996
 21
975.0803684543919
 31
0.0
  0
LINE
  5
52
330
1F
100
AcDbEntity
  8
C-A
  6
Continuous
 62
     3
370
    13
100
AcDbLine
 10
-966.9591684599176
 20
953.0804938239021
 30
0.0
 11
-566.9593334197996
 21
953.0804938239021
 31
0.0
  0
LINE
  5
53
330
1F
100
AcDbEntity
  8
C-A
  6
Continuous
 62
     3
370
    13
100
AcDbLine
 10
-966.9591684599176
 20
925.0804509343328
 30
0.0
 11
-566.9593334197996
 21
925.0804509343328
 31
0.0
  0
LINE
  5
54
330
1F
100
AcDbEntity
  8
C-A
  6
Continuous
 62
     3
370
    13
100
AcDbLine
 10
-966.9591684599176
 20
903.0803288640203
 30
0.0
 11
-566.9593334197996
 21
903.0803288640203
 31
0.0
  0
LINE
  5
55
330
1F
100
AcDbEntity
  8
C-A
  6
Continuous
 62
     3
370
    13
100
AcDbLine
 10
-966.9591684599176
 20
875.0805334142738
 30
0.0
 11
-566.9593334197996
 21
875.0805334142738
 31
0.0
  0
LINE
  5
56
330
1F
100
AcDbEntity
  8
C-A
  6
Continuous
 62
     3
370
    13
100
AcDbLine
 10
-966.9591684599176
 20
853.0804113439613
 30
0.0
 11
-566.9593334197996
 21
853.0804113439613
 31
0.0
  0
LINE
  5
57
330
1F
100
AcDbEntity
  8
C-A
  6
Continuous
 62
     3
370
    13
100
AcDbLine
 10
-966.9591684599176
 20
825.0803684543919
 30
0.0
 11
-566.9593334197996
 21
825.0803684543919
 31
0.0
  0
LINE
  5
58
330
1F
100
AcDbEntity
  8
C-A
  6
Continuous
 62
     3
370
    13
100
AcDbLine
 10
-966.9591684599176
 20
803.0804938239021
 30
0.0
 11
-566.9593334197996
 21
803.0804938239021
 31
0.0
  0
LINE
  5
59
330
1F
100
AcDbEntity
  8
C-A
  6
Continuous
 62
     3
370
    13
100
AcDbLine
 10
-966.9591684599176
 20
775.0804509343328
 30
0.0
 11
-566.9593334197996
 21
775.0804509343328
 31
0.0
  0
LINE
  5
5A
330
1F
100
AcDbEntity
  8
C-A
  6
Continuous
 62
     3
370
    13
100
AcDbLine
 10
-966.9591684599176
 20
753.0803288640203
 30
0.0
 11
-566.9593334197996
 21
753.0803288640203
 31
0.0
  0
LINE
  5
5B
330
1F
100
AcDbEntity
  8
C-A
  6
Continuous
 62
     3
370
    13
100
AcDbLine
 10
-966.9591684599176
 20
725.0805334142738
 30
0.0
 11
-566.9593334197996
 21
725.0805334142738
 31
0.0
  0
LINE
  5
5C
330
1F
100
AcDbEntity
  8
C-A
  6
Continuous
 62
     3
370
    13
100
AcDbLine
 10
-966.9591684599176
 20
703.0804113439613
 30
0.0
 11
-566.9593334197996
 21
703.0804113439613
 31
0.0
  0
LINE
  5
5D
330
1F
100
AcDbEntity
  8
C-A
  6
Continuous
 62
     3
370
    13
100
AcDbLine
 10
-966.9591684599176
 20
675.0803684543919
 30
0.0
 11
-566.9593334197996
 21
675.0803684543919
 31
0.0
  0
LINE
  5
5E
330
1F
100
AcDbEntity
  8
C-A
  6
Continuous
 62
     3
370
    13
100
AcDbLine
 10
-966.9591684599176
 20
653.0804938239021
 30
0.0
 11
-566.9593334197996
 21
653.0804938239021
 31
0.0
  0
LINE
  5
5F
330
1F
100
AcDbEntity
  8
C-A
  6
Continuous
 62
     3
370
    13
100
AcDbLine
 10
-966.9591684599176
 20
1020.680558488176
 30
0.0
 11
-566.9593334197996
 21
1020.680558488176
 31
0.0
  0
LINE
  5
60
330
1F
100
AcDbEntity
  8
C-A
  6
Continuous
 62
     3
370
    13
100
AcDbLine
 10
-966.9591684599176
 20
1016.280336122255
 30
0.0
 11
-566.9593334197996
 21
1016.280336122255
 31
0.0
  0
LINE
  5
61
330
1F
100
AcDbEntity
  8
C-A
  6
Continuous
 62
     3
370
    13
100
AcDbLine
 10
-966.9591684599176
 20
1011.880361196157
 30
0.0
 11
-566.9593334197996
 21
1011.880361196157
 31
0.0
  0
LINE
  5
62
330
1F
100
AcDbEntity
  8
C-A
  6
Continuous
 62
     3
370
    13
100
AcDbLine
 10
-966.9591684599176
 20
1007.480386270059
 30
0.0
 11
-566.9593334197996
 21
1007.480386270059
 31
0.0
  0
LINE
  5
63
330
1F
100
AcDbEntity
  8
C-A
  6
Continuous
 62
     3
370
    13
100
AcDbLine
 10
-966.9591684599176
 20
970.680393528294
 30
0.0
 11
-566.9593334197996
 21
970.680393528294
 31
0.0
  0
LINE
  5
64
330
1F
100
AcDbEntity
  8
C-A
  6
Continuous
 62
     3
370
    13
100
AcDbLine
 10
-966.9591684599176
 20
966.280418602196
 30
0.0
 11
-566.9593334197996
 21
966.280418602196
 31
0.0
  0
LINE
  5
65
330
1F
100
AcDbEntity
  8
C-A
  6
Continuous
 62
     3
370
    13
100
AcDbLine
 10
-966.9591684599176
 20
961.8804436760981
 30
0.0
 11
-566.9593334197996
 21
961.8804436760981
 31
0.0
  0
LINE
  5
66
330
1F
100
AcDbEntity
  8
C-A
  6
Continuous
 62
     3
370
    13
100
AcDbLine
 10
-966.9591684599176
 20
957.48046875
 30
0.0
 11
-566.9593334197996
 21
957.48046875
 31
0.0
  0
LINE
  5
67
330
1F
100
AcDbEntity
  8
C-A
  6
Continuous
 62
     3
370
    13
100
AcDbLine
 10
-966.9591684599176
 20
920.6804760082349
 30
0.0
 11
-566.9593334197996
 21
920.6804760082349
 31
0.0
  0
LINE
  5
68
330
1F
100
AcDbEntity
  8
C-A
  6
Continuous
 62
     3
370
    13
100
AcDbLine
 10
-966.9591684599176
 20
916.280501082137
 30
0.0
 11
-566.9593334197996
 21
916.280501082137
 31
0.0
  0
LINE
  5
69
330
1F
100
AcDbEntity
  8
C-A
  6
Continuous
 62
     3
370
    13
100
AcDbLine
 10
-966.9591684599176
 20
911.8805261560391
 30
0.0
 11
-566.9593334197996
 21
911.8805261560391
 31
0.0
  0
LINE
  5
6A
330
1F
100
AcDbEntity
  8
C-A
  6
Continuous
 62
     3
370
    13
100
AcDbLine
 10
-966.9591684599176
 20
907.4803037901186
 30
0.0
 11
-566.9593334197996
 21
907.4803037901186
 31
0.0
  0
LINE
  5
6B
330
1F
100
AcDbEntity
  8
C-A
  6
Continuous
 62
     3
370
    13
100
AcDbLine
 10
-966.9591684599176
 20
870.6805584881758
 30
0.0
 11
-566.9593334197996
 21
870.6805584881758
 31
0.0
  0
LINE
  5
6C
330
1F
100
AcDbEntity
  8
C-A
  6
Continuous
 62
     3
370
    13
100
AcDbLine
 10
-966.9591684599176
 20
866.2803361222552
 30
0.0
 11
-566.9593334197996
 21
866.2803361222552
 31
0.0
  0
LINE
  5
6D
330
1F
100
AcDbEntity
  8
C-A
  6
Continuous
 62
     3
370
    13
100
AcDbLine
 10
-966.9591684599176
 20
861.8803611961573
 30
0.0
 11
-566.9593334197996
 21
861.8803611961573
 31
0.0
  0
LINE
  5
6E
330
1F
100
AcDbEntity
  8
C-A
  6
Continuous
 62
     3
370
    13
100
AcDbLine
 10
-966.9591684599176
 20
857.4803862700592
 30
0.0
 11
-566.9593334197996
 21
857.4803862700592
 31
0.0
  0
LINE
  5
6F
330
1F
100
AcDbEntity
  8
C-A
  6
Continuous
 62
     3
370
    13
100
AcDbLine
 10
-966.9591684599176
 20
820.680393528294
 30
0.0
 11
-566.9593334197996
 21
820.680393528294
 31
0.0
  0
LINE
  5
70
330
1F
100
AcDbEntity
  8
C-A
  6
Continuous
 62
     3
370
    13
100
AcDbLine
 10
-966.9591684599176
 20
816.280418602196
 30
0.0
 11
-566.9593334197996
 21
816.280418602196
 31
0.0
  0
LINE
  5
71
330
1F
100
AcDbEntity
  8
C-A
  6
Continuous
 62
     3
370
    13
100
AcDbLine
 10
-966.9591684599176
 20
811.8804436760981
 30
0.0
 11
-566.9593334197996
 21
811.8804436760981
 31
0.0
  0
LINE
  5
72
330
1F
100
AcDbEntity
  8
C-A
  6
Continuous
 62
     3
370
    13
100
AcDbLine
 10
-966.9591684599176
 20
807.48046875
 30
0.0
 11
-566.9593334197996
 21
807.48046875
 31
0.0
  0
LINE
  5
73
330
1F
100
AcDbEntity
  8
C-A
  6
Continuous
 62
     3
370
    13
100
AcDbLine
 10
-966.9591684599176
 20
770.6804760082349
 30
0.0
 11
-566.9593334197996
 21
770.6804760082349
 31
0.0
  0
LINE
  5
74
330
1F
100
AcDbEntity
  8
C-A
  6
Continuous
 62
     3
370
    13
100
AcDbLine
 10
-966.9591684599176
 20
766.280501082137
 30
0.0
 11
-566.9593334197996
 21
766.280501082137
 31
0.0
  0
LINE
  5
75
330
1F
100
AcDbEntity
  8
C-A
  6
Continuous
 62
     3
370
    13
100
AcDbLine
 10
-966.9591684599176
 20
761.8805261560391
 30
0.0
 11
-566.9593334197996
 21
761.8805261560391
 31
0.0
  0
LINE
  5
76
330
1F
100
AcDbEntity
  8
C-A
  6
Continuous
 62
     3
370
    13
100
AcDbLine
 10
-966.9591684599176
 20
757.4805512299408
 30
0.0
 11
-566.9593334197996
 21
757.4805512299408
 31
0.0
  0
LINE
  5
77
330
1F
100
AcDbEntity
  8
C-A
  6
Continuous
 62
     3
370
    13
100
AcDbLine
 10
-966.9591684599176
 20
720.6805584881758
 30
0.0
 11
-566.9593334197996
 21
720.6805584881758
 31
0.0
  0
LINE
  5
78
330
1F
100
AcDbEntity
  8
C-A
  6
Continuous
 62
     3
370
    13
100
AcDbLine
 10
-966.9591684599176
 20
716.2805835620779
 30
0.0
 11
-566.9593334197996
 21
716.2805835620779
 31
0.0
  0
LINE
  5
79
330
1F
100
AcDbEntity
  8
C-A
  6
Continuous
 62
     3
370
    13
100
AcDbLine
 10
-966.9591684599176
 20
711.88060863598
 30
0.0
 11
-566.9593334197996
 21
711.88060863598
 31
0.0
  0
LINE
  5
7A
330
1F
100
AcDbEntity
  8
C-A
  6
Continuous
 62
     3
370
    13
100
AcDbLine
 10
-966.9591684599176
 20
707.4803862700592
 30
0.0
 11
-566.9593334197996
 21
707.4803862700592
 31
0.0
  0
LINE
  5
7B
330
1F
100
AcDbEntity
  8
C-A
  6
Continuous
 62
     3
370
    13
100
AcDbLine
 10
-966.9591684599176
 20
670.680393528294
 30
0.0
 11
-566.9593334197996
 21
670.680393528294
 31
0.0
  0
LINE
  5
7C
330
1F
100
AcDbEntity
  8
C-A
  6
Continuous
 62
     3
370
    13
100
AcDbLine
 10
-966.9591684599176
 20
666.2801711623734
 30
0.0
 11
-566.9593334197996
 21
666.2801711623734
 31
0.0
  0
LINE
  5
7D
330
1F
100
AcDbEntity
  8
C-A
  6
Continuous
 62
     3
370
    13
100
AcDbLine
 10
-966.9591684599176
 20
661.8801962362755
 30
0.0
 11
-566.9593334197996
 21
661.8801962362755
 31
0.0
  0
LINE
  5
7E
330
1F
100
AcDbEntity
  8
C-A
  6
Continuous
 62
     3
370
    13
100
AcDbLine
 10
-966.9591684599176
 20
657.4802213101773
 30
0.0
 11
-566.9593334197996
 21
657.4802213101773
 31
0.0
  0
LINE
  5
7F
330
1F
100
AcDbEntity
  8
C-A
  6
Continuous
 62
     3
370
    13
100
AcDbLine
 10
-903.9593812581652
 20
992.079979149071
 30
0.0
 11
-869.9592938294278
 21
992.079979149071
 31
0.0
  0
LINE
  5
80
330
1F
100
AcDbEntity
  8
C-A
  6
Continuous
 62
     3
370
    13
100
AcDbLine
 10
-903.9593812581652
 20
986.0808006492823
 30
0.0
 11
-869.9592938294278
 21
986.0808006492823
 31
0.0
  0
LINE
  5
81
330
1F
100
AcDbEntity
  8
C-A
  6
Continuous
 62
     3
370
    13
100
AcDbLine
 10
-823.9594884820883
 20
992.079979149071
 30
0.0
 11
-789.9594010533509
 21
992.079979149071
 31
0.0
  0
LINE
  5
82
330
1F
100
AcDbEntity
  8
C-A
  6
Continuous
 62
     3
370
    13
100
AcDbLine
 10
-823.9594884820883
 20
986.0808006492823
 30
0.0
 11
-789.9594010533509
 21
986.0808006492823
 31
0.0
  0
LINE
  5
83
330
1F
100
AcDbEntity
  8
C-A
  6
Continuous
 62
     3
370
    13
100
AcDbLine
 10
-743.9591008263662
 20
992.079979149071
 30
0.0
 11
-709.9590133976287
 21
992.079979149071
 31
0.0
  0
LINE
  5
84
330
1F
100
AcDbEntity
  8
C-A
  6
Continuous
 62
     3
370
    13
100
AcDbLine
 10
-743.9591008263662
 20
986.0808006492823
 30
0.0
 11
-709.9590133976287
 21
986.0808006492823
 31
0.0
  0
LINE
  5
85
330
1F
100
AcDbEntity
  8
C-A
  6
Continuous
 62
     3
370
    13
100
AcDbLine
 10
-663.9592080502894
 20
992.079979149071
 30
0.0
 11
-629.9591206215518
 21
992.079979149071
 31
0.0
  0
LINE
  5
86
330
1F
100
AcDbEntity
  8
C-A
  6
Continuous
 62
     3
370
    13
100
AcDbLine
 10
-663.9592080502894
 20
986.0808006492823
 30
0.0
 11
-629.9591206215518
 21
986.0808006492823
 31
0.0
  0
LINE
  5
87
330
1F
100
AcDbEntity
  8
C-A
  6
Continuous
 62
     3
370
    13
100
AcDbLine
 10
-663.9592080502894
 20
942.0798141891894
 30
0.0
 11
-629.9591206215518
 21
942.0798141891894
 31
0.0
  0
LINE
  5
88
330
1F
100
AcDbEntity
  8
C-A
  6
Continuous
 62
     3
370
    13
100
AcDbLine
 10
-663.9592080502894
 20
936.0808831292231
 30
0.0
 11
-629.9591206215518
 21
936.0808831292231
 31
0.0
  0
LINE
  5
89
330
1F
100
AcDbEntity
  8
C-A
  6
Continuous
 62
     3
370
    13
100
AcDbLine
 10
-743.9591008263662
 20
942.0798141891894
 30
0.0
 11
-709.9590133976287
 21
942.0798141891894
 31
0.0
  0
LINE
  5
8A
330
1F
100
AcDbEntity
  8
C-A
  6
Continuous
 62
     3
370
    13
100
AcDbLine
 10
-743.9591008263662
 20
936.0808831292231
 30
0.0
 11
-709.9590133976287
 21
936.0808831292231
 31
0.0
  0
LINE
  5
8B
330
1F
100
AcDbEntity
  8
C-A
  6
Continuous
 62
     3
370
    13
100
AcDbLine
 10
-823.9594884820883
 20
942.0798141891894
 30
0.0
 11
-789.9594010533509
 21
942.0798141891894
 31
0.0
  0
LINE
  5
8C
330
1F
100
AcDbEntity
  8
C-A
  6
Continuous
 62
     3
370
    13
100
AcDbLine
 10
-823.9594884820883
 20
936.0808831292231
 30
0.0
 11
-789.9594010533509
 21
936.0808831292231
 31
0.0
  0
LINE
  5
8D
330
1F
100
AcDbEntity
  8
C-A
  6
Continuous
 62
     3
370
    13
100
AcDbLine
 10
-903.9593812581652
 20
942.0798141891894
 30
0.0
 11
-869.9592938294278
 21
942.0798141891894
 31
0.0
  0
LINE
  5
8E
330
1F
100
AcDbEntity
  8
C-A
  6
Continuous
 62
     3
370
    13
100
AcDbLine
 10
-903.9593812581652
 20
936.0808831292231
 30
0.0
 11
-869.9592938294278
 21
936.0808831292231
 31
0.0
  0
LINE
  5
8F
330
1F
100
AcDbEntity
  8
C-A
  6
Continuous
 62
     3
370
    13
100
AcDbLine
 10
-903.9593812581652
 20
892.0798966691302
 30
0.0
 11
-869.9592938294278
 21
892.0798966691302
 31
0.0
  0
LINE
  5
90
330
1F
100
AcDbEntity
  8
C-A
  6
Continuous
 62
     3
370
    13
100
AcDbLine
 10
-903.9593812581652
 20
886.0809656091641
 30
0.0
 11
-869.9592938294278
 21
886.0809656091641
 31
0.0
  0
LINE
  5
91
330
1F
100
AcDbEntity
  8
C-A
  6
Continuous
 62
     3
370
    13
100
AcDbLine
 10
-823.9594884820883
 20
892.0798966691302
 30
0.0
 11
-789.9594010533509
 21
892.0798966691302
 31
0.0
  0
LINE
  5
92
330
1F
100
AcDbEntity
  8
C-A
  6
Continuous
 62
     3
370
    13
100
AcDbLine
 10
-823.9594884820883
 20
886.0809656091641
 30
0.0
 11
-789.9594010533509
 21
886.0809656091641
 31
0.0
  0
LINE
  5
93
330
1F
100
AcDbEntity
  8
C-A
  6
Continuous
 62
     3
370
    13
100
AcDbLine
 10
-743.9591008263662
 20
892.0798966691302
 30
0.0
 11
-709.9590133976287
 21
892.0798966691302
 31
0.0
  0
LINE
  5
94
330
1F
100
AcDbEntity
  8
C-A
  6
Continuous
 62
     3
370
    13
100
AcDbLine
 10
-743.9591008263662
 20
886.0809656091641
 30
0.0
 11
-709.9590133976287
 21
886.0809656091641
 31
0.0
  0
LINE
  5
95
330
1F
100
AcDbEntity
  8
C-A
  6
Continuous
 62
     3
370
    13
100
AcDbLine
 10
-663.9592080502894
 20
892.0798966691302
 30
0.0
 11
-629.9591206215518
 21
892.0798966691302
 31
0.0
  0
LINE
  5
96
330
1F
100
AcDbEntity
  8
C-A
  6
Continuous
 62
     3
370
    13
100
AcDbLine
 10
-663.9592080502894
 20
886.0809656091641
 30
0.0
 11
-629.9591206215518
 21
886.0809656091641
 31
0.0
  0
LINE
  5
97
330
1F
100
AcDbEntity
  8
C-A
  6
Continuous
 62
     3
370
    13
100
AcDbLine
 10
-663.9592080502894
 20
842.079979149071
 30
0.0
 11
-629.9591206215518
 21
842.079979149071
 31
0.0
  0
LINE
  5
98
330
1F
100
AcDbEntity
  8
C-A
  6
Continuous
 62
     3
370
    13
100
AcDbLine
 10
-663.9592080502894
 20
836.0808006492823
 30
0.0
 11
-629.9591206215518
 21
836.0808006492823
 31
0.0
  0
LINE
  5
99
330
1F
100
AcDbEntity
  8
C-A
  6
Continuous
 62
     3
370
    13
100
AcDbLine
 10
-743.9591008263662
 20
842.079979149071
 30
0.0
 11
-709.9590133976287
 21
842.079979149071
 31
0.0
  0
LINE
  5
9A
330
1F
100
AcDbEntity
  8
C-A
  6
Continuous
 62
     3
370
    13
100
AcDbLine
 10
-743.9591008263662
 20
836.0808006492823
 30
0.0
 11
-709.9590133976287
 21
836.0808006492823
 31
0.0
  0
LINE
  5
9B
330
1F
100
AcDbEntity
  8
C-A
  6
Continuous
 62
     3
370
    13
100
AcDbLine
 10
-823.9594884820883
 20
842.079979149071
 30
0.0
 11
-789.9594010533509
 21
842.079979149071
 31
0.0
  0
LINE
  5
9C
330
1F
100
AcDbEntity
  8
C-A
  6
Continuous
 62
     3
370
    13
100
AcDbLine
 10
-823.9594884820883
 20
836.0808006492823
 30
0.0
 11
-789.9594010533509
 21
836.0808006492823
 31
0.0
  0
LINE
  5
9D
330
1F
100
AcDbEntity
  8
C-A
  6
Continuous
 62
     3
370
    13
100
AcDbLine
 10
-903.9593812581652
 20
842.079979149071
 30
0.0
 11
-869.9592938294278
 21
842.079979149071
 31
0.0
  0
LINE
  5
9E
330
1F
100
AcDbEntity
  8
C-A
  6
Continuous
 62
     3
370
    13
100
AcDbLine
 10
-903.9593812581652
 20
836.0808006492823
 30
0.0
 11
-869.9592938294278
 21
836.0808006492823
 31
0.0
  0
LINE
  5
9F
330
1F
100
AcDbEntity
  8
C-A
  6
Continuous
 62
     3
370
    13
100
AcDbLine
 10
-903.9593812581652
 20
792.080061629012
 30
0.0
 11
-869.9592938294278
 21
792.080061629012
 31
0.0
  0
LINE
  5
A0
330
1F
100
AcDbEntity
  8
C-A
  6
Continuous
 62
     3
370
    13
100
AcDbLine
 10
-903.9593812581652
 20
786.0808831292231
 30
0.0
 11
-869.9592938294278
 21
786.0808831292231
 31
0.0
  0
LINE
  5
A1
330
1F
100
AcDbEntity
  8
C-A
  6
Continuous
 62
     3
370
    13
100
AcDbLine
 10
-823.9594884820883
 20
792.080061629012
 30
0.0
 11
-789.9594010533509
 21
792.080061629012
 31
0.0
  0
LINE
  5
A2
330
1F
100
AcDbEntity
  8
C-A
  6
Continuous
 62
     3
370
    13
100
AcDbLine
 10
-823.9594884820883
 20
786.0808831292231
 30
0.0
 11
-789.9594010533509
 21
786.0808831292231
 31
0.0
  0
LINE
  5
A3
330
1F
100
AcDbEntity
  8
C-A
  6
Continuous
 62
     3
370
    13
100
AcDbLine
 10
-743.9591008263662
 20
792.080061629012
 30
0.0
 11
-709.9590133976287
 21
792.080061629012
 31
0.0
  0
LINE
  5
A4
330
1F
100
AcDbEntity
  8
C-A
  6
Continuous
 62
     3
370
    13
100
AcDbLine
 10
-743.9591008263662
 20
786.0808831292231
 30
0.0
 11
-709.9590133976287
 21
786.0808831292231
 31
0.0
  0
LINE
  5
A5
330
1F
100
AcDbEntity
  8
C-A
  6
Continuous
 62
     3
370
    13
100
AcDbLine
 10
-663.9592080502894
 20
792.080061629012
 30
0.0
 11
-629.9591206215518
 21
792.080061629012
 31
0.0
  0
LINE
  5
A6
330
1F
100
AcDbEntity
  8
C-A
  6
Continuous
 62
     3
370
    13
100
AcDbLine
 10
-663.9592080502894
 20
786.0808831292231
 30
0.0
 11
-629.9591206215518
 21
786.0808831292231
 31
0.0
  0
LINE
  5
A7
330
1F
100
AcDbEntity
  8
C-A
  6
Continuous
 62
     3
370
    13
100
AcDbLine
 10
-663.9592080502894
 20
742.0801441089529
 30
0.0
 11
-629.9591206215518
 21
742.0801441089529
 31
0.0
  0
LINE
  5
A8
330
1F
100
AcDbEntity
  8
C-A
  6
Continuous
 62
     3
370
    13
100
AcDbLine
 10
-663.9592080502894
 20
736.0809656091641
 30
0.0
 11
-629.9591206215518
 21
736.0809656091641
 31
0.0
  0
LINE
  5
A9
330
1F
100
AcDbEntity
  8
C-A
  6
Continuous
 62
     3
370
    13
100
AcDbLine
 10
-743.9591008263662
 20
742.0801441089529
 30
0.0
 11
-709.9590133976287
 21
742.0801441089529
 31
0.0
  0
LINE
  5
AA
330
1F
100
AcDbEntity
  8
C-A
  6
Continuous
 62
     3
370
    13
100
AcDbLine
 10
-743.9591008263662
 20
736.0809656091641
 30
0.0
 11
-709.9590133976287
 21
736.0809656091641
 31
0.0
  0
LINE
  5
AB
330
1F
100
AcDbEntity
  8
C-A
  6
Continuous
 62
     3
370
    13
100
AcDbLine
 10
-823.9594884820883
 20
742.0801441089529
 30
0.0
 11
-789.9594010533509
 21
742.0801441089529
 31
0.0
  0
LINE
  5
AC
330
1F
100
AcDbEntity
  8
C-A
  6
Continuous
 62
     3
370
    13
100
AcDbLine
 10
-823.9594884820883
 20
736.0809656091641
 30
0.0
 11
-789.9594010533509
 21
736.0809656091641
 31
0.0
  0
LINE
  5
AD
330
1F
100
AcDbEntity
  8
C-A
  6
Continuous
 62
     3
370
    13
100
AcDbLine
 10
-903.9593812581652
 20
742.0801441089529
 30
0.0
 11
-869.9592938294278
 21
742.0801441089529
 31
0.0
  0
LINE
  5
AE
330
1F
100
AcDbEntity
  8
C-A
  6
Continuous
 62
     3
370
    13
100
AcDbLine
 10
-903.9593812581652
 20
736.0809656091641
 30
0.0
 11
-869.9592938294278
 21
736.0809656091641
 31
0.0
  0
LINE
  5
AF
330
1F
100
AcDbEntity
  8
C-A
  6
Continuous
 62
     3
370
    13
100
AcDbLine
 10
-903.9593812581652
 20
692.0797317092484
 30
0.0
 11
-869.9592938294278
 21
692.0797317092484
 31
0.0
  0
LINE
  5
B0
330
1F
100
AcDbEntity
  8
C-A
  6
Continuous
 62
     3
370
    13
100
AcDbLine
 10
-903.9593812581652
 20
686.0805532094596
 30
0.0
 11
-869.9592938294278
 21
686.0805532094596
 31
0.0
  0
LINE
  5
B1
330
1F
100
AcDbEntity
  8
C-A
  6
Continuous
 62
     3
370
    13
100
AcDbLine
 10
-823.9594884820883
 20
692.0797317092484
 30
0.0
 11
-789.9594010533509
 21
692.0797317092484
 31
0.0
  0
LINE
  5
B2
330
1F
100
AcDbEntity
  8
C-A
  6
Continuous
 62
     3
370
    13
100
AcDbLine
 10
-823.9594884820883
 20
686.0805532094596
 30
0.0
 11
-789.9594010533509
 21
686.0805532094596
 31
0.0
  0
LINE
  5
B3
330
1F
100
AcDbEntity
  8
C-A
  6
Continuous
 62
     3
370
    13
100
AcDbLine
 10
-743.9591008263662
 20
692.0797317092484
 30
0.0
 11
-709.9590133976287
 21
692.0797317092484
 31
0.0
  0
LINE
  5
B4
330
1F
100
AcDbEntity
  8
C-A
  6
Continuous
 62
     3
370
    13
100
AcDbLine
 10
-743.9591008263662
 20
686.0805532094596
 30
0.0
 11
-709.9590133976287
 21
686.0805532094596
 31
0.0
  0
LINE
  5
B5
330
1F
100
AcDbEntity
  8
C-A
  6
Continuous
 62
     3
370
    13
100
AcDbLine
 10
-663.9592080502894
 20
692.0797317092484
 30
0.0
 11
-629.9591206215518
 21
692.0797317092484
 31
0.0
  0
LINE
  5
B6
330
1F
100
AcDbEntity
  8
C-A
  6
Continuous
 62
     3
370
    13
100
AcDbLine
 10
-663.9592080502894
 20
686.0805532094596
 30
0.0
 11
-629.9591206215518
 21
686.0805532094596
 31
0.0
  0
LINE
  5
B7
330
1F
100
AcDbEntity
  8
C-1
  6
JWW_DASHED3
 62
     2
370
    13
100
AcDbLine
 10
-591.9591684599177
 20
664.0806785789698
 30
0.0
 11
-941.9593334197993
 21
664.0806785789698
 31
0.0
  0
LINE
  5
B8
330
1F
100
AcDbEntity
  8
C-1
  6
JWW_DASHED3
 62
     2
370
    13
100
AcDbLine
 10
-941.9593334197993
 20
664.0806785789698
 30
0.0
 11
-941.9593334197993
 21
1014.080348659206
 31
0.0
  0
LINE
  5
B9
330
1F
100
AcDbEntity
  8
C-1
  6
JWW_DASHED3
 62
     2
370
    13
100
AcDbLine
 10
-941.9593334197993
 20
1014.080348659206
 30
0.0
 11
-591.9591684599177
 21
1014.080348659206
 31
0.0
  0
LINE
  5
BA
330
1F
100
AcDbEntity
  8
C-1
  6
JWW_DASHED3
 62
     2
370
    13
100
AcDbLine
 10
-591.9591684599177
 20
1014.080348659206
 30
0.0
 11
-591.9591684599177
 21
664.0806785789698
 31
0.0
  0
LINE
  5
BB
330
1F
100
AcDbEntity
  8
C-2
  6
Continuous
 62
     3
370
    13
100
AcDbLine
 10
-966.9591684599176
 20
639.080596099029
 30
0.0
 11
-966.9591684599176
 21
1039.080431139147
 31
0.0
  0
LINE
  5
BC
330
1F
100
AcDbEntity
  8
C-2
  6
Continuous
 62
     3
370
    13
100
AcDbLine
 10
-566.9593334197996
 20
1039.080431139147
 30
0.0
 11
-966.9591684599176
 21
1039.080431139147
 31
0.0
  0
LINE
  5
BD
330
1F
100
AcDbEntity
  8
C-1
  6
Continuous
 62
     2
370
    13
100
AcDbLine
 10
-565.9594290965308
 20
1040.080582902238
 30
0.0
 11
-967.959320223009
 21
1040.080582902238
 31
0.0
  0
LINE
  5
BE
330
1F
100
AcDbEntity
  8
C-1
  6
Continuous
 62
     2
370
    13
100
AcDbLine
 10
-967.959320223009
 20
638.0804443359375
 30
0.0
 11
-967.959320223009
 21
1040.080582902238
 31
0.0
  0
LINE
  5
BF
330
1F
100
AcDbEntity
  8
C-1
  6
Continuous
 62
     2
370
    13
100
AcDbLine
 10
-558.959480234094
 20
1047.080408044764
 30
0.0
 11
-974.9592690854455
 21
1047.080408044764
 31
0.0
  0
LINE
  5
C0
330
1F
100
AcDbEntity
  8
C-1
  6
Continuous
 62
     2
370
    13
100
AcDbLine
 10
-974.9592690854455
 20
631.0803717535896
 30
0.0
 11
-974.9592690854455
 21
1047.080408044764
 31
0.0
  0
LINE
  5
C1
330
1F
100
AcDbEntity
  8
C-2
  6
Continuous
 62
     3
370
    13
100
AcDbLine
 10
-566.9593334197996
 20
1039.080431139147
 30
0.0
 11
-566.9593334197996
 21
639.080596099029
 31
0.0
  0
LINE
  5
C2
330
1F
100
AcDbEntity
  8
C-2
  6
Continuous
 62
     3
370
    13
100
AcDbLine
 10
-966.9591684599176
 20
639.080596099029
 30
0.0
 11
-566.9593334197996
 21
639.080596099029
 31
0.0
  0
LINE
  5
C3
330
1F
100
AcDbEntity
  8
C-1
  6
Continuous
 62
     2
370
    13
100
AcDbLine
 10
-565.9594290965308
 20
1040.080582902238
 30
0.0
 11
-565.9594290965308
 21
638.0804443359375
 31
0.0
  0
LINE
  5
C4
330
1F
100
AcDbEntity
  8
C-1
  6
Continuous
 62
     2
370
    13
100
AcDbLine
 10
-967.959320223009
 20
638.0804443359375
 30
0.0
 11
-565.9594290965308
 21
638.0804443359375
 31
0.0
  0
LINE
  5
C5
330
1F
100
AcDbEntity
  8
C-1
  6
Continuous
 62
     2
370
    13
100
AcDbLine
 10
-558.959480234094
 20
1047.080408044764
 30
0.0
 11
-558.959480234094
 21
631.0803717535896
 31
0.0
  0
LINE
  5
C6
330
1F
100
AcDbEntity
  8
C-1
  6
Continuous
 62
     2
370
    13
100
AcDbLine
 10
-974.9592690854455
 20
631.0803717535896
 30
0.0
 11
-558.959480234094
 21
631.0803717535896
 31
0.0
  0
LINE
  5
C7
330
1F
100
AcDbEntity
  8
C-4
  6
Continuous
 62
     7
370
    13
100
AcDbLine
 10
-1016.276399509326
 20
1174.079886771538
 30
0.0
 11
-514.2082562317717
 21
1174.079886771538
 31
0.0
  0
LINE
  5
C8
330
1F
100
AcDbEntity
  8
C-4
  6
Continuous
 62
     7
370
    13
100
AcDbLine
 10
-966.9591684599176
 20
1059.080744562923
 30
0.0
 11
-966.9591684599176
 21
1177.080342060811
 31
0.0
  0
LINE
  5
C9
330
1F
100
AcDbEntity
  8
C-4
  6
Continuous
 62
     7
370
    13
100
AcDbLine
 10
-566.9593334197996
 20
1059.080744562923
 30
0.0
 11
-566.9593334197996
 21
1177.080342060811
 31
0.0
  0
LINE
  5
CA
330
1F
100
AcDbEntity
  8
C-4
  6
Continuous
 62
     7
370
    13
100
AcDbLine
 10
-974.9592690854455
 20
1229.079820787584
 30
0.0
 11
-558.959480234094
 21
1229.079820787584
 31
0.0
  0
LINE
  5
CB
330
1F
100
AcDbEntity
  8
C-4
  6
Continuous
 62
     7
370
    13
100
AcDbLine
 10
-558.959480234094
 20
1059.080744562923
 30
0.0
 11
-558.959480234094
 21
1232.080276076858
 31
0.0
  0
LINE
  5
CC
330
1F
100
AcDbEntity
  8
C-4
  6
Continuous
 62
     7
370
    13
100
AcDbLine
 10
-966.9591684599176
 20
1119.080447635135
 30
0.0
 11
-566.9598282994446
 21
1119.080447635135
 31
0.0
  0
LINE
  5
CD
330
1F
100
AcDbEntity
  8
C-4
  6
Continuous
 62
     7
370
    13
100
AcDbLine
 10
-941.9588385401541
 20
1059.080744562923
 30
0.0
 11
-941.9588385401541
 21
1122.080408044764
 31
0.0
  0
LINE
  5
CE
330
1F
100
AcDbEntity
  8
C-4
  6
Continuous
 62
     7
370
    13
100
AcDbLine
 10
-591.9591684599177
 20
1059.080744562923
 30
0.0
 11
-591.9591684599177
 21
1122.080408044764
 31
0.0
  0
LINE
  5
CF
330
1F
100
AcDbEntity
  8
C-4
  6
Continuous
 62
     7
370
    13
100
AcDbLine
 10
-967.959320223009
 20
1059.080744562923
 30
0.0
 11
-967.959320223009
 21
1177.080342060811
 31
0.0
  0
LINE
  5
D0
330
1F
100
AcDbEntity
  8
C-4
  6
Continuous
 62
     7
370
    13
100
AcDbLine
 10
-974.9592690854455
 20
1059.080744562923
 30
0.0
 11
-974.9592690854455
 21
1232.080276076858
 31
0.0
  0
LINE
  5
D1
330
1F
100
AcDbEntity
  8
C-4
  6
Continuous
 62
     7
370
    13
100
AcDbLine
 10
-565.9594290965308
 20
1059.080744562923
 30
0.0
 11
-565.9594290965308
 21
1177.080342060811
 31
0.0
  0
LINE
  5
D2
330
1F
100
AcDbEntity
  8
C-4
  6
Continuous
 62
     7
370
    13
100
AcDbLine
 10
-1031.959259187853
 20
739.0804311391471
 30
0.0
 11
-1031.959259187853
 21
689.0802661792654
 31
0.0
  0
LINE
  5
D3
330
1F
100
AcDbEntity
  8
C-4
  6
Continuous
 62
     7
370
    13
100
AcDbLine
 10
-886.9592756838408
 20
566.0806521853885
 30
0.0
 11
-806.9593829077639
 21
566.0806521853885
 31
0.0
  0
LINE
  5
D4
330
1F
100
AcDbEntity
  8
C-3
  6
Continuous
 62
     7
370
    13
100
AcDbLine
 10
-730.7062239260283
 20
661.156187315245
 30
0.0
 11
-715.486942755209
 21
641.3224008921031
 31
0.0
  0
LINE
  5
D5
330
1F
100
AcDbEntity
  8
C-3
  6
Continuous
 62
     7
370
    13
100
AcDbLine
 10
-730.7062239260283
 20
661.156187315245
 30
0.0
 11
-721.1392106236634
 21
638.0594119510135
 31
0.0
  0
LINE
  5
D6
330
1F
100
AcDbEntity
  8
C-3
  6
Continuous
 62
     7
370
    13
100
AcDbLine
 10
-663.6614142237479
 20
545.0309464738177
 30
0.0
 11
-188.2482309599177
 21
545.0309464738177
 31
0.0
  0
LINE
  5
D7
330
1F
100
AcDbEntity
  8
C-0
  6
JWW_CENTER1
 62
     3
370
    13
100
AcDbLine
 10
-312.6302912428568
 20
814.0804311391471
 30
0.0
 11
-79.01827193595238
 21
814.0804311391471
 31
0.0
  0
LINE
  5
D8
330
1F
100
AcDbEntity
  8
C-0
  6
Continuous
 62
     3
370
    13
100
AcDbLine
 10
-107.3184593303779
 20
829.0802331872891
 30
0.0
 11
-277.3187727541531
 21
829.0802331872891
 31
0.0
  0
LINE
  5
D9
330
1F
100
AcDbEntity
  8
C-0
  6
Continuous
 62
     3
370
    13
100
AcDbLine
 10
-277.3187727541531
 20
799.0803816511825
 30
0.0
 11
-107.3184593303779
 21
799.0803816511825
 31
0.0
  0
LINE
  5
DA
330
1F
100
AcDbEntity
  8
C-0
  6
JWW_CENTER1
 62
     3
370
    13
100
AcDbLine
 10
-192.3179974427089
 20
843.6618619351776
 30
0.0
 11
-192.3179974427089
 21
781.017769478463
 31
0.0
  0
LINE
  5
DB
330
1F
100
AcDbEntity
  8
C-0
  6
Continuous
 62
     7
370
    13
100
AcDbLine
 10
-292.3185748022951
 20
906.3000158361488
 30
0.0
 11
-92.31865728223596
 21
906.3000158361488
 31
0.0
  0
LINE
  5
DC
330
1F
100
AcDbEntity
  8
C-0
  6
Continuous
 62
     7
370
    13
100
AcDbLine
 10
-92.31865728223596
 20
850.2662782411318
 30
0.0
 11
-92.31865728223596
 21
909.2994813661318
 31
0.0
  0
LINE
  5
DD
330
1F
100
AcDbEntity
  8
C-0
  6
Continuous
 62
     7
370
    13
100
AcDbLine
 10
-292.3185748022951
 20
850.2662782411318
 30
0.0
 11
-292.3185748022951
 21
909.2994813661318
 31
0.0
  0
LINE
  5
DE
330
1F
100
AcDbEntity
  8
C-0
  6
Continuous
 62
     7
370
    13
100
AcDbLine
 10
-72.42647506095238
 20
799.0803816511825
 30
0.0
 11
-9.483722738317226
 21
799.0803816511825
 31
0.0
  0
LINE
  5
DF
330
1F
100
AcDbEntity
  8
C-0
  6
Continuous
 62
     7
370
    13
100
AcDbLine
 10
-12.48368314794561
 20
799.0803816511825
 30
0.0
 11
-12.48368314794561
 21
829.0802331872891
 31
0.0
  0
LINE
  5
E0
330
1F
100
AcDbEntity
  8
C-0
  6
Continuous
 62
     7
370
    13
100
AcDbLine
 10
-9.483722738317226
 20
829.0802331872891
 30
0.0
 11
-72.42647506095238
 21
829.0802331872891
 31
0.0
  0
LINE
  5
E1
330
1F
100
AcDbEntity
  8
C-5
  6
Continuous
 62
     7
370
    13
100
AcDbLine
 10
-472.4119585913576
 20
673.043196394637
 30
0.0
 11
-472.4119585913576
 21
738.0426685230154
 31
0.0
  0
LINE
  5
E2
330
1F
100
AcDbEntity
  8
C-5
  6
Continuous
 62
     7
370
    13
100
AcDbLine
 10
-472.4119585913576
 20
738.0426685230154
 30
0.0
 11
102.5884538083469
 21
738.0426685230154
 31
0.0
  0
LINE
  5
E3
330
1F
100
AcDbEntity
  8
C-5
  6
Continuous
 62
     7
370
    13
100
AcDbLine
 10
102.5884538083469
 20
738.0426685230154
 30
0.0
 11
102.5884538083469
 21
673.043196394637
 31
0.0
  0
LINE
  5
E4
330
1F
100
AcDbEntity
  8
C-5
  6
Continuous
 62
     7
370
    13
100
AcDbLine
 10
102.5884538083469
 20
673.043196394637
 30
0.0
 11
-472.4119585913576
 21
673.043196394637
 31
0.0
  0
LINE
  5
E5
330
1F
100
AcDbEntity
  8
C-3
  6
Continuous
 62
     7
370
    13
100
AcDbLine
 10
-663.6614142237479
 20
545.0309464738177
 30
0.0
 11
-730.7062239260283
 21
661.156187315245
 31
0.0
  0
LINE
  5
E6
330
1F
100
AcDbEntity
  8
C-5
  6
Continuous
 62
     7
370
    13
100
AcDbLine
 10
-479.4590447400063
 20
461.0806769293708
 30
0.0
 11
-479.4590447400063
 21
396.0810810810813
 31
0.0
  0
LINE
  5
E7
330
1F
100
AcDbEntity
  8
C-5
  6
Continuous
 62
     7
370
    13
100
AcDbLine
 10
-479.4590447400063
 20
396.0810810810813
 30
0.0
 11
-1054.459457139711
 21
396.0810810810813
 31
0.0
  0
LINE
  5
E8
330
1F
100
AcDbEntity
  8
C-5
  6
Continuous
 62
     7
370
    13
100
AcDbLine
 10
-1054.459457139711
 20
461.0806769293708
 30
0.0
 11
-479.4590447400063
 21
461.0806769293708
 31
0.0
  0
LINE
  5
E9
330
1F
100
AcDbEntity
  8
C-5
  6
Continuous
 62
     7
370
    13
100
AcDbLine
 10
-1054.459457139711
 20
396.0810810810813
 30
0.0
 11
-1054.459457139711
 21
461.0806769293708
 31
0.0
  0
LINE
  5
EA
330
1F
100
AcDbEntity
  8
C-B
  6
JWW_DASHED3
 62
     6
370
    13
100
AcDbLine
 10
-859.4593086758173
 20
674.0804641311234
 30
0.0
 11
-834.4594736356988
 21
674.0804641311234
 31
0.0
  0
LINE
  5
EB
330
1F
100
AcDbEntity
  8
C-B
  6
JWW_DASHED3
 62
     6
370
    13
100
AcDbLine
 10
-699.4590282440183
 20
674.0804641311234
 30
0.0
 11
-674.4591932039
 21
674.0804641311234
 31
0.0
  0
LINE
  5
EC
330
1F
100
AcDbEntity
  8
C-B
  6
JWW_DASHED3
 62
     6
370
    13
100
AcDbLine
 10
-859.4593086758173
 20
1004.08031566723
 30
0.0
 11
-859.4593086758173
 21
674.0804641311234
 31
0.0
  0
LINE
  5
ED
330
1F
100
AcDbEntity
  8
C-B
  6
JWW_DASHED3
 62
     6
370
    13
100
AcDbLine
 10
-859.4593086758173
 20
1004.08031566723
 30
0.0
 11
-834.4594736356988
 21
1004.08031566723
 31
0.0
  0
LINE
  5
EE
330
1F
100
AcDbEntity
  8
C-B
  6
JWW_DASHED3
 62
     6
370
    13
100
AcDbLine
 10
-834.4594736356988
 20
1004.08031566723
 30
0.0
 11
-834.4594736356988
 21
674.0804641311234
 31
0.0
  0
LINE
  5
EF
330
1F
100
AcDbEntity
  8
C-B
  6
JWW_DASHED3
 62
     6
370
    13
100
AcDbLine
 10
-699.4590282440183
 20
1004.08031566723
 30
0.0
 11
-699.4590282440183
 21
674.0804641311234
 31
0.0
  0
LINE
  5
F0
330
1F
100
AcDbEntity
  8
C-B
  6
JWW_DASHED3
 62
     6
370
    13
100
AcDbLine
 10
-699.4590282440183
 20
1004.08031566723
 30
0.0
 11
-674.4591932039
 21
1004.08031566723
 31
0.0
  0
LINE
  5
F1
330
1F
100
AcDbEntity
  8
C-B
  6
JWW_DASHED3
 62
     6
370
    13
100
AcDbLine
 10
-674.4591932039
 20
1004.08031566723
 30
0.0
 11
-674.4591932039
 21
674.0804641311234
 31
0.0
  0
LINE
  5
F2
330
1F
100
AcDbEntity
  8
C-B
  6
JWW_DASHED3
 62
     6
370
    13
100
AcDbLine
 10
-677.4592773334396
 20
1004.08031566723
 30
0.0
 11
-677.4592773334396
 21
674.0804641311234
 31
0.0
  0
LINE
  5
F3
330
1F
100
AcDbEntity
  8
C-B
  6
JWW_DASHED3
 62
     6
370
    13
100
AcDbLine
 10
-856.4592245462775
 20
1004.08031566723
 30
0.0
 11
-856.4592245462775
 21
674.0804641311234
 31
0.0
  0
LINE
  5
F4
330
1F
100
AcDbEntity
  8
C-4
  6
Continuous
 62
     7
370
    13
100
AcDbLine
 10
-886.9592756838408
 20
688.6982190931167
 30
0.0
 11
-886.9592756838408
 21
563.080568055849
 31
0.0
  0
LINE
  5
F5
330
1F
100
AcDbEntity
  8
C-4
  6
Continuous
 62
     7
370
    13
100
AcDbLine
 10
-806.9593829077639
 20
688.6982190931167
 30
0.0
 11
-806.9593829077639
 21
563.080568055849
 31
0.0
  0
LINE
  5
F6
330
1F
100
AcDbEntity
  8
C-4
  6
Continuous
 62
     7
370
    13
100
AcDbLine
 10
-898.7752695341363
 20
689.0802661792654
 30
0.0
 11
-1034.959343317392
 21
689.0802661792654
 31
0.0
  0
LINE
  5
F7
330
1F
100
AcDbEntity
  8
C-4
  6
Continuous
 62
     7
370
    13
100
AcDbLine
 10
-898.7752695341363
 20
739.0804311391471
 30
0.0
 11
-1034.959343317392
 21
739.0804311391471
 31
0.0
  0
LINE
  5
F8
330
1F
100
AcDbEntity
  8
D-A
  6
JWW_DASHED3
 62
     3
370
    13
100
AcDbLine
 10
-356.115241952844
 20
-361.7185932881122
 30
0.0
 11
-356.115241952844
 21
-311.7186757680531
 31
0.0
  0
LINE
  5
F9
330
1F
100
AcDbEntity
  8
D-A
  6
Continuous
 62
     3
370
    13
100
AcDbLine
 10
-331.1156543525485
 20
-336.718758247994
 30
0.0
 11
-331.1156543525485
 21
-321.2187565983952
 31
0.0
  0
LINE
  5
FA
330
1F
100
AcDbEntity
  8
D-A
  6
Continuous
 62
     3
370
    13
100
AcDbLine
 10
-356.115241952844
 20
-311.7186757680531
 30
0.0
 11
-356.115241952844
 21
-281.7190716717694
 31
0.0
  0
LINE
  5
FB
330
1F
100
AcDbEntity
  8
D-A
  6
Continuous
 62
     3
370
    13
100
AcDbLine
 10
-206.1153656727555
 20
-400.21936365076
 30
0.0
 11
-331.1156543525485
 21
-400.21936365076
 31
0.0
  0
LINE
  5
FC
330
1F
100
AcDbEntity
  8
D-A
  6
Continuous
 62
     3
370
    13
100
AcDbLine
 10
-334.0445995330808
 20
-383.7892357078758
 30
0.0
 11
-356.115241952844
 21
-361.7185932881122
 31
0.0
  0
LINE
  5
FD
330
1F
100
AcDbEntity
  8
D-A
  6
Continuous
 62
     3
370
    13
100
AcDbLine
 10
-331.1156543525485
 20
-411.719129407728
 30
0.0
 11
-331.1156543525485
 21
-390.8606946790541
 31
0.0
  0
LINE
  5
FE
330
1F
100
AcDbEntity
  8
D-A
  6
Continuous
 62
     3
370
    13
100
AcDbLine
 10
-206.1153656727555
 20
-411.719129407728
 30
0.0
 11
-331.1156543525485
 21
-411.719129407728
 31
0.0
  0
LINE
  5
FF
330
1F
100
AcDbEntity
  8
D-A
  6
Continuous
 62
     3
370
    13
100
AcDbLine
 10
-206.1153656727555
 20
-371.71875
 30
0.0
 11
-206.1153656727555
 21
-411.719129407728
 31
0.0
  0
LINE
  5
100
330
1F
100
AcDbEntity
  8
D-A
  6
Continuous
 62
     3
370
    13
100
AcDbLine
 10
-295.7602152953274
 20
-361.7185932881122
 30
0.0
 11
-216.1157698244656
 21
-361.7185932881122
 31
0.0
  0
LINE
  5
101
330
1F
100
AcDbEntity
  8
D-A
  6
Continuous
 62
     3
370
    13
100
AcDbLine
 10
-356.115241952844
 20
-311.7186757680531
 30
0.0
 11
-313.4380585438493
 21
-354.3968489363386
 31
0.0
  0
LINE
  5
102
330
1F
100
AcDbEntity
  8
D-A
  6
Continuous
 62
     3
370
    13
100
AcDbLine
 10
-367.6155025894573
 20
-281.7190716717694
 30
0.0
 11
-367.6155025894573
 21
-394.2191953916807
 31
0.0
  0
LINE
  5
103
330
1F
100
AcDbEntity
  8
D-A
  6
JWW_CENTER2
 62
     3
370
    13
100
AcDbLine
 10
-313.1205932514084
 20
-339.2187664959881
 30
0.0
 11
-373.5389645035198
 21
-339.2187664959881
 31
0.0
  0
LINE
  5
104
330
1F
100
AcDbEntity
  8
D-A
  6
JWW_DASHED3
 62
     3
370
    13
100
AcDbLine
 10
-331.1156543525485
 20
-357.2185289537583
 30
0.0
 11
-331.1156543525485
 21
-336.718758247994
 31
0.0
  0
LINE
  5
105
330
1F
100
AcDbEntity
  8
D-A
  6
Continuous
 62
     3
370
    13
100
AcDbLine
 10
-369.8654728966787
 20
-329.2186097841004
 30
0.0
 11
-371.1152914408086
 21
-330.4690469277871
 31
0.0
  0
LINE
  5
106
330
1F
100
AcDbEntity
  8
D-A
  6
Continuous
 62
     3
370
    13
100
AcDbLine
 10
-369.8654728966787
 20
-349.2183046083192
 30
0.0
 11
-371.1152914408086
 21
-347.9689809438344
 31
0.0
  0
LINE
  5
107
330
1F
100
AcDbEntity
  8
D-A
  6
JWW_DASHED3
 62
     3
370
    13
100
AcDbLine
 10
-369.8654728966787
 20
-329.2186097841004
 30
0.0
 11
-369.8654728966787
 21
-349.2183046083192
 31
0.0
  0
LINE
  5
108
330
1F
100
AcDbEntity
  8
D-A
  6
Continuous
 62
     3
370
    13
100
AcDbLine
 10
-367.6155025894573
 20
-330.4690469277871
 30
0.0
 11
-371.1152914408086
 21
-330.4690469277871
 31
0.0
  0
LINE
  5
109
330
1F
100
AcDbEntity
  8
D-A
  6
Continuous
 62
     3
370
    13
100
AcDbLine
 10
-367.6155025894573
 20
-329.2186097841004
 30
0.0
 11
-369.8654728966787
 21
-329.2186097841004
 31
0.0
  0
LINE
  5
10A
330
1F
100
AcDbEntity
  8
D-A
  6
Continuous
 62
     3
370
    13
100
AcDbLine
 10
-367.6155025894573
 20
-347.9689809438344
 30
0.0
 11
-371.1152914408086
 21
-347.9689809438344
 31
0.0
  0
LINE
  5
10B
330
1F
100
AcDbEntity
  8
D-A
  6
Continuous
 62
     3
370
    13
100
AcDbLine
 10
-367.6155025894573
 20
-349.2183046083192
 30
0.0
 11
-369.8654728966787
 21
-349.2183046083192
 31
0.0
  0
LINE
  5
10C
330
1F
100
AcDbEntity
  8
D-A
  6
JWW_DASHED3
 62
     3
370
    13
100
AcDbLine
 10
-331.1156543525485
 20
-349.2183046083192
 30
0.0
 11
-367.6155025894573
 21
-349.2183046083192
 31
0.0
  0
LINE
  5
10D
330
1F
100
AcDbEntity
  8
D-A
  6
JWW_DASHED3
 62
     3
370
    13
100
AcDbLine
 10
-331.1156543525485
 20
-347.9689809438344
 30
0.0
 11
-367.6155025894573
 21
-347.9689809438344
 31
0.0
  0
LINE
  5
10E
330
1F
100
AcDbEntity
  8
D-A
  6
JWW_DASHED3
 62
     3
370
    13
100
AcDbLine
 10
-324.6154102119235
 20
-357.2185289537583
 30
0.0
 11
-331.1156543525485
 21
-357.2185289537583
 31
0.0
  0
LINE
  5
10F
330
1F
100
AcDbEntity
  8
D-A
  6
Continuous
 62
     3
370
    13
100
AcDbLine
 10
-324.6154102119235
 20
-321.2187565983952
 30
0.0
 11
-331.1156543525485
 21
-321.2187565983952
 31
0.0
  0
LINE
  5
110
330
1F
100
AcDbEntity
  8
D-A
  6
Continuous
 62
     3
370
    13
100
AcDbLine
 10
-318.1154135111211
 20
-327.7187532991975
 30
0.0
 11
-318.1154135111211
 21
-349.7193702491553
 31
0.0
  0
LINE
  5
111
330
1F
100
AcDbEntity
  8
D-A
  6
JWW_DASHED3
 62
     3
370
    13
100
AcDbLine
 10
-318.1154135111211
 20
-350.71890341269
 30
0.0
 11
-318.1154135111211
 21
-349.7193702491553
 31
0.0
  0
LINE
  5
112
330
1F
100
AcDbEntity
  8
D-A
  6
Continuous
 62
     3
370
    13
100
AcDbLine
 10
-331.1156543525485
 20
-329.2186097841004
 30
0.0
 11
-338.6158028164422
 21
-329.2186097841004
 31
0.0
  0
LINE
  5
113
330
1F
100
AcDbEntity
  8
D-A
  6
Continuous
 62
     3
370
    13
100
AcDbLine
 10
-331.1156543525485
 20
-330.4690469277871
 30
0.0
 11
-337.3657368324893
 21
-330.4690469277871
 31
0.0
  0
LINE
  5
114
330
1F
100
AcDbEntity
  8
D-A
  6
JWW_DASHED3
 62
     3
370
    13
100
AcDbLine
 10
-338.6158028164422
 20
-329.2186097841004
 30
0.0
 11
-367.6155025894573
 21
-329.2186097841004
 31
0.0
  0
LINE
  5
115
330
1F
100
AcDbEntity
  8
D-A
  6
JWW_DASHED3
 62
     3
370
    13
100
AcDbLine
 10
-367.6155025894573
 20
-330.4690469277871
 30
0.0
 11
-337.3657368324893
 21
-330.4690469277871
 31
0.0
  0
LINE
  5
116
330
1F
100
AcDbEntity
  8
D-4
  6
Continuous
 62
     7
370
    13
100
AcDbLine
 10
-1078.783781464035
 20
-155.7992966110641
 30
0.0
 11
-506.115984272312
 21
-155.7992966110641
 31
0.0
  0
LINE
  5
117
330
1F
100
AcDbEntity
  8
D-4
  6
Continuous
 62
     7
370
    13
100
AcDbLine
 10
-506.115984272312
 20
-261.2630978146115
 30
0.0
 11
-506.115984272312
 21
-152.7988413217903
 31
0.0
  0
LINE
  5
118
330
1F
100
AcDbEntity
  8
D-4
  6
Continuous
 62
     7
370
    13
100
AcDbLine
 10
-506.115984272312
 20
-155.7992966110641
 30
0.0
 11
-381.1153244327849
 21
-155.7992966110641
 31
0.0
  0
LINE
  5
119
330
1F
100
AcDbEntity
  8
D-4
  6
Continuous
 62
     7
370
    13
100
AcDbLine
 10
-381.1153244327849
 20
-261.2630978146115
 30
0.0
 11
-381.1153244327849
 21
-44.0473071948901
 31
0.0
  0
LINE
  5
11A
330
1F
100
AcDbEntity
  8
D-4
  6
Continuous
 62
     7
370
    13
100
AcDbLine
 10
-376.1150604969743
 20
-261.2630978146115
 30
0.0
 11
-376.1150604969743
 21
-44.0473071948901
 31
0.0
  0
LINE
  5
11B
330
1F
100
AcDbEntity
  8
D-4
  6
Continuous
 62
     7
370
    13
100
AcDbLine
 10
-351.1162152161467
 20
-261.2630978146115
 30
0.0
 11
-351.1162152161467
 21
66.6491039379224
 31
0.0
  0
LINE
  5
11C
330
1F
100
AcDbEntity
  8
D-5
  6
Continuous
 62
     7
370
    13
100
AcDbLine
 10
-256.5924708907664
 20
-113.8075215107685
 30
0.0
 11
2.790777103321318
 21
-113.8075215107685
 31
0.0
  0
LINE
  5
11D
330
1F
100
AcDbEntity
  8
D-4
  6
Continuous
 62
     7
370
    13
100
AcDbLine
 10
-106.1146645932581
 20
-596.5920608108108
 30
0.0
 11
-106.1146645932581
 21
-839.801775958087
 31
0.0
  0
LINE
  5
11E
330
1F
100
AcDbEntity
  8
D-4
  6
Continuous
 62
     7
370
    13
100
AcDbLine
 10
-506.1154893926667
 20
-682.3375062684755
 30
0.0
 11
-356.115241952844
 21
-682.3375062684755
 31
0.0
  0
LINE
  5
11F
330
1F
100
AcDbEntity
  8
D-4
  6
Continuous
 62
     7
370
    13
100
AcDbLine
 10
165.5693118636677
 20
-526.7188902158995
 30
0.0
 11
165.5693118636677
 21
-276.7186840160473
 31
0.0
  0
LINE
  5
120
330
1F
100
AcDbEntity
  8
D-6
  6
Continuous
 62
     6
370
    13
100
AcDbLine
 10
-356.115241952844
 20
-526.7188902158995
 30
0.0
 11
-356.115241952844
 21
-776.718663396062
 31
0.0
  0
LINE
  5
121
330
1F
100
AcDbEntity
  8
D-6
  6
JWW_DASHED3
 62
     6
370
    13
100
AcDbLine
 10
-262.6144138542378
 20
-654.2188159839526
 30
0.0
 11
-262.6144138542378
 21
-526.7188902158995
 31
0.0
  0
LINE
  5
122
330
1F
100
AcDbEntity
  8
D-6
  6
JWW_DASHED3
 62
     6
370
    13
100
AcDbLine
 10
-217.614265390344
 20
-526.7188902158995
 30
0.0
 11
-217.614265390344
 21
-654.2188159839526
 31
0.0
  0
LINE
  5
123
330
1F
100
AcDbEntity
  8
D-6
  6
Continuous
 62
     6
370
    13
100
AcDbLine
 10
-106.1156543525485
 20
-426.7190551757812
 30
0.0
 11
58.88538489470648
 21
-426.7190551757812
 31
0.0
  0
LINE
  5
124
330
1F
100
AcDbEntity
  8
D-6
  6
Continuous
 62
     6
370
    13
100
AcDbLine
 10
-341.1156873445248
 20
-771.8680386929898
 30
0.0
 11
4.035399411176002
 21
-426.7190551757812
 31
0.0
  0
LINE
  5
125
330
1F
100
AcDbEntity
  8
D-6
  6
Continuous
 62
     6
370
    13
100
AcDbLine
 10
-341.1156873445248
 20
-764.7957136824324
 30
0.0
 11
-3.038905117962258
 21
-426.7190551757812
 31
0.0
  0
LINE
  5
126
330
1F
100
AcDbEntity
  8
D-6
  6
Continuous
 62
     6
370
    13
100
AcDbLine
 10
-341.1156873445248
 20
-757.7273477090371
 30
0.0
 11
-110.1058689323628
 21
-526.7188902158995
 31
0.0
  0
LINE
  5
127
330
1F
100
AcDbEntity
  8
D-6
  6
Continuous
 62
     6
370
    13
100
AcDbLine
 10
-106.1156543525485
 20
-426.7190551757812
 30
0.0
 11
-106.1156543525485
 21
-526.7188902158995
 31
0.0
  0
LINE
  5
128
330
1F
100
AcDbEntity
  8
D-6
  6
Continuous
 62
     6
370
    13
100
AcDbLine
 10
-106.1156543525485
 20
-522.7286756360853
 30
0.0
 11
-10.10529157277659
 21
-426.7190551757812
 31
0.0
  0
LINE
  5
129
330
1F
100
AcDbEntity
  8
D-4
  6
Continuous
 62
     7
370
    13
100
AcDbLine
 10
-50.33677977484587
 20
-526.7188902158995
 30
0.0
 11
168.5697671529414
 21
-526.7188902158995
 31
0.0
  0
LINE
  5
12A
330
1F
100
AcDbEntity
  8
D-6
  6
Continuous
 62
     6
370
    13
100
AcDbLine
 10
-356.115241952844
 20
-526.7188902158995
 30
0.0
 11
-106.1156543525485
 21
-526.7188902158995
 31
0.0
  0
LINE
  5
12B
330
1F
100
AcDbEntity
  8
D-6
  6
Continuous
 62
     6
370
    13
100
AcDbLine
 10
-262.6144138542378
 20
-329.2189809438344
 30
0.0
 11
-217.614265390344
 21
-329.2189809438344
 31
0.0
  0
LINE
  5
12C
330
1F
100
AcDbEntity
  8
D-6
  6
JWW_CENTER2
 62
     6
370
    13
100
AcDbLine
 10
-240.1142159023797
 20
-325.1391931482263
 30
0.0
 11
-240.1142159023797
 21
-654.2188159839526
 31
0.0
  0
LINE
  5
12D
330
1F
100
AcDbEntity
  8
D-4
  6
Continuous
 62
     7
370
    13
100
AcDbLine
 10
-351.1154728966787
 20
-467.2495744035051
 30
0.0
 11
-201.1149780170334
 21
-467.2495744035051
 31
0.0
  0
LINE
  5
12E
330
1F
100
AcDbEntity
  8
D-4
  6
Continuous
 62
     7
370
    13
100
AcDbLine
 10
-351.1154728966787
 20
-414.6863040408572
 30
0.0
 11
-351.1154728966787
 21
-470.249782252956
 31
0.0
  0
LINE
  5
12F
330
1F
100
AcDbEntity
  8
D-4
  6
Continuous
 62
     7
370
    13
100
AcDbLine
 10
-206.1153656727555
 20
-414.6863040408572
 30
0.0
 11
-206.1153656727555
 21
-470.249782252956
 31
0.0
  0
LINE
  5
130
330
1F
100
AcDbEntity
  8
D-4
  6
Continuous
 62
     7
370
    13
100
AcDbLine
 10
-194.2893505096433
 20
-411.719129407728
 30
0.0
 11
-115.0653052974388
 21
-411.719129407728
 31
0.0
  0
LINE
  5
131
330
1F
100
AcDbEntity
  8
D-4
  6
Continuous
 62
     7
370
    13
100
AcDbLine
 10
-194.2893505096433
 20
-361.7185932881122
 30
0.0
 11
-115.0653052974388
 21
-361.7185932881122
 31
0.0
  0
LINE
  5
132
330
1F
100
AcDbEntity
  8
D-4
  6
Continuous
 62
     7
370
    13
100
AcDbLine
 10
-118.0655131468899
 20
-361.7185932881122
 30
0.0
 11
-118.0655131468899
 21
-276.7186840160473
 31
0.0
  0
LINE
  5
133
330
1F
100
AcDbEntity
  8
D-6
  6
Continuous
 62
     6
370
    13
100
AcDbLine
 10
-262.6144138542378
 20
-526.7188902158995
 30
0.0
 11
-262.6144138542378
 21
-411.719129407728
 31
0.0
  0
LINE
  5
134
330
1F
100
AcDbEntity
  8
D-6
  6
Continuous
 62
     6
370
    13
100
AcDbLine
 10
-217.614265390344
 20
-526.7188902158995
 30
0.0
 11
-217.614265390344
 21
-411.719129407728
 31
0.0
  0
LINE
  5
135
330
1F
100
AcDbEntity
  8
D-6
  6
Continuous
 62
     6
370
    13
100
AcDbLine
 10
-262.6144138542378
 20
-361.7185932881122
 30
0.0
 11
-262.6144138542378
 21
-329.2189809438344
 31
0.0
  0
LINE
  5
136
330
1F
100
AcDbEntity
  8
D-6
  6
Continuous
 62
     6
370
    13
100
AcDbLine
 10
-217.614265390344
 20
-361.7185932881122
 30
0.0
 11
-217.614265390344
 21
-329.2189809438344
 31
0.0
  0
LINE
  5
137
330
1F
100
AcDbEntity
  8
D-4
  6
Continuous
 62
     7
370
    13
100
AcDbLine
 10
-651.5984754304625
 20
-401.7189726958404
 30
0.0
 11
-651.5984754304625
 21
-276.7186840160473
 31
0.0
  0
LINE
  5
138
330
1F
100
AcDbEntity
  8
D-4
  6
Continuous
 62
     7
370
    13
100
AcDbLine
 10
-379.2602680824893
 20
-401.7189726958404
 30
0.0
 11
-654.5984358400909
 21
-401.7189726958404
 31
0.0
  0
LINE
  5
139
330
1F
100
AcDbEntity
  8
D-4
  6
Continuous
 62
     7
370
    13
100
AcDbLine
 10
-379.2602680824893
 20
-276.7186840160473
 30
0.0
 11
-654.5984358400909
 21
-276.7186840160473
 31
0.0
  0
LINE
  5
13A
330
1F
100
AcDbEntity
  8
D-4
  6
Continuous
 62
     7
370
    13
100
AcDbLine
 10
-1078.783781464035
 20
63.6486486486487
 30
0.0
 11
-351.1162152161467
 21
63.6486486486487
 31
0.0
  0
LINE
  5
13B
330
1F
100
AcDbEntity
  8
D-4
  6
Continuous
 62
     7
370
    13
100
AcDbLine
 10
-506.1154893926667
 20
-836.8021867081926
 30
0.0
 11
-106.1146645932581
 21
-836.8021867081926
 31
0.0
  0
LINE
  5
13C
330
1F
100
AcDbEntity
  8
D-4
  6
Continuous
 62
     7
370
    13
100
AcDbLine
 10
-1078.783781464035
 20
-47.04702016469582
 30
0.0
 11
-304.578351974487
 21
-47.04702016469582
 31
0.0
  0
LINE
  5
13D
330
1F
100
AcDbEntity
  8
D-4
  6
Continuous
 62
     7
370
    13
100
AcDbLine
 10
-118.0655131468899
 20
-411.719129407728
 30
0.0
 11
-118.0655131468899
 21
-361.7185932881122
 31
0.0
  0
LINE
  5
13E
330
1F
100
AcDbEntity
  8
D-4
  6
Continuous
 62
     7
370
    13
100
AcDbLine
 10
-506.1154893926667
 20
-801.7189314558699
 30
0.0
 11
-506.1154893926667
 21
-839.801775958087
 31
0.0
  0
LINE
  5
13F
330
1F
100
AcDbEntity
  8
D-5
  6
Continuous
 62
     2
370
    13
100
AcDbLine
 10
-848.1104812106566
 20
-972.6610008445946
 30
0.0
 11
-848.1104812106566
 21
-907.661404996305
 31
0.0
  0
LINE
  5
140
330
1F
100
AcDbEntity
  8
D-5
  6
Continuous
 62
     2
370
    13
100
AcDbLine
 10
-848.1104812106566
 20
-907.661404996305
 30
0.0
 11
-273.1100688109524
 21
-907.661404996305
 31
0.0
  0
LINE
  5
141
330
1F
100
AcDbEntity
  8
D-5
  6
Continuous
 62
     2
370
    13
100
AcDbLine
 10
-273.1100688109524
 20
-907.661404996305
 30
0.0
 11
-273.1100688109524
 21
-972.6610008445946
 31
0.0
  0
LINE
  5
142
330
1F
100
AcDbEntity
  8
D-5
  6
Continuous
 62
     2
370
    13
100
AcDbLine
 10
-273.1100688109524
 20
-972.6610008445946
 30
0.0
 11
-848.1104812106566
 21
-972.6610008445946
 31
0.0
  0
LINE
  5
143
330
1F
100
AcDbEntity
  8
D-A
  6
Continuous
 62
     3
370
    13
100
AcDbLine
 10
-367.6155025894573
 20
-281.7190716717694
 30
0.0
 11
-356.115241952844
 21
-281.7190716717694
 31
0.0
  0
LINE
  5
144
330
1F
100
AcDbEntity
  8
D-A
  6
Continuous
 62
     3
370
    13
100
AcDbLine
 10
-356.115241952844
 20
-394.2191953916807
 30
0.0
 11
-367.6155025894573
 21
-394.2191953916807
 31
0.0
  0
LINE
  5
145
330
1F
100
AcDbEntity
  8
D-A
  6
Continuous
 62
     3
370
    13
100
AcDbLine
 10
-356.115241952844
 20
-394.2191953916807
 30
0.0
 11
-356.115241952844
 21
-361.7185932881122
 31
0.0
  0
LINE
  5
146
330
1F
100
AcDbEntity
  8
D-5
  6
Continuous
 62
     7
370
    13
100
AcDbLine
 10
-256.5924708907664
 20
-113.8075215107685
 30
0.0
 11
-419.8940934361633
 21
-301.4326023411105
 31
0.0
  0
LINE
  5
147
330
1F
100
AcDbEntity
  8
D-5
  6
Continuous
 62
     7
370
    13
100
AcDbLine
 10
-419.8940934361633
 20
-301.4326023411105
 30
0.0
 11
-406.082744856138
 21
-280.5929730389569
 31
0.0
  0
LINE
  5
148
330
1F
100
AcDbEntity
  8
D-5
  6
Continuous
 62
     7
370
    13
100
AcDbLine
 10
-419.8940934361633
 20
-301.4326023411105
 30
0.0
 11
-401.1600533047235
 21
-284.8777647276182
 31
0.0
  0
LINE
  5
149
330
1F
100
AcDbEntity
  8
D-5
  6
Continuous
 62
     7
370
    13
100
AcDbLine
 10
-256.5924708907664
 20
-168.6696315456081
 30
0.0
 11
-353.0677730972698
 21
-279.5147540118242
 31
0.0
  0
LINE
  5
14A
330
1F
100
AcDbEntity
  8
D-5
  6
Continuous
 62
     7
370
    13
100
AcDbLine
 10
-353.0677730972698
 20
-279.5147540118242
 30
0.0
 11
-339.2564245172446
 21
-258.6762381888724
 31
0.0
  0
LINE
  5
14B
330
1F
100
AcDbEntity
  8
D-5
  6
Continuous
 62
     7
370
    13
100
AcDbLine
 10
-353.0677730972698
 20
-279.5147540118242
 30
0.0
 11
-334.3336092459185
 21
-262.960782437711
 31
0.0
  0
LINE
  5
14C
330
1F
100
AcDbEntity
  8
D-5
  6
Continuous
 62
     7
370
    13
100
AcDbLine
 10
-321.094465255737
 20
-364.8953494510134
 30
0.0
 11
-200.0074373709185
 21
-225.7731752137879
 31
0.0
  0
LINE
  5
14D
330
1F
100
AcDbEntity
  8
D-5
  6
Continuous
 62
     7
370
    13
100
AcDbLine
 10
-321.094465255737
 20
-364.8953494510134
 30
0.0
 11
-307.2834878354456
 21
-344.056586188239
 31
0.0
  0
LINE
  5
14E
330
1F
100
AcDbEntity
  8
D-5
  6
Continuous
 62
     7
370
    13
100
AcDbLine
 10
-321.094465255737
 20
-364.8953494510134
 30
0.0
 11
-302.3601776844743
 21
-348.3410067171662
 31
0.0
  0
LINE
  5
14F
330
1F
100
AcDbEntity
  8
D-5
  6
Continuous
 62
     7
370
    13
100
AcDbLine
 10
-200.0074373709185
 20
-225.7731752137879
 30
0.0
 11
186.6947341609651
 21
-225.7731752137879
 31
0.0
  0
LINE
  5
150
330
1F
100
AcDbEntity
  8
D-6
  6
Continuous
 62
     6
370
    13
100
AcDbLine
 10
-356.115241952844
 20
-276.7194263355151
 30
0.0
 11
58.88538489470648
 21
-276.7194263355151
 31
0.0
  0
LINE
  5
151
330
1F
100
AcDbEntity
  8
D-4
  6
Continuous
 62
     7
370
    13
100
AcDbLine
 10
77.38472835437705
 20
-276.7194263355151
 30
0.0
 11
168.5697671529414
 21
-276.7194263355151
 31
0.0
  0
LINE
  5
152
330
1F
100
AcDbEntity
  8
D-5
  6
Continuous
 62
     7
370
    13
100
AcDbLine
 10
-256.5924708907664
 20
-168.6696315456081
 30
0.0
 11
194.3747713759143
 21
-168.6696315456081
 31
0.0
  0
LINE
  5
153
330
1F
100
AcDbEntity
  8
D-9
  6
Continuous
 62
     4
370
    13
100
AcDbLine
 10
-473.1594742955383
 20
-294.2186180320945
 30
0.0
 11
-490.6594083115857
 21
-311.7186757680531
 31
0.0
  0
LINE
  5
154
330
1F
100
AcDbEntity
  8
D-9
  6
Continuous
 62
     4
370
    13
100
AcDbLine
 10
-444.8751230497615
 20
-294.2186180320945
 30
0.0
 11
-462.3750570658086
 21
-311.7186757680531
 31
0.0
  0
LINE
  5
155
330
1F
100
AcDbEntity
  8
D-9
  6
Continuous
 62
     4
370
    13
100
AcDbLine
 10
-437.8037877984946
 20
-294.2186180320945
 30
0.0
 11
-455.3037218145417
 21
-311.7186757680531
 31
0.0
  0
LINE
  5
156
330
1F
100
AcDbEntity
  8
D-9
  6
Continuous
 62
     4
370
    13
100
AcDbLine
 10
-430.732947426873
 20
-294.2186180320945
 30
0.0
 11
-448.232386563275
 21
-311.7186757680531
 31
0.0
  0
LINE
  5
157
330
1F
100
AcDbEntity
  8
D-9
  6
Continuous
 62
     4
370
    13
100
AcDbLine
 10
-423.661612175606
 20
-294.2186180320945
 30
0.0
 11
-443.2848273096855
 21
-313.84146200644
 31
0.0
  0
LINE
  5
158
330
1F
100
AcDbEntity
  8
D-9
  6
Continuous
 62
     4
370
    13
100
AcDbLine
 10
-416.5907718039844
 20
-294.2186180320945
 30
0.0
 11
-439.2441350060537
 21
-316.8719812341638
 31
0.0
  0
LINE
  5
159
330
1F
100
AcDbEntity
  8
D-9
  6
Continuous
 62
     4
370
    13
100
AcDbLine
 10
-409.5194365527175
 20
-294.2186180320945
 30
0.0
 11
-435.2036901422446
 21
-319.902253022065
 31
0.0
  0
LINE
  5
15A
330
1F
100
AcDbEntity
  8
D-9
  6
Continuous
 62
     4
370
    13
100
AcDbLine
 10
-402.4485961810959
 20
-294.2186180320945
 30
0.0
 11
-431.1629978386128
 21
-322.9327722497888
 31
0.0
  0
LINE
  5
15B
330
1F
100
AcDbEntity
  8
D-9
  6
Continuous
 62
     4
370
    13
100
AcDbLine
 10
-395.3772609298289
 20
-294.2186180320945
 30
0.0
 11
-427.1218106553357
 21
-325.963415197424
 31
0.0
  0
LINE
  5
15C
330
1F
100
AcDbEntity
  8
D-9
  6
Continuous
 62
     4
370
    13
100
AcDbLine
 10
-388.3062968382961
 20
-294.2186180320945
 30
0.0
 11
-420.806404062219
 21
-326.7186015361063
 31
0.0
  0
LINE
  5
15D
330
1F
100
AcDbEntity
  8
D-9
  6
Continuous
 62
     4
370
    13
100
AcDbLine
 10
-381.2350853069404
 20
-294.2186180320945
 30
0.0
 11
-413.7348213711297
 21
-326.7186015361063
 31
0.0
  0
LINE
  5
15E
330
1F
100
AcDbEntity
  8
D-9
  6
Continuous
 62
     4
370
    13
100
AcDbLine
 10
-376.1155553766196
 20
-296.1696810335725
 30
0.0
 11
-406.6642284393308
 21
-326.7186015361063
 31
0.0
  0
LINE
  5
15F
330
1F
100
AcDbEntity
  8
D-9
  6
Continuous
 62
     4
370
    13
100
AcDbLine
 10
-376.1155553766196
 20
-317.3829444679053
 30
0.0
 11
-385.4507175651753
 21
-326.7186015361063
 31
0.0
  0
LINE
  5
160
330
1F
100
AcDbEntity
  8
D-9
  6
Continuous
 62
     4
370
    13
100
AcDbLine
 10
-376.1155553766196
 20
-310.311856656461
 30
0.0
 11
-392.5218053766196
 21
-326.7186015361063
 31
0.0
  0
LINE
  5
161
330
1F
100
AcDbEntity
  8
D-9
  6
Continuous
 62
     4
370
    13
100
AcDbLine
 10
-376.1155553766196
 20
-303.2407688450168
 30
0.0
 11
-399.5926457482412
 21
-326.7186015361063
 31
0.0
  0
LINE
  5
162
330
1F
100
AcDbEntity
  8
D-9
  6
Continuous
 62
     4
370
    13
100
AcDbLine
 10
-487.3016499184268
 20
-294.2186180320945
 30
0.0
 11
-496.1154564006904
 21
-303.0321770745354
 31
0.0
  0
LINE
  5
163
330
1F
100
AcDbEntity
  8
D-9
  6
Continuous
 62
     4
370
    13
100
AcDbLine
 10
-480.2308095468052
 20
-294.2186180320945
 30
0.0
 11
-496.1154564006904
 21
-310.1032648859797
 31
0.0
  0
LINE
  5
164
330
1F
100
AcDbEntity
  8
D-9
  6
Continuous
 62
     4
370
    13
100
AcDbLine
 10
-491.1151924648797
 20
-294.2186180320945
 30
0.0
 11
-376.1155553766196
 21
-294.2186180320945
 31
0.0
  0
LINE
  5
165
330
1F
100
AcDbEntity
  8
D-9
  6
Continuous
 62
     4
370
    13
100
AcDbLine
 10
-496.1154564006904
 20
-299.218758247994
 30
0.0
 11
-496.1154564006904
 21
-311.7186757680531
 31
0.0
  0
LINE
  5
166
330
1F
100
AcDbEntity
  8
D-6
  6
Continuous
 62
     6
370
    13
100
AcDbLine
 10
-506.1154893926667
 20
-331.7186180320945
 30
0.0
 11
-506.1154893926667
 21
-776.718663396062
 31
0.0
  0
LINE
  5
167
330
1F
100
AcDbEntity
  8
D-1
  6
Continuous
 62
     2
370
    13
100
AcDbLine
 10
-356.1149945130217
 20
-396.7184613202069
 30
0.0
 11
-371.115044000986
 21
-396.7184613202069
 31
0.0
  0
LINE
  5
168
330
1F
100
AcDbEntity
  8
D-1
  6
Continuous
 62
     2
370
    13
100
AcDbLine
 10
-356.1149945130217
 20
-281.7187005120354
 30
0.0
 11
-371.115044000986
 21
-281.7187005120354
 31
0.0
  0
LINE
  5
169
330
1F
100
AcDbEntity
  8
D-1
  6
Continuous
 62
     2
370
    13
100
AcDbLine
 10
-351.1149780170334
 20
-374.2185108081713
 30
0.0
 11
-356.1149945130217
 21
-374.2185108081713
 31
0.0
  0
LINE
  5
16A
330
1F
100
AcDbEntity
  8
D-1
  6
Continuous
 62
     2
370
    13
100
AcDbLine
 10
-356.1149945130217
 20
-396.7184613202069
 30
0.0
 11
-356.1149945130217
 21
-374.2185108081713
 31
0.0
  0
LINE
  5
16B
330
1F
100
AcDbEntity
  8
D-1
  6
Continuous
 62
     2
370
    13
100
AcDbLine
 10
-351.1149780170334
 20
-304.2185273041595
 30
0.0
 11
-356.1149945130217
 21
-304.2185273041595
 31
0.0
  0
LINE
  5
16C
330
1F
100
AcDbEntity
  8
D-1
  6
Continuous
 62
     2
370
    13
100
AcDbLine
 10
-356.1149945130217
 20
-304.2185273041595
 30
0.0
 11
-356.1149945130217
 21
-281.7187005120354
 31
0.0
  0
LINE
  5
16D
330
1F
100
AcDbEntity
  8
D-1
  6
Continuous
 62
     2
370
    13
100
AcDbLine
 10
-429.1149384266618
 20
-330.7184662690032
 30
0.0
 11
-447.7815512064336
 21
-316.7186922640412
 31
0.0
  0
LINE
  5
16E
330
1F
100
AcDbEntity
  8
D-1
  6
Continuous
 62
     2
370
    13
100
AcDbLine
 10
-376.1150604969743
 20
-326.718477816195
 30
0.0
 11
-426.1149780170334
 21
-326.718477816195
 31
0.0
  0
LINE
  5
16F
330
1F
100
AcDbEntity
  8
D-1
  6
Continuous
 62
     2
370
    13
100
AcDbLine
 10
-371.115044000986
 20
-336.7185108081713
 30
0.0
 11
-371.115044000986
 21
-396.7184613202069
 31
0.0
  0
LINE
  5
170
330
1F
100
AcDbEntity
  8
D-1
  6
Continuous
 62
     2
370
    13
100
AcDbLine
 10
-371.115044000986
 20
-326.718477816195
 30
0.0
 11
-371.115044000986
 21
-281.7187005120354
 31
0.0
  0
LINE
  5
171
330
1F
100
AcDbEntity
  8
D-1
  6
Continuous
 62
     2
370
    13
100
AcDbLine
 10
-351.1149780170334
 20
-279.718396985853
 30
0.0
 11
-351.1149780170334
 21
-304.2185273041595
 31
0.0
  0
LINE
  5
172
330
1F
100
AcDbEntity
  8
D-1
  6
Continuous
 62
     2
370
    13
100
AcDbLine
 10
-373.1151000873459
 20
-276.7185602961359
 30
0.0
 11
-354.1149384266618
 21
-276.7185602961359
 31
0.0
  0
LINE
  5
173
330
1F
100
AcDbEntity
  8
D-1
  6
Continuous
 62
     2
370
    13
100
AcDbLine
 10
-376.1150604969743
 20
-279.718396985853
 30
0.0
 11
-376.1150604969743
 21
-326.718477816195
 31
0.0
  0
LINE
  5
174
330
1F
100
AcDbEntity
  8
D-1
  6
Continuous
 62
     2
370
    13
100
AcDbLine
 10
-351.1149780170334
 20
-398.7185174065667
 30
0.0
 11
-351.1149780170334
 21
-374.2185108081713
 31
0.0
  0
LINE
  5
175
330
1F
100
AcDbEntity
  8
D-1
  6
Continuous
 62
     2
370
    13
100
AcDbLine
 10
-373.1151000873459
 20
-401.718477816195
 30
0.0
 11
-354.1149384266618
 21
-401.718477816195
 31
0.0
  0
LINE
  5
176
330
1F
100
AcDbEntity
  8
D-1
  6
Continuous
 62
     2
370
    13
100
AcDbLine
 10
-376.1150604969743
 20
-398.7185174065667
 30
0.0
 11
-376.1150604969743
 21
-336.7185108081713
 31
0.0
  0
LINE
  5
177
330
1F
100
AcDbEntity
  8
D-1
  6
Continuous
 62
     2
370
    13
100
AcDbLine
 10
-444.7949525472276
 20
-312.7086824984162
 30
0.0
 11
-426.1149780170334
 21
-326.718477816195
 31
0.0
  0
LINE
  5
178
330
1F
100
AcDbEntity
  8
D-1
  6
Continuous
 62
     2
370
    13
100
AcDbLine
 10
-501.1149780170334
 20
-331.7183705922719
 30
0.0
 11
-376.1150604969743
 21
-331.7183705922719
 31
0.0
  0
LINE
  5
179
330
1F
100
AcDbEntity
  8
D-1
  6
Continuous
 62
     2
370
    13
100
AcDbLine
 10
-501.1149780170334
 20
-331.7183705922719
 30
0.0
 11
-501.1149780170334
 21
-316.7186922640412
 31
0.0
  0
LINE
  5
17A
330
1F
100
AcDbEntity
  8
D-1
  6
Continuous
 62
     2
370
    13
100
AcDbLine
 10
-506.1149945130217
 20
-331.7183705922719
 30
0.0
 11
-506.1149945130217
 21
-316.7186922640412
 31
0.0
  0
LINE
  5
17B
330
1F
100
AcDbEntity
  8
D-1
  6
Continuous
 62
     2
370
    13
100
AcDbLine
 10
-501.1149780170334
 20
-336.7185108081713
 30
0.0
 11
-376.1150604969743
 21
-336.7185108081713
 31
0.0
  0
LINE
  5
17C
330
1F
100
AcDbEntity
  8
D-1
  6
Continuous
 62
     2
370
    13
100
AcDbLine
 10
-487.9452408971008
 20
-312.3884953679265
 30
0.0
 11
-476.1151429769151
 21
-319.2187005120354
 31
0.0
  0
LINE
  5
17D
330
1F
100
AcDbEntity
  8
D-1
  6
Continuous
 62
     2
370
    13
100
AcDbLine
 10
-464.2847976169065
 20
-312.3884953679265
 30
0.0
 11
-476.1151429769151
 21
-319.2187005120354
 31
0.0
  0
LINE
  5
17E
330
1F
100
AcDbEntity
  8
D-1
  6
Continuous
 62
     2
370
    13
100
AcDbLine
 10
-473.6150110090097
 20
-323.548773688239
 30
0.0
 11
-461.784913088824
 21
-316.7186922640412
 31
0.0
  0
LINE
  5
17F
330
1F
100
AcDbEntity
  8
D-1
  6
Continuous
 62
     2
370
    13
100
AcDbLine
 10
-478.615027504998
 20
-323.548773688239
 30
0.0
 11
-490.4453728650063
 21
-316.7186922640412
 31
0.0
  0
LINE
  5
180
330
1F
100
AcDbEntity
  8
D-1
  6
Continuous
 62
     2
370
    13
100
AcDbLine
 10
-447.7649727383172
 20
-311.7186757680531
 30
0.0
 11
-461.784913088824
 21
-311.7186757680531
 31
0.0
  0
LINE
  5
181
330
1F
100
AcDbEntity
  8
D-1
  6
Continuous
 62
     2
370
    13
100
AcDbLine
 10
-490.4453728650063
 20
-311.7186757680531
 30
0.0
 11
-501.1149780170334
 21
-311.7186757680531
 31
0.0
  0
LINE
  5
182
330
1F
100
AcDbEntity
  8
D-1
  6
Continuous
 62
     2
370
    13
100
AcDbLine
 10
-447.7815512064336
 20
-316.7186922640412
 30
0.0
 11
-461.784913088824
 21
-316.7186922640412
 31
0.0
  0
LINE
  5
183
330
1F
100
AcDbEntity
  8
D-1
  6
Continuous
 62
     2
370
    13
100
AcDbLine
 10
-490.4453728650063
 20
-316.7186922640412
 30
0.0
 11
-501.1149780170334
 21
-316.7186922640412
 31
0.0
  0
LINE
  5
184
330
1F
100
AcDbEntity
  8
D-9
  6
Continuous
 62
     4
370
    13
100
AcDbLine
 10
-451.9459634213831
 20
-294.2186180320945
 30
0.0
 11
-476.6421897991279
 21
-318.9142258102829
 31
0.0
  0
LINE
  5
185
330
1F
100
AcDbEntity
  8
D-9
  6
Continuous
 62
     4
370
    13
100
AcDbLine
 10
-459.01729867265
 20
-294.2186180320945
 30
0.0
 11
-481.124809625986
 21
-316.3262527053421
 31
0.0
  0
LINE
  5
186
330
1F
100
AcDbEntity
  8
D-9
  6
Continuous
 62
     4
370
    13
100
AcDbLine
 10
-466.0881390442717
 20
-294.2186180320945
 30
0.0
 11
-485.6079243324893
 21
-313.7380321605785
 31
0.0
  0
LINE
  5
187
330
1F
100
AcDbEntity
  8
D-2
  6
Continuous
 62
     3
370
    13
100
AcDbLine
 10
-381.1155718726076
 20
-279.2188159839526
 30
0.0
 11
-381.1155718726076
 21
-294.2186180320945
 31
0.0
  0
LINE
  5
188
330
1F
100
AcDbEntity
  8
D-4
  6
Continuous
 62
     7
370
    13
100
AcDbLine
 10
-862.8420584910622
 20
-241.1985737568622
 30
0.0
 11
-862.8420584910622
 21
-325.4014793602195
 31
0.0
  0
LINE
  5
189
330
1F
100
AcDbEntity
  8
D-2
  6
Continuous
 62
     3
370
    13
100
AcDbLine
 10
-381.1155718726076
 20
-294.2186180320945
 30
0.0
 11
-1053.784874323252
 21
-294.2186180320945
 31
0.0
  0
LINE
  5
18A
330
1F
100
AcDbEntity
  8
D-2
  6
Continuous
 62
     3
370
    13
100
AcDbLine
 10
-381.1155718726076
 20
-284.2190799197634
 30
0.0
 11
-1053.784874323252
 21
-284.2190799197634
 31
0.0
  0
LINE
  5
18B
330
1F
100
AcDbEntity
  8
D-2
  6
Continuous
 62
     3
370
    13
100
AcDbLine
 10
-381.1155718726076
 20
-289.2188489759291
 30
0.0
 11
-1053.784874323252
 21
-289.2188489759291
 31
0.0
  0
LINE
  5
18C
330
1F
100
AcDbEntity
  8
D-2
  6
Continuous
 62
     3
370
    13
100
AcDbLine
 10
-381.1155718726076
 20
-279.2188159839526
 30
0.0
 11
-1053.784874323252
 21
-279.2188159839526
 31
0.0
  0
LINE
  5
18D
330
1F
100
AcDbEntity
  8
D-5
  6
Continuous
 62
     7
370
    13
100
AcDbLine
 10
-256.5934606500571
 20
-50.47282450907943
 30
0.0
 11
394.7938519555174
 21
-50.47282450907943
 31
0.0
  0
LINE
  5
18E
330
1F
100
AcDbEntity
  8
D-5
  6
Continuous
 62
     7
370
    13
100
AcDbLine
 10
-256.5934606500571
 20
-50.47282450907943
 30
0.0
 11
-454.1061130729878
 21
-279.2188159839526
 31
0.0
  0
LINE
  5
18F
330
1F
100
AcDbEntity
  8
D-5
  6
Continuous
 62
     7
370
    13
100
AcDbLine
 10
-454.1061130729878
 20
-279.2188159839526
 30
0.0
 11
-440.3776568335451
 21
-258.3258634000211
 31
0.0
  0
LINE
  5
190
330
1F
100
AcDbEntity
  8
D-5
  6
Continuous
 62
     7
370
    13
100
AcDbLine
 10
-454.1061130729878
 20
-279.2188159839526
 30
0.0
 11
-435.4377682144573
 21
-262.5908599028716
 31
0.0
  0
LINE
  5
191
330
1F
100
AcDbEntity
  8
D-5
  6
Continuous
 62
     2
370
    13
100
AcDbLine
 10
618.5559105228737
 20
-326.7189726958404
 30
0.0
 11
393.5566528423416
 21
-326.7189726958404
 31
0.0
  0
LINE
  5
192
330
1F
100
AcDbEntity
  8
D-5
  6
Continuous
 62
     2
370
    13
100
AcDbLine
 10
618.5559105228737
 20
-276.7186840160473
 30
0.0
 11
618.5559105228737
 21
-326.7189726958404
 31
0.0
  0
LINE
  5
193
330
1F
100
AcDbEntity
  8
D-5
  6
Continuous
 62
     2
370
    13
100
AcDbLine
 10
393.5566528423416
 20
-276.7186840160473
 30
0.0
 11
618.5559105228737
 21
-276.7186840160473
 31
0.0
  0
LINE
  5
194
330
1F
100
AcDbEntity
  8
D-5
  6
Continuous
 62
     2
370
    13
100
AcDbLine
 10
393.5566528423416
 20
-326.7189726958404
 30
0.0
 11
393.5566528423416
 21
-276.7186840160473
 31
0.0
  0
LINE
  5
195
330
1F
100
AcDbEntity
  8
D-5
  6
Continuous
 62
     7
370
    13
100
AcDbLine
 10
-1101.518490507796
 20
-659.2418443834459
 30
0.0
 11
-984.1584012315076
 21
-387.6638958905194
 31
0.0
  0
LINE
  5
196
330
1F
100
AcDbEntity
  8
D-2
  6
Continuous
 62
     3
370
    13
100
AcDbLine
 10
-556.1156543525485
 20
-419.218659272065
 30
0.0
 11
-1053.784874323252
 21
-419.218659272065
 31
0.0
  0
LINE
  5
197
330
1F
100
AcDbEntity
  8
D-2
  6
Continuous
 62
     3
370
    13
100
AcDbLine
 10
-556.1156543525485
 20
-294.2186180320945
 30
0.0
 11
-556.1156543525485
 21
-419.218659272065
 31
0.0
  0
LINE
  5
198
330
1F
100
AcDbEntity
  8
D-2
  6
JWW_DASHED3
 62
     3
370
    13
100
AcDbLine
 10
-556.1156543525485
 20
-309.2186675200591
 30
0.0
 11
-1053.784874323252
 21
-309.2186675200591
 31
0.0
  0
LINE
  5
199
330
1F
100
AcDbEntity
  8
D-2
  6
Continuous
 62
     3
370
    13
100
AcDbLine
 10
-1053.784874323252
 20
-482.8700792467271
 30
0.0
 11
-1053.784874323252
 21
-210.5196236275337
 31
0.0
  0
LINE
  5
19A
330
1F
100
AcDbEntity
  8
D-4
  6
Continuous
 62
     7
370
    13
100
AcDbLine
 10
-984.1584012315076
 20
-387.6638958905194
 30
0.0
 11
-990.9952872508278
 21
-411.7108401736697
 31
0.0
  0
LINE
  5
19B
330
1F
100
AcDbEntity
  8
D-4
  6
Continuous
 62
     7
370
    13
100
AcDbLine
 10
-984.1584012315076
 20
-387.6638958905194
 30
0.0
 11
-996.9861146566027
 21
-409.1220010293496
 31
0.0
  0
LINE
  5
19C
330
1F
100
AcDbEntity
  8
D-5
  6
Continuous
 62
     7
370
    13
100
AcDbLine
 10
-1101.518490507796
 20
-659.2418443834459
 30
0.0
 11
-583.5787528269996
 21
-659.2418443834459
 31
0.0
  0
ARC
  5
19D
330
1F
100
AcDbEntity
  8
C-A
  6
Continuous
 62
     3
370
    13
100
AcDbCircle
 10
-903.9593812581652
 20
989.080513619088
 30
0.0
 40
2.999960167987927
100
AcDbArc
 50
90.0
 51
270.0
  0
ARC
  5
19E
330
1F
100
AcDbEntity
  8
C-A
  6
Continuous
 62
     3
370
    13
100
AcDbCircle
 10
-869.9592938294278
 20
989.080513619088
 30
0.0
 40
2.999960167987927
100
AcDbArc
 50
270.0
 51
90.0
  0
ARC
  5
19F
330
1F
100
AcDbEntity
  8
C-A
  6
Continuous
 62
     3
370
    13
100
AcDbCircle
 10
-823.9594884820883
 20
989.080513619088
 30
0.0
 40
2.999960167987927
100
AcDbArc
 50
90.0
 51
270.0
  0
ARC
  5
1A0
330
1F
100
AcDbEntity
  8
C-A
  6
Continuous
 62
     3
370
    13
100
AcDbCircle
 10
-789.9594010533509
 20
989.080513619088
 30
0.0
 40
2.999960167987927
100
AcDbArc
 50
270.0
 51
90.0
  0
ARC
  5
1A1
330
1F
100
AcDbEntity
  8
C-A
  6
Continuous
 62
     3
370
    13
100
AcDbCircle
 10
-743.9591008263662
 20
989.080513619088
 30
0.0
 40
2.999960167987927
100
AcDbArc
 50
90.0
 51
270.0
  0
ARC
  5
1A2
330
1F
100
AcDbEntity
  8
C-A
  6
Continuous
 62
     3
370
    13
100
AcDbCircle
 10
-709.9590133976287
 20
989.080513619088
 30
0.0
 40
2.999960167987927
100
AcDbArc
 50
270.0
 51
90.0
  0
ARC
  5
1A3
330
1F
100
AcDbEntity
  8
C-A
  6
Continuous
 62
     3
370
    13
100
AcDbCircle
 10
-663.9592080502894
 20
989.080513619088
 30
0.0
 40
2.999960167987927
100
AcDbArc
 50
90.0
 51
270.0
  0
ARC
  5
1A4
330
1F
100
AcDbEntity
  8
C-A
  6
Continuous
 62
     3
370
    13
100
AcDbCircle
 10
-629.9591206215518
 20
989.080513619088
 30
0.0
 40
2.999960167987927
100
AcDbArc
 50
270.0
 51
90.0
  0
ARC
  5
1A5
330
1F
100
AcDbEntity
  8
C-A
  6
Continuous
 62
     3
370
    13
100
AcDbCircle
 10
-663.9592080502894
 20
939.0803486592063
 30
0.0
 40
2.999960167987927
100
AcDbArc
 50
90.0
 51
270.0
  0
ARC
  5
1A6
330
1F
100
AcDbEntity
  8
C-A
  6
Continuous
 62
     3
370
    13
100
AcDbCircle
 10
-629.9591206215518
 20
939.0803486592063
 30
0.0
 40
2.999960167987927
100
AcDbArc
 50
270.0
 51
90.0
  0
ARC
  5
1A7
330
1F
100
AcDbEntity
  8
C-A
  6
Continuous
 62
     3
370
    13
100
AcDbCircle
 10
-743.9591008263662
 20
939.0803486592063
 30
0.0
 40
2.999960167987927
100
AcDbArc
 50
90.0
 51
270.0
  0
ARC
  5
1A8
330
1F
100
AcDbEntity
  8
C-A
  6
Continuous
 62
     3
370
    13
100
AcDbCircle
 10
-709.9590133976287
 20
939.0803486592063
 30
0.0
 40
2.999960167987927
100
AcDbArc
 50
270.0
 51
90.0
  0
ARC
  5
1A9
330
1F
100
AcDbEntity
  8
C-A
  6
Continuous
 62
     3
370
    13
100
AcDbCircle
 10
-823.9594884820883
 20
939.0803486592063
 30
0.0
 40
2.999960167987927
100
AcDbArc
 50
90.0
 51
270.0
  0
ARC
  5
1AA
330
1F
100
AcDbEntity
  8
C-A
  6
Continuous
 62
     3
370
    13
100
AcDbCircle
 10
-789.9594010533509
 20
939.0803486592063
 30
0.0
 40
2.999960167987927
100
AcDbArc
 50
270.0
 51
90.0
  0
ARC
  5
1AB
330
1F
100
AcDbEntity
  8
C-A
  6
Continuous
 62
     3
370
    13
100
AcDbCircle
 10
-903.9593812581652
 20
939.0803486592063
 30
0.0
 40
2.999960167987927
100
AcDbArc
 50
90.0
 51
270.0
  0
ARC
  5
1AC
330
1F
100
AcDbEntity
  8
C-A
  6
Continuous
 62
     3
370
    13
100
AcDbCircle
 10
-869.9592938294278
 20
939.0803486592063
 30
0.0
 40
2.999960167987927
100
AcDbArc
 50
270.0
 51
90.0
  0
ARC
  5
1AD
330
1F
100
AcDbEntity
  8
C-A
  6
Continuous
 62
     3
370
    13
100
AcDbCircle
 10
-903.9593812581652
 20
889.0804311391471
 30
0.0
 40
2.999960167987927
100
AcDbArc
 50
90.0
 51
270.0
  0
ARC
  5
1AE
330
1F
100
AcDbEntity
  8
C-A
  6
Continuous
 62
     3
370
    13
100
AcDbCircle
 10
-869.9592938294278
 20
889.0804311391471
 30
0.0
 40
2.999960167987927
100
AcDbArc
 50
270.0
 51
90.0
  0
ARC
  5
1AF
330
1F
100
AcDbEntity
  8
C-A
  6
Continuous
 62
     3
370
    13
100
AcDbCircle
 10
-823.9594884820883
 20
889.0804311391471
 30
0.0
 40
2.999960167987927
100
AcDbArc
 50
90.0
 51
270.0
  0
ARC
  5
1B0
330
1F
100
AcDbEntity
  8
C-A
  6
Continuous
 62
     3
370
    13
100
AcDbCircle
 10
-789.9594010533509
 20
889.0804311391471
 30
0.0
 40
2.999960167987927
100
AcDbArc
 50
270.0
 51
90.0
  0
ARC
  5
1B1
330
1F
100
AcDbEntity
  8
C-A
  6
Continuous
 62
     3
370
    13
100
AcDbCircle
 10
-743.9591008263662
 20
889.0804311391471
 30
0.0
 40
2.999960167987927
100
AcDbArc
 50
90.0
 51
270.0
  0
ARC
  5
1B2
330
1F
100
AcDbEntity
  8
C-A
  6
Continuous
 62
     3
370
    13
100
AcDbCircle
 10
-709.9590133976287
 20
889.0804311391471
 30
0.0
 40
2.999960167987927
100
AcDbArc
 50
270.0
 51
90.0
  0
ARC
  5
1B3
330
1F
100
AcDbEntity
  8
C-A
  6
Continuous
 62
     3
370
    13
100
AcDbCircle
 10
-663.9592080502894
 20
889.0804311391471
 30
0.0
 40
2.999960167987927
100
AcDbArc
 50
90.0
 51
270.0
  0
ARC
  5
1B4
330
1F
100
AcDbEntity
  8
C-A
  6
Continuous
 62
     3
370
    13
100
AcDbCircle
 10
-629.9591206215518
 20
889.0804311391471
 30
0.0
 40
2.999960167987927
100
AcDbArc
 50
270.0
 51
90.0
  0
ARC
  5
1B5
330
1F
100
AcDbEntity
  8
C-A
  6
Continuous
 62
     3
370
    13
100
AcDbCircle
 10
-663.9592080502894
 20
839.080513619088
 30
0.0
 40
2.999960167987927
100
AcDbArc
 50
90.0
 51
270.0
  0
ARC
  5
1B6
330
1F
100
AcDbEntity
  8
C-A
  6
Continuous
 62
     3
370
    13
100
AcDbCircle
 10
-629.9591206215518
 20
839.080513619088
 30
0.0
 40
2.999960167987927
100
AcDbArc
 50
270.0
 51
90.0
  0
ARC
  5
1B7
330
1F
100
AcDbEntity
  8
C-A
  6
Continuous
 62
     3
370
    13
100
AcDbCircle
 10
-743.9591008263662
 20
839.080513619088
 30
0.0
 40
2.999960167987927
100
AcDbArc
 50
90.0
 51
270.0
  0
ARC
  5
1B8
330
1F
100
AcDbEntity
  8
C-A
  6
Continuous
 62
     3
370
    13
100
AcDbCircle
 10
-709.9590133976287
 20
839.080513619088
 30
0.0
 40
2.999960167987927
100
AcDbArc
 50
270.0
 51
90.0
  0
ARC
  5
1B9
330
1F
100
AcDbEntity
  8
C-A
  6
Continuous
 62
     3
370
    13
100
AcDbCircle
 10
-823.9594884820883
 20
839.080513619088
 30
0.0
 40
2.999960167987927
100
AcDbArc
 50
90.0
 51
270.0
  0
ARC
  5
1BA
330
1F
100
AcDbEntity
  8
C-A
  6
Continuous
 62
     3
370
    13
100
AcDbCircle
 10
-789.9594010533509
 20
839.080513619088
 30
0.0
 40
2.999960167987927
100
AcDbArc
 50
270.0
 51
90.0
  0
ARC
  5
1BB
330
1F
100
AcDbEntity
  8
C-A
  6
Continuous
 62
     3
370
    13
100
AcDbCircle
 10
-903.9593812581652
 20
839.080513619088
 30
0.0
 40
2.999960167987927
100
AcDbArc
 50
90.0
 51
270.0
  0
ARC
  5
1BC
330
1F
100
AcDbEntity
  8
C-A
  6
Continuous
 62
     3
370
    13
100
AcDbCircle
 10
-869.9592938294278
 20
839.080513619088
 30
0.0
 40
2.999960167987927
100
AcDbArc
 50
270.0
 51
90.0
  0
ARC
  5
1BD
330
1F
100
AcDbEntity
  8
C-A
  6
Continuous
 62
     3
370
    13
100
AcDbCircle
 10
-903.9593812581652
 20
789.0803486592063
 30
0.0
 40
2.999960167987927
100
AcDbArc
 50
90.0
 51
270.0
  0
ARC
  5
1BE
330
1F
100
AcDbEntity
  8
C-A
  6
Continuous
 62
     3
370
    13
100
AcDbCircle
 10
-869.9592938294278
 20
789.0803486592063
 30
0.0
 40
2.999960167987927
100
AcDbArc
 50
270.0
 51
90.0
  0
ARC
  5
1BF
330
1F
100
AcDbEntity
  8
C-A
  6
Continuous
 62
     3
370
    13
100
AcDbCircle
 10
-823.9594884820883
 20
789.0803486592063
 30
0.0
 40
2.999960167987927
100
AcDbArc
 50
90.0
 51
270.0
  0
ARC
  5
1C0
330
1F
100
AcDbEntity
  8
C-A
  6
Continuous
 62
     3
370
    13
100
AcDbCircle
 10
-789.9594010533509
 20
789.0803486592063
 30
0.0
 40
2.999960167987927
100
AcDbArc
 50
270.0
 51
90.0
  0
ARC
  5
1C1
330
1F
100
AcDbEntity
  8
C-A
  6
Continuous
 62
     3
370
    13
100
AcDbCircle
 10
-743.9591008263662
 20
789.0803486592063
 30
0.0
 40
2.999960167987927
100
AcDbArc
 50
90.0
 51
270.0
  0
ARC
  5
1C2
330
1F
100
AcDbEntity
  8
C-A
  6
Continuous
 62
     3
370
    13
100
AcDbCircle
 10
-709.9590133976287
 20
789.0803486592063
 30
0.0
 40
2.999960167987927
100
AcDbArc
 50
270.0
 51
90.0
  0
ARC
  5
1C3
330
1F
100
AcDbEntity
  8
C-A
  6
Continuous
 62
     3
370
    13
100
AcDbCircle
 10
-663.9592080502894
 20
789.0803486592063
 30
0.0
 40
2.999960167987927
100
AcDbArc
 50
90.0
 51
270.0
  0
ARC
  5
1C4
330
1F
100
AcDbEntity
  8
C-A
  6
Continuous
 62
     3
370
    13
100
AcDbCircle
 10
-629.9591206215518
 20
789.0803486592063
 30
0.0
 40
2.999960167987927
100
AcDbArc
 50
270.0
 51
90.0
  0
ARC
  5
1C5
330
1F
100
AcDbEntity
  8
C-A
  6
Continuous
 62
     3
370
    13
100
AcDbCircle
 10
-663.9592080502894
 20
739.0804311391471
 30
0.0
 40
2.999960167987927
100
AcDbArc
 50
90.0
 51
270.0
  0
ARC
  5
1C6
330
1F
100
AcDbEntity
  8
C-A
  6
Continuous
 62
     3
370
    13
100
AcDbCircle
 10
-629.9591206215518
 20
739.0804311391471
 30
0.0
 40
2.999960167987927
100
AcDbArc
 50
270.0
 51
90.0
  0
ARC
  5
1C7
330
1F
100
AcDbEntity
  8
C-A
  6
Continuous
 62
     3
370
    13
100
AcDbCircle
 10
-743.9591008263662
 20
739.0804311391471
 30
0.0
 40
2.999960167987927
100
AcDbArc
 50
90.0
 51
270.0
  0
ARC
  5
1C8
330
1F
100
AcDbEntity
  8
C-A
  6
Continuous
 62
     3
370
    13
100
AcDbCircle
 10
-709.9590133976287
 20
739.0804311391471
 30
0.0
 40
2.999960167987927
100
AcDbArc
 50
270.0
 51
90.0
  0
ARC
  5
1C9
330
1F
100
AcDbEntity
  8
C-A
  6
Continuous
 62
     3
370
    13
100
AcDbCircle
 10
-823.9594884820883
 20
739.0804311391471
 30
0.0
 40
2.999960167987927
100
AcDbArc
 50
90.0
 51
270.0
  0
ARC
  5
1CA
330
1F
100
AcDbEntity
  8
C-A
  6
Continuous
 62
     3
370
    13
100
AcDbCircle
 10
-789.9594010533509
 20
739.0804311391471
 30
0.0
 40
2.999960167987927
100
AcDbArc
 50
270.0
 51
90.0
  0
ARC
  5
1CB
330
1F
100
AcDbEntity
  8
C-A
  6
Continuous
 62
     3
370
    13
100
AcDbCircle
 10
-903.9593812581652
 20
739.0804311391471
 30
0.0
 40
2.999960167987927
100
AcDbArc
 50
90.0
 51
270.0
  0
ARC
  5
1CC
330
1F
100
AcDbEntity
  8
C-A
  6
Continuous
 62
     3
370
    13
100
AcDbCircle
 10
-869.9592938294278
 20
739.0804311391471
 30
0.0
 40
2.999960167987927
100
AcDbArc
 50
270.0
 51
90.0
  0
ARC
  5
1CD
330
1F
100
AcDbEntity
  8
C-A
  6
Continuous
 62
     3
370
    13
100
AcDbCircle
 10
-903.9593812581652
 20
689.0802661792654
 30
0.0
 40
2.999960167987927
100
AcDbArc
 50
90.0
 51
270.0
  0
ARC
  5
1CE
330
1F
100
AcDbEntity
  8
C-A
  6
Continuous
 62
     3
370
    13
100
AcDbCircle
 10
-869.9592938294278
 20
689.0802661792654
 30
0.0
 40
2.999960167987927
100
AcDbArc
 50
270.0
 51
90.0
  0
ARC
  5
1CF
330
1F
100
AcDbEntity
  8
C-A
  6
Continuous
 62
     3
370
    13
100
AcDbCircle
 10
-823.9594884820883
 20
689.0802661792654
 30
0.0
 40
2.999960167987927
100
AcDbArc
 50
90.0
 51
270.0
  0
ARC
  5
1D0
330
1F
100
AcDbEntity
  8
C-A
  6
Continuous
 62
     3
370
    13
100
AcDbCircle
 10
-789.9594010533509
 20
689.0802661792654
 30
0.0
 40
2.999960167987927
100
AcDbArc
 50
270.0
 51
90.0
  0
ARC
  5
1D1
330
1F
100
AcDbEntity
  8
C-A
  6
Continuous
 62
     3
370
    13
100
AcDbCircle
 10
-743.9591008263662
 20
689.0802661792654
 30
0.0
 40
2.999960167987927
100
AcDbArc
 50
90.0
 51
270.0
  0
ARC
  5
1D2
330
1F
100
AcDbEntity
  8
C-A
  6
Continuous
 62
     3
370
    13
100
AcDbCircle
 10
-709.9590133976287
 20
689.0802661792654
 30
0.0
 40
2.999960167987927
100
AcDbArc
 50
270.0
 51
90.0
  0
ARC
  5
1D3
330
1F
100
AcDbEntity
  8
C-A
  6
Continuous
 62
     3
370
    13
100
AcDbCircle
 10
-663.9592080502894
 20
689.0802661792654
 30
0.0
 40
2.999960167987927
100
AcDbArc
 50
90.0
 51
270.0
  0
ARC
  5
1D4
330
1F
100
AcDbEntity
  8
C-A
  6
Continuous
 62
     3
370
    13
100
AcDbCircle
 10
-629.9591206215518
 20
689.0802661792654
 30
0.0
 40
2.999960167987927
100
AcDbArc
 50
270.0
 51
90.0
  0
ARC
  5
1D5
330
1F
100
AcDbEntity
  8
C-0
  6
Continuous
 62
     3
370
    13
100
AcDbCircle
 10
-107.3194490896685
 20
814.0804311391471
 30
0.0
 40
14.99999922675056
100
AcDbArc
 50
1.165664672851562
 51
89.9994354248047
  0
ARC
  5
1D6
330
1F
100
AcDbEntity
  8
C-0
  6
Continuous
 62
     3
370
    13
100
AcDbCircle
 10
-107.3184593303779
 20
814.0804311391471
 30
0.0
 40
14.99999922675056
100
AcDbArc
 50
270.0
 51
0.0012359619140681
  0
ARC
  5
1D7
330
1F
100
AcDbEntity
  8
C-0
  6
Continuous
 62
     3
370
    13
100
AcDbCircle
 10
-277.3187727541531
 20
814.0804311391471
 30
0.0
 40
14.99999922675056
100
AcDbArc
 50
179.9994049072265
 51
270.0
  0
ARC
  5
1D8
330
1F
100
AcDbEntity
  8
C-0
  6
Continuous
 62
     3
370
    13
100
AcDbCircle
 10
-277.3187727541531
 20
814.0804311391471
 30
0.0
 40
14.99999922675056
100
AcDbArc
 50
89.99996948242188
 51
179.9988098144531
  0
ARC
  5
1D9
330
1F
100
AcDbEntity
  8
D-A
  6
Continuous
 62
     3
370
    13
100
AcDbCircle
 10
-341.1156873445248
 20
-390.8606946790541
 30
0.0
 40
10.00000012887491
100
AcDbArc
 50
7.016464233398438
 51
45.0
  0
ARC
  5
1DA
330
1F
100
AcDbEntity
  8
D-A
  6
Continuous
 62
     3
370
    13
100
AcDbCircle
 10
-216.1157698244656
 20
-371.71875
 30
0.0
 40
10.00000012887491
100
AcDbArc
 50
7.016464233398438
 51
90.0
  0
ARC
  5
1DB
330
1F
100
AcDbEntity
  8
D-A
  6
Continuous
 62
     3
370
    13
100
AcDbCircle
 10
-295.7602152953274
 20
-336.718758247994
 30
0.0
 40
25.00000128874908
100
AcDbArc
 50
225.0
 51
270.0
  0
ARC
  5
1DC
330
1F
100
AcDbEntity
  8
D-A
  6
JWW_DASHED3
 62
     3
370
    13
100
AcDbCircle
 10
-324.6154102119235
 20
-350.71890341269
 30
0.0
 40
6.50000008376869
100
AcDbArc
 50
270.0
 51
0.0
  0
ARC
  5
1DD
330
1F
100
AcDbEntity
  8
D-A
  6
Continuous
 62
     3
370
    13
100
AcDbCircle
 10
-324.6154102119235
 20
-327.7187532991975
 30
0.0
 40
6.50000008376869
100
AcDbArc
 50
0.0
 51
90.0
  0
ARC
  5
1DE
330
1F
100
AcDbEntity
  8
D-9
  6
Continuous
 62
     4
370
    13
100
AcDbCircle
 10
-491.1151924648797
 20
-299.218758247994
 30
0.0
 40
5.000000064437454
100
AcDbArc
 50
90.0
 51
180.0
  0
ARC
  5
1DF
330
1F
100
AcDbEntity
  8
D-1
  6
Continuous
 62
     2
370
    13
100
AcDbCircle
 10
-426.1149780170334
 20
-326.718477816195
 30
0.0
 40
5.000000064437454
100
AcDbArc
 50
233.1302490234375
 51
270.0000000000001
  0
ARC
  5
1E0
330
1F
100
AcDbEntity
  8
D-1
  6
Continuous
 62
     2
370
    13
100
AcDbCircle
 10
-501.1149780170334
 20
-316.7186922640412
 30
0.0
 40
5.000000064437454
100
AcDbArc
 50
90.0
 51
180.0
  0
ARC
  5
1E1
330
1F
100
AcDbEntity
  8
D-1
  6
Continuous
 62
     2
370
    13
100
AcDbCircle
 10
-376.1150604969743
 20
-336.7185108081713
 30
0.0
 40
5.000000064437454
100
AcDbArc
 50
0.0
 51
90.0
  0
ARC
  5
1E2
330
1F
100
AcDbEntity
  8
D-1
  6
Continuous
 62
     2
370
    13
100
AcDbCircle
 10
-376.1150604969743
 20
-326.718477816195
 30
0.0
 40
5.000000064437454
100
AcDbArc
 50
270.0
 51
0.0
  0
ARC
  5
1E3
330
1F
100
AcDbEntity
  8
D-1
  6
Continuous
 62
     2
370
    13
100
AcDbCircle
 10
-354.1149384266618
 20
-279.718396985853
 30
0.0
 40
3.000000038662472
100
AcDbArc
 50
0.0
 51
90.0
  0
ARC
  5
1E4
330
1F
100
AcDbEntity
  8
D-1
  6
Continuous
 62
     2
370
    13
100
AcDbCircle
 10
-373.1151000873459
 20
-279.718396985853
 30
0.0
 40
3.000000038662472
100
AcDbArc
 50
90.0
 51
180.0
  0
ARC
  5
1E5
330
1F
100
AcDbEntity
  8
D-1
  6
Continuous
 62
     2
370
    13
100
AcDbCircle
 10
-354.1149384266618
 20
-398.7185174065667
 30
0.0
 40
3.000000038662472
100
AcDbArc
 50
270.0
 51
0.0
  0
ARC
  5
1E6
330
1F
100
AcDbEntity
  8
D-1
  6
Continuous
 62
     2
370
    13
100
AcDbCircle
 10
-373.1151000873459
 20
-398.7185174065667
 30
0.0
 40
3.000000038662472
100
AcDbArc
 50
180.0
 51
270.0
  0
ARC
  5
1E7
330
1F
100
AcDbEntity
  8
D-1
  6
Continuous
 62
     2
370
    13
100
AcDbCircle
 10
-447.7654676179625
 20
-316.6685856999577
 30
0.0
 40
4.950000305433531
100
AcDbArc
 50
53.12966918945312
 51
90.0
  0
ARC
  5
1E8
330
1F
100
AcDbEntity
  8
D-1
  6
Continuous
 62
     2
370
    13
100
AcDbCircle
 10
-501.1149780170334
 20
-331.7183705922719
 30
0.0
 40
5.000000064437454
100
AcDbArc
 50
180.0
 51
270.0
  0
ARC
  5
1E9
330
1F
100
AcDbEntity
  8
D-1
  6
Continuous
 62
     2
370
    13
100
AcDbCircle
 10
-490.4453728650063
 20
-316.7186922640412
 30
0.0
 40
5.000000064437454
100
AcDbArc
 50
59.99996948242189
 51
90.00000000000003
  0
ARC
  5
1EA
330
1F
100
AcDbEntity
  8
D-1
  6
Continuous
 62
     2
370
    13
100
AcDbCircle
 10
-461.784913088824
 20
-316.7186922640412
 30
0.0
 40
5.000000064437454
100
AcDbArc
 50
90.0
 51
120.0000305175781
  0
ARC
  5
1EB
330
1F
100
AcDbEntity
  8
D-1
  6
Continuous
 62
     2
370
    13
100
AcDbCircle
 10
-476.1151429769151
 20
-319.2187005120354
 30
0.0
 40
5.000000064437454
100
AcDbArc
 50
239.9999694824219
 51
300.0000305175781
  0
TEXT
  5
1EC
330
1F
100
AcDbEntity
  8
C-4
  6
Continuous
 62
     2
370
    13
100
AcDbText
 10
-941.0916774337352
 20
1129.720216691301
 30
0.0
 40
30.48
  1
25
 41
1.0625
  7
ＭＳ ゴシック
100
AcDbText
  0
TEXT
  5
1ED
330
1F
100
AcDbEntity
  8
C-4
  6
Continuous
 62
     2
370
    13
100
AcDbText
 10
-639.3398034894784
 20
1129.720216691301
 30
0.0
 40
30.48
  1
25
 41
1.0625
  7
ＭＳ ゴシック
100
AcDbText
  0
TEXT
  5
1EE
330
1F
100
AcDbEntity
  8
C-4
  6
Continuous
 62
     2
370
    13
100
AcDbText
 10
-957.5888986845271
 20
1184.720150707348
 30
0.0
 40
30.48
  1
1
 41
0.9999999999999998
  7
ＭＳ ゴシック
100
AcDbText
  0
TEXT
  5
1EF
330
1F
100
AcDbEntity
  8
C-4
  6
Continuous
 62
     2
370
    13
100
AcDbText
 10
-600.8677732622298
 20
1184.720150707348
 30
0.0
 40
30.48
  1
1
 41
0.9999999999999998
  7
ＭＳ ゴシック
100
AcDbText
  0
TEXT
  5
1F0
330
1F
100
AcDbEntity
  8
C-4
  6
Continuous
 62
     2
370
    13
100
AcDbText
 10
-799.459003500036
 20
1129.719969251478
 30
0.0
 40
30.48
  1
350
 41
1.083333333333333
  7
ＭＳ ゴシック
100
AcDbText
  0
TEXT
  5
1F1
330
1F
100
AcDbEntity
  8
C-4
  6
Continuous
 62
     2
370
    13
100
AcDbText
 10
-799.4589820296266
 20
1184.72015070737
 30
0.0
 40
30.48
  1
400
 50
359.9997818882351
 41
1.083333333333334
  7
ＭＳ ゴシック
100
AcDbText
  0
TEXT
  5
1F2
330
1F
100
AcDbEntity
  8
C-4
  6
Continuous
 62
     2
370
    13
100
AcDbText
 10
-1042.599275683841
 20
692.8304723791176
 30
0.0
 40
30.48
  1
50
 50
90.0
 41
1.0625
  7
ＭＳ ゴシック
100
AcDbText
  0
TEXT
  5
1F3
330
1F
100
AcDbEntity
  8
C-4
  6
Continuous
 62
     2
370
    13
100
AcDbText
 10
-868.2092674358466
 20
576.7204212415542
 30
0.0
 40
30.48
  1
80
 41
1.0625
  7
ＭＳ ゴシック
100
AcDbText
  0
TEXT
  5
1F4
330
1F
100
AcDbEntity
  8
C-3
  6
Continuous
 62
     7
370
    13
100
AcDbText
 10
-662.028315518353
 20
506.2858455183701
 30
0.0
 40
22.86
  1
被膜厚さ７５μ（色：グレ－）
 41
1.154761904761905
  7
ＭＳ ゴシック
100
AcDbText
  0
TEXT
  5
1F5
330
1F
100
AcDbEntity
  8
C-3
  6
Continuous
 62
     7
370
    13
100
AcDbText
 10
-552.6209132735789
 20
559.2604845861488
 30
0.0
 40
22.86
  1
セラミクス溶射
 41
1.142857142857143
  7
ＭＳ ゴシック
100
AcDbText
  0
TEXT
  5
1F6
330
1F
100
AcDbEntity
  8
C-0
  6
Continuous
 62
     2
370
    13
100
AcDbText
 10
-213.5686160422655
 20
916.9402797719596
 30
0.0
 40
30.48
  1
40
 41
1.0625
  7
ＭＳ ゴシック
100
AcDbText
  0
TEXT
  5
1F7
330
1F
100
AcDbEntity
  8
C-0
  6
Continuous
 62
     2
370
    13
100
AcDbText
 10
-23.12394708375628
 20
804.0809260187923
 30
0.0
 40
30.48
  1
6
 50
90.0
 41
0.9999999999999998
  7
ＭＳ ゴシック
100
AcDbText
  0
TEXT
  5
1F8
330
1F
100
AcDbEntity
  8
C-5
  6
Continuous
 62
     2
370
    13
100
AcDbText
 10
-429.9116905315498
 20
691.1828664748734
 30
0.0
 40
30.48
  1
排水穴詳細　Ｓ＝１：２
 41
1.113636363636364
  7
ＭＳ ゴシック
100
AcDbText
  0
TEXT
  5
1F9
330
1F
100
AcDbEntity
  8
C-5
  6
Continuous
 62
     2
370
    13
100
AcDbText
 10
-1034.45937465977
 20
414.2207511613177
 30
0.0
 40
30.48
  1
平面詳細図　Ｓ＝１：１０
 41
1.114583333333333
  7
ＭＳ ゴシック
100
AcDbText
  0
TEXT
  5
1FA
330
1F
100
AcDbEntity
  8
C-4
  6
Continuous
 62
     2
370
    13
100
AcDbText
 10
-1010.202492121103
 20
1184.720150707348
 30
0.0
 40
30.48
  1
5
 41
0.9999999999999998
  7
ＭＳ ゴシック
100
AcDbText
  0
TEXT
  5
1FB
330
1F
100
AcDbEntity
  8
C-4
  6
Continuous
 62
     2
370
    13
100
AcDbText
 10
-543.8768147133488
 20
1184.720150707348
 30
0.0
 40
30.48
  1
5
 41
0.9999999999999998
  7
ＭＳ ゴシック
100
AcDbText
  0
TEXT
  5
1FC
330
1F
100
AcDbEntity
  8
C-4
  6
Continuous
 62
     2
370
    13
100
AcDbText
 10
-799.4589820296266
 20
1238.906750026416
 30
0.0
 40
30.48
  1
412
 50
359.9997818882351
 41
1.083333333333334
  7
ＭＳ ゴシック
100
AcDbText
  0
TEXT
  5
1FD
330
1F
100
AcDbEntity
  8
D-4
  6
Continuous
 62
     2
370
    13
100
AcDbText
 10
-414.0609759253421
 20
-36.40774598817551
 30
0.0
 40
30.48
  1
1
 41
0.9999999999999998
  7
ＭＳ ゴシック
100
AcDbText
  0
TEXT
  5
1FE
330
1F
100
AcDbEntity
  8
D-4
  6
Continuous
 62
     2
370
    13
100
AcDbText
 10
-464.8652831928146
 20
-145.1590326752534
 30
0.0
 40
30.48
  1
25
 41
1.0625
  7
ＭＳ ゴシック
100
AcDbText
  0
TEXT
  5
1FF
330
1F
100
AcDbEntity
  8
D-5
  6
Continuous
 62
     7
370
    13
100
AcDbText
 10
-255.7595637037943
 20
-106.0557105152026
 30
0.0
 40
22.86
  1
塩ビクッション
 41
1.142857142857143
  7
ＭＳ ゴシック
100
AcDbText
  0
TEXT
  5
200
330
1F
100
AcDbEntity
  8
D-4
  6
Continuous
 62
     2
370
    13
100
AcDbText
 10
-496.5118220045755
 20
-671.6977372123099
 30
0.0
 40
30.48
  1
25～30
 41
1.104166666666667
  7
ＭＳ ゴシック
100
AcDbText
  0
TEXT
  5
201
330
1F
100
AcDbEntity
  8
D-4
  6
Continuous
 62
     2
370
    13
100
AcDbText
 10
-373.9840757524641
 20
-826.1619846323374
 30
0.0
 40
30.48
  1
75～80
 41
1.104166666666667
  7
ＭＳ ゴシック
100
AcDbText
  0
TEXT
  5
202
330
1F
100
AcDbEntity
  8
D-4
  6
Continuous
 62
     2
370
    13
100
AcDbText
 10
154.9295428075021
 20
-472.2318659601984
 30
0.0
 40
30.48
  1
40～50
 50
90.0
 41
1.104166666666667
  7
ＭＳ ゴシック
100
AcDbText
  0
TEXT
  5
203
330
1F
100
AcDbEntity
  8
D-4
  6
Continuous
 62
     2
370
    13
100
AcDbText
 10
-322.4771255235969
 20
-456.6103002277009
 30
0.0
 40
30.48
  1
29
 50
0.0010007472011468
 41
1.0625
  7
ＭＳ ゴシック
100
AcDbText
  0
TEXT
  5
204
330
1F
100
AcDbEntity
  8
D-4
  6
Continuous
 62
     2
370
    13
100
AcDbText
 10
-128.7057770827005
 20
-407.9686757680532
 30
0.0
 40
30.48
  1
10
 50
90.0
 41
1.0625
  7
ＭＳ ゴシック
100
AcDbText
  0
TEXT
  5
205
330
1F
100
AcDbEntity
  8
D-4
  6
Continuous
 62
     2
370
    13
100
AcDbText
 10
-128.7057770827005
 20
-340.4684530722128
 30
0.0
 40
30.48
  1
17
 50
90.0
 41
1.0625
  7
ＭＳ ゴシック
100
AcDbText
  0
TEXT
  5
206
330
1F
100
AcDbEntity
  8
D-4
  6
Continuous
 62
     2
370
    13
100
AcDbText
 10
-662.2382444866279
 20
-370.723415065456
 30
0.0
 40
30.48
  1
25
 50
90.0
 41
1.0625
  7
ＭＳ ゴシック
100
AcDbText
  0
TEXT
  5
207
330
1F
100
AcDbEntity
  8
D-4
  6
Continuous
 62
     2
370
    13
100
AcDbText
 10
-340.0038453694931
 20
-36.40774598817551
 30
0.0
 40
30.48
  1
5
 41
0.9999999999999998
  7
ＭＳ ゴシック
100
AcDbText
  0
TEXT
  5
208
330
1F
100
AcDbEntity
  8
D-5
  6
Continuous
 62
     2
370
    13
100
AcDbText
 10
-805.6102117267995
 20
-954.5210833245367
 30
0.0
 40
30.48
  1
断面詳細図　Ｓ＝１：２
 50
359.9999855334109
 41
1.113636363636364
  7
ＭＳ ゴシック
100
AcDbText
  0
TEXT
  5
209
330
1F
100
AcDbEntity
  8
D-5
  6
Continuous
 62
     7
370
    13
100
AcDbText
 10
-199.5655015996981
 20
-255.3029985747466
 30
0.0
 40
22.86
  1
ｔ＝２．３（ＳＰＨＣ）
 41
1.151515151515152
  7
ＭＳ ゴシック
100
AcDbText
  0
TEXT
  5
20A
330
1F
100
AcDbEntity
  8
D-5
  6
Continuous
 62
     2
370
    13
100
AcDbText
 10
555.3582869349303
 20
-783.7618719647381
 30
0.0
 40
30.48
  1
材質：冷間圧延ステンレス鋼板（ＳＵＳ３０４－２Ｂ）
 41
1.12
  7
ＭＳ ゴシック
100
AcDbText
  0
TEXT
  5
20B
330
1F
100
AcDbEntity
  8
D-5
  6
Continuous
 62
     7
370
    13
100
AcDbText
 10
-256.9527432725232
 20
-159.6811163165117
 30
0.0
 40
22.86
  1
ステンレス製受枠ＳＦ０３Ｂ
 41
1.153846153846154
  7
ＭＳ ゴシック
100
AcDbText
  0
TEXT
  5
20C
330
1F
100
AcDbEntity
  8
D-4
  6
Continuous
 62
     2
370
    13
100
AcDbText
 10
-873.4823224268729
 20
-260.596647520323
 30
0.0
 40
30.48
  1
3
 50
90.0
 41
0.9999999999999998
  7
ＭＳ ゴシック
100
AcDbText
  0
TEXT
  5
20D
330
1F
100
AcDbEntity
  8
D-5
  6
Continuous
 62
     7
370
    13
100
AcDbText
 10
-251.44595352379
 20
-6.621646629539573
 30
0.0
 40
22.86
  1
ノンスリップタイプ
 41
1.148148148148148
  7
ＭＳ ゴシック
100
AcDbText
  0
TEXT
  5
20E
330
1F
100
AcDbEntity
  8
D-5
  6
Continuous
 62
     7
370
    13
100
AcDbText
 10
-252.6510266999937
 20
-41.24899400865702
 30
0.0
 40
22.86
  1
ステンレス製排水用蓋ＳＺ－３（ｔ＝３）
 41
1.157894736842105
  7
ＭＳ ゴシック
100
AcDbText
  0
TEXT
  5
20F
330
1F
100
AcDbEntity
  8
D-5
  6
Continuous
 62
     2
370
    13
100
AcDbText
 10
441.0561579626965
 20
-316.0785850401182
 30
0.0
 40
30.48
  1
仕　様
 41
1.083333333333333
  7
ＭＳ ゴシック
100
AcDbText
  0
TEXT
  5
210
330
1F
100
AcDbEntity
  8
D-5
  6
Continuous
 62
     2
370
    13
100
AcDbText
 10
555.3585343747532
 20
-443.9992822265625
 30
0.0
 40
30.48
  1
材質：冷間圧延ステンレス鋼板（ＳＵＳ３０４－２Ｂ）
 41
1.12
  7
ＭＳ ゴシック
100
AcDbText
  0
TEXT
  5
211
330
1F
100
AcDbEntity
  8
D-5
  6
Continuous
 62
     2
370
    13
100
AcDbText
 10
555.3585096307709
 20
-508.9993110945418
 30
0.0
 40
30.48
  1
処理：ヘアライン
 41
1.109375
  7
ＭＳ ゴシック
100
AcDbText
  0
TEXT
  5
212
330
1F
100
AcDbEntity
  8
D-5
  6
Continuous
 62
     7
370
    13
100
AcDbText
 10
-1078.544579325495
 20
-694.09632528769
 30
0.0
 40
22.86
  1
（ＳＵＳ３０４）
 41
1.145833333333333
  7
ＭＳ ゴシック
100
AcDbText
  0
TEXT
  5
213
330
1F
100
AcDbEntity
  8
D-5
  6
Continuous
 62
     2
370
    13
100
AcDbText
 10
495.646628560247
 20
-378.9991914986275
 30
0.0
 40
30.48
  1
ノンスリップタイプステンレス製排水用蓋　ＳＺ－３　４００×４００
 41
1.12109375
  7
ＭＳ ゴシック
100
AcDbText
  0
TEXT
  5
214
330
1F
100
AcDbEntity
  8
D-4
  6
Continuous
 62
     2
370
    13
100
AcDbText
 10
-1081.694667661512
 20
78.4896984533362
 30
0.0
 40
30.48
  1
□412
 41
1.1
  7
ＭＳ ゴシック
100
AcDbText
  0
TEXT
  5
215
330
1F
100
AcDbEntity
  8
D-4
  6
Continuous
 62
     2
370
    13
100
AcDbText
 10
-1081.694667661512
 20
-33.17370750633437
 30
0.0
 40
30.48
  1
□400
 41
1.1
  7
ＭＳ ゴシック
100
AcDbText
  0
TEXT
  5
216
330
1F
100
AcDbEntity
  8
D-4
  6
Continuous
 62
     2
370
    13
100
AcDbText
 10
-1079.735624725754
 20
-138.9600465186865
 30
0.0
 40
30.48
  1
□350
 41
1.1
  7
ＭＳ ゴシック
100
AcDbText
  0
TEXT
  5
217
330
1F
100
AcDbEntity
  8
D-5
  6
Continuous
 62
     7
370
    13
100
AcDbText
 10
-1078.544542209522
 20
-643.347283704603
 30
0.0
 40
22.86
  1
補強材Ｌ２５×２５×３～２本
 41
1.154761904761905
  7
ＭＳ ゴシック
100
AcDbText
  0
TEXT
  5
218
330
1F
100
AcDbEntity
  8
D-5
  6
Continuous
 62
     7
370
    13
100
AcDbText
 10
-199.1752725034142
 20
-218.7344857870565
 30
0.0
 40
22.86
  1
溶接用アンカ－
 41
1.142857142857143
  7
ＭＳ ゴシック
100
AcDbText
  0
TEXT
  5
219
330
1F
100
AcDbEntity
  8
D-5
  6
Continuous
 62
     2
370
    13
100
AcDbText
 10
495.6466533042293
 20
-718.7621523965371
 30
0.0
 40
30.48
  1
ステンレス製受枠　ＳＦ０３Ｂ（四方枠）
 41
1.118421052631579
  7
ＭＳ ゴシック
100
AcDbText
  0
TEXT
  5
21A
330
1F
100
AcDbEntity
  8
F-4
  6
Continuous
 62
     2
370
    13
100
AcDbText
 10
-798.5002327480828
 20
-1349.359880404086
 30
0.0
 40
30.48
  1
ノンスリップタイプステンレス製排水用蓋　ＳＺ－３　４００×４００＋ＳＦ０３Ｂ
 41
0.7743421052631578
  7
ＭＳ ゴシック
100
AcDbText
  0
LWPOLYLINE
  5
21B
330
1F
100
AcDbEntity
  8
C-4
  6
Continuous
 62
     7
370
    13
100
AcDbPolyline
 90
        4
 70
     1
 43
1.0
 10
-966.4591684599177
 20
1174.079886771538
 42
0.4142135623731
 10
-966.9591684599176
 20
1174.579886771538
 42
0.4142135623731
 10
-967.4591684599176
 20
1174.079886771538
 42
0.4142135623731
 10
-966.9591684599176
 20
1173.579886771538
 42
0.4142135623731
  0
LWPOLYLINE
  5
21C
330
1F
100
AcDbEntity
  8
C-4
  6
Continuous
 62
     7
370
    13
100
AcDbPolyline
 90
        4
 70
     1
 43
1.0
 10
-566.4593334197996
 20
1174.079886771538
 42
0.4142135623731
 10
-566.9593334197996
 20
1174.579886771538
 42
0.4142135623731
 10
-567.4593334197995
 20
1174.079886771538
 42
0.4142135623731
 10
-566.9593334197996
 20
1173.579886771538
 42
0.4142135623731
  0
LWPOLYLINE
  5
21D
330
1F
100
AcDbEntity
  8
C-4
  6
Continuous
 62
     7
370
    13
100
AcDbPolyline
 90
        4
 70
     1
 43
1.0
 10
-974.4592690854455
 20
1229.079820787584
 42
0.4142135623731
 10
-974.9592690854455
 20
1229.579820787584
 42
0.4142135623731
 10
-975.4592690854454
 20
1229.079820787584
 42
0.4142135623731
 10
-974.9592690854455
 20
1228.579820787584
 42
0.4142135623731
  0
LWPOLYLINE
  5
21E
330
1F
100
AcDbEntity
  8
C-4
  6
Continuous
 62
     7
370
    13
100
AcDbPolyline
 90
        4
 70
     1
 43
1.0
 10
-558.459480234094
 20
1229.079820787584
 42
0.4142135623731
 10
-558.959480234094
 20
1229.579820787584
 42
0.4142135623731
 10
-559.459480234094
 20
1229.079820787584
 42
0.4142135623731
 10
-558.959480234094
 20
1228.579820787584
 42
0.4142135623731
  0
LWPOLYLINE
  5
21F
330
1F
100
AcDbEntity
  8
C-4
  6
Continuous
 62
     7
370
    13
100
AcDbPolyline
 90
        4
 70
     1
 43
1.0
 10
-941.4588385401543
 20
1119.080447635135
 42
0.4142135623731
 10
-941.9588385401541
 20
1119.580447635135
 42
0.4142135623731
 10
-942.4588385401541
 20
1119.080447635135
 42
0.4142135623731
 10
-941.9588385401541
 20
1118.580447635135
 42
0.4142135623731
  0
LWPOLYLINE
  5
220
330
1F
100
AcDbEntity
  8
C-4
  6
Continuous
 62
     7
370
    13
100
AcDbPolyline
 90
        4
 70
     1
 43
1.0
 10
-591.4591684599178
 20
1119.080447635135
 42
0.4142135623731
 10
-591.9591684599177
 20
1119.580447635135
 42
0.4142135623731
 10
-592.4591684599177
 20
1119.080447635135
 42
0.4142135623731
 10
-591.9591684599177
 20
1118.580447635135
 42
0.4142135623731
  0
LWPOLYLINE
  5
221
330
1F
100
AcDbEntity
  8
C-4
  6
Continuous
 62
     7
370
    13
100
AcDbPolyline
 90
        4
 70
     1
 43
1.0
 10
-966.4591684599177
 20
1119.080447635135
 42
0.4142135623731
 10
-966.9591684599176
 20
1119.580447635135
 42
0.4142135623731
 10
-967.4591684599176
 20
1119.080447635135
 42
0.4142135623731
 10
-966.9591684599176
 20
1118.580447635135
 42
0.4142135623731
  0
LWPOLYLINE
  5
222
330
1F
100
AcDbEntity
  8
C-4
  6
Continuous
 62
     7
370
    13
100
AcDbPolyline
 90
        4
 70
     1
 43
1.0
 10
-566.4598282994446
 20
1119.080447635135
 42
0.4142135623731
 10
-566.9598282994446
 20
1119.580447635135
 42
0.4142135623731
 10
-567.4598282994446
 20
1119.080447635135
 42
0.4142135623731
 10
-566.9598282994446
 20
1118.580447635135
 42
0.4142135623731
  0
LWPOLYLINE
  5
223
330
1F
100
AcDbEntity
  8
C-4
  6
Continuous
 62
     7
370
    13
100
AcDbPolyline
 90
        4
 70
     1
 43
1.0
 10
-967.459320223009
 20
1174.079886771538
 42
0.4142135623731
 10
-967.959320223009
 20
1174.579886771538
 42
0.4142135623731
 10
-968.4593202230088
 20
1174.079886771538
 42
0.4142135623731
 10
-967.959320223009
 20
1173.579886771538
 42
0.4142135623731
  0
LWPOLYLINE
  5
224
330
1F
100
AcDbEntity
  8
C-4
  6
Continuous
 62
     7
370
    13
100
AcDbPolyline
 90
        4
 70
     1
 43
1.0
 10
-974.4592690854455
 20
1174.079886771538
 42
0.4142135623731
 10
-974.9592690854455
 20
1174.579886771538
 42
0.4142135623731
 10
-975.4592690854454
 20
1174.079886771538
 42
0.4142135623731
 10
-974.9592690854455
 20
1173.579886771538
 42
0.4142135623731
  0
LWPOLYLINE
  5
225
330
1F
100
AcDbEntity
  8
C-4
  6
Continuous
 62
     7
370
    13
100
AcDbPolyline
 90
        4
 70
     1
 43
1.0
 10
-565.4594290965308
 20
1174.079886771538
 42
0.4142135623731
 10
-565.9594290965308
 20
1174.579886771538
 42
0.4142135623731
 10
-566.4594290965307
 20
1174.079886771538
 42
0.4142135623731
 10
-565.9594290965308
 20
1173.579886771538
 42
0.4142135623731
  0
LWPOLYLINE
  5
226
330
1F
100
AcDbEntity
  8
C-4
  6
Continuous
 62
     7
370
    13
100
AcDbPolyline
 90
        4
 70
     1
 43
1.0
 10
-558.459480234094
 20
1174.079886771538
 42
0.4142135623731
 10
-558.959480234094
 20
1174.579886771538
 42
0.4142135623731
 10
-559.459480234094
 20
1174.079886771538
 42
0.4142135623731
 10
-558.959480234094
 20
1173.579886771538
 42
0.4142135623731
  0
LWPOLYLINE
  5
227
330
1F
100
AcDbEntity
  8
C-4
  6
Continuous
 62
     7
370
    13
100
AcDbPolyline
 90
        4
 70
     1
 43
1.0
 10
-1031.459259187853
 20
739.0804311391471
 42
0.4142135623731
 10
-1031.959259187853
 20
739.5804311391471
 42
0.4142135623731
 10
-1032.459259187853
 20
739.0804311391471
 42
0.4142135623731
 10
-1031.959259187853
 20
738.5804311391472
 42
0.4142135623731
  0
LWPOLYLINE
  5
228
330
1F
100
AcDbEntity
  8
C-4
  6
Continuous
 62
     7
370
    13
100
AcDbPolyline
 90
        4
 70
     1
 43
1.0
 10
-1031.459259187853
 20
689.0802661792654
 42
0.4142135623731
 10
-1031.959259187853
 20
689.5802661792653
 42
0.4142135623731
 10
-1032.459259187853
 20
689.0802661792654
 42
0.4142135623731
 10
-1031.959259187853
 20
688.5802661792654
 42
0.4142135623731
  0
LWPOLYLINE
  5
229
330
1F
100
AcDbEntity
  8
C-4
  6
Continuous
 62
     7
370
    13
100
AcDbPolyline
 90
        4
 70
     1
 43
1.0
 10
-886.4592756838408
 20
566.0806521853885
 42
0.4142135623731
 10
-886.9592756838408
 20
566.5806521853885
 42
0.4142135623731
 10
-887.4592756838408
 20
566.0806521853885
 42
0.4142135623731
 10
-886.9592756838408
 20
565.5806521853885
 42
0.4142135623731
  0
LWPOLYLINE
  5
22A
330
1F
100
AcDbEntity
  8
C-4
  6
Continuous
 62
     7
370
    13
100
AcDbPolyline
 90
        4
 70
     1
 43
1.0
 10
-806.4593829077639
 20
566.0806521853885
 42
0.4142135623731
 10
-806.9593829077639
 20
566.5806521853885
 42
0.4142135623731
 10
-807.4593829077639
 20
566.0806521853885
 42
0.4142135623731
 10
-806.9593829077639
 20
565.5806521853885
 42
0.4142135623731
  0
LWPOLYLINE
  5
22B
330
1F
100
AcDbEntity
  8
C-4
  6
Continuous
 62
     7
370
    13
100
AcDbPolyline
 90
        4
 70
     1
 43
1.0
 10
-291.8185748022951
 20
906.3000158361488
 42
0.4142135623731
 10
-292.3185748022951
 20
906.8000158361486
 42
0.4142135623731
 10
-292.8185748022951
 20
906.3000158361488
 42
0.4142135623731
 10
-292.3185748022951
 20
905.8000158361488
 42
0.4142135623731
  0
LWPOLYLINE
  5
22C
330
1F
100
AcDbEntity
  8
C-4
  6
Continuous
 62
     7
370
    13
100
AcDbPolyline
 90
        4
 70
     1
 43
1.0
 10
-91.81865728223596
 20
906.3000158361488
 42
0.4142135623731
 10
-92.31865728223596
 20
906.8000158361486
 42
0.4142135623731
 10
-92.81865728223596
 20
906.3000158361488
 42
0.4142135623731
 10
-92.31865728223596
 20
905.8000158361488
 42
0.4142135623731
  0
LWPOLYLINE
  5
22D
330
1F
100
AcDbEntity
  8
C-4
  6
Continuous
 62
     7
370
    13
100
AcDbPolyline
 90
        4
 70
     1
 43
1.0
 10
-11.98368314794561
 20
799.0803816511825
 42
0.4142135623731
 10
-12.48368314794561
 20
799.5803816511825
 42
0.4142135623731
 10
-12.98368314794561
 20
799.0803816511825
 42
0.4142135623731
 10
-12.48368314794561
 20
798.5803816511826
 42
0.4142135623731
  0
LWPOLYLINE
  5
22E
330
1F
100
AcDbEntity
  8
C-4
  6
Continuous
 62
     7
370
    13
100
AcDbPolyline
 90
        4
 70
     1
 43
1.0
 10
-11.98368314794561
 20
829.0802331872891
 42
0.4142135623731
 10
-12.48368314794561
 20
829.5802331872891
 42
0.4142135623731
 10
-12.98368314794561
 20
829.0802331872891
 42
0.4142135623731
 10
-12.48368314794561
 20
828.5802331872891
 42
0.4142135623731
  0
LWPOLYLINE
  5
22F
330
1F
100
AcDbEntity
  8
D-4
  6
Continuous
 62
     7
370
    13
100
AcDbPolyline
 90
        4
 70
     1
 43
1.0
 10
-350.6162152161467
 20
63.6486486486487
 42
0.4142135623731
 10
-351.1162152161467
 20
64.1486486486487
 42
0.4142135623731
 10
-351.6162152161467
 20
63.6486486486487
 42
0.4142135623731
 10
-351.1162152161467
 20
63.1486486486487
 42
0.4142135623731
  0
LWPOLYLINE
  5
230
330
1F
100
AcDbEntity
  8
D-4
  6
Continuous
 62
     7
370
    13
100
AcDbPolyline
 90
        4
 70
     1
 43
1.0
 10
-380.615324432785
 20
-47.04702016469582
 42
0.4142135623731
 10
-381.1153244327849
 20
-46.54702016469582
 42
0.4142135623731
 10
-381.6153244327849
 20
-47.04702016469582
 42
0.4142135623731
 10
-381.1153244327849
 20
-47.54702016469582
 42
0.4142135623731
  0
LWPOLYLINE
  5
231
330
1F
100
AcDbEntity
  8
D-4
  6
Continuous
 62
     7
370
    13
100
AcDbPolyline
 90
        4
 70
     1
 43
1.0
 10
-375.6150604969743
 20
-47.04702016469582
 42
0.4142135623731
 10
-376.1150604969743
 20
-46.54702016469582
 42
0.4142135623731
 10
-376.6150604969743
 20
-47.04702016469582
 42
0.4142135623731
 10
-376.1150604969743
 20
-47.54702016469582
 42
0.4142135623731
  0
LWPOLYLINE
  5
232
330
1F
100
AcDbEntity
  8
D-4
  6
Continuous
 62
     7
370
    13
100
AcDbPolyline
 90
        4
 70
     1
 43
1.0
 10
-350.6162152161467
 20
-47.04702016469582
 42
0.4142135623731
 10
-351.1162152161467
 20
-46.54702016469582
 42
0.4142135623731
 10
-351.6162152161467
 20
-47.04702016469582
 42
0.4142135623731
 10
-351.1162152161467
 20
-47.54702016469582
 42
0.4142135623731
  0
LWPOLYLINE
  5
233
330
1F
100
AcDbEntity
  8
D-4
  6
Continuous
 62
     7
370
    13
100
AcDbPolyline
 90
        4
 70
     1
 43
1.0
 10
-505.6159842723121
 20
-155.7992966110641
 42
0.4142135623731
 10
-506.115984272312
 20
-155.2992966110641
 42
0.4142135623731
 10
-506.6159842723119
 20
-155.7992966110641
 42
0.4142135623731
 10
-506.115984272312
 20
-156.2992966110641
 42
0.4142135623731
  0
LWPOLYLINE
  5
234
330
1F
100
AcDbEntity
  8
D-4
  6
Continuous
 62
     7
370
    13
100
AcDbPolyline
 90
        4
 70
     1
 43
1.0
 10
-380.615324432785
 20
-155.7992966110641
 42
0.4142135623731
 10
-381.1153244327849
 20
-155.2992966110641
 42
0.4142135623731
 10
-381.6153244327849
 20
-155.7992966110641
 42
0.4142135623731
 10
-381.1153244327849
 20
-156.2992966110641
 42
0.4142135623731
  0
LWPOLYLINE
  5
235
330
1F
100
AcDbEntity
  8
D-4
  6
Continuous
 62
     7
370
    13
100
AcDbPolyline
 90
        4
 70
     1
 43
1.0
 10
-651.0984754304626
 20
-276.7186840160473
 42
0.4142135623731
 10
-651.5984754304625
 20
-276.2186840160472
 42
0.4142135623731
 10
-652.0984754304625
 20
-276.7186840160473
 42
0.4142135623731
 10
-651.5984754304625
 20
-277.2186840160473
 42
0.4142135623731
  0
LWPOLYLINE
  5
236
330
1F
100
AcDbEntity
  8
D-4
  6
Continuous
 62
     7
370
    13
100
AcDbPolyline
 90
        4
 70
     1
 43
1.0
 10
-651.0984754304626
 20
-401.7189726958404
 42
0.4142135623731
 10
-651.5984754304625
 20
-401.2189726958404
 42
0.4142135623731
 10
-652.0984754304625
 20
-401.7189726958404
 42
0.4142135623731
 10
-651.5984754304625
 20
-402.2189726958403
 42
0.4142135623731
  0
LWPOLYLINE
  5
237
330
1F
100
AcDbEntity
  8
D-4
  6
Continuous
 62
     7
370
    13
100
AcDbPolyline
 90
        4
 70
     1
 43
1.0
 10
166.0693118636677
 20
-276.7186840160473
 42
0.4142135623731
 10
165.5693118636677
 20
-276.2186840160472
 42
0.4142135623731
 10
165.0693118636677
 20
-276.7186840160473
 42
0.4142135623731
 10
165.5693118636677
 20
-277.2186840160473
 42
0.4142135623731
  0
LWPOLYLINE
  5
238
330
1F
100
AcDbEntity
  8
D-4
  6
Continuous
 62
     7
370
    13
100
AcDbPolyline
 90
        4
 70
     1
 43
1.0
 10
166.0693118636677
 20
-526.7188902158995
 42
0.4142135623731
 10
165.5693118636677
 20
-526.2188902158995
 42
0.4142135623731
 10
165.0693118636677
 20
-526.7188902158995
 42
0.4142135623731
 10
165.5693118636677
 20
-527.2188902158995
 42
0.4142135623731
  0
LWPOLYLINE
  5
239
330
1F
100
AcDbEntity
  8
D-4
  6
Continuous
 62
     7
370
    13
100
AcDbPolyline
 90
        4
 70
     1
 43
1.0
 10
-117.5655131468899
 20
-276.7186840160473
 42
0.4142135623731
 10
-118.0655131468899
 20
-276.2186840160472
 42
0.4142135623731
 10
-118.5655131468899
 20
-276.7186840160473
 42
0.4142135623731
 10
-118.0655131468899
 20
-277.2186840160473
 42
0.4142135623731
  0
LWPOLYLINE
  5
23A
330
1F
100
AcDbEntity
  8
D-4
  6
Continuous
 62
     7
370
    13
100
AcDbPolyline
 90
        4
 70
     1
 43
1.0
 10
-117.5655131468899
 20
-361.7185932881122
 42
0.4142135623731
 10
-118.0655131468899
 20
-361.2185932881123
 42
0.4142135623731
 10
-118.5655131468899
 20
-361.7185932881122
 42
0.4142135623731
 10
-118.0655131468899
 20
-362.2185932881122
 42
0.4142135623731
  0
LWPOLYLINE
  5
23B
330
1F
100
AcDbEntity
  8
D-4
  6
Continuous
 62
     7
370
    13
100
AcDbPolyline
 90
        4
 70
     1
 43
1.0
 10
-117.5655131468899
 20
-411.719129407728
 42
0.4142135623731
 10
-118.0655131468899
 20
-411.219129407728
 42
0.4142135623731
 10
-118.5655131468899
 20
-411.719129407728
 42
0.4142135623731
 10
-118.0655131468899
 20
-412.219129407728
 42
0.4142135623731
  0
LWPOLYLINE
  5
23C
330
1F
100
AcDbEntity
  8
D-4
  6
Continuous
 62
     7
370
    13
100
AcDbPolyline
 90
        4
 70
     1
 43
1.0
 10
-350.6154728966787
 20
-467.2495744035051
 42
0.4142135623731
 10
-351.1154728966787
 20
-466.7495744035051
 42
0.4142135623731
 10
-351.6154728966786
 20
-467.2495744035051
 42
0.4142135623731
 10
-351.1154728966787
 20
-467.7495744035051
 42
0.4142135623731
  0
LWPOLYLINE
  5
23D
330
1F
100
AcDbEntity
  8
D-4
  6
Continuous
 62
     7
370
    13
100
AcDbPolyline
 90
        4
 70
     1
 43
1.0
 10
-205.6153656727555
 20
-467.2495744035051
 42
0.4142135623731
 10
-206.1153656727555
 20
-466.7495744035051
 42
0.4142135623731
 10
-206.6153656727555
 20
-467.2495744035051
 42
0.4142135623731
 10
-206.1153656727555
 20
-467.7495744035051
 42
0.4142135623731
  0
LWPOLYLINE
  5
23E
330
1F
100
AcDbEntity
  8
D-4
  6
Continuous
 62
     7
370
    13
100
AcDbPolyline
 90
        4
 70
     1
 43
1.0
 10
-505.6154893926667
 20
-682.3375062684755
 42
0.4142135623731
 10
-506.1154893926667
 20
-681.8375062684755
 42
0.4142135623731
 10
-506.6154893926666
 20
-682.3375062684755
 42
0.4142135623731
 10
-506.1154893926667
 20
-682.8375062684755
 42
0.4142135623731
  0
LWPOLYLINE
  5
23F
330
1F
100
AcDbEntity
  8
D-4
  6
Continuous
 62
     7
370
    13
100
AcDbPolyline
 90
        4
 70
     1
 43
1.0
 10
-355.615241952844
 20
-682.3375062684755
 42
0.4142135623731
 10
-356.115241952844
 20
-681.8375062684755
 42
0.4142135623731
 10
-356.615241952844
 20
-682.3375062684755
 42
0.4142135623731
 10
-356.115241952844
 20
-682.8375062684755
 42
0.4142135623731
  0
LWPOLYLINE
  5
240
330
1F
100
AcDbEntity
  8
D-4
  6
Continuous
 62
     7
370
    13
100
AcDbPolyline
 90
        4
 70
     1
 43
1.0
 10
-505.6154893926667
 20
-836.8021867081926
 42
0.4142135623731
 10
-506.1154893926667
 20
-836.3021867081926
 42
0.4142135623731
 10
-506.6154893926666
 20
-836.8021867081926
 42
0.4142135623731
 10
-506.1154893926667
 20
-837.3021867081925
 42
0.4142135623731
  0
LWPOLYLINE
  5
241
330
1F
100
AcDbEntity
  8
D-4
  6
Continuous
 62
     7
370
    13
100
AcDbPolyline
 90
        4
 70
     1
 43
1.0
 10
-105.6146645932581
 20
-836.8021867081926
 42
0.4142135623731
 10
-106.1146645932581
 20
-836.3021867081926
 42
0.4142135623731
 10
-106.6146645932581
 20
-836.8021867081926
 42
0.4142135623731
 10
-106.1146645932581
 20
-837.3021867081925
 42
0.4142135623731
  0
LWPOLYLINE
  5
242
330
1F
100
AcDbEntity
  8
D-4
  6
Continuous
 62
     7
370
    13
100
AcDbPolyline
 90
        4
 70
     1
 43
1.0
 10
-862.3420584910622
 20
-279.2188159839526
 42
0.4142135623731
 10
-862.8420584910622
 20
-278.7188159839526
 42
0.4142135623731
 10
-863.3420584910621
 20
-279.2188159839526
 42
0.4142135623731
 10
-862.8420584910622
 20
-279.7188159839526
 42
0.4142135623731
  0
LWPOLYLINE
  5
243
330
1F
100
AcDbEntity
  8
D-4
  6
Continuous
 62
     7
370
    13
100
AcDbPolyline
 90
        4
 70
     1
 43
1.0
 10
-862.3420584910622
 20
-294.2186180320945
 42
0.4142135623731
 10
-862.8420584910622
 20
-293.7186180320945
 42
0.4142135623731
 10
-863.3420584910621
 20
-294.2186180320945
 42
0.4142135623731
 10
-862.8420584910622
 20
-294.7186180320945
 42
0.4142135623731
  0
ENDSEC
  0
SECTION
  2
OBJECTS
  0
DICTIONARY
  5
C
330
0
100
AcDbDictionary
281
     1
  3
ACAD_GROUP
350
D
  3
ACAD_LAYOUT
350
1A
  3
ACAD_MLEADERSTYLE
350
245
  3
ACAD_MLINESTYLE
350
17
  3
ACAD_PLOTSETTINGS
350
19
  3
ACAD_PLOTSTYLENAME
350
E
  3
ACAD_TABLESTYLE
350
244
  3
ACAD_VISUALSTYLE
350
2A
  0
DICTIONARY
  5
D
102
{ACAD_REACTORS
330
C
102
}
330
C
100
AcDbDictionary
281
     1
  0
DICTIONARY
  5
1A
102
{ACAD_REACTORS
330
C
102
}
330
C
100
AcDbDictionary
281
     1
  3
Layout1
350
1E
  3
Layout2
350
26
  3
Model
350
22
  0
DICTIONARY
  5
245
102
{ACAD_REACTORS
330
C
102
}
330
C
100
AcDbDictionary
281
     1
  0
DICTIONARY
  5
17
102
{ACAD_REACTORS
330
C
102
}
330
C
100
AcDbDictionary
281
     1
  3
Standard
350
18
  0
DICTIONARY
  5
19
102
{ACAD_REACTORS
330
C
102
}
330
C
100
AcDbDictionary
281
     1
  0
ACDBDICTIONARYWDFLT
  5
E
102
{ACAD_REACTORS
330
C
102
}
330
C
100
AcDbDictionary
281
     1
  3
Normal
350
F
100
AcDbDictionaryWithDefault
340
F
  0
DICTIONARY
  5
244
102
{ACAD_REACTORS
330
C
102
}
330
C
100
AcDbDictionary
281
     1
  0
DICTIONARY
  5
2A
102
{ACAD_REACTORS
330
C
102
}
330
C
100
AcDbDictionary
281
     1
  3
2dWireframe
350
2F
  3
3D Hidden
350
31
  3
3dWireframe
350
30
  3
Basic
350
32
  3
Brighten
350
36
  3
ColorChange
350
3A
  3
Conceptual
350
34
  3
Dim
350
35
  3
Facepattern
350
39
  3
Flat
350
2B
  3
FlatWithEdges
350
2C
  3
Gouraud
350
2D
  3
GouraudWithEdges
350
2E
  3
Linepattern
350
38
  3
Realistic
350
33
  3
Thicken
350
37
  0
LAYOUT
  5
1E
102
{ACAD_REACTORS
330
1A
102
}
330
1A
100
AcDbPlotSettings
  1

  2
none_device
  4

  6

 40
0.0
 41
0.0
 42
0.0
 43
0.0
 44
0.0
 45
0.0
 46
0.0
 47
0.0
 48
0.0
 49
0.0
140
0.0
141
0.0
142
1.0
143
1.0
 70
   688
 72
     0
 73
     0
 74
     5
  7

 75
    16
 76
     0
 77
     5
 78
   300
147
1.0
148
0.0
149
0.0
100
AcDbLayout
  1
Layout1
 70
     1
 71
     1
 10
0.0
 20
0.0
 11
420.0
 21
297.0
 12
0.0
 22
0.0
 32
0.0
 14
1.000000000000000E+20
 24
1.000000000000000E+20
 34
1.000000000000000E+20
 15
-1.000000000000000E+20
 25
-1.000000000000000E+20
 35
-1.000000000000000E+20
146
0.0
 13
0.0
 23
0.0
 33
0.0
 16
1.0
 26
0.0
 36
0.0
 17
0.0
 27
1.0
 37
0.0
 76
     0
330
1B
  0
LAYOUT
  5
26
102
{ACAD_REACTORS
330
1A
102
}
330
1A
100
AcDbPlotSettings
  1

  2
none_device
  4

  6

 40
0.0
 41
0.0
 42
0.0
 43
0.0
 44
0.0
 45
0.0
 46
0.0
 47
0.0
 48
0.0
 49
0.0
140
0.0
141
0.0
142
1.0
143
1.0
 70
   688
 72
     0
 73
     0
 74
     5
  7

 75
    16
 76
     0
 77
     5
 78
   300
147
1.0
148
0.0
149
0.0
100
AcDbLayout
  1
Layout2
 70
     1
 71
     2
 10
0.0
 20
0.0
 11
0.0
 21
0.0
 12
0.0
 22
0.0
 32
0.0
 14
0.0
 24
0.0
 34
0.0
 15
0.0
 25
0.0
 35
0.0
146
0.0
 13
0.0
 23
0.0
 33
0.0
 16
1.0
 26
0.0
 36
0.0
 17
0.0
 27
1.0
 37
0.0
 76
     0
330
23
  0
LAYOUT
  5
22
102
{ACAD_REACTORS
330
1A
102
}
330
1A
100
AcDbPlotSettings
  1

  2
none_device
  4

  6

 40
0.0
 41
0.0
 42
0.0
 43
0.0
 44
0.0
 45
0.0
 46
0.0
 47
0.0
 48
0.0
 49
0.0
140
0.0
141
0.0
142
1.0
143
1.0
 70
  1712
 72
     0
 73
     0
 74
     0
  7

 75
     0
 76
     0
 77
     5
 78
   300
147
1.0
148
0.0
149
0.0
100
AcDbLayout
  1
Model
 70
     1
 71
     0
 10
-2100.0
 20
-1485.0
 11
2100.0
 21
1485.0
 12
0.0
 22
0.0
 32
0.0
 14
-2100.0
 24
-1485.0
 34
0.0
 15
2100.0
 25
1485.0
 35
0.0
146
0.0
 13
0.0
 23
0.0
 33
0.0
 16
1.0
 26
0.0
 36
0.0
 17
0.0
 27
1.0
 37
0.0
 76
     0
330
1F
331
29
  0
MLINESTYLE
  5
18
102
{ACAD_REACTORS
330
17
102
}
330
17
100
AcDbMlineStyle
  2
Standard
 70
     0
  3

 62
   256
 51
90.0
 52
90.0
 71
     2
 49
0.5
 62
   256
  6
BYLAYER
 49
-0.5
 62
   256
  6
BYLAYER
  0
ACDBPLACEHOLDER
  5
F
102
{ACAD_REACTORS
330
E
102
}
330
E
  0
VISUALSTYLE
  5
2F
102
{ACAD_REACTORS
330
2A
102
}
330
2A
100
AcDbVisualStyle
  2
2dWireframe
 70
     4
 71
     0
 72
     2
 73
     0
 90
        0
 40
-0.6
 41
-30.0
 62
     5
 63
     7
421
 16777215
 74
     1
 91
        4
 64
     7
 65
   257
 75
     1
175
     1
 42
1.0
 92
        0
 66
   257
 43
1.0
 76
     1
 77
     6
 78
     2
 67
     7
 79
     5
170
     0
171
     0
290
     0
174
     0
 93
        1
 44
0.0
173
     0
291
     0
 45
0.0
1001
ACAD
1000
AcDbSavedByObjectVersion
1070
     0
  0
VISUALSTYLE
  5
31
102
{ACAD_REACTORS
330
2A
102
}
330
2A
100
AcDbVisualStyle
  2
3D Hidden
 70
     6
 71
     1
 72
     2
 73
     2
 90
        0
 40
-0.6
 41
-30.0
 62
     5
 63
     7
421
 16777215
 74
     2
 91
        2
 64
     7
 65
   257
 75
     2
175
     1
 42
40.0
 92
        0
 66
   257
 43
1.0
 76
     1
 77
     6
 78
     2
 67
     7
 79
     3
170
     0
171
     0
290
     0
174
     0
 93
        1
 44
0.0
173
     0
291
     0
 45
0.0
1001
ACAD
1000
AcDbSavedByObjectVersion
1070
     0
  0
VISUALSTYLE
  5
30
102
{ACAD_REACTORS
330
2A
102
}
330
2A
100
AcDbVisualStyle
  2
3dWireframe
 70
     5
 71
     0
 72
     2
 73
     0
 90
        0
 40
-0.6
 41
-30.0
 62
     5
 63
     7
421
 16777215
 74
     1
 91
        4
 64
     7
 65
   257
 75
     1
175
     1
 42
1.0
 92
        0
 66
   257
 43
1.0
 76
     1
 77
     6
 78
     2
 67
     7
 79
     5
170
     0
171
     0
290
     0
174
     0
 93
        1
 44
0.0
173
     0
291
     0
 45
0.0
1001
ACAD
1000
AcDbSavedByObjectVersion
1070
     0
  0
VISUALSTYLE
  5
32
102
{ACAD_REACTORS
330
2A
102
}
330
2A
100
AcDbVisualStyle
  2
Basic
 70
     7
 71
     1
 72
     0
 73
     1
 90
        0
 40
-0.6
 41
-30.0
 62
     5
 63
     7
421
 16777215
 74
     0
 91
        4
 64
     7
 65
   257
 75
     1
175
     1
 42
1.0
 92
        8
 66
     7
 43
1.0
 76
     1
 77
     6
 78
     2
 67
     7
 79
     5
170
     0
171
     0
290
     0
174
     0
 93
        1
 44
0.0
173
     0
291
     1
 45
0.0
1001
ACAD
1000
AcDbSavedByObjectVersion
1070
     0
  0
VISUALSTYLE
  5
36
102
{ACAD_REACTORS
330
2A
102
}
330
2A
100
AcDbVisualStyle
  2
Brighten
 70
    12
 71
     2
 72
     2
 73
     0
 90
        0
 40
-0.6
 41
-30.0
 62
     5
 63
     7
421
 16777215
 74
     1
 91
        4
 64
     7
 65
   257
 75
     1
175
     1
 42
1.0
 92
        8
 66
     7
 43
1.0
 76
     1
 77
     6
 78
     2
 67
     7
 79
     5
170
     0
171
     0
290
     0
174
     0
 93
        1
 44
50.0
173
     0
291
     1
 45
0.0
1001
ACAD
1000
AcDbSavedByObjectVersion
1070
     0
  0
VISUALSTYLE
  5
3A
102
{ACAD_REACTORS
330
2A
102
}
330
2A
100
AcDbVisualStyle
  2
ColorChange
 70
    16
 71
     2
 72
     2
 73
     3
 90
        0
 40
-0.6
 41
-30.0
 62
     5
 63
     8
421
  8421504
 74
     1
 91
        4
 64
     7
 65
   257
 75
     1
175
     1
 42
1.0
 92
        8
 66
     8
424
  8421504
 43
1.0
 76
     1
 77
     6
 78
     2
 67
     7
 79
     5
170
     0
171
     0
290
     0
174
     0
 93
        1
 44
0.0
173
     0
291
     1
 45
0.0
1001
ACAD
1000
AcDbSavedByObjectVersion
1070
     0
  0
VISUALSTYLE
  5
34
102
{ACAD_REACTORS
330
2A
102
}
330
2A
100
AcDbVisualStyle
  2
Conceptual
 70
     9
 71
     3
 72
     2
 73
     0
 90
        0
 40
-0.6
 41
-30.0
 62
     5
 63
     7
421
 16777215
 74
     2
 91
        2
 64
     7
 65
   257
 75
     1
175
     1
 42
40.0
 92
        8
 66
     7
 43
1.0
 76
     1
 77
     6
 78
     2
 67
     7
 79
     3
170
     0
171
     0
290
     0
174
     0
 93
        1
 44
0.0
173
     0
291
     0
 45
0.0
1001
ACAD
1000
AcDbSavedByObjectVersion
1070
     0
  0
VISUALSTYLE
  5
35
102
{ACAD_REACTORS
330
2A
102
}
330
2A
100
AcDbVisualStyle
  2
Dim
 70
    11
 71
     2
 72
     2
 73
     0
 90
        0
 40
-0.6
 41
-30.0
 62
     5
 63
     7
421
 16777215
 74
     1
 91
        4
 64
     7
 65
   257
 75
     1
175
     1
 42
1.0
 92
        8
 66
     7
 43
1.0
 76
     1
 77
     6
 78
     2
 67
     7
 79
     5
170
     0
171
     0
290
     0
174
     0
 93
        1
 44
-50.0
173
     0
291
     1
 45
0.0
1001
ACAD
1000
AcDbSavedByObjectVersion
1070
     0
  0
VISUALSTYLE
  5
39
102
{ACAD_REACTORS
330
2A
102
}
330
2A
100
AcDbVisualStyle
  2
Facepattern
 70
    15
 71
     2
 72
     2
 73
     0
 90
        0
 40
-0.6
 41
-30.0
 62
     5
 63
     7
421
 16777215
 74
     1
 91
        4
 64
     7
 65
   257
 75
     1
175
     1
 42
1.0
 92
        8
 66
     7
 43
1.0
 76
     1
 77
     6
 78
     2
 67
     7
 79
     5
170
     0
171
     0
290
     0
174
     0
 93
        1
 44
0.0
173
     0
291
     1
 45
0.0
1001
ACAD
1000
AcDbSavedByObjectVersion
1070
     0
  0
VISUALSTYLE
  5
2B
102
{ACAD_REACTORS
330
2A
102
}
330
2A
100
AcDbVisualStyle
  2
Flat
 70
     0
 71
     2
 72
     1
 73
     1
 90
        2
 40
-0.6
 41
30.0
 62
     5
 63
     7
421
 16777215
 74
     0
 91
        4
 64
     7
 65
   257
 75
     1
175
     1
 42
1.0
 92
        8
 66
     7
 43
1.0
 76
     1
 77
     6
 78
     2
 67
     7
 79
     5
170
     0
171
     0
290
     0
174
     0
 93
       13
 44
0.0
173
     0
291
     1
 45
0.0
1001
ACAD
1000
AcDbSavedByObjectVersion
1070
     0
  0
VISUALSTYLE
  5
2C
102
{ACAD_REACTORS
330
2A
102
}
330
2A
100
AcDbVisualStyle
  2
FlatWithEdges
 70
     1
 71
     2
 72
     1
 73
     1
 90
        2
 40
-0.6
 41
30.0
 62
     5
 63
     7
421
 16777215
 74
     1
 91
        4
 64
     7
 65
   257
 75
     1
175
     1
 42
1.0
 92
        0
 66
   257
 43
1.0
 76
     1
 77
     6
 78
     2
 67
     7
 79
     5
170
     0
171
     0
290
     0
174
     0
 93
       13
 44
0.0
173
     0
291
     1
 45
0.0
1001
ACAD
1000
AcDbSavedByObjectVersion
1070
     0
  0
VISUALSTYLE
  5
2D
102
{ACAD_REACTORS
330
2A
102
}
330
2A
100
AcDbVisualStyle
  2
Gouraud
 70
     2
 71
     2
 72
     2
 73
     1
 90
        2
 40
-0.6
 41
30.0
 62
     5
 63
     7
421
 16777215
 74
     0
 91
        4
 64
     7
 65
   257
 75
     1
175
     1
 42
1.0
 92
        0
 66
     7
 43
1.0
 76
     1
 77
     6
 78
     2
 67
     7
 79
     5
170
     0
171
     0
290
     0
174
     0
 93
       13
 44
0.0
173
     0
291
     1
 45
0.0
1001
ACAD
1000
AcDbSavedByObjectVersion
1070
     0
  0
VISUALSTYLE
  5
2E
102
{ACAD_REACTORS
330
2A
102
}
330
2A
100
AcDbVisualStyle
  2
GouraudWithEdges
 70
     3
 71
     2
 72
     2
 73
     1
 90
        2
 40
-0.6
 41
30.0
 62
     5
 63
     7
421
 16777215
 74
     1
 91
        4
 64
     7
 65
   257
 75
     1
175
     1
 42
1.0
 92
        0
 66
   257
 43
1.0
 76
     1
 77
     6
 78
     2
 67
     7
 79
     5
170
     0
171
     0
290
     0
174
     0
 93
       13
 44
0.0
173
     0
291
     1
 45
0.0
1001
ACAD
1000
AcDbSavedByObjectVersion
1070
     0
  0
VISUALSTYLE
  5
38
102
{ACAD_REACTORS
330
2A
102
}
330
2A
100
AcDbVisualStyle
  2
Linepattern
 70
    14
 71
     2
 72
     2
 73
     0
 90
        0
 40
-0.6
 41
-30.0
 62
     5
 63
     7
421
 16777215
 74
     1
 91
        4
 64
     7
 65
   257
 75
     7
175
     7
 42
1.0
 92
        8
 66
     7
 43
1.0
 76
     1
 77
     6
 78
     2
 67
     7
 79
     5
170
     0
171
     0
290
     0
174
     0
 93
        1
 44
0.0
173
     0
291
     1
 45
0.0
1001
ACAD
1000
AcDbSavedByObjectVersion
1070
     0
  0
VISUALSTYLE
  5
33
102
{ACAD_REACTORS
330
2A
102
}
330
2A
100
AcDbVisualStyle
  2
Realistic
 70
     8
 71
     2
 72
     2
 73
     0
 90
        0
 40
-0.6
 41
-30.0
 62
     5
 63
     7
421
 16777215
 74
     1
 91
        0
 64
     7
 65
   257
 75
     1
175
     1
 42
1.0
 92
        8
 66
     8
424
  7895160
 43
1.0
 76
     1
 77
     6
 78
     2
 67
     7
 79
     5
170
     0
171
     0
290
     0
174
     0
 93
       13
 44
0.0
173
     0
291
     0
 45
0.0
1001
ACAD
1000
AcDbSavedByObjectVersion
1070
     0
  0
VISUALSTYLE
  5
37
102
{ACAD_REACTORS
330
2A
102
}
330
2A
100
AcDbVisualStyle
  2
Thicken
 70
    13
 71
     2
 72
     2
 73
     0
 90
        0
 40
-0.6
 41
-30.0
 62
     5
 63
     7
421
 16777215
 74
     1
 91
        4
 64
     7
 65
   257
 75
     1
175
     1
 42
1.0
 92
       12
 66
     7
 43
1.0
 76
     1
 77
     6
 78
     2
 67
     7
 79
     5
170
     0
171
     0
290
     0
174
     0
 93
        1
 44
0.0
173
     0
291
     1
 45
0.0
1001
ACAD
1000
AcDbSavedByObjectVersion
1070
     0
  0
ENDSEC
  0
EOF
