  0
SECTION
  2
HEADER
  9
$ACADVER
  1
AC1015
  9
$ACADMAINTVER
 70
     6
  9
$DWGCODEPAGE
  3
ANSI_932
  9
$INSBASE
 10
0.0
 20
0.0
 30
0.0
  9
$EXTMIN
 10
-2100.0
 20
-1485.0
 30
0.0
  9
$EXTMAX
 10
2100.0
 20
1485.0
 30
0.0
  9
$LIMMIN
 10
-2100.0
 20
-1485.0
  9
$LIMMAX
 10
2100.0
 20
1485.0
  9
$ORTHOMODE
 70
     0
  9
$REGENMODE
 70
     1
  9
$FILLMODE
 70
     1
  9
$QTEXTMODE
 70
     0
  9
$MIRRTEXT
 70
     1
  9
$LTSCALE
 40
10.0
  9
$ATTMODE
 70
     1
  9
$TEXTSIZE
 40
2.5
  9
$TRACEWID
 40
1.0
  9
$TEXTSTYLE
  7
Standard
  9
$CLAYER
  8
0
  9
$CELTYPE
  6
ByLayer
  9
$CECOLOR
 62
   256
  9
$CELTSCALE
 40
1.0
  9
$DISPSILH
 70
     0
  9
$DIMSCALE
 40
1.0
  9
$DIMASZ
 40
2.5
  9
$DIMEXO
 40
0.625
  9
$DIMDLI
 40
3.75
  9
$DIMRND
 40
0.0
  9
$DIMDLE
 40
0.0
  9
$DIMEXE
 40
1.25
  9
$DIMTP
 40
0.0
  9
$DIMTM
 40
0.0
  9
$DIMTXT
 40
2.5
  9
$DIMCEN
 40
2.5
  9
$DIMTSZ
 40
0.0
  9
$DIMTOL
 70
     0
  9
$DIMLIM
 70
     0
  9
$DIMTIH
 70
     0
  9
$DIMTOH
 70
     0
  9
$DIMSE1
 70
     0
  9
$DIMSE2
 70
     0
  9
$DIMTAD
 70
     1
  9
$DIMZIN
 70
     8
  9
$DIMBLK
  1

  9
$DIMASO
 70
     1
  9
$DIMSHO
 70
     1
  9
$DIMPOST
  1

  9
$DIMAPOST
  1

  9
$DIMALT
 70
     0
  9
$DIMALTD
 70
     3
  9
$DIMALTF
 40
0.03937007874016
  9
$DIMLFAC
 40
1.0
  9
$DIMTOFL
 70
     1
  9
$DIMTVP
 40
0.0
  9
$DIMTIX
 70
     0
  9
$DIMSOXD
 70
     0
  9
$DIMSAH
 70
     0
  9
$DIMBLK1
  1

  9
$DIMBLK2
  1

  9
$DIMSTYLE
  2
ISO-25
  9
$DIMCLRD
 70
     0
  9
$DIMCLRE
 70
     0
  9
$DIMCLRT
 70
     0
  9
$DIMTFAC
 40
1.0
  9
$DIMGAP
 40
0.625
  9
$DIMJUST
 70
     0
  9
$DIMSD1
 70
     0
  9
$DIMSD2
 70
     0
  9
$DIMTOLJ
 70
     0
  9
$DIMTZIN
 70
     8
  9
$DIMALTZ
 70
     0
  9
$DIMALTTZ
 70
     0
  9
$DIMUPT
 70
     0
  9
$DIMDEC
 70
     2
  9
$DIMTDEC
 70
     2
  9
$DIMALTU
 70
     2
  9
$DIMALTTD
 70
     3
  9
$DIMTXSTY
  7
Standard
  9
$DIMAUNIT
 70
     0
  9
$DIMADEC
 70
     0
  9
$DIMALTRND
 40
0.0
  9
$DIMAZIN
 70
     0
  9
$DIMDSEP
 70
    44
  9
$DIMATFIT
 70
     3
  9
$DIMFRAC
 70
     0
  9
$DIMLDRBLK
  1

  9
$DIMLUNIT
 70
     2
  9
$DIMLWD
 70
    -2
  9
$DIMLWE
 70
    -2
  9
$DIMTMOVE
 70
     0
  9
$LUNITS
 70
     2
  9
$LUPREC
 70
     4
  9
$SKETCHINC
 40
1.0
  9
$FILLETRAD
 40
10.0
  9
$AUNITS
 70
     0
  9
$AUPREC
 70
     0
  9
$MENU
  1
.
  9
$ELEVATION
 40
0.0
  9
$PELEVATION
 40
0.0
  9
$THICKNESS
 40
0.0
  9
$LIMCHECK
 70
     0
  9
$CHAMFERA
 40
10.0
  9
$CHAMFERB
 40
10.0
  9
$CHAMFERC
 40
20.0
  9
$CHAMFERD
 40
0.0
  9
$SKPOLY
 70
     0
  9
$TDCREATE
 40
2456898.573369907
  9
$TDUCREATE
 40
2456898.198369907
  9
$TDUPDATE
 40
2456898.573369919
  9
$TDUUPDATE
 40
2456898.198369919
  9
$TDINDWG
 40
0.0000000116
  9
$TDUSRTIMER
 40
0.0000000116
  9
$USRTIMER
 70
     1
  9
$ANGBASE
 50
0.0
  9
$ANGDIR
 70
     0
  9
$PDMODE
 70
     0
  9
$PDSIZE
 40
0.0
  9
$PLINEWID
 40
0.0
  9
$SPLFRAME
 70
     0
  9
$SPLINETYPE
 70
     6
  9
$SPLINESEGS
 70
     8
  9
$HANDSEED
  5
35E
  9
$SURFTAB1
 70
     6
  9
$SURFTAB2
 70
     6
  9
$SURFTYPE
 70
     6
  9
$SURFU
 70
     6
  9
$SURFV
 70
     6
  9
$UCSBASE
  2

  9
$UCSNAME
  2

  9
$UCSORG
 10
0.0
 20
0.0
 30
0.0
  9
$UCSXDIR
 10
1.0
 20
0.0
 30
0.0
  9
$UCSYDIR
 10
0.0
 20
1.0
 30
0.0
  9
$UCSORTHOREF
  2

  9
$UCSORTHOVIEW
 70
     0
  9
$UCSORGTOP
 10
0.0
 20
0.0
 30
0.0
  9
$UCSORGBOTTOM
 10
0.0
 20
0.0
 30
0.0
  9
$UCSORGLEFT
 10
0.0
 20
0.0
 30
0.0
  9
$UCSORGRIGHT
 10
0.0
 20
0.0
 30
0.0
  9
$UCSORGFRONT
 10
0.0
 20
0.0
 30
0.0
  9
$UCSORGBACK
 10
0.0
 20
0.0
 30
0.0
  9
$PUCSBASE
  2

  9
$PUCSNAME
  2

  9
$PUCSORG
 10
0.0
 20
0.0
 30
0.0
  9
$PUCSXDIR
 10
1.0
 20
0.0
 30
0.0
  9
$PUCSYDIR
 10
0.0
 20
1.0
 30
0.0
  9
$PUCSORTHOREF
  2

  9
$PUCSORTHOVIEW
 70
     0
  9
$PUCSORGTOP
 10
0.0
 20
0.0
 30
0.0
  9
$PUCSORGBOTTOM
 10
0.0
 20
0.0
 30
0.0
  9
$PUCSORGLEFT
 10
0.0
 20
0.0
 30
0.0
  9
$PUCSORGRIGHT
 10
0.0
 20
0.0
 30
0.0
  9
$PUCSORGFRONT
 10
0.0
 20
0.0
 30
0.0
  9
$PUCSORGBACK
 10
0.0
 20
0.0
 30
0.0
  9
$USERI1
 70
     0
  9
$USERI2
 70
     0
  9
$USERI3
 70
     0
  9
$USERI4
 70
     0
  9
$USERI5
 70
     0
  9
$USERR1
 40
0.0
  9
$USERR2
 40
0.0
  9
$USERR3
 40
0.0
  9
$USERR4
 40
0.0
  9
$USERR5
 40
0.0
  9
$WORLDVIEW
 70
     1
  9
$SHADEDGE
 70
     3
  9
$SHADEDIF
 70
    70
  9
$TILEMODE
 70
     1
  9
$MAXACTVP
 70
    64
  9
$PINSBASE
 10
0.0
 20
0.0
 30
0.0
  9
$PLIMCHECK
 70
     0
  9
$PEXTMIN
 10
1.000000000000000E+20
 20
1.000000000000000E+20
 30
1.000000000000000E+20
  9
$PEXTMAX
 10
-1.000000000000000E+20
 20
-1.000000000000000E+20
 30
-1.000000000000000E+20
  9
$PLIMMIN
 10
0.0
 20
0.0
  9
$PLIMMAX
 10
420.0
 20
297.0
  9
$UNITMODE
 70
     0
  9
$VISRETAIN
 70
     1
  9
$PLINEGEN
 70
     0
  9
$PSLTSCALE
 70
     1
  9
$TREEDEPTH
 70
  3020
  9
$CMLSTYLE
  2
Standard
  9
$CMLJUST
 70
     0
  9
$CMLSCALE
 40
20.0
  9
$PROXYGRAPHICS
 70
     1
  9
$MEASUREMENT
 70
     1
  9
$CELWEIGHT
370
    -1
  9
$ENDCAPS
280
     0
  9
$JOINSTYLE
280
     0
  9
$LWDISPLAY
290
     0
  9
$INSUNITS
 70
     4
  9
$HYPERLINKBASE
  1

  9
$STYLESHEET
  1

  9
$XEDIT
290
     1
  9
$CEPSNTYPE
380
     0
  9
$PSTYLEMODE
290
     1
  9
$FINGERPRINTGUID
  2
{39FB2184-C9C1-4735-B8E0-DCBDF61FA596}
  9
$VERSIONGUID
  2
{FAEB1C32-E019-11D5-929B-00C0DF256EC4}
  9
$EXTNAMES
290
     1
  9
$PSVPSCALE
 40
0.0
  9
$OLESTARTUP
290
     0
  0
ENDSEC
  0
SECTION
  2
CLASSES
  0
CLASS
  1
ACDBDICTIONARYWDFLT
  2
AcDbDictionaryWithDefault
  3
ObjectDBX Classes
 90
        0
280
     0
281
     0
  0
CLASS
  1
VISUALSTYLE
  2
AcDbVisualStyle
  3
ObjectDBX Classes
 90
     4095
280
     0
281
     0
  0
CLASS
  1
DICTIONARYVAR
  2
AcDbDictionaryVar
  3
ObjectDBX Classes
 90
        0
280
     0
281
     0
  0
CLASS
  1
ACDBPLACEHOLDER
  2
AcDbPlaceHolder
  3
ObjectDBX Classes
 90
        0
280
     0
281
     0
  0
CLASS
  1
LAYOUT
  2
AcDbLayout
  3
ObjectDBX Classes
 90
        0
280
     0
281
     0
  0
ENDSEC
  0
SECTION
  2
TABLES
  0
TABLE
  2
VPORT
  5
8
330
0
100
AcDbSymbolTable
 70
     1
  0
VPORT
  5
29
330
8
100
AcDbSymbolTableRecord
100
AcDbViewportTableRecord
  2
*Active
 70
     0
 10
0.0
 20
0.0
 11
1.0
 21
1.0
 12
0.0
 22
0.0
 13
0.0
 23
0.0
 14
10.0
 24
10.0
 15
10.0
 25
10.0
 16
0.0
 26
0.0
 36
1.0
 17
0.0
 27
0.0
 37
0.0
 40
3267.0
 41
1.414141414141414
 42
50.0
 43
0.0
 44
0.0
 50
0.0
 51
0.0
 71
     0
 72
 10000
 73
     1
 74
     3
 75
     0
 76
     0
 77
     0
 78
     0
281
     0
 65
     1
110
0.0
120
0.0
130
0.0
111
1.0
121
0.0
131
0.0
112
0.0
122
1.0
132
0.0
 79
     0
146
0.0
  0
ENDTAB
  0
TABLE
  2
LTYPE
  5
5
330
0
100
AcDbSymbolTable
 70
     6
  0
LTYPE
  5
14
330
5
100
AcDbSymbolTableRecord
100
AcDbLinetypeTableRecord
  2
ByBlock
 70
     0
  3

 72
    65
 73
     0
 40
0.0
  0
LTYPE
  5
15
330
5
100
AcDbSymbolTableRecord
100
AcDbLinetypeTableRecord
  2
ByLayer
 70
     0
  3

 72
    65
 73
     0
 40
0.0
  0
LTYPE
  5
16
330
5
100
AcDbSymbolTableRecord
100
AcDbLinetypeTableRecord
  2
Continuous
 70
     0
  3
Solid line
 72
    65
 73
     0
 40
0.0
  0
LTYPE
  5
3C
330
5
100
AcDbSymbolTableRecord
100
AcDbLinetypeTableRecord
  2
JWW_CENTER1
 70
     0
  3
-----  --  ----------  --  -----
 72
    65
 73
     4
 40
6.773333333333333
 49
4.233333333333333
 74
     0
 49
-0.8466666666666667
 74
     0
 49
0.8466666666666667
 74
     0
 49
-0.8466666666666667
 74
     0
  0
LTYPE
  5
3D
330
5
100
AcDbSymbolTableRecord
100
AcDbLinetypeTableRecord
  2
JWW_DASHED3
 70
     0
  3
---  ------  ------  ------  ---
 72
    65
 73
     2
 40
3.386666666666667
 49
2.54
 74
     0
 49
-0.8466666666666667
 74
     0
  0
LTYPE
  5
3E
330
5
100
AcDbSymbolTableRecord
100
AcDbLinetypeTableRecord
  2
JWW_DASHED1
 70
     0
  3
-  --  --  --  --  --  --  --  -
 72
    65
 73
     2
 40
1.693333333333333
 49
0.8466666666666667
 74
     0
 49
-0.8466666666666667
 74
     0
  0
LTYPE
  5
3F
330
5
100
AcDbSymbolTableRecord
100
AcDbLinetypeTableRecord
  2
JWW_CENTER2
 70
     0
  3
-------------  --  -------------
 72
    65
 73
     4
 40
13.54666666666667
 49
11.00666666666667
 74
     0
 49
-0.8466666666666667
 74
     0
 49
0.8466666666666667
 74
     0
 49
-0.8466666666666667
 74
     0
  0
LTYPE
  5
40
330
5
100
AcDbSymbolTableRecord
100
AcDbLinetypeTableRecord
  2
JWW_DASHED2
 70
     0
  3
--    ----    ----    ----    --
 72
    65
 73
     2
 40
3.386666666666667
 49
1.693333333333333
 74
     0
 49
-1.693333333333333
 74
     0
  0
ENDTAB
  0
TABLE
  2
LAYER
  5
2
330
0
100
AcDbSymbolTable
 70
    18
  0
LAYER
  5
10
330
2
100
AcDbSymbolTableRecord
100
AcDbLayerTableRecord
  2
0
 70
     0
 62
     7
  6
Continuous
370
    -3
390
F
  0
LAYER
  5
41
330
2
100
AcDbSymbolTableRecord
100
AcDbLayerTableRecord
  2
C-5
 70
     0
 62
     7
  6
Continuous
370
    -3
390
F
  0
LAYER
  5
42
330
2
100
AcDbSymbolTableRecord
100
AcDbLayerTableRecord
  2
F-4
 70
     0
 62
     7
  6
Continuous
370
    -3
390
F
  0
LAYER
  5
43
330
2
100
AcDbSymbolTableRecord
100
AcDbLayerTableRecord
  2
C-2
 70
     0
 62
     7
  6
Continuous
370
    -3
390
F
  0
LAYER
  5
44
330
2
100
AcDbSymbolTableRecord
100
AcDbLayerTableRecord
  2
C-B
 70
     0
 62
     7
  6
Continuous
370
    -3
390
F
  0
LAYER
  5
45
330
2
100
AcDbSymbolTableRecord
100
AcDbLayerTableRecord
  2
C-1
 70
     0
 62
     7
  6
Continuous
370
    -3
390
F
  0
LAYER
  5
46
330
2
100
AcDbSymbolTableRecord
100
AcDbLayerTableRecord
  2
C-4
 70
     0
 62
     7
  6
Continuous
370
    -3
390
F
  0
LAYER
  5
47
330
2
100
AcDbSymbolTableRecord
100
AcDbLayerTableRecord
  2
C-0
 70
     0
 62
     7
  6
Continuous
370
    -3
390
F
  0
LAYER
  5
48
330
2
100
AcDbSymbolTableRecord
100
AcDbLayerTableRecord
  2
C-C
 70
     0
 62
     7
  6
Continuous
370
    -3
390
F
  0
LAYER
  5
49
330
2
100
AcDbSymbolTableRecord
100
AcDbLayerTableRecord
  2
D-4
 70
     0
 62
     7
  6
Continuous
370
    -3
390
F
  0
LAYER
  5
4A
330
2
100
AcDbSymbolTableRecord
100
AcDbLayerTableRecord
  2
D-6
 70
     0
 62
     7
  6
Continuous
370
    -3
390
F
  0
LAYER
  5
4B
330
2
100
AcDbSymbolTableRecord
100
AcDbLayerTableRecord
  2
D-5
 70
     0
 62
     7
  6
Continuous
370
    -3
390
F
  0
LAYER
  5
4C
330
2
100
AcDbSymbolTableRecord
100
AcDbLayerTableRecord
  2
D-0
 70
     0
 62
     7
  6
Continuous
370
    -3
390
F
  0
LAYER
  5
4D
330
2
100
AcDbSymbolTableRecord
100
AcDbLayerTableRecord
  2
D-9
 70
     0
 62
     7
  6
Continuous
370
    -3
390
F
  0
LAYER
  5
4E
330
2
100
AcDbSymbolTableRecord
100
AcDbLayerTableRecord
  2
D-1
 70
     0
 62
     7
  6
Continuous
370
    -3
390
F
  0
LAYER
  5
4F
330
2
100
AcDbSymbolTableRecord
100
AcDbLayerTableRecord
  2
D-3
 70
     0
 62
     7
  6
Continuous
370
    -3
390
F
  0
LAYER
  5
50
330
2
100
AcDbSymbolTableRecord
100
AcDbLayerTableRecord
  2
D-A
 70
     0
 62
     7
  6
Continuous
370
    -3
390
F
  0
LAYER
  5
51
330
2
100
AcDbSymbolTableRecord
100
AcDbLayerTableRecord
  2
D-2
 70
     0
 62
     7
  6
Continuous
370
    -3
390
F
  0
ENDTAB
  0
TABLE
  2
STYLE
  5
3
330
0
100
AcDbSymbolTable
 70
     2
  0
STYLE
  5
11
330
3
100
AcDbSymbolTableRecord
100
AcDbTextStyleTableRecord
  2
Standard
 70
     0
 40
0.0
 41
1.0
 50
0.0
 71
     0
 42
2.5
  3
txt
  4

1001
ACAD
1000

1071
        0
  0
STYLE
  5
3B
330
3
100
AcDbSymbolTableRecord
100
AcDbTextStyleTableRecord
  2
ＭＳ ゴシック
 70
     0
 40
1.0
 41
1.0
 50
0.0
 71
     0
 42
10.0
  3

  4

1001
ACAD
1000
MS Gothic
1071
    32817
  0
ENDTAB
  0
TABLE
  2
VIEW
  5
6
330
0
100
AcDbSymbolTable
 70
     0
  0
ENDTAB
  0
TABLE
  2
UCS
  5
7
330
0
100
AcDbSymbolTable
 70
     0
  0
ENDTAB
  0
TABLE
  2
APPID
  5
9
330
0
100
AcDbSymbolTable
 70
     1
  0
APPID
  5
12
330
9
100
AcDbSymbolTableRecord
100
AcDbRegAppTableRecord
  2
ACAD
 70
     0
  0
ENDTAB
  0
TABLE
  2
DIMSTYLE
  5
A
330
0
100
AcDbSymbolTable
 70
     1
100
AcDbDimStyleTable
  0
DIMSTYLE
105
27
330
A
100
AcDbSymbolTableRecord
100
AcDbDimStyleTableRecord
  2
ISO-25
 70
     0
 41
2.5
 42
0.625
 43
3.75
 44
1.25
 73
     0
 74
     0
 77
     1
 78
     8
140
2.5
141
2.5
143
0.03937007874016
147
0.625
171
     3
172
     1
271
     2
272
     2
274
     3
278
    44
283
     0
284
     8
340
11
  0
ENDTAB
  0
TABLE
  2
BLOCK_RECORD
  5
1
330
0
100
AcDbSymbolTable
 70
     1
  0
BLOCK_RECORD
  5
1F
330
1
100
AcDbSymbolTableRecord
100
AcDbBlockTableRecord
  2
*Model_Space
340
22
  0
BLOCK_RECORD
  5
1B
330
1
100
AcDbSymbolTableRecord
100
AcDbBlockTableRecord
  2
*Paper_Space
340
1E
  0
BLOCK_RECORD
  5
23
330
1
100
AcDbSymbolTableRecord
100
AcDbBlockTableRecord
  2
*Paper_Space0
340
26
  0
ENDTAB
  0
ENDSEC
  0
SECTION
  2
BLOCKS
  0
BLOCK
  5
20
330
1F
100
AcDbEntity
  8
0
100
AcDbBlockBegin
  2
*Model_Space
 70
     0
 10
0.0
 20
0.0
 30
0.0
  3
*Model_Space
  1

  0
ENDBLK
  5
21
330
1F
100
AcDbEntity
  8
0
100
AcDbBlockEnd
  0
BLOCK
  5
1C
330
1B
100
AcDbEntity
 67
     1
  8
0
100
AcDbBlockBegin
  2
*Paper_Space
 70
     0
 10
0.0
 20
0.0
 30
0.0
  3
*Paper_Space
  1

  0
ENDBLK
  5
1D
330
1B
100
AcDbEntity
 67
     1
  8
0
100
AcDbBlockEnd
  0
BLOCK
  5
24
330
23
100
AcDbEntity
  8
0
100
AcDbBlockBegin
  2
*Paper_Space0
 70
     0
 10
0.0
 20
0.0
 30
0.0
  3
*Paper_Space0
  1

  0
ENDBLK
  5
25
330
23
100
AcDbEntity
  8
0
100
AcDbBlockEnd
  0
ENDSEC
  0
SECTION
  2
ENTITIES
  0
TEXT
  5
52
330
1F
100
AcDbEntity
  8
C-5
  6
Continuous
 62
     7
370
     9
100
AcDbText
 10
281.697513116373
 20
461.2300481628751
 30
0.0
 40
22.86
  1
セラミック溶射
 41
1.142857142857143
  7
ＭＳ ゴシック
100
AcDbText
  0
TEXT
  5
53
330
1F
100
AcDbEntity
  8
F-4
  6
Continuous
 62
     2
370
     9
100
AcDbText
 10
-893.5001708881275
 20
-1324.619796904938
 30
0.0
 40
30.48
  1
　　　ステンレス製　かさあげノンスリップタイプ（セラミック溶射）排水ピット蓋
 41
0.8993421052631579
  7
ＭＳ ゴシック
100
AcDbText
  0
LINE
  5
54
330
1F
100
AcDbEntity
  8
C-2
  6
Continuous
 62
     3
370
     9
100
AcDbLine
 10
168.0001635680333
 20
641.4999260925626
 30
0.0
 11
202.0002398619783
 21
641.4999260925626
 31
0.0
  0
LINE
  5
55
330
1F
100
AcDbEntity
  8
C-2
  6
Continuous
 62
     3
370
     9
100
AcDbLine
 10
-72.00000427864666
 20
691.4999566101409
 30
0.0
 11
-37.99991272591228
 21
691.4999566101409
 31
0.0
  0
LINE
  5
56
330
1F
100
AcDbEntity
  8
C-2
  6
Continuous
 62
     3
370
     9
100
AcDbLine
 10
-72.00000427864666
 20
685.5010247253751
 30
0.0
 11
-37.99991272591228
 21
685.5010247253751
 31
0.0
  0
LINE
  5
57
330
1F
100
AcDbEntity
  8
C-2
  6
Continuous
 62
     3
370
     9
100
AcDbLine
 10
7.99987365104073
 20
691.4999566101409
 30
0.0
 11
41.9999652037751
 21
691.4999566101409
 31
0.0
  0
LINE
  5
58
330
1F
100
AcDbEntity
  8
C-2
  6
Continuous
 62
     3
370
     9
100
AcDbLine
 10
7.99987365104073
 20
685.5010247253751
 30
0.0
 11
41.9999652037751
 21
685.5010247253751
 31
0.0
  0
LINE
  5
59
330
1F
100
AcDbEntity
  8
C-2
  6
Continuous
 62
     3
370
     9
100
AcDbLine
 10
88.00027037955658
 20
691.4999566101409
 30
0.0
 11
122.0003466735017
 21
691.4999566101409
 31
0.0
  0
LINE
  5
5A
330
1F
100
AcDbEntity
  8
C-2
  6
Continuous
 62
     3
370
     9
100
AcDbLine
 10
88.00027037955658
 20
685.5010247253751
 30
0.0
 11
122.0003466735017
 21
685.5010247253751
 31
0.0
  0
LINE
  5
5B
330
1F
100
AcDbEntity
  8
C-2
  6
Continuous
 62
     3
370
     9
100
AcDbLine
 10
168.0001635680333
 20
691.4999566101409
 30
0.0
 11
202.0002398619783
 21
691.4999566101409
 31
0.0
  0
LINE
  5
5C
330
1F
100
AcDbEntity
  8
C-2
  6
Continuous
 62
     3
370
     9
100
AcDbLine
 10
168.0001635680333
 20
685.5010247253751
 30
0.0
 11
202.0002398619783
 21
685.5010247253751
 31
0.0
  0
LINE
  5
5D
330
1F
100
AcDbEntity
  8
C-2
  6
Continuous
 62
     3
370
     9
100
AcDbLine
 10
-72.00000427864666
 20
741.499529364047
 30
0.0
 11
-37.99991272591228
 21
741.499529364047
 31
0.0
  0
LINE
  5
5E
330
1F
100
AcDbEntity
  8
C-2
  6
Continuous
 62
     3
370
     9
100
AcDbLine
 10
-72.00000427864666
 20
735.5003533386565
 30
0.0
 11
-37.99991272591228
 21
735.5003533386565
 31
0.0
  0
LINE
  5
5F
330
1F
100
AcDbEntity
  8
C-2
  6
Continuous
 62
     3
370
     9
100
AcDbLine
 10
7.99987365104073
 20
741.499529364047
 30
0.0
 11
41.9999652037751
 21
741.499529364047
 31
0.0
  0
LINE
  5
60
330
1F
100
AcDbEntity
  8
C-2
  6
Continuous
 62
     3
370
     9
100
AcDbLine
 10
7.99987365104073
 20
735.5003533386565
 30
0.0
 11
41.9999652037751
 21
735.5003533386565
 31
0.0
  0
LINE
  5
61
330
1F
100
AcDbEntity
  8
C-2
  6
Continuous
 62
     3
370
     9
100
AcDbLine
 10
88.00027037955658
 20
741.499529364047
 30
0.0
 11
122.0003466735017
 21
741.499529364047
 31
0.0
  0
LINE
  5
62
330
1F
100
AcDbEntity
  8
C-2
  6
Continuous
 62
     3
370
     9
100
AcDbLine
 10
88.00027037955658
 20
735.5003533386565
 30
0.0
 11
122.0003466735017
 21
735.5003533386565
 31
0.0
  0
LINE
  5
63
330
1F
100
AcDbEntity
  8
C-2
  6
Continuous
 62
     3
370
     9
100
AcDbLine
 10
168.0001635680333
 20
741.499529364047
 30
0.0
 11
202.0002398619783
 21
741.499529364047
 31
0.0
  0
LINE
  5
64
330
1F
100
AcDbEntity
  8
C-2
  6
Continuous
 62
     3
370
     9
100
AcDbLine
 10
168.0001635680333
 20
735.5003533386565
 30
0.0
 11
202.0002398619783
 21
735.5003533386565
 31
0.0
  0
LINE
  5
65
330
1F
100
AcDbEntity
  8
C-2
  6
Continuous
 62
     3
370
     9
100
AcDbLine
 10
-72.00000427864666
 20
791.4998040222503
 30
0.0
 11
-37.99991272591228
 21
791.4998040222503
 31
0.0
  0
LINE
  5
66
330
1F
100
AcDbEntity
  8
C-2
  6
Continuous
 62
     3
370
     9
100
AcDbLine
 10
-72.00000427864666
 20
785.5006585144378
 30
0.0
 11
-37.99991272591228
 21
785.5006585144378
 31
0.0
  0
LINE
  5
67
330
1F
100
AcDbEntity
  8
C-2
  6
Continuous
 62
     3
370
     9
100
AcDbLine
 10
7.99987365104073
 20
791.4998040222503
 30
0.0
 11
41.9999652037751
 21
791.4998040222503
 31
0.0
  0
LINE
  5
68
330
1F
100
AcDbEntity
  8
C-2
  6
Continuous
 62
     3
370
     9
100
AcDbLine
 10
7.99987365104073
 20
785.5006585144378
 30
0.0
 11
41.9999652037751
 21
785.5006585144378
 31
0.0
  0
LINE
  5
69
330
1F
100
AcDbEntity
  8
C-2
  6
Continuous
 62
     3
370
     9
100
AcDbLine
 10
88.00027037955658
 20
791.4998040222503
 30
0.0
 11
122.0003466735017
 21
791.4998040222503
 31
0.0
  0
LINE
  5
6A
330
1F
100
AcDbEntity
  8
C-2
  6
Continuous
 62
     3
370
     9
100
AcDbLine
 10
88.00027037955658
 20
785.5006585144378
 30
0.0
 11
122.0003466735017
 21
785.5006585144378
 31
0.0
  0
LINE
  5
6B
330
1F
100
AcDbEntity
  8
C-2
  6
Continuous
 62
     3
370
     9
100
AcDbLine
 10
168.0001635680333
 20
791.4998040222503
 30
0.0
 11
202.0002398619783
 21
791.4998040222503
 31
0.0
  0
LINE
  5
6C
330
1F
100
AcDbEntity
  8
C-2
  6
Continuous
 62
     3
370
     9
100
AcDbLine
 10
168.0001635680333
 20
785.5006585144378
 30
0.0
 11
202.0002398619783
 21
785.5006585144378
 31
0.0
  0
LINE
  5
6D
330
1F
100
AcDbEntity
  8
C-2
  6
Continuous
 62
     3
370
     9
100
AcDbLine
 10
-72.00000427864666
 20
641.4999260925626
 30
0.0
 11
-37.99991272591228
 21
641.4999260925626
 31
0.0
  0
LINE
  5
6E
330
1F
100
AcDbEntity
  8
C-2
  6
Continuous
 62
     3
370
     9
100
AcDbLine
 10
-72.00000427864666
 20
635.500750067172
 30
0.0
 11
-37.99991272591228
 21
635.500750067172
 31
0.0
  0
LINE
  5
6F
330
1F
100
AcDbEntity
  8
C-2
  6
Continuous
 62
     3
370
     9
100
AcDbLine
 10
7.99987365104073
 20
641.4999260925626
 30
0.0
 11
41.9999652037751
 21
641.4999260925626
 31
0.0
  0
LINE
  5
70
330
1F
100
AcDbEntity
  8
C-2
  6
Continuous
 62
     3
370
     9
100
AcDbLine
 10
7.99987365104073
 20
635.500750067172
 30
0.0
 11
41.9999652037751
 21
635.500750067172
 31
0.0
  0
LINE
  5
71
330
1F
100
AcDbEntity
  8
C-2
  6
Continuous
 62
     3
370
     9
100
AcDbLine
 10
88.00027037955658
 20
641.4999260925626
 30
0.0
 11
122.0003466735017
 21
641.4999260925626
 31
0.0
  0
LINE
  5
72
330
1F
100
AcDbEntity
  8
C-2
  6
Continuous
 62
     3
370
     9
100
AcDbLine
 10
88.00027037955658
 20
635.500750067172
 30
0.0
 11
122.0003466735017
 21
635.500750067172
 31
0.0
  0
LINE
  5
73
330
1F
100
AcDbEntity
  8
C-2
  6
Continuous
 62
     3
370
     9
100
AcDbLine
 10
168.0001635680333
 20
635.500750067172
 30
0.0
 11
202.0002398619783
 21
635.500750067172
 31
0.0
  0
LINE
  5
74
330
1F
100
AcDbEntity
  8
C-2
  6
Continuous
 62
     3
370
     9
100
AcDbLine
 10
-72.00000427864666
 20
591.4993767761564
 30
0.0
 11
-37.99991272591228
 21
591.4993767761564
 31
0.0
  0
LINE
  5
75
330
1F
100
AcDbEntity
  8
C-2
  6
Continuous
 62
     3
370
     9
100
AcDbLine
 10
-72.00000427864666
 20
585.5004448913908
 30
0.0
 11
-37.99991272591228
 21
585.5004448913908
 31
0.0
  0
LINE
  5
76
330
1F
100
AcDbEntity
  8
C-2
  6
Continuous
 62
     3
370
     9
100
AcDbLine
 10
7.99987365104073
 20
591.4993767761564
 30
0.0
 11
41.9999652037751
 21
591.4993767761564
 31
0.0
  0
LINE
  5
77
330
1F
100
AcDbEntity
  8
C-2
  6
Continuous
 62
     3
370
     9
100
AcDbLine
 10
7.99987365104073
 20
585.5004448913908
 30
0.0
 11
41.9999652037751
 21
585.5004448913908
 31
0.0
  0
LINE
  5
78
330
1F
100
AcDbEntity
  8
C-2
  6
Continuous
 62
     3
370
     9
100
AcDbLine
 10
88.00027037955658
 20
591.4993767761564
 30
0.0
 11
122.0003466735017
 21
591.4993767761564
 31
0.0
  0
LINE
  5
79
330
1F
100
AcDbEntity
  8
C-2
  6
Continuous
 62
     3
370
     9
100
AcDbLine
 10
88.00027037955658
 20
585.5004448913908
 30
0.0
 11
122.0003466735017
 21
585.5004448913908
 31
0.0
  0
LINE
  5
7A
330
1F
100
AcDbEntity
  8
C-2
  6
Continuous
 62
     3
370
     9
100
AcDbLine
 10
168.0001635680333
 20
591.4993767761564
 30
0.0
 11
202.0002398619783
 21
591.4993767761564
 31
0.0
  0
LINE
  5
7B
330
1F
100
AcDbEntity
  8
C-2
  6
Continuous
 62
     3
370
     9
100
AcDbLine
 10
168.0001635680333
 20
585.5004448913908
 30
0.0
 11
202.0002398619783
 21
585.5004448913908
 31
0.0
  0
LINE
  5
7C
330
1F
100
AcDbEntity
  8
C-B
  6
Continuous
 62
     3
370
     9
100
AcDbLine
 10
-109.9998822083342
 20
824.5003533386564
 30
0.0
 11
240.0001177916658
 21
824.5003533386564
 31
0.0
  0
LINE
  5
7D
330
1F
100
AcDbEntity
  8
C-B
  6
Continuous
 62
     3
370
     9
100
AcDbLine
 10
-109.9998822083342
 20
556.900164129672
 30
0.0
 11
240.0001177916658
 21
556.900164129672
 31
0.0
  0
LINE
  5
7E
330
1F
100
AcDbEntity
  8
C-B
  6
Continuous
 62
     3
370
     9
100
AcDbLine
 10
-109.9998822083342
 20
724.5002312683439
 30
0.0
 11
240.0001177916658
 21
724.5002312683439
 31
0.0
  0
LINE
  5
7F
330
1F
100
AcDbEntity
  8
C-B
  6
Continuous
 62
     3
370
     9
100
AcDbLine
 10
-109.9998822083342
 20
702.5003533386564
 30
0.0
 11
240.0001177916658
 21
702.5003533386564
 31
0.0
  0
LINE
  5
80
330
1F
100
AcDbEntity
  8
C-B
  6
Continuous
 62
     3
370
     9
100
AcDbLine
 10
-109.9998822083342
 20
720.1002373718595
 30
0.0
 11
240.0001177916658
 21
720.1002373718595
 31
0.0
  0
LINE
  5
81
330
1F
100
AcDbEntity
  8
C-B
  6
Continuous
 62
     3
370
     9
100
AcDbLine
 10
-109.9998822083342
 20
715.7000298523283
 30
0.0
 11
240.0001177916658
 21
715.7000298523283
 31
0.0
  0
LINE
  5
82
330
1F
100
AcDbEntity
  8
C-B
  6
Continuous
 62
     3
370
     9
100
AcDbLine
 10
-109.9998822083342
 20
711.3002800964689
 30
0.0
 11
240.0001177916658
 21
711.3002800964689
 31
0.0
  0
LINE
  5
83
330
1F
100
AcDbEntity
  8
C-B
  6
Continuous
 62
     3
370
     9
100
AcDbLine
 10
-109.9998822083342
 20
706.9000725769376
 30
0.0
 11
240.0001177916658
 21
706.9000725769376
 31
0.0
  0
LINE
  5
84
330
1F
100
AcDbEntity
  8
C-B
  6
Continuous
 62
     3
370
     9
100
AcDbLine
 10
-109.9998822083342
 20
774.500261785922
 30
0.0
 11
240.0001177916658
 21
774.500261785922
 31
0.0
  0
LINE
  5
85
330
1F
100
AcDbEntity
  8
C-B
  6
Continuous
 62
     3
370
     9
100
AcDbLine
 10
-109.9998822083342
 20
752.5001397156095
 30
0.0
 11
240.0001177916658
 21
752.5001397156095
 31
0.0
  0
LINE
  5
86
330
1F
100
AcDbEntity
  8
C-B
  6
Continuous
 62
     3
370
     9
100
AcDbLine
 10
-109.9998822083342
 20
770.1005425476408
 30
0.0
 11
240.0001177916658
 21
770.1005425476408
 31
0.0
  0
LINE
  5
87
330
1F
100
AcDbEntity
  8
C-B
  6
Continuous
 62
     3
370
     9
100
AcDbLine
 10
-109.9998822083342
 20
765.7003350281095
 30
0.0
 11
240.0001177916658
 21
765.7003350281095
 31
0.0
  0
LINE
  5
88
330
1F
100
AcDbEntity
  8
C-B
  6
Continuous
 62
     3
370
     9
100
AcDbLine
 10
-109.9998822083342
 20
761.3005852722501
 30
0.0
 11
240.0001177916658
 21
761.3005852722501
 31
0.0
  0
LINE
  5
89
330
1F
100
AcDbEntity
  8
C-B
  6
Continuous
 62
     3
370
     9
100
AcDbLine
 10
-109.9998822083342
 20
756.9003777527189
 30
0.0
 11
240.0001177916658
 21
756.9003777527189
 31
0.0
  0
LINE
  5
8A
330
1F
100
AcDbEntity
  8
C-B
  6
Continuous
 62
     3
370
     9
100
AcDbLine
 10
-109.9998822083342
 20
802.500475408969
 30
0.0
 11
240.0001177916658
 21
802.500475408969
 31
0.0
  0
LINE
  5
8B
330
1F
100
AcDbEntity
  8
C-B
  6
Continuous
 62
     3
370
     9
100
AcDbLine
 10
-109.9998822083342
 20
820.1003289245939
 30
0.0
 11
240.0001177916658
 21
820.1003289245939
 31
0.0
  0
LINE
  5
8C
330
1F
100
AcDbEntity
  8
C-B
  6
Continuous
 62
     3
370
     9
100
AcDbLine
 10
-109.9998822083342
 20
815.7001214050626
 30
0.0
 11
240.0001177916658
 21
815.7001214050626
 31
0.0
  0
LINE
  5
8D
330
1F
100
AcDbEntity
  8
C-B
  6
Continuous
 62
     3
370
     9
100
AcDbLine
 10
-109.9998822083342
 20
811.3004021667814
 30
0.0
 11
240.0001177916658
 21
811.3004021667814
 31
0.0
  0
LINE
  5
8E
330
1F
100
AcDbEntity
  8
C-B
  6
Continuous
 62
     3
370
     9
100
AcDbLine
 10
-109.9998822083342
 20
806.9001946472503
 30
0.0
 11
240.0001177916658
 21
806.9001946472503
 31
0.0
  0
LINE
  5
8F
330
1F
100
AcDbEntity
  8
C-B
  6
Continuous
 62
     3
370
     9
100
AcDbLine
 10
-109.9998822083342
 20
674.5001702331876
 30
0.0
 11
240.0001177916658
 21
674.5001702331876
 31
0.0
  0
LINE
  5
90
330
1F
100
AcDbEntity
  8
C-B
  6
Continuous
 62
     3
370
     9
100
AcDbLine
 10
-109.9998822083342
 20
652.5005364441251
 30
0.0
 11
240.0001177916658
 21
652.5005364441251
 31
0.0
  0
LINE
  5
91
330
1F
100
AcDbEntity
  8
C-B
  6
Continuous
 62
     3
370
     9
100
AcDbLine
 10
-109.9998822083342
 20
670.1004509949064
 30
0.0
 11
240.0001177916658
 21
670.1004509949064
 31
0.0
  0
LINE
  5
92
330
1F
100
AcDbEntity
  8
C-B
  6
Continuous
 62
     3
370
     9
100
AcDbLine
 10
-109.9998822083342
 20
665.700212957797
 30
0.0
 11
240.0001177916658
 21
665.700212957797
 31
0.0
  0
LINE
  5
93
330
1F
100
AcDbEntity
  8
C-B
  6
Continuous
 62
     3
370
     9
100
AcDbLine
 10
-109.9998822083342
 20
661.3004937195158
 30
0.0
 11
240.0001177916658
 21
661.3004937195158
 31
0.0
  0
LINE
  5
94
330
1F
100
AcDbEntity
  8
C-B
  6
Continuous
 62
     3
370
     9
100
AcDbLine
 10
-109.9998822083342
 20
656.9002556824064
 30
0.0
 11
240.0001177916658
 21
656.9002556824064
 31
0.0
  0
LINE
  5
95
330
1F
100
AcDbEntity
  8
C-B
  6
Continuous
 62
     3
370
     9
100
AcDbLine
 10
-109.9998822083342
 20
624.5003533386564
 30
0.0
 11
240.0001177916658
 21
624.5003533386564
 31
0.0
  0
LINE
  5
96
330
1F
100
AcDbEntity
  8
C-B
  6
Continuous
 62
     3
370
     9
100
AcDbLine
 10
-109.9998822083342
 20
602.5002312683439
 30
0.0
 11
240.0001177916658
 21
602.5002312683439
 31
0.0
  0
LINE
  5
97
330
1F
100
AcDbEntity
  8
C-B
  6
Continuous
 62
     3
370
     9
100
AcDbLine
 10
-109.9998822083342
 20
620.1006341003751
 30
0.0
 11
240.0001177916658
 21
620.1006341003751
 31
0.0
  0
LINE
  5
98
330
1F
100
AcDbEntity
  8
C-B
  6
Continuous
 62
     3
370
     9
100
AcDbLine
 10
-109.9998822083342
 20
615.7004265808439
 30
0.0
 11
240.0001177916658
 21
615.7004265808439
 31
0.0
  0
LINE
  5
99
330
1F
100
AcDbEntity
  8
C-B
  6
Continuous
 62
     3
370
     9
100
AcDbLine
 10
-109.9998822083342
 20
611.3006768249845
 30
0.0
 11
240.0001177916658
 21
611.3006768249845
 31
0.0
  0
LINE
  5
9A
330
1F
100
AcDbEntity
  8
C-B
  6
Continuous
 62
     3
370
     9
100
AcDbLine
 10
-109.9998822083342
 20
606.9004693054533
 30
0.0
 11
240.0001177916658
 21
606.9004693054533
 31
0.0
  0
LINE
  5
9B
330
1F
100
AcDbEntity
  8
C-B
  6
Continuous
 62
     3
370
     9
100
AcDbLine
 10
-109.9998822083342
 20
574.5000481628751
 30
0.0
 11
240.0001177916658
 21
574.5000481628751
 31
0.0
  0
LINE
  5
9C
330
1F
100
AcDbEntity
  8
C-B
  6
Continuous
 62
     3
370
     9
100
AcDbLine
 10
-109.9998822083342
 20
570.1003289245939
 30
0.0
 11
240.0001177916658
 21
570.1003289245939
 31
0.0
  0
LINE
  5
9D
330
1F
100
AcDbEntity
  8
C-B
  6
Continuous
 62
     3
370
     9
100
AcDbLine
 10
-109.9998822083342
 20
565.7001214050626
 30
0.0
 11
240.0001177916658
 21
565.7001214050626
 31
0.0
  0
LINE
  5
9E
330
1F
100
AcDbEntity
  8
C-B
  6
Continuous
 62
     3
370
     9
100
AcDbLine
 10
-109.9998822083342
 20
561.3003716492033
 30
0.0
 11
240.0001177916658
 21
561.3003716492033
 31
0.0
  0
LINE
  5
9F
330
1F
100
AcDbEntity
  8
C-B
  6
Continuous
 62
     3
370
     9
100
AcDbLine
 10
-109.9998822083342
 20
552.5004448913908
 30
0.0
 11
240.0001177916658
 21
552.5004448913908
 31
0.0
  0
LINE
  5
A0
330
1F
100
AcDbEntity
  8
C-1
  6
Continuous
 62
     2
370
     9
100
AcDbLine
 10
240.9999194274081
 20
866.0003533386564
 30
0.0
 11
240.9999194274081
 21
514.000490667758
 31
0.0
  0
LINE
  5
A1
330
1F
100
AcDbEntity
  8
C-1
  6
Continuous
 62
     2
370
     9
100
AcDbLine
 10
240.9999194274081
 20
514.000490667758
 30
0.0
 11
-111.0001873841151
 21
514.000490667758
 31
0.0
  0
LINE
  5
A2
330
1F
100
AcDbEntity
  8
C-1
  6
Continuous
 62
     2
370
     9
100
AcDbLine
 10
240.9999194274081
 20
866.0003533386564
 30
0.0
 11
-111.0001873841151
 21
866.0003533386564
 31
0.0
  0
LINE
  5
A3
330
1F
100
AcDbEntity
  8
C-1
  6
Continuous
 62
     2
370
     9
100
AcDbLine
 10
-111.0001873841151
 20
514.000490667758
 30
0.0
 11
-111.0001873841151
 21
866.0003533386564
 31
0.0
  0
LINE
  5
A4
330
1F
100
AcDbEntity
  8
C-4
  6
Continuous
 62
     7
370
     9
100
AcDbLine
 10
-110.0000958313808
 20
945.0003533386564
 30
0.0
 11
239.9995532164706
 21
945.0003533386564
 31
0.0
  0
LINE
  5
A5
330
1F
100
AcDbEntity
  8
C-4
  6
Continuous
 62
     7
370
     9
100
AcDbLine
 10
-84.99997376106819
 20
885.0005974792814
 30
0.0
 11
-84.99997376106819
 21
948.0004143738125
 31
0.0
  0
LINE
  5
A6
330
1F
100
AcDbEntity
  8
C-4
  6
Continuous
 62
     7
370
     9
100
AcDbLine
 10
215.0001940856112
 20
885.0005974792814
 30
0.0
 11
215.0001940856112
 21
948.0004143738125
 31
0.0
  0
LINE
  5
A7
330
1F
100
AcDbEntity
  8
C-0
  6
JWW_CENTER1
 62
     3
370
     9
100
AcDbLine
 10
494.329173577799
 20
690.0004143738126
 30
0.0
 11
727.9411578307287
 21
690.0004143738126
 31
0.0
  0
LINE
  5
A8
330
1F
100
AcDbEntity
  8
C-0
  6
Continuous
 62
     3
370
     9
100
AcDbLine
 10
699.6409869322912
 20
705.0002312683439
 30
0.0
 11
529.6406970152987
 21
705.0002312683439
 31
0.0
  0
LINE
  5
A9
330
1F
100
AcDbEntity
  8
C-0
  6
Continuous
 62
     3
370
     9
100
AcDbLine
 10
529.6406970152987
 20
675.0005974792814
 30
0.0
 11
699.6409869322912
 21
675.0005974792814
 31
0.0
  0
LINE
  5
AA
330
1F
100
AcDbEntity
  8
C-5
  6
Continuous
 62
     7
370
     9
100
AcDbLine
 10
334.5473704466951
 20
548.9632439636564
 30
0.0
 11
334.5473704466951
 21
613.9628167175626
 31
0.0
  0
LINE
  5
AB
330
1F
100
AcDbEntity
  8
C-5
  6
Continuous
 62
     7
370
     9
100
AcDbLine
 10
334.5473704466951
 20
613.9628167175626
 30
0.0
 11
909.5478472838533
 21
613.9628167175626
 31
0.0
  0
LINE
  5
AC
330
1F
100
AcDbEntity
  8
C-5
  6
Continuous
 62
     7
370
     9
100
AcDbLine
 10
909.5478472838533
 20
613.9628167175626
 30
0.0
 11
909.5478472838533
 21
548.9632439636564
 31
0.0
  0
LINE
  5
AD
330
1F
100
AcDbEntity
  8
C-5
  6
Continuous
 62
     7
370
     9
100
AcDbLine
 10
909.5478472838533
 20
548.9632439636564
 30
0.0
 11
334.5473704466951
 21
548.9632439636564
 31
0.0
  0
LINE
  5
AE
330
1F
100
AcDbEntity
  8
C-0
  6
JWW_CENTER1
 62
     3
370
     9
100
AcDbLine
 10
614.6413531432285
 20
719.5818963074064
 30
0.0
 11
614.6413531432285
 21
656.9377923035001
 31
0.0
  0
LINE
  5
AF
330
1F
100
AcDbEntity
  8
C-4
  6
Continuous
 62
     7
370
     9
100
AcDbLine
 10
-178.0001873841155
 20
588.4998955749845
 30
0.0
 11
-178.0001873841155
 21
638.5002007507658
 31
0.0
  0
LINE
  5
B0
330
1F
100
AcDbEntity
  8
C-4
  6
Continuous
 62
     7
370
     9
100
AcDbLine
 10
-181.0001873841151
 20
638.5002007507658
 30
0.0
 11
-72.00000427864666
 21
638.5002007507658
 31
0.0
  0
LINE
  5
B1
330
1F
100
AcDbEntity
  8
C-4
  6
Continuous
 62
     7
370
     9
100
AcDbLine
 10
-181.0001873841151
 20
588.4998955749845
 30
0.0
 11
-72.00000427864666
 21
588.4998955749845
 31
0.0
  0
LINE
  5
B2
330
1F
100
AcDbEntity
  8
C-4
  6
Continuous
 62
     7
370
     9
100
AcDbLine
 10
-54.99997376106819
 20
447.000505926547
 30
0.0
 11
24.99993468619721
 21
447.000505926547
 31
0.0
  0
LINE
  5
B3
330
1F
100
AcDbEntity
  8
C-4
  6
Continuous
 62
     7
370
     9
100
AcDbLine
 10
24.99993468619721
 20
444.000505926547
 30
0.0
 11
24.99993468619721
 21
588.4998955749845
 31
0.0
  0
LINE
  5
B4
330
1F
100
AcDbEntity
  8
C-4
  6
Continuous
 62
     7
370
     9
100
AcDbLine
 10
-54.99997376106819
 20
444.000505926547
 30
0.0
 11
-54.99997376106819
 21
588.4998955749845
 31
0.0
  0
LINE
  5
B5
330
1F
100
AcDbEntity
  8
C-5
  6
Continuous
 62
     7
370
     9
100
AcDbLine
 10
352.4999346861972
 20
337.0007042908048
 30
0.0
 11
352.4999346861972
 21
272.0011467956876
 31
0.0
  0
LINE
  5
B6
330
1F
100
AcDbEntity
  8
C-5
  6
Continuous
 62
     7
370
     9
100
AcDbLine
 10
352.4999346861972
 20
272.0011467956876
 30
0.0
 11
-222.5004925598967
 21
272.0011467956876
 31
0.0
  0
LINE
  5
B7
330
1F
100
AcDbEntity
  8
C-5
  6
Continuous
 62
     7
370
     9
100
AcDbLine
 10
-222.5004925598967
 20
337.0007042908048
 30
0.0
 11
352.4999346861972
 21
337.0007042908048
 31
0.0
  0
LINE
  5
B8
330
1F
100
AcDbEntity
  8
C-5
  6
Continuous
 62
     7
370
     9
100
AcDbLine
 10
-222.5004925598967
 20
272.0011467956876
 30
0.0
 11
-222.5004925598967
 21
337.0007042908048
 31
0.0
  0
LINE
  5
B9
330
1F
100
AcDbEntity
  8
C-5
  6
Continuous
 62
     7
370
     9
100
AcDbLine
 10
163.9909167418614
 20
447.000505926547
 30
0.0
 11
97.99988890983002
 21
561.3003716492033
 31
0.0
  0
LINE
  5
BA
330
1F
100
AcDbEntity
  8
C-5
  6
Continuous
 62
     7
370
     9
100
AcDbLine
 10
97.99988890983002
 20
561.3003716492033
 30
0.0
 11
113.2189135680329
 21
541.4665398620939
 31
0.0
  0
LINE
  5
BB
330
1F
100
AcDbEntity
  8
C-5
  6
Continuous
 62
     7
370
     9
100
AcDbLine
 10
97.99988890983002
 20
561.3003716492033
 30
0.0
 11
107.5669665465489
 21
538.203386785922
 31
0.0
  0
LINE
  5
BC
330
1F
100
AcDbEntity
  8
C-1
  6
JWW_DASHED3
 62
     2
370
     9
100
AcDbLine
 10
-84.99988220833416
 20
840.0001702331878
 30
0.0
 11
215.0001177916658
 21
840.0001702331878
 31
0.0
  0
LINE
  5
BD
330
1F
100
AcDbEntity
  8
C-1
  6
JWW_DASHED3
 62
     2
370
     9
100
AcDbLine
 10
215.0001177916658
 20
840.0001702331878
 30
0.0
 11
215.0001177916658
 21
540.0002007507658
 31
0.0
  0
LINE
  5
BE
330
1F
100
AcDbEntity
  8
C-1
  6
JWW_DASHED3
 62
     2
370
     9
100
AcDbLine
 10
-84.99988220833416
 20
540.0002007507658
 30
0.0
 11
-84.99988220833416
 21
840.0001702331878
 31
0.0
  0
LINE
  5
BF
330
1F
100
AcDbEntity
  8
C-1
  6
JWW_DASHED3
 62
     2
370
     9
100
AcDbLine
 10
215.0001177916658
 20
540.0002007507658
 30
0.0
 11
-84.99988220833416
 21
540.0002007507658
 31
0.0
  0
LINE
  5
C0
330
1F
100
AcDbEntity
  8
C-2
  6
Continuous
 62
     3
370
     9
100
AcDbLine
 10
240.0001177916658
 20
865.0001702331878
 30
0.0
 11
240.0001177916658
 21
515.0002007507658
 31
0.0
  0
LINE
  5
C1
330
1F
100
AcDbEntity
  8
C-2
  6
Continuous
 62
     3
370
     9
100
AcDbLine
 10
-109.9998822083342
 20
515.0002007507658
 30
0.0
 11
-109.9998822083342
 21
865.0001702331878
 31
0.0
  0
LINE
  5
C2
330
1F
100
AcDbEntity
  8
C-2
  6
Continuous
 62
     3
370
     9
100
AcDbLine
 10
-109.9998822083342
 20
865.0001702331878
 30
0.0
 11
240.0001177916658
 21
865.0001702331878
 31
0.0
  0
LINE
  5
C3
330
1F
100
AcDbEntity
  8
C-2
  6
Continuous
 62
     3
370
     9
100
AcDbLine
 10
240.0001177916658
 20
515.0002007507658
 30
0.0
 11
-109.9998822083342
 21
515.0002007507658
 31
0.0
  0
LINE
  5
C4
330
1F
100
AcDbEntity
  8
C-2
  6
JWW_DASHED1
 62
     3
370
     9
100
AcDbLine
 10
-109.9998822083342
 20
862.0001702331876
 30
0.0
 11
240.0001177916658
 21
862.0001702331876
 31
0.0
  0
LINE
  5
C5
330
1F
100
AcDbEntity
  8
C-2
  6
JWW_DASHED1
 62
     3
370
     9
100
AcDbLine
 10
240.0001177916658
 20
518.0002007507658
 30
0.0
 11
-109.9998822083342
 21
518.0002007507658
 31
0.0
  0
LINE
  5
C6
330
1F
100
AcDbEntity
  8
C-5
  6
Continuous
 62
     7
370
     9
100
AcDbLine
 10
163.9909167418614
 20
447.000505926547
 30
0.0
 11
639.4041094908846
 21
447.000505926547
 31
0.0
  0
LINE
  5
C7
330
1F
100
AcDbEntity
  8
C-C
  6
JWW_DASHED3
 62
     6
370
     9
100
AcDbLine
 10
232.0001177916657
 20
518.0002007507658
 30
0.0
 11
232.0001177916657
 21
862.0001702331876
 31
0.0
  0
LINE
  5
C8
330
1F
100
AcDbEntity
  8
C-C
  6
JWW_DASHED3
 62
     6
370
     9
100
AcDbLine
 10
235.0001177916658
 20
518.0002007507658
 30
0.0
 11
235.0001177916658
 21
862.0001702331876
 31
0.0
  0
LINE
  5
C9
330
1F
100
AcDbEntity
  8
C-C
  6
JWW_DASHED3
 62
     6
370
     9
100
AcDbLine
 10
-105.0000042786468
 20
518.0002007507658
 30
0.0
 11
-105.0000042786468
 21
862.0001702331876
 31
0.0
  0
LINE
  5
CA
330
1F
100
AcDbEntity
  8
C-C
  6
JWW_DASHED3
 62
     6
370
     9
100
AcDbLine
 10
-102.0000042786467
 20
518.0002007507658
 30
0.0
 11
-102.0000042786467
 21
862.0001702331876
 31
0.0
  0
LINE
  5
CB
330
1F
100
AcDbEntity
  8
C-C
  6
JWW_DASHED3
 62
     6
370
     9
100
AcDbLine
 10
68.00011779166596
 20
518.0002007507658
 30
0.0
 11
68.00011779166596
 21
862.0001702331876
 31
0.0
  0
LINE
  5
CC
330
1F
100
AcDbEntity
  8
C-C
  6
JWW_DASHED3
 62
     6
370
     9
100
AcDbLine
 10
65.00011779166584
 20
518.0002007507658
 30
0.0
 11
65.00011779166584
 21
862.0001702331876
 31
0.0
  0
LINE
  5
CD
330
1F
100
AcDbEntity
  8
C-0
  6
Continuous
 62
     7
370
     9
100
AcDbLine
 10
514.6408801207673
 20
782.2200493835783
 30
0.0
 11
714.640803826822
 21
782.2200493835783
 31
0.0
  0
LINE
  5
CE
330
1F
100
AcDbEntity
  8
C-0
  6
Continuous
 62
     7
370
     9
100
AcDbLine
 10
714.640803826822
 20
726.1864800476408
 30
0.0
 11
714.640803826822
 21
785.2195916199065
 31
0.0
  0
LINE
  5
CF
330
1F
100
AcDbEntity
  8
C-0
  6
Continuous
 62
     7
370
     9
100
AcDbLine
 10
514.6408801207673
 20
726.1864800476408
 30
0.0
 11
514.6408801207673
 21
785.2195916199065
 31
0.0
  0
LINE
  5
D0
330
1F
100
AcDbEntity
  8
C-0
  6
Continuous
 62
     7
370
     9
100
AcDbLine
 10
734.5328936705721
 20
675.0005974792814
 30
0.0
 11
797.4757647643224
 21
675.0005974792814
 31
0.0
  0
LINE
  5
D1
330
1F
100
AcDbEntity
  8
C-0
  6
Continuous
 62
     7
370
     9
100
AcDbLine
 10
794.4757037291657
 20
675.0005974792814
 30
0.0
 11
794.4757037291657
 21
705.0002312683439
 31
0.0
  0
LINE
  5
D2
330
1F
100
AcDbEntity
  8
C-0
  6
Continuous
 62
     7
370
     9
100
AcDbLine
 10
797.4757647643224
 20
705.0002312683439
 30
0.0
 11
734.5328936705721
 21
705.0002312683439
 31
0.0
  0
ARC
  5
D3
330
1F
100
AcDbEntity
  8
C-2
  6
Continuous
 62
     3
370
     9
100
AcDbCircle
 10
-72.00000427864666
 20
688.500505926547
 30
0.0
 40
2.99996018409729
100
AcDbArc
 50
90.0
 51
270.0
  0
ARC
  5
D4
330
1F
100
AcDbEntity
  8
C-2
  6
Continuous
 62
     3
370
     9
100
AcDbCircle
 10
-37.99991272591228
 20
688.500505926547
 30
0.0
 40
2.99996018409729
100
AcDbArc
 50
270.0
 51
90.0
  0
ARC
  5
D5
330
1F
100
AcDbEntity
  8
C-2
  6
Continuous
 62
     3
370
     9
100
AcDbCircle
 10
7.99987365104073
 20
688.500505926547
 30
0.0
 40
2.99996018409729
100
AcDbArc
 50
90.0
 51
270.0
  0
ARC
  5
D6
330
1F
100
AcDbEntity
  8
C-2
  6
Continuous
 62
     3
370
     9
100
AcDbCircle
 10
41.9999652037751
 20
688.500505926547
 30
0.0
 40
2.99996018409729
100
AcDbArc
 50
270.0
 51
90.0
  0
ARC
  5
D7
330
1F
100
AcDbEntity
  8
C-2
  6
Continuous
 62
     3
370
     9
100
AcDbCircle
 10
88.00027037955658
 20
688.500505926547
 30
0.0
 40
2.99996018409729
100
AcDbArc
 50
90.0
 51
270.0
  0
ARC
  5
D8
330
1F
100
AcDbEntity
  8
C-2
  6
Continuous
 62
     3
370
     9
100
AcDbCircle
 10
122.0003466735017
 20
688.500505926547
 30
0.0
 40
2.99996018409729
100
AcDbArc
 50
270.0
 51
90.0
  0
ARC
  5
D9
330
1F
100
AcDbEntity
  8
C-2
  6
Continuous
 62
     3
370
     9
100
AcDbCircle
 10
168.0001635680333
 20
688.500505926547
 30
0.0
 40
2.99996018409729
100
AcDbArc
 50
90.0
 51
270.0
  0
ARC
  5
DA
330
1F
100
AcDbEntity
  8
C-2
  6
Continuous
 62
     3
370
     9
100
AcDbCircle
 10
202.0002398619783
 20
688.500505926547
 30
0.0
 40
2.99996018409729
100
AcDbArc
 50
270.0
 51
90.0
  0
ARC
  5
DB
330
1F
100
AcDbEntity
  8
C-2
  6
Continuous
 62
     3
370
     9
100
AcDbCircle
 10
-72.00000427864666
 20
738.4998040222501
 30
0.0
 40
2.99996018409729
100
AcDbArc
 50
90.0
 51
270.0
  0
ARC
  5
DC
330
1F
100
AcDbEntity
  8
C-2
  6
Continuous
 62
     3
370
     9
100
AcDbCircle
 10
-37.99991272591228
 20
738.4998040222501
 30
0.0
 40
2.99996018409729
100
AcDbArc
 50
270.0
 51
90.0
  0
ARC
  5
DD
330
1F
100
AcDbEntity
  8
C-2
  6
Continuous
 62
     3
370
     9
100
AcDbCircle
 10
7.99987365104073
 20
738.4998040222501
 30
0.0
 40
2.99996018409729
100
AcDbArc
 50
90.0
 51
270.0
  0
ARC
  5
DE
330
1F
100
AcDbEntity
  8
C-2
  6
Continuous
 62
     3
370
     9
100
AcDbCircle
 10
41.9999652037751
 20
738.4998040222501
 30
0.0
 40
2.99996018409729
100
AcDbArc
 50
270.0
 51
90.0
  0
ARC
  5
DF
330
1F
100
AcDbEntity
  8
C-2
  6
Continuous
 62
     3
370
     9
100
AcDbCircle
 10
88.00027037955658
 20
738.4998040222501
 30
0.0
 40
2.99996018409729
100
AcDbArc
 50
90.0
 51
270.0
  0
ARC
  5
E0
330
1F
100
AcDbEntity
  8
C-2
  6
Continuous
 62
     3
370
     9
100
AcDbCircle
 10
122.0003466735017
 20
738.4998040222501
 30
0.0
 40
2.99996018409729
100
AcDbArc
 50
270.0
 51
90.0
  0
ARC
  5
E1
330
1F
100
AcDbEntity
  8
C-2
  6
Continuous
 62
     3
370
     9
100
AcDbCircle
 10
168.0001635680333
 20
738.4998040222501
 30
0.0
 40
2.99996018409729
100
AcDbArc
 50
90.0
 51
270.0
  0
ARC
  5
E2
330
1F
100
AcDbEntity
  8
C-2
  6
Continuous
 62
     3
370
     9
100
AcDbCircle
 10
202.0002398619783
 20
738.4998040222501
 30
0.0
 40
2.99996018409729
100
AcDbArc
 50
270.0
 51
90.0
  0
ARC
  5
E3
330
1F
100
AcDbEntity
  8
C-2
  6
Continuous
 62
     3
370
     9
100
AcDbCircle
 10
-72.00000427864666
 20
788.5001091980314
 30
0.0
 40
2.99996018409729
100
AcDbArc
 50
90.0
 51
270.0
  0
ARC
  5
E4
330
1F
100
AcDbEntity
  8
C-2
  6
Continuous
 62
     3
370
     9
100
AcDbCircle
 10
-37.99991272591228
 20
788.5001091980314
 30
0.0
 40
2.99996018409729
100
AcDbArc
 50
270.0
 51
90.0
  0
ARC
  5
E5
330
1F
100
AcDbEntity
  8
C-2
  6
Continuous
 62
     3
370
     9
100
AcDbCircle
 10
7.99987365104073
 20
788.5001091980314
 30
0.0
 40
2.99996018409729
100
AcDbArc
 50
90.0
 51
270.0
  0
ARC
  5
E6
330
1F
100
AcDbEntity
  8
C-2
  6
Continuous
 62
     3
370
     9
100
AcDbCircle
 10
41.9999652037751
 20
788.5001091980314
 30
0.0
 40
2.99996018409729
100
AcDbArc
 50
270.0
 51
90.0
  0
ARC
  5
E7
330
1F
100
AcDbEntity
  8
C-2
  6
Continuous
 62
     3
370
     9
100
AcDbCircle
 10
88.00027037955658
 20
788.5001091980314
 30
0.0
 40
2.99996018409729
100
AcDbArc
 50
90.0
 51
270.0
  0
ARC
  5
E8
330
1F
100
AcDbEntity
  8
C-2
  6
Continuous
 62
     3
370
     9
100
AcDbCircle
 10
122.0003466735017
 20
788.5001091980314
 30
0.0
 40
2.99996018409729
100
AcDbArc
 50
270.0
 51
90.0
  0
ARC
  5
E9
330
1F
100
AcDbEntity
  8
C-2
  6
Continuous
 62
     3
370
     9
100
AcDbCircle
 10
168.0001635680333
 20
788.5001091980314
 30
0.0
 40
2.99996018409729
100
AcDbArc
 50
90.0
 51
270.0
  0
ARC
  5
EA
330
1F
100
AcDbEntity
  8
C-2
  6
Continuous
 62
     3
370
     9
100
AcDbCircle
 10
202.0002398619783
 20
788.5001091980314
 30
0.0
 40
2.99996018409729
100
AcDbArc
 50
270.0
 51
90.0
  0
ARC
  5
EB
330
1F
100
AcDbEntity
  8
C-2
  6
Continuous
 62
     3
370
     9
100
AcDbCircle
 10
-72.00000427864666
 20
638.5002007507658
 30
0.0
 40
2.99996018409729
100
AcDbArc
 50
90.0
 51
270.0
  0
ARC
  5
EC
330
1F
100
AcDbEntity
  8
C-2
  6
Continuous
 62
     3
370
     9
100
AcDbCircle
 10
-37.99991272591228
 20
638.5002007507658
 30
0.0
 40
2.99996018409729
100
AcDbArc
 50
270.0
 51
90.0
  0
ARC
  5
ED
330
1F
100
AcDbEntity
  8
C-2
  6
Continuous
 62
     3
370
     9
100
AcDbCircle
 10
7.99987365104073
 20
638.5002007507658
 30
0.0
 40
2.99996018409729
100
AcDbArc
 50
90.0
 51
270.0
  0
ARC
  5
EE
330
1F
100
AcDbEntity
  8
C-2
  6
Continuous
 62
     3
370
     9
100
AcDbCircle
 10
41.9999652037751
 20
638.5002007507658
 30
0.0
 40
2.99996018409729
100
AcDbArc
 50
270.0
 51
90.0
  0
ARC
  5
EF
330
1F
100
AcDbEntity
  8
C-2
  6
Continuous
 62
     3
370
     9
100
AcDbCircle
 10
88.00027037955658
 20
638.5002007507658
 30
0.0
 40
2.99996018409729
100
AcDbArc
 50
90.0
 51
270.0
  0
ARC
  5
F0
330
1F
100
AcDbEntity
  8
C-2
  6
Continuous
 62
     3
370
     9
100
AcDbCircle
 10
122.0003466735017
 20
638.5002007507658
 30
0.0
 40
2.99996018409729
100
AcDbArc
 50
270.0
 51
90.0
  0
ARC
  5
F1
330
1F
100
AcDbEntity
  8
C-2
  6
Continuous
 62
     3
370
     9
100
AcDbCircle
 10
168.0001635680333
 20
638.5002007507658
 30
0.0
 40
2.99996018409729
100
AcDbArc
 50
90.0
 51
270.0
  0
ARC
  5
F2
330
1F
100
AcDbEntity
  8
C-2
  6
Continuous
 62
     3
370
     9
100
AcDbCircle
 10
202.0002398619783
 20
638.5002007507658
 30
0.0
 40
2.99996018409729
100
AcDbArc
 50
270.0
 51
90.0
  0
ARC
  5
F3
330
1F
100
AcDbEntity
  8
C-2
  6
Continuous
 62
     3
370
     9
100
AcDbCircle
 10
-72.00000427864666
 20
588.4998955749845
 30
0.0
 40
2.99996018409729
100
AcDbArc
 50
90.0
 51
270.0
  0
ARC
  5
F4
330
1F
100
AcDbEntity
  8
C-2
  6
Continuous
 62
     3
370
     9
100
AcDbCircle
 10
-37.99991272591228
 20
588.4998955749845
 30
0.0
 40
2.99996018409729
100
AcDbArc
 50
270.0
 51
90.0
  0
ARC
  5
F5
330
1F
100
AcDbEntity
  8
C-2
  6
Continuous
 62
     3
370
     9
100
AcDbCircle
 10
7.99987365104073
 20
588.4998955749845
 30
0.0
 40
2.99996018409729
100
AcDbArc
 50
90.0
 51
270.0
  0
ARC
  5
F6
330
1F
100
AcDbEntity
  8
C-2
  6
Continuous
 62
     3
370
     9
100
AcDbCircle
 10
41.9999652037751
 20
588.4998955749845
 30
0.0
 40
2.99996018409729
100
AcDbArc
 50
270.0
 51
90.0
  0
ARC
  5
F7
330
1F
100
AcDbEntity
  8
C-2
  6
Continuous
 62
     3
370
     9
100
AcDbCircle
 10
88.00027037955658
 20
588.4998955749845
 30
0.0
 40
2.99996018409729
100
AcDbArc
 50
90.0
 51
270.0
  0
ARC
  5
F8
330
1F
100
AcDbEntity
  8
C-2
  6
Continuous
 62
     3
370
     9
100
AcDbCircle
 10
122.0003466735017
 20
588.4998955749845
 30
0.0
 40
2.99996018409729
100
AcDbArc
 50
270.0
 51
90.0
  0
ARC
  5
F9
330
1F
100
AcDbEntity
  8
C-2
  6
Continuous
 62
     3
370
     9
100
AcDbCircle
 10
168.0001635680333
 20
588.4998955749845
 30
0.0
 40
2.99996018409729
100
AcDbArc
 50
90.0
 51
270.0
  0
ARC
  5
FA
330
1F
100
AcDbEntity
  8
C-2
  6
Continuous
 62
     3
370
     9
100
AcDbCircle
 10
202.0002398619783
 20
588.4998955749845
 30
0.0
 40
2.99996018409729
100
AcDbArc
 50
270.0
 51
90.0
  0
ARC
  5
FB
330
1F
100
AcDbEntity
  8
C-0
  6
Continuous
 62
     3
370
     9
100
AcDbCircle
 10
699.6400103697908
 20
690.0004143738126
 30
0.0
 40
15.0
100
AcDbArc
 50
1.165664672851562
 51
89.9994354248047
  0
ARC
  5
FC
330
1F
100
AcDbEntity
  8
C-0
  6
Continuous
 62
     3
370
     9
100
AcDbCircle
 10
699.6409869322912
 20
690.0004143738126
 30
0.0
 40
15.0
100
AcDbArc
 50
270.0
 51
0.0012359619140554
  0
ARC
  5
FD
330
1F
100
AcDbEntity
  8
C-0
  6
Continuous
 62
     3
370
     9
100
AcDbCircle
 10
529.6406970152987
 20
690.0004143738126
 30
0.0
 40
15.0
100
AcDbArc
 50
179.9993896484375
 51
270.0
  0
ARC
  5
FE
330
1F
100
AcDbEntity
  8
C-0
  6
Continuous
 62
     3
370
     9
100
AcDbCircle
 10
529.6406970152987
 20
690.0004143738126
 30
0.0
 40
15.0
100
AcDbArc
 50
89.99996948242188
 51
179.9988098144531
  0
LWPOLYLINE
  5
FF
330
1F
100
AcDbEntity
  8
C-4
  6
Continuous
 62
     7
370
     9
100
AcDbPolyline
 90
        4
 70
     1
 43
1.0
 10
240.5000720152985
 20
999.9998650574064
 42
0.4142135623731
 10
240.0000720152985
 20
1000.499865057406
 42
0.4142135623731
 10
239.5000720152985
 20
999.9998650574064
 42
0.4142135623731
 10
240.0000720152985
 20
999.4998650574064
 42
0.4142135623731
  0
LWPOLYLINE
  5
100
330
1F
100
AcDbEntity
  8
C-4
  6
Continuous
 62
     7
370
     9
100
AcDbPolyline
 90
        4
 70
     1
 43
1.0
 10
-84.49997376106819
 20
945.0003533386564
 42
0.4142135623731
 10
-84.99997376106819
 20
945.5003533386564
 42
0.4142135623731
 10
-85.49997376106819
 20
945.0003533386564
 42
0.4142135623731
 10
-84.99997376106819
 20
944.5003533386564
 42
0.4142135623731
  0
LWPOLYLINE
  5
101
330
1F
100
AcDbEntity
  8
C-4
  6
Continuous
 62
     7
370
     9
100
AcDbPolyline
 90
        4
 70
     1
 43
1.0
 10
215.5001940856112
 20
945.0003533386564
 42
0.4142135623731
 10
215.0001940856112
 20
945.5003533386564
 42
0.4142135623731
 10
214.5001940856112
 20
945.0003533386564
 42
0.4142135623731
 10
215.0001940856112
 20
944.5003533386564
 42
0.4142135623731
  0
LWPOLYLINE
  5
102
330
1F
100
AcDbEntity
  8
C-4
  6
Continuous
 62
     7
370
     9
100
AcDbPolyline
 90
        4
 70
     1
 43
1.0
 10
-109.5000958313808
 20
945.0003533386564
 42
0.4142135623731
 10
-110.0000958313808
 20
945.5003533386564
 42
0.4142135623731
 10
-110.5000958313808
 20
945.0003533386564
 42
0.4142135623731
 10
-110.0000958313808
 20
944.5003533386564
 42
0.4142135623731
  0
LWPOLYLINE
  5
103
330
1F
100
AcDbEntity
  8
C-4
  6
Continuous
 62
     7
370
     9
100
AcDbPolyline
 90
        4
 70
     1
 43
1.0
 10
240.4995532164706
 20
945.0003533386564
 42
0.4142135623731
 10
239.9995532164706
 20
945.5003533386564
 42
0.4142135623731
 10
239.4995532164706
 20
945.0003533386564
 42
0.4142135623731
 10
239.9995532164706
 20
944.5003533386564
 42
0.4142135623731
  0
LWPOLYLINE
  5
104
330
1F
100
AcDbEntity
  8
C-4
  6
Continuous
 62
     7
370
     9
100
AcDbPolyline
 90
        4
 70
     1
 43
1.0
 10
-177.5001873841155
 20
588.4998955749845
 42
0.4142135623731
 10
-178.0001873841155
 20
588.9998955749845
 42
0.4142135623731
 10
-178.5001873841155
 20
588.4998955749845
 42
0.4142135623731
 10
-178.0001873841155
 20
587.9998955749845
 42
0.4142135623731
  0
LWPOLYLINE
  5
105
330
1F
100
AcDbEntity
  8
C-4
  6
Continuous
 62
     7
370
     9
100
AcDbPolyline
 90
        4
 70
     1
 43
1.0
 10
-177.5001873841155
 20
638.5002007507658
 42
0.4142135623731
 10
-178.0001873841155
 20
639.0002007507658
 42
0.4142135623731
 10
-178.5001873841155
 20
638.5002007507658
 42
0.4142135623731
 10
-178.0001873841155
 20
638.0002007507658
 42
0.4142135623731
  0
LWPOLYLINE
  5
106
330
1F
100
AcDbEntity
  8
C-4
  6
Continuous
 62
     7
370
     9
100
AcDbPolyline
 90
        4
 70
     1
 43
1.0
 10
-54.49997376106819
 20
447.000505926547
 42
0.4142135623731
 10
-54.99997376106819
 20
447.500505926547
 42
0.4142135623731
 10
-55.49997376106819
 20
447.000505926547
 42
0.4142135623731
 10
-54.99997376106819
 20
446.500505926547
 42
0.4142135623731
  0
LWPOLYLINE
  5
107
330
1F
100
AcDbEntity
  8
C-4
  6
Continuous
 62
     7
370
     9
100
AcDbPolyline
 90
        4
 70
     1
 43
1.0
 10
25.49993468619721
 20
447.000505926547
 42
0.4142135623731
 10
24.99993468619721
 20
447.500505926547
 42
0.4142135623731
 10
24.49993468619721
 20
447.000505926547
 42
0.4142135623731
 10
24.99993468619721
 20
446.500505926547
 42
0.4142135623731
  0
LWPOLYLINE
  5
108
330
1F
100
AcDbEntity
  8
C-0
  6
Continuous
 62
     7
370
     9
100
AcDbPolyline
 90
        4
 70
     1
 43
1.0
 10
515.1408801207673
 20
782.2200493835783
 42
0.4142135623731
 10
514.6408801207673
 20
782.7200493835783
 42
0.4142135623731
 10
514.1408801207673
 20
782.2200493835783
 42
0.4142135623731
 10
514.6408801207673
 20
781.7200493835783
 42
0.4142135623731
  0
LWPOLYLINE
  5
109
330
1F
100
AcDbEntity
  8
C-0
  6
Continuous
 62
     7
370
     9
100
AcDbPolyline
 90
        4
 70
     1
 43
1.0
 10
715.140803826822
 20
782.2200493835783
 42
0.4142135623731
 10
714.640803826822
 20
782.7200493835783
 42
0.4142135623731
 10
714.140803826822
 20
782.2200493835783
 42
0.4142135623731
 10
714.640803826822
 20
781.7200493835783
 42
0.4142135623731
  0
LWPOLYLINE
  5
10A
330
1F
100
AcDbEntity
  8
C-0
  6
Continuous
 62
     7
370
     9
100
AcDbPolyline
 90
        4
 70
     1
 43
1.0
 10
794.9757037291657
 20
675.0005974792814
 42
0.4142135623731
 10
794.4757037291657
 20
675.5005974792813
 42
0.4142135623731
 10
793.9757037291657
 20
675.0005974792814
 42
0.4142135623731
 10
794.4757037291657
 20
674.5005974792814
 42
0.4142135623731
  0
LWPOLYLINE
  5
10B
330
1F
100
AcDbEntity
  8
C-0
  6
Continuous
 62
     7
370
     9
100
AcDbPolyline
 90
        4
 70
     1
 43
1.0
 10
794.9757037291657
 20
705.0002312683439
 42
0.4142135623731
 10
794.4757037291657
 20
705.5002312683439
 42
0.4142135623731
 10
793.9757037291657
 20
705.0002312683439
 42
0.4142135623731
 10
794.4757037291657
 20
704.5002312683439
 42
0.4142135623731
  0
TEXT
  5
10C
330
1F
100
AcDbEntity
  8
C-4
  6
Continuous
 62
     2
370
     9
100
AcDbText
 10
32.50020934440045
 20
955.6401702331877
 30
0.0
 40
30.48
  1
300
 41
1.083333333333333
  7
ＭＳ ゴシック
100
AcDbText
  0
TEXT
  5
10D
330
1F
100
AcDbEntity
  8
C-4
  6
Continuous
 62
     2
370
     9
100
AcDbText
 10
-84.13266419075569
 20
955.6401702331877
 30
0.0
 40
30.48
  1
25
 41
1.0625
  7
ＭＳ ゴシック
100
AcDbText
  0
TEXT
  5
10E
330
1F
100
AcDbEntity
  8
C-4
  6
Continuous
 62
     2
370
     9
100
AcDbText
 10
167.6195178160799
 20
955.6401702331877
 30
0.0
 40
30.48
  1
25
 41
1.0625
  7
ＭＳ ゴシック
100
AcDbText
  0
TEXT
  5
10F
330
1F
100
AcDbEntity
  8
C-0
  6
Continuous
 62
     2
370
     9
100
AcDbText
 10
593.3906970152987
 20
792.8603240417815
 30
0.0
 40
30.48
  1
40
 41
1.0625
  7
ＭＳ ゴシック
100
AcDbText
  0
TEXT
  5
110
330
1F
100
AcDbEntity
  8
C-0
  6
Continuous
 62
     2
370
     9
100
AcDbText
 10
783.8354595885411
 20
680.0008718909521
 30
0.0
 40
30.48
  1
6
 50
90.00000250447971
 41
1.000000000000001
  7
ＭＳ ゴシック
100
AcDbText
  0
TEXT
  5
111
330
1F
100
AcDbEntity
  8
C-5
  6
Continuous
 62
     2
370
     9
100
AcDbText
 10
377.047736657633
 20
567.1029387878751
 30
0.0
 40
30.48
  1
排水穴詳細　Ｓ＝１：２
 41
1.113636363636364
  7
ＭＳ ゴシック
100
AcDbText
  0
TEXT
  5
112
330
1F
100
AcDbEntity
  8
C-4
  6
Continuous
 62
     2
370
     9
100
AcDbText
 10
-188.6401873841155
 20
592.250047916343
 30
0.0
 40
30.48
  1
50
 50
90.00000250447789
 41
1.062500000000001
  7
ＭＳ ゴシック
100
AcDbText
  0
TEXT
  5
113
330
1F
100
AcDbEntity
  8
C-4
  6
Continuous
 62
     2
370
     9
100
AcDbText
 10
-36.25003479622478
 20
457.640505926547
 30
0.0
 40
30.48
  1
80
 41
1.0625
  7
ＭＳ ゴシック
100
AcDbText
  0
TEXT
  5
114
330
1F
100
AcDbEntity
  8
C-5
  6
Continuous
 62
     2
370
     9
100
AcDbText
 10
-202.500370489584
 20
290.1408330368375
 30
0.0
 40
30.48
  1
平面詳細図　Ｓ＝１：１０
 41
1.114583333333333
  7
ＭＳ ゴシック
100
AcDbText
  0
TEXT
  5
115
330
1F
100
AcDbEntity
  8
C-5
  6
Continuous
 62
     7
370
     9
100
AcDbText
 10
165.6240039000642
 20
408.2555150818205
 30
0.0
 40
22.86
  1
被膜厚さ７５μ（色：グレ－）
 41
1.154761904761905
  7
ＭＳ ゴシック
100
AcDbText
  0
LINE
  5
116
330
1F
100
AcDbEntity
  8
C-4
  6
Continuous
 62
     7
370
     9
100
AcDbLine
 10
-244.9995770325528
 20
840.0001702331878
 30
0.0
 11
-244.9995770325528
 21
540.0002007507658
 31
0.0
  0
LWPOLYLINE
  5
117
330
1F
100
AcDbEntity
  8
C-4
  6
Continuous
 62
     7
370
     9
100
AcDbPolyline
 90
        4
 70
     1
 43
1.0
 10
-244.4995770325528
 20
840.0001702331878
 42
0.4142135623731
 10
-244.9995770325528
 20
840.5001702331878
 42
0.4142135623731
 10
-245.4995770325528
 20
840.0001702331878
 42
0.4142135623731
 10
-244.9995770325528
 20
839.5001702331878
 42
0.4142135623731
  0
LWPOLYLINE
  5
118
330
1F
100
AcDbEntity
  8
C-4
  6
Continuous
 62
     7
370
     9
100
AcDbPolyline
 90
        4
 70
     1
 43
1.0
 10
-244.4995770325528
 20
540.0002007507658
 42
0.4142135623731
 10
-244.9995770325528
 20
540.5002007507658
 42
0.4142135623731
 10
-245.4995770325528
 20
540.0002007507658
 42
0.4142135623731
 10
-244.9995770325528
 20
539.5002007507658
 42
0.4142135623731
  0
LINE
  5
119
330
1F
100
AcDbEntity
  8
C-4
  6
Continuous
 62
     7
370
     9
100
AcDbLine
 10
-247.9995770325528
 20
840.0001702331878
 30
0.0
 11
-104.9998822083342
 21
840.0001702331878
 31
0.0
  0
LINE
  5
11A
330
1F
100
AcDbEntity
  8
C-4
  6
Continuous
 62
     7
370
     9
100
AcDbLine
 10
-247.9995770325528
 20
540.0002007507658
 30
0.0
 11
-104.9998822083342
 21
540.0002007507658
 31
0.0
  0
TEXT
  5
11B
330
1F
100
AcDbEntity
  8
C-4
  6
Continuous
 62
     2
370
   211
100
AcDbText
 10
-256.6395770325528
 20
657.5001854919767
 30
0.0
 40
30.48
  1
300
 50
90.0
 41
1.083333333333333
  7
ＭＳ ゴシック
100
AcDbText
  0
LWPOLYLINE
  5
11C
330
1F
100
AcDbEntity
  8
C-4
  6
Continuous
 62
     7
370
     9
100
AcDbPolyline
 90
        4
 70
     1
 43
1.0
 10
-299.4990887513028
 20
514.000490667758
 42
0.4142135623731
 10
-299.9990887513028
 20
514.500490667758
 42
0.4142135623731
 10
-300.4990887513028
 20
514.000490667758
 42
0.4142135623731
 10
-299.9990887513028
 20
513.500490667758
 42
0.4142135623731
  0
LINE
  5
11D
330
1F
100
AcDbEntity
  8
C-4
  6
Continuous
 62
     7
370
     9
100
AcDbLine
 10
-244.9995770325528
 20
840.0001702331878
 30
0.0
 11
-244.9995770325528
 21
865.0001702331878
 31
0.0
  0
LWPOLYLINE
  5
11E
330
1F
100
AcDbEntity
  8
C-4
  6
Continuous
 62
     7
370
     9
100
AcDbPolyline
 90
        4
 70
     1
 43
1.0
 10
-244.4995770325528
 20
840.0001702331878
 42
0.4142135623731
 10
-244.9995770325528
 20
840.5001702331878
 42
0.4142135623731
 10
-245.4995770325528
 20
840.0001702331878
 42
0.4142135623731
 10
-244.9995770325528
 20
839.5001702331878
 42
0.4142135623731
  0
LWPOLYLINE
  5
11F
330
1F
100
AcDbEntity
  8
C-4
  6
Continuous
 62
     7
370
     9
100
AcDbPolyline
 90
        4
 70
     1
 43
1.0
 10
-244.4995770325528
 20
865.0001702331878
 42
0.4142135623731
 10
-244.9995770325528
 20
865.5001702331878
 42
0.4142135623731
 10
-245.4995770325528
 20
865.0001702331878
 42
0.4142135623731
 10
-244.9995770325528
 20
864.5001702331878
 42
0.4142135623731
  0
TEXT
  5
120
330
1F
100
AcDbEntity
  8
C-4
  6
Continuous
 62
     2
370
   211
100
AcDbText
 10
-256.6395770325528
 20
818.2268082267132
 30
0.0
 40
30.48
  1
25
 50
90.0
 41
1.0625
  7
ＭＳ ゴシック
100
AcDbText
  0
LINE
  5
121
330
1F
100
AcDbEntity
  8
C-4
  6
Continuous
 62
     7
370
     9
100
AcDbLine
 10
-244.9995770325528
 20
540.0002007507658
 30
0.0
 11
-244.9995770325528
 21
515.0002007507658
 31
0.0
  0
LWPOLYLINE
  5
122
330
1F
100
AcDbEntity
  8
C-4
  6
Continuous
 62
     7
370
     9
100
AcDbPolyline
 90
        4
 70
     1
 43
1.0
 10
-244.4995770325528
 20
540.0002007507658
 42
0.4142135623731
 10
-244.9995770325528
 20
540.5002007507658
 42
0.4142135623731
 10
-245.4995770325528
 20
540.0002007507658
 42
0.4142135623731
 10
-244.9995770325528
 20
539.5002007507658
 42
0.4142135623731
  0
LWPOLYLINE
  5
123
330
1F
100
AcDbEntity
  8
C-4
  6
Continuous
 62
     7
370
     9
100
AcDbPolyline
 90
        4
 70
     1
 43
1.0
 10
-244.4995770325528
 20
515.0002007507658
 42
0.4142135623731
 10
-244.9995770325528
 20
515.5002007507658
 42
0.4142135623731
 10
-245.4995770325528
 20
515.0002007507658
 42
0.4142135623731
 10
-244.9995770325528
 20
514.5002007507658
 42
0.4142135623731
  0
TEXT
  5
124
330
1F
100
AcDbEntity
  8
C-4
  6
Continuous
 62
     2
370
   211
100
AcDbText
 10
-256.6395770325528
 20
519.6781049689124
 30
0.0
 40
30.48
  1
25
 50
90.0
 41
1.0625
  7
ＭＳ ゴシック
100
AcDbText
  0
LINE
  5
125
330
1F
100
AcDbEntity
  8
D-4
  6
Continuous
 62
     7
370
     9
100
AcDbLine
 10
-1179.352871405112
 20
-214.4477514318518
 30
0.0
 11
-606.6850914826261
 21
-214.4477514318518
 31
0.0
  0
LINE
  5
126
330
1F
100
AcDbEntity
  8
D-4
  6
Continuous
 62
     7
370
     9
100
AcDbLine
 10
-606.6850914826261
 20
-319.9112502626471
 30
0.0
 11
-606.6850914826261
 21
-211.4471868566565
 31
0.0
  0
LINE
  5
127
330
1F
100
AcDbEntity
  8
D-4
  6
Continuous
 62
     7
370
     9
100
AcDbLine
 10
-606.6850914826261
 20
-214.4477514318518
 30
0.0
 11
-481.6852536072599
 21
-214.4477514318518
 31
0.0
  0
LINE
  5
128
330
1F
100
AcDbEntity
  8
D-4
  6
Continuous
 62
     7
370
     9
100
AcDbLine
 10
-481.6852536072599
 20
-319.9112502626471
 30
0.0
 11
-481.6852536072599
 21
-102.6957563451819
 31
0.0
  0
LINE
  5
129
330
1F
100
AcDbEntity
  8
D-4
  6
Continuous
 62
     7
370
     9
100
AcDbLine
 10
-476.6849830021727
 20
-319.9112502626471
 30
0.0
 11
-476.6849830021727
 21
-102.6957563451819
 31
0.0
  0
LINE
  5
12A
330
1F
100
AcDbEntity
  8
D-4
  6
Continuous
 62
     7
370
     9
100
AcDbLine
 10
-451.6861047615873
 20
-319.9112502626471
 30
0.0
 11
-451.6861047615873
 21
8.00090274295286
 31
0.0
  0
LINE
  5
12B
330
1F
100
AcDbEntity
  8
D-4
  6
Continuous
 62
     7
370
     9
100
AcDbLine
 10
-606.6850914826261
 20
-895.4497579626137
 30
0.0
 11
-206.6842236389982
 21
-895.4497579626137
 31
0.0
  0
LINE
  5
12C
330
1F
100
AcDbEntity
  8
D-4
  6
Continuous
 62
     7
370
     9
100
AcDbLine
 10
-206.6842236389982
 20
-655.2405599645668
 30
0.0
 11
-206.6842236389982
 21
-898.44933071652
 31
0.0
  0
LINE
  5
12D
330
1F
100
AcDbEntity
  8
D-4
  6
Continuous
 62
     7
370
     9
100
AcDbLine
 10
-606.6850914826261
 20
-740.9853796056801
 30
0.0
 11
-456.685880648123
 21
-740.9853796056801
 31
0.0
  0
LINE
  5
12E
330
1F
100
AcDbEntity
  8
D-4
  6
Continuous
 62
     7
370
     9
100
AcDbLine
 10
65.00011779166584
 20
-585.3665784887368
 30
0.0
 11
65.00011779166584
 21
-335.3669027380042
 31
0.0
  0
LINE
  5
12F
330
1F
100
AcDbEntity
  8
D-4
  6
Continuous
 62
     7
370
     9
100
AcDbLine
 10
-30.65505646370525
 20
-335.3669027380042
 30
0.0
 11
67.9996905455721
 21
-335.3669027380042
 31
0.0
  0
LINE
  5
130
330
1F
100
AcDbEntity
  8
D-6
  6
Continuous
 62
     6
370
     9
100
AcDbLine
 10
-456.685880648123
 20
-585.3665784887368
 30
0.0
 11
-456.685880648123
 21
-835.3662542394692
 31
0.0
  0
LINE
  5
131
330
1F
100
AcDbEntity
  8
D-6
  6
JWW_DASHED3
 62
     6
370
     9
100
AcDbLine
 10
-363.183990942465
 20
-712.8665594152504
 30
0.0
 11
-363.183990942465
 21
-585.3665784887368
 31
0.0
  0
LINE
  5
132
330
1F
100
AcDbEntity
  8
D-6
  6
JWW_DASHED3
 62
     6
370
     9
100
AcDbLine
 10
-318.1835331787931
 20
-585.3665784887368
 30
0.0
 11
-318.1835331787931
 21
-712.8665594152504
 31
0.0
  0
LINE
  5
133
330
1F
100
AcDbEntity
  8
D-6
  6
Continuous
 62
     6
370
     9
100
AcDbLine
 10
-206.6852154602873
 20
-485.3671030096106
 30
0.0
 11
-41.68422363899822
 21
-485.3671030096106
 31
0.0
  0
LINE
  5
134
330
1F
100
AcDbEntity
  8
D-6
  6
Continuous
 62
     6
370
     9
100
AcDbLine
 10
-206.6852154602873
 20
-485.3671030096106
 30
0.0
 11
-206.6852154602873
 21
-585.3665784887368
 31
0.0
  0
LINE
  5
135
330
1F
100
AcDbEntity
  8
D-4
  6
Continuous
 62
     7
370
     9
100
AcDbLine
 10
-150.906330572592
 20
-585.3665784887368
 30
0.0
 11
67.9996905455721
 21
-585.3665784887368
 31
0.0
  0
LINE
  5
136
330
1F
100
AcDbEntity
  8
D-6
  6
Continuous
 62
     6
370
     9
100
AcDbLine
 10
-456.685880648123
 20
-585.3665784887368
 30
0.0
 11
-206.6852154602873
 21
-585.3665784887368
 31
0.0
  0
LINE
  5
137
330
1F
100
AcDbEntity
  8
D-6
  6
Continuous
 62
     6
370
     9
100
AcDbLine
 10
-363.183990942465
 20
-387.8667739919715
 30
0.0
 11
-318.1835331787931
 21
-387.8667739919715
 31
0.0
  0
LINE
  5
138
330
1F
100
AcDbEntity
  8
D-6
  6
JWW_CENTER2
 62
     6
370
     9
100
AcDbLine
 10
-340.6837620606291
 20
-383.7875799230628
 30
0.0
 11
-340.6837620606291
 21
-712.8665594152504
 31
0.0
  0
LINE
  5
139
330
1F
100
AcDbEntity
  8
D-4
  6
Continuous
 62
     7
370
     9
100
AcDbLine
 10
-451.6861047615873
 20
-473.3341459325842
 30
0.0
 11
-451.6861047615873
 21
-544.6766904882484
 31
0.0
  0
LINE
  5
13A
330
1F
100
AcDbEntity
  8
D-6
  6
Continuous
 62
     6
370
     9
100
AcDbLine
 10
-363.183990942465
 20
-420.3665498785071
 30
0.0
 11
-363.183990942465
 21
-387.8667739919715
 31
0.0
  0
LINE
  5
13B
330
1F
100
AcDbEntity
  8
D-6
  6
Continuous
 62
     6
370
     9
100
AcDbLine
 10
-318.1835331787931
 20
-420.3665498785071
 30
0.0
 11
-318.1835331787931
 21
-387.8667739919715
 31
0.0
  0
LINE
  5
13C
330
1F
100
AcDbEntity
  8
D-6
  6
Continuous
 62
     6
370
     9
100
AcDbLine
 10
-363.183990942465
 20
-585.3665784887368
 30
0.0
 11
-363.183990942465
 21
-470.3662923864417
 31
0.0
  0
LINE
  5
13D
330
1F
100
AcDbEntity
  8
D-6
  6
Continuous
 62
     6
370
     9
100
AcDbLine
 10
-318.1835331787931
 20
-585.3665784887368
 30
0.0
 11
-318.1835331787931
 21
-470.3662923864417
 31
0.0
  0
LINE
  5
13E
330
1F
100
AcDbEntity
  8
D-4
  6
Continuous
 62
     7
370
     9
100
AcDbLine
 10
-752.1676030030119
 20
-460.3667406133704
 30
0.0
 11
-752.1676030030119
 21
-335.3669027380042
 31
0.0
  0
LINE
  5
13F
330
1F
100
AcDbEntity
  8
D-4
  6
Continuous
 62
     7
370
     9
100
AcDbLine
 10
-479.8302184810507
 20
-335.3669027380042
 30
0.0
 11
-755.1681675782072
 21
-335.3669027380042
 31
0.0
  0
LINE
  5
140
330
1F
100
AcDbEntity
  8
D-4
  6
Continuous
 62
     7
370
     9
100
AcDbLine
 10
-1179.352871405112
 20
5.000338167757548
 30
0.0
 11
-451.6861047615873
 21
5.000338167757548
 31
0.0
  0
LINE
  5
141
330
1F
100
AcDbEntity
  8
D-4
  6
Continuous
 62
     7
370
     9
100
AcDbLine
 10
-1179.352871405112
 20
-105.6953290990882
 30
0.0
 11
-415.5996289124357
 21
-105.6953290990882
 31
0.0
  0
LINE
  5
142
330
1F
100
AcDbEntity
  8
D-4
  6
Continuous
 62
     7
370
     9
100
AcDbLine
 10
-451.6861047615873
 20
-541.6761449865394
 30
0.0
 11
-306.6856732239592
 21
-541.6761449865394
 31
0.0
  0
LINE
  5
143
330
1F
100
AcDbEntity
  8
D-5
  6
Continuous
 62
     2
370
     9
100
AcDbLine
 10
-948.6804165711271
 20
-1031.309056668668
 30
0.0
 11
-948.6804165711271
 21
-966.3094762853676
 31
0.0
  0
LINE
  5
144
330
1F
100
AcDbEntity
  8
D-5
  6
Continuous
 62
     2
370
     9
100
AcDbLine
 10
-948.6804165711271
 20
-966.3094762853676
 30
0.0
 11
-373.6799969544279
 21
-966.3094762853676
 31
0.0
  0
LINE
  5
145
330
1F
100
AcDbEntity
  8
D-5
  6
Continuous
 62
     2
370
     9
100
AcDbLine
 10
-373.6799969544279
 20
-966.3094762853676
 30
0.0
 11
-373.6799969544279
 21
-1031.309056668668
 31
0.0
  0
LINE
  5
146
330
1F
100
AcDbEntity
  8
D-5
  6
Continuous
 62
     2
370
     9
100
AcDbLine
 10
-373.6799969544279
 20
-1031.309056668668
 30
0.0
 11
-948.6804165711271
 21
-1031.309056668668
 31
0.0
  0
LINE
  5
147
330
1F
100
AcDbEntity
  8
D-4
  6
Continuous
 62
     7
370
     9
100
AcDbLine
 10
-606.6850914826261
 20
-860.3665975622231
 30
0.0
 11
-606.6850914826261
 21
-898.44933071652
 31
0.0
  0
LINE
  5
148
330
1F
100
AcDbEntity
  8
D-5
  6
Continuous
 62
     7
370
     9
100
AcDbLine
 10
-267.3405041565763
 20
-227.318044095426
 30
0.0
 11
-7.957645880209157
 21
-227.318044095426
 31
0.0
  0
LINE
  5
149
330
1F
100
AcDbEntity
  8
D-5
  6
Continuous
 62
     7
370
     9
100
AcDbLine
 10
-458.6281194558012
 20
-335.3669027380042
 30
0.0
 11
-444.8174228539335
 21
-314.5284775785498
 31
0.0
  0
LINE
  5
14A
330
1F
100
AcDbEntity
  8
D-5
  6
Continuous
 62
     7
370
     9
100
AcDbLine
 10
-458.6281194558012
 20
-335.3669027380042
 30
0.0
 11
-439.8944439759123
 21
-318.8127950719885
 31
0.0
  0
LINE
  5
14B
330
1F
100
AcDbEntity
  8
D-5
  6
Continuous
 62
     7
370
     9
100
AcDbLine
 10
-316.8358578553068
 20
-172.4557737402014
 30
0.0
 11
-458.6281194558012
 21
-335.3669027380042
 31
0.0
  0
LINE
  5
14C
330
1F
100
AcDbEntity
  8
D-5
  6
Continuous
 62
     7
370
     9
100
AcDbLine
 10
-267.3405041565763
 20
-227.318044095426
 30
0.0
 11
-482.1688311194646
 21
-474.1437391332678
 31
0.0
  0
LINE
  5
14D
330
1F
100
AcDbEntity
  8
D-5
  6
Continuous
 62
     7
370
     9
100
AcDbLine
 10
-316.8358578553068
 20
-172.4557737402014
 30
0.0
 11
133.954509271158
 21
-172.4557737402014
 31
0.0
  0
LINE
  5
14E
330
1F
100
AcDbEntity
  8
D-6
  6
Continuous
 62
     6
370
     9
100
AcDbLine
 10
-206.6852154602873
 20
-532.7066663793616
 30
0.0
 11
-159.3451657166349
 21
-485.3666070989661
 31
0.0
  0
LINE
  5
14F
330
1F
100
AcDbEntity
  8
D-6
  6
Continuous
 62
     6
370
     9
100
AcDbLine
 10
-456.6848912110197
 20
-782.7043584875161
 30
0.0
 11
-259.3456234803068
 21
-585.3665784887368
 31
0.0
  0
LINE
  5
150
330
1F
100
AcDbEntity
  8
D-6
  6
Continuous
 62
     6
370
     9
100
AcDbLine
 10
-456.6848912110197
 20
-796.8450216344887
 30
0.0
 11
-245.2049412598478
 21
-585.3665784887368
 31
0.0
  0
LINE
  5
151
330
1F
100
AcDbEntity
  8
D-6
  6
Continuous
 62
     6
370
     9
100
AcDbLine
 10
-206.6852154602873
 20
-546.8473485998206
 30
0.0
 11
-145.2044644226896
 21
-485.3666070989661
 31
0.0
  0
LINE
  5
152
330
1F
100
AcDbEntity
  8
D-6
  6
Continuous
 62
     6
370
     9
100
AcDbLine
 10
-456.6848912110197
 20
-810.985722928434
 30
0.0
 11
-231.0642590393888
 21
-585.3665784887368
 31
0.0
  0
LINE
  5
153
330
1F
100
AcDbEntity
  8
D-6
  6
Continuous
 62
     6
370
     9
100
AcDbLine
 10
-206.6852154602873
 20
-560.9880308202796
 30
0.0
 11
-131.063801275717
 21
-485.3666070989661
 31
0.0
  0
LINE
  5
154
330
1F
100
AcDbEntity
  8
D-6
  6
Continuous
 62
     6
370
     9
100
AcDbLine
 10
-117.5127377381193
 20
-835.3662542394692
 30
0.0
 11
-41.68422363899822
 21
-759.5382360509926
 31
0.0
  0
LINE
  5
155
330
1F
100
AcDbEntity
  8
D-6
  6
Continuous
 62
     6
370
     9
100
AcDbLine
 10
-131.653400885092
 20
-835.3662542394692
 30
0.0
 11
-41.68422363899822
 21
-745.3975347570473
 31
0.0
  0
LINE
  5
156
330
1F
100
AcDbEntity
  8
D-6
  6
Continuous
 62
     6
370
     9
100
AcDbLine
 10
-103.372036444174
 20
-835.3662542394692
 30
0.0
 11
-41.68422363899822
 21
-773.6788991979653
 31
0.0
  0
LINE
  5
157
330
1F
100
AcDbEntity
  8
D-0
  6
Continuous
 62
     7
370
     9
100
AcDbLine
 10
-179.8397221436369
 20
-356.3163141302161
 30
0.0
 11
-179.8397221436369
 21
-354.8160342268042
 31
0.0
  0
LINE
  5
158
330
1F
100
AcDbEntity
  8
D-0
  6
Continuous
 62
     7
370
     9
100
AcDbLine
 10
-179.8397221436369
 20
-354.8160342268042
 30
0.0
 11
-178.3399548401701
 21
-354.8160342268042
 31
0.0
  0
LINE
  5
159
330
1F
100
AcDbEntity
  8
D-0
  6
Continuous
 62
     7
370
     9
100
AcDbLine
 10
-178.3399548401701
 20
-354.8160342268042
 30
0.0
 11
-178.3399548401701
 21
-356.3163141302161
 31
0.0
  0
LINE
  5
15A
330
1F
100
AcDbEntity
  8
D-0
  6
Continuous
 62
     7
370
     9
100
AcDbLine
 10
-178.3399548401701
 20
-356.3163141302161
 30
0.0
 11
-179.8397221436369
 21
-356.3163141302161
 31
0.0
  0
LINE
  5
15B
330
1F
100
AcDbEntity
  8
D-0
  6
Continuous
 62
     7
370
     9
100
AcDbLine
 10
-129.0838971009123
 20
-359.0235547117285
 30
0.0
 11
-129.0838971009123
 21
-357.5232748083167
 31
0.0
  0
LINE
  5
15C
330
1F
100
AcDbEntity
  8
D-0
  6
Continuous
 62
     7
370
     9
100
AcDbLine
 10
-129.0838971009123
 20
-357.5232748083167
 30
0.0
 11
-127.5836148133146
 21
-357.5232748083167
 31
0.0
  0
LINE
  5
15D
330
1F
100
AcDbEntity
  8
D-0
  6
Continuous
 62
     7
370
     9
100
AcDbLine
 10
-127.5836148133146
 20
-357.5232748083167
 30
0.0
 11
-127.5836148133146
 21
-359.0235547117285
 31
0.0
  0
LINE
  5
15E
330
1F
100
AcDbEntity
  8
D-0
  6
Continuous
 62
     7
370
     9
100
AcDbLine
 10
-127.5836148133146
 20
-359.0235547117285
 30
0.0
 11
-129.0838971009123
 21
-359.0235547117285
 31
0.0
  0
LINE
  5
15F
330
1F
100
AcDbEntity
  8
D-0
  6
Continuous
 62
     7
370
     9
100
AcDbLine
 10
-64.1160549988615
 20
-356.9931248716406
 30
0.0
 11
-64.1160549988615
 21
-355.4928449682288
 31
0.0
  0
LINE
  5
160
330
1F
100
AcDbEntity
  8
D-0
  6
Continuous
 62
     7
370
     9
100
AcDbLine
 10
-64.1160549988615
 20
-355.4928449682288
 30
0.0
 11
-62.61626862190838
 21
-355.4928449682288
 31
0.0
  0
LINE
  5
161
330
1F
100
AcDbEntity
  8
D-0
  6
Continuous
 62
     7
370
     9
100
AcDbLine
 10
-62.61626862190838
 20
-355.4928449682288
 30
0.0
 11
-62.61626862190838
 21
-356.9931248716406
 31
0.0
  0
LINE
  5
162
330
1F
100
AcDbEntity
  8
D-0
  6
Continuous
 62
     7
370
     9
100
AcDbLine
 10
-62.61626862190838
 20
-356.9931248716406
 30
0.0
 11
-64.1160549988615
 21
-356.9931248716406
 31
0.0
  0
LINE
  5
163
330
1F
100
AcDbEntity
  8
D-0
  6
Continuous
 62
     7
370
     9
100
AcDbLine
 10
-88.47926758431072
 20
-389.4770483068518
 30
0.0
 11
-88.47926758431072
 21
-387.9767660192542
 31
0.0
  0
LINE
  5
164
330
1F
100
AcDbEntity
  8
D-0
  6
Continuous
 62
     7
370
     9
100
AcDbLine
 10
-88.47926758431072
 20
-387.9767660192542
 30
0.0
 11
-86.97898529671306
 21
-387.9767660192542
 31
0.0
  0
LINE
  5
165
330
1F
100
AcDbEntity
  8
D-0
  6
Continuous
 62
     7
370
     9
100
AcDbLine
 10
-86.97898529671306
 20
-387.9767660192542
 30
0.0
 11
-86.97898529671306
 21
-389.4770483068518
 31
0.0
  0
LINE
  5
166
330
1F
100
AcDbEntity
  8
D-0
  6
Continuous
 62
     7
370
     9
100
AcDbLine
 10
-86.97898529671306
 20
-389.4770483068518
 30
0.0
 11
-88.47926758431072
 21
-389.4770483068518
 31
0.0
  0
LINE
  5
167
330
1F
100
AcDbEntity
  8
D-0
  6
Continuous
 62
     7
370
     9
100
AcDbLine
 10
-139.0443005432951
 20
-393.40809860745
 30
0.0
 11
-139.0443005432951
 21
-391.9078163198523
 31
0.0
  0
LINE
  5
168
330
1F
100
AcDbEntity
  8
D-0
  6
Continuous
 62
     7
370
     9
100
AcDbLine
 10
-139.0443005432951
 20
-391.9078163198523
 30
0.0
 11
-137.5445523133146
 21
-391.9078163198523
 31
0.0
  0
LINE
  5
169
330
1F
100
AcDbEntity
  8
D-0
  6
Continuous
 62
     7
370
     9
100
AcDbLine
 10
-137.5445523133146
 20
-391.9078163198523
 30
0.0
 11
-137.5445523133146
 21
-393.40809860745
 31
0.0
  0
LINE
  5
16A
330
1F
100
AcDbEntity
  8
D-0
  6
Continuous
 62
     7
370
     9
100
AcDbLine
 10
-137.5445523133146
 20
-393.40809860745
 30
0.0
 11
-139.0443005432951
 21
-393.40809860745
 31
0.0
  0
LINE
  5
16B
330
1F
100
AcDbEntity
  8
D-0
  6
Continuous
 62
     7
370
     9
100
AcDbLine
 10
-156.1538281311857
 20
-427.3749593786292
 30
0.0
 11
-156.1538281311857
 21
-425.8746770910315
 31
0.0
  0
LINE
  5
16C
330
1F
100
AcDbEntity
  8
D-0
  6
Continuous
 62
     7
370
     9
100
AcDbLine
 10
-156.1538281311857
 20
-425.8746770910315
 30
0.0
 11
-154.6535839905607
 21
-425.8746770910315
 31
0.0
  0
LINE
  5
16D
330
1F
100
AcDbEntity
  8
D-0
  6
Continuous
 62
     7
370
     9
100
AcDbLine
 10
-154.6535839905607
 20
-425.8746770910315
 30
0.0
 11
-154.6535839905607
 21
-427.3749593786292
 31
0.0
  0
LINE
  5
16E
330
1F
100
AcDbEntity
  8
D-0
  6
Continuous
 62
     7
370
     9
100
AcDbLine
 10
-154.6535839905607
 20
-427.3749593786292
 30
0.0
 11
-156.1538281311857
 21
-427.3749593786292
 31
0.0
  0
LINE
  5
16F
330
1F
100
AcDbEntity
  8
D-0
  6
Continuous
 62
     7
370
     9
100
AcDbLine
 10
-187.5100865235197
 20
-412.8032211355261
 30
0.0
 11
-187.5100865235197
 21
-411.3029436163001
 31
0.0
  0
LINE
  5
170
330
1F
100
AcDbEntity
  8
D-0
  6
Continuous
 62
     7
370
     9
100
AcDbLine
 10
-187.5100865235197
 20
-411.3029436163001
 30
0.0
 11
-186.0103001465666
 21
-411.3029436163001
 31
0.0
  0
LINE
  5
171
330
1F
100
AcDbEntity
  8
D-0
  6
Continuous
 62
     7
370
     9
100
AcDbLine
 10
-186.0103001465666
 20
-411.3029436163001
 30
0.0
 11
-186.0103001465666
 21
-412.8032211355261
 31
0.0
  0
LINE
  5
172
330
1F
100
AcDbEntity
  8
D-0
  6
Continuous
 62
     7
370
     9
100
AcDbLine
 10
-186.0103001465666
 20
-412.8032211355261
 30
0.0
 11
-187.5100865235197
 21
-412.8032211355261
 31
0.0
  0
LINE
  5
173
330
1F
100
AcDbEntity
  8
D-0
  6
Continuous
 62
     7
370
     9
100
AcDbLine
 10
-198.2344975342619
 20
-454.0232519201331
 30
0.0
 11
-198.2344975342619
 21
-452.5229696325354
 31
0.0
  0
LINE
  5
174
330
1F
100
AcDbEntity
  8
D-0
  6
Continuous
 62
     7
370
     9
100
AcDbLine
 10
-198.2344975342619
 20
-452.5229696325354
 30
0.0
 11
-196.7342152466642
 21
-452.5229696325354
 31
0.0
  0
LINE
  5
175
330
1F
100
AcDbEntity
  8
D-0
  6
Continuous
 62
     7
370
     9
100
AcDbLine
 10
-196.7342152466642
 20
-452.5229696325354
 30
0.0
 11
-196.7342152466642
 21
-454.0232519201331
 31
0.0
  0
LINE
  5
176
330
1F
100
AcDbEntity
  8
D-0
  6
Continuous
 62
     7
370
     9
100
AcDbLine
 10
-196.7342152466642
 20
-454.0232519201331
 30
0.0
 11
-198.2344975342619
 21
-454.0232519201331
 31
0.0
  0
LINE
  5
177
330
1F
100
AcDbEntity
  8
D-0
  6
Continuous
 62
     7
370
     9
100
AcDbLine
 10
-160.8910336365568
 20
-462.5656274847083
 30
0.0
 11
-160.8910336365568
 21
-461.0653451971106
 31
0.0
  0
LINE
  5
178
330
1F
100
AcDbEntity
  8
D-0
  6
Continuous
 62
     7
370
     9
100
AcDbLine
 10
-160.8910336365568
 20
-461.0653451971106
 30
0.0
 11
-159.3907513489592
 21
-461.0653451971106
 31
0.0
  0
LINE
  5
179
330
1F
100
AcDbEntity
  8
D-0
  6
Continuous
 62
     7
370
     9
100
AcDbLine
 10
-159.3907513489592
 20
-461.0653451971106
 30
0.0
 11
-159.3907513489592
 21
-462.5656274847083
 31
0.0
  0
LINE
  5
17A
330
1F
100
AcDbEntity
  8
D-0
  6
Continuous
 62
     7
370
     9
100
AcDbLine
 10
-159.3907513489592
 20
-462.5656274847083
 30
0.0
 11
-160.8910336365568
 21
-462.5656274847083
 31
0.0
  0
LINE
  5
17B
330
1F
100
AcDbEntity
  8
D-0
  6
Continuous
 62
     7
370
     9
100
AcDbLine
 10
-108.6859478821623
 20
-467.2904161504798
 30
0.0
 11
-108.6859478821623
 21
-465.7901433996253
 31
0.0
  0
LINE
  5
17C
330
1F
100
AcDbEntity
  8
D-0
  6
Continuous
 62
     7
370
     9
100
AcDbLine
 10
-108.6859478821623
 20
-465.7901433996253
 30
0.0
 11
-107.1861615052092
 21
-465.7901433996253
 31
0.0
  0
LINE
  5
17D
330
1F
100
AcDbEntity
  8
D-0
  6
Continuous
 62
     7
370
     9
100
AcDbLine
 10
-107.1861615052092
 20
-465.7901433996253
 30
0.0
 11
-107.1861615052092
 21
-467.2904161504798
 31
0.0
  0
LINE
  5
17E
330
1F
100
AcDbEntity
  8
D-0
  6
Continuous
 62
     7
370
     9
100
AcDbLine
 10
-107.1861615052092
 20
-467.2904161504798
 30
0.0
 11
-108.6859478821623
 21
-467.2904161504798
 31
0.0
  0
LINE
  5
17F
330
1F
100
AcDbEntity
  8
D-0
  6
Continuous
 62
     7
370
     9
100
AcDbLine
 10
-53.96487854622478
 20
-460.5351976446204
 30
0.0
 11
-53.96487854622478
 21
-459.0349153570227
 31
0.0
  0
LINE
  5
180
330
1F
100
AcDbEntity
  8
D-0
  6
Continuous
 62
     7
370
     9
100
AcDbLine
 10
-53.96487854622478
 20
-459.0349153570227
 30
0.0
 11
-52.46513031624431
 21
-459.0349153570227
 31
0.0
  0
LINE
  5
181
330
1F
100
AcDbEntity
  8
D-0
  6
Continuous
 62
     7
370
     9
100
AcDbLine
 10
-52.46513031624431
 20
-459.0349153570227
 30
0.0
 11
-52.46513031624431
 21
-460.5351976446204
 31
0.0
  0
LINE
  5
182
330
1F
100
AcDbEntity
  8
D-0
  6
Continuous
 62
     7
370
     9
100
AcDbLine
 10
-52.46513031624431
 20
-460.5351976446204
 30
0.0
 11
-53.96487854622478
 21
-460.5351976446204
 31
0.0
  0
LINE
  5
183
330
1F
100
AcDbEntity
  8
D-0
  6
Continuous
 62
     7
370
     9
100
AcDbLine
 10
-66.14650391243572
 20
-420.6073526433997
 30
0.0
 11
-66.14650391243572
 21
-419.107070355802
 31
0.0
  0
LINE
  5
184
330
1F
100
AcDbEntity
  8
D-0
  6
Continuous
 62
     7
370
     9
100
AcDbLine
 10
-66.14650391243572
 20
-419.107070355802
 30
0.0
 11
-64.64622162483806
 21
-419.107070355802
 31
0.0
  0
LINE
  5
185
330
1F
100
AcDbEntity
  8
D-0
  6
Continuous
 62
     7
370
     9
100
AcDbLine
 10
-64.64622162483806
 20
-419.107070355802
 30
0.0
 11
-64.64622162483806
 21
-420.6073526433997
 31
0.0
  0
LINE
  5
186
330
1F
100
AcDbEntity
  8
D-0
  6
Continuous
 62
     7
370
     9
100
AcDbLine
 10
-64.64622162483806
 20
-420.6073526433997
 30
0.0
 11
-66.14650391243572
 21
-420.6073526433997
 31
0.0
  0
LINE
  5
187
330
1F
100
AcDbEntity
  8
D-0
  6
Continuous
 62
     7
370
     9
100
AcDbLine
 10
-107.1752514710295
 20
-429.7249654821448
 30
0.0
 11
-107.1752514710295
 21
-428.2246831945471
 31
0.0
  0
LINE
  5
188
330
1F
100
AcDbEntity
  8
D-0
  6
Continuous
 62
     7
370
     9
100
AcDbLine
 10
-107.1752514710295
 20
-428.2246831945471
 30
0.0
 11
-105.675503241049
 21
-428.2246831945471
 31
0.0
  0
LINE
  5
189
330
1F
100
AcDbEntity
  8
D-0
  6
Continuous
 62
     7
370
     9
100
AcDbLine
 10
-105.675503241049
 20
-428.2246831945471
 30
0.0
 11
-105.675503241049
 21
-429.7249654821448
 31
0.0
  0
LINE
  5
18A
330
1F
100
AcDbEntity
  8
D-0
  6
Continuous
 62
     7
370
     9
100
AcDbLine
 10
-105.675503241049
 20
-429.7249654821448
 30
0.0
 11
-107.1752514710295
 21
-429.7249654821448
 31
0.0
  0
LINE
  5
18B
330
1F
100
AcDbEntity
  8
D-0
  6
Continuous
 62
     7
370
     9
100
AcDbLine
 10
-46.69044159554119
 20
-390.2366022161536
 30
0.0
 11
-46.69044159554119
 21
-388.7363199285559
 31
0.0
  0
LINE
  5
18C
330
1F
100
AcDbEntity
  8
D-0
  6
Continuous
 62
     7
370
     9
100
AcDbLine
 10
-46.69044159554119
 20
-388.7363199285559
 30
0.0
 11
-45.19015930794353
 21
-388.7363199285559
 31
0.0
  0
LINE
  5
18D
330
1F
100
AcDbEntity
  8
D-0
  6
Continuous
 62
     7
370
     9
100
AcDbLine
 10
-45.19015930794353
 20
-388.7363199285559
 30
0.0
 11
-45.19015930794353
 21
-390.2366022161536
 31
0.0
  0
LINE
  5
18E
330
1F
100
AcDbEntity
  8
D-0
  6
Continuous
 62
     7
370
     9
100
AcDbLine
 10
-45.19015930794353
 20
-390.2366022161536
 30
0.0
 11
-46.69044159554119
 21
-390.2366022161536
 31
0.0
  0
LINE
  5
18F
330
1F
100
AcDbEntity
  8
D-0
  6
Continuous
 62
     7
370
     9
100
AcDbLine
 10
-200.6910290589201
 20
-379.3437198690467
 30
0.0
 11
-200.6910290589201
 21
-377.8434423498206
 31
0.0
  0
LINE
  5
190
330
1F
100
AcDbEntity
  8
D-0
  6
Continuous
 62
     7
370
     9
100
AcDbLine
 10
-200.6910290589201
 20
-377.8434423498206
 30
0.0
 11
-199.1907658448088
 21
-377.8434423498206
 31
0.0
  0
LINE
  5
191
330
1F
100
AcDbEntity
  8
D-0
  6
Continuous
 62
     7
370
     9
100
AcDbLine
 10
-199.1907658448088
 20
-377.8434423498206
 30
0.0
 11
-199.1907658448088
 21
-379.3437198690467
 31
0.0
  0
LINE
  5
192
330
1F
100
AcDbEntity
  8
D-0
  6
Continuous
 62
     7
370
     9
100
AcDbLine
 10
-199.1907658448088
 20
-379.3437198690467
 30
0.0
 11
-200.6910290589201
 21
-379.3437198690467
 31
0.0
  0
LINE
  5
193
330
1F
100
AcDbEntity
  8
D-0
  6
Continuous
 62
     7
370
     9
100
AcDbLine
 10
-284.0407719483244
 20
-502.5940565160803
 30
0.0
 11
-284.0407719483244
 21
-501.0937742284827
 31
0.0
  0
LINE
  5
194
330
1F
100
AcDbEntity
  8
D-0
  6
Continuous
 62
     7
370
     9
100
AcDbLine
 10
-284.0407719483244
 20
-501.0937742284827
 30
0.0
 11
-282.5404896607267
 21
-501.0937742284827
 31
0.0
  0
LINE
  5
195
330
1F
100
AcDbEntity
  8
D-0
  6
Continuous
 62
     7
370
     9
100
AcDbLine
 10
-282.5404896607267
 20
-501.0937742284827
 30
0.0
 11
-282.5404896607267
 21
-502.5940565160803
 31
0.0
  0
LINE
  5
196
330
1F
100
AcDbEntity
  8
D-0
  6
Continuous
 62
     7
370
     9
100
AcDbLine
 10
-282.5404896607267
 20
-502.5940565160803
 30
0.0
 11
-284.0407719483244
 21
-502.5940565160803
 31
0.0
  0
LINE
  5
197
330
1F
100
AcDbEntity
  8
D-0
  6
Continuous
 62
     7
370
     9
100
AcDbLine
 10
-234.6762242188322
 20
-510.4923299840979
 30
0.0
 11
-234.6762242188322
 21
-508.9920476965003
 31
0.0
  0
LINE
  5
198
330
1F
100
AcDbEntity
  8
D-0
  6
Continuous
 62
     7
370
     9
100
AcDbLine
 10
-234.6762242188322
 20
-508.9920476965003
 30
0.0
 11
-233.1759610047209
 21
-508.9920476965003
 31
0.0
  0
LINE
  5
199
330
1F
100
AcDbEntity
  8
D-0
  6
Continuous
 62
     7
370
     9
100
AcDbLine
 10
-233.1759610047209
 20
-508.9920476965003
 30
0.0
 11
-233.1759610047209
 21
-510.4923299840979
 31
0.0
  0
LINE
  5
19A
330
1F
100
AcDbEntity
  8
D-0
  6
Continuous
 62
     7
370
     9
100
AcDbLine
 10
-233.1759610047209
 20
-510.4923299840979
 30
0.0
 11
-234.6762242188322
 21
-510.4923299840979
 31
0.0
  0
LINE
  5
19B
330
1F
100
AcDbEntity
  8
D-0
  6
Continuous
 62
     7
370
     9
100
AcDbLine
 10
-251.5573468079435
 20
-531.073098569303
 30
0.0
 11
-251.5573468079435
 21
-529.5728353551917
 31
0.0
  0
LINE
  5
19C
330
1F
100
AcDbEntity
  8
D-0
  6
Continuous
 62
     7
370
     9
100
AcDbLine
 10
-251.5573468079435
 20
-529.5728353551917
 30
0.0
 11
-250.0575604309904
 21
-529.5728353551917
 31
0.0
  0
LINE
  5
19D
330
1F
100
AcDbEntity
  8
D-0
  6
Continuous
 62
     7
370
     9
100
AcDbLine
 10
-250.0575604309904
 20
-529.5728353551917
 30
0.0
 11
-250.0575604309904
 21
-531.073098569303
 31
0.0
  0
LINE
  5
19E
330
1F
100
AcDbEntity
  8
D-0
  6
Continuous
 62
     7
370
     9
100
AcDbLine
 10
-250.0575604309904
 20
-531.073098569303
 30
0.0
 11
-251.5573468079435
 21
-531.073098569303
 31
0.0
  0
LINE
  5
19F
330
1F
100
AcDbEntity
  8
D-0
  6
Continuous
 62
     7
370
     9
100
AcDbLine
 10
-299.8373188843595
 20
-565.7811979345375
 30
0.0
 11
-299.8373188843595
 21
-564.2809156469398
 31
0.0
  0
LINE
  5
1A0
330
1F
100
AcDbEntity
  8
D-0
  6
Continuous
 62
     7
370
     9
100
AcDbLine
 10
-299.8373188843595
 20
-564.2809156469398
 30
0.0
 11
-298.3375325074064
 21
-564.2809156469398
 31
0.0
  0
LINE
  5
1A1
330
1F
100
AcDbEntity
  8
D-0
  6
Continuous
 62
     7
370
     9
100
AcDbLine
 10
-298.3375325074064
 20
-564.2809156469398
 30
0.0
 11
-298.3375325074064
 21
-565.7811979345375
 31
0.0
  0
LINE
  5
1A2
330
1F
100
AcDbEntity
  8
D-0
  6
Continuous
 62
     7
370
     9
100
AcDbLine
 10
-298.3375325074064
 20
-565.7811979345375
 30
0.0
 11
-299.8373188843595
 21
-565.7811979345375
 31
0.0
  0
LINE
  5
1A3
330
1F
100
AcDbEntity
  8
D-0
  6
Continuous
 62
     7
370
     9
100
AcDbLine
 10
-228.7523999085295
 20
-563.806252866178
 30
0.0
 11
-228.7523999085295
 21
-562.3059705785804
 31
0.0
  0
LINE
  5
1A4
330
1F
100
AcDbEntity
  8
D-0
  6
Continuous
 62
     7
370
     9
100
AcDbLine
 10
-228.7523999085295
 20
-562.3059705785804
 30
0.0
 11
-227.2521366944181
 21
-562.3059705785804
 31
0.0
  0
LINE
  5
1A5
330
1F
100
AcDbEntity
  8
D-0
  6
Continuous
 62
     7
370
     9
100
AcDbLine
 10
-227.2521366944181
 20
-562.3059705785804
 30
0.0
 11
-227.2521366944181
 21
-563.806252866178
 31
0.0
  0
LINE
  5
1A6
330
1F
100
AcDbEntity
  8
D-0
  6
Continuous
 62
     7
370
     9
100
AcDbLine
 10
-227.2521366944181
 20
-563.806252866178
 30
0.0
 11
-228.7523999085295
 21
-563.806252866178
 31
0.0
  0
LINE
  5
1A7
330
1F
100
AcDbEntity
  8
D-0
  6
Continuous
 62
     7
370
     9
100
AcDbLine
 10
-286.0152211060392
 20
-532.2131780675941
 30
0.0
 11
-286.0152211060392
 21
-530.7128957799964
 31
0.0
  0
LINE
  5
1A8
330
1F
100
AcDbEntity
  8
D-0
  6
Continuous
 62
     7
370
     9
100
AcDbLine
 10
-286.0152211060392
 20
-530.7128957799964
 30
0.0
 11
-284.5154347290861
 21
-530.7128957799964
 31
0.0
  0
LINE
  5
1A9
330
1F
100
AcDbEntity
  8
D-0
  6
Continuous
 62
     7
370
     9
100
AcDbLine
 10
-284.5154347290861
 20
-530.7128957799964
 30
0.0
 11
-284.5154347290861
 21
-532.2131780675941
 31
0.0
  0
LINE
  5
1AA
330
1F
100
AcDbEntity
  8
D-0
  6
Continuous
 62
     7
370
     9
100
AcDbLine
 10
-284.5154347290861
 20
-532.2131780675941
 30
0.0
 11
-286.0152211060392
 21
-532.2131780675941
 31
0.0
  0
LINE
  5
1AB
330
1F
100
AcDbEntity
  8
D-0
  6
Continuous
 62
     7
370
     9
100
AcDbLine
 10
-254.1481556763517
 20
-488.3344606451087
 30
0.0
 11
-254.1481556763517
 21
-486.8341878942542
 31
0.0
  0
LINE
  5
1AC
330
1F
100
AcDbEntity
  8
D-0
  6
Continuous
 62
     7
370
     9
100
AcDbLine
 10
-254.1481556763517
 20
-486.8341878942542
 30
0.0
 11
-252.6478733887541
 21
-486.8341878942542
 31
0.0
  0
LINE
  5
1AD
330
1F
100
AcDbEntity
  8
D-0
  6
Continuous
 62
     7
370
     9
100
AcDbLine
 10
-252.6478733887541
 20
-486.8341878942542
 30
0.0
 11
-252.6478733887541
 21
-488.3344606451087
 31
0.0
  0
LINE
  5
1AE
330
1F
100
AcDbEntity
  8
D-0
  6
Continuous
 62
     7
370
     9
100
AcDbLine
 10
-252.6478733887541
 20
-488.3344606451087
 30
0.0
 11
-254.1481556763517
 21
-488.3344606451087
 31
0.0
  0
LINE
  5
1AF
330
1F
100
AcDbEntity
  8
D-0
  6
Continuous
 62
     7
370
     9
100
AcDbLine
 10
-263.4317555298674
 20
-559.7741178564124
 30
0.0
 11
-263.4317555298674
 21
-558.2738546423011
 31
0.0
  0
LINE
  5
1B0
330
1F
100
AcDbEntity
  8
D-0
  6
Continuous
 62
     7
370
     9
100
AcDbLine
 10
-263.4317555298674
 20
-558.2738546423011
 30
0.0
 11
-261.9314732422697
 21
-558.2738546423011
 31
0.0
  0
LINE
  5
1B1
330
1F
100
AcDbEntity
  8
D-0
  6
Continuous
 62
     7
370
     9
100
AcDbLine
 10
-261.9314732422697
 20
-558.2738546423011
 30
0.0
 11
-261.9314732422697
 21
-559.7741178564124
 31
0.0
  0
LINE
  5
1B2
330
1F
100
AcDbEntity
  8
D-0
  6
Continuous
 62
     7
370
     9
100
AcDbLine
 10
-261.9314732422697
 20
-559.7741178564124
 30
0.0
 11
-263.4317555298674
 21
-559.7741178564124
 31
0.0
  0
LINE
  5
1B3
330
1F
100
AcDbEntity
  8
D-0
  6
Continuous
 62
     7
370
     9
100
AcDbLine
 10
-426.5574135651457
 20
-349.8980108789496
 30
0.0
 11
-426.5574135651457
 21
-348.3977309755377
 31
0.0
  0
LINE
  5
1B4
330
1F
100
AcDbEntity
  8
D-0
  6
Continuous
 62
     7
370
     9
100
AcDbLine
 10
-426.5574135651457
 20
-348.3977309755377
 30
0.0
 11
-425.0571360459196
 21
-348.3977309755377
 31
0.0
  0
LINE
  5
1B5
330
1F
100
AcDbEntity
  8
D-0
  6
Continuous
 62
     7
370
     9
100
AcDbLine
 10
-425.0571360459196
 20
-348.3977309755377
 30
0.0
 11
-425.0571360459196
 21
-349.8980108789496
 31
0.0
  0
LINE
  5
1B6
330
1F
100
AcDbEntity
  8
D-0
  6
Continuous
 62
     7
370
     9
100
AcDbLine
 10
-425.0571360459196
 20
-349.8980108789496
 30
0.0
 11
-426.5574135651457
 21
-349.8980108789496
 31
0.0
  0
LINE
  5
1B7
330
1F
100
AcDbEntity
  8
D-0
  6
Continuous
 62
     7
370
     9
100
AcDbLine
 10
-405.3127064576017
 20
-365.696528344541
 30
0.0
 11
-405.3127064576017
 21
-364.1962484411292
 31
0.0
  0
LINE
  5
1B8
330
1F
100
AcDbEntity
  8
D-0
  6
Continuous
 62
     7
370
     9
100
AcDbLine
 10
-405.3127064576017
 20
-364.1962484411292
 30
0.0
 11
-403.8124241700041
 21
-364.1962484411292
 31
0.0
  0
LINE
  5
1B9
330
1F
100
AcDbEntity
  8
D-0
  6
Continuous
 62
     7
370
     9
100
AcDbLine
 10
-403.8124241700041
 20
-364.1962484411292
 30
0.0
 11
-403.8124241700041
 21
-365.696528344541
 31
0.0
  0
LINE
  5
1BA
330
1F
100
AcDbEntity
  8
D-0
  6
Continuous
 62
     7
370
     9
100
AcDbLine
 10
-403.8124241700041
 20
-365.696528344541
 30
0.0
 11
-405.3127064576017
 21
-365.696528344541
 31
0.0
  0
LINE
  5
1BB
330
1F
100
AcDbEntity
  8
D-0
  6
Continuous
 62
     7
370
     9
100
AcDbLine
 10
-381.4464726319181
 20
-406.7768339208655
 30
0.0
 11
-381.4464726319181
 21
-405.2765564016394
 31
0.0
  0
LINE
  5
1BC
330
1F
100
AcDbEntity
  8
D-0
  6
Continuous
 62
     7
370
     9
100
AcDbLine
 10
-381.4464726319181
 20
-405.2765564016394
 30
0.0
 11
-379.946686254965
 21
-405.2765564016394
 31
0.0
  0
LINE
  5
1BD
330
1F
100
AcDbEntity
  8
D-0
  6
Continuous
 62
     7
370
     9
100
AcDbLine
 10
-379.946686254965
 20
-405.2765564016394
 30
0.0
 11
-379.946686254965
 21
-406.7768339208655
 31
0.0
  0
LINE
  5
1BE
330
1F
100
AcDbEntity
  8
D-0
  6
Continuous
 62
     7
370
     9
100
AcDbLine
 10
-379.946686254965
 20
-406.7768339208655
 30
0.0
 11
-381.4464726319181
 21
-406.7768339208655
 31
0.0
  0
LINE
  5
1BF
330
1F
100
AcDbEntity
  8
D-0
  6
Continuous
 62
     7
370
     9
100
AcDbLine
 10
-335.6819977631437
 20
-353.8206378511481
 30
0.0
 11
-335.6819977631437
 21
-352.3203579477362
 31
0.0
  0
LINE
  5
1C0
330
1F
100
AcDbEntity
  8
D-0
  6
Continuous
 62
     7
370
     9
100
AcDbLine
 10
-335.6819977631437
 20
-352.3203579477362
 30
0.0
 11
-334.1822209229338
 21
-352.3203579477362
 31
0.0
  0
LINE
  5
1C1
330
1F
100
AcDbEntity
  8
D-0
  6
Continuous
 62
     7
370
     9
100
AcDbLine
 10
-334.1822209229338
 20
-352.3203579477362
 30
0.0
 11
-334.1822209229338
 21
-353.8206378511481
 31
0.0
  0
LINE
  5
1C2
330
1F
100
AcDbEntity
  8
D-0
  6
Continuous
 62
     7
370
     9
100
AcDbLine
 10
-334.1822209229338
 20
-353.8206378511481
 30
0.0
 11
-335.6819977631437
 21
-353.8206378511481
 31
0.0
  0
LINE
  5
1C3
330
1F
100
AcDbEntity
  8
D-0
  6
Continuous
 62
     7
370
     9
100
AcDbLine
 10
-288.1239285340178
 20
-348.4225050500922
 30
0.0
 11
-288.1239285340178
 21
-346.9222251466803
 31
0.0
  0
LINE
  5
1C4
330
1F
100
AcDbEntity
  8
D-0
  6
Continuous
 62
     7
370
     9
100
AcDbLine
 10
-288.1239285340178
 20
-346.9222251466803
 30
0.0
 11
-286.6241421570646
 21
-346.9222251466803
 31
0.0
  0
LINE
  5
1C5
330
1F
100
AcDbEntity
  8
D-0
  6
Continuous
 62
     7
370
     9
100
AcDbLine
 10
-286.6241421570646
 20
-346.9222251466803
 30
0.0
 11
-286.6241421570646
 21
-348.4225050500922
 31
0.0
  0
LINE
  5
1C6
330
1F
100
AcDbEntity
  8
D-0
  6
Continuous
 62
     7
370
     9
100
AcDbLine
 10
-286.6241421570646
 20
-348.4225050500922
 30
0.0
 11
-288.1239285340178
 21
-348.4225050500922
 31
0.0
  0
LINE
  5
1C7
330
1F
100
AcDbEntity
  8
D-0
  6
Continuous
 62
     7
370
     9
100
AcDbLine
 10
-307.7375569214689
 20
-369.9971965841345
 30
0.0
 11
-307.7375569214689
 21
-368.4969190649085
 31
0.0
  0
LINE
  5
1C8
330
1F
100
AcDbEntity
  8
D-0
  6
Continuous
 62
     7
370
     9
100
AcDbLine
 10
-307.7375569214689
 20
-368.4969190649085
 30
0.0
 11
-306.2372746338713
 21
-368.4969190649085
 31
0.0
  0
LINE
  5
1C9
330
1F
100
AcDbEntity
  8
D-0
  6
Continuous
 62
     7
370
     9
100
AcDbLine
 10
-306.2372746338713
 20
-368.4969190649085
 30
0.0
 11
-306.2372746338713
 21
-369.9971965841345
 31
0.0
  0
LINE
  5
1CA
330
1F
100
AcDbEntity
  8
D-0
  6
Continuous
 62
     7
370
     9
100
AcDbLine
 10
-306.2372746338713
 20
-369.9971965841345
 30
0.0
 11
-307.7375569214689
 21
-369.9971965841345
 31
0.0
  0
LINE
  5
1CB
330
1F
100
AcDbEntity
  8
D-0
  6
Continuous
 62
     7
370
     9
100
AcDbLine
 10
-283.3798184265959
 20
-406.1233142904334
 30
0.0
 11
-283.3798184265959
 21
-404.6230320028357
 31
0.0
  0
LINE
  5
1CC
330
1F
100
AcDbEntity
  8
D-0
  6
Continuous
 62
     7
370
     9
100
AcDbLine
 10
-283.3798184265959
 20
-404.6230320028357
 30
0.0
 11
-281.8795361389982
 21
-404.6230320028357
 31
0.0
  0
LINE
  5
1CD
330
1F
100
AcDbEntity
  8
D-0
  6
Continuous
 62
     7
370
     9
100
AcDbLine
 10
-281.8795361389982
 20
-404.6230320028357
 30
0.0
 11
-281.8795361389982
 21
-406.1233142904334
 31
0.0
  0
LINE
  5
1CE
330
1F
100
AcDbEntity
  8
D-0
  6
Continuous
 62
     7
370
     9
100
AcDbLine
 10
-281.8795361389982
 20
-406.1233142904334
 30
0.0
 11
-283.3798184265959
 21
-406.1233142904334
 31
0.0
  0
LINE
  5
1CF
330
1F
100
AcDbEntity
  8
D-0
  6
Continuous
 62
     7
370
     9
100
AcDbLine
 10
-279.4567074646818
 20
-444.6960500768714
 30
0.0
 11
-279.4567074646818
 21
-443.1957677892737
 31
0.0
  0
LINE
  5
1D0
330
1F
100
AcDbEntity
  8
D-0
  6
Continuous
 62
     7
370
     9
100
AcDbLine
 10
-279.4567074646818
 20
-443.1957677892737
 30
0.0
 11
-277.9569210877287
 21
-443.1957677892737
 31
0.0
  0
LINE
  5
1D1
330
1F
100
AcDbEntity
  8
D-0
  6
Continuous
 62
     7
370
     9
100
AcDbLine
 10
-277.9569210877287
 20
-443.1957677892737
 30
0.0
 11
-277.9569210877287
 21
-444.6960500768714
 31
0.0
  0
LINE
  5
1D2
330
1F
100
AcDbEntity
  8
D-0
  6
Continuous
 62
     7
370
     9
100
AcDbLine
 10
-277.9569210877287
 20
-444.6960500768714
 30
0.0
 11
-279.4567074646818
 21
-444.6960500768714
 31
0.0
  0
LINE
  5
1D3
330
1F
100
AcDbEntity
  8
D-0
  6
Continuous
 62
     7
370
     9
100
AcDbLine
 10
-355.1256813874113
 20
-368.3220175794654
 30
0.0
 11
-355.1256813874113
 21
-366.8217376760535
 31
0.0
  0
LINE
  5
1D4
330
1F
100
AcDbEntity
  8
D-0
  6
Continuous
 62
     7
370
     9
100
AcDbLine
 10
-355.1256813874113
 20
-366.8217376760535
 30
0.0
 11
-353.6253990998136
 21
-366.8217376760535
 31
0.0
  0
LINE
  5
1D5
330
1F
100
AcDbEntity
  8
D-0
  6
Continuous
 62
     7
370
     9
100
AcDbLine
 10
-353.6253990998136
 20
-366.8217376760535
 30
0.0
 11
-353.6253990998136
 21
-368.3220175794654
 31
0.0
  0
LINE
  5
1D6
330
1F
100
AcDbEntity
  8
D-0
  6
Continuous
 62
     7
370
     9
100
AcDbLine
 10
-353.6253990998136
 20
-368.3220175794654
 30
0.0
 11
-355.1256813874113
 21
-368.3220175794654
 31
0.0
  0
LINE
  5
1D7
330
1F
100
AcDbEntity
  8
D-0
  6
Continuous
 62
     7
370
     9
100
AcDbLine
 10
-433.4077658524382
 20
-495.7610372594885
 30
0.0
 11
-433.4077658524382
 21
-494.2607645086341
 31
0.0
  0
LINE
  5
1D8
330
1F
100
AcDbEntity
  8
D-0
  6
Continuous
 62
     7
370
     9
100
AcDbLine
 10
-433.4077658524382
 20
-494.2607645086341
 30
0.0
 11
-431.9074883332121
 21
-494.2607645086341
 31
0.0
  0
LINE
  5
1D9
330
1F
100
AcDbEntity
  8
D-0
  6
Continuous
 62
     7
370
     9
100
AcDbLine
 10
-431.9074883332121
 20
-494.2607645086341
 30
0.0
 11
-431.9074883332121
 21
-495.7610372594885
 31
0.0
  0
LINE
  5
1DA
330
1F
100
AcDbEntity
  8
D-0
  6
Continuous
 62
     7
370
     9
100
AcDbLine
 10
-431.9074883332121
 20
-495.7610372594885
 30
0.0
 11
-433.4077658524382
 21
-495.7610372594885
 31
0.0
  0
LINE
  5
1DB
330
1F
100
AcDbEntity
  8
D-0
  6
Continuous
 62
     7
370
     9
100
AcDbLine
 10
-584.1789116730558
 20
-484.8225835851721
 30
0.0
 11
-584.1789116730558
 21
-483.3223012975745
 31
0.0
  0
LINE
  5
1DC
330
1F
100
AcDbEntity
  8
D-0
  6
Continuous
 62
     7
370
     9
100
AcDbLine
 10
-584.1789116730558
 20
-483.3223012975745
 30
0.0
 11
-582.6786389222013
 21
-483.3223012975745
 31
0.0
  0
LINE
  5
1DD
330
1F
100
AcDbEntity
  8
D-0
  6
Continuous
 62
     7
370
     9
100
AcDbLine
 10
-582.6786389222013
 20
-483.3223012975745
 30
0.0
 11
-582.6786389222013
 21
-484.8225835851721
 31
0.0
  0
LINE
  5
1DE
330
1F
100
AcDbEntity
  8
D-0
  6
Continuous
 62
     7
370
     9
100
AcDbLine
 10
-582.6786389222013
 20
-484.8225835851721
 30
0.0
 11
-584.1789116730558
 21
-484.8225835851721
 31
0.0
  0
LINE
  5
1DF
330
1F
100
AcDbEntity
  8
D-0
  6
Continuous
 62
     7
370
     9
100
AcDbLine
 10
-524.9406685700285
 20
-589.475999265104
 30
0.0
 11
-524.9406685700285
 21
-587.9757169775063
 31
0.0
  0
LINE
  5
1E0
330
1F
100
AcDbEntity
  8
D-0
  6
Continuous
 62
     7
370
     9
100
AcDbLine
 10
-524.9406685700285
 20
-587.9757169775063
 30
0.0
 11
-523.440886961447
 21
-587.9757169775063
 31
0.0
  0
LINE
  5
1E1
330
1F
100
AcDbEntity
  8
D-0
  6
Continuous
 62
     7
370
     9
100
AcDbLine
 10
-523.440886961447
 20
-587.9757169775063
 30
0.0
 11
-523.440886961447
 21
-589.475999265104
 31
0.0
  0
LINE
  5
1E2
330
1F
100
AcDbEntity
  8
D-0
  6
Continuous
 62
     7
370
     9
100
AcDbLine
 10
-523.440886961447
 20
-589.475999265104
 30
0.0
 11
-524.9406685700285
 21
-589.475999265104
 31
0.0
  0
LINE
  5
1E3
330
1F
100
AcDbEntity
  8
D-0
  6
Continuous
 62
     7
370
     9
100
AcDbLine
 10
-538.7632574906218
 20
-648.7137464574868
 30
0.0
 11
-538.7632574906218
 21
-647.2134641698891
 31
0.0
  0
LINE
  5
1E4
330
1F
100
AcDbEntity
  8
D-0
  6
Continuous
 62
     7
370
     9
100
AcDbLine
 10
-538.7632574906218
 20
-647.2134641698891
 30
0.0
 11
-537.2629752030241
 21
-647.2134641698891
 31
0.0
  0
LINE
  5
1E5
330
1F
100
AcDbEntity
  8
D-0
  6
Continuous
 62
     7
370
     9
100
AcDbLine
 10
-537.2629752030241
 20
-647.2134641698891
 30
0.0
 11
-537.2629752030241
 21
-648.7137464574868
 31
0.0
  0
LINE
  5
1E6
330
1F
100
AcDbEntity
  8
D-0
  6
Continuous
 62
     7
370
     9
100
AcDbLine
 10
-537.2629752030241
 20
-648.7137464574868
 30
0.0
 11
-538.7632574906218
 21
-648.7137464574868
 31
0.0
  0
LINE
  5
1E7
330
1F
100
AcDbEntity
  8
D-0
  6
Continuous
 62
     7
370
     9
100
AcDbLine
 10
-569.369350897299
 20
-659.5739416173989
 30
0.0
 11
-569.369350897299
 21
-658.0736593298012
 31
0.0
  0
LINE
  5
1E8
330
1F
100
AcDbEntity
  8
D-0
  6
Continuous
 62
     7
370
     9
100
AcDbLine
 10
-569.369350897299
 20
-658.0736593298012
 30
0.0
 11
-567.8690781464445
 21
-658.0736593298012
 31
0.0
  0
LINE
  5
1E9
330
1F
100
AcDbEntity
  8
D-0
  6
Continuous
 62
     7
370
     9
100
AcDbLine
 10
-567.8690781464445
 20
-658.0736593298012
 30
0.0
 11
-567.8690781464445
 21
-659.5739416173989
 31
0.0
  0
LINE
  5
1EA
330
1F
100
AcDbEntity
  8
D-0
  6
Continuous
 62
     7
370
     9
100
AcDbLine
 10
-567.8690781464445
 20
-659.5739416173989
 30
0.0
 11
-569.369350897299
 21
-659.5739416173989
 31
0.0
  0
LINE
  5
1EB
330
1F
100
AcDbEntity
  8
D-0
  6
Continuous
 62
     7
370
     9
100
AcDbLine
 10
-592.2228493561613
 20
-593.4253744176918
 30
0.0
 11
-592.2228493561613
 21
-591.9250921300942
 31
0.0
  0
LINE
  5
1EC
330
1F
100
AcDbEntity
  8
D-0
  6
Continuous
 62
     7
370
     9
100
AcDbLine
 10
-592.2228493561613
 20
-591.9250921300942
 30
0.0
 11
-590.7230629792082
 21
-591.9250921300942
 31
0.0
  0
LINE
  5
1ED
330
1F
100
AcDbEntity
  8
D-0
  6
Continuous
 62
     7
370
     9
100
AcDbLine
 10
-590.7230629792082
 20
-591.9250921300942
 30
0.0
 11
-590.7230629792082
 21
-593.4253744176918
 31
0.0
  0
LINE
  5
1EE
330
1F
100
AcDbEntity
  8
D-0
  6
Continuous
 62
     7
370
     9
100
AcDbLine
 10
-590.7230629792082
 20
-593.4253744176918
 30
0.0
 11
-592.2228493561613
 21
-593.4253744176918
 31
0.0
  0
LINE
  5
1EF
330
1F
100
AcDbEntity
  8
D-0
  6
Continuous
 62
     7
370
     9
100
AcDbLine
 10
-566.4074387421476
 20
-571.7050222448403
 30
0.0
 11
-566.4074387421476
 21
-570.2047399572426
 31
0.0
  0
LINE
  5
1F0
330
1F
100
AcDbEntity
  8
D-0
  6
Continuous
 62
     7
370
     9
100
AcDbLine
 10
-566.4074387421476
 20
-570.2047399572426
 30
0.0
 11
-564.9071659912931
 21
-570.2047399572426
 31
0.0
  0
LINE
  5
1F1
330
1F
100
AcDbEntity
  8
D-0
  6
Continuous
 62
     7
370
     9
100
AcDbLine
 10
-564.9071659912931
 20
-570.2047399572426
 30
0.0
 11
-564.9071659912931
 21
-571.7050222448403
 31
0.0
  0
LINE
  5
1F2
330
1F
100
AcDbEntity
  8
D-0
  6
Continuous
 62
     7
370
     9
100
AcDbLine
 10
-564.9071659912931
 20
-571.7050222448403
 30
0.0
 11
-566.4074387421476
 21
-571.7050222448403
 31
0.0
  0
LINE
  5
1F3
330
1F
100
AcDbEntity
  8
D-0
  6
Continuous
 62
     7
370
     9
100
AcDbLine
 10
-503.2203092446196
 20
-624.1979459814125
 30
0.0
 11
-503.2203092446196
 21
-622.6976636938149
 31
0.0
  0
LINE
  5
1F4
330
1F
100
AcDbEntity
  8
D-0
  6
Continuous
 62
     7
370
     9
100
AcDbLine
 10
-503.2203092446196
 20
-622.6976636938149
 30
0.0
 11
-501.7205252518522
 21
-622.6976636938149
 31
0.0
  0
LINE
  5
1F5
330
1F
100
AcDbEntity
  8
D-0
  6
Continuous
 62
     7
370
     9
100
AcDbLine
 10
-501.7205252518522
 20
-622.6976636938149
 30
0.0
 11
-501.7205252518522
 21
-624.1979459814125
 31
0.0
  0
LINE
  5
1F6
330
1F
100
AcDbEntity
  8
D-0
  6
Continuous
 62
     7
370
     9
100
AcDbLine
 10
-501.7205252518522
 20
-624.1979459814125
 30
0.0
 11
-503.2203092446196
 21
-624.1979459814125
 31
0.0
  0
LINE
  5
1F7
330
1F
100
AcDbEntity
  8
D-0
  6
Continuous
 62
     7
370
     9
100
AcDbLine
 10
-580.229536520468
 20
-762.0769933752114
 30
0.0
 11
-580.229536520468
 21
-760.5767110876137
 31
0.0
  0
LINE
  5
1F8
330
1F
100
AcDbEntity
  8
D-0
  6
Continuous
 62
     7
370
     9
100
AcDbLine
 10
-580.229536520468
 20
-760.5767110876137
 30
0.0
 11
-578.7297501435148
 21
-760.5767110876137
 31
0.0
  0
LINE
  5
1F9
330
1F
100
AcDbEntity
  8
D-0
  6
Continuous
 62
     7
370
     9
100
AcDbLine
 10
-578.7297501435148
 20
-760.5767110876137
 30
0.0
 11
-578.7297501435148
 21
-762.0769933752114
 31
0.0
  0
LINE
  5
1FA
330
1F
100
AcDbEntity
  8
D-0
  6
Continuous
 62
     7
370
     9
100
AcDbLine
 10
-578.7297501435148
 20
-762.0769933752114
 30
0.0
 11
-580.229536520468
 21
-762.0769933752114
 31
0.0
  0
LINE
  5
1FB
330
1F
100
AcDbEntity
  8
D-0
  6
Continuous
 62
     7
370
     9
100
AcDbLine
 10
-509.839276300894
 20
-765.7890371374184
 30
0.0
 11
-509.839276300894
 21
-764.2887548498207
 31
0.0
  0
LINE
  5
1FC
330
1F
100
AcDbEntity
  8
D-0
  6
Continuous
 62
     7
370
     9
100
AcDbLine
 10
-509.839276300894
 20
-764.2887548498207
 30
0.0
 11
-508.3394923081266
 21
-764.2887548498207
 31
0.0
  0
LINE
  5
1FD
330
1F
100
AcDbEntity
  8
D-0
  6
Continuous
 62
     7
370
     9
100
AcDbLine
 10
-508.3394923081266
 20
-764.2887548498207
 30
0.0
 11
-508.3394923081266
 21
-765.7890371374184
 31
0.0
  0
LINE
  5
1FE
330
1F
100
AcDbEntity
  8
D-0
  6
Continuous
 62
     7
370
     9
100
AcDbLine
 10
-508.3394923081266
 20
-765.7890371374184
 30
0.0
 11
-509.839276300894
 21
-765.7890371374184
 31
0.0
  0
LINE
  5
1FF
330
1F
100
AcDbEntity
  8
D-0
  6
Continuous
 62
     7
370
     9
100
AcDbLine
 10
-485.448834525572
 20
-791.6956380895668
 30
0.0
 11
-485.448834525572
 21
-790.1953558019692
 31
0.0
  0
LINE
  5
200
330
1F
100
AcDbEntity
  8
D-0
  6
Continuous
 62
     7
370
     9
100
AcDbLine
 10
-485.448834525572
 20
-790.1953558019692
 30
0.0
 11
-483.9490503837931
 21
-790.1953558019692
 31
0.0
  0
LINE
  5
201
330
1F
100
AcDbEntity
  8
D-0
  6
Continuous
 62
     7
370
     9
100
AcDbLine
 10
-483.9490503837931
 20
-790.1953558019692
 30
0.0
 11
-483.9490503837931
 21
-791.6956380895668
 31
0.0
  0
LINE
  5
202
330
1F
100
AcDbEntity
  8
D-0
  6
Continuous
 62
     7
370
     9
100
AcDbLine
 10
-483.9490503837931
 20
-791.6956380895668
 30
0.0
 11
-485.448834525572
 21
-791.6956380895668
 31
0.0
  0
LINE
  5
203
330
1F
100
AcDbEntity
  8
D-0
  6
Continuous
 62
     7
370
     9
100
AcDbLine
 10
-479.1702540984022
 20
-829.9076513341957
 30
0.0
 11
-479.1702540984022
 21
-828.4073690465981
 31
0.0
  0
LINE
  5
204
330
1F
100
AcDbEntity
  8
D-0
  6
Continuous
 62
     7
370
     9
100
AcDbLine
 10
-479.1702540984022
 20
-828.4073690465981
 30
0.0
 11
-477.6699747910368
 21
-828.4073690465981
 31
0.0
  0
LINE
  5
205
330
1F
100
AcDbEntity
  8
D-0
  6
Continuous
 62
     7
370
     9
100
AcDbLine
 10
-477.6699747910368
 20
-828.4073690465981
 30
0.0
 11
-477.6699747910368
 21
-829.9076513341957
 31
0.0
  0
LINE
  5
206
330
1F
100
AcDbEntity
  8
D-0
  6
Continuous
 62
     7
370
     9
100
AcDbLine
 10
-477.6699747910368
 20
-829.9076513341957
 30
0.0
 11
-479.1702540984022
 21
-829.9076513341957
 31
0.0
  0
LINE
  5
207
330
1F
100
AcDbEntity
  8
D-0
  6
Continuous
 62
     7
370
     9
100
AcDbLine
 10
-553.3989109864103
 20
-835.3662542394692
 30
0.0
 11
-553.3989109864103
 21
-833.8659719518715
 31
0.0
  0
LINE
  5
208
330
1F
100
AcDbEntity
  8
D-0
  6
Continuous
 62
     7
370
     9
100
AcDbLine
 10
-553.3989109864103
 20
-833.8659719518715
 30
0.0
 11
-551.8986286988127
 21
-833.8659719518715
 31
0.0
  0
LINE
  5
209
330
1F
100
AcDbEntity
  8
D-0
  6
Continuous
 62
     7
370
     9
100
AcDbLine
 10
-551.8986286988127
 20
-833.8659719518715
 30
0.0
 11
-551.8986286988127
 21
-835.3662542394692
 31
0.0
  0
LINE
  5
20A
330
1F
100
AcDbEntity
  8
D-0
  6
Continuous
 62
     7
370
     9
100
AcDbLine
 10
-551.8986286988127
 20
-835.3662542394692
 30
0.0
 11
-553.3989109864103
 21
-835.3662542394692
 31
0.0
  0
LINE
  5
20B
330
1F
100
AcDbEntity
  8
D-0
  6
Continuous
 62
     7
370
     9
100
AcDbLine
 10
-588.1278004517424
 20
-826.0697607091957
 30
0.0
 11
-588.1278004517424
 21
-824.5694784215981
 31
0.0
  0
LINE
  5
20C
330
1F
100
AcDbEntity
  8
D-0
  6
Continuous
 62
     7
370
     9
100
AcDbLine
 10
-588.1278004517424
 20
-824.5694784215981
 30
0.0
 11
-586.6275181641447
 21
-824.5694784215981
 31
0.0
  0
LINE
  5
20D
330
1F
100
AcDbEntity
  8
D-0
  6
Continuous
 62
     7
370
     9
100
AcDbLine
 10
-586.6275181641447
 20
-824.5694784215981
 30
0.0
 11
-586.6275181641447
 21
-826.0697607091957
 31
0.0
  0
LINE
  5
20E
330
1F
100
AcDbEntity
  8
D-0
  6
Continuous
 62
     7
370
     9
100
AcDbLine
 10
-586.6275181641447
 20
-826.0697607091957
 30
0.0
 11
-588.1278004517424
 21
-826.0697607091957
 31
0.0
  0
LINE
  5
20F
330
1F
100
AcDbEntity
  8
D-0
  6
Continuous
 62
     7
370
     9
100
AcDbLine
 10
-590.3390755524504
 20
-785.7717947057778
 30
0.0
 11
-590.3390755524504
 21
-784.2715124181801
 31
0.0
  0
LINE
  5
210
330
1F
100
AcDbEntity
  8
D-0
  6
Continuous
 62
     7
370
     9
100
AcDbLine
 10
-590.3390755524504
 20
-784.2715124181801
 30
0.0
 11
-588.8392987122404
 21
-784.2715124181801
 31
0.0
  0
LINE
  5
211
330
1F
100
AcDbEntity
  8
D-0
  6
Continuous
 62
     7
370
     9
100
AcDbLine
 10
-588.8392987122404
 20
-784.2715124181801
 30
0.0
 11
-588.8392987122404
 21
-785.7717947057778
 31
0.0
  0
LINE
  5
212
330
1F
100
AcDbEntity
  8
D-0
  6
Continuous
 62
     7
370
     9
100
AcDbLine
 10
-588.8392987122404
 20
-785.7717947057778
 30
0.0
 11
-590.3390755524504
 21
-785.7717947057778
 31
0.0
  0
LINE
  5
213
330
1F
100
AcDbEntity
  8
D-0
  6
Continuous
 62
     7
370
     9
100
AcDbLine
 10
-532.839433180319
 20
-805.5177358678872
 30
0.0
 11
-532.839433180319
 21
-804.0174535802895
 31
0.0
  0
LINE
  5
214
330
1F
100
AcDbEntity
  8
D-0
  6
Continuous
 62
     7
370
     9
100
AcDbLine
 10
-532.839433180319
 20
-804.0174535802895
 30
0.0
 11
-531.3391508927214
 21
-804.0174535802895
 31
0.0
  0
LINE
  5
215
330
1F
100
AcDbEntity
  8
D-0
  6
Continuous
 62
     7
370
     9
100
AcDbLine
 10
-531.3391508927214
 20
-804.0174535802895
 30
0.0
 11
-531.3391508927214
 21
-805.5177358678872
 31
0.0
  0
LINE
  5
216
330
1F
100
AcDbEntity
  8
D-0
  6
Continuous
 62
     7
370
     9
100
AcDbLine
 10
-531.3391508927214
 20
-805.5177358678872
 30
0.0
 11
-532.839433180319
 21
-805.5177358678872
 31
0.0
  0
LINE
  5
217
330
1F
100
AcDbEntity
  8
D-0
  6
Continuous
 62
     7
370
     9
100
AcDbLine
 10
-544.6870818009245
 20
-771.9496969274575
 30
0.0
 11
-544.6870818009245
 21
-770.4494146398598
 31
0.0
  0
LINE
  5
218
330
1F
100
AcDbEntity
  8
D-0
  6
Continuous
 62
     7
370
     9
100
AcDbLine
 10
-544.6870818009245
 20
-770.4494146398598
 30
0.0
 11
-543.1867995133268
 21
-770.4494146398598
 31
0.0
  0
LINE
  5
219
330
1F
100
AcDbEntity
  8
D-0
  6
Continuous
 62
     7
370
     9
100
AcDbLine
 10
-543.1867995133268
 20
-770.4494146398598
 30
0.0
 11
-543.1867995133268
 21
-771.9496969274575
 31
0.0
  0
LINE
  5
21A
330
1F
100
AcDbEntity
  8
D-0
  6
Continuous
 62
     7
370
     9
100
AcDbLine
 10
-543.1867995133268
 20
-771.9496969274575
 30
0.0
 11
-544.6870818009245
 21
-771.9496969274575
 31
0.0
  0
LINE
  5
21B
330
1F
100
AcDbEntity
  8
D-0
  6
Continuous
 62
     7
370
     9
100
AcDbLine
 10
-489.3982162346708
 20
-657.7659658483559
 30
0.0
 11
-489.3982162346708
 21
-656.2656835607582
 31
0.0
  0
LINE
  5
21C
330
1F
100
AcDbEntity
  8
D-0
  6
Continuous
 62
     7
370
     9
100
AcDbLine
 10
-489.3982162346708
 20
-656.2656835607582
 30
0.0
 11
-487.8984322419035
 21
-656.2656835607582
 31
0.0
  0
LINE
  5
21D
330
1F
100
AcDbEntity
  8
D-0
  6
Continuous
 62
     7
370
     9
100
AcDbLine
 10
-487.8984322419035
 20
-656.2656835607582
 30
0.0
 11
-487.8984322419035
 21
-657.7659658483559
 31
0.0
  0
LINE
  5
21E
330
1F
100
AcDbEntity
  8
D-0
  6
Continuous
 62
     7
370
     9
100
AcDbLine
 10
-487.8984322419035
 20
-657.7659658483559
 30
0.0
 11
-489.3982162346708
 21
-657.7659658483559
 31
0.0
  0
LINE
  5
21F
330
1F
100
AcDbEntity
  8
D-0
  6
Continuous
 62
     7
370
     9
100
AcDbLine
 10
-477.5510620345938
 20
-557.8824285558753
 30
0.0
 11
-477.5510620345938
 21
-556.3821462682777
 31
0.0
  0
LINE
  5
220
330
1F
100
AcDbEntity
  8
D-0
  6
Continuous
 62
     7
370
     9
100
AcDbLine
 10
-477.5510620345938
 20
-556.3821462682777
 30
0.0
 11
-476.0507824292051
 21
-556.3821462682777
 31
0.0
  0
LINE
  5
221
330
1F
100
AcDbEntity
  8
D-0
  6
Continuous
 62
     7
370
     9
100
AcDbLine
 10
-476.0507824292051
 20
-556.3821462682777
 30
0.0
 11
-476.0507824292051
 21
-557.8824285558753
 31
0.0
  0
LINE
  5
222
330
1F
100
AcDbEntity
  8
D-0
  6
Continuous
 62
     7
370
     9
100
AcDbLine
 10
-476.0507824292051
 20
-557.8824285558753
 30
0.0
 11
-477.5510620345938
 21
-557.8824285558753
 31
0.0
  0
LINE
  5
223
330
1F
100
AcDbEntity
  8
D-0
  6
Continuous
 62
     7
370
     9
100
AcDbLine
 10
-381.4400257935392
 20
-569.1067747167641
 30
0.0
 11
-381.4400257935392
 21
-567.6064924291665
 31
0.0
  0
LINE
  5
224
330
1F
100
AcDbEntity
  8
D-0
  6
Continuous
 62
     7
370
     9
100
AcDbLine
 10
-381.4400257935392
 20
-567.6064924291665
 30
0.0
 11
-379.9402489533293
 21
-567.6064924291665
 31
0.0
  0
LINE
  5
225
330
1F
100
AcDbEntity
  8
D-0
  6
Continuous
 62
     7
370
     9
100
AcDbLine
 10
-379.9402489533293
 20
-567.6064924291665
 30
0.0
 11
-379.9402489533293
 21
-569.1067747167641
 31
0.0
  0
LINE
  5
226
330
1F
100
AcDbEntity
  8
D-0
  6
Continuous
 62
     7
370
     9
100
AcDbLine
 10
-379.9402489533293
 20
-569.1067747167641
 30
0.0
 11
-381.4400257935392
 21
-569.1067747167641
 31
0.0
  0
LINE
  5
227
330
1F
100
AcDbEntity
  8
D-0
  6
Continuous
 62
     7
370
     9
100
AcDbLine
 10
-433.9745821823942
 20
-560.4816488317542
 30
0.0
 11
-433.9745821823942
 21
-558.9813665441566
 31
0.0
  0
LINE
  5
228
330
1F
100
AcDbEntity
  8
D-0
  6
Continuous
 62
     7
370
     9
100
AcDbLine
 10
-433.9745821823942
 20
-558.9813665441566
 30
0.0
 11
-432.4748005738127
 21
-558.9813665441566
 31
0.0
  0
LINE
  5
229
330
1F
100
AcDbEntity
  8
D-0
  6
Continuous
 62
     7
370
     9
100
AcDbLine
 10
-432.4748005738127
 20
-558.9813665441566
 30
0.0
 11
-432.4748005738127
 21
-560.4816488317542
 31
0.0
  0
LINE
  5
22A
330
1F
100
AcDbEntity
  8
D-0
  6
Continuous
 62
     7
370
     9
100
AcDbLine
 10
-432.4748005738127
 20
-560.4816488317542
 30
0.0
 11
-433.9745821823942
 21
-560.4816488317542
 31
0.0
  0
LINE
  5
22B
330
1F
100
AcDbEntity
  8
D-0
  6
Continuous
 62
     7
370
     9
100
AcDbLine
 10
-570.3563275208342
 20
-621.0695509008461
 30
0.0
 11
-570.3563275208342
 21
-619.5692876867348
 31
0.0
  0
LINE
  5
22C
330
1F
100
AcDbEntity
  8
D-0
  6
Continuous
 62
     7
370
     9
100
AcDbLine
 10
-570.3563275208342
 20
-619.5692876867348
 30
0.0
 11
-568.856541143881
 21
-619.5692876867348
 31
0.0
  0
LINE
  5
22D
330
1F
100
AcDbEntity
  8
D-0
  6
Continuous
 62
     7
370
     9
100
AcDbLine
 10
-568.856541143881
 20
-619.5692876867348
 30
0.0
 11
-568.856541143881
 21
-621.0695509008461
 31
0.0
  0
LINE
  5
22E
330
1F
100
AcDbEntity
  8
D-0
  6
Continuous
 62
     7
370
     9
100
AcDbLine
 10
-568.856541143881
 20
-621.0695509008461
 30
0.0
 11
-570.3563275208342
 21
-621.0695509008461
 31
0.0
  0
LINE
  5
22F
330
1F
100
AcDbEntity
  8
D-0
  6
Continuous
 62
     7
370
     9
100
AcDbLine
 10
-539.2359318604338
 20
-479.2985967687659
 30
0.0
 11
-539.2359318604338
 21
-477.7983240179114
 31
0.0
  0
LINE
  5
230
330
1F
100
AcDbEntity
  8
D-0
  6
Continuous
 62
     7
370
     9
100
AcDbLine
 10
-539.2359318604338
 20
-477.7983240179114
 30
0.0
 11
-537.7356543412077
 21
-477.7983240179114
 31
0.0
  0
LINE
  5
231
330
1F
100
AcDbEntity
  8
D-0
  6
Continuous
 62
     7
370
     9
100
AcDbLine
 10
-537.7356543412077
 20
-477.7983240179114
 30
0.0
 11
-537.7356543412077
 21
-479.2985967687659
 31
0.0
  0
LINE
  5
232
330
1F
100
AcDbEntity
  8
D-0
  6
Continuous
 62
     7
370
     9
100
AcDbLine
 10
-537.7356543412077
 20
-479.2985967687659
 30
0.0
 11
-539.2359318604338
 21
-479.2985967687659
 31
0.0
  0
LINE
  5
233
330
1F
100
AcDbEntity
  8
D-0
  6
Continuous
 62
     7
370
     9
100
AcDbLine
 10
-483.4748867919313
 20
-590.6299451879555
 30
0.0
 11
-483.4748867919313
 21
-589.1296629003579
 31
0.0
  0
LINE
  5
234
330
1F
100
AcDbEntity
  8
D-0
  6
Continuous
 62
     7
370
     9
100
AcDbLine
 10
-483.4748867919313
 20
-589.1296629003579
 30
0.0
 11
-481.9746073728072
 21
-589.1296629003579
 31
0.0
  0
LINE
  5
235
330
1F
100
AcDbEntity
  8
D-0
  6
Continuous
 62
     7
370
     9
100
AcDbLine
 10
-481.9746073728072
 20
-589.1296629003579
 30
0.0
 11
-481.9746073728072
 21
-590.6299451879555
 31
0.0
  0
LINE
  5
236
330
1F
100
AcDbEntity
  8
D-0
  6
Continuous
 62
     7
370
     9
100
AcDbLine
 10
-481.9746073728072
 20
-590.6299451879555
 30
0.0
 11
-483.4748867919313
 21
-590.6299451879555
 31
0.0
  0
LINE
  5
237
330
1F
100
AcDbEntity
  8
D-0
  6
Continuous
 62
     7
370
     9
100
AcDbLine
 10
-542.7121415009367
 20
-613.1712965063149
 30
0.0
 11
-542.7121415009367
 21
-611.6710142187172
 31
0.0
  0
LINE
  5
238
330
1F
100
AcDbEntity
  8
D-0
  6
Continuous
 62
     7
370
     9
100
AcDbLine
 10
-542.7121415009367
 20
-611.6710142187172
 30
0.0
 11
-541.2123598923552
 21
-611.6710142187172
 31
0.0
  0
LINE
  5
239
330
1F
100
AcDbEntity
  8
D-0
  6
Continuous
 62
     7
370
     9
100
AcDbLine
 10
-541.2123598923552
 20
-611.6710142187172
 30
0.0
 11
-541.2123598923552
 21
-613.1712965063149
 31
0.0
  0
LINE
  5
23A
330
1F
100
AcDbEntity
  8
D-0
  6
Continuous
 62
     7
370
     9
100
AcDbLine
 10
-541.2123598923552
 20
-613.1712965063149
 30
0.0
 11
-542.7121415009367
 21
-613.1712965063149
 31
0.0
  0
LINE
  5
23B
330
1F
100
AcDbEntity
  8
D-0
  6
Continuous
 62
     7
370
     9
100
AcDbLine
 10
-530.8644928803312
 20
-686.2311224035317
 30
0.0
 11
-530.8644928803312
 21
-684.730840115934
 31
0.0
  0
LINE
  5
23C
330
1F
100
AcDbEntity
  8
D-0
  6
Continuous
 62
     7
370
     9
100
AcDbLine
 10
-530.8644928803312
 20
-684.730840115934
 30
0.0
 11
-529.3647112717497
 21
-684.730840115934
 31
0.0
  0
LINE
  5
23D
330
1F
100
AcDbEntity
  8
D-0
  6
Continuous
 62
     7
370
     9
100
AcDbLine
 10
-529.3647112717497
 20
-684.730840115934
 30
0.0
 11
-529.3647112717497
 21
-686.2311224035317
 31
0.0
  0
LINE
  5
23E
330
1F
100
AcDbEntity
  8
D-0
  6
Continuous
 62
     7
370
     9
100
AcDbLine
 10
-529.3647112717497
 20
-686.2311224035317
 30
0.0
 11
-530.8644928803312
 21
-686.2311224035317
 31
0.0
  0
LINE
  5
23F
330
1F
100
AcDbEntity
  8
D-0
  6
Continuous
 62
     7
370
     9
100
AcDbLine
 10
-579.2420639862883
 20
-685.243649869352
 30
0.0
 11
-579.2420639862883
 21
-683.7433675817543
 31
0.0
  0
LINE
  5
240
330
1F
100
AcDbEntity
  8
D-0
  6
Continuous
 62
     7
370
     9
100
AcDbLine
 10
-579.2420639862883
 20
-683.7433675817543
 30
0.0
 11
-577.7417816986906
 21
-683.7433675817543
 31
0.0
  0
LINE
  5
241
330
1F
100
AcDbEntity
  8
D-0
  6
Continuous
 62
     7
370
     9
100
AcDbLine
 10
-577.7417816986906
 20
-683.7433675817543
 30
0.0
 11
-577.7417816986906
 21
-685.243649869352
 31
0.0
  0
LINE
  5
242
330
1F
100
AcDbEntity
  8
D-0
  6
Continuous
 62
     7
370
     9
100
AcDbLine
 10
-577.7417816986906
 20
-685.243649869352
 30
0.0
 11
-579.2420639862883
 21
-685.243649869352
 31
0.0
  0
LINE
  5
243
330
1F
100
AcDbEntity
  8
D-0
  6
Continuous
 62
     7
370
     9
100
AcDbLine
 10
-566.2890210022795
 20
-804.3494085363442
 30
0.0
 11
-566.2890210022795
 21
-802.8491262487465
 31
0.0
  0
LINE
  5
244
330
1F
100
AcDbEntity
  8
D-0
  6
Continuous
 62
     7
370
     9
100
AcDbLine
 10
-566.2890210022795
 20
-802.8491262487465
 30
0.0
 11
-564.7892441620695
 21
-802.8491262487465
 31
0.0
  0
LINE
  5
245
330
1F
100
AcDbEntity
  8
D-0
  6
Continuous
 62
     7
370
     9
100
AcDbLine
 10
-564.7892441620695
 20
-802.8491262487465
 30
0.0
 11
-564.7892441620695
 21
-804.3494085363442
 31
0.0
  0
LINE
  5
246
330
1F
100
AcDbEntity
  8
D-0
  6
Continuous
 62
     7
370
     9
100
AcDbLine
 10
-564.7892441620695
 20
-804.3494085363442
 30
0.0
 11
-566.2890210022795
 21
-804.3494085363442
 31
0.0
  0
LINE
  5
247
330
1F
100
AcDbEntity
  8
D-0
  6
Continuous
 62
     7
370
     9
100
AcDbLine
 10
-515.7631006111967
 20
-833.85704556027
 30
0.0
 11
-515.7631006111967
 21
-832.3567632726723
 31
0.0
  0
LINE
  5
248
330
1F
100
AcDbEntity
  8
D-0
  6
Continuous
 62
     7
370
     9
100
AcDbLine
 10
-515.7631006111967
 20
-832.3567632726723
 30
0.0
 11
-514.2633166184294
 21
-832.3567632726723
 31
0.0
  0
LINE
  5
249
330
1F
100
AcDbEntity
  8
D-0
  6
Continuous
 62
     7
370
     9
100
AcDbLine
 10
-514.2633166184294
 20
-832.3567632726723
 30
0.0
 11
-514.2633166184294
 21
-833.85704556027
 31
0.0
  0
LINE
  5
24A
330
1F
100
AcDbEntity
  8
D-0
  6
Continuous
 62
     7
370
     9
100
AcDbLine
 10
-514.2633166184294
 20
-833.85704556027
 30
0.0
 11
-515.7631006111967
 21
-833.85704556027
 31
0.0
  0
LINE
  5
24B
330
1F
100
AcDbEntity
  8
D-0
  6
Continuous
 62
     7
370
     9
100
AcDbLine
 10
-479.5255052318441
 20
-758.1275991491372
 30
0.0
 11
-479.5255052318441
 21
-756.6273550085122
 31
0.0
  0
LINE
  5
24C
330
1F
100
AcDbEntity
  8
D-0
  6
Continuous
 62
     7
370
     9
100
AcDbLine
 10
-479.5255052318441
 20
-756.6273550085122
 30
0.0
 11
-478.0252256264555
 21
-756.6273550085122
 31
0.0
  0
LINE
  5
24D
330
1F
100
AcDbEntity
  8
D-0
  6
Continuous
 62
     7
370
     9
100
AcDbLine
 10
-478.0252256264555
 20
-756.6273550085122
 30
0.0
 11
-478.0252256264555
 21
-758.1275991491372
 31
0.0
  0
LINE
  5
24E
330
1F
100
AcDbEntity
  8
D-0
  6
Continuous
 62
     7
370
     9
100
AcDbLine
 10
-478.0252256264555
 20
-758.1275991491372
 30
0.0
 11
-479.5255052318441
 21
-758.1275991491372
 31
0.0
  0
LINE
  5
24F
330
1F
100
AcDbEntity
  8
D-0
  6
Continuous
 62
     7
370
     9
100
AcDbLine
 10
-596.5582051148283
 20
-640.0643400243813
 30
0.0
 11
-596.5582051148283
 21
-638.5640577367836
 31
0.0
  0
LINE
  5
250
330
1F
100
AcDbEntity
  8
D-0
  6
Continuous
 62
     7
370
     9
100
AcDbLine
 10
-596.5582051148283
 20
-638.5640577367836
 30
0.0
 11
-595.0579228272306
 21
-638.5640577367836
 31
0.0
  0
LINE
  5
251
330
1F
100
AcDbEntity
  8
D-0
  6
Continuous
 62
     7
370
     9
100
AcDbLine
 10
-595.0579228272306
 20
-638.5640577367836
 30
0.0
 11
-595.0579228272306
 21
-640.0643400243813
 31
0.0
  0
LINE
  5
252
330
1F
100
AcDbEntity
  8
D-0
  6
Continuous
 62
     7
370
     9
100
AcDbLine
 10
-595.0579228272306
 20
-640.0643400243813
 30
0.0
 11
-596.5582051148283
 21
-640.0643400243813
 31
0.0
  0
LINE
  5
253
330
1F
100
AcDbEntity
  8
D-0
  6
Continuous
 62
     7
370
     9
100
AcDbLine
 10
-479.6364902725088
 20
-683.7983755163247
 30
0.0
 11
-479.6364902725088
 21
-682.298093228727
 31
0.0
  0
LINE
  5
254
330
1F
100
AcDbEntity
  8
D-0
  6
Continuous
 62
     7
370
     9
100
AcDbLine
 10
-479.6364902725088
 20
-682.298093228727
 30
0.0
 11
-478.1362106671202
 21
-682.298093228727
 31
0.0
  0
LINE
  5
255
330
1F
100
AcDbEntity
  8
D-0
  6
Continuous
 62
     7
370
     9
100
AcDbLine
 10
-478.1362106671202
 20
-682.298093228727
 30
0.0
 11
-478.1362106671202
 21
-683.7983755163247
 31
0.0
  0
LINE
  5
256
330
1F
100
AcDbEntity
  8
D-0
  6
Continuous
 62
     7
370
     9
100
AcDbLine
 10
-478.1362106671202
 20
-683.7983755163247
 30
0.0
 11
-479.6364902725088
 21
-683.7983755163247
 31
0.0
  0
LINE
  5
257
330
1F
100
AcDbEntity
  8
D-0
  6
Continuous
 62
     7
370
     9
100
AcDbLine
 10
-504.3668236603605
 20
-807.1443609289223
 30
0.0
 11
-504.3668236603605
 21
-805.6440786413247
 31
0.0
  0
LINE
  5
258
330
1F
100
AcDbEntity
  8
D-0
  6
Continuous
 62
     7
370
     9
100
AcDbLine
 10
-504.3668236603605
 20
-805.6440786413247
 30
0.0
 11
-502.8665437569487
 21
-805.6440786413247
 31
0.0
  0
LINE
  5
259
330
1F
100
AcDbEntity
  8
D-0
  6
Continuous
 62
     7
370
     9
100
AcDbLine
 10
-502.8665437569487
 20
-805.6440786413247
 30
0.0
 11
-502.8665437569487
 21
-807.1443609289223
 31
0.0
  0
LINE
  5
25A
330
1F
100
AcDbEntity
  8
D-0
  6
Continuous
 62
     7
370
     9
100
AcDbLine
 10
-502.8665437569487
 20
-807.1443609289223
 30
0.0
 11
-504.3668236603605
 21
-807.1443609289223
 31
0.0
  0
LINE
  5
25B
330
1F
100
AcDbEntity
  8
D-0
  6
Continuous
 62
     7
370
     9
100
AcDbLine
 10
-472.5230451693403
 20
-494.6824125341467
 30
0.0
 11
-472.5230451693403
 21
-493.1821302465491
 31
0.0
  0
LINE
  5
25C
330
1F
100
AcDbEntity
  8
D-0
  6
Continuous
 62
     7
370
     9
100
AcDbLine
 10
-472.5230451693403
 20
-493.1821302465491
 30
0.0
 11
-471.0227658619749
 21
-493.1821302465491
 31
0.0
  0
LINE
  5
25D
330
1F
100
AcDbEntity
  8
D-0
  6
Continuous
 62
     7
370
     9
100
AcDbLine
 10
-471.0227658619749
 20
-493.1821302465491
 30
0.0
 11
-471.0227658619749
 21
-494.6824125341467
 31
0.0
  0
LINE
  5
25E
330
1F
100
AcDbEntity
  8
D-0
  6
Continuous
 62
     7
370
     9
100
AcDbLine
 10
-471.0227658619749
 20
-494.6824125341467
 30
0.0
 11
-472.5230451693403
 21
-494.6824125341467
 31
0.0
  0
LINE
  5
25F
330
1F
100
AcDbEntity
  8
D-4
  6
Continuous
 62
     7
370
     9
100
AcDbLine
 10
-306.6856732239592
 20
-482.1931318334632
 30
0.0
 11
-306.6856732239592
 21
-544.6766904882484
 31
0.0
  0
LINE
  5
260
330
1F
100
AcDbEntity
  8
D-5
  6
Continuous
 62
     7
370
     9
100
AcDbLine
 10
-316.6862263550627
 20
-420.3670934728675
 30
0.0
 11
-302.8745427002775
 21
-399.5276788763098
 31
0.0
  0
LINE
  5
261
330
1F
100
AcDbEntity
  8
D-5
  6
Continuous
 62
     7
370
     9
100
AcDbLine
 10
-316.6862263550627
 20
-420.3670934728675
 30
0.0
 11
-297.9515614380705
 21
-403.8129905752234
 31
0.0
  0
LINE
  5
262
330
1F
100
AcDbEntity
  8
D-5
  6
Continuous
 62
     7
370
     9
100
AcDbLine
 10
-316.6862263550627
 20
-420.3670934728675
 30
0.0
 11
-194.9396290650236
 21
-280.4863504461341
 31
0.0
  0
LINE
  5
263
330
1F
100
AcDbEntity
  8
D-5
  6
Continuous
 62
     7
370
     9
100
AcDbLine
 10
-194.9396290650236
 20
-280.4863504461341
 30
0.0
 11
191.7638430724276
 21
-280.4863504461341
 31
0.0
  0
LINE
  5
264
330
1F
100
AcDbEntity
  8
D-4
  6
Continuous
 62
     7
370
     9
100
AcDbLine
 10
-294.8588337769377
 20
-470.3672842077307
 30
0.0
 11
-205.1117863526213
 21
-470.3672842077307
 31
0.0
  0
LINE
  5
265
330
1F
100
AcDbEntity
  8
D-4
  6
Continuous
 62
     7
370
     9
100
AcDbLine
 10
-294.8588337769377
 20
-420.3670457891516
 30
0.0
 11
-205.1117863526213
 21
-420.3670457891516
 31
0.0
  0
LINE
  5
266
330
1F
100
AcDbEntity
  8
D-4
  6
Continuous
 62
     7
370
     9
100
AcDbLine
 10
-208.1123318543303
 20
-420.3670457891516
 30
0.0
 11
-208.1123318543303
 21
-335.3669027380042
 31
0.0
  0
LINE
  5
267
330
1F
100
AcDbEntity
  8
D-4
  6
Continuous
 62
     7
370
     9
100
AcDbLine
 10
-208.1123318543303
 20
-470.3672842077307
 30
0.0
 11
-208.1123318543303
 21
-420.3670457891516
 31
0.0
  0
LINE
  5
268
330
1F
100
AcDbEntity
  8
D-4
  6
Continuous
 62
     7
370
     9
100
AcDbLine
 10
-451.6861047615873
 20
-541.6761449865394
 30
0.0
 11
-606.6850914826261
 21
-541.6761449865394
 31
0.0
  0
LINE
  5
269
330
1F
100
AcDbEntity
  8
D-9
  6
Continuous
 62
     4
370
     9
100
AcDbLine
 10
-591.6857304444181
 20
-412.8675703100257
 30
0.0
 11
-476.6859736313688
 21
-412.8675703100257
 31
0.0
  0
LINE
  5
26A
330
1F
100
AcDbEntity
  8
D-1
  6
Continuous
 62
     2
370
     9
100
AcDbLine
 10
-451.6861381401884
 20
-338.3669028572135
 30
0.0
 11
-451.6861381401884
 21
-362.8667859129004
 31
0.0
  0
LINE
  5
26B
330
1F
100
AcDbEntity
  8
D-1
  6
Continuous
 62
     2
370
     9
100
AcDbLine
 10
-451.6861381401884
 20
-457.3665288976721
 30
0.0
 11
-451.6861381401884
 21
-432.8666452459387
 31
0.0
  0
LINE
  5
26C
330
1F
100
AcDbEntity
  8
D-1
  6
Continuous
 62
     2
370
     9
100
AcDbLine
 10
-473.6858894696104
 20
-335.367313526784
 30
0.0
 11
-454.6856036057341
 21
-335.367313526784
 31
0.0
  0
LINE
  5
26D
330
1F
100
AcDbEntity
  8
D-1
  6
Continuous
 62
     2
370
     9
100
AcDbLine
 10
-601.6857685913908
 20
-430.3668264440589
 30
0.0
 11
-601.6857685913908
 21
-422.8669218114905
 31
0.0
  0
LINE
  5
26E
330
1F
100
AcDbEntity
  8
D-1
  6
Continuous
 62
     2
370
     9
100
AcDbLine
 10
-606.6861595978605
 20
-430.3668264440589
 30
0.0
 11
-606.6861595978605
 21
-422.8669218114905
 31
0.0
  0
LINE
  5
26F
330
1F
100
AcDbEntity
  8
D-1
  6
Continuous
 62
     2
370
     9
100
AcDbLine
 10
-471.6862043013441
 20
-455.3668455175452
 30
0.0
 11
-456.6859068741667
 21
-455.3668455175452
 31
0.0
  0
LINE
  5
270
330
1F
100
AcDbEntity
  8
D-1
  6
Continuous
 62
     2
370
     9
100
AcDbLine
 10
-471.6859569420683
 20
-460.3671030096106
 30
0.0
 11
-454.6856036057341
 21
-460.3671030096106
 31
0.0
  0
LINE
  5
271
330
1F
100
AcDbEntity
  8
D-1
  6
Continuous
 62
     2
370
     9
100
AcDbLine
 10
-476.6859736313688
 20
-425.3665594152503
 30
0.0
 11
-476.6859736313688
 21
-338.3669028572135
 31
0.0
  0
LINE
  5
272
330
1F
100
AcDbEntity
  8
D-1
  6
Continuous
 62
     2
370
     9
100
AcDbLine
 10
-476.6859736313688
 20
-425.3665594152503
 30
0.0
 11
-526.6856446137297
 21
-425.3665594152503
 31
0.0
  0
LINE
  5
273
330
1F
100
AcDbEntity
  8
D-1
  6
Continuous
 62
     2
370
     9
100
AcDbLine
 10
-601.6857685913908
 20
-435.3670839361243
 30
0.0
 11
-476.6859736313688
 21
-435.3670839361243
 31
0.0
  0
LINE
  5
274
330
1F
100
AcDbEntity
  8
D-1
  6
Continuous
 62
     2
370
     9
100
AcDbLine
 10
-476.6859736313688
 20
-455.3670934728675
 30
0.0
 11
-476.6859736313688
 21
-435.3670839361243
 31
0.0
  0
LINE
  5
275
330
1F
100
AcDbEntity
  8
D-1
  6
Continuous
 62
     2
370
     9
100
AcDbLine
 10
-471.6862043013441
 20
-435.366835980802
 30
0.0
 11
-471.6862043013441
 21
-455.3668455175452
 31
0.0
  0
LINE
  5
276
330
1F
100
AcDbEntity
  8
D-1
  6
Continuous
 62
     2
370
     9
100
AcDbLine
 10
-476.6862209906446
 20
-430.3668264440589
 30
0.0
 11
-601.6857685913908
 21
-430.3668264440589
 31
0.0
  0
LINE
  5
277
330
1F
100
AcDbEntity
  8
D-1
  6
Continuous
 62
     2
370
     9
100
AcDbLine
 10
-471.6862043013441
 20
-425.3668073705725
 30
0.0
 11
-471.6862043013441
 21
-340.3665877274565
 31
0.0
  0
LINE
  5
278
330
1F
100
AcDbEntity
  8
D-9
  6
Continuous
 62
     4
370
     9
100
AcDbLine
 10
-476.6859736313688
 20
-418.4579805425696
 30
0.0
 11
-483.5945553352701
 21
-425.3665594152503
 31
0.0
  0
LINE
  5
279
330
1F
100
AcDbEntity
  8
D-9
  6
Continuous
 62
     4
370
     9
100
AcDbLine
 10
-478.1659110655653
 20
-412.8675703100257
 30
0.0
 11
-490.6650861372816
 21
-425.3665594152503
 31
0.0
  0
LINE
  5
27A
330
1F
100
AcDbEntity
  8
D-9
  6
Continuous
 62
     4
370
     9
100
AcDbLine
 10
-485.2372463812696
 20
-412.8675703100257
 30
0.0
 11
-497.7364220490324
 21
-425.3665594152503
 31
0.0
  0
LINE
  5
27B
330
1F
100
AcDbEntity
  8
D-9
  6
Continuous
 62
     4
370
     9
100
AcDbLine
 10
-492.3080863823759
 20
-412.8675703100257
 30
0.0
 11
-504.8072614540922
 21
-425.3665594152503
 31
0.0
  0
LINE
  5
27C
330
1F
100
AcDbEntity
  8
D-9
  6
Continuous
 62
     4
370
     9
100
AcDbLine
 10
-499.3794216980803
 20
-412.8675703100257
 30
0.0
 11
-511.8785967697966
 21
-425.3665594152503
 31
0.0
  0
LINE
  5
27D
330
1F
100
AcDbEntity
  8
D-9
  6
Continuous
 62
     4
370
     9
100
AcDbLine
 10
-506.4502634873259
 20
-412.8675703100257
 30
0.0
 11
-518.9496221413481
 21
-425.3665594152503
 31
0.0
  0
LINE
  5
27E
330
1F
100
AcDbEntity
  8
D-9
  6
Continuous
 62
     4
370
     9
100
AcDbLine
 10
-513.5215988030302
 20
-412.8675703100257
 30
0.0
 11
-526.0209574570524
 21
-425.3665594152503
 31
0.0
  0
LINE
  5
27F
330
1F
100
AcDbEntity
  8
D-9
  6
Continuous
 62
     4
370
     9
100
AcDbLine
 10
-548.8772835602629
 20
-412.8675703100257
 30
0.0
 11
-553.8763728012907
 21
-417.8666547826819
 31
0.0
  0
LINE
  5
280
330
1F
100
AcDbEntity
  8
D-9
  6
Continuous
 62
     4
370
     9
100
AcDbLine
 10
-555.9481253495085
 20
-412.8675703100257
 30
0.0
 11
-560.9472765793669
 21
-417.8666547826819
 31
0.0
  0
LINE
  5
281
330
1F
100
AcDbEntity
  8
D-9
  6
Continuous
 62
     4
370
     9
100
AcDbLine
 10
-591.3038124909269
 20
-412.8675703100257
 30
0.0
 11
-596.3032688965666
 21
-417.8666547826819
 31
0.0
  0
LINE
  5
282
330
1F
100
AcDbEntity
  8
D-9
  6
Continuous
 62
     4
370
     9
100
AcDbLine
 10
-541.8059506287443
 20
-412.8675703100257
 30
0.0
 11
-546.8052162995207
 21
-417.8666547826819
 31
0.0
  0
LINE
  5
283
330
1F
100
AcDbEntity
  8
D-9
  6
Continuous
 62
     4
370
     9
100
AcDbLine
 10
-527.6637711396086
 20
-412.8675703100257
 30
0.0
 11
-532.6629652848112
 21
-417.8666547826819
 31
0.0
  0
LINE
  5
284
330
1F
100
AcDbEntity
  8
D-9
  6
Continuous
 62
     4
370
     9
100
AcDbLine
 10
-534.7351088394987
 20
-412.8675703100257
 30
0.0
 11
-539.734283911215
 21
-417.8666547826819
 31
0.0
  0
LINE
  5
285
330
1F
100
AcDbEntity
  8
D-9
  6
Continuous
 62
     4
370
     9
100
AcDbLine
 10
-563.0194630493986
 20
-412.8675703100257
 30
0.0
 11
-568.0185475220549
 21
-417.8666547826819
 31
0.0
  0
LINE
  5
286
330
1F
100
AcDbEntity
  8
D-9
  6
Continuous
 62
     4
370
     9
100
AcDbLine
 10
-570.0903000702726
 20
-412.8675703100257
 30
0.0
 11
-575.0894799103605
 21
-417.8666547826819
 31
0.0
  0
LINE
  5
287
330
1F
100
AcDbEntity
  8
D-9
  6
Continuous
 62
     4
370
     9
100
AcDbLine
 10
-577.1611370911467
 20
-412.8675703100257
 30
0.0
 11
-582.160345541464
 21
-417.8666547826819
 31
0.0
  0
LINE
  5
288
330
1F
100
AcDbEntity
  8
D-9
  6
Continuous
 62
     4
370
     9
100
AcDbLine
 10
-584.2324795594084
 20
-412.8675703100257
 30
0.0
 11
-589.2317452301847
 21
-417.8666547826819
 31
0.0
  0
LINE
  5
289
330
1F
100
AcDbEntity
  8
D-1
  6
Continuous
 62
     2
370
     9
100
AcDbLine
 10
-531.6859736313688
 20
-422.8669218114905
 30
0.0
 11
-601.6857685913908
 21
-422.8669218114905
 31
0.0
  0
LINE
  5
28A
330
1F
100
AcDbEntity
  8
D-1
  6
Continuous
 62
     2
370
     9
100
AcDbLine
 10
-531.6859736313688
 20
-425.3668264440589
 30
0.0
 11
-531.6859736313688
 21
-422.8669218114905
 31
0.0
  0
LINE
  5
28B
330
1F
100
AcDbEntity
  8
D-1
  6
Continuous
 62
     2
370
     9
100
AcDbLine
 10
-531.6859736313688
 20
-417.8666547826819
 30
0.0
 11
-601.6857685913908
 21
-417.8666547826819
 31
0.0
  0
LINE
  5
28C
330
1F
100
AcDbEntity
  8
D-1
  6
Continuous
 62
     2
370
     9
100
AcDbLine
 10
-526.6859736313688
 20
-422.8666547826819
 30
0.0
 11
-526.6859736313688
 21
-425.3665594152503
 31
0.0
  0
LINE
  5
28D
330
1F
100
AcDbEntity
  8
D-9
  6
Continuous
 62
     4
370
     9
100
AcDbLine
 10
-520.5929341187345
 20
-412.8675703100257
 30
0.0
 11
-527.6460327973234
 21
-419.9206689886145
 31
0.0
  0
LINE
  5
28E
330
1F
100
AcDbEntity
  8
D-3
  6
Continuous
 62
     3
370
     9
100
AcDbLine
 10
-468.1859209408628
 20
-340.3665877274565
 30
0.0
 11
-468.1859209408628
 21
-452.8665880254798
 31
0.0
  0
LINE
  5
28F
330
1F
100
AcDbEntity
  8
D-3
  6
Continuous
 62
     3
370
     9
100
AcDbLine
 10
-306.6860356201994
 20
-430.3665117315344
 30
0.0
 11
-306.6860356201994
 21
-470.3665212682776
 31
0.0
  0
LINE
  5
290
330
1F
100
AcDbEntity
  8
D-3
  6
Continuous
 62
     3
370
     9
100
AcDbLine
 10
-431.6859497895109
 20
-452.1862558416419
 30
0.0
 11
-431.6859497895109
 21
-470.3665212682776
 31
0.0
  0
LINE
  5
291
330
1F
100
AcDbEntity
  8
D-3
  6
Continuous
 62
     3
370
     9
100
AcDbLine
 10
-434.6148934235441
 20
-445.1151613287024
 30
0.0
 11
-456.6859068741667
 21
-423.0441526464514
 31
0.0
  0
LINE
  5
292
330
1F
100
AcDbEntity
  8
D-3
  6
JWW_CENTER1
 62
     3
370
     9
100
AcDbLine
 10
-406.7474808564054
 20
-391.8664840749793
 30
0.0
 11
-475.4184629788267
 21
-391.8664840749793
 31
0.0
  0
LINE
  5
293
330
1F
100
AcDbEntity
  8
D-3
  6
Continuous
 62
     3
370
     9
100
AcDbLine
 10
-414.0083517899382
 20
-413.0441192678504
 30
0.0
 11
-417.1857275833952
 21
-409.8667434743933
 31
0.0
  0
LINE
  5
294
330
1F
100
AcDbEntity
  8
D-3
  6
Continuous
 62
     3
370
     9
100
AcDbLine
 10
-445.1863899102079
 20
-381.8659595541052
 30
0.0
 11
-456.6859068741667
 21
-370.3664402059607
 31
0.0
  0
LINE
  5
295
330
1F
100
AcDbEntity
  8
D-A
  6
Continuous
 62
     7
370
     9
100
AcDbLine
 10
-470.4366340508329
 20
-401.8660215429358
 30
0.0
 11
-470.4366340508329
 21
-381.8659595541052
 31
0.0
  0
LINE
  5
296
330
1F
100
AcDbEntity
  8
D-A
  6
Continuous
 62
     7
370
     9
100
AcDbLine
 10
-470.4366340508329
 20
-381.8659595541052
 30
0.0
 11
-471.6862043013441
 21
-383.1160215429358
 31
0.0
  0
LINE
  5
297
330
1F
100
AcDbEntity
  8
D-A
  6
Continuous
 62
     7
370
     9
100
AcDbLine
 10
-470.4366340508329
 20
-401.8660215429358
 30
0.0
 11
-471.6862043013441
 21
-400.6164506963782
 31
0.0
  0
LINE
  5
298
330
1F
100
AcDbEntity
  8
D-A
  6
Continuous
 62
     7
370
     9
100
AcDbLine
 10
-408.6861719956266
 20
-403.3667472890906
 30
0.0
 11
-408.6861719956266
 21
-380.3662256292395
 31
0.0
  0
LINE
  5
299
330
1F
100
AcDbEntity
  8
D-A
  6
Continuous
 62
     7
370
     9
100
AcDbLine
 10
-415.1861681809294
 20
-409.8667434743933
 30
0.0
 11
-421.6861643662321
 21
-409.8667434743933
 31
0.0
  0
LINE
  5
29A
330
1F
100
AcDbEntity
  8
D-A
  6
Continuous
 62
     7
370
     9
100
AcDbLine
 10
-415.1861681809294
 20
-373.866227059751
 30
0.0
 11
-421.6861643662321
 21
-373.866227059751
 31
0.0
  0
LINE
  5
29B
330
1F
100
AcDbEntity
  8
D-A
  6
Continuous
 62
     7
370
     9
100
AcDbLine
 10
-421.6861643662321
 20
-373.866227059751
 30
0.0
 11
-421.6861643662321
 21
-409.8667434743933
 31
0.0
  0
LINE
  5
29C
330
1F
100
AcDbEntity
  8
D-A
  6
Continuous
 62
     7
370
     9
100
AcDbLine
 10
-421.6861643662321
 20
-381.8659595541052
 30
0.0
 11
-456.6859068741667
 21
-381.8659595541052
 31
0.0
  0
LINE
  5
29D
330
1F
100
AcDbEntity
  8
D-A
  6
Continuous
 62
     7
370
     9
100
AcDbLine
 10
-421.6861643662321
 20
-383.1160215429358
 30
0.0
 11
-456.6859068741667
 21
-383.1160215429358
 31
0.0
  0
LINE
  5
29E
330
1F
100
AcDbEntity
  8
D-A
  6
Continuous
 62
     7
370
     9
100
AcDbLine
 10
-421.6861643662321
 20
-400.6164506963782
 30
0.0
 11
-456.6859068741667
 21
-400.6164506963782
 31
0.0
  0
LINE
  5
29F
330
1F
100
AcDbEntity
  8
D-A
  6
Continuous
 62
     7
370
     9
100
AcDbLine
 10
-421.6861643662321
 20
-401.8660215429358
 30
0.0
 11
-456.6859068741667
 21
-401.8660215429358
 31
0.0
  0
LINE
  5
2A0
330
1F
100
AcDbEntity
  8
D-A
  6
Continuous
 62
     7
370
     9
100
AcDbLine
 10
-468.1859209408628
 20
-400.6164506963782
 30
0.0
 11
-471.6862043013441
 21
-400.6164506963782
 31
0.0
  0
LINE
  5
2A1
330
1F
100
AcDbEntity
  8
D-A
  6
Continuous
 62
     7
370
     9
100
AcDbLine
 10
-468.1859209408628
 20
-401.8660215429358
 30
0.0
 11
-470.4366340508329
 21
-401.8660215429358
 31
0.0
  0
LINE
  5
2A2
330
1F
100
AcDbEntity
  8
D-A
  6
Continuous
 62
     7
370
     9
100
AcDbLine
 10
-468.1859209408628
 20
-383.1160215429358
 30
0.0
 11
-471.6862043013441
 21
-383.1160215429358
 31
0.0
  0
LINE
  5
2A3
330
1F
100
AcDbEntity
  8
D-A
  6
Continuous
 62
     7
370
     9
100
AcDbLine
 10
-468.1859209408628
 20
-381.8659595541052
 30
0.0
 11
-470.4366340508329
 21
-381.8659595541052
 31
0.0
  0
LINE
  5
2A4
330
1F
100
AcDbEntity
  8
D-3
  6
JWW_DASHED2
 62
     3
370
     9
100
AcDbLine
 10
-431.6859497895109
 20
-458.8665060094885
 30
0.0
 11
-306.6860356201994
 21
-458.8665060094885
 31
0.0
  0
LINE
  5
2A5
330
1F
100
AcDbEntity
  8
D-3
  6
Continuous
 62
     3
370
     9
100
AcDbLine
 10
-316.6859402527678
 20
-420.3666070989661
 30
0.0
 11
-396.3306298127043
 21
-420.3666070989661
 31
0.0
  0
LINE
  5
2A6
330
1F
100
AcDbEntity
  8
D-3
  6
Continuous
 62
     3
370
     9
100
AcDbLine
 10
-431.6859497895109
 20
-470.3665212682776
 30
0.0
 11
-306.6860356201994
 21
-470.3665212682776
 31
0.0
  0
LINE
  5
2A7
330
1F
100
AcDbEntity
  8
D-1
  6
Continuous
 62
     2
370
     9
100
AcDbLine
 10
-471.6862043013441
 20
-340.3665877274565
 30
0.0
 11
-456.6859068741667
 21
-340.3665877274565
 31
0.0
  0
LINE
  5
2A8
330
1F
100
AcDbEntity
  8
D-1
  6
Continuous
 62
     2
370
     9
100
AcDbLine
 10
-451.6861381401884
 20
-362.8667859129004
 30
0.0
 11
-456.6859068741667
 21
-362.8667859129004
 31
0.0
  0
LINE
  5
2A9
330
1F
100
AcDbEntity
  8
D-1
  6
Continuous
 62
     2
370
     9
100
AcDbLine
 10
-456.6859068741667
 20
-362.8667859129004
 30
0.0
 11
-456.6859068741667
 21
-340.3665877274565
 31
0.0
  0
LINE
  5
2AA
330
1F
100
AcDbEntity
  8
D-3
  6
Continuous
 62
     3
370
     9
100
AcDbLine
 10
-468.1859209408628
 20
-340.3665877274565
 30
0.0
 11
-456.6859068741667
 21
-340.3665877274565
 31
0.0
  0
LINE
  5
2AB
330
1F
100
AcDbEntity
  8
D-1
  6
Continuous
 62
     2
370
     9
100
AcDbLine
 10
-451.6861381401884
 20
-432.8666452459387
 30
0.0
 11
-456.6859068741667
 21
-432.8666452459387
 31
0.0
  0
LINE
  5
2AC
330
1F
100
AcDbEntity
  8
D-1
  6
Continuous
 62
     2
370
     9
100
AcDbLine
 10
-456.6859068741667
 20
-455.3668455175452
 30
0.0
 11
-456.6859068741667
 21
-432.8666452459387
 31
0.0
  0
LINE
  5
2AD
330
1F
100
AcDbEntity
  8
D-3
  6
Continuous
 62
     3
370
     9
100
AcDbLine
 10
-468.1859209408628
 20
-452.8665880254798
 30
0.0
 11
-456.6859068741667
 21
-452.8665880254798
 31
0.0
  0
LINE
  5
2AE
330
1F
100
AcDbEntity
  8
D-3
  6
Continuous
 62
     3
370
     9
100
AcDbLine
 10
-456.6859068741667
 20
-340.3665877274565
 30
0.0
 11
-456.6859068741667
 21
-452.8665880254798
 31
0.0
  0
LINE
  5
2AF
330
1F
100
AcDbEntity
  8
D-6
  6
Continuous
 62
     6
370
     9
100
AcDbLine
 10
-454.6856036057341
 20
-335.3669027380042
 30
0.0
 11
-41.68422363899822
 21
-335.3669027380042
 31
0.0
  0
LINE
  5
2B0
330
1F
100
AcDbEntity
  8
D-6
  6
Continuous
 62
     6
370
     9
100
AcDbLine
 10
-606.6850914826261
 20
-430.3668264440589
 30
0.0
 11
-606.6850914826261
 21
-835.3662542394692
 31
0.0
  0
LINE
  5
2B1
330
1F
100
AcDbEntity
  8
D-4
  6
Continuous
 62
     7
370
     9
100
AcDbLine
 10
-523.53996895455
 20
-460.3667406133704
 30
0.0
 11
-755.1681675782072
 21
-460.3667406133704
 31
0.0
  0
LINE
  5
2B2
330
1F
100
AcDbEntity
  8
D-5
  6
Continuous
 62
     7
370
     9
100
AcDbLine
 10
-482.1688311194646
 20
-474.1437391332678
 30
0.0
 11
-547.2173228134977
 21
-417.5267366460852
 31
0.0
  0
LINE
  5
2B3
330
1F
100
AcDbEntity
  8
D-5
  6
Continuous
 62
     7
370
     9
100
AcDbLine
 10
-547.2173228134977
 20
-417.5267366460852
 30
0.0
 11
-530.6637110581266
 21
-436.2609056524329
 31
0.0
  0
LINE
  5
2B4
330
1F
100
AcDbEntity
  8
D-5
  6
Continuous
 62
     7
370
     9
100
AcDbLine
 10
-547.2173228134977
 20
-417.5267366460852
 30
0.0
 11
-526.3789000382292
 21
-431.3384298376135
 31
0.0
  0
ARC
  5
2B5
330
1F
100
AcDbEntity
  8
D-9
  6
Continuous
 62
     4
370
     9
100
AcDbCircle
 10
-591.6857304444181
 20
-417.8668455175452
 30
0.0
 40
5.0
100
AcDbArc
 50
90.0
 51
180.0
  0
ARC
  5
2B6
330
1F
100
AcDbEntity
  8
D-1
  6
Continuous
 62
     2
370
     9
100
AcDbCircle
 10
-601.6857685913908
 20
-422.8669218114905
 30
0.0
 40
5.0
100
AcDbArc
 50
90.0
 51
180.0
  0
ARC
  5
2B7
330
1F
100
AcDbEntity
  8
D-1
  6
Continuous
 62
     2
370
     9
100
AcDbCircle
 10
-454.6856036057341
 20
-338.3669028572135
 30
0.0
 40
3.00000011920929
100
AcDbArc
 50
0.0
 51
90.0
  0
ARC
  5
2B8
330
1F
100
AcDbEntity
  8
D-1
  6
Continuous
 62
     2
370
     9
100
AcDbCircle
 10
-473.6858894696104
 20
-338.3669028572135
 30
0.0
 40
3.00000011920929
100
AcDbArc
 50
90.0
 51
180.0
  0
ARC
  5
2B9
330
1F
100
AcDbEntity
  8
D-1
  6
Continuous
 62
     2
370
     9
100
AcDbCircle
 10
-454.6856036057341
 20
-457.3665288976721
 30
0.0
 40
3.00000011920929
100
AcDbArc
 50
270.0
 51
0.0
  0
ARC
  5
2BA
330
1F
100
AcDbEntity
  8
D-1
  6
Continuous
 62
     2
370
     9
100
AcDbCircle
 10
-601.6857685913908
 20
-430.3668264440589
 30
0.0
 40
5.0
100
AcDbArc
 50
180.0
 51
270.0
  0
ARC
  5
2BB
330
1F
100
AcDbEntity
  8
D-1
  6
Continuous
 62
     2
370
     9
100
AcDbCircle
 10
-471.6859569420683
 20
-455.3670934728675
 30
0.0
 40
5.0
100
AcDbArc
 50
180.0
 51
270.0
  0
ARC
  5
2BC
330
1F
100
AcDbEntity
  8
D-1
  6
Continuous
 62
     2
370
     9
100
AcDbCircle
 10
-476.6862209906446
 20
-435.366835980802
 30
0.0
 40
5.0
100
AcDbArc
 50
0.0
 51
90.0
  0
ARC
  5
2BD
330
1F
100
AcDbEntity
  8
D-1
  6
Continuous
 62
     2
370
     9
100
AcDbCircle
 10
-476.6862209906446
 20
-425.3668073705725
 30
0.0
 40
5.0
100
AcDbArc
 50
270.0
 51
0.0
  0
ARC
  5
2BE
330
1F
100
AcDbEntity
  8
D-1
  6
Continuous
 62
     2
370
     9
100
AcDbCircle
 10
-526.6859736313688
 20
-425.3668264440589
 30
0.0
 40
5.0
100
AcDbArc
 50
180.0
 51
270.0
  0
ARC
  5
2BF
330
1F
100
AcDbEntity
  8
D-1
  6
Continuous
 62
     2
370
     9
100
AcDbCircle
 10
-531.6859736313688
 20
-422.8666547826819
 30
0.0
 40
5.0
100
AcDbArc
 50
0.0
 51
90.0
  0
ARC
  5
2C0
330
1F
100
AcDbEntity
  8
D-3
  6
Continuous
 62
     3
370
     9
100
AcDbCircle
 10
-396.3306298127043
 20
-395.3665212682776
 30
0.0
 40
25.0
100
AcDbArc
 50
225.0
 51
270.0
  0
ARC
  5
2C1
330
1F
100
AcDbEntity
  8
D-3
  6
Continuous
 62
     3
370
     9
100
AcDbCircle
 10
-316.6859402527678
 20
-430.3665117315344
 30
0.0
 40
10.0
100
AcDbArc
 50
0.0
 51
90.0
  0
ARC
  5
2C2
330
1F
100
AcDbEntity
  8
D-3
  6
Continuous
 62
     3
370
     9
100
AcDbCircle
 10
-441.6859807839262
 20
-452.1862558416419
 30
0.0
 40
10.0
100
AcDbArc
 50
0.0
 51
45.000244140625
  0
ARC
  5
2C3
330
1F
100
AcDbEntity
  8
D-A
  6
Continuous
 62
     7
370
     9
100
AcDbCircle
 10
-415.1861681809294
 20
-380.3662256292395
 30
0.0
 40
6.499999761581421
100
AcDbArc
 50
0.0
 51
90.0
  0
ARC
  5
2C4
330
1F
100
AcDbEntity
  8
D-A
  6
Continuous
 62
     7
370
     9
100
AcDbCircle
 10
-415.1861681809294
 20
-403.3667472890906
 30
0.0
 40
6.499999761581421
100
AcDbArc
 50
270.0
 51
0.0
  0
LWPOLYLINE
  5
2C5
330
1F
100
AcDbEntity
  8
D-4
  6
Continuous
 62
     7
370
     9
100
AcDbPolyline
 90
        4
 70
     1
 43
1.0
 10
-451.1861047615873
 20
5.000338167757548
 42
0.4142135623731
 10
-451.6861047615873
 20
5.500338167757548
 42
0.4142135623731
 10
-452.1861047615873
 20
5.000338167757548
 42
0.4142135623731
 10
-451.6861047615873
 20
4.500338167757548
 42
0.4142135623731
  0
LWPOLYLINE
  5
2C6
330
1F
100
AcDbEntity
  8
D-4
  6
Continuous
 62
     7
370
     9
100
AcDbPolyline
 90
        4
 70
     1
 43
1.0
 10
-606.1850914826261
 20
-214.4477514318518
 42
0.4142135623731
 10
-606.6850914826261
 20
-213.9477514318518
 42
0.4142135623731
 10
-607.1850914826261
 20
-214.4477514318518
 42
0.4142135623731
 10
-606.6850914826261
 20
-214.9477514318518
 42
0.4142135623731
  0
LWPOLYLINE
  5
2C7
330
1F
100
AcDbEntity
  8
D-4
  6
Continuous
 62
     7
370
     9
100
AcDbPolyline
 90
        4
 70
     1
 43
1.0
 10
-481.1852536072599
 20
-214.4477514318518
 42
0.4142135623731
 10
-481.6852536072599
 20
-213.9477514318518
 42
0.4142135623731
 10
-482.1852536072599
 20
-214.4477514318518
 42
0.4142135623731
 10
-481.6852536072599
 20
-214.9477514318518
 42
0.4142135623731
  0
LWPOLYLINE
  5
2C8
330
1F
100
AcDbEntity
  8
D-4
  6
Continuous
 62
     7
370
     9
100
AcDbPolyline
 90
        4
 70
     1
 43
1.0
 10
-481.1852536072599
 20
-105.6953290990882
 42
0.4142135623731
 10
-481.6852536072599
 20
-105.1953290990882
 42
0.4142135623731
 10
-482.1852536072599
 20
-105.6953290990882
 42
0.4142135623731
 10
-481.6852536072599
 20
-106.1953290990882
 42
0.4142135623731
  0
LWPOLYLINE
  5
2C9
330
1F
100
AcDbEntity
  8
D-4
  6
Continuous
 62
     7
370
     9
100
AcDbPolyline
 90
        4
 70
     1
 43
1.0
 10
-476.1849830021727
 20
-105.6953290990882
 42
0.4142135623731
 10
-476.6849830021727
 20
-105.1953290990882
 42
0.4142135623731
 10
-477.1849830021727
 20
-105.6953290990882
 42
0.4142135623731
 10
-476.6849830021727
 20
-106.1953290990882
 42
0.4142135623731
  0
LWPOLYLINE
  5
2CA
330
1F
100
AcDbEntity
  8
D-4
  6
Continuous
 62
     7
370
     9
100
AcDbPolyline
 90
        4
 70
     1
 43
1.0
 10
-451.1861047615873
 20
-105.6953290990882
 42
0.4142135623731
 10
-451.6861047615873
 20
-105.1953290990882
 42
0.4142135623731
 10
-452.1861047615873
 20
-105.6953290990882
 42
0.4142135623731
 10
-451.6861047615873
 20
-106.1953290990882
 42
0.4142135623731
  0
LWPOLYLINE
  5
2CB
330
1F
100
AcDbEntity
  8
D-4
  6
Continuous
 62
     7
370
     9
100
AcDbPolyline
 90
        4
 70
     1
 43
1.0
 10
-751.6676030030119
 20
-460.3667406133704
 42
0.4142135623731
 10
-752.1676030030119
 20
-459.8667406133704
 42
0.4142135623731
 10
-752.6676030030119
 20
-460.3667406133704
 42
0.4142135623731
 10
-752.1676030030119
 20
-460.8667406133703
 42
0.4142135623731
  0
LWPOLYLINE
  5
2CC
330
1F
100
AcDbEntity
  8
D-4
  6
Continuous
 62
     7
370
     9
100
AcDbPolyline
 90
        4
 70
     1
 43
1.0
 10
-751.6676030030119
 20
-335.3669027380042
 42
0.4142135623731
 10
-752.1676030030119
 20
-334.8669027380042
 42
0.4142135623731
 10
-752.6676030030119
 20
-335.3669027380042
 42
0.4142135623731
 10
-752.1676030030119
 20
-335.8669027380041
 42
0.4142135623731
  0
LWPOLYLINE
  5
2CD
330
1F
100
AcDbEntity
  8
D-4
  6
Continuous
 62
     7
370
     9
100
AcDbPolyline
 90
        4
 70
     1
 43
1.0
 10
-451.1861047615873
 20
-541.6761449865394
 42
0.4142135623731
 10
-451.6861047615873
 20
-541.1761449865394
 42
0.4142135623731
 10
-452.1861047615873
 20
-541.6761449865394
 42
0.4142135623731
 10
-451.6861047615873
 20
-542.1761449865393
 42
0.4142135623731
  0
LWPOLYLINE
  5
2CE
330
1F
100
AcDbEntity
  8
D-4
  6
Continuous
 62
     7
370
     9
100
AcDbPolyline
 90
        4
 70
     1
 43
1.0
 10
-306.1856732239592
 20
-541.6761449865394
 42
0.4142135623731
 10
-306.6856732239592
 20
-541.1761449865394
 42
0.4142135623731
 10
-307.1856732239592
 20
-541.6761449865394
 42
0.4142135623731
 10
-306.6856732239592
 20
-542.1761449865393
 42
0.4142135623731
  0
LWPOLYLINE
  5
2CF
330
1F
100
AcDbEntity
  8
D-4
  6
Continuous
 62
     7
370
     9
100
AcDbPolyline
 90
        4
 70
     1
 43
1.0
 10
-606.1850914826261
 20
-740.9853796056801
 42
0.4142135623731
 10
-606.6850914826261
 20
-740.4853796056801
 42
0.4142135623731
 10
-607.1850914826261
 20
-740.9853796056801
 42
0.4142135623731
 10
-606.6850914826261
 20
-741.48537960568
 42
0.4142135623731
  0
LWPOLYLINE
  5
2D0
330
1F
100
AcDbEntity
  8
D-4
  6
Continuous
 62
     7
370
     9
100
AcDbPolyline
 90
        4
 70
     1
 43
1.0
 10
-456.185880648123
 20
-740.9853796056801
 42
0.4142135623731
 10
-456.685880648123
 20
-740.4853796056801
 42
0.4142135623731
 10
-457.185880648123
 20
-740.9853796056801
 42
0.4142135623731
 10
-456.685880648123
 20
-741.48537960568
 42
0.4142135623731
  0
LWPOLYLINE
  5
2D1
330
1F
100
AcDbEntity
  8
D-4
  6
Continuous
 62
     7
370
     9
100
AcDbPolyline
 90
        4
 70
     1
 43
1.0
 10
-606.1850914826261
 20
-895.4497579626137
 42
0.4142135623731
 10
-606.6850914826261
 20
-894.9497579626137
 42
0.4142135623731
 10
-607.1850914826261
 20
-895.4497579626137
 42
0.4142135623731
 10
-606.6850914826261
 20
-895.9497579626136
 42
0.4142135623731
  0
LWPOLYLINE
  5
2D2
330
1F
100
AcDbEntity
  8
D-4
  6
Continuous
 62
     7
370
     9
100
AcDbPolyline
 90
        4
 70
     1
 43
1.0
 10
-206.1842236389982
 20
-895.4497579626137
 42
0.4142135623731
 10
-206.6842236389982
 20
-894.9497579626137
 42
0.4142135623731
 10
-207.1842236389982
 20
-895.4497579626137
 42
0.4142135623731
 10
-206.6842236389982
 20
-895.9497579626136
 42
0.4142135623731
  0
LWPOLYLINE
  5
2D3
330
1F
100
AcDbEntity
  8
D-4
  6
Continuous
 62
     7
370
     9
100
AcDbPolyline
 90
        4
 70
     1
 43
1.0
 10
65.50011779166584
 20
-335.3669027380042
 42
0.4142135623731
 10
65.00011779166584
 20
-334.8669027380042
 42
0.4142135623731
 10
64.50011779166584
 20
-335.3669027380042
 42
0.4142135623731
 10
65.00011779166584
 20
-335.8669027380041
 42
0.4142135623731
  0
LWPOLYLINE
  5
2D4
330
1F
100
AcDbEntity
  8
D-4
  6
Continuous
 62
     7
370
     9
100
AcDbPolyline
 90
        4
 70
     1
 43
1.0
 10
65.50011779166584
 20
-585.3665784887368
 42
0.4142135623731
 10
65.00011779166584
 20
-584.8665784887368
 42
0.4142135623731
 10
64.50011779166584
 20
-585.3665784887368
 42
0.4142135623731
 10
65.00011779166584
 20
-585.8665784887366
 42
0.4142135623731
  0
LWPOLYLINE
  5
2D5
330
1F
100
AcDbEntity
  8
D-4
  6
Continuous
 62
     7
370
     9
100
AcDbPolyline
 90
        4
 70
     1
 43
1.0
 10
-207.6123318543303
 20
-335.3669027380042
 42
0.4142135623731
 10
-208.1123318543303
 20
-334.8669027380042
 42
0.4142135623731
 10
-208.6123318543303
 20
-335.3669027380042
 42
0.4142135623731
 10
-208.1123318543303
 20
-335.8669027380041
 42
0.4142135623731
  0
LWPOLYLINE
  5
2D6
330
1F
100
AcDbEntity
  8
D-4
  6
Continuous
 62
     7
370
     9
100
AcDbPolyline
 90
        4
 70
     1
 43
1.0
 10
-207.6123318543303
 20
-420.3670457891516
 42
0.4142135623731
 10
-208.1123318543303
 20
-419.8670457891517
 42
0.4142135623731
 10
-208.6123318543303
 20
-420.3670457891516
 42
0.4142135623731
 10
-208.1123318543303
 20
-420.8670457891516
 42
0.4142135623731
  0
LWPOLYLINE
  5
2D7
330
1F
100
AcDbEntity
  8
D-4
  6
Continuous
 62
     7
370
     9
100
AcDbPolyline
 90
        4
 70
     1
 43
1.0
 10
-207.6123318543303
 20
-470.3672842077307
 42
0.4142135623731
 10
-208.1123318543303
 20
-469.8672842077308
 42
0.4142135623731
 10
-208.6123318543303
 20
-470.3672842077307
 42
0.4142135623731
 10
-208.1123318543303
 20
-470.8672842077307
 42
0.4142135623731
  0
LWPOLYLINE
  5
2D8
330
1F
100
AcDbEntity
  8
D-4
  6
Continuous
 62
     7
370
     9
100
AcDbPolyline
 90
        4
 70
     1
 43
1.0
 10
-451.1861047615873
 20
-541.6761449865394
 42
0.4142135623731
 10
-451.6861047615873
 20
-541.1761449865394
 42
0.4142135623731
 10
-452.1861047615873
 20
-541.6761449865394
 42
0.4142135623731
 10
-451.6861047615873
 20
-542.1761449865393
 42
0.4142135623731
  0
LWPOLYLINE
  5
2D9
330
1F
100
AcDbEntity
  8
D-4
  6
Continuous
 62
     7
370
     9
100
AcDbPolyline
 90
        4
 70
     1
 43
1.0
 10
-606.1850914826261
 20
-541.6761449865394
 42
0.4142135623731
 10
-606.6850914826261
 20
-541.1761449865394
 42
0.4142135623731
 10
-607.1850914826261
 20
-541.6761449865394
 42
0.4142135623731
 10
-606.6850914826261
 20
-542.1761449865393
 42
0.4142135623731
  0
TEXT
  5
2DA
330
1F
100
AcDbEntity
  8
D-4
  6
Continuous
 62
     2
370
     9
100
AcDbText
 10
-514.6299638619291
 20
-95.05605389156862
 30
0.0
 40
30.48
  1
1
 41
0.9999999999999998
  7
ＭＳ ゴシック
100
AcDbText
  0
TEXT
  5
2DB
330
1F
100
AcDbEntity
  8
D-4
  6
Continuous
 62
     2
370
     9
100
AcDbText
 10
-565.4343380799162
 20
-203.8074748663001
 30
0.0
 40
30.48
  1
25
 41
1.0625
  7
ＭＳ ゴシック
100
AcDbText
  0
TEXT
  5
2DC
330
1F
100
AcDbEntity
  8
D-4
  6
Continuous
 62
     2
370
     9
100
AcDbText
 10
-597.9351105561125
 20
-730.3461043981606
 30
0.0
 40
30.48
  1
25～30
 41
1.104166666666667
  7
ＭＳ ゴシック
100
AcDbText
  0
TEXT
  5
2DD
330
1F
100
AcDbEntity
  8
D-4
  6
Continuous
 62
     2
370
     9
100
AcDbText
 10
-474.5534550925696
 20
-884.8094909338446
 30
0.0
 40
30.48
  1
75～80
 50
359.9997855578312
 41
1.104166666666665
  7
ＭＳ ゴシック
100
AcDbText
  0
TEXT
  5
2DE
330
1F
100
AcDbEntity
  8
D-4
  6
Continuous
 62
     2
370
     9
100
AcDbText
 10
54.36084258414632
 20
-526.6168648375639
 30
0.0
 40
30.48
  1
40～50
 50
90.00000250447805
 41
1.104166666666667
  7
ＭＳ ゴシック
100
AcDbText
  0
TEXT
  5
2DF
330
1F
100
AcDbEntity
  8
D-4
  6
Continuous
 62
     2
370
     9
100
AcDbText
 10
-416.1020998893226
 20
-531.0368507059175
 30
0.0
 40
30.48
  1
29
 50
0.0006685549992706
 41
1.062499999999998
  7
ＭＳ ゴシック
100
AcDbText
  0
TEXT
  5
2E0
330
1F
100
AcDbEntity
  8
D-4
  6
Continuous
 62
     2
370
     9
100
AcDbText
 10
-442.7726235260832
 20
-95.05605389156862
 30
0.0
 40
30.48
  1
5
 41
0.9999999999999998
  7
ＭＳ ゴシック
100
AcDbText
  0
TEXT
  5
2E1
330
1F
100
AcDbEntity
  8
D-5
  6
Continuous
 62
     2
370
     9
100
AcDbText
 10
-906.1791222085335
 20
-1013.16936184445
 30
0.0
 40
30.48
  1
断面詳細図　Ｓ＝１：２
 50
0.0000267631904831
 41
1.113636363636364
  7
ＭＳ ゴシック
100
AcDbText
  0
TEXT
  5
2E2
330
1F
100
AcDbEntity
  8
D-5
  6
Continuous
 62
     7
370
     9
100
AcDbText
 10
-257.7085842957365
 20
-219.5662488225989
 30
0.0
 40
22.86
  1
塩ビクッション
 41
1.142857142857143
  7
ＭＳ ゴシック
100
AcDbText
  0
TEXT
  5
2E3
330
1F
100
AcDbEntity
  8
D-5
  6
Continuous
 62
     7
370
     9
100
AcDbText
 10
-317.196556555258
 20
-163.4673012975745
 30
0.0
 40
22.86
  1
ステンレス製受枠ＳＦ１５Ｂ
 41
1.153846153846154
  7
ＭＳ ゴシック
100
AcDbText
  0
TEXT
  5
2E4
330
1F
100
AcDbEntity
  8
D-5
  6
Continuous
 62
     2
370
     9
100
AcDbText
 10
454.788363946451
 20
-842.4092452673012
 30
0.0
 40
30.48
  1
材質：冷間圧延ステンレス鋼板（ＳＵＳ３０４－２Ｂ）
 41
1.12
  7
ＭＳ ゴシック
100
AcDbText
  0
TEXT
  5
2E5
330
1F
100
AcDbEntity
  8
D-5
  6
Continuous
 62
     7
370
     9
100
AcDbText
 10
-194.4976773133146
 20
-310.0161065343909
 30
0.0
 40
22.86
  1
ｔ＝２．３（ＳＰＨＣ）
 41
1.151515151515152
  7
ＭＳ ゴシック
100
AcDbText
  0
TEXT
  5
2E6
330
1F
100
AcDbEntity
  8
D-4
  6
Continuous
 62
     2
370
     9
100
AcDbText
 10
-218.7526179566252
 20
-466.6165787352688
 30
0.0
 40
30.48
  1
10
 50
90.00000250447789
 41
1.062500000000001
  7
ＭＳ ゴシック
100
AcDbText
  0
TEXT
  5
2E7
330
1F
100
AcDbEntity
  8
D-4
  6
Continuous
 62
     2
370
     9
100
AcDbText
 10
-218.7526179566252
 20
-399.1168886794217
 30
0.0
 40
30.48
  1
17
 50
90.00000250447789
 41
1.062500000000001
  7
ＭＳ ゴシック
100
AcDbText
  0
TEXT
  5
2E8
330
1F
100
AcDbEntity
  8
D-4
  6
Continuous
 62
     2
370
     9
100
AcDbText
 10
-550.4355969300138
 20
-530.0361411718421
 30
0.0
 40
30.48
  1
31
 41
1.0625
  7
ＭＳ ゴシック
100
AcDbText
  0
LINE
  5
2E9
330
1F
100
AcDbEntity
  8
D-5
  6
Continuous
 62
     3
370
     9
100
AcDbLine
 10
-481.6852536072599
 20
-412.8669027380042
 30
0.0
 11
-496.6852536072599
 21
-412.8669027380042
 31
0.0
  0
LINE
  5
2EA
330
1F
100
AcDbEntity
  8
D-5
  6
Continuous
 62
     3
370
     9
100
AcDbLine
 10
-496.6852536072599
 20
-360.3669027380042
 30
0.0
 11
-496.6852536072599
 21
-412.8669027380042
 31
0.0
  0
LINE
  5
2EB
330
1F
100
AcDbEntity
  8
D-2
  6
Continuous
 62
     3
370
     9
100
AcDbLine
 10
-496.6852536072599
 20
-377.8669027380042
 30
0.0
 11
-521.6852536072599
 21
-352.8669027380042
 31
0.0
  0
LINE
  5
2EC
330
1F
100
AcDbEntity
  8
D-5
  6
Continuous
 62
     3
370
     9
100
AcDbLine
 10
-481.6852536072599
 20
-360.3669027380042
 30
0.0
 11
-481.6852536072599
 21
-412.8669027380042
 31
0.0
  0
LINE
  5
2ED
330
1F
100
AcDbEntity
  8
D-5
  6
Continuous
 62
     2
370
     9
100
AcDbLine
 10
517.9864535460604
 20
-387.8671363882117
 30
0.0
 11
292.9871401915682
 21
-387.8671363882117
 31
0.0
  0
LINE
  5
2EE
330
1F
100
AcDbEntity
  8
D-5
  6
Continuous
 62
     2
370
     9
100
AcDbLine
 10
517.9864535460604
 20
-337.8669027380042
 30
0.0
 11
517.9864535460604
 21
-387.8671363882117
 31
0.0
  0
LINE
  5
2EF
330
1F
100
AcDbEntity
  8
D-5
  6
Continuous
 62
     2
370
     9
100
AcDbLine
 10
292.9871401915682
 20
-337.8669027380042
 30
0.0
 11
517.9864535460604
 21
-337.8669027380042
 31
0.0
  0
LINE
  5
2F0
330
1F
100
AcDbEntity
  8
D-5
  6
Continuous
 62
     2
370
     9
100
AcDbLine
 10
292.9871401915682
 20
-387.8671363882117
 30
0.0
 11
292.9871401915682
 21
-337.8669027380042
 31
0.0
  0
LINE
  5
2F1
330
1F
100
AcDbEntity
  8
D-5
  6
Continuous
 62
     7
370
     9
100
AcDbLine
 10
-357.1630539765226
 20
-111.6210035375647
 30
0.0
 11
-554.6757330765593
 21
-340.3670380405478
 31
0.0
  0
LINE
  5
2F2
330
1F
100
AcDbEntity
  8
D-5
  6
Continuous
 62
     7
370
     9
100
AcDbLine
 10
-554.6757330765593
 20
-340.3670380405478
 30
0.0
 11
-540.9472813477385
 21
-319.4741109899573
 31
0.0
  0
LINE
  5
2F3
330
1F
100
AcDbEntity
  8
D-5
  6
Continuous
 62
     7
370
     9
100
AcDbLine
 10
-554.6757330765593
 20
-340.3670380405478
 30
0.0
 11
-536.0074581971037
 21
-323.7391058496527
 31
0.0
  0
LINE
  5
2F4
330
1F
100
AcDbEntity
  8
D-5
  6
Continuous
 62
     7
370
     9
100
AcDbLine
 10
-357.1630539765226
 20
-111.6210035375647
 30
0.0
 11
429.7093997130526
 21
-111.6210035375647
 31
0.0
  0
LINE
  5
2F5
330
1F
100
AcDbEntity
  8
D-2
  6
Continuous
 62
     3
370
     9
100
AcDbLine
 10
-1179.352871405112
 20
-493.1101564458899
 30
0.0
 11
-1179.352871405112
 21
-269.1676811269812
 31
0.0
  0
LINE
  5
2F6
330
1F
100
AcDbEntity
  8
D-5
  6
Continuous
 62
     3
370
     9
100
AcDbLine
 10
-1179.352871405112
 20
-352.8669027380042
 30
0.0
 11
-504.1852536072599
 21
-352.8669027380042
 31
0.0
  0
LINE
  5
2F7
330
1F
100
AcDbEntity
  8
D-5
  6
Continuous
 62
     3
370
     9
100
AcDbLine
 10
-1179.352871405112
 20
-337.8669027380042
 30
0.0
 11
-504.1852536072599
 21
-337.8669027380042
 31
0.0
  0
ARC
  5
2F8
330
1F
100
AcDbEntity
  8
D-5
  6
Continuous
 62
     3
370
     9
100
AcDbCircle
 10
-504.1852536072599
 20
-360.3669027380042
 30
0.0
 40
7.5
100
AcDbArc
 50
0.0
 51
90.0
  0
ARC
  5
2F9
330
1F
100
AcDbEntity
  8
D-5
  6
Continuous
 62
     3
370
     9
100
AcDbCircle
 10
-504.1852536072599
 20
-360.3669027380042
 30
0.0
 40
22.5
100
AcDbArc
 50
0.0
 51
90.0
  0
TEXT
  5
2FA
330
1F
100
AcDbEntity
  8
D-5
  6
Continuous
 62
     2
370
     9
100
AcDbText
 10
340.4866824278963
 20
-377.2268645910315
 30
0.0
 40
30.48
  1
仕　様
 41
1.083333333333333
  7
ＭＳ ゴシック
100
AcDbText
  0
TEXT
  5
2FB
330
1F
100
AcDbEntity
  8
D-5
  6
Continuous
 62
     7
370
     9
100
AcDbText
 10
-352.0156922211515
 20
-67.7698220495276
 30
0.0
 40
22.86
  1
かさあげノンスリップタイプ
 41
1.153846153846154
  7
ＭＳ ゴシック
100
AcDbText
  0
TEXT
  5
2FC
330
1F
100
AcDbEntity
  8
D-5
  6
Continuous
 62
     7
370
     9
100
AcDbText
 10
-353.220554815756
 20
-102.3971642736487
 30
0.0
 40
22.86
  1
ステンレス製排水用蓋ＳＺ－Ｂ－１５（ｔ＝３）
 41
1.159090909090909
  7
ＭＳ ゴシック
100
AcDbText
  0
TEXT
  5
2FD
330
1F
100
AcDbEntity
  8
D-5
  6
Continuous
 62
     2
370
     9
100
AcDbText
 10
454.7888138314282
 20
-635.1475112585176
 30
0.0
 40
30.48
  1
処理：ヘアライン
 50
0.0000800382895129
 41
1.109374999999999
  7
ＭＳ ゴシック
100
AcDbText
  0
TEXT
  5
2FE
330
1F
100
AcDbEntity
  8
D-5
  6
Continuous
 62
     2
370
     9
100
AcDbText
 10
454.7888244255948
 20
-570.1469772008957
 30
0.0
 40
30.48
  1
材質：冷間圧延ステンレス鋼板　（ＳＵＳ３０４）
 50
359.9999724139926
 41
1.119565217391304
  7
ＭＳ ゴシック
100
AcDbText
  0
TEXT
  5
2FF
330
1F
100
AcDbEntity
  8
D-5
  6
Continuous
 62
     2
370
     9
100
AcDbText
 10
395.0769076476229
 20
-440.1473586706214
 30
0.0
 40
30.48
  1
かさあげノンスリップタイプ
 41
1.115384615384615
  7
ＭＳ ゴシック
100
AcDbText
  0
LINE
  5
300
330
1F
100
AcDbEntity
  8
D-2
  6
Continuous
 62
     3
370
     9
100
AcDbLine
 10
-1179.352871405112
 20
-402.8669027380045
 30
0.0
 11
-496.6852536072599
 21
-402.8669027380045
 31
0.0
  0
LINE
  5
301
330
1F
100
AcDbEntity
  8
D-5
  6
Continuous
 62
     7
370
     9
100
AcDbLine
 10
-1550.928030967605
 20
-575.5245835730308
 30
0.0
 11
-1013.171542836864
 21
-575.5245835730308
 31
0.0
  0
TEXT
  5
302
330
1F
100
AcDbEntity
  8
D-5
  6
Continuous
 62
     7
370
     9
100
AcDbText
 10
-1384.549786902235
 20
-605.0543408533805
 30
0.0
 40
22.86
  1
ＳＵＳ３０４
 41
1.138888888888889
  7
ＭＳ ゴシック
100
AcDbText
  0
LINE
  5
303
330
1F
100
AcDbEntity
  8
D-5
  6
Continuous
 62
     7
370
     9
100
AcDbLine
 10
-1013.171542836864
 20
-575.5245835730308
 30
0.0
 11
-850.3419020965953
 21
-388.4414417722008
 31
0.0
  0
LINE
  5
304
330
1F
100
AcDbEntity
  8
D-5
  6
Continuous
 62
     7
370
     9
100
AcDbLine
 10
-850.3419020965953
 20
-388.4414417722008
 30
0.0
 11
-864.1530588729984
 21
-409.2801545082997
 31
0.0
  0
LINE
  5
305
330
1F
100
AcDbEntity
  8
D-5
  6
Continuous
 62
     7
370
     9
100
AcDbLine
 10
-850.3419020965953
 20
-388.4414417722008
 30
0.0
 11
-869.0759108493728
 21
-404.9955021819881
 31
0.0
  0
TEXT
  5
306
330
1F
100
AcDbEntity
  8
D-5
  6
Continuous
 62
     7
370
     9
100
AcDbText
 10
-1542.049758791044
 20
-568.4857742926497
 30
0.0
 40
22.86
  1
補強材：ＦＢ３×１０～３本／枚
 50
0.0001495451972
 41
1.155555555555555
  7
ＭＳ ゴシック
100
AcDbText
  0
TEXT
  5
307
330
1F
100
AcDbEntity
  8
D-4
  6
Continuous
 62
     2
370
     9
100
AcDbText
 10
-762.8078700318205
 20
-462.978616105632
 30
0.0
 40
30.48
  1
25
 50
90.0000025
 41
1.062499999999999
  7
ＭＳ ゴシック
100
AcDbText
  0
TEXT
  5
308
330
1F
100
AcDbEntity
  8
D-5
  6
Continuous
 62
     7
370
     9
100
AcDbText
 10
-194.4976773133146
 20
-268.7926091436438
 30
0.0
 40
22.86
  1
溶接用アンカー
 41
1.142857142857143
  7
ＭＳ ゴシック
100
AcDbText
  0
TEXT
  5
309
330
1F
100
AcDbEntity
  8
D-5
  6
Continuous
 62
     2
370
     9
100
AcDbText
 10
395.076449883951
 20
-777.4097030309731
 30
0.0
 40
30.48
  1
ステンレス製受枠　ＳＦ１５Ｂ（四方受四方枠）
 41
1.119318181818182
  7
ＭＳ ゴシック
100
AcDbText
  0
TEXT
  5
30A
330
1F
100
AcDbEntity
  8
D-5
  6
Continuous
 62
     2
370
     9
100
AcDbText
 10
395.0769076476229
 20
-505.147454038053
 30
0.0
 40
30.48
  1
ステンレス製排水用蓋　ＳＺ－Ｂ－１５　３５０×３５０×１５
 41
1.120689655172413
  7
ＭＳ ゴシック
100
AcDbText
  0
TEXT
  5
30B
330
1F
100
AcDbEntity
  8
F-4
  6
Continuous
 62
     2
370
     9
100
AcDbText
 10
-677.5001708881274
 20
-1374.169574580405
 30
0.0
 40
30.48
  1
ＳＺ－Ｂ－１５　３５０×３５０×１５＋ＳＦ１５Ｂ（四方受四方枠）
 41
0.8992187499999998
  7
ＭＳ ゴシック
100
AcDbText
  0
TEXT
  5
30C
330
1F
100
AcDbEntity
  8
D-4
  6
Continuous
 62
     2
370
     9
100
AcDbText
 10
-1169.352871405112
 20
-203.8077514318518
 30
0.0
 40
30.48
  1
□300
 41
1.1
  7
ＭＳ ゴシック
100
AcDbText
  0
TEXT
  5
30D
330
1F
100
AcDbEntity
  8
D-4
  6
Continuous
 62
     2
370
     9
100
AcDbText
 10
-1169.352871405112
 20
-95.00775143185182
 30
0.0
 40
30.48
  1
□350
 41
1.1
  7
ＭＳ ゴシック
100
AcDbText
  0
LINE
  5
30E
330
1F
100
AcDbEntity
  8
C-1
  6
Continuous
 62
     2
370
     9
100
AcDbLine
 10
-116.0001873841151
 20
509.000490667758
 30
0.0
 11
-116.0001873841151
 21
871.0003533386564
 31
0.0
  0
LINE
  5
30F
330
1F
100
AcDbEntity
  8
C-1
  6
Continuous
 62
     2
370
     9
100
AcDbLine
 10
-116.0001873841151
 20
871.0003533386564
 30
0.0
 11
245.9999194274081
 21
871.0003533386564
 31
0.0
  0
LINE
  5
310
330
1F
100
AcDbEntity
  8
C-1
  6
Continuous
 62
     2
370
     9
100
AcDbLine
 10
245.9999194274081
 20
509.000490667758
 30
0.0
 11
-116.0001873841151
 21
509.000490667758
 31
0.0
  0
LINE
  5
311
330
1F
100
AcDbEntity
  8
C-1
  6
Continuous
 62
     2
370
     9
100
AcDbLine
 10
245.9999194274081
 20
871.0003533386564
 30
0.0
 11
245.9999194274081
 21
509.000490667758
 31
0.0
  0
LINE
  5
312
330
1F
100
AcDbEntity
  8
C-4
  6
Continuous
 62
     7
370
     9
100
AcDbLine
 10
-354.9990887513027
 20
509.000490667758
 30
0.0
 11
-354.9990887513027
 21
871.0003533386564
 31
0.0
  0
LWPOLYLINE
  5
313
330
1F
100
AcDbEntity
  8
C-4
  6
Continuous
 62
     7
370
     9
100
AcDbPolyline
 90
        4
 70
     1
 43
1.0
 10
-354.4990887513028
 20
509.000490667758
 42
0.4142135623731
 10
-354.9990887513027
 20
509.5004906677579
 42
0.4142135623731
 10
-355.4990887513027
 20
509.000490667758
 42
0.4142135623731
 10
-354.9990887513027
 20
508.500490667758
 42
0.4142135623731
  0
LWPOLYLINE
  5
314
330
1F
100
AcDbEntity
  8
C-4
  6
Continuous
 62
     7
370
     9
100
AcDbPolyline
 90
        4
 70
     1
 43
1.0
 10
-354.4990887513028
 20
871.0003533386564
 42
0.4142135623731
 10
-354.9990887513027
 20
871.5003533386563
 42
0.4142135623731
 10
-355.4990887513027
 20
871.0003533386564
 42
0.4142135623731
 10
-354.9990887513027
 20
870.5003533386564
 42
0.4142135623731
  0
LINE
  5
315
330
1F
100
AcDbEntity
  8
C-4
  6
Continuous
 62
     7
370
     9
100
AcDbLine
 10
-357.9990887513027
 20
509.000490667758
 30
0.0
 11
-136.0001873841151
 21
509.000490667758
 31
0.0
  0
LINE
  5
316
330
1F
100
AcDbEntity
  8
C-4
  6
Continuous
 62
     7
370
     9
100
AcDbLine
 10
-357.9990887513027
 20
871.0003533386564
 30
0.0
 11
-136.0001873841151
 21
871.0003533386564
 31
0.0
  0
TEXT
  5
317
330
1F
100
AcDbEntity
  8
C-4
  6
Continuous
 62
     2
370
   211
100
AcDbText
 10
-366.6390887513027
 20
657.5004220032071
 30
0.0
 40
30.48
  1
362
 50
90.0
 41
1.083333333333333
  7
ＭＳ ゴシック
100
AcDbText
  0
LWPOLYLINE
  5
318
330
1F
100
AcDbEntity
  8
C-4
  6
Continuous
 62
     7
370
     9
100
AcDbPolyline
 90
        4
 70
     1
 43
1.0
 10
-299.4990887513028
 20
509.000490667758
 42
0.4142135623731
 10
-299.9990887513028
 20
509.5004906677579
 42
0.4142135623731
 10
-300.4990887513028
 20
509.000490667758
 42
0.4142135623731
 10
-299.9990887513028
 20
508.500490667758
 42
0.4142135623731
  0
LWPOLYLINE
  5
319
330
1F
100
AcDbEntity
  8
C-4
  6
Continuous
 62
     7
370
     9
100
AcDbPolyline
 90
        4
 70
     1
 43
1.0
 10
-299.4990887513028
 20
514.000490667758
 42
0.4142135623731
 10
-299.9990887513028
 20
514.500490667758
 42
0.4142135623731
 10
-300.4990887513028
 20
514.000490667758
 42
0.4142135623731
 10
-299.9990887513028
 20
513.500490667758
 42
0.4142135623731
  0
LINE
  5
31A
330
1F
100
AcDbEntity
  8
C-4
  6
Continuous
 62
     7
370
     9
100
AcDbLine
 10
-302.9990887513028
 20
514.000490667758
 30
0.0
 11
-131.0001873841151
 21
514.000490667758
 31
0.0
  0
LINE
  5
31B
330
1F
100
AcDbEntity
  8
C-4
  6
Continuous
 62
     7
370
     9
100
AcDbLine
 10
-299.9990887513028
 20
514.000490667758
 30
0.0
 11
-299.9990887513028
 21
515.0002007507658
 31
0.0
  0
LWPOLYLINE
  5
31C
330
1F
100
AcDbEntity
  8
C-4
  6
Continuous
 62
     7
370
     9
100
AcDbPolyline
 90
        4
 70
     1
 43
1.0
 10
-299.4990887513028
 20
515.0002007507658
 42
0.4142135623731
 10
-299.9990887513028
 20
515.5002007507658
 42
0.4142135623731
 10
-300.4990887513028
 20
515.0002007507658
 42
0.4142135623731
 10
-299.9990887513028
 20
514.5002007507658
 42
0.4142135623731
  0
LINE
  5
31D
330
1F
100
AcDbEntity
  8
C-4
  6
Continuous
 62
     7
370
     9
100
AcDbLine
 10
-302.9990887513028
 20
515.0002007507658
 30
0.0
 11
-129.9998822083342
 21
515.0002007507658
 31
0.0
  0
LINE
  5
31E
330
1F
100
AcDbEntity
  8
C-4
  6
Continuous
 62
     7
370
     9
100
AcDbLine
 10
-299.9990887513028
 20
515.0002007507658
 30
0.0
 11
-299.9990887513027
 21
865.0001702331878
 31
0.0
  0
LWPOLYLINE
  5
31F
330
1F
100
AcDbEntity
  8
C-4
  6
Continuous
 62
     7
370
     9
100
AcDbPolyline
 90
        4
 70
     1
 43
1.0
 10
-299.4990887513027
 20
865.0001702331878
 42
0.4142135623731
 10
-299.9990887513027
 20
865.5001702331878
 42
0.4142135623731
 10
-300.4990887513027
 20
865.0001702331878
 42
0.4142135623731
 10
-299.9990887513027
 20
864.5001702331878
 42
0.4142135623731
  0
LINE
  5
320
330
1F
100
AcDbEntity
  8
C-4
  6
Continuous
 62
     7
370
     9
100
AcDbLine
 10
-302.9990887513027
 20
865.0001702331878
 30
0.0
 11
-129.9998822083342
 21
865.0001702331878
 31
0.0
  0
TEXT
  5
321
330
1F
100
AcDbEntity
  8
C-4
  6
Continuous
 62
     2
370
   211
100
AcDbText
 10
-311.6390887513027
 20
657.5001854919767
 30
0.0
 40
30.48
  1
350
 50
90.0
 41
1.083333333333333
  7
ＭＳ ゴシック
100
AcDbText
  0
LINE
  5
322
330
1F
100
AcDbEntity
  8
C-4
  6
Continuous
 62
     7
370
     9
100
AcDbLine
 10
-299.9990887513027
 20
865.0001702331878
 30
0.0
 11
-299.9990887513027
 21
866.0003533386564
 31
0.0
  0
LWPOLYLINE
  5
323
330
1F
100
AcDbEntity
  8
C-4
  6
Continuous
 62
     7
370
     9
100
AcDbPolyline
 90
        4
 70
     1
 43
1.0
 10
-299.4990887513027
 20
866.0003533386564
 42
0.4142135623731
 10
-299.9990887513027
 20
866.5003533386563
 42
0.4142135623731
 10
-300.4990887513027
 20
866.0003533386564
 42
0.4142135623731
 10
-299.9990887513027
 20
865.5003533386564
 42
0.4142135623731
  0
LINE
  5
324
330
1F
100
AcDbEntity
  8
C-4
  6
Continuous
 62
     7
370
     9
100
AcDbLine
 10
-302.9990887513027
 20
866.0003533386564
 30
0.0
 11
-131.0001873841151
 21
866.0003533386564
 31
0.0
  0
LWPOLYLINE
  5
325
330
1F
100
AcDbEntity
  8
C-4
  6
Continuous
 62
     7
370
     9
100
AcDbPolyline
 90
        4
 70
     1
 43
1.0
 10
-299.4990887513027
 20
871.0003533386564
 42
0.4142135623731
 10
-299.9990887513027
 20
871.5003533386563
 42
0.4142135623731
 10
-300.4990887513027
 20
871.0003533386564
 42
0.4142135623731
 10
-299.9990887513027
 20
870.5003533386564
 42
0.4142135623731
  0
TEXT
  5
326
330
1F
100
AcDbEntity
  8
C-4
  6
Continuous
 62
     2
370
   211
100
AcDbText
 10
-311.6390887513027
 20
834.8717099586555
 30
0.0
 40
30.48
  1
1
 50
90.0
 41
0.9999999999999998
  7
ＭＳ ゴシック
100
AcDbText
  0
TEXT
  5
327
330
1F
100
AcDbEntity
  8
C-4
  6
Continuous
 62
     2
370
   211
100
AcDbText
 10
-311.6390887513027
 20
880.2333740521988
 30
0.0
 40
30.48
  1
5
 50
90.0
 41
0.9999999999999998
  7
ＭＳ ゴシック
100
AcDbText
  0
LINE
  5
328
330
1F
100
AcDbEntity
  8
C-4
  6
Continuous
 62
     7
370
     9
100
AcDbLine
 10
-299.9990887513027
 20
866.0003533386564
 30
0.0
 11
-299.9990887513027
 21
902.9746901610856
 31
0.0
  0
TEXT
  5
329
330
1F
100
AcDbEntity
  8
C-4
  6
Continuous
 62
     2
370
   211
100
AcDbText
 10
-311.6390887513028
 20
481.0631368310604
 30
0.0
 40
30.48
  1
5
 50
90.0
 41
0.9999999999999998
  7
ＭＳ ゴシック
100
AcDbText
  0
TEXT
  5
32A
330
1F
100
AcDbEntity
  8
C-4
  6
Continuous
 62
     2
370
   211
100
AcDbText
 10
-311.6390887513028
 20
524.2279136648523
 30
0.0
 40
30.48
  1
1
 50
90.0
 41
0.9999999999999998
  7
ＭＳ ゴシック
100
AcDbText
  0
LINE
  5
32B
330
1F
100
AcDbEntity
  8
C-4
  6
Continuous
 62
     7
370
     9
100
AcDbLine
 10
-299.9990887513028
 20
477.0175681531946
 30
0.0
 11
-299.9990887513028
 21
514.000490667758
 31
0.0
  0
LINE
  5
32C
330
1F
100
AcDbEntity
  8
C-4
  6
Continuous
 62
     7
370
     9
100
AcDbLine
 10
245.9999194274081
 20
1054.999865057406
 30
0.0
 11
-116.0001873841151
 21
1054.999865057406
 31
0.0
  0
LWPOLYLINE
  5
32D
330
1F
100
AcDbEntity
  8
C-4
  6
Continuous
 62
     7
370
     9
100
AcDbPolyline
 90
        4
 70
     1
 43
1.0
 10
246.4999194274081
 20
1054.999865057406
 42
0.4142135623731
 10
245.9999194274081
 20
1055.499865057406
 42
0.4142135623731
 10
245.4999194274081
 20
1054.999865057406
 42
0.4142135623731
 10
245.9999194274081
 20
1054.499865057406
 42
0.4142135623731
  0
LWPOLYLINE
  5
32E
330
1F
100
AcDbEntity
  8
C-4
  6
Continuous
 62
     7
370
     9
100
AcDbPolyline
 90
        4
 70
     1
 43
1.0
 10
-115.5001873841151
 20
1054.999865057406
 42
0.4142135623731
 10
-116.0001873841151
 20
1055.499865057406
 42
0.4142135623731
 10
-116.5001873841151
 20
1054.999865057406
 42
0.4142135623731
 10
-116.0001873841151
 20
1054.499865057406
 42
0.4142135623731
  0
LINE
  5
32F
330
1F
100
AcDbEntity
  8
C-4
  6
Continuous
 62
     7
370
     9
100
AcDbLine
 10
245.9999194274081
 20
1057.999865057406
 30
0.0
 11
245.9999194274081
 21
891.0003533386564
 31
0.0
  0
LINE
  5
330
330
1F
100
AcDbEntity
  8
C-4
  6
Continuous
 62
     7
370
     9
100
AcDbLine
 10
-116.0001873841151
 20
1057.999865057406
 30
0.0
 11
-116.0001873841151
 21
891.0003533386564
 31
0.0
  0
TEXT
  5
331
330
1F
100
AcDbEntity
  8
C-4
  6
Continuous
 62
     2
370
   211
100
AcDbText
 10
32.49986602164654
 20
1066.639865057406
 30
0.0
 40
30.48
  1
362
 41
1.083333333333333
  7
ＭＳ ゴシック
100
AcDbText
  0
LWPOLYLINE
  5
332
330
1F
100
AcDbEntity
  8
C-4
  6
Continuous
 62
     7
370
     9
100
AcDbPolyline
 90
        4
 70
     1
 43
1.0
 10
246.4999194274081
 20
999.9998650574064
 42
0.4142135623731
 10
245.9999194274081
 20
1000.499865057406
 42
0.4142135623731
 10
245.4999194274081
 20
999.9998650574064
 42
0.4142135623731
 10
245.9999194274081
 20
999.4998650574064
 42
0.4142135623731
  0
LWPOLYLINE
  5
333
330
1F
100
AcDbEntity
  8
C-4
  6
Continuous
 62
     7
370
     9
100
AcDbPolyline
 90
        4
 70
     1
 43
1.0
 10
241.4999194274081
 20
999.9998650574064
 42
0.4142135623731
 10
240.9999194274081
 20
1000.499865057406
 42
0.4142135623731
 10
240.4999194274081
 20
999.9998650574064
 42
0.4142135623731
 10
240.9999194274081
 20
999.4998650574064
 42
0.4142135623731
  0
LINE
  5
334
330
1F
100
AcDbEntity
  8
C-4
  6
Continuous
 62
     7
370
     9
100
AcDbLine
 10
240.9999194274081
 20
1002.999865057406
 30
0.0
 11
240.9999194274081
 21
886.0003533386564
 31
0.0
  0
LINE
  5
335
330
1F
100
AcDbEntity
  8
C-4
  6
Continuous
 62
     7
370
     9
100
AcDbLine
 10
240.9999194274081
 20
999.9998650574064
 30
0.0
 11
240.0001177916658
 21
999.9998650574064
 31
0.0
  0
LWPOLYLINE
  5
336
330
1F
100
AcDbEntity
  8
C-4
  6
Continuous
 62
     7
370
     9
100
AcDbPolyline
 90
        4
 70
     1
 43
1.0
 10
240.5001177916658
 20
999.9998650574064
 42
0.4142135623731
 10
240.0001177916658
 20
1000.499865057406
 42
0.4142135623731
 10
239.5001177916658
 20
999.9998650574064
 42
0.4142135623731
 10
240.0001177916658
 20
999.4998650574064
 42
0.4142135623731
  0
LINE
  5
337
330
1F
100
AcDbEntity
  8
C-4
  6
Continuous
 62
     7
370
     9
100
AcDbLine
 10
240.0001177916658
 20
1002.999865057406
 30
0.0
 11
240.0001177916658
 21
885.0001702331878
 31
0.0
  0
LINE
  5
338
330
1F
100
AcDbEntity
  8
C-4
  6
Continuous
 62
     7
370
     9
100
AcDbLine
 10
240.0001177916658
 20
999.9998650574064
 30
0.0
 11
-109.9998822083342
 21
999.9998650574064
 31
0.0
  0
LWPOLYLINE
  5
339
330
1F
100
AcDbEntity
  8
C-4
  6
Continuous
 62
     7
370
     9
100
AcDbPolyline
 90
        4
 70
     1
 43
1.0
 10
-109.4998822083342
 20
999.9998650574064
 42
0.4142135623731
 10
-109.9998822083342
 20
1000.499865057406
 42
0.4142135623731
 10
-110.4998822083342
 20
999.9998650574064
 42
0.4142135623731
 10
-109.9998822083342
 20
999.4998650574064
 42
0.4142135623731
  0
LINE
  5
33A
330
1F
100
AcDbEntity
  8
C-4
  6
Continuous
 62
     7
370
     9
100
AcDbLine
 10
-109.9998822083342
 20
1002.999865057406
 30
0.0
 11
-109.9998822083342
 21
885.0001702331878
 31
0.0
  0
TEXT
  5
33B
330
1F
100
AcDbEntity
  8
C-4
  6
Continuous
 62
     2
370
   211
100
AcDbText
 10
32.50011779166584
 20
1011.639865057406
 30
0.0
 40
30.48
  1
350
 41
1.083333333333333
  7
ＭＳ ゴシック
100
AcDbText
  0
LINE
  5
33C
330
1F
100
AcDbEntity
  8
C-4
  6
Continuous
 62
     7
370
     9
100
AcDbLine
 10
-109.9998822083342
 20
999.9998650574064
 30
0.0
 11
-111.0001873841151
 21
999.9998650574064
 31
0.0
  0
LWPOLYLINE
  5
33D
330
1F
100
AcDbEntity
  8
C-4
  6
Continuous
 62
     7
370
     9
100
AcDbPolyline
 90
        4
 70
     1
 43
1.0
 10
-110.5001873841151
 20
999.9998650574064
 42
0.4142135623731
 10
-111.0001873841151
 20
1000.499865057406
 42
0.4142135623731
 10
-111.5001873841151
 20
999.9998650574064
 42
0.4142135623731
 10
-111.0001873841151
 20
999.4998650574064
 42
0.4142135623731
  0
LINE
  5
33E
330
1F
100
AcDbEntity
  8
C-4
  6
Continuous
 62
     7
370
     9
100
AcDbLine
 10
-111.0001873841151
 20
1002.999865057406
 30
0.0
 11
-111.0001873841151
 21
886.0003533386564
 31
0.0
  0
LWPOLYLINE
  5
33F
330
1F
100
AcDbEntity
  8
C-4
  6
Continuous
 62
     7
370
     9
100
AcDbPolyline
 90
        4
 70
     1
 43
1.0
 10
-115.5001873841151
 20
999.9998650574064
 42
0.4142135623731
 10
-116.0001873841151
 20
1000.499865057406
 42
0.4142135623731
 10
-116.5001873841151
 20
999.9998650574064
 42
0.4142135623731
 10
-116.0001873841151
 20
999.4998650574064
 42
0.4142135623731
  0
TEXT
  5
340
330
1F
100
AcDbEntity
  8
C-4
  6
Continuous
 62
     2
370
   211
100
AcDbText
 10
-100.114007165987
 20
1011.639865057406
 30
0.0
 40
30.48
  1
1
 41
0.9999999999999998
  7
ＭＳ ゴシック
100
AcDbText
  0
TEXT
  5
341
330
1F
100
AcDbEntity
  8
C-4
  6
Continuous
 62
     2
370
   211
100
AcDbText
 10
-145.5673830937033
 20
1011.639865057406
 30
0.0
 40
30.48
  1
5
 41
0.9999999999999998
  7
ＭＳ ゴシック
100
AcDbText
  0
LINE
  5
342
330
1F
100
AcDbEntity
  8
C-4
  6
Continuous
 62
     7
370
     9
100
AcDbLine
 10
-111.0001873841151
 20
999.9998650574064
 30
0.0
 11
-149.8825770108916
 21
999.9998650574064
 31
0.0
  0
TEXT
  5
343
330
1F
100
AcDbEntity
  8
C-4
  6
Continuous
 62
     2
370
   211
100
AcDbText
 10
210.8676344660469
 20
1011.639865057406
 30
0.0
 40
30.48
  1
1
 41
0.9999999999999998
  7
ＭＳ ゴシック
100
AcDbText
  0
TEXT
  5
344
330
1F
100
AcDbEntity
  8
C-4
  6
Continuous
 62
     2
370
   211
100
AcDbText
 10
253.444214448971
 20
1011.639865057406
 30
0.0
 40
30.48
  1
5
 41
0.9999999999999998
  7
ＭＳ ゴシック
100
AcDbText
  0
LINE
  5
345
330
1F
100
AcDbEntity
  8
C-4
  6
Continuous
 62
     7
370
     9
100
AcDbLine
 10
280.2710873637887
 20
999.9998650574064
 30
0.0
 11
240.9999194274081
 21
999.9998650574064
 31
0.0
  0
TEXT
  5
346
330
1F
100
AcDbEntity
  8
D-4
  6
Continuous
 62
     2
370
     9
100
AcDbText
 10
-1169.352871405112
 20
15.69224856814817
 30
0.0
 40
30.48
  1
□362
 41
1.1
  7
ＭＳ ゴシック
100
AcDbText
  0
LINE
  5
347
330
1F
100
AcDbEntity
  8
D-4
  6
Continuous
 62
     7
370
     9
100
AcDbLine
 10
-1329.352871405112
 20
-337.8669027380042
 30
0.0
 11
-1329.352871405112
 21
-412.8669027380041
 31
0.0
  0
LWPOLYLINE
  5
348
330
1F
100
AcDbEntity
  8
D-4
  6
Continuous
 62
     7
370
     9
100
AcDbPolyline
 90
        4
 70
     1
 43
1.0
 10
-1328.852871405111
 20
-337.8669027380042
 42
0.4142135623731
 10
-1329.352871405112
 20
-337.3669027380042
 42
0.4142135623731
 10
-1329.852871405112
 20
-337.8669027380042
 42
0.4142135623731
 10
-1329.352871405112
 20
-338.3669027380041
 42
0.4142135623731
  0
LWPOLYLINE
  5
349
330
1F
100
AcDbEntity
  8
D-4
  6
Continuous
 62
     7
370
     9
100
AcDbPolyline
 90
        4
 70
     1
 43
1.0
 10
-1328.852871405111
 20
-412.8669027380041
 42
0.4142135623731
 10
-1329.352871405112
 20
-412.3669027380041
 42
0.4142135623731
 10
-1329.852871405112
 20
-412.8669027380041
 42
0.4142135623731
 10
-1329.352871405112
 20
-413.3669027380041
 42
0.4142135623731
  0
LINE
  5
34A
330
1F
100
AcDbEntity
  8
D-4
  6
Continuous
 62
     7
370
     9
100
AcDbLine
 10
-1332.352871405112
 20
-337.8669027380042
 30
0.0
 11
-1199.352871405112
 21
-337.8669027380042
 31
0.0
  0
TEXT
  5
34B
330
1F
100
AcDbEntity
  8
D-4
  6
Continuous
 62
     2
370
   211
100
AcDbText
 10
-1340.992871405112
 20
-396.6169027380042
 30
0.0
 40
30.48
  1
15
 50
90.0
 41
1.0625
  7
ＭＳ ゴシック
100
AcDbText
  0
LINE
  5
34C
330
1F
100
AcDbEntity
  8
D-4
  6
Continuous
 62
     7
370
     9
100
AcDbLine
 10
-1254.352871405112
 20
-337.8669027380042
 30
0.0
 11
-1254.352871405112
 21
-352.8669027380042
 31
0.0
  0
LWPOLYLINE
  5
34D
330
1F
100
AcDbEntity
  8
D-4
  6
Continuous
 62
     7
370
     9
100
AcDbPolyline
 90
        4
 70
     1
 43
1.0
 10
-1253.852871405112
 20
-337.8669027380042
 42
0.4142135623731
 10
-1254.352871405112
 20
-337.3669027380042
 42
0.4142135623731
 10
-1254.852871405112
 20
-337.8669027380042
 42
0.4142135623731
 10
-1254.352871405112
 20
-338.3669027380041
 42
0.4142135623731
  0
LWPOLYLINE
  5
34E
330
1F
100
AcDbEntity
  8
D-4
  6
Continuous
 62
     7
370
     9
100
AcDbPolyline
 90
        4
 70
     1
 43
1.0
 10
-1253.852871405112
 20
-352.8669027380042
 42
0.4142135623731
 10
-1254.352871405112
 20
-352.3669027380042
 42
0.4142135623731
 10
-1254.852871405112
 20
-352.8669027380042
 42
0.4142135623731
 10
-1254.352871405112
 20
-353.3669027380041
 42
0.4142135623731
  0
LINE
  5
34F
330
1F
100
AcDbEntity
  8
D-4
  6
Continuous
 62
     7
370
     9
100
AcDbLine
 10
-1257.352871405112
 20
-352.8669027380042
 30
0.0
 11
-1199.352871405112
 21
-352.8669027380042
 31
0.0
  0
LINE
  5
350
330
1F
100
AcDbEntity
  8
D-4
  6
Continuous
 62
     7
370
     9
100
AcDbLine
 10
-1332.352871405112
 20
-412.8669027380041
 30
0.0
 11
-1199.352871405112
 21
-412.8669027380041
 31
0.0
  0
TEXT
  5
351
330
1F
100
AcDbEntity
  8
D-4
  6
Continuous
 62
     2
370
   211
100
AcDbText
 10
-1265.992871405112
 20
-327.2437422925258
 30
0.0
 40
30.48
  1
3
 50
90.0
 41
1.000000000000002
  7
ＭＳ ゴシック
100
AcDbText
  0
LINE
  5
352
330
1F
100
AcDbEntity
  8
D-4
  6
Continuous
 62
     7
370
     9
100
AcDbLine
 10
-1254.352871405112
 20
-337.8669027380042
 30
0.0
 11
-1254.352871405112
 21
-304.3553748632676
 31
0.0
  0
ENDSEC
  0
SECTION
  2
OBJECTS
  0
DICTIONARY
  5
C
330
0
100
AcDbDictionary
281
     1
  3
ACAD_GROUP
350
D
  3
ACAD_LAYOUT
350
1A
  3
ACAD_MLEADERSTYLE
350
354
  3
ACAD_MLINESTYLE
350
17
  3
ACAD_PLOTSETTINGS
350
19
  3
ACAD_PLOTSTYLENAME
350
E
  3
ACAD_TABLESTYLE
350
353
  3
ACAD_VISUALSTYLE
350
2A
  3
AcDbVariableDictionary
350
355
  0
DICTIONARY
  5
D
102
{ACAD_REACTORS
330
C
102
}
330
C
100
AcDbDictionary
281
     1
  0
DICTIONARY
  5
1A
102
{ACAD_REACTORS
330
C
102
}
330
C
100
AcDbDictionary
281
     1
  3
Layout1
350
1E
  3
Layout2
350
26
  3
Model
350
22
  0
DICTIONARY
  5
354
102
{ACAD_REACTORS
330
C
102
}
330
C
100
AcDbDictionary
281
     1
  0
DICTIONARY
  5
17
102
{ACAD_REACTORS
330
C
102
}
330
C
100
AcDbDictionary
281
     1
  3
Standard
350
18
  0
DICTIONARY
  5
19
102
{ACAD_REACTORS
330
C
102
}
330
C
100
AcDbDictionary
281
     1
  0
ACDBDICTIONARYWDFLT
  5
E
102
{ACAD_REACTORS
330
C
102
}
330
C
100
AcDbDictionary
281
     1
  3
Normal
350
F
100
AcDbDictionaryWithDefault
340
F
  0
DICTIONARY
  5
353
102
{ACAD_REACTORS
330
C
102
}
330
C
100
AcDbDictionary
281
     1
  0
DICTIONARY
  5
2A
102
{ACAD_REACTORS
330
C
102
}
330
C
100
AcDbDictionary
281
     1
  3
2dWireframe
350
2F
  3
3D Hidden
350
31
  3
3dWireframe
350
30
  3
Basic
350
32
  3
Brighten
350
36
  3
ColorChange
350
3A
  3
Conceptual
350
34
  3
Dim
350
35
  3
Facepattern
350
39
  3
Flat
350
2B
  3
FlatWithEdges
350
2C
  3
Gouraud
350
2D
  3
GouraudWithEdges
350
2E
  3
Linepattern
350
38
  3
Realistic
350
33
  3
Thicken
350
37
  0
DICTIONARY
  5
355
102
{ACAD_REACTORS
330
C
102
}
330
C
100
AcDbDictionary
281
     1
  3
PSOLHEIGHT
350
357
  3
PSOLWIDTH
350
356
  0
LAYOUT
  5
1E
102
{ACAD_REACTORS
330
1A
102
}
102
{ACAD_XDICTIONARY
360
358
102
}
330
1A
100
AcDbPlotSettings
  1

  2
none_device
  4

  6

 40
0.0
 41
0.0
 42
0.0
 43
0.0
 44
0.0
 45
0.0
 46
0.0
 47
0.0
 48
0.0
 49
0.0
140
0.0
141
0.0
142
1.0
143
1.0
 70
   688
 72
     0
 73
     0
 74
     5
  7

 75
    16
147
1.0
148
0.0
149
0.0
100
AcDbLayout
  1
Layout1
 70
     1
 71
     1
 10
0.0
 20
0.0
 11
420.0
 21
297.0
 12
0.0
 22
0.0
 32
0.0
 14
1.000000000000000E+20
 24
1.000000000000000E+20
 34
1.000000000000000E+20
 15
-1.000000000000000E+20
 25
-1.000000000000000E+20
 35
-1.000000000000000E+20
146
0.0
 13
0.0
 23
0.0
 33
0.0
 16
1.0
 26
0.0
 36
0.0
 17
0.0
 27
1.0
 37
0.0
 76
     0
330
1B
  0
LAYOUT
  5
26
102
{ACAD_REACTORS
330
1A
102
}
102
{ACAD_XDICTIONARY
360
35C
102
}
330
1A
100
AcDbPlotSettings
  1

  2
none_device
  4

  6

 40
0.0
 41
0.0
 42
0.0
 43
0.0
 44
0.0
 45
0.0
 46
0.0
 47
0.0
 48
0.0
 49
0.0
140
0.0
141
0.0
142
1.0
143
1.0
 70
   688
 72
     0
 73
     0
 74
     5
  7

 75
    16
147
1.0
148
0.0
149
0.0
100
AcDbLayout
  1
Layout2
 70
     1
 71
     2
 10
0.0
 20
0.0
 11
0.0
 21
0.0
 12
0.0
 22
0.0
 32
0.0
 14
0.0
 24
0.0
 34
0.0
 15
0.0
 25
0.0
 35
0.0
146
0.0
 13
0.0
 23
0.0
 33
0.0
 16
1.0
 26
0.0
 36
0.0
 17
0.0
 27
1.0
 37
0.0
 76
     0
330
23
  0
LAYOUT
  5
22
102
{ACAD_REACTORS
330
1A
102
}
102
{ACAD_XDICTIONARY
360
35A
102
}
330
1A
100
AcDbPlotSettings
  1

  2
none_device
  4

  6

 40
0.0
 41
0.0
 42
0.0
 43
0.0
 44
0.0
 45
0.0
 46
0.0
 47
0.0
 48
0.0
 49
0.0
140
0.0
141
0.0
142
1.0
143
1.0
 70
  1712
 72
     0
 73
     0
 74
     0
  7

 75
     0
147
1.0
148
0.0
149
0.0
100
AcDbLayout
  1
Model
 70
     1
 71
     0
 10
-2100.0
 20
-1485.0
 11
2100.0
 21
1485.0
 12
0.0
 22
0.0
 32
0.0
 14
-2100.0
 24
-1485.0
 34
0.0
 15
2100.0
 25
1485.0
 35
0.0
146
0.0
 13
0.0
 23
0.0
 33
0.0
 16
1.0
 26
0.0
 36
0.0
 17
0.0
 27
1.0
 37
0.0
 76
     0
330
1F
331
29
  0
MLINESTYLE
  5
18
102
{ACAD_REACTORS
330
17
102
}
330
17
100
AcDbMlineStyle
  2
Standard
 70
     0
  3

 62
   256
 51
90.0
 52
90.0
 71
     2
 49
0.5
 62
   256
  6
BYLAYER
 49
-0.5
 62
   256
  6
BYLAYER
  0
ACDBPLACEHOLDER
  5
F
102
{ACAD_REACTORS
330
E
102
}
330
E
  0
VISUALSTYLE
  5
2F
102
{ACAD_REACTORS
330
2A
102
}
330
2A
100
AcDbVisualStyle
  2
2dWireframe
 70
     4
 71
     0
 72
     2
 73
     0
 90
        0
 40
-0.6
 41
-30.0
 62
     5
 63
     7
 74
     1
 91
        4
 64
     7
 65
   257
 75
     1
175
     1
 42
1.0
 92
        0
 66
   257
 43
1.0
 76
     1
 77
     6
 78
     2
 67
     7
 79
     5
170
     0
171
     0
290
     0
174
     0
 93
        1
 44
0.0
173
     0
291
     0
 45
0.0
1001
ACAD
1000
AcDbSavedByObjectVersion
1070
     0
  0
VISUALSTYLE
  5
31
102
{ACAD_REACTORS
330
2A
102
}
330
2A
100
AcDbVisualStyle
  2
3D Hidden
 70
     6
 71
     1
 72
     2
 73
     2
 90
        0
 40
-0.6
 41
-30.0
 62
     5
 63
     7
 74
     2
 91
        2
 64
     7
 65
   257
 75
     2
175
     1
 42
40.0
 92
        0
 66
   257
 43
1.0
 76
     1
 77
     6
 78
     2
 67
     7
 79
     3
170
     0
171
     0
290
     0
174
     0
 93
        1
 44
0.0
173
     0
291
     0
 45
0.0
1001
ACAD
1000
AcDbSavedByObjectVersion
1070
     0
  0
VISUALSTYLE
  5
30
102
{ACAD_REACTORS
330
2A
102
}
330
2A
100
AcDbVisualStyle
  2
3dWireframe
 70
     5
 71
     0
 72
     2
 73
     0
 90
        0
 40
-0.6
 41
-30.0
 62
     5
 63
     7
 74
     1
 91
        4
 64
     7
 65
   257
 75
     1
175
     1
 42
1.0
 92
        0
 66
   257
 43
1.0
 76
     1
 77
     6
 78
     2
 67
     7
 79
     5
170
     0
171
     0
290
     0
174
     0
 93
        1
 44
0.0
173
     0
291
     0
 45
0.0
1001
ACAD
1000
AcDbSavedByObjectVersion
1070
     0
  0
VISUALSTYLE
  5
32
102
{ACAD_REACTORS
330
2A
102
}
330
2A
100
AcDbVisualStyle
  2
Basic
 70
     7
 71
     1
 72
     0
 73
     1
 90
        0
 40
-0.6
 41
-30.0
 62
     5
 63
     7
 74
     0
 91
        4
 64
     7
 65
   257
 75
     1
175
     1
 42
1.0
 92
        8
 66
     7
 43
1.0
 76
     1
 77
     6
 78
     2
 67
     7
 79
     5
170
     0
171
     0
290
     0
174
     0
 93
        1
 44
0.0
173
     0
291
     1
 45
0.0
1001
ACAD
1000
AcDbSavedByObjectVersion
1070
     0
  0
VISUALSTYLE
  5
36
102
{ACAD_REACTORS
330
2A
102
}
330
2A
100
AcDbVisualStyle
  2
Brighten
 70
    12
 71
     2
 72
     2
 73
     0
 90
        0
 40
-0.6
 41
-30.0
 62
     5
 63
     7
 74
     1
 91
        4
 64
     7
 65
   257
 75
     1
175
     1
 42
1.0
 92
        8
 66
     7
 43
1.0
 76
     1
 77
     6
 78
     2
 67
     7
 79
     5
170
     0
171
     0
290
     0
174
     0
 93
        1
 44
50.0
173
     0
291
     1
 45
0.0
1001
ACAD
1000
AcDbSavedByObjectVersion
1070
     0
  0
VISUALSTYLE
  5
3A
102
{ACAD_REACTORS
330
2A
102
}
330
2A
100
AcDbVisualStyle
  2
ColorChange
 70
    16
 71
     2
 72
     2
 73
     3
 90
        0
 40
-0.6
 41
-30.0
 62
     5
 63
     8
 74
     1
 91
        4
 64
     7
 65
   257
 75
     1
175
     1
 42
1.0
 92
        8
 66
     8
 43
1.0
 76
     1
 77
     6
 78
     2
 67
     7
 79
     5
170
     0
171
     0
290
     0
174
     0
 93
        1
 44
0.0
173
     0
291
     1
 45
0.0
1001
ACAD
1000
AcDbSavedByObjectVersion
1070
     0
  0
VISUALSTYLE
  5
34
102
{ACAD_REACTORS
330
2A
102
}
330
2A
100
AcDbVisualStyle
  2
Conceptual
 70
     9
 71
     3
 72
     2
 73
     0
 90
        0
 40
-0.6
 41
-30.0
 62
     5
 63
     7
 74
     2
 91
        2
 64
     7
 65
   257
 75
     1
175
     1
 42
40.0
 92
        8
 66
     7
 43
1.0
 76
     1
 77
     6
 78
     2
 67
     7
 79
     3
170
     0
171
     0
290
     0
174
     0
 93
        1
 44
0.0
173
     0
291
     0
 45
0.0
1001
ACAD
1000
AcDbSavedByObjectVersion
1070
     0
  0
VISUALSTYLE
  5
35
102
{ACAD_REACTORS
330
2A
102
}
330
2A
100
AcDbVisualStyle
  2
Dim
 70
    11
 71
     2
 72
     2
 73
     0
 90
        0
 40
-0.6
 41
-30.0
 62
     5
 63
     7
 74
     1
 91
        4
 64
     7
 65
   257
 75
     1
175
     1
 42
1.0
 92
        8
 66
     7
 43
1.0
 76
     1
 77
     6
 78
     2
 67
     7
 79
     5
170
     0
171
     0
290
     0
174
     0
 93
        1
 44
-50.0
173
     0
291
     1
 45
0.0
1001
ACAD
1000
AcDbSavedByObjectVersion
1070
     0
  0
VISUALSTYLE
  5
39
102
{ACAD_REACTORS
330
2A
102
}
330
2A
100
AcDbVisualStyle
  2
Facepattern
 70
    15
 71
     2
 72
     2
 73
     0
 90
        0
 40
-0.6
 41
-30.0
 62
     5
 63
     7
 74
     1
 91
        4
 64
     7
 65
   257
 75
     1
175
     1
 42
1.0
 92
        8
 66
     7
 43
1.0
 76
     1
 77
     6
 78
     2
 67
     7
 79
     5
170
     0
171
     0
290
     0
174
     0
 93
        1
 44
0.0
173
     0
291
     1
 45
0.0
1001
ACAD
1000
AcDbSavedByObjectVersion
1070
     0
  0
VISUALSTYLE
  5
2B
102
{ACAD_REACTORS
330
2A
102
}
330
2A
100
AcDbVisualStyle
  2
Flat
 70
     0
 71
     2
 72
     1
 73
     1
 90
        2
 40
-0.6
 41
30.0
 62
     5
 63
     7
 74
     0
 91
        4
 64
     7
 65
   257
 75
     1
175
     1
 42
1.0
 92
        8
 66
     7
 43
1.0
 76
     1
 77
     6
 78
     2
 67
     7
 79
     5
170
     0
171
     0
290
     0
174
     0
 93
       13
 44
0.0
173
     0
291
     1
 45
0.0
1001
ACAD
1000
AcDbSavedByObjectVersion
1070
     0
  0
VISUALSTYLE
  5
2C
102
{ACAD_REACTORS
330
2A
102
}
330
2A
100
AcDbVisualStyle
  2
FlatWithEdges
 70
     1
 71
     2
 72
     1
 73
     1
 90
        2
 40
-0.6
 41
30.0
 62
     5
 63
     7
 74
     1
 91
        4
 64
     7
 65
   257
 75
     1
175
     1
 42
1.0
 92
        0
 66
   257
 43
1.0
 76
     1
 77
     6
 78
     2
 67
     7
 79
     5
170
     0
171
     0
290
     0
174
     0
 93
       13
 44
0.0
173
     0
291
     1
 45
0.0
1001
ACAD
1000
AcDbSavedByObjectVersion
1070
     0
  0
VISUALSTYLE
  5
2D
102
{ACAD_REACTORS
330
2A
102
}
330
2A
100
AcDbVisualStyle
  2
Gouraud
 70
     2
 71
     2
 72
     2
 73
     1
 90
        2
 40
-0.6
 41
30.0
 62
     5
 63
     7
 74
     0
 91
        4
 64
     7
 65
   257
 75
     1
175
     1
 42
1.0
 92
        0
 66
     7
 43
1.0
 76
     1
 77
     6
 78
     2
 67
     7
 79
     5
170
     0
171
     0
290
     0
174
     0
 93
       13
 44
0.0
173
     0
291
     1
 45
0.0
1001
ACAD
1000
AcDbSavedByObjectVersion
1070
     0
  0
VISUALSTYLE
  5
2E
102
{ACAD_REACTORS
330
2A
102
}
330
2A
100
AcDbVisualStyle
  2
GouraudWithEdges
 70
     3
 71
     2
 72
     2
 73
     1
 90
        2
 40
-0.6
 41
30.0
 62
     5
 63
     7
 74
     1
 91
        4
 64
     7
 65
   257
 75
     1
175
     1
 42
1.0
 92
        0
 66
   257
 43
1.0
 76
     1
 77
     6
 78
     2
 67
     7
 79
     5
170
     0
171
     0
290
     0
174
     0
 93
       13
 44
0.0
173
     0
291
     1
 45
0.0
1001
ACAD
1000
AcDbSavedByObjectVersion
1070
     0
  0
VISUALSTYLE
  5
38
102
{ACAD_REACTORS
330
2A
102
}
330
2A
100
AcDbVisualStyle
  2
Linepattern
 70
    14
 71
     2
 72
     2
 73
     0
 90
        0
 40
-0.6
 41
-30.0
 62
     5
 63
     7
 74
     1
 91
        4
 64
     7
 65
   257
 75
     7
175
     7
 42
1.0
 92
        8
 66
     7
 43
1.0
 76
     1
 77
     6
 78
     2
 67
     7
 79
     5
170
     0
171
     0
290
     0
174
     0
 93
        1
 44
0.0
173
     0
291
     1
 45
0.0
1001
ACAD
1000
AcDbSavedByObjectVersion
1070
     0
  0
VISUALSTYLE
  5
33
102
{ACAD_REACTORS
330
2A
102
}
330
2A
100
AcDbVisualStyle
  2
Realistic
 70
     8
 71
     2
 72
     2
 73
     0
 90
        0
 40
-0.6
 41
-30.0
 62
     5
 63
     7
 74
     1
 91
        0
 64
     7
 65
   257
 75
     1
175
     1
 42
1.0
 92
        8
 66
     8
 43
1.0
 76
     1
 77
     6
 78
     2
 67
     7
 79
     5
170
     0
171
     0
290
     0
174
     0
 93
       13
 44
0.0
173
     0
291
     0
 45
0.0
1001
ACAD
1000
AcDbSavedByObjectVersion
1070
     0
  0
VISUALSTYLE
  5
37
102
{ACAD_REACTORS
330
2A
102
}
330
2A
100
AcDbVisualStyle
  2
Thicken
 70
    13
 71
     2
 72
     2
 73
     0
 90
        0
 40
-0.6
 41
-30.0
 62
     5
 63
     7
 74
     1
 91
        4
 64
     7
 65
   257
 75
     1
175
     1
 42
1.0
 92
       12
 66
     7
 43
1.0
 76
     1
 77
     6
 78
     2
 67
     7
 79
     5
170
     0
171
     0
290
     0
174
     0
 93
        1
 44
0.0
173
     0
291
     1
 45
0.0
1001
ACAD
1000
AcDbSavedByObjectVersion
1070
     0
  0
DICTIONARYVAR
  5
357
102
{ACAD_REACTORS
330
355
102
}
330
355
100
DictionaryVariables
280
     0
  1
80.000000
  0
DICTIONARYVAR
  5
356
102
{ACAD_REACTORS
330
355
102
}
330
355
100
DictionaryVariables
280
     0
  1
5.000000
  0
DICTIONARY
  5
358
330
1E
100
AcDbDictionary
280
     1
281
     1
  3
ACAD_XREC_ROUNDTRIP
360
359
  0
DICTIONARY
  5
35C
330
26
100
AcDbDictionary
280
     1
281
     1
  3
ACAD_XREC_ROUNDTRIP
360
35D
  0
DICTIONARY
  5
35A
330
22
100
AcDbDictionary
280
     1
281
     1
  3
ACAD_XREC_ROUNDTRIP
360
35B
  0
XRECORD
  5
359
102
{ACAD_REACTORS
330
358
102
}
330
358
100
AcDbXrecord
280
     1
102
SHADEPLOT
 70
     0
102
SHADEPLOTRESLEVEL
 70
     5
102
SHADEPLOTCUSTOMDPI
 70
   300
  0
XRECORD
  5
35D
102
{ACAD_REACTORS
330
35C
102
}
330
35C
100
AcDbXrecord
280
     1
102
SHADEPLOT
 70
     0
102
SHADEPLOTRESLEVEL
 70
     5
102
SHADEPLOTCUSTOMDPI
 70
   300
  0
XRECORD
  5
35B
102
{ACAD_REACTORS
330
35A
102
}
330
35A
100
AcDbXrecord
280
     1
102
SHADEPLOT
 70
     0
102
SHADEPLOTRESLEVEL
 70
     5
102
SHADEPLOTCUSTOMDPI
 70
   300
  0
ENDSEC
  0
EOF
